  0
SECTION
  2
HEADER
  9
$ACADVER
  1
AC1024
  9
$ACADMAINTVER
 70
     6
  9
$DWGCODEPAGE
  3
ANSI_932
  9
$INSBASE
 10
0.0
 20
0.0
 30
0.0
  9
$EXTMIN
 10
-4455.0
 20
-3150.0
 30
0.0
  9
$EXTMAX
 10
4455.0
 20
3150.0
 30
0.0
  9
$LIMMIN
 10
-4455.0
 20
-3150.0
  9
$LIMMAX
 10
4455.0
 20
3150.0
  9
$ORTHOMODE
 70
     0
  9
$REGENMODE
 70
     1
  9
$FILLMODE
 70
     1
  9
$QTEXTMODE
 70
     0
  9
$MIRRTEXT
 70
     1
  9
$LTSCALE
 40
30.0
  9
$ATTMODE
 70
     1
  9
$TEXTSIZE
 40
2.5
  9
$TRACEWID
 40
1.0
  9
$TEXTSTYLE
  7
Standard
  9
$CLAYER
  8
0
  9
$CELTYPE
  6
ByLayer
  9
$CECOLOR
 62
   256
  9
$CELTSCALE
 40
1.0
  9
$DISPSILH
 70
     0
  9
$DIMSCALE
 40
1.0
  9
$DIMASZ
 40
2.5
  9
$DIMEXO
 40
0.625
  9
$DIMDLI
 40
3.75
  9
$DIMRND
 40
0.0
  9
$DIMDLE
 40
0.0
  9
$DIMEXE
 40
1.25
  9
$DIMTP
 40
0.0
  9
$DIMTM
 40
0.0
  9
$DIMTXT
 40
2.5
  9
$DIMCEN
 40
2.5
  9
$DIMTSZ
 40
0.0
  9
$DIMTOL
 70
     0
  9
$DIMLIM
 70
     0
  9
$DIMTIH
 70
     0
  9
$DIMTOH
 70
     0
  9
$DIMSE1
 70
     0
  9
$DIMSE2
 70
     0
  9
$DIMTAD
 70
     1
  9
$DIMZIN
 70
     8
  9
$DIMBLK
  1

  9
$DIMASO
 70
     1
  9
$DIMSHO
 70
     1
  9
$DIMPOST
  1

  9
$DIMAPOST
  1

  9
$DIMALT
 70
     0
  9
$DIMALTD
 70
     3
  9
$DIMALTF
 40
0.03937007874016
  9
$DIMLFAC
 40
1.0
  9
$DIMTOFL
 70
     1
  9
$DIMTVP
 40
0.0
  9
$DIMTIX
 70
     0
  9
$DIMSOXD
 70
     0
  9
$DIMSAH
 70
     0
  9
$DIMBLK1
  1

  9
$DIMBLK2
  1

  9
$DIMSTYLE
  2
ISO-25
  9
$DIMCLRD
 70
     0
  9
$DIMCLRE
 70
     0
  9
$DIMCLRT
 70
     0
  9
$DIMTFAC
 40
1.0
  9
$DIMGAP
 40
0.625
  9
$DIMJUST
 70
     0
  9
$DIMSD1
 70
     0
  9
$DIMSD2
 70
     0
  9
$DIMTOLJ
 70
     0
  9
$DIMTZIN
 70
     8
  9
$DIMALTZ
 70
     0
  9
$DIMALTTZ
 70
     0
  9
$DIMUPT
 70
     0
  9
$DIMDEC
 70
     2
  9
$DIMTDEC
 70
     2
  9
$DIMALTU
 70
     2
  9
$DIMALTTD
 70
     3
  9
$DIMTXSTY
  7
Standard
  9
$DIMAUNIT
 70
     0
  9
$DIMADEC
 70
     0
  9
$DIMALTRND
 40
0.0
  9
$DIMAZIN
 70
     0
  9
$DIMDSEP
 70
    44
  9
$DIMATFIT
 70
     3
  9
$DIMFRAC
 70
     0
  9
$DIMLDRBLK
  1

  9
$DIMLUNIT
 70
     2
  9
$DIMLWD
 70
    -2
  9
$DIMLWE
 70
    -2
  9
$DIMTMOVE
 70
     0
  9
$DIMFXL
 40
1.0
  9
$DIMFXLON
 70
     0
  9
$DIMJOGANG
 40
0.7853981633974483
  9
$DIMTFILL
 70
     0
  9
$DIMTFILLCLR
 70
     0
  9
$DIMARCSYM
 70
     0
  9
$DIMLTYPE
  6

  9
$DIMLTEX1
  6

  9
$DIMLTEX2
  6

  9
$DIMTXTDIRECTION
 70
     0
  9
$LUNITS
 70
     2
  9
$LUPREC
 70
     4
  9
$SKETCHINC
 40
1.0
  9
$FILLETRAD
 40
10.0
  9
$AUNITS
 70
     0
  9
$AUPREC
 70
     0
  9
$MENU
  1
.
  9
$ELEVATION
 40
0.0
  9
$PELEVATION
 40
0.0
  9
$THICKNESS
 40
0.0
  9
$LIMCHECK
 70
     0
  9
$CHAMFERA
 40
10.0
  9
$CHAMFERB
 40
10.0
  9
$CHAMFERC
 40
20.0
  9
$CHAMFERD
 40
0.0
  9
$SKPOLY
 70
     0
  9
$TDCREATE
 40
2457953.400804467
  9
$TDUCREATE
 40
2457953.025804467
  9
$TDUPDATE
 40
2457953.400804479
  9
$TDUUPDATE
 40
2457953.025804479
  9
$TDINDWG
 40
0.0000000116
  9
$TDUSRTIMER
 40
0.0000000116
  9
$USRTIMER
 70
     1
  9
$ANGBASE
 50
0.0
  9
$ANGDIR
 70
     0
  9
$PDMODE
 70
     0
  9
$PDSIZE
 40
0.0
  9
$PLINEWID
 40
0.0
  9
$SPLFRAME
 70
     0
  9
$SPLINETYPE
 70
     6
  9
$SPLINESEGS
 70
     8
  9
$HANDSEED
  5
508
  9
$SURFTAB1
 70
     6
  9
$SURFTAB2
 70
     6
  9
$SURFTYPE
 70
     6
  9
$SURFU
 70
     6
  9
$SURFV
 70
     6
  9
$UCSBASE
  2

  9
$UCSNAME
  2

  9
$UCSORG
 10
0.0
 20
0.0
 30
0.0
  9
$UCSXDIR
 10
1.0
 20
0.0
 30
0.0
  9
$UCSYDIR
 10
0.0
 20
1.0
 30
0.0
  9
$UCSORTHOREF
  2

  9
$UCSORTHOVIEW
 70
     0
  9
$UCSORGTOP
 10
0.0
 20
0.0
 30
0.0
  9
$UCSORGBOTTOM
 10
0.0
 20
0.0
 30
0.0
  9
$UCSORGLEFT
 10
0.0
 20
0.0
 30
0.0
  9
$UCSORGRIGHT
 10
0.0
 20
0.0
 30
0.0
  9
$UCSORGFRONT
 10
0.0
 20
0.0
 30
0.0
  9
$UCSORGBACK
 10
0.0
 20
0.0
 30
0.0
  9
$PUCSBASE
  2

  9
$PUCSNAME
  2

  9
$PUCSORG
 10
0.0
 20
0.0
 30
0.0
  9
$PUCSXDIR
 10
1.0
 20
0.0
 30
0.0
  9
$PUCSYDIR
 10
0.0
 20
1.0
 30
0.0
  9
$PUCSORTHOREF
  2

  9
$PUCSORTHOVIEW
 70
     0
  9
$PUCSORGTOP
 10
0.0
 20
0.0
 30
0.0
  9
$PUCSORGBOTTOM
 10
0.0
 20
0.0
 30
0.0
  9
$PUCSORGLEFT
 10
0.0
 20
0.0
 30
0.0
  9
$PUCSORGRIGHT
 10
0.0
 20
0.0
 30
0.0
  9
$PUCSORGFRONT
 10
0.0
 20
0.0
 30
0.0
  9
$PUCSORGBACK
 10
0.0
 20
0.0
 30
0.0
  9
$USERI1
 70
     0
  9
$USERI2
 70
     0
  9
$USERI3
 70
     0
  9
$USERI4
 70
     0
  9
$USERI5
 70
     0
  9
$USERR1
 40
0.0
  9
$USERR2
 40
0.0
  9
$USERR3
 40
0.0
  9
$USERR4
 40
0.0
  9
$USERR5
 40
0.0
  9
$WORLDVIEW
 70
     1
  9
$SHADEDGE
 70
     3
  9
$SHADEDIF
 70
    70
  9
$TILEMODE
 70
     1
  9
$MAXACTVP
 70
    64
  9
$PINSBASE
 10
0.0
 20
0.0
 30
0.0
  9
$PLIMCHECK
 70
     0
  9
$PEXTMIN
 10
1.000000000000000E+20
 20
1.000000000000000E+20
 30
1.000000000000000E+20
  9
$PEXTMAX
 10
-1.000000000000000E+20
 20
-1.000000000000000E+20
 30
-1.000000000000000E+20
  9
$PLIMMIN
 10
0.0
 20
0.0
  9
$PLIMMAX
 10
420.0
 20
297.0
  9
$UNITMODE
 70
     0
  9
$VISRETAIN
 70
     1
  9
$PLINEGEN
 70
     0
  9
$PSLTSCALE
 70
     1
  9
$TREEDEPTH
 70
  3020
  9
$CMLSTYLE
  2
Standard
  9
$CMLJUST
 70
     0
  9
$CMLSCALE
 40
20.0
  9
$PROXYGRAPHICS
 70
     1
  9
$MEASUREMENT
 70
     1
  9
$CELWEIGHT
370
    -1
  9
$ENDCAPS
280
     0
  9
$JOINSTYLE
280
     0
  9
$LWDISPLAY
290
     0
  9
$INSUNITS
 70
     4
  9
$HYPERLINKBASE
  1

  9
$STYLESHEET
  1

  9
$XEDIT
290
     1
  9
$CEPSNTYPE
380
     0
  9
$PSTYLEMODE
290
     1
  9
$FINGERPRINTGUID
  2
{363341BD-F922-4348-B1FC-F430A85D5055}
  9
$VERSIONGUID
  2
{FAEB1C32-E019-11D5-929B-00C0DF256EC4}
  9
$EXTNAMES
290
     1
  9
$PSVPSCALE
 40
0.0
  9
$OLESTARTUP
290
     0
  9
$SORTENTS
280
   127
  9
$INDEXCTL
280
     0
  9
$HIDETEXT
280
     1
  9
$XCLIPFRAME
280
     2
  9
$HALOGAP
280
     0
  9
$OBSCOLOR
 70
   257
  9
$OBSLTYPE
280
     0
  9
$INTERSECTIONDISPLAY
280
     0
  9
$INTERSECTIONCOLOR
 70
   257
  9
$DIMASSOC
280
     2
  9
$PROJECTNAME
  1

  9
$CAMERADISPLAY
290
     0
  9
$LENSLENGTH
 40
50.0
  9
$CAMERAHEIGHT
 40
0.0
  9
$STEPSPERSEC
 40
2.0
  9
$STEPSIZE
 40
6.0
  9
$3DDWFPREC
 40
2.0
  9
$PSOLWIDTH
 40
5.0
  9
$PSOLHEIGHT
 40
80.0
  9
$LOFTANG1
 40
1.570796326794897
  9
$LOFTANG2
 40
1.570796326794897
  9
$LOFTMAG1
 40
0.0
  9
$LOFTMAG2
 40
0.0
  9
$LOFTPARAM
 70
     7
  9
$LOFTNORMALS
280
     1
  9
$LATITUDE
 40
37.795
  9
$LONGITUDE
 40
-122.394
  9
$NORTHDIRECTION
 40
0.0
  9
$TIMEZONE
 70
 -8000
  9
$LIGHTGLYPHDISPLAY
280
     1
  9
$TILEMODELIGHTSYNCH
280
     1
  9
$SOLIDHIST
280
     1
  9
$SHOWHIST
280
     1
  9
$DWFFRAME
280
     2
  9
$DGNFRAME
280
     2
  9
$REALWORLDSCALE
290
     1
  9
$INTERFERECOLOR
 62
   256
  9
$CSHADOW
280
     0
  9
$SHADOWPLANELOCATION
 40
0.0
  0
ENDSEC
  0
SECTION
  2
CLASSES
  0
CLASS
  1
ACDBDICTIONARYWDFLT
  2
AcDbDictionaryWithDefault
  3
ObjectDBX Classes
 90
        0
 91
        4
280
     0
281
     0
  0
CLASS
  1
VISUALSTYLE
  2
AcDbVisualStyle
  3
ObjectDBX Classes
 90
     4095
 91
        4
280
     0
281
     0
  0
CLASS
  1
MATERIAL
  2
AcDbMaterial
  3
ObjectDBX Classes
 90
     1153
 91
        4
280
     0
281
     0
  0
ENDSEC
  0
SECTION
  2
TABLES
  0
TABLE
  2
VPORT
  5
8
330
0
100
AcDbSymbolTable
 70
     1
  0
VPORT
  5
29
330
8
100
AcDbSymbolTableRecord
100
AcDbViewportTableRecord
  2
*Active
 70
     0
 10
0.0
 20
0.0
 11
1.0
 21
1.0
 12
0.0
 22
0.0
 13
0.0
 23
0.0
 14
10.0
 24
10.0
 15
10.0
 25
10.0
 16
0.0
 26
0.0
 36
1.0
 17
0.0
 27
0.0
 37
0.0
 40
6930.000000000001
 41
1.414285714285714
 42
50.0
 43
0.0
 44
0.0
 50
0.0
 51
0.0
 71
     0
 72
 10000
 73
     1
 74
     3
 75
     0
 76
     0
 77
     0
 78
     0
281
     0
 65
     1
110
0.0
120
0.0
130
0.0
111
1.0
121
0.0
131
0.0
112
0.0
122
1.0
132
0.0
 79
     0
146
0.0
 60
     3
 61
     5
292
     1
282
     1
141
0.0
142
0.0
 63
   250
  0
ENDTAB
  0
TABLE
  2
LTYPE
  5
5
330
0
100
AcDbSymbolTable
 70
     2
  0
LTYPE
  5
14
330
5
100
AcDbSymbolTableRecord
100
AcDbLinetypeTableRecord
  2
ByBlock
 70
     0
  3

 72
    65
 73
     0
 40
0.0
  0
LTYPE
  5
15
330
5
100
AcDbSymbolTableRecord
100
AcDbLinetypeTableRecord
  2
ByLayer
 70
     0
  3

 72
    65
 73
     0
 40
0.0
  0
LTYPE
  5
16
330
5
100
AcDbSymbolTableRecord
100
AcDbLinetypeTableRecord
  2
Continuous
 70
     0
  3
Solid line
 72
    65
 73
     0
 40
0.0
  0
LTYPE
  5
3F
330
5
100
AcDbSymbolTableRecord
100
AcDbLinetypeTableRecord
  2
JWW_DASHED1
 70
     0
  3
-  --  --  --  --  --  --  --  -
 72
    65
 73
     2
 40
1.693333333333333
 49
0.8466666666666667
 74
     0
 49
-0.8466666666666667
 74
     0
  0
ENDTAB
  0
TABLE
  2
LAYER
  5
2
330
0
100
AcDbSymbolTable
 70
     3
  0
LAYER
  5
10
330
2
100
AcDbSymbolTableRecord
100
AcDbLayerTableRecord
  2
0
 70
     0
 62
     7
  6
Continuous
370
    -3
390
F
347
3E
  0
LAYER
  5
40
330
2
100
AcDbSymbolTableRecord
100
AcDbLayerTableRecord
  2
0-0
 70
     0
 62
     7
  6
Continuous
370
    -3
390
F
347
3E
  0
LAYER
  5
41
330
2
100
AcDbSymbolTableRecord
100
AcDbLayerTableRecord
  2
寸法
 70
     0
 62
     7
  6
Continuous
370
    -3
390
F
347
3E
  0
ENDTAB
  0
TABLE
  2
STYLE
  5
3
330
0
100
AcDbSymbolTable
 70
     1
  0
STYLE
  5
11
330
3
100
AcDbSymbolTableRecord
100
AcDbTextStyleTableRecord
  2
Standard
 70
     0
 40
0.0
 41
1.0
 50
0.0
 71
     0
 42
2.5
  3
txt
  4

  0
ENDTAB
  0
TABLE
  2
VIEW
  5
6
330
0
100
AcDbSymbolTable
 70
     0
  0
ENDTAB
  0
TABLE
  2
UCS
  5
7
330
0
100
AcDbSymbolTable
 70
     0
  0
ENDTAB
  0
TABLE
  2
APPID
  5
9
330
0
100
AcDbSymbolTable
 70
     1
  0
APPID
  5
12
330
9
100
AcDbSymbolTableRecord
100
AcDbRegAppTableRecord
  2
ACAD
 70
     0
  0
ENDTAB
  0
TABLE
  2
DIMSTYLE
  5
A
330
0
100
AcDbSymbolTable
 70
     1
100
AcDbDimStyleTable
  0
DIMSTYLE
105
27
330
A
100
AcDbSymbolTableRecord
100
AcDbDimStyleTableRecord
  2
ISO-25
 70
     0
 41
2.5
 42
0.625
 43
3.75
 44
1.25
 73
     0
 74
     0
 77
     1
 78
     8
140
2.5
141
2.5
143
0.03937007874016
147
0.625
171
     3
172
     1
178
     0
271
     2
272
     2
274
     3
278
    44
283
     0
284
     8
340
11
  0
ENDTAB
  0
TABLE
  2
BLOCK_RECORD
  5
1
330
0
100
AcDbSymbolTable
 70
     1
  0
BLOCK_RECORD
  5
1F
330
1
100
AcDbSymbolTableRecord
100
AcDbBlockTableRecord
  2
*Model_Space
340
22
 70
     0
280
     1
281
     0
  0
BLOCK_RECORD
  5
1B
330
1
100
AcDbSymbolTableRecord
100
AcDbBlockTableRecord
  2
*Paper_Space
340
1E
 70
     0
280
     1
281
     0
  0
BLOCK_RECORD
  5
23
330
1
100
AcDbSymbolTableRecord
100
AcDbBlockTableRecord
  2
*Paper_Space0
340
26
 70
     0
280
     1
281
     0
  0
ENDTAB
  0
ENDSEC
  0
SECTION
  2
BLOCKS
  0
BLOCK
  5
20
330
1F
100
AcDbEntity
  8
0
100
AcDbBlockBegin
  2
*Model_Space
 70
     0
 10
0.0
 20
0.0
 30
0.0
  3
*Model_Space
  1

  0
ENDBLK
  5
21
330
1F
100
AcDbEntity
  8
0
100
AcDbBlockEnd
  0
BLOCK
  5
1C
330
1B
100
AcDbEntity
 67
     1
  8
0
100
AcDbBlockBegin
  2
*Paper_Space
 70
     0
 10
0.0
 20
0.0
 30
0.0
  3
*Paper_Space
  1

  0
ENDBLK
  5
1D
330
1B
100
AcDbEntity
 67
     1
  8
0
100
AcDbBlockEnd
  0
BLOCK
  5
24
330
23
100
AcDbEntity
  8
0
100
AcDbBlockBegin
  2
*Paper_Space0
 70
     0
 10
0.0
 20
0.0
 30
0.0
  3
*Paper_Space0
  1

  0
ENDBLK
  5
25
330
23
100
AcDbEntity
  8
0
100
AcDbBlockEnd
  0
ENDSEC
  0
SECTION
  2
ENTITIES
  0
LINE
  5
42
330
1F
100
AcDbEntity
  8
0-0
  6
Continuous
 62
    92
370
    13
100
AcDbLine
 10
1635.880322901032
 20
-1355.707705700175
 30
0.0
 11
-1598.119677098967
 21
-1355.707705700175
 31
0.0
  0
LINE
  5
43
330
1F
100
AcDbEntity
  8
0-0
  6
Continuous
 62
    92
370
    13
100
AcDbLine
 10
1605.880322901032
 20
-1340.707705700175
 30
0.0
 11
-1568.119677098967
 21
-1340.707705700175
 31
0.0
  0
ARC
  5
44
330
1F
100
AcDbEntity
  8
0-0
  6
Continuous
 62
    92
370
    13
100
AcDbCircle
 10
-1539.619677098965
 20
-318.707705700174
 30
0.0
 40
1.5
100
AcDbArc
 50
90.0
 51
180.0
  0
LINE
  5
45
330
1F
100
AcDbEntity
  8
0-0
  6
Continuous
 62
    92
370
    13
100
AcDbLine
 10
-1500.619677098967
 20
-317.2077057001745
 30
0.0
 11
-1539.619677098965
 21
-317.2077057001745
 31
0.0
  0
ARC
  5
46
330
1F
100
AcDbEntity
  8
0-0
  6
Continuous
 62
    92
370
    13
100
AcDbCircle
 10
-1500.619677098967
 20
-318.707705700174
 30
0.0
 40
1.5
100
AcDbArc
 50
0.0
 51
90.00000000000001
  0
LINE
  5
47
330
1F
100
AcDbEntity
  8
0-0
  6
Continuous
 62
    92
370
    13
100
AcDbLine
 10
-1499.119677098966
 20
-437.7077057001741
 30
0.0
 11
-1499.119677098966
 21
-318.707705700174
 31
0.0
  0
ARC
  5
48
330
1F
100
AcDbEntity
  8
0-0
  6
Continuous
 62
    92
370
    13
100
AcDbCircle
 10
-1500.619677098967
 20
-437.7077057001741
 30
0.0
 40
1.5
100
AcDbArc
 50
270.0
 51
0.0
  0
LINE
  5
49
330
1F
100
AcDbEntity
  8
0-0
  6
Continuous
 62
    92
370
    13
100
AcDbLine
 10
-1539.619677098965
 20
-439.2077057001761
 30
0.0
 11
-1500.619677098967
 21
-439.2077057001761
 31
0.0
  0
LINE
  5
4A
330
1F
100
AcDbEntity
  8
0-0
  6
Continuous
 62
    92
370
    13
100
AcDbLine
 10
-1541.119677098966
 20
-437.7077057001741
 30
0.0
 11
-1541.119677098966
 21
-318.707705700174
 31
0.0
  0
ARC
  5
4B
330
1F
100
AcDbEntity
  8
0-0
  6
Continuous
 62
    92
370
    13
100
AcDbCircle
 10
-1539.619677098965
 20
-437.7077057001741
 30
0.0
 40
1.5
100
AcDbArc
 50
180.0
 51
270.0
  0
ARC
  5
4C
330
1F
100
AcDbEntity
  8
0-0
  6
Continuous
 62
     7
370
     9
100
AcDbCircle
 10
-1520.119677098966
 20
-407.807705700174
 30
0.0
 40
15.0
100
AcDbArc
 50
180.0
 51
0.0
  0
ARC
  5
4D
330
1F
100
AcDbEntity
  8
0-0
  6
Continuous
 62
     7
370
     9
100
AcDbCircle
 10
-1520.119677098966
 20
-348.6077057001741
 30
0.0
 40
15.0
100
AcDbArc
 50
0.0
 51
180.0
  0
LINE
  5
4E
330
1F
100
AcDbEntity
  8
0-0
  6
Continuous
 62
     7
370
     9
100
AcDbLine
 10
-1505.119677098966
 20
-407.807705700174
 30
0.0
 11
-1505.119677098966
 21
-348.6077057001741
 31
0.0
  0
LINE
  5
4F
330
1F
100
AcDbEntity
  8
0-0
  6
Continuous
 62
     7
370
     9
100
AcDbLine
 10
-1535.119677098966
 20
-348.6077057001741
 30
0.0
 11
-1535.119677098966
 21
-407.807705700174
 31
0.0
  0
ARC
  5
50
330
1F
100
AcDbEntity
  8
0-0
  6
Continuous
 62
    92
370
    13
100
AcDbCircle
 10
-51.61967709896459
 20
-318.707705700174
 30
0.0
 40
1.5
100
AcDbArc
 50
90.0
 51
180.0
  0
LINE
  5
51
330
1F
100
AcDbEntity
  8
0-0
  6
Continuous
 62
    92
370
    13
100
AcDbLine
 10
-12.61967709896595
 20
-317.2077057001745
 30
0.0
 11
-51.61967709896459
 21
-317.2077057001745
 31
0.0
  0
ARC
  5
52
330
1F
100
AcDbEntity
  8
0-0
  6
Continuous
 62
    92
370
    13
100
AcDbCircle
 10
-12.61967709896595
 20
-318.707705700174
 30
0.0
 40
1.5
100
AcDbArc
 50
0.0
 51
90.00000000000001
  0
LINE
  5
53
330
1F
100
AcDbEntity
  8
0-0
  6
Continuous
 62
    92
370
    13
100
AcDbLine
 10
-11.11967709896561
 20
-437.7077057001741
 30
0.0
 11
-11.11967709896561
 21
-318.707705700174
 31
0.0
  0
ARC
  5
54
330
1F
100
AcDbEntity
  8
0-0
  6
Continuous
 62
    92
370
    13
100
AcDbCircle
 10
-12.61967709896595
 20
-437.7077057001741
 30
0.0
 40
1.5
100
AcDbArc
 50
270.0
 51
0.0
  0
LINE
  5
55
330
1F
100
AcDbEntity
  8
0-0
  6
Continuous
 62
    92
370
    13
100
AcDbLine
 10
-51.61967709896459
 20
-439.2077057001761
 30
0.0
 11
-12.61967709896595
 21
-439.2077057001761
 31
0.0
  0
LINE
  5
56
330
1F
100
AcDbEntity
  8
0-0
  6
Continuous
 62
    92
370
    13
100
AcDbLine
 10
-53.11967709896493
 20
-437.7077057001741
 30
0.0
 11
-53.11967709896493
 21
-318.707705700174
 31
0.0
  0
ARC
  5
57
330
1F
100
AcDbEntity
  8
0-0
  6
Continuous
 62
    92
370
    13
100
AcDbCircle
 10
-51.61967709896459
 20
-437.7077057001741
 30
0.0
 40
1.5
100
AcDbArc
 50
180.0
 51
270.0
  0
ARC
  5
58
330
1F
100
AcDbEntity
  8
0-0
  6
Continuous
 62
     7
370
     9
100
AcDbCircle
 10
-32.11967709896527
 20
-407.807705700174
 30
0.0
 40
15.0
100
AcDbArc
 50
180.0
 51
0.0
  0
ARC
  5
59
330
1F
100
AcDbEntity
  8
0-0
  6
Continuous
 62
     7
370
     9
100
AcDbCircle
 10
-32.11967709896527
 20
-348.6077057001741
 30
0.0
 40
15.0
100
AcDbArc
 50
0.0
 51
180.0
  0
LINE
  5
5A
330
1F
100
AcDbEntity
  8
0-0
  6
Continuous
 62
     7
370
     9
100
AcDbLine
 10
-17.11967709896527
 20
-407.807705700174
 30
0.0
 11
-17.11967709896527
 21
-348.6077057001741
 31
0.0
  0
LINE
  5
5B
330
1F
100
AcDbEntity
  8
0-0
  6
Continuous
 62
     7
370
     9
100
AcDbLine
 10
-47.11967709896527
 20
-348.6077057001741
 30
0.0
 11
-47.11967709896527
 21
-407.807705700174
 31
0.0
  0
ARC
  5
5C
330
1F
100
AcDbEntity
  8
0-0
  6
Continuous
 62
    92
370
    13
100
AcDbCircle
 10
50.38032290103132
 20
-318.707705700174
 30
0.0
 40
1.5
100
AcDbArc
 50
90.0
 51
180.0
  0
LINE
  5
5D
330
1F
100
AcDbEntity
  8
0-0
  6
Continuous
 62
    92
370
    13
100
AcDbLine
 10
89.38032290102996
 20
-317.2077057001745
 30
0.0
 11
50.38032290103132
 21
-317.2077057001745
 31
0.0
  0
ARC
  5
5E
330
1F
100
AcDbEntity
  8
0-0
  6
Continuous
 62
    92
370
    13
100
AcDbCircle
 10
89.38032290102996
 20
-318.707705700174
 30
0.0
 40
1.5
100
AcDbArc
 50
0.0
 51
90.00000000000001
  0
LINE
  5
5F
330
1F
100
AcDbEntity
  8
0-0
  6
Continuous
 62
    92
370
    13
100
AcDbLine
 10
90.8803229010303
 20
-437.7077057001741
 30
0.0
 11
90.8803229010303
 21
-318.707705700174
 31
0.0
  0
ARC
  5
60
330
1F
100
AcDbEntity
  8
0-0
  6
Continuous
 62
    92
370
    13
100
AcDbCircle
 10
89.38032290102996
 20
-437.7077057001741
 30
0.0
 40
1.5
100
AcDbArc
 50
270.0
 51
0.0
  0
LINE
  5
61
330
1F
100
AcDbEntity
  8
0-0
  6
Continuous
 62
    92
370
    13
100
AcDbLine
 10
50.38032290103132
 20
-439.2077057001761
 30
0.0
 11
89.38032290102996
 21
-439.2077057001761
 31
0.0
  0
LINE
  5
62
330
1F
100
AcDbEntity
  8
0-0
  6
Continuous
 62
    92
370
    13
100
AcDbLine
 10
48.88032290103098
 20
-437.7077057001741
 30
0.0
 11
48.88032290103098
 21
-318.707705700174
 31
0.0
  0
ARC
  5
63
330
1F
100
AcDbEntity
  8
0-0
  6
Continuous
 62
    92
370
    13
100
AcDbCircle
 10
50.38032290103132
 20
-437.7077057001741
 30
0.0
 40
1.5
100
AcDbArc
 50
180.0
 51
270.0
  0
ARC
  5
64
330
1F
100
AcDbEntity
  8
0-0
  6
Continuous
 62
     7
370
     9
100
AcDbCircle
 10
69.88032290103064
 20
-407.807705700174
 30
0.0
 40
15.0
100
AcDbArc
 50
180.0
 51
0.0
  0
ARC
  5
65
330
1F
100
AcDbEntity
  8
0-0
  6
Continuous
 62
     7
370
     9
100
AcDbCircle
 10
69.88032290103064
 20
-348.6077057001741
 30
0.0
 40
15.0
100
AcDbArc
 50
0.0
 51
180.0
  0
LINE
  5
66
330
1F
100
AcDbEntity
  8
0-0
  6
Continuous
 62
     7
370
     9
100
AcDbLine
 10
84.88032290103064
 20
-407.807705700174
 30
0.0
 11
84.88032290103064
 21
-348.6077057001741
 31
0.0
  0
LINE
  5
67
330
1F
100
AcDbEntity
  8
0-0
  6
Continuous
 62
     7
370
     9
100
AcDbLine
 10
54.88032290103064
 20
-348.6077057001741
 30
0.0
 11
54.88032290103064
 21
-407.807705700174
 31
0.0
  0
ARC
  5
68
330
1F
100
AcDbEntity
  8
0-0
  6
Continuous
 62
    92
370
    13
100
AcDbCircle
 10
1538.380322901035
 20
-318.707705700174
 30
0.0
 40
1.5
100
AcDbArc
 50
90.0
 51
180.0
  0
LINE
  5
69
330
1F
100
AcDbEntity
  8
0-0
  6
Continuous
 62
    92
370
    13
100
AcDbLine
 10
1577.380322901035
 20
-317.2077057001745
 30
0.0
 11
1538.380322901035
 21
-317.2077057001745
 31
0.0
  0
ARC
  5
6A
330
1F
100
AcDbEntity
  8
0-0
  6
Continuous
 62
    92
370
    13
100
AcDbCircle
 10
1577.380322901035
 20
-318.707705700174
 30
0.0
 40
1.5
100
AcDbArc
 50
0.0
 51
90.00000000000001
  0
LINE
  5
6B
330
1F
100
AcDbEntity
  8
0-0
  6
Continuous
 62
    92
370
    13
100
AcDbLine
 10
1578.880322901034
 20
-437.7077057001741
 30
0.0
 11
1578.880322901034
 21
-318.707705700174
 31
0.0
  0
ARC
  5
6C
330
1F
100
AcDbEntity
  8
0-0
  6
Continuous
 62
    92
370
    13
100
AcDbCircle
 10
1577.380322901035
 20
-437.7077057001741
 30
0.0
 40
1.5
100
AcDbArc
 50
270.0
 51
0.0
  0
LINE
  5
6D
330
1F
100
AcDbEntity
  8
0-0
  6
Continuous
 62
    92
370
    13
100
AcDbLine
 10
1538.380322901035
 20
-439.2077057001761
 30
0.0
 11
1577.380322901035
 21
-439.2077057001761
 31
0.0
  0
LINE
  5
6E
330
1F
100
AcDbEntity
  8
0-0
  6
Continuous
 62
    92
370
    13
100
AcDbLine
 10
1536.880322901035
 20
-437.7077057001741
 30
0.0
 11
1536.880322901035
 21
-318.707705700174
 31
0.0
  0
ARC
  5
6F
330
1F
100
AcDbEntity
  8
0-0
  6
Continuous
 62
    92
370
    13
100
AcDbCircle
 10
1538.380322901035
 20
-437.7077057001741
 30
0.0
 40
1.5
100
AcDbArc
 50
180.0
 51
270.0
  0
ARC
  5
70
330
1F
100
AcDbEntity
  8
0-0
  6
Continuous
 62
     7
370
     9
100
AcDbCircle
 10
1557.880322901035
 20
-407.807705700174
 30
0.0
 40
15.0
100
AcDbArc
 50
180.0
 51
0.0
  0
ARC
  5
71
330
1F
100
AcDbEntity
  8
0-0
  6
Continuous
 62
     7
370
     9
100
AcDbCircle
 10
1557.880322901035
 20
-348.6077057001741
 30
0.0
 40
15.0
100
AcDbArc
 50
0.0
 51
180.0
  0
LINE
  5
72
330
1F
100
AcDbEntity
  8
0-0
  6
Continuous
 62
     7
370
     9
100
AcDbLine
 10
1572.880322901035
 20
-407.807705700174
 30
0.0
 11
1572.880322901035
 21
-348.6077057001741
 31
0.0
  0
LINE
  5
73
330
1F
100
AcDbEntity
  8
0-0
  6
Continuous
 62
     7
370
     9
100
AcDbLine
 10
1542.880322901035
 20
-348.6077057001741
 30
0.0
 11
1542.880322901035
 21
-407.807705700174
 31
0.0
  0
LINE
  5
74
330
1F
100
AcDbEntity
  8
0-0
  6
Continuous
 62
    92
370
    13
100
AcDbLine
 10
-1568.119677098967
 20
-1335.707705700175
 30
0.0
 11
18.88032290103268
 21
-1335.707705700175
 31
0.0
  0
LINE
  5
75
330
1F
100
AcDbEntity
  8
0-0
  6
Continuous
 62
    92
370
    13
100
AcDbLine
 10
1605.880322901032
 20
-1335.707705700175
 30
0.0
 11
18.88032290103268
 21
-1335.707705700175
 31
0.0
  0
LINE
  5
76
330
1F
100
AcDbEntity
  8
0-0
  6
JWW_DASHED1
 62
   120
370
     5
100
AcDbLine
 10
-1568.119677098967
 20
-1335.707705700175
 30
0.0
 11
-1571.119677098967
 21
-1335.707705700175
 31
0.0
  0
LINE
  5
77
330
1F
100
AcDbEntity
  8
0-0
  6
JWW_DASHED1
 62
   120
370
     5
100
AcDbLine
 10
1605.880322901032
 20
-1335.707705700175
 30
0.0
 11
1608.880322901033
 21
-1335.707705700175
 31
0.0
  0
LINE
  5
78
330
1F
100
AcDbEntity
  8
0-0
  6
Continuous
 62
     7
370
     9
100
AcDbLine
 10
-1452.619677098967
 20
-1185.707705700175
 30
0.0
 11
-1467.619677098967
 21
-1200.707705700175
 31
0.0
  0
LINE
  5
79
330
1F
100
AcDbEntity
  8
0-0
  6
Continuous
 62
     7
370
     9
100
AcDbLine
 10
-879.6196770989678
 20
-1185.707705700175
 30
0.0
 11
-864.6196770989678
 21
-1200.707705700175
 31
0.0
  0
LINE
  5
7A
330
1F
100
AcDbEntity
  8
0-0
  6
Continuous
 62
     7
370
     9
100
AcDbLine
 10
-1467.619677098967
 20
-1200.707705700175
 30
0.0
 11
-864.6196770989678
 21
-1200.707705700175
 31
0.0
  0
LINE
  5
7B
330
1F
100
AcDbEntity
  8
0-0
  6
Continuous
 62
     7
370
     9
100
AcDbLine
 10
-1422.619677098967
 20
-1155.707705700175
 30
0.0
 11
-1437.619677098967
 21
-1170.707705700175
 31
0.0
  0
LINE
  5
7C
330
1F
100
AcDbEntity
  8
0-0
  6
Continuous
 62
     7
370
     9
100
AcDbLine
 10
-909.6196770989678
 20
-1155.707705700175
 30
0.0
 11
-894.6196770989678
 21
-1170.707705700175
 31
0.0
  0
LINE
  5
7D
330
1F
100
AcDbEntity
  8
0-0
  6
Continuous
 62
     7
370
     9
100
AcDbLine
 10
-1422.619677098967
 20
-1155.707705700175
 30
0.0
 11
-909.6196770989678
 21
-1155.707705700175
 31
0.0
  0
LINE
  5
7E
330
1F
100
AcDbEntity
  8
0-0
  6
Continuous
 62
    92
370
    13
100
AcDbLine
 10
-1452.619677098967
 20
-1185.707705700175
 30
0.0
 11
-879.6196770989678
 21
-1185.707705700175
 31
0.0
  0
LINE
  5
7F
330
1F
100
AcDbEntity
  8
0-0
  6
Continuous
 62
     7
370
     9
100
AcDbLine
 10
-672.6196770989668
 20
-1185.707705700175
 30
0.0
 11
-687.6196770989668
 21
-1200.707705700175
 31
0.0
  0
LINE
  5
80
330
1F
100
AcDbEntity
  8
0-0
  6
Continuous
 62
     7
370
     9
100
AcDbLine
 10
-99.61967709896783
 20
-1185.707705700175
 30
0.0
 11
-84.61967709896783
 21
-1200.707705700175
 31
0.0
  0
LINE
  5
81
330
1F
100
AcDbEntity
  8
0-0
  6
Continuous
 62
     7
370
     9
100
AcDbLine
 10
-687.6196770989668
 20
-1200.707705700175
 30
0.0
 11
-84.61967709896783
 21
-1200.707705700175
 31
0.0
  0
LINE
  5
82
330
1F
100
AcDbEntity
  8
0-0
  6
Continuous
 62
     7
370
     9
100
AcDbLine
 10
-642.6196770989668
 20
-1155.707705700175
 30
0.0
 11
-657.6196770989668
 21
-1170.707705700175
 31
0.0
  0
LINE
  5
83
330
1F
100
AcDbEntity
  8
0-0
  6
Continuous
 62
     7
370
     9
100
AcDbLine
 10
-129.6196770989678
 20
-1155.707705700175
 30
0.0
 11
-114.6196770989678
 21
-1170.707705700175
 31
0.0
  0
LINE
  5
84
330
1F
100
AcDbEntity
  8
0-0
  6
Continuous
 62
     7
370
     9
100
AcDbLine
 10
-642.6196770989668
 20
-1155.707705700175
 30
0.0
 11
-129.6196770989678
 21
-1155.707705700175
 31
0.0
  0
LINE
  5
85
330
1F
100
AcDbEntity
  8
0-0
  6
Continuous
 62
    92
370
    13
100
AcDbLine
 10
-672.6196770989668
 20
-1185.707705700175
 30
0.0
 11
-99.61967709896783
 21
-1185.707705700175
 31
0.0
  0
LINE
  5
86
330
1F
100
AcDbEntity
  8
0-0
  6
Continuous
 62
     7
370
     9
100
AcDbLine
 10
137.3803229010332
 20
-1185.707705700175
 30
0.0
 11
122.3803229010332
 21
-1200.707705700175
 31
0.0
  0
LINE
  5
87
330
1F
100
AcDbEntity
  8
0-0
  6
Continuous
 62
     7
370
     9
100
AcDbLine
 10
710.3803229010322
 20
-1185.707705700175
 30
0.0
 11
725.3803229010322
 21
-1200.707705700175
 31
0.0
  0
LINE
  5
88
330
1F
100
AcDbEntity
  8
0-0
  6
Continuous
 62
     7
370
     9
100
AcDbLine
 10
122.3803229010332
 20
-1200.707705700175
 30
0.0
 11
725.3803229010322
 21
-1200.707705700175
 31
0.0
  0
LINE
  5
89
330
1F
100
AcDbEntity
  8
0-0
  6
Continuous
 62
     7
370
     9
100
AcDbLine
 10
167.3803229010332
 20
-1155.707705700175
 30
0.0
 11
152.3803229010332
 21
-1170.707705700175
 31
0.0
  0
LINE
  5
8A
330
1F
100
AcDbEntity
  8
0-0
  6
Continuous
 62
     7
370
     9
100
AcDbLine
 10
680.3803229010322
 20
-1155.707705700175
 30
0.0
 11
695.3803229010322
 21
-1170.707705700175
 31
0.0
  0
LINE
  5
8B
330
1F
100
AcDbEntity
  8
0-0
  6
Continuous
 62
     7
370
     9
100
AcDbLine
 10
167.3803229010332
 20
-1155.707705700175
 30
0.0
 11
680.3803229010322
 21
-1155.707705700175
 31
0.0
  0
LINE
  5
8C
330
1F
100
AcDbEntity
  8
0-0
  6
Continuous
 62
    92
370
    13
100
AcDbLine
 10
137.3803229010332
 20
-1185.707705700175
 30
0.0
 11
710.3803229010322
 21
-1185.707705700175
 31
0.0
  0
LINE
  5
8D
330
1F
100
AcDbEntity
  8
0-0
  6
Continuous
 62
     7
370
     9
100
AcDbLine
 10
917.3803229010332
 20
-1185.707705700175
 30
0.0
 11
902.3803229010332
 21
-1200.707705700175
 31
0.0
  0
LINE
  5
8E
330
1F
100
AcDbEntity
  8
0-0
  6
Continuous
 62
     7
370
     9
100
AcDbLine
 10
1490.380322901032
 20
-1185.707705700175
 30
0.0
 11
1505.380322901032
 21
-1200.707705700175
 31
0.0
  0
LINE
  5
8F
330
1F
100
AcDbEntity
  8
0-0
  6
Continuous
 62
     7
370
     9
100
AcDbLine
 10
902.3803229010332
 20
-1200.707705700175
 30
0.0
 11
1505.380322901032
 21
-1200.707705700175
 31
0.0
  0
LINE
  5
90
330
1F
100
AcDbEntity
  8
0-0
  6
Continuous
 62
     7
370
     9
100
AcDbLine
 10
947.3803229010332
 20
-1155.707705700175
 30
0.0
 11
932.3803229010332
 21
-1170.707705700175
 31
0.0
  0
LINE
  5
91
330
1F
100
AcDbEntity
  8
0-0
  6
Continuous
 62
     7
370
     9
100
AcDbLine
 10
1460.380322901032
 20
-1155.707705700175
 30
0.0
 11
1475.380322901032
 21
-1170.707705700175
 31
0.0
  0
LINE
  5
92
330
1F
100
AcDbEntity
  8
0-0
  6
Continuous
 62
     7
370
     9
100
AcDbLine
 10
947.3803229010332
 20
-1155.707705700175
 30
0.0
 11
1460.380322901032
 21
-1155.707705700175
 31
0.0
  0
LINE
  5
93
330
1F
100
AcDbEntity
  8
0-0
  6
Continuous
 62
    92
370
    13
100
AcDbLine
 10
917.3803229010332
 20
-1185.707705700175
 30
0.0
 11
1490.380322901032
 21
-1185.707705700175
 31
0.0
  0
LINE
  5
94
330
1F
100
AcDbEntity
  8
0-0
  6
Continuous
 62
    92
370
    13
100
AcDbLine
 10
-1598.119677098967
 20
891.2922942998255
 30
0.0
 11
1635.880322901032
 21
891.2922942998255
 31
0.0
  0
LINE
  5
95
330
1F
100
AcDbEntity
  8
0-0
  6
Continuous
 62
    92
370
    13
100
AcDbLine
 10
-1568.119677098967
 20
855.2922942998241
 30
0.0
 11
1605.880322901032
 21
855.2922942998241
 31
0.0
  0
LINE
  5
96
330
1F
100
AcDbEntity
  8
0-0
  6
Continuous
 62
    92
370
    13
100
AcDbLine
 10
1605.880322901032
 20
-1355.707705700175
 30
0.0
 11
1605.880322901032
 21
891.2922942998255
 31
0.0
  0
LINE
  5
97
330
1F
100
AcDbEntity
  8
0-0
  6
Continuous
 62
    92
370
    13
100
AcDbLine
 10
-1568.119677098967
 20
-1355.707705700175
 30
0.0
 11
-1568.119677098967
 21
891.2922942998255
 31
0.0
  0
LINE
  5
98
330
1F
100
AcDbEntity
  8
0-0
  6
Continuous
 62
    92
370
    13
100
AcDbLine
 10
1635.880322901032
 20
-1355.707705700175
 30
0.0
 11
1635.880322901032
 21
891.2922942998255
 31
0.0
  0
LINE
  5
99
330
1F
100
AcDbEntity
  8
0-0
  6
Continuous
 62
    92
370
    13
100
AcDbLine
 10
-1598.119677098967
 20
-1355.707705700175
 30
0.0
 11
-1598.119677098967
 21
891.2922942998255
 31
0.0
  0
LINE
  5
9A
330
1F
100
AcDbEntity
  8
0-0
  6
Continuous
 62
    92
370
    13
100
AcDbLine
 10
-791.1196770989673
 20
-1335.707705700175
 30
0.0
 11
-791.1196770989673
 21
847.2922942998246
 31
0.0
  0
LINE
  5
9B
330
1F
100
AcDbEntity
  8
0-0
  6
JWW_DASHED1
 62
   120
370
     5
100
AcDbLine
 10
-761.1196770989673
 20
-1335.707705700175
 30
0.0
 11
-761.1196770989673
 21
847.2922942998246
 31
0.0
  0
LINE
  5
9C
330
1F
100
AcDbEntity
  8
0-0
  6
Continuous
 62
    92
370
    13
100
AcDbLine
 10
-1568.119677098967
 20
847.2922942998246
 30
0.0
 11
18.88032290103268
 21
847.2922942998246
 31
0.0
  0
LINE
  5
9D
330
1F
100
AcDbEntity
  8
0-0
  6
Continuous
 62
    92
370
    13
100
AcDbLine
 10
18.88032290103268
 20
-1335.707705700175
 30
0.0
 11
18.88032290103268
 21
847.2922942998246
 31
0.0
  0
LINE
  5
9E
330
1F
100
AcDbEntity
  8
0-0
  6
Continuous
 62
    92
370
    13
100
AcDbLine
 10
828.8803229010327
 20
-1335.707705700175
 30
0.0
 11
828.8803229010327
 21
847.2922942998246
 31
0.0
  0
LINE
  5
9F
330
1F
100
AcDbEntity
  8
0-0
  6
JWW_DASHED1
 62
   120
370
     5
100
AcDbLine
 10
798.8803229010327
 20
-1335.707705700175
 30
0.0
 11
798.8803229010327
 21
847.2922942998246
 31
0.0
  0
LINE
  5
A0
330
1F
100
AcDbEntity
  8
0-0
  6
Continuous
 62
    92
370
    13
100
AcDbLine
 10
1605.880322901032
 20
847.2922942998246
 30
0.0
 11
18.88032290103268
 21
847.2922942998246
 31
0.0
  0
LINE
  5
A1
330
1F
100
AcDbEntity
  8
0-0
  6
JWW_DASHED1
 62
   120
370
     5
100
AcDbLine
 10
-1571.119677098967
 20
-1335.707705700175
 30
0.0
 11
-1571.119677098967
 21
847.2922942998246
 31
0.0
  0
LINE
  5
A2
330
1F
100
AcDbEntity
  8
0-0
  6
JWW_DASHED1
 62
   120
370
     5
100
AcDbLine
 10
-1571.119677098967
 20
847.2922942998246
 30
0.0
 11
-1568.119677098967
 21
847.2922942998246
 31
0.0
  0
LINE
  5
A3
330
1F
100
AcDbEntity
  8
0-0
  6
JWW_DASHED1
 62
   120
370
     5
100
AcDbLine
 10
1608.880322901033
 20
-1335.707705700175
 30
0.0
 11
1608.880322901033
 21
847.2922942998246
 31
0.0
  0
LINE
  5
A4
330
1F
100
AcDbEntity
  8
0-0
  6
JWW_DASHED1
 62
   120
370
     5
100
AcDbLine
 10
1608.880322901033
 20
847.2922942998246
 30
0.0
 11
1605.880322901032
 21
847.2922942998246
 31
0.0
  0
LINE
  5
A5
330
1F
100
AcDbEntity
  8
0-0
  6
Continuous
 62
     7
370
     9
100
AcDbLine
 10
-1467.619677098967
 20
727.292294299825
 30
0.0
 11
-1452.619677098967
 21
712.292294299825
 31
0.0
  0
LINE
  5
A6
330
1F
100
AcDbEntity
  8
0-0
  6
Continuous
 62
     7
370
     9
100
AcDbLine
 10
-1467.619677098967
 20
-1335.707705700175
 30
0.0
 11
-1467.619677098967
 21
847.292294299825
 31
0.0
  0
LINE
  5
A7
330
1F
100
AcDbEntity
  8
0-0
  6
Continuous
 62
     7
370
     9
100
AcDbLine
 10
-864.6196770989678
 20
727.292294299825
 30
0.0
 11
-879.6196770989678
 21
712.292294299825
 31
0.0
  0
LINE
  5
A8
330
1F
100
AcDbEntity
  8
0-0
  6
Continuous
 62
     7
370
     9
100
AcDbLine
 10
-864.6196770989678
 20
-1335.707705700175
 30
0.0
 11
-864.6196770989678
 21
847.292294299825
 31
0.0
  0
LINE
  5
A9
330
1F
100
AcDbEntity
  8
0-0
  6
Continuous
 62
     7
370
     9
100
AcDbLine
 10
-1467.619677098967
 20
727.292294299825
 30
0.0
 11
-864.6196770989678
 21
727.292294299825
 31
0.0
  0
LINE
  5
AA
330
1F
100
AcDbEntity
  8
0-0
  6
Continuous
 62
     7
370
     9
100
AcDbLine
 10
-1452.619677098967
 20
-462.7077057001752
 30
0.0
 11
-1467.619677098967
 21
-477.7077057001752
 31
0.0
  0
LINE
  5
AB
330
1F
100
AcDbEntity
  8
0-0
  6
Continuous
 62
     7
370
     9
100
AcDbLine
 10
-1467.619677098967
 20
-552.7077057001752
 30
0.0
 11
-1452.619677098967
 21
-567.7077057001752
 31
0.0
  0
LINE
  5
AC
330
1F
100
AcDbEntity
  8
0-0
  6
Continuous
 62
     7
370
     9
100
AcDbLine
 10
-879.6196770989678
 20
-462.7077057001752
 30
0.0
 11
-864.6196770989678
 21
-477.7077057001752
 31
0.0
  0
LINE
  5
AD
330
1F
100
AcDbEntity
  8
0-0
  6
Continuous
 62
     7
370
     9
100
AcDbLine
 10
-864.6196770989678
 20
-552.7077057001752
 30
0.0
 11
-879.6196770989678
 21
-567.7077057001752
 31
0.0
  0
LINE
  5
AE
330
1F
100
AcDbEntity
  8
0-0
  6
Continuous
 62
     7
370
     9
100
AcDbLine
 10
-1467.619677098967
 20
-477.7077057001752
 30
0.0
 11
-864.6196770989678
 21
-477.7077057001752
 31
0.0
  0
LINE
  5
AF
330
1F
100
AcDbEntity
  8
0-0
  6
Continuous
 62
     7
370
     9
100
AcDbLine
 10
-1467.619677098967
 20
-552.7077057001752
 30
0.0
 11
-864.6196770989678
 21
-552.7077057001752
 31
0.0
  0
LINE
  5
B0
330
1F
100
AcDbEntity
  8
0-0
  6
Continuous
 62
     7
370
     9
100
AcDbLine
 10
-1422.619677098967
 20
-1155.707705700175
 30
0.0
 11
-1422.619677098967
 21
-597.7077057001752
 31
0.0
  0
LINE
  5
B1
330
1F
100
AcDbEntity
  8
0-0
  6
Continuous
 62
     7
370
     9
100
AcDbLine
 10
-1437.619677098967
 20
-582.7077057001752
 30
0.0
 11
-1422.619677098967
 21
-597.7077057001752
 31
0.0
  0
LINE
  5
B2
330
1F
100
AcDbEntity
  8
0-0
  6
Continuous
 62
     7
370
     9
100
AcDbLine
 10
-894.6196770989678
 20
-582.7077057001752
 30
0.0
 11
-909.6196770989678
 21
-597.7077057001752
 31
0.0
  0
LINE
  5
B3
330
1F
100
AcDbEntity
  8
0-0
  6
Continuous
 62
     7
370
     9
100
AcDbLine
 10
-1422.619677098967
 20
-597.7077057001752
 30
0.0
 11
-909.6196770989678
 21
-597.7077057001752
 31
0.0
  0
LINE
  5
B4
330
1F
100
AcDbEntity
  8
0-0
  6
Continuous
 62
     7
370
     9
100
AcDbLine
 10
-909.6196770989678
 20
-1155.707705700175
 30
0.0
 11
-909.6196770989678
 21
-597.7077057001752
 31
0.0
  0
LINE
  5
B5
330
1F
100
AcDbEntity
  8
0-0
  6
Continuous
 62
    92
370
    13
100
AcDbLine
 10
-1452.619677098967
 20
712.292294299825
 30
0.0
 11
-879.6196770989678
 21
712.292294299825
 31
0.0
  0
LINE
  5
B6
330
1F
100
AcDbEntity
  8
0-0
  6
Continuous
 62
    92
370
    13
100
AcDbLine
 10
-1452.619677098967
 20
-462.7077057001752
 30
0.0
 11
-879.6196770989678
 21
-462.7077057001752
 31
0.0
  0
LINE
  5
B7
330
1F
100
AcDbEntity
  8
0-0
  6
Continuous
 62
    92
370
    13
100
AcDbLine
 10
-1452.619677098967
 20
-567.7077057001752
 30
0.0
 11
-879.6196770989678
 21
-567.7077057001752
 31
0.0
  0
LINE
  5
B8
330
1F
100
AcDbEntity
  8
0-0
  6
Continuous
 62
    92
370
    13
100
AcDbLine
 10
-1452.619677098967
 20
-462.7077057001752
 30
0.0
 11
-1452.619677098967
 21
712.292294299825
 31
0.0
  0
LINE
  5
B9
330
1F
100
AcDbEntity
  8
0-0
  6
Continuous
 62
    92
370
    13
100
AcDbLine
 10
-1452.619677098967
 20
-1185.707705700175
 30
0.0
 11
-1452.619677098967
 21
-567.7077057001752
 31
0.0
  0
LINE
  5
BA
330
1F
100
AcDbEntity
  8
0-0
  6
Continuous
 62
    92
370
    13
100
AcDbLine
 10
-879.6196770989678
 20
-462.7077057001752
 30
0.0
 11
-879.6196770989678
 21
712.292294299825
 31
0.0
  0
LINE
  5
BB
330
1F
100
AcDbEntity
  8
0-0
  6
Continuous
 62
    92
370
    13
100
AcDbLine
 10
-879.6196770989678
 20
-1185.707705700175
 30
0.0
 11
-879.6196770989678
 21
-567.7077057001752
 31
0.0
  0
LINE
  5
BC
330
1F
100
AcDbEntity
  8
0-0
  6
Continuous
 62
     7
370
     9
100
AcDbLine
 10
-687.6196770989668
 20
727.292294299825
 30
0.0
 11
-672.6196770989668
 21
712.292294299825
 31
0.0
  0
LINE
  5
BD
330
1F
100
AcDbEntity
  8
0-0
  6
Continuous
 62
     7
370
     9
100
AcDbLine
 10
-687.6196770989668
 20
-1335.707705700175
 30
0.0
 11
-687.6196770989668
 21
847.292294299825
 31
0.0
  0
LINE
  5
BE
330
1F
100
AcDbEntity
  8
0-0
  6
Continuous
 62
     7
370
     9
100
AcDbLine
 10
-84.61967709896783
 20
727.292294299825
 30
0.0
 11
-99.61967709896783
 21
712.292294299825
 31
0.0
  0
LINE
  5
BF
330
1F
100
AcDbEntity
  8
0-0
  6
Continuous
 62
     7
370
     9
100
AcDbLine
 10
-84.61967709896783
 20
-1335.707705700175
 30
0.0
 11
-84.61967709896783
 21
847.292294299825
 31
0.0
  0
LINE
  5
C0
330
1F
100
AcDbEntity
  8
0-0
  6
Continuous
 62
     7
370
     9
100
AcDbLine
 10
-687.6196770989668
 20
727.292294299825
 30
0.0
 11
-84.61967709896783
 21
727.292294299825
 31
0.0
  0
LINE
  5
C1
330
1F
100
AcDbEntity
  8
0-0
  6
Continuous
 62
     7
370
     9
100
AcDbLine
 10
-672.6196770989668
 20
-462.7077057001752
 30
0.0
 11
-687.6196770989668
 21
-477.7077057001752
 31
0.0
  0
LINE
  5
C2
330
1F
100
AcDbEntity
  8
0-0
  6
Continuous
 62
     7
370
     9
100
AcDbLine
 10
-687.6196770989668
 20
-552.7077057001752
 30
0.0
 11
-672.6196770989668
 21
-567.7077057001752
 31
0.0
  0
LINE
  5
C3
330
1F
100
AcDbEntity
  8
0-0
  6
Continuous
 62
     7
370
     9
100
AcDbLine
 10
-99.61967709896783
 20
-462.7077057001752
 30
0.0
 11
-84.61967709896783
 21
-477.7077057001752
 31
0.0
  0
LINE
  5
C4
330
1F
100
AcDbEntity
  8
0-0
  6
Continuous
 62
     7
370
     9
100
AcDbLine
 10
-84.61967709896783
 20
-552.7077057001752
 30
0.0
 11
-99.61967709896783
 21
-567.7077057001752
 31
0.0
  0
LINE
  5
C5
330
1F
100
AcDbEntity
  8
0-0
  6
Continuous
 62
     7
370
     9
100
AcDbLine
 10
-687.6196770989668
 20
-477.7077057001752
 30
0.0
 11
-84.61967709896783
 21
-477.7077057001752
 31
0.0
  0
LINE
  5
C6
330
1F
100
AcDbEntity
  8
0-0
  6
Continuous
 62
     7
370
     9
100
AcDbLine
 10
-687.6196770989668
 20
-552.7077057001752
 30
0.0
 11
-84.61967709896783
 21
-552.7077057001752
 31
0.0
  0
LINE
  5
C7
330
1F
100
AcDbEntity
  8
0-0
  6
Continuous
 62
     7
370
     9
100
AcDbLine
 10
-642.6196770989668
 20
-1155.707705700175
 30
0.0
 11
-642.6196770989668
 21
-597.7077057001752
 31
0.0
  0
LINE
  5
C8
330
1F
100
AcDbEntity
  8
0-0
  6
Continuous
 62
     7
370
     9
100
AcDbLine
 10
-657.6196770989668
 20
-582.7077057001752
 30
0.0
 11
-642.6196770989668
 21
-597.7077057001752
 31
0.0
  0
LINE
  5
C9
330
1F
100
AcDbEntity
  8
0-0
  6
Continuous
 62
     7
370
     9
100
AcDbLine
 10
-114.6196770989678
 20
-582.7077057001752
 30
0.0
 11
-129.6196770989678
 21
-597.7077057001752
 31
0.0
  0
LINE
  5
CA
330
1F
100
AcDbEntity
  8
0-0
  6
Continuous
 62
     7
370
     9
100
AcDbLine
 10
-642.6196770989668
 20
-597.7077057001752
 30
0.0
 11
-129.6196770989678
 21
-597.7077057001752
 31
0.0
  0
LINE
  5
CB
330
1F
100
AcDbEntity
  8
0-0
  6
Continuous
 62
     7
370
     9
100
AcDbLine
 10
-129.6196770989678
 20
-1155.707705700175
 30
0.0
 11
-129.6196770989678
 21
-597.7077057001752
 31
0.0
  0
LINE
  5
CC
330
1F
100
AcDbEntity
  8
0-0
  6
Continuous
 62
    92
370
    13
100
AcDbLine
 10
-672.6196770989668
 20
712.292294299825
 30
0.0
 11
-99.61967709896783
 21
712.292294299825
 31
0.0
  0
LINE
  5
CD
330
1F
100
AcDbEntity
  8
0-0
  6
Continuous
 62
    92
370
    13
100
AcDbLine
 10
-672.6196770989668
 20
-462.7077057001752
 30
0.0
 11
-99.61967709896783
 21
-462.7077057001752
 31
0.0
  0
LINE
  5
CE
330
1F
100
AcDbEntity
  8
0-0
  6
Continuous
 62
    92
370
    13
100
AcDbLine
 10
-672.6196770989668
 20
-567.7077057001752
 30
0.0
 11
-99.61967709896783
 21
-567.7077057001752
 31
0.0
  0
LINE
  5
CF
330
1F
100
AcDbEntity
  8
0-0
  6
Continuous
 62
    92
370
    13
100
AcDbLine
 10
-672.6196770989668
 20
-462.7077057001752
 30
0.0
 11
-672.6196770989668
 21
712.292294299825
 31
0.0
  0
LINE
  5
D0
330
1F
100
AcDbEntity
  8
0-0
  6
Continuous
 62
    92
370
    13
100
AcDbLine
 10
-672.6196770989668
 20
-1185.707705700175
 30
0.0
 11
-672.6196770989668
 21
-567.7077057001752
 31
0.0
  0
LINE
  5
D1
330
1F
100
AcDbEntity
  8
0-0
  6
Continuous
 62
    92
370
    13
100
AcDbLine
 10
-99.61967709896783
 20
-462.7077057001752
 30
0.0
 11
-99.61967709896783
 21
712.292294299825
 31
0.0
  0
LINE
  5
D2
330
1F
100
AcDbEntity
  8
0-0
  6
Continuous
 62
    92
370
    13
100
AcDbLine
 10
-99.61967709896783
 20
-1185.707705700175
 30
0.0
 11
-99.61967709896783
 21
-567.7077057001752
 31
0.0
  0
LINE
  5
D3
330
1F
100
AcDbEntity
  8
0-0
  6
Continuous
 62
     7
370
     9
100
AcDbLine
 10
122.3803229010332
 20
727.292294299825
 30
0.0
 11
137.3803229010332
 21
712.292294299825
 31
0.0
  0
LINE
  5
D4
330
1F
100
AcDbEntity
  8
0-0
  6
Continuous
 62
     7
370
     9
100
AcDbLine
 10
122.3803229010332
 20
-1335.707705700175
 30
0.0
 11
122.3803229010332
 21
847.292294299825
 31
0.0
  0
LINE
  5
D5
330
1F
100
AcDbEntity
  8
0-0
  6
Continuous
 62
     7
370
     9
100
AcDbLine
 10
725.3803229010322
 20
727.292294299825
 30
0.0
 11
710.3803229010322
 21
712.292294299825
 31
0.0
  0
LINE
  5
D6
330
1F
100
AcDbEntity
  8
0-0
  6
Continuous
 62
     7
370
     9
100
AcDbLine
 10
725.3803229010322
 20
-1335.707705700175
 30
0.0
 11
725.3803229010322
 21
847.292294299825
 31
0.0
  0
LINE
  5
D7
330
1F
100
AcDbEntity
  8
0-0
  6
Continuous
 62
     7
370
     9
100
AcDbLine
 10
122.3803229010332
 20
727.292294299825
 30
0.0
 11
725.3803229010322
 21
727.292294299825
 31
0.0
  0
LINE
  5
D8
330
1F
100
AcDbEntity
  8
0-0
  6
Continuous
 62
     7
370
     9
100
AcDbLine
 10
137.3803229010332
 20
-462.7077057001752
 30
0.0
 11
122.3803229010332
 21
-477.7077057001752
 31
0.0
  0
LINE
  5
D9
330
1F
100
AcDbEntity
  8
0-0
  6
Continuous
 62
     7
370
     9
100
AcDbLine
 10
122.3803229010332
 20
-552.7077057001752
 30
0.0
 11
137.3803229010332
 21
-567.7077057001752
 31
0.0
  0
LINE
  5
DA
330
1F
100
AcDbEntity
  8
0-0
  6
Continuous
 62
     7
370
     9
100
AcDbLine
 10
710.3803229010322
 20
-462.7077057001752
 30
0.0
 11
725.3803229010322
 21
-477.7077057001752
 31
0.0
  0
LINE
  5
DB
330
1F
100
AcDbEntity
  8
0-0
  6
Continuous
 62
     7
370
     9
100
AcDbLine
 10
725.3803229010322
 20
-552.7077057001752
 30
0.0
 11
710.3803229010322
 21
-567.7077057001752
 31
0.0
  0
LINE
  5
DC
330
1F
100
AcDbEntity
  8
0-0
  6
Continuous
 62
     7
370
     9
100
AcDbLine
 10
122.3803229010332
 20
-477.7077057001752
 30
0.0
 11
725.3803229010322
 21
-477.7077057001752
 31
0.0
  0
LINE
  5
DD
330
1F
100
AcDbEntity
  8
0-0
  6
Continuous
 62
     7
370
     9
100
AcDbLine
 10
122.3803229010332
 20
-552.7077057001752
 30
0.0
 11
725.3803229010322
 21
-552.7077057001752
 31
0.0
  0
LINE
  5
DE
330
1F
100
AcDbEntity
  8
0-0
  6
Continuous
 62
     7
370
     9
100
AcDbLine
 10
167.3803229010332
 20
-1155.707705700175
 30
0.0
 11
167.3803229010332
 21
-597.7077057001752
 31
0.0
  0
LINE
  5
DF
330
1F
100
AcDbEntity
  8
0-0
  6
Continuous
 62
     7
370
     9
100
AcDbLine
 10
152.3803229010332
 20
-582.7077057001752
 30
0.0
 11
167.3803229010332
 21
-597.7077057001752
 31
0.0
  0
LINE
  5
E0
330
1F
100
AcDbEntity
  8
0-0
  6
Continuous
 62
     7
370
     9
100
AcDbLine
 10
695.3803229010322
 20
-582.7077057001752
 30
0.0
 11
680.3803229010322
 21
-597.7077057001752
 31
0.0
  0
LINE
  5
E1
330
1F
100
AcDbEntity
  8
0-0
  6
Continuous
 62
     7
370
     9
100
AcDbLine
 10
167.3803229010332
 20
-597.7077057001752
 30
0.0
 11
680.3803229010322
 21
-597.7077057001752
 31
0.0
  0
LINE
  5
E2
330
1F
100
AcDbEntity
  8
0-0
  6
Continuous
 62
     7
370
     9
100
AcDbLine
 10
680.3803229010322
 20
-1155.707705700175
 30
0.0
 11
680.3803229010322
 21
-597.7077057001752
 31
0.0
  0
LINE
  5
E3
330
1F
100
AcDbEntity
  8
0-0
  6
Continuous
 62
    92
370
    13
100
AcDbLine
 10
137.3803229010332
 20
712.292294299825
 30
0.0
 11
710.3803229010322
 21
712.292294299825
 31
0.0
  0
LINE
  5
E4
330
1F
100
AcDbEntity
  8
0-0
  6
Continuous
 62
    92
370
    13
100
AcDbLine
 10
137.3803229010332
 20
-462.7077057001752
 30
0.0
 11
710.3803229010322
 21
-462.7077057001752
 31
0.0
  0
LINE
  5
E5
330
1F
100
AcDbEntity
  8
0-0
  6
Continuous
 62
    92
370
    13
100
AcDbLine
 10
137.3803229010332
 20
-567.7077057001752
 30
0.0
 11
710.3803229010322
 21
-567.7077057001752
 31
0.0
  0
LINE
  5
E6
330
1F
100
AcDbEntity
  8
0-0
  6
Continuous
 62
    92
370
    13
100
AcDbLine
 10
137.3803229010332
 20
-462.7077057001752
 30
0.0
 11
137.3803229010332
 21
712.292294299825
 31
0.0
  0
LINE
  5
E7
330
1F
100
AcDbEntity
  8
0-0
  6
Continuous
 62
    92
370
    13
100
AcDbLine
 10
137.3803229010332
 20
-1185.707705700175
 30
0.0
 11
137.3803229010332
 21
-567.7077057001752
 31
0.0
  0
LINE
  5
E8
330
1F
100
AcDbEntity
  8
0-0
  6
Continuous
 62
    92
370
    13
100
AcDbLine
 10
710.3803229010322
 20
-462.7077057001752
 30
0.0
 11
710.3803229010322
 21
712.292294299825
 31
0.0
  0
LINE
  5
E9
330
1F
100
AcDbEntity
  8
0-0
  6
Continuous
 62
    92
370
    13
100
AcDbLine
 10
710.3803229010322
 20
-1185.707705700175
 30
0.0
 11
710.3803229010322
 21
-567.7077057001752
 31
0.0
  0
LINE
  5
EA
330
1F
100
AcDbEntity
  8
0-0
  6
Continuous
 62
     7
370
     9
100
AcDbLine
 10
902.3803229010332
 20
727.292294299825
 30
0.0
 11
917.3803229010332
 21
712.292294299825
 31
0.0
  0
LINE
  5
EB
330
1F
100
AcDbEntity
  8
0-0
  6
Continuous
 62
     7
370
     9
100
AcDbLine
 10
902.3803229010332
 20
-1335.707705700175
 30
0.0
 11
902.3803229010332
 21
847.292294299825
 31
0.0
  0
LINE
  5
EC
330
1F
100
AcDbEntity
  8
0-0
  6
Continuous
 62
     7
370
     9
100
AcDbLine
 10
1505.380322901032
 20
727.292294299825
 30
0.0
 11
1490.380322901032
 21
712.292294299825
 31
0.0
  0
LINE
  5
ED
330
1F
100
AcDbEntity
  8
0-0
  6
Continuous
 62
     7
370
     9
100
AcDbLine
 10
1505.380322901032
 20
-1335.707705700175
 30
0.0
 11
1505.380322901032
 21
847.292294299825
 31
0.0
  0
LINE
  5
EE
330
1F
100
AcDbEntity
  8
0-0
  6
Continuous
 62
     7
370
     9
100
AcDbLine
 10
902.3803229010332
 20
727.292294299825
 30
0.0
 11
1505.380322901032
 21
727.292294299825
 31
0.0
  0
LINE
  5
EF
330
1F
100
AcDbEntity
  8
0-0
  6
Continuous
 62
     7
370
     9
100
AcDbLine
 10
917.3803229010332
 20
-462.7077057001752
 30
0.0
 11
902.3803229010332
 21
-477.7077057001752
 31
0.0
  0
LINE
  5
F0
330
1F
100
AcDbEntity
  8
0-0
  6
Continuous
 62
     7
370
     9
100
AcDbLine
 10
902.3803229010332
 20
-552.7077057001752
 30
0.0
 11
917.3803229010332
 21
-567.7077057001752
 31
0.0
  0
LINE
  5
F1
330
1F
100
AcDbEntity
  8
0-0
  6
Continuous
 62
     7
370
     9
100
AcDbLine
 10
1490.380322901032
 20
-462.7077057001752
 30
0.0
 11
1505.380322901032
 21
-477.7077057001752
 31
0.0
  0
LINE
  5
F2
330
1F
100
AcDbEntity
  8
0-0
  6
Continuous
 62
     7
370
     9
100
AcDbLine
 10
1505.380322901032
 20
-552.7077057001752
 30
0.0
 11
1490.380322901032
 21
-567.7077057001752
 31
0.0
  0
LINE
  5
F3
330
1F
100
AcDbEntity
  8
0-0
  6
Continuous
 62
     7
370
     9
100
AcDbLine
 10
902.3803229010332
 20
-477.7077057001752
 30
0.0
 11
1505.380322901032
 21
-477.7077057001752
 31
0.0
  0
LINE
  5
F4
330
1F
100
AcDbEntity
  8
0-0
  6
Continuous
 62
     7
370
     9
100
AcDbLine
 10
902.3803229010332
 20
-552.7077057001752
 30
0.0
 11
1505.380322901032
 21
-552.7077057001752
 31
0.0
  0
LINE
  5
F5
330
1F
100
AcDbEntity
  8
0-0
  6
Continuous
 62
     7
370
     9
100
AcDbLine
 10
947.3803229010332
 20
-1155.707705700175
 30
0.0
 11
947.3803229010332
 21
-597.7077057001752
 31
0.0
  0
LINE
  5
F6
330
1F
100
AcDbEntity
  8
0-0
  6
Continuous
 62
     7
370
     9
100
AcDbLine
 10
932.3803229010332
 20
-582.7077057001752
 30
0.0
 11
947.3803229010332
 21
-597.7077057001752
 31
0.0
  0
LINE
  5
F7
330
1F
100
AcDbEntity
  8
0-0
  6
Continuous
 62
     7
370
     9
100
AcDbLine
 10
1475.380322901032
 20
-582.7077057001752
 30
0.0
 11
1460.380322901032
 21
-597.7077057001752
 31
0.0
  0
LINE
  5
F8
330
1F
100
AcDbEntity
  8
0-0
  6
Continuous
 62
     7
370
     9
100
AcDbLine
 10
947.3803229010332
 20
-597.7077057001752
 30
0.0
 11
1460.380322901032
 21
-597.7077057001752
 31
0.0
  0
LINE
  5
F9
330
1F
100
AcDbEntity
  8
0-0
  6
Continuous
 62
     7
370
     9
100
AcDbLine
 10
1460.380322901032
 20
-1155.707705700175
 30
0.0
 11
1460.380322901032
 21
-597.7077057001752
 31
0.0
  0
LINE
  5
FA
330
1F
100
AcDbEntity
  8
0-0
  6
Continuous
 62
    92
370
    13
100
AcDbLine
 10
917.3803229010332
 20
712.292294299825
 30
0.0
 11
1490.380322901032
 21
712.292294299825
 31
0.0
  0
LINE
  5
FB
330
1F
100
AcDbEntity
  8
0-0
  6
Continuous
 62
    92
370
    13
100
AcDbLine
 10
917.3803229010332
 20
-462.7077057001752
 30
0.0
 11
1490.380322901032
 21
-462.7077057001752
 31
0.0
  0
LINE
  5
FC
330
1F
100
AcDbEntity
  8
0-0
  6
Continuous
 62
    92
370
    13
100
AcDbLine
 10
917.3803229010332
 20
-567.7077057001752
 30
0.0
 11
1490.380322901032
 21
-567.7077057001752
 31
0.0
  0
LINE
  5
FD
330
1F
100
AcDbEntity
  8
0-0
  6
Continuous
 62
    92
370
    13
100
AcDbLine
 10
917.3803229010332
 20
-462.7077057001752
 30
0.0
 11
917.3803229010332
 21
712.292294299825
 31
0.0
  0
LINE
  5
FE
330
1F
100
AcDbEntity
  8
0-0
  6
Continuous
 62
    92
370
    13
100
AcDbLine
 10
917.3803229010332
 20
-1185.707705700175
 30
0.0
 11
917.3803229010332
 21
-567.7077057001752
 31
0.0
  0
LINE
  5
FF
330
1F
100
AcDbEntity
  8
0-0
  6
Continuous
 62
    92
370
    13
100
AcDbLine
 10
1490.380322901032
 20
-462.7077057001752
 30
0.0
 11
1490.380322901032
 21
712.292294299825
 31
0.0
  0
LINE
  5
100
330
1F
100
AcDbEntity
  8
0-0
  6
Continuous
 62
    92
370
    13
100
AcDbLine
 10
1490.380322901032
 20
-1185.707705700175
 30
0.0
 11
1490.380322901032
 21
-567.7077057001752
 31
0.0
  0
LINE
  5
101
330
1F
100
AcDbEntity
  8
0-0
  6
JWW_DASHED1
 62
   120
370
     5
100
AcDbLine
 10
-1452.619677098968
 20
-461.7078540141188
 30
0.0
 11
-879.619677098967
 21
-461.7078540141188
 31
0.0
  0
LINE
  5
102
330
1F
100
AcDbEntity
  8
0-0
  6
JWW_DASHED1
 62
   120
370
     5
100
AcDbLine
 10
-1452.619677098968
 20
-448.7078540130192
 30
0.0
 11
-879.619677098967
 21
-448.7078540130192
 31
0.0
  0
LINE
  5
103
330
1F
100
AcDbEntity
  8
0-0
  6
JWW_DASHED1
 62
   120
370
     5
100
AcDbLine
 10
-1452.619677098968
 20
-447.707854013119
 30
0.0
 11
-879.619677098967
 21
-447.707854013119
 31
0.0
  0
LINE
  5
104
330
1F
100
AcDbEntity
  8
0-0
  6
JWW_DASHED1
 62
   120
370
     5
100
AcDbLine
 10
-1452.619677098968
 20
-434.7078540120194
 30
0.0
 11
-879.619677098967
 21
-434.7078540120194
 31
0.0
  0
LINE
  5
105
330
1F
100
AcDbEntity
  8
0-0
  6
JWW_DASHED1
 62
   120
370
     5
100
AcDbLine
 10
-1452.619677098968
 20
-433.7078540121192
 30
0.0
 11
-879.619677098967
 21
-433.7078540121192
 31
0.0
  0
LINE
  5
106
330
1F
100
AcDbEntity
  8
0-0
  6
JWW_DASHED1
 62
   120
370
     5
100
AcDbLine
 10
-1452.619677098968
 20
-420.7078540110195
 30
0.0
 11
-879.619677098967
 21
-420.7078540110195
 31
0.0
  0
LINE
  5
107
330
1F
100
AcDbEntity
  8
0-0
  6
JWW_DASHED1
 62
   120
370
     5
100
AcDbLine
 10
-1452.619677098968
 20
-419.7078540111194
 30
0.0
 11
-879.619677098967
 21
-419.7078540111194
 31
0.0
  0
LINE
  5
108
330
1F
100
AcDbEntity
  8
0-0
  6
JWW_DASHED1
 62
   120
370
     5
100
AcDbLine
 10
-1452.619677098968
 20
-406.7078540100198
 30
0.0
 11
-879.619677098967
 21
-406.7078540100198
 31
0.0
  0
LINE
  5
109
330
1F
100
AcDbEntity
  8
0-0
  6
JWW_DASHED1
 62
   120
370
     5
100
AcDbLine
 10
-1452.619677098968
 20
-405.7078540101196
 30
0.0
 11
-879.619677098967
 21
-405.7078540101196
 31
0.0
  0
LINE
  5
10A
330
1F
100
AcDbEntity
  8
0-0
  6
JWW_DASHED1
 62
   120
370
     5
100
AcDbLine
 10
-1452.619677098968
 20
-392.70785400902
 30
0.0
 11
-879.619677098967
 21
-392.70785400902
 31
0.0
  0
LINE
  5
10B
330
1F
100
AcDbEntity
  8
0-0
  6
JWW_DASHED1
 62
   120
370
     5
100
AcDbLine
 10
-1452.619677098968
 20
-391.7078540091198
 30
0.0
 11
-879.619677098967
 21
-391.7078540091198
 31
0.0
  0
LINE
  5
10C
330
1F
100
AcDbEntity
  8
0-0
  6
JWW_DASHED1
 62
   120
370
     5
100
AcDbLine
 10
-1452.619677098968
 20
-378.7078540080202
 30
0.0
 11
-879.619677098967
 21
-378.7078540080202
 31
0.0
  0
LINE
  5
10D
330
1F
100
AcDbEntity
  8
0-0
  6
JWW_DASHED1
 62
   120
370
     5
100
AcDbLine
 10
-1452.619677098968
 20
-377.70785400812
 30
0.0
 11
-879.619677098967
 21
-377.70785400812
 31
0.0
  0
LINE
  5
10E
330
1F
100
AcDbEntity
  8
0-0
  6
JWW_DASHED1
 62
   120
370
     5
100
AcDbLine
 10
-1452.619677098968
 20
-364.7078540070204
 30
0.0
 11
-879.619677098967
 21
-364.7078540070204
 31
0.0
  0
LINE
  5
10F
330
1F
100
AcDbEntity
  8
0-0
  6
JWW_DASHED1
 62
   120
370
     5
100
AcDbLine
 10
-1452.619677098968
 20
-363.7078540071202
 30
0.0
 11
-879.619677098967
 21
-363.7078540071202
 31
0.0
  0
LINE
  5
110
330
1F
100
AcDbEntity
  8
0-0
  6
JWW_DASHED1
 62
   120
370
     5
100
AcDbLine
 10
-1452.619677098968
 20
-350.7078540060206
 30
0.0
 11
-879.619677098967
 21
-350.7078540060206
 31
0.0
  0
LINE
  5
111
330
1F
100
AcDbEntity
  8
0-0
  6
JWW_DASHED1
 62
   120
370
     5
100
AcDbLine
 10
-1452.619677098968
 20
-349.7078540061204
 30
0.0
 11
-879.619677098967
 21
-349.7078540061204
 31
0.0
  0
LINE
  5
112
330
1F
100
AcDbEntity
  8
0-0
  6
JWW_DASHED1
 62
   120
370
     5
100
AcDbLine
 10
-1452.619677098968
 20
-336.7078540050209
 30
0.0
 11
-879.619677098967
 21
-336.7078540050209
 31
0.0
  0
LINE
  5
113
330
1F
100
AcDbEntity
  8
0-0
  6
JWW_DASHED1
 62
   120
370
     5
100
AcDbLine
 10
-1452.619677098968
 20
-335.7078540051207
 30
0.0
 11
-879.619677098967
 21
-335.7078540051207
 31
0.0
  0
LINE
  5
114
330
1F
100
AcDbEntity
  8
0-0
  6
JWW_DASHED1
 62
   120
370
     5
100
AcDbLine
 10
-1452.619677098968
 20
-322.707854004021
 30
0.0
 11
-879.619677098967
 21
-322.707854004021
 31
0.0
  0
LINE
  5
115
330
1F
100
AcDbEntity
  8
0-0
  6
JWW_DASHED1
 62
   120
370
     5
100
AcDbLine
 10
-1452.619677098968
 20
-321.7078540041209
 30
0.0
 11
-879.619677098967
 21
-321.7078540041209
 31
0.0
  0
LINE
  5
116
330
1F
100
AcDbEntity
  8
0-0
  6
JWW_DASHED1
 62
   120
370
     5
100
AcDbLine
 10
-1452.619677098968
 20
-308.7078540030212
 30
0.0
 11
-879.619677098967
 21
-308.7078540030212
 31
0.0
  0
LINE
  5
117
330
1F
100
AcDbEntity
  8
0-0
  6
JWW_DASHED1
 62
   120
370
     5
100
AcDbLine
 10
-1452.619677098968
 20
-307.707854003121
 30
0.0
 11
-879.619677098967
 21
-307.707854003121
 31
0.0
  0
LINE
  5
118
330
1F
100
AcDbEntity
  8
0-0
  6
JWW_DASHED1
 62
   120
370
     5
100
AcDbLine
 10
-1452.619677098968
 20
-294.7078540020215
 30
0.0
 11
-879.619677098967
 21
-294.7078540020215
 31
0.0
  0
LINE
  5
119
330
1F
100
AcDbEntity
  8
0-0
  6
JWW_DASHED1
 62
   120
370
     5
100
AcDbLine
 10
-1452.619677098968
 20
-293.7078540021213
 30
0.0
 11
-879.619677098967
 21
-293.7078540021213
 31
0.0
  0
LINE
  5
11A
330
1F
100
AcDbEntity
  8
0-0
  6
JWW_DASHED1
 62
   120
370
     5
100
AcDbLine
 10
-1452.619677098968
 20
-280.7078540010217
 30
0.0
 11
-879.619677098967
 21
-280.7078540010217
 31
0.0
  0
LINE
  5
11B
330
1F
100
AcDbEntity
  8
0-0
  6
JWW_DASHED1
 62
   120
370
     5
100
AcDbLine
 10
-1452.619677098968
 20
-279.7078540011215
 30
0.0
 11
-879.619677098967
 21
-279.7078540011215
 31
0.0
  0
LINE
  5
11C
330
1F
100
AcDbEntity
  8
0-0
  6
JWW_DASHED1
 62
   120
370
     5
100
AcDbLine
 10
-1452.619677098968
 20
-266.7078540000219
 30
0.0
 11
-879.619677098967
 21
-266.7078540000219
 31
0.0
  0
LINE
  5
11D
330
1F
100
AcDbEntity
  8
0-0
  6
JWW_DASHED1
 62
   120
370
     5
100
AcDbLine
 10
-1452.619677098968
 20
-265.7078540001217
 30
0.0
 11
-879.619677098967
 21
-265.7078540001217
 31
0.0
  0
LINE
  5
11E
330
1F
100
AcDbEntity
  8
0-0
  6
JWW_DASHED1
 62
   120
370
     5
100
AcDbLine
 10
-1452.619677098968
 20
-252.7078539990221
 30
0.0
 11
-879.619677098967
 21
-252.7078539990221
 31
0.0
  0
LINE
  5
11F
330
1F
100
AcDbEntity
  8
0-0
  6
JWW_DASHED1
 62
   120
370
     5
100
AcDbLine
 10
-1452.619677098968
 20
-251.7078539991219
 30
0.0
 11
-879.619677098967
 21
-251.7078539991219
 31
0.0
  0
LINE
  5
120
330
1F
100
AcDbEntity
  8
0-0
  6
JWW_DASHED1
 62
   120
370
     5
100
AcDbLine
 10
-1452.619677098968
 20
-238.7078539980223
 30
0.0
 11
-879.619677098967
 21
-238.7078539980223
 31
0.0
  0
LINE
  5
121
330
1F
100
AcDbEntity
  8
0-0
  6
JWW_DASHED1
 62
   120
370
     5
100
AcDbLine
 10
-1452.619677098968
 20
-237.7078539981221
 30
0.0
 11
-879.619677098967
 21
-237.7078539981221
 31
0.0
  0
LINE
  5
122
330
1F
100
AcDbEntity
  8
0-0
  6
JWW_DASHED1
 62
   120
370
     5
100
AcDbLine
 10
-1452.619677098968
 20
-224.7078539970225
 30
0.0
 11
-879.619677098967
 21
-224.7078539970225
 31
0.0
  0
LINE
  5
123
330
1F
100
AcDbEntity
  8
0-0
  6
JWW_DASHED1
 62
   120
370
     5
100
AcDbLine
 10
-1452.619677098968
 20
-223.7078539971223
 30
0.0
 11
-879.619677098967
 21
-223.7078539971223
 31
0.0
  0
LINE
  5
124
330
1F
100
AcDbEntity
  8
0-0
  6
JWW_DASHED1
 62
   120
370
     5
100
AcDbLine
 10
-1452.619677098968
 20
-210.7078539960227
 30
0.0
 11
-879.619677098967
 21
-210.7078539960227
 31
0.0
  0
LINE
  5
125
330
1F
100
AcDbEntity
  8
0-0
  6
JWW_DASHED1
 62
   120
370
     5
100
AcDbLine
 10
-1452.619677098968
 20
-209.7078539961225
 30
0.0
 11
-879.619677098967
 21
-209.7078539961225
 31
0.0
  0
LINE
  5
126
330
1F
100
AcDbEntity
  8
0-0
  6
JWW_DASHED1
 62
   120
370
     5
100
AcDbLine
 10
-1452.619677098968
 20
-196.7078539950229
 30
0.0
 11
-879.619677098967
 21
-196.7078539950229
 31
0.0
  0
LINE
  5
127
330
1F
100
AcDbEntity
  8
0-0
  6
JWW_DASHED1
 62
   120
370
     5
100
AcDbLine
 10
-1452.619677098968
 20
-195.7078539951227
 30
0.0
 11
-879.619677098967
 21
-195.7078539951227
 31
0.0
  0
LINE
  5
128
330
1F
100
AcDbEntity
  8
0-0
  6
JWW_DASHED1
 62
   120
370
     5
100
AcDbLine
 10
-1452.619677098968
 20
-182.7078539940231
 30
0.0
 11
-879.619677098967
 21
-182.7078539940231
 31
0.0
  0
LINE
  5
129
330
1F
100
AcDbEntity
  8
0-0
  6
JWW_DASHED1
 62
   120
370
     5
100
AcDbLine
 10
-1452.619677098968
 20
-181.707853994123
 30
0.0
 11
-879.619677098967
 21
-181.707853994123
 31
0.0
  0
LINE
  5
12A
330
1F
100
AcDbEntity
  8
0-0
  6
JWW_DASHED1
 62
   120
370
     5
100
AcDbLine
 10
-1452.619677098968
 20
-168.7078539930233
 30
0.0
 11
-879.619677098967
 21
-168.7078539930233
 31
0.0
  0
LINE
  5
12B
330
1F
100
AcDbEntity
  8
0-0
  6
JWW_DASHED1
 62
   120
370
     5
100
AcDbLine
 10
-1452.619677098968
 20
-167.7078539931232
 30
0.0
 11
-879.619677098967
 21
-167.7078539931232
 31
0.0
  0
LINE
  5
12C
330
1F
100
AcDbEntity
  8
0-0
  6
JWW_DASHED1
 62
   120
370
     5
100
AcDbLine
 10
-1452.619677098968
 20
-154.7078539920236
 30
0.0
 11
-879.619677098967
 21
-154.7078539920236
 31
0.0
  0
LINE
  5
12D
330
1F
100
AcDbEntity
  8
0-0
  6
JWW_DASHED1
 62
   120
370
     5
100
AcDbLine
 10
-1452.619677098968
 20
-153.7078539921234
 30
0.0
 11
-879.619677098967
 21
-153.7078539921234
 31
0.0
  0
LINE
  5
12E
330
1F
100
AcDbEntity
  8
0-0
  6
JWW_DASHED1
 62
   120
370
     5
100
AcDbLine
 10
-1452.619677098968
 20
-140.7078539910238
 30
0.0
 11
-879.619677098967
 21
-140.7078539910238
 31
0.0
  0
LINE
  5
12F
330
1F
100
AcDbEntity
  8
0-0
  6
JWW_DASHED1
 62
   120
370
     5
100
AcDbLine
 10
-1452.619677098968
 20
-139.7078539911236
 30
0.0
 11
-879.619677098967
 21
-139.7078539911236
 31
0.0
  0
LINE
  5
130
330
1F
100
AcDbEntity
  8
0-0
  6
JWW_DASHED1
 62
   120
370
     5
100
AcDbLine
 10
-1452.619677098968
 20
-126.707853990024
 30
0.0
 11
-879.619677098967
 21
-126.707853990024
 31
0.0
  0
LINE
  5
131
330
1F
100
AcDbEntity
  8
0-0
  6
JWW_DASHED1
 62
   120
370
     5
100
AcDbLine
 10
-1452.619677098968
 20
-125.7078539901238
 30
0.0
 11
-879.619677098967
 21
-125.7078539901238
 31
0.0
  0
LINE
  5
132
330
1F
100
AcDbEntity
  8
0-0
  6
JWW_DASHED1
 62
   120
370
     5
100
AcDbLine
 10
-1452.619677098968
 20
-112.7078539890242
 30
0.0
 11
-879.619677098967
 21
-112.7078539890242
 31
0.0
  0
LINE
  5
133
330
1F
100
AcDbEntity
  8
0-0
  6
JWW_DASHED1
 62
   120
370
     5
100
AcDbLine
 10
-1452.619677098968
 20
-111.707853989124
 30
0.0
 11
-879.619677098967
 21
-111.707853989124
 31
0.0
  0
LINE
  5
134
330
1F
100
AcDbEntity
  8
0-0
  6
JWW_DASHED1
 62
   120
370
     5
100
AcDbLine
 10
-1452.619677098968
 20
-98.7078539880244
 30
0.0
 11
-879.619677098967
 21
-98.7078539880244
 31
0.0
  0
LINE
  5
135
330
1F
100
AcDbEntity
  8
0-0
  6
JWW_DASHED1
 62
   120
370
     5
100
AcDbLine
 10
-1452.619677098968
 20
-97.70785398812421
 30
0.0
 11
-879.619677098967
 21
-97.70785398812421
 31
0.0
  0
LINE
  5
136
330
1F
100
AcDbEntity
  8
0-0
  6
JWW_DASHED1
 62
   120
370
     5
100
AcDbLine
 10
-1452.619677098968
 20
-84.7078539870246
 30
0.0
 11
-879.619677098967
 21
-84.7078539870246
 31
0.0
  0
LINE
  5
137
330
1F
100
AcDbEntity
  8
0-0
  6
JWW_DASHED1
 62
   120
370
     5
100
AcDbLine
 10
-1452.619677098968
 20
-83.70785398712442
 30
0.0
 11
-879.619677098967
 21
-83.70785398712442
 31
0.0
  0
LINE
  5
138
330
1F
100
AcDbEntity
  8
0-0
  6
JWW_DASHED1
 62
   120
370
     5
100
AcDbLine
 10
-1452.619677098968
 20
-70.70785398602482
 30
0.0
 11
-879.619677098967
 21
-70.70785398602482
 31
0.0
  0
LINE
  5
139
330
1F
100
AcDbEntity
  8
0-0
  6
JWW_DASHED1
 62
   120
370
     5
100
AcDbLine
 10
-1452.619677098968
 20
-69.70785398612463
 30
0.0
 11
-879.619677098967
 21
-69.70785398612463
 31
0.0
  0
LINE
  5
13A
330
1F
100
AcDbEntity
  8
0-0
  6
JWW_DASHED1
 62
   120
370
     5
100
AcDbLine
 10
-1452.619677098968
 20
-56.70785398502503
 30
0.0
 11
-879.619677098967
 21
-56.70785398502503
 31
0.0
  0
LINE
  5
13B
330
1F
100
AcDbEntity
  8
0-0
  6
JWW_DASHED1
 62
   120
370
     5
100
AcDbLine
 10
-1452.619677098968
 20
-55.70785398512484
 30
0.0
 11
-879.619677098967
 21
-55.70785398512484
 31
0.0
  0
LINE
  5
13C
330
1F
100
AcDbEntity
  8
0-0
  6
JWW_DASHED1
 62
   120
370
     5
100
AcDbLine
 10
-1452.619677098968
 20
-42.70785398402523
 30
0.0
 11
-879.619677098967
 21
-42.70785398402523
 31
0.0
  0
LINE
  5
13D
330
1F
100
AcDbEntity
  8
0-0
  6
JWW_DASHED1
 62
   120
370
     5
100
AcDbLine
 10
-1452.619677098968
 20
-41.70785398412505
 30
0.0
 11
-879.619677098967
 21
-41.70785398412505
 31
0.0
  0
LINE
  5
13E
330
1F
100
AcDbEntity
  8
0-0
  6
JWW_DASHED1
 62
   120
370
     5
100
AcDbLine
 10
-1452.619677098968
 20
-28.70785398302544
 30
0.0
 11
-879.619677098967
 21
-28.70785398302544
 31
0.0
  0
LINE
  5
13F
330
1F
100
AcDbEntity
  8
0-0
  6
JWW_DASHED1
 62
   120
370
     5
100
AcDbLine
 10
-1452.619677098968
 20
-27.70785398312526
 30
0.0
 11
-879.619677098967
 21
-27.70785398312526
 31
0.0
  0
LINE
  5
140
330
1F
100
AcDbEntity
  8
0-0
  6
JWW_DASHED1
 62
   120
370
     5
100
AcDbLine
 10
-1452.619677098968
 20
-14.70785398202565
 30
0.0
 11
-879.619677098967
 21
-14.70785398202565
 31
0.0
  0
LINE
  5
141
330
1F
100
AcDbEntity
  8
0-0
  6
JWW_DASHED1
 62
   120
370
     5
100
AcDbLine
 10
-1452.619677098968
 20
-13.70785398212547
 30
0.0
 11
-879.619677098967
 21
-13.70785398212547
 31
0.0
  0
LINE
  5
142
330
1F
100
AcDbEntity
  8
0-0
  6
JWW_DASHED1
 62
   120
370
     5
100
AcDbLine
 10
-1452.619677098968
 20
-0.7078539810258633
 30
0.0
 11
-879.619677098967
 21
-0.7078539810258633
 31
0.0
  0
LINE
  5
143
330
1F
100
AcDbEntity
  8
0-0
  6
JWW_DASHED1
 62
   120
370
     5
100
AcDbLine
 10
-1452.619677098968
 20
0.2921460188743197
 30
0.0
 11
-879.619677098967
 21
0.2921460188743197
 31
0.0
  0
LINE
  5
144
330
1F
100
AcDbEntity
  8
0-0
  6
JWW_DASHED1
 62
   120
370
     5
100
AcDbLine
 10
-1452.619677098968
 20
13.29214601997393
 30
0.0
 11
-879.619677098967
 21
13.29214601997393
 31
0.0
  0
LINE
  5
145
330
1F
100
AcDbEntity
  8
0-0
  6
JWW_DASHED1
 62
   120
370
     5
100
AcDbLine
 10
-1452.619677098968
 20
14.29214601987411
 30
0.0
 11
-879.619677098967
 21
14.29214601987411
 31
0.0
  0
LINE
  5
146
330
1F
100
AcDbEntity
  8
0-0
  6
JWW_DASHED1
 62
   120
370
     5
100
AcDbLine
 10
-1452.619677098968
 20
27.29214602097372
 30
0.0
 11
-879.619677098967
 21
27.29214602097372
 31
0.0
  0
LINE
  5
147
330
1F
100
AcDbEntity
  8
0-0
  6
JWW_DASHED1
 62
   120
370
     5
100
AcDbLine
 10
-1452.619677098968
 20
28.2921460208739
 30
0.0
 11
-879.619677098967
 21
28.2921460208739
 31
0.0
  0
LINE
  5
148
330
1F
100
AcDbEntity
  8
0-0
  6
JWW_DASHED1
 62
   120
370
     5
100
AcDbLine
 10
-1452.619677098968
 20
41.29214602197351
 30
0.0
 11
-879.619677098967
 21
41.29214602197351
 31
0.0
  0
LINE
  5
149
330
1F
100
AcDbEntity
  8
0-0
  6
JWW_DASHED1
 62
   120
370
     5
100
AcDbLine
 10
-1452.619677098968
 20
42.29214602187369
 30
0.0
 11
-879.619677098967
 21
42.29214602187369
 31
0.0
  0
LINE
  5
14A
330
1F
100
AcDbEntity
  8
0-0
  6
JWW_DASHED1
 62
   120
370
     5
100
AcDbLine
 10
-1452.619677098968
 20
55.2921460229733
 30
0.0
 11
-879.619677098967
 21
55.2921460229733
 31
0.0
  0
LINE
  5
14B
330
1F
100
AcDbEntity
  8
0-0
  6
JWW_DASHED1
 62
   120
370
     5
100
AcDbLine
 10
-1452.619677098968
 20
56.29214602287348
 30
0.0
 11
-879.619677098967
 21
56.29214602287348
 31
0.0
  0
LINE
  5
14C
330
1F
100
AcDbEntity
  8
0-0
  6
JWW_DASHED1
 62
   120
370
     5
100
AcDbLine
 10
-1452.619677098968
 20
69.29214602397309
 30
0.0
 11
-879.619677098967
 21
69.29214602397309
 31
0.0
  0
LINE
  5
14D
330
1F
100
AcDbEntity
  8
0-0
  6
JWW_DASHED1
 62
   120
370
     5
100
AcDbLine
 10
-1452.619677098968
 20
70.29214602387327
 30
0.0
 11
-879.619677098967
 21
70.29214602387327
 31
0.0
  0
LINE
  5
14E
330
1F
100
AcDbEntity
  8
0-0
  6
JWW_DASHED1
 62
   120
370
     5
100
AcDbLine
 10
-1452.619677098968
 20
83.29214602497288
 30
0.0
 11
-879.619677098967
 21
83.29214602497288
 31
0.0
  0
LINE
  5
14F
330
1F
100
AcDbEntity
  8
0-0
  6
JWW_DASHED1
 62
   120
370
     5
100
AcDbLine
 10
-1452.619677098968
 20
84.29214602487306
 30
0.0
 11
-879.619677098967
 21
84.29214602487306
 31
0.0
  0
LINE
  5
150
330
1F
100
AcDbEntity
  8
0-0
  6
JWW_DASHED1
 62
   120
370
     5
100
AcDbLine
 10
-1452.619677098968
 20
97.29214602597267
 30
0.0
 11
-879.619677098967
 21
97.29214602597267
 31
0.0
  0
LINE
  5
151
330
1F
100
AcDbEntity
  8
0-0
  6
JWW_DASHED1
 62
   120
370
     5
100
AcDbLine
 10
-1452.619677098968
 20
98.29214602587285
 30
0.0
 11
-879.619677098967
 21
98.29214602587285
 31
0.0
  0
LINE
  5
152
330
1F
100
AcDbEntity
  8
0-0
  6
JWW_DASHED1
 62
   120
370
     5
100
AcDbLine
 10
-1452.619677098968
 20
111.2921460269725
 30
0.0
 11
-879.619677098967
 21
111.2921460269725
 31
0.0
  0
LINE
  5
153
330
1F
100
AcDbEntity
  8
0-0
  6
JWW_DASHED1
 62
   120
370
     5
100
AcDbLine
 10
-1452.619677098968
 20
112.2921460268726
 30
0.0
 11
-879.619677098967
 21
112.2921460268726
 31
0.0
  0
LINE
  5
154
330
1F
100
AcDbEntity
  8
0-0
  6
JWW_DASHED1
 62
   120
370
     5
100
AcDbLine
 10
-1452.619677098968
 20
125.2921460279723
 30
0.0
 11
-879.619677098967
 21
125.2921460279723
 31
0.0
  0
LINE
  5
155
330
1F
100
AcDbEntity
  8
0-0
  6
JWW_DASHED1
 62
   120
370
     5
100
AcDbLine
 10
-1452.619677098968
 20
126.2921460278724
 30
0.0
 11
-879.619677098967
 21
126.2921460278724
 31
0.0
  0
LINE
  5
156
330
1F
100
AcDbEntity
  8
0-0
  6
JWW_DASHED1
 62
   120
370
     5
100
AcDbLine
 10
-1452.619677098968
 20
139.292146028972
 30
0.0
 11
-879.619677098967
 21
139.292146028972
 31
0.0
  0
LINE
  5
157
330
1F
100
AcDbEntity
  8
0-0
  6
JWW_DASHED1
 62
   120
370
     5
100
AcDbLine
 10
-1452.619677098968
 20
140.2921460288722
 30
0.0
 11
-879.619677098967
 21
140.2921460288722
 31
0.0
  0
LINE
  5
158
330
1F
100
AcDbEntity
  8
0-0
  6
JWW_DASHED1
 62
   120
370
     5
100
AcDbLine
 10
-1452.619677098968
 20
153.2921460299718
 30
0.0
 11
-879.619677098967
 21
153.2921460299718
 31
0.0
  0
LINE
  5
159
330
1F
100
AcDbEntity
  8
0-0
  6
JWW_DASHED1
 62
   120
370
     5
100
AcDbLine
 10
-1452.619677098968
 20
154.292146029872
 30
0.0
 11
-879.619677098967
 21
154.292146029872
 31
0.0
  0
LINE
  5
15A
330
1F
100
AcDbEntity
  8
0-0
  6
JWW_DASHED1
 62
   120
370
     5
100
AcDbLine
 10
-1452.619677098968
 20
167.2921460309716
 30
0.0
 11
-879.619677098967
 21
167.2921460309716
 31
0.0
  0
LINE
  5
15B
330
1F
100
AcDbEntity
  8
0-0
  6
JWW_DASHED1
 62
   120
370
     5
100
AcDbLine
 10
-1452.619677098968
 20
168.2921460308718
 30
0.0
 11
-879.619677098967
 21
168.2921460308718
 31
0.0
  0
LINE
  5
15C
330
1F
100
AcDbEntity
  8
0-0
  6
JWW_DASHED1
 62
   120
370
     5
100
AcDbLine
 10
-1452.619677098968
 20
181.2921460319714
 30
0.0
 11
-879.619677098967
 21
181.2921460319714
 31
0.0
  0
LINE
  5
15D
330
1F
100
AcDbEntity
  8
0-0
  6
JWW_DASHED1
 62
   120
370
     5
100
AcDbLine
 10
-1452.619677098968
 20
182.2921460318716
 30
0.0
 11
-879.619677098967
 21
182.2921460318716
 31
0.0
  0
LINE
  5
15E
330
1F
100
AcDbEntity
  8
0-0
  6
JWW_DASHED1
 62
   120
370
     5
100
AcDbLine
 10
-1452.619677098968
 20
195.2921460329712
 30
0.0
 11
-879.619677098967
 21
195.2921460329712
 31
0.0
  0
LINE
  5
15F
330
1F
100
AcDbEntity
  8
0-0
  6
JWW_DASHED1
 62
   120
370
     5
100
AcDbLine
 10
-1452.619677098968
 20
196.2921460328714
 30
0.0
 11
-879.619677098967
 21
196.2921460328714
 31
0.0
  0
LINE
  5
160
330
1F
100
AcDbEntity
  8
0-0
  6
JWW_DASHED1
 62
   120
370
     5
100
AcDbLine
 10
-1452.619677098968
 20
209.292146033971
 30
0.0
 11
-879.619677098967
 21
209.292146033971
 31
0.0
  0
LINE
  5
161
330
1F
100
AcDbEntity
  8
0-0
  6
JWW_DASHED1
 62
   120
370
     5
100
AcDbLine
 10
-1452.619677098968
 20
210.2921460338712
 30
0.0
 11
-879.619677098967
 21
210.2921460338712
 31
0.0
  0
LINE
  5
162
330
1F
100
AcDbEntity
  8
0-0
  6
JWW_DASHED1
 62
   120
370
     5
100
AcDbLine
 10
-1452.619677098968
 20
223.2921460349708
 30
0.0
 11
-879.619677098967
 21
223.2921460349708
 31
0.0
  0
LINE
  5
163
330
1F
100
AcDbEntity
  8
0-0
  6
JWW_DASHED1
 62
   120
370
     5
100
AcDbLine
 10
-1452.619677098968
 20
224.292146034871
 30
0.0
 11
-879.619677098967
 21
224.292146034871
 31
0.0
  0
LINE
  5
164
330
1F
100
AcDbEntity
  8
0-0
  6
JWW_DASHED1
 62
   120
370
     5
100
AcDbLine
 10
-1452.619677098968
 20
237.2921460359706
 30
0.0
 11
-879.619677098967
 21
237.2921460359706
 31
0.0
  0
LINE
  5
165
330
1F
100
AcDbEntity
  8
0-0
  6
JWW_DASHED1
 62
   120
370
     5
100
AcDbLine
 10
-1452.619677098968
 20
238.2921460358708
 30
0.0
 11
-879.619677098967
 21
238.2921460358708
 31
0.0
  0
LINE
  5
166
330
1F
100
AcDbEntity
  8
0-0
  6
JWW_DASHED1
 62
   120
370
     5
100
AcDbLine
 10
-1452.619677098968
 20
251.2921460369704
 30
0.0
 11
-879.619677098967
 21
251.2921460369704
 31
0.0
  0
LINE
  5
167
330
1F
100
AcDbEntity
  8
0-0
  6
JWW_DASHED1
 62
   120
370
     5
100
AcDbLine
 10
-1452.619677098968
 20
252.2921460368705
 30
0.0
 11
-879.619677098967
 21
252.2921460368705
 31
0.0
  0
LINE
  5
168
330
1F
100
AcDbEntity
  8
0-0
  6
JWW_DASHED1
 62
   120
370
     5
100
AcDbLine
 10
-1452.619677098968
 20
265.2921460379702
 30
0.0
 11
-879.619677098967
 21
265.2921460379702
 31
0.0
  0
LINE
  5
169
330
1F
100
AcDbEntity
  8
0-0
  6
JWW_DASHED1
 62
   120
370
     5
100
AcDbLine
 10
-1452.619677098968
 20
266.2921460378703
 30
0.0
 11
-879.619677098967
 21
266.2921460378703
 31
0.0
  0
LINE
  5
16A
330
1F
100
AcDbEntity
  8
0-0
  6
JWW_DASHED1
 62
   120
370
     5
100
AcDbLine
 10
-1452.619677098968
 20
279.2921460389699
 30
0.0
 11
-879.619677098967
 21
279.2921460389699
 31
0.0
  0
LINE
  5
16B
330
1F
100
AcDbEntity
  8
0-0
  6
JWW_DASHED1
 62
   120
370
     5
100
AcDbLine
 10
-1452.619677098968
 20
280.2921460388701
 30
0.0
 11
-879.619677098967
 21
280.2921460388701
 31
0.0
  0
LINE
  5
16C
330
1F
100
AcDbEntity
  8
0-0
  6
JWW_DASHED1
 62
   120
370
     5
100
AcDbLine
 10
-1452.619677098968
 20
293.2921460399697
 30
0.0
 11
-879.619677098967
 21
293.2921460399697
 31
0.0
  0
LINE
  5
16D
330
1F
100
AcDbEntity
  8
0-0
  6
JWW_DASHED1
 62
   120
370
     5
100
AcDbLine
 10
-1452.619677098968
 20
294.2921460398699
 30
0.0
 11
-879.619677098967
 21
294.2921460398699
 31
0.0
  0
LINE
  5
16E
330
1F
100
AcDbEntity
  8
0-0
  6
JWW_DASHED1
 62
   120
370
     5
100
AcDbLine
 10
-1452.619677098968
 20
307.2921460409696
 30
0.0
 11
-879.619677098967
 21
307.2921460409696
 31
0.0
  0
LINE
  5
16F
330
1F
100
AcDbEntity
  8
0-0
  6
JWW_DASHED1
 62
   120
370
     5
100
AcDbLine
 10
-1452.619677098968
 20
308.2921460408697
 30
0.0
 11
-879.619677098967
 21
308.2921460408697
 31
0.0
  0
LINE
  5
170
330
1F
100
AcDbEntity
  8
0-0
  6
JWW_DASHED1
 62
   120
370
     5
100
AcDbLine
 10
-1452.619677098968
 20
321.2921460419693
 30
0.0
 11
-879.619677098967
 21
321.2921460419693
 31
0.0
  0
LINE
  5
171
330
1F
100
AcDbEntity
  8
0-0
  6
JWW_DASHED1
 62
   120
370
     5
100
AcDbLine
 10
-1452.619677098968
 20
322.2921460418695
 30
0.0
 11
-879.619677098967
 21
322.2921460418695
 31
0.0
  0
LINE
  5
172
330
1F
100
AcDbEntity
  8
0-0
  6
JWW_DASHED1
 62
   120
370
     5
100
AcDbLine
 10
-1452.619677098968
 20
335.2921460429691
 30
0.0
 11
-879.619677098967
 21
335.2921460429691
 31
0.0
  0
LINE
  5
173
330
1F
100
AcDbEntity
  8
0-0
  6
JWW_DASHED1
 62
   120
370
     5
100
AcDbLine
 10
-1452.619677098968
 20
336.2921460428693
 30
0.0
 11
-879.619677098967
 21
336.2921460428693
 31
0.0
  0
LINE
  5
174
330
1F
100
AcDbEntity
  8
0-0
  6
JWW_DASHED1
 62
   120
370
     5
100
AcDbLine
 10
-1452.619677098968
 20
349.2921460439689
 30
0.0
 11
-879.619677098967
 21
349.2921460439689
 31
0.0
  0
LINE
  5
175
330
1F
100
AcDbEntity
  8
0-0
  6
JWW_DASHED1
 62
   120
370
     5
100
AcDbLine
 10
-1452.619677098968
 20
350.2921460438691
 30
0.0
 11
-879.619677098967
 21
350.2921460438691
 31
0.0
  0
LINE
  5
176
330
1F
100
AcDbEntity
  8
0-0
  6
JWW_DASHED1
 62
   120
370
     5
100
AcDbLine
 10
-1452.619677098968
 20
363.2921460449687
 30
0.0
 11
-879.619677098967
 21
363.2921460449687
 31
0.0
  0
LINE
  5
177
330
1F
100
AcDbEntity
  8
0-0
  6
JWW_DASHED1
 62
   120
370
     5
100
AcDbLine
 10
-1452.619677098968
 20
364.2921460448689
 30
0.0
 11
-879.619677098967
 21
364.2921460448689
 31
0.0
  0
LINE
  5
178
330
1F
100
AcDbEntity
  8
0-0
  6
JWW_DASHED1
 62
   120
370
     5
100
AcDbLine
 10
-1452.619677098968
 20
377.2921460459685
 30
0.0
 11
-879.619677098967
 21
377.2921460459685
 31
0.0
  0
LINE
  5
179
330
1F
100
AcDbEntity
  8
0-0
  6
JWW_DASHED1
 62
   120
370
     5
100
AcDbLine
 10
-1452.619677098968
 20
378.2921460458687
 30
0.0
 11
-879.619677098967
 21
378.2921460458687
 31
0.0
  0
LINE
  5
17A
330
1F
100
AcDbEntity
  8
0-0
  6
JWW_DASHED1
 62
   120
370
     5
100
AcDbLine
 10
-1452.619677098968
 20
391.2921460469682
 30
0.0
 11
-879.619677098967
 21
391.2921460469682
 31
0.0
  0
LINE
  5
17B
330
1F
100
AcDbEntity
  8
0-0
  6
JWW_DASHED1
 62
   120
370
     5
100
AcDbLine
 10
-1452.619677098968
 20
392.2921460468684
 30
0.0
 11
-879.619677098967
 21
392.2921460468684
 31
0.0
  0
LINE
  5
17C
330
1F
100
AcDbEntity
  8
0-0
  6
JWW_DASHED1
 62
   120
370
     5
100
AcDbLine
 10
-1452.619677098968
 20
405.2921460479681
 30
0.0
 11
-879.619677098967
 21
405.2921460479681
 31
0.0
  0
LINE
  5
17D
330
1F
100
AcDbEntity
  8
0-0
  6
JWW_DASHED1
 62
   120
370
     5
100
AcDbLine
 10
-1452.619677098968
 20
406.2921460478682
 30
0.0
 11
-879.619677098967
 21
406.2921460478682
 31
0.0
  0
LINE
  5
17E
330
1F
100
AcDbEntity
  8
0-0
  6
JWW_DASHED1
 62
   120
370
     5
100
AcDbLine
 10
-1452.619677098968
 20
419.2921460489679
 30
0.0
 11
-879.619677098967
 21
419.2921460489679
 31
0.0
  0
LINE
  5
17F
330
1F
100
AcDbEntity
  8
0-0
  6
JWW_DASHED1
 62
   120
370
     5
100
AcDbLine
 10
-1452.619677098968
 20
420.2921460488681
 30
0.0
 11
-879.619677098967
 21
420.2921460488681
 31
0.0
  0
LINE
  5
180
330
1F
100
AcDbEntity
  8
0-0
  6
JWW_DASHED1
 62
   120
370
     5
100
AcDbLine
 10
-1452.619677098968
 20
433.2921460499676
 30
0.0
 11
-879.619677098967
 21
433.2921460499676
 31
0.0
  0
LINE
  5
181
330
1F
100
AcDbEntity
  8
0-0
  6
JWW_DASHED1
 62
   120
370
     5
100
AcDbLine
 10
-1452.619677098968
 20
434.2921460498678
 30
0.0
 11
-879.619677098967
 21
434.2921460498678
 31
0.0
  0
LINE
  5
182
330
1F
100
AcDbEntity
  8
0-0
  6
JWW_DASHED1
 62
   120
370
     5
100
AcDbLine
 10
-1452.619677098968
 20
447.2921460509674
 30
0.0
 11
-879.619677098967
 21
447.2921460509674
 31
0.0
  0
LINE
  5
183
330
1F
100
AcDbEntity
  8
0-0
  6
JWW_DASHED1
 62
   120
370
     5
100
AcDbLine
 10
-1452.619677098968
 20
448.2921460508676
 30
0.0
 11
-879.619677098967
 21
448.2921460508676
 31
0.0
  0
LINE
  5
184
330
1F
100
AcDbEntity
  8
0-0
  6
JWW_DASHED1
 62
   120
370
     5
100
AcDbLine
 10
-1452.619677098968
 20
461.2921460519672
 30
0.0
 11
-879.619677098967
 21
461.2921460519672
 31
0.0
  0
LINE
  5
185
330
1F
100
AcDbEntity
  8
0-0
  6
JWW_DASHED1
 62
   120
370
     5
100
AcDbLine
 10
-1452.619677098968
 20
462.2921460518674
 30
0.0
 11
-879.619677098967
 21
462.2921460518674
 31
0.0
  0
LINE
  5
186
330
1F
100
AcDbEntity
  8
0-0
  6
JWW_DASHED1
 62
   120
370
     5
100
AcDbLine
 10
-1452.619677098968
 20
475.292146052967
 30
0.0
 11
-879.619677098967
 21
475.292146052967
 31
0.0
  0
LINE
  5
187
330
1F
100
AcDbEntity
  8
0-0
  6
JWW_DASHED1
 62
   120
370
     5
100
AcDbLine
 10
-1452.619677098968
 20
476.2921460528672
 30
0.0
 11
-879.619677098967
 21
476.2921460528672
 31
0.0
  0
LINE
  5
188
330
1F
100
AcDbEntity
  8
0-0
  6
JWW_DASHED1
 62
   120
370
     5
100
AcDbLine
 10
-1452.619677098968
 20
489.2921460539668
 30
0.0
 11
-879.619677098967
 21
489.2921460539668
 31
0.0
  0
LINE
  5
189
330
1F
100
AcDbEntity
  8
0-0
  6
JWW_DASHED1
 62
   120
370
     5
100
AcDbLine
 10
-1452.619677098968
 20
490.292146053867
 30
0.0
 11
-879.619677098967
 21
490.292146053867
 31
0.0
  0
LINE
  5
18A
330
1F
100
AcDbEntity
  8
0-0
  6
JWW_DASHED1
 62
   120
370
     5
100
AcDbLine
 10
-1452.619677098968
 20
503.2921460549666
 30
0.0
 11
-879.619677098967
 21
503.2921460549666
 31
0.0
  0
LINE
  5
18B
330
1F
100
AcDbEntity
  8
0-0
  6
JWW_DASHED1
 62
   120
370
     5
100
AcDbLine
 10
-1452.619677098968
 20
504.2921460548667
 30
0.0
 11
-879.619677098967
 21
504.2921460548667
 31
0.0
  0
LINE
  5
18C
330
1F
100
AcDbEntity
  8
0-0
  6
JWW_DASHED1
 62
   120
370
     5
100
AcDbLine
 10
-1452.619677098968
 20
517.2921460559664
 30
0.0
 11
-879.619677098967
 21
517.2921460559664
 31
0.0
  0
LINE
  5
18D
330
1F
100
AcDbEntity
  8
0-0
  6
JWW_DASHED1
 62
   120
370
     5
100
AcDbLine
 10
-1452.619677098968
 20
518.2921460558666
 30
0.0
 11
-879.619677098967
 21
518.2921460558666
 31
0.0
  0
LINE
  5
18E
330
1F
100
AcDbEntity
  8
0-0
  6
JWW_DASHED1
 62
   120
370
     5
100
AcDbLine
 10
-1452.619677098968
 20
531.2921460569662
 30
0.0
 11
-879.619677098967
 21
531.2921460569662
 31
0.0
  0
LINE
  5
18F
330
1F
100
AcDbEntity
  8
0-0
  6
JWW_DASHED1
 62
   120
370
     5
100
AcDbLine
 10
-1452.619677098968
 20
532.2921460568664
 30
0.0
 11
-879.619677098967
 21
532.2921460568664
 31
0.0
  0
LINE
  5
190
330
1F
100
AcDbEntity
  8
0-0
  6
JWW_DASHED1
 62
   120
370
     5
100
AcDbLine
 10
-1452.619677098968
 20
545.292146057966
 30
0.0
 11
-879.619677098967
 21
545.292146057966
 31
0.0
  0
LINE
  5
191
330
1F
100
AcDbEntity
  8
0-0
  6
JWW_DASHED1
 62
   120
370
     5
100
AcDbLine
 10
-1452.619677098968
 20
546.2921460578661
 30
0.0
 11
-879.619677098967
 21
546.2921460578661
 31
0.0
  0
LINE
  5
192
330
1F
100
AcDbEntity
  8
0-0
  6
JWW_DASHED1
 62
   120
370
     5
100
AcDbLine
 10
-1452.619677098968
 20
559.2921460589657
 30
0.0
 11
-879.619677098967
 21
559.2921460589657
 31
0.0
  0
LINE
  5
193
330
1F
100
AcDbEntity
  8
0-0
  6
JWW_DASHED1
 62
   120
370
     5
100
AcDbLine
 10
-1452.619677098968
 20
560.2921460588659
 30
0.0
 11
-879.619677098967
 21
560.2921460588659
 31
0.0
  0
LINE
  5
194
330
1F
100
AcDbEntity
  8
0-0
  6
JWW_DASHED1
 62
   120
370
     5
100
AcDbLine
 10
-1452.619677098968
 20
573.2921460599655
 30
0.0
 11
-879.619677098967
 21
573.2921460599655
 31
0.0
  0
LINE
  5
195
330
1F
100
AcDbEntity
  8
0-0
  6
JWW_DASHED1
 62
   120
370
     5
100
AcDbLine
 10
-1452.619677098968
 20
574.2921460598657
 30
0.0
 11
-879.619677098967
 21
574.2921460598657
 31
0.0
  0
LINE
  5
196
330
1F
100
AcDbEntity
  8
0-0
  6
JWW_DASHED1
 62
   120
370
     5
100
AcDbLine
 10
-1452.619677098968
 20
587.2921460609654
 30
0.0
 11
-879.619677098967
 21
587.2921460609654
 31
0.0
  0
LINE
  5
197
330
1F
100
AcDbEntity
  8
0-0
  6
JWW_DASHED1
 62
   120
370
     5
100
AcDbLine
 10
-1452.619677098968
 20
588.2921460608655
 30
0.0
 11
-879.619677098967
 21
588.2921460608655
 31
0.0
  0
LINE
  5
198
330
1F
100
AcDbEntity
  8
0-0
  6
JWW_DASHED1
 62
   120
370
     5
100
AcDbLine
 10
-1452.619677098968
 20
601.2921460619651
 30
0.0
 11
-879.619677098967
 21
601.2921460619651
 31
0.0
  0
LINE
  5
199
330
1F
100
AcDbEntity
  8
0-0
  6
JWW_DASHED1
 62
   120
370
     5
100
AcDbLine
 10
-1452.619677098968
 20
602.2921460618653
 30
0.0
 11
-879.619677098967
 21
602.2921460618653
 31
0.0
  0
LINE
  5
19A
330
1F
100
AcDbEntity
  8
0-0
  6
JWW_DASHED1
 62
   120
370
     5
100
AcDbLine
 10
-1452.619677098968
 20
615.2921460629649
 30
0.0
 11
-879.619677098967
 21
615.2921460629649
 31
0.0
  0
LINE
  5
19B
330
1F
100
AcDbEntity
  8
0-0
  6
JWW_DASHED1
 62
   120
370
     5
100
AcDbLine
 10
-1452.619677098968
 20
616.2921460628651
 30
0.0
 11
-879.619677098967
 21
616.2921460628651
 31
0.0
  0
LINE
  5
19C
330
1F
100
AcDbEntity
  8
0-0
  6
JWW_DASHED1
 62
   120
370
     5
100
AcDbLine
 10
-1452.619677098968
 20
629.2921460639648
 30
0.0
 11
-879.619677098967
 21
629.2921460639648
 31
0.0
  0
LINE
  5
19D
330
1F
100
AcDbEntity
  8
0-0
  6
JWW_DASHED1
 62
   120
370
     5
100
AcDbLine
 10
-1452.619677098968
 20
630.292146063865
 30
0.0
 11
-879.619677098967
 21
630.292146063865
 31
0.0
  0
LINE
  5
19E
330
1F
100
AcDbEntity
  8
0-0
  6
JWW_DASHED1
 62
   120
370
     5
100
AcDbLine
 10
-1452.619677098968
 20
643.2921460649645
 30
0.0
 11
-879.619677098967
 21
643.2921460649645
 31
0.0
  0
LINE
  5
19F
330
1F
100
AcDbEntity
  8
0-0
  6
JWW_DASHED1
 62
   120
370
     5
100
AcDbLine
 10
-1452.619677098968
 20
644.2921460648647
 30
0.0
 11
-879.619677098967
 21
644.2921460648647
 31
0.0
  0
LINE
  5
1A0
330
1F
100
AcDbEntity
  8
0-0
  6
JWW_DASHED1
 62
   120
370
     5
100
AcDbLine
 10
-1446.619658640936
 20
-462.7077057001752
 30
0.0
 11
-1446.619658640936
 21
712.292294299825
 31
0.0
  0
LINE
  5
1A1
330
1F
100
AcDbEntity
  8
0-0
  6
JWW_DASHED1
 62
   120
370
     5
100
AcDbLine
 10
-913.6196586030355
 20
-462.7077057001752
 30
0.0
 11
-913.6196586030355
 21
712.292294299825
 31
0.0
  0
LINE
  5
1A2
330
1F
100
AcDbEntity
  8
0-0
  6
JWW_DASHED1
 62
   120
370
     5
100
AcDbLine
 10
-914.6196586029357
 20
-462.7077057001752
 30
0.0
 11
-914.6196586029353
 21
712.292294299825
 31
0.0
  0
LINE
  5
1A3
330
1F
100
AcDbEntity
  8
0-0
  6
JWW_DASHED1
 62
   120
370
     5
100
AcDbLine
 10
-927.6196586040357
 20
-462.7077057001752
 30
0.0
 11
-927.6196586040353
 21
712.292294299825
 31
0.0
  0
LINE
  5
1A4
330
1F
100
AcDbEntity
  8
0-0
  6
JWW_DASHED1
 62
   120
370
     5
100
AcDbLine
 10
-928.6196586039355
 20
-462.7077057001752
 30
0.0
 11
-928.6196586039355
 21
712.292294299825
 31
0.0
  0
LINE
  5
1A5
330
1F
100
AcDbEntity
  8
0-0
  6
JWW_DASHED1
 62
   120
370
     5
100
AcDbLine
 10
-941.619658605036
 20
-462.7077057001752
 30
0.0
 11
-941.619658605036
 21
712.292294299825
 31
0.0
  0
LINE
  5
1A6
330
1F
100
AcDbEntity
  8
0-0
  6
JWW_DASHED1
 62
   120
370
     5
100
AcDbLine
 10
-942.6196586049357
 20
-462.7077057001752
 30
0.0
 11
-942.6196586049357
 21
712.292294299825
 31
0.0
  0
LINE
  5
1A7
330
1F
100
AcDbEntity
  8
0-0
  6
JWW_DASHED1
 62
   120
370
     5
100
AcDbLine
 10
-955.6196586060357
 20
-462.7077057001752
 30
0.0
 11
-955.6196586060357
 21
712.292294299825
 31
0.0
  0
LINE
  5
1A8
330
1F
100
AcDbEntity
  8
0-0
  6
JWW_DASHED1
 62
   120
370
     5
100
AcDbLine
 10
-956.6196586059359
 20
-462.7077057001752
 30
0.0
 11
-956.6196586059359
 21
712.292294299825
 31
0.0
  0
LINE
  5
1A9
330
1F
100
AcDbEntity
  8
0-0
  6
JWW_DASHED1
 62
   120
370
     5
100
AcDbLine
 10
-969.619658607036
 20
-462.7077057001752
 30
0.0
 11
-969.619658607036
 21
712.292294299825
 31
0.0
  0
LINE
  5
1AA
330
1F
100
AcDbEntity
  8
0-0
  6
JWW_DASHED1
 62
   120
370
     5
100
AcDbLine
 10
-970.6196586069358
 20
-462.7077057001752
 30
0.0
 11
-970.6196586069353
 21
712.292294299825
 31
0.0
  0
LINE
  5
1AB
330
1F
100
AcDbEntity
  8
0-0
  6
JWW_DASHED1
 62
   120
370
     5
100
AcDbLine
 10
-983.6196586080358
 20
-462.7077057001752
 30
0.0
 11
-983.6196586080354
 21
712.292294299825
 31
0.0
  0
LINE
  5
1AC
330
1F
100
AcDbEntity
  8
0-0
  6
JWW_DASHED1
 62
   120
370
     5
100
AcDbLine
 10
-984.6196586079355
 20
-462.7077057001752
 30
0.0
 11
-984.6196586079355
 21
712.292294299825
 31
0.0
  0
LINE
  5
1AD
330
1F
100
AcDbEntity
  8
0-0
  6
JWW_DASHED1
 62
   120
370
     5
100
AcDbLine
 10
-997.6196586090356
 20
-462.7077057001752
 30
0.0
 11
-997.6196586090356
 21
712.292294299825
 31
0.0
  0
LINE
  5
1AE
330
1F
100
AcDbEntity
  8
0-0
  6
JWW_DASHED1
 62
   120
370
     5
100
AcDbLine
 10
-998.6196586089358
 20
-462.7077057001752
 30
0.0
 11
-998.6196586089358
 21
712.292294299825
 31
0.0
  0
LINE
  5
1AF
330
1F
100
AcDbEntity
  8
0-0
  6
JWW_DASHED1
 62
   120
370
     5
100
AcDbLine
 10
-1011.619658610035
 20
-462.7077057001752
 30
0.0
 11
-1011.619658610035
 21
712.292294299825
 31
0.0
  0
LINE
  5
1B0
330
1F
100
AcDbEntity
  8
0-0
  6
JWW_DASHED1
 62
   120
370
     5
100
AcDbLine
 10
-1012.619658609936
 20
-462.7077057001752
 30
0.0
 11
-1012.619658609936
 21
712.292294299825
 31
0.0
  0
LINE
  5
1B1
330
1F
100
AcDbEntity
  8
0-0
  6
JWW_DASHED1
 62
   120
370
     5
100
AcDbLine
 10
-1025.619658611035
 20
-462.7077057001752
 30
0.0
 11
-1025.619658611035
 21
712.292294299825
 31
0.0
  0
LINE
  5
1B2
330
1F
100
AcDbEntity
  8
0-0
  6
JWW_DASHED1
 62
   120
370
     5
100
AcDbLine
 10
-1026.619658610935
 20
-462.7077057001752
 30
0.0
 11
-1026.619658610935
 21
712.292294299825
 31
0.0
  0
LINE
  5
1B3
330
1F
100
AcDbEntity
  8
0-0
  6
JWW_DASHED1
 62
   120
370
     5
100
AcDbLine
 10
-1039.619658612035
 20
-462.7077057001752
 30
0.0
 11
-1039.619658612035
 21
712.292294299825
 31
0.0
  0
LINE
  5
1B4
330
1F
100
AcDbEntity
  8
0-0
  6
JWW_DASHED1
 62
   120
370
     5
100
AcDbLine
 10
-1040.619658611936
 20
-462.7077057001752
 30
0.0
 11
-1040.619658611936
 21
712.292294299825
 31
0.0
  0
LINE
  5
1B5
330
1F
100
AcDbEntity
  8
0-0
  6
JWW_DASHED1
 62
   120
370
     5
100
AcDbLine
 10
-1053.619658613036
 20
-462.7077057001752
 30
0.0
 11
-1053.619658613036
 21
712.292294299825
 31
0.0
  0
LINE
  5
1B6
330
1F
100
AcDbEntity
  8
0-0
  6
JWW_DASHED1
 62
   120
370
     5
100
AcDbLine
 10
-1054.619658612936
 20
-462.7077057001752
 30
0.0
 11
-1054.619658612936
 21
712.292294299825
 31
0.0
  0
LINE
  5
1B7
330
1F
100
AcDbEntity
  8
0-0
  6
JWW_DASHED1
 62
   120
370
     5
100
AcDbLine
 10
-1067.619658614035
 20
-462.7077057001752
 30
0.0
 11
-1067.619658614035
 21
712.292294299825
 31
0.0
  0
LINE
  5
1B8
330
1F
100
AcDbEntity
  8
0-0
  6
JWW_DASHED1
 62
   120
370
     5
100
AcDbLine
 10
-1068.619658613936
 20
-462.7077057001752
 30
0.0
 11
-1068.619658613936
 21
712.292294299825
 31
0.0
  0
LINE
  5
1B9
330
1F
100
AcDbEntity
  8
0-0
  6
JWW_DASHED1
 62
   120
370
     5
100
AcDbLine
 10
-1081.619658615035
 20
-462.7077057001752
 30
0.0
 11
-1081.619658615035
 21
712.292294299825
 31
0.0
  0
LINE
  5
1BA
330
1F
100
AcDbEntity
  8
0-0
  6
JWW_DASHED1
 62
   120
370
     5
100
AcDbLine
 10
-1082.619658614935
 20
-462.7077057001752
 30
0.0
 11
-1082.619658614935
 21
712.292294299825
 31
0.0
  0
LINE
  5
1BB
330
1F
100
AcDbEntity
  8
0-0
  6
JWW_DASHED1
 62
   120
370
     5
100
AcDbLine
 10
-1095.619658616035
 20
-462.7077057001752
 30
0.0
 11
-1095.619658616035
 21
712.292294299825
 31
0.0
  0
LINE
  5
1BC
330
1F
100
AcDbEntity
  8
0-0
  6
JWW_DASHED1
 62
   120
370
     5
100
AcDbLine
 10
-1096.619658615936
 20
-462.7077057001752
 30
0.0
 11
-1096.619658615936
 21
712.292294299825
 31
0.0
  0
LINE
  5
1BD
330
1F
100
AcDbEntity
  8
0-0
  6
JWW_DASHED1
 62
   120
370
     5
100
AcDbLine
 10
-1109.619658617036
 20
-462.7077057001752
 30
0.0
 11
-1109.619658617036
 21
712.292294299825
 31
0.0
  0
LINE
  5
1BE
330
1F
100
AcDbEntity
  8
0-0
  6
JWW_DASHED1
 62
   120
370
     5
100
AcDbLine
 10
-1110.619658616936
 20
-462.7077057001752
 30
0.0
 11
-1110.619658616936
 21
712.292294299825
 31
0.0
  0
LINE
  5
1BF
330
1F
100
AcDbEntity
  8
0-0
  6
JWW_DASHED1
 62
   120
370
     5
100
AcDbLine
 10
-1123.619658618035
 20
-462.7077057001752
 30
0.0
 11
-1123.619658618035
 21
712.292294299825
 31
0.0
  0
LINE
  5
1C0
330
1F
100
AcDbEntity
  8
0-0
  6
JWW_DASHED1
 62
   120
370
     5
100
AcDbLine
 10
-1124.619658617936
 20
-462.7077057001752
 30
0.0
 11
-1124.619658617936
 21
712.292294299825
 31
0.0
  0
LINE
  5
1C1
330
1F
100
AcDbEntity
  8
0-0
  6
JWW_DASHED1
 62
   120
370
     5
100
AcDbLine
 10
-1137.619658619035
 20
-462.7077057001752
 30
0.0
 11
-1137.619658619035
 21
712.292294299825
 31
0.0
  0
LINE
  5
1C2
330
1F
100
AcDbEntity
  8
0-0
  6
JWW_DASHED1
 62
   120
370
     5
100
AcDbLine
 10
-1138.619658618936
 20
-462.7077057001752
 30
0.0
 11
-1138.619658618936
 21
712.292294299825
 31
0.0
  0
LINE
  5
1C3
330
1F
100
AcDbEntity
  8
0-0
  6
JWW_DASHED1
 62
   120
370
     5
100
AcDbLine
 10
-1151.619658620035
 20
-462.7077057001752
 30
0.0
 11
-1151.619658620035
 21
712.292294299825
 31
0.0
  0
LINE
  5
1C4
330
1F
100
AcDbEntity
  8
0-0
  6
JWW_DASHED1
 62
   120
370
     5
100
AcDbLine
 10
-1152.619658619936
 20
-462.7077057001752
 30
0.0
 11
-1152.619658619936
 21
712.292294299825
 31
0.0
  0
LINE
  5
1C5
330
1F
100
AcDbEntity
  8
0-0
  6
JWW_DASHED1
 62
   120
370
     5
100
AcDbLine
 10
-1165.619658621036
 20
-462.7077057001752
 30
0.0
 11
-1165.619658621036
 21
712.292294299825
 31
0.0
  0
LINE
  5
1C6
330
1F
100
AcDbEntity
  8
0-0
  6
JWW_DASHED1
 62
   120
370
     5
100
AcDbLine
 10
-1166.619658620936
 20
-462.7077057001752
 30
0.0
 11
-1166.619658620936
 21
712.292294299825
 31
0.0
  0
LINE
  5
1C7
330
1F
100
AcDbEntity
  8
0-0
  6
JWW_DASHED1
 62
   120
370
     5
100
AcDbLine
 10
-1179.619658622036
 20
-462.7077057001752
 30
0.0
 11
-1179.619658622036
 21
712.292294299825
 31
0.0
  0
LINE
  5
1C8
330
1F
100
AcDbEntity
  8
0-0
  6
JWW_DASHED1
 62
   120
370
     5
100
AcDbLine
 10
-1180.619658621936
 20
-462.7077057001752
 30
0.0
 11
-1180.619658621936
 21
712.292294299825
 31
0.0
  0
LINE
  5
1C9
330
1F
100
AcDbEntity
  8
0-0
  6
JWW_DASHED1
 62
   120
370
     5
100
AcDbLine
 10
-1193.619658623035
 20
-462.7077057001752
 30
0.0
 11
-1193.619658623035
 21
712.292294299825
 31
0.0
  0
LINE
  5
1CA
330
1F
100
AcDbEntity
  8
0-0
  6
JWW_DASHED1
 62
   120
370
     5
100
AcDbLine
 10
-1194.619658622935
 20
-462.7077057001752
 30
0.0
 11
-1194.619658622935
 21
712.292294299825
 31
0.0
  0
LINE
  5
1CB
330
1F
100
AcDbEntity
  8
0-0
  6
JWW_DASHED1
 62
   120
370
     5
100
AcDbLine
 10
-1207.619658624035
 20
-462.7077057001752
 30
0.0
 11
-1207.619658624035
 21
712.292294299825
 31
0.0
  0
LINE
  5
1CC
330
1F
100
AcDbEntity
  8
0-0
  6
JWW_DASHED1
 62
   120
370
     5
100
AcDbLine
 10
-1208.619658623936
 20
-462.7077057001752
 30
0.0
 11
-1208.619658623936
 21
712.292294299825
 31
0.0
  0
LINE
  5
1CD
330
1F
100
AcDbEntity
  8
0-0
  6
JWW_DASHED1
 62
   120
370
     5
100
AcDbLine
 10
-1221.619658625036
 20
-462.7077057001752
 30
0.0
 11
-1221.619658625036
 21
712.292294299825
 31
0.0
  0
LINE
  5
1CE
330
1F
100
AcDbEntity
  8
0-0
  6
JWW_DASHED1
 62
   120
370
     5
100
AcDbLine
 10
-1222.619658624936
 20
-462.7077057001752
 30
0.0
 11
-1222.619658624936
 21
712.292294299825
 31
0.0
  0
LINE
  5
1CF
330
1F
100
AcDbEntity
  8
0-0
  6
JWW_DASHED1
 62
   120
370
     5
100
AcDbLine
 10
-1235.619658626036
 20
-462.7077057001752
 30
0.0
 11
-1235.619658626036
 21
712.292294299825
 31
0.0
  0
LINE
  5
1D0
330
1F
100
AcDbEntity
  8
0-0
  6
JWW_DASHED1
 62
   120
370
     5
100
AcDbLine
 10
-1236.619658625936
 20
-462.7077057001752
 30
0.0
 11
-1236.619658625936
 21
712.292294299825
 31
0.0
  0
LINE
  5
1D1
330
1F
100
AcDbEntity
  8
0-0
  6
JWW_DASHED1
 62
   120
370
     5
100
AcDbLine
 10
-1249.619658627035
 20
-462.7077057001752
 30
0.0
 11
-1249.619658627035
 21
712.292294299825
 31
0.0
  0
LINE
  5
1D2
330
1F
100
AcDbEntity
  8
0-0
  6
JWW_DASHED1
 62
   120
370
     5
100
AcDbLine
 10
-1250.619658626935
 20
-462.7077057001752
 30
0.0
 11
-1250.619658626935
 21
712.292294299825
 31
0.0
  0
LINE
  5
1D3
330
1F
100
AcDbEntity
  8
0-0
  6
JWW_DASHED1
 62
   120
370
     5
100
AcDbLine
 10
-1263.619658628035
 20
-462.7077057001752
 30
0.0
 11
-1263.619658628035
 21
712.292294299825
 31
0.0
  0
LINE
  5
1D4
330
1F
100
AcDbEntity
  8
0-0
  6
JWW_DASHED1
 62
   120
370
     5
100
AcDbLine
 10
-1264.619658627936
 20
-462.7077057001752
 30
0.0
 11
-1264.619658627936
 21
712.292294299825
 31
0.0
  0
LINE
  5
1D5
330
1F
100
AcDbEntity
  8
0-0
  6
JWW_DASHED1
 62
   120
370
     5
100
AcDbLine
 10
-1277.619658629036
 20
-462.7077057001752
 30
0.0
 11
-1277.619658629036
 21
712.292294299825
 31
0.0
  0
LINE
  5
1D6
330
1F
100
AcDbEntity
  8
0-0
  6
JWW_DASHED1
 62
   120
370
     5
100
AcDbLine
 10
-1278.619658628936
 20
-462.7077057001752
 30
0.0
 11
-1278.619658628936
 21
712.292294299825
 31
0.0
  0
LINE
  5
1D7
330
1F
100
AcDbEntity
  8
0-0
  6
JWW_DASHED1
 62
   120
370
     5
100
AcDbLine
 10
-1291.619658630035
 20
-462.7077057001752
 30
0.0
 11
-1291.619658630035
 21
712.292294299825
 31
0.0
  0
LINE
  5
1D8
330
1F
100
AcDbEntity
  8
0-0
  6
JWW_DASHED1
 62
   120
370
     5
100
AcDbLine
 10
-1292.619658629936
 20
-462.7077057001752
 30
0.0
 11
-1292.619658629936
 21
712.292294299825
 31
0.0
  0
LINE
  5
1D9
330
1F
100
AcDbEntity
  8
0-0
  6
JWW_DASHED1
 62
   120
370
     5
100
AcDbLine
 10
-1305.619658631035
 20
-462.7077057001752
 30
0.0
 11
-1305.619658631035
 21
712.292294299825
 31
0.0
  0
LINE
  5
1DA
330
1F
100
AcDbEntity
  8
0-0
  6
JWW_DASHED1
 62
   120
370
     5
100
AcDbLine
 10
-1306.619658630935
 20
-462.7077057001752
 30
0.0
 11
-1306.619658630935
 21
712.292294299825
 31
0.0
  0
LINE
  5
1DB
330
1F
100
AcDbEntity
  8
0-0
  6
JWW_DASHED1
 62
   120
370
     5
100
AcDbLine
 10
-1319.619658632035
 20
-462.7077057001752
 30
0.0
 11
-1319.619658632035
 21
712.292294299825
 31
0.0
  0
LINE
  5
1DC
330
1F
100
AcDbEntity
  8
0-0
  6
JWW_DASHED1
 62
   120
370
     5
100
AcDbLine
 10
-1320.619658631936
 20
-462.7077057001752
 30
0.0
 11
-1320.619658631936
 21
712.292294299825
 31
0.0
  0
LINE
  5
1DD
330
1F
100
AcDbEntity
  8
0-0
  6
JWW_DASHED1
 62
   120
370
     5
100
AcDbLine
 10
-1333.619658633036
 20
-462.7077057001752
 30
0.0
 11
-1333.619658633036
 21
712.292294299825
 31
0.0
  0
LINE
  5
1DE
330
1F
100
AcDbEntity
  8
0-0
  6
JWW_DASHED1
 62
   120
370
     5
100
AcDbLine
 10
-1334.619658632936
 20
-462.7077057001752
 30
0.0
 11
-1334.619658632936
 21
712.292294299825
 31
0.0
  0
LINE
  5
1DF
330
1F
100
AcDbEntity
  8
0-0
  6
JWW_DASHED1
 62
   120
370
     5
100
AcDbLine
 10
-1347.619658634035
 20
-462.7077057001752
 30
0.0
 11
-1347.619658634035
 21
712.292294299825
 31
0.0
  0
LINE
  5
1E0
330
1F
100
AcDbEntity
  8
0-0
  6
JWW_DASHED1
 62
   120
370
     5
100
AcDbLine
 10
-1348.619658633936
 20
-462.7077057001752
 30
0.0
 11
-1348.619658633936
 21
712.292294299825
 31
0.0
  0
LINE
  5
1E1
330
1F
100
AcDbEntity
  8
0-0
  6
JWW_DASHED1
 62
   120
370
     5
100
AcDbLine
 10
-1361.619658635036
 20
-462.7077057001752
 30
0.0
 11
-1361.619658635036
 21
712.292294299825
 31
0.0
  0
LINE
  5
1E2
330
1F
100
AcDbEntity
  8
0-0
  6
JWW_DASHED1
 62
   120
370
     5
100
AcDbLine
 10
-1362.619658634935
 20
-462.7077057001752
 30
0.0
 11
-1362.619658634935
 21
712.292294299825
 31
0.0
  0
LINE
  5
1E3
330
1F
100
AcDbEntity
  8
0-0
  6
JWW_DASHED1
 62
   120
370
     5
100
AcDbLine
 10
-1375.619658636035
 20
-462.7077057001752
 30
0.0
 11
-1375.619658636035
 21
712.292294299825
 31
0.0
  0
LINE
  5
1E4
330
1F
100
AcDbEntity
  8
0-0
  6
JWW_DASHED1
 62
   120
370
     5
100
AcDbLine
 10
-1376.619658635936
 20
-462.7077057001752
 30
0.0
 11
-1376.619658635936
 21
712.292294299825
 31
0.0
  0
LINE
  5
1E5
330
1F
100
AcDbEntity
  8
0-0
  6
JWW_DASHED1
 62
   120
370
     5
100
AcDbLine
 10
-1389.619658637036
 20
-462.7077057001752
 30
0.0
 11
-1389.619658637036
 21
712.292294299825
 31
0.0
  0
LINE
  5
1E6
330
1F
100
AcDbEntity
  8
0-0
  6
JWW_DASHED1
 62
   120
370
     5
100
AcDbLine
 10
-1390.619658636936
 20
-462.7077057001752
 30
0.0
 11
-1390.619658636936
 21
712.292294299825
 31
0.0
  0
LINE
  5
1E7
330
1F
100
AcDbEntity
  8
0-0
  6
JWW_DASHED1
 62
   120
370
     5
100
AcDbLine
 10
-1403.619658638035
 20
-462.7077057001752
 30
0.0
 11
-1403.619658638035
 21
712.292294299825
 31
0.0
  0
LINE
  5
1E8
330
1F
100
AcDbEntity
  8
0-0
  6
JWW_DASHED1
 62
   120
370
     5
100
AcDbLine
 10
-1404.619658637936
 20
-462.7077057001752
 30
0.0
 11
-1404.619658637936
 21
712.292294299825
 31
0.0
  0
LINE
  5
1E9
330
1F
100
AcDbEntity
  8
0-0
  6
JWW_DASHED1
 62
   120
370
     5
100
AcDbLine
 10
-1417.619658639035
 20
-462.7077057001752
 30
0.0
 11
-1417.619658639035
 21
712.292294299825
 31
0.0
  0
LINE
  5
1EA
330
1F
100
AcDbEntity
  8
0-0
  6
JWW_DASHED1
 62
   120
370
     5
100
AcDbLine
 10
-1418.619658638936
 20
-462.7077057001752
 30
0.0
 11
-1418.619658638936
 21
712.292294299825
 31
0.0
  0
LINE
  5
1EB
330
1F
100
AcDbEntity
  8
0-0
  6
JWW_DASHED1
 62
   120
370
     5
100
AcDbLine
 10
-1431.619658640036
 20
-462.7077057001752
 30
0.0
 11
-1431.619658640036
 21
712.292294299825
 31
0.0
  0
LINE
  5
1EC
330
1F
100
AcDbEntity
  8
0-0
  6
JWW_DASHED1
 62
   120
370
     5
100
AcDbLine
 10
-1432.619658639936
 20
-462.7077057001752
 30
0.0
 11
-1432.619658639936
 21
712.292294299825
 31
0.0
  0
LINE
  5
1ED
330
1F
100
AcDbEntity
  8
0-0
  6
JWW_DASHED1
 62
   120
370
     5
100
AcDbLine
 10
-1445.619658641036
 20
-462.7077057001752
 30
0.0
 11
-1445.619658641036
 21
712.292294299825
 31
0.0
  0
LINE
  5
1EE
330
1F
100
AcDbEntity
  8
0-0
  6
JWW_DASHED1
 62
   120
370
     5
100
AcDbLine
 10
-885.6196586010356
 20
-462.7077057001752
 30
0.0
 11
-885.6196586010356
 21
712.292294299825
 31
0.0
  0
LINE
  5
1EF
330
1F
100
AcDbEntity
  8
0-0
  6
JWW_DASHED1
 62
   120
370
     5
100
AcDbLine
 10
-900.6196586019355
 20
-462.7077057001752
 30
0.0
 11
-900.6196586019355
 21
712.292294299825
 31
0.0
  0
LINE
  5
1F0
330
1F
100
AcDbEntity
  8
0-0
  6
JWW_DASHED1
 62
   120
370
     5
100
AcDbLine
 10
-886.6196586009357
 20
-462.7077057001752
 30
0.0
 11
-886.6196586009357
 21
712.292294299825
 31
0.0
  0
LINE
  5
1F1
330
1F
100
AcDbEntity
  8
0-0
  6
JWW_DASHED1
 62
   120
370
     5
100
AcDbLine
 10
-899.6196586020358
 20
-462.7077057001752
 30
0.0
 11
-899.6196586020358
 21
712.292294299825
 31
0.0
  0
LINE
  5
1F2
330
1F
100
AcDbEntity
  8
0-0
  6
JWW_DASHED1
 62
   120
370
     5
100
AcDbLine
 10
-1452.619677098967
 20
700.2921460688639
 30
0.0
 11
-879.6196770989678
 21
700.2921460688639
 31
0.0
  0
LINE
  5
1F3
330
1F
100
AcDbEntity
  8
0-0
  6
JWW_DASHED1
 62
   120
370
     5
100
AcDbLine
 10
-1452.619677098967
 20
657.2921460659643
 30
0.0
 11
-879.6196770989678
 21
657.2921460659643
 31
0.0
  0
LINE
  5
1F4
330
1F
100
AcDbEntity
  8
0-0
  6
JWW_DASHED1
 62
   120
370
     5
100
AcDbLine
 10
-1452.619677098967
 20
658.2921460658645
 30
0.0
 11
-879.6196770989678
 21
658.2921460658645
 31
0.0
  0
LINE
  5
1F5
330
1F
100
AcDbEntity
  8
0-0
  6
JWW_DASHED1
 62
   120
370
     5
100
AcDbLine
 10
-1452.619677098967
 20
671.292146066964
 30
0.0
 11
-879.6196770989678
 21
671.292146066964
 31
0.0
  0
LINE
  5
1F6
330
1F
100
AcDbEntity
  8
0-0
  6
JWW_DASHED1
 62
   120
370
     5
100
AcDbLine
 10
-1452.619677098967
 20
672.2921460668642
 30
0.0
 11
-879.6196770989678
 21
672.2921460668642
 31
0.0
  0
LINE
  5
1F7
330
1F
100
AcDbEntity
  8
0-0
  6
JWW_DASHED1
 62
   120
370
     5
100
AcDbLine
 10
-1452.619677098967
 20
685.2921460679638
 30
0.0
 11
-879.6196770989678
 21
685.2921460679638
 31
0.0
  0
LINE
  5
1F8
330
1F
100
AcDbEntity
  8
0-0
  6
JWW_DASHED1
 62
   120
370
     5
100
AcDbLine
 10
-1452.619677098967
 20
686.292146067864
 30
0.0
 11
-879.6196770989678
 21
686.292146067864
 31
0.0
  0
LINE
  5
1F9
330
1F
100
AcDbEntity
  8
0-0
  6
JWW_DASHED1
 62
   120
370
     5
100
AcDbLine
 10
-1452.619677098967
 20
699.2921460689637
 30
0.0
 11
-879.6196770989678
 21
699.2921460689637
 31
0.0
  0
LINE
  5
1FA
330
1F
100
AcDbEntity
  8
0-0
  6
JWW_DASHED1
 62
   120
370
     5
100
AcDbLine
 10
-672.6196770989677
 20
-461.7078540141188
 30
0.0
 11
-99.61967709896697
 21
-461.7078540141188
 31
0.0
  0
LINE
  5
1FB
330
1F
100
AcDbEntity
  8
0-0
  6
JWW_DASHED1
 62
   120
370
     5
100
AcDbLine
 10
-672.6196770989677
 20
-448.7078540130192
 30
0.0
 11
-99.61967709896697
 21
-448.7078540130192
 31
0.0
  0
LINE
  5
1FC
330
1F
100
AcDbEntity
  8
0-0
  6
JWW_DASHED1
 62
   120
370
     5
100
AcDbLine
 10
-672.6196770989677
 20
-447.707854013119
 30
0.0
 11
-99.61967709896697
 21
-447.707854013119
 31
0.0
  0
LINE
  5
1FD
330
1F
100
AcDbEntity
  8
0-0
  6
JWW_DASHED1
 62
   120
370
     5
100
AcDbLine
 10
-672.6196770989677
 20
-434.7078540120194
 30
0.0
 11
-99.61967709896697
 21
-434.7078540120194
 31
0.0
  0
LINE
  5
1FE
330
1F
100
AcDbEntity
  8
0-0
  6
JWW_DASHED1
 62
   120
370
     5
100
AcDbLine
 10
-672.6196770989677
 20
-433.7078540121192
 30
0.0
 11
-99.61967709896697
 21
-433.7078540121192
 31
0.0
  0
LINE
  5
1FF
330
1F
100
AcDbEntity
  8
0-0
  6
JWW_DASHED1
 62
   120
370
     5
100
AcDbLine
 10
-672.6196770989677
 20
-420.7078540110195
 30
0.0
 11
-99.61967709896697
 21
-420.7078540110195
 31
0.0
  0
LINE
  5
200
330
1F
100
AcDbEntity
  8
0-0
  6
JWW_DASHED1
 62
   120
370
     5
100
AcDbLine
 10
-672.6196770989677
 20
-419.7078540111194
 30
0.0
 11
-99.61967709896697
 21
-419.7078540111194
 31
0.0
  0
LINE
  5
201
330
1F
100
AcDbEntity
  8
0-0
  6
JWW_DASHED1
 62
   120
370
     5
100
AcDbLine
 10
-672.6196770989677
 20
-406.7078540100198
 30
0.0
 11
-99.61967709896697
 21
-406.7078540100198
 31
0.0
  0
LINE
  5
202
330
1F
100
AcDbEntity
  8
0-0
  6
JWW_DASHED1
 62
   120
370
     5
100
AcDbLine
 10
-672.6196770989677
 20
-405.7078540101196
 30
0.0
 11
-99.61967709896697
 21
-405.7078540101196
 31
0.0
  0
LINE
  5
203
330
1F
100
AcDbEntity
  8
0-0
  6
JWW_DASHED1
 62
   120
370
     5
100
AcDbLine
 10
-672.6196770989677
 20
-392.70785400902
 30
0.0
 11
-99.61967709896697
 21
-392.70785400902
 31
0.0
  0
LINE
  5
204
330
1F
100
AcDbEntity
  8
0-0
  6
JWW_DASHED1
 62
   120
370
     5
100
AcDbLine
 10
-672.6196770989677
 20
-391.7078540091198
 30
0.0
 11
-99.61967709896697
 21
-391.7078540091198
 31
0.0
  0
LINE
  5
205
330
1F
100
AcDbEntity
  8
0-0
  6
JWW_DASHED1
 62
   120
370
     5
100
AcDbLine
 10
-672.6196770989677
 20
-378.7078540080202
 30
0.0
 11
-99.61967709896697
 21
-378.7078540080202
 31
0.0
  0
LINE
  5
206
330
1F
100
AcDbEntity
  8
0-0
  6
JWW_DASHED1
 62
   120
370
     5
100
AcDbLine
 10
-672.6196770989677
 20
-377.70785400812
 30
0.0
 11
-99.61967709896697
 21
-377.70785400812
 31
0.0
  0
LINE
  5
207
330
1F
100
AcDbEntity
  8
0-0
  6
JWW_DASHED1
 62
   120
370
     5
100
AcDbLine
 10
-672.6196770989677
 20
-364.7078540070204
 30
0.0
 11
-99.61967709896697
 21
-364.7078540070204
 31
0.0
  0
LINE
  5
208
330
1F
100
AcDbEntity
  8
0-0
  6
JWW_DASHED1
 62
   120
370
     5
100
AcDbLine
 10
-672.6196770989677
 20
-363.7078540071202
 30
0.0
 11
-99.61967709896697
 21
-363.7078540071202
 31
0.0
  0
LINE
  5
209
330
1F
100
AcDbEntity
  8
0-0
  6
JWW_DASHED1
 62
   120
370
     5
100
AcDbLine
 10
-672.6196770989677
 20
-350.7078540060206
 30
0.0
 11
-99.61967709896697
 21
-350.7078540060206
 31
0.0
  0
LINE
  5
20A
330
1F
100
AcDbEntity
  8
0-0
  6
JWW_DASHED1
 62
   120
370
     5
100
AcDbLine
 10
-672.6196770989677
 20
-349.7078540061204
 30
0.0
 11
-99.61967709896697
 21
-349.7078540061204
 31
0.0
  0
LINE
  5
20B
330
1F
100
AcDbEntity
  8
0-0
  6
JWW_DASHED1
 62
   120
370
     5
100
AcDbLine
 10
-672.6196770989677
 20
-336.7078540050209
 30
0.0
 11
-99.61967709896697
 21
-336.7078540050209
 31
0.0
  0
LINE
  5
20C
330
1F
100
AcDbEntity
  8
0-0
  6
JWW_DASHED1
 62
   120
370
     5
100
AcDbLine
 10
-672.6196770989677
 20
-335.7078540051207
 30
0.0
 11
-99.61967709896697
 21
-335.7078540051207
 31
0.0
  0
LINE
  5
20D
330
1F
100
AcDbEntity
  8
0-0
  6
JWW_DASHED1
 62
   120
370
     5
100
AcDbLine
 10
-672.6196770989677
 20
-322.707854004021
 30
0.0
 11
-99.61967709896697
 21
-322.707854004021
 31
0.0
  0
LINE
  5
20E
330
1F
100
AcDbEntity
  8
0-0
  6
JWW_DASHED1
 62
   120
370
     5
100
AcDbLine
 10
-672.6196770989677
 20
-321.7078540041209
 30
0.0
 11
-99.61967709896697
 21
-321.7078540041209
 31
0.0
  0
LINE
  5
20F
330
1F
100
AcDbEntity
  8
0-0
  6
JWW_DASHED1
 62
   120
370
     5
100
AcDbLine
 10
-672.6196770989677
 20
-308.7078540030212
 30
0.0
 11
-99.61967709896697
 21
-308.7078540030212
 31
0.0
  0
LINE
  5
210
330
1F
100
AcDbEntity
  8
0-0
  6
JWW_DASHED1
 62
   120
370
     5
100
AcDbLine
 10
-672.6196770989677
 20
-307.707854003121
 30
0.0
 11
-99.61967709896697
 21
-307.707854003121
 31
0.0
  0
LINE
  5
211
330
1F
100
AcDbEntity
  8
0-0
  6
JWW_DASHED1
 62
   120
370
     5
100
AcDbLine
 10
-672.6196770989677
 20
-294.7078540020215
 30
0.0
 11
-99.61967709896697
 21
-294.7078540020215
 31
0.0
  0
LINE
  5
212
330
1F
100
AcDbEntity
  8
0-0
  6
JWW_DASHED1
 62
   120
370
     5
100
AcDbLine
 10
-672.6196770989677
 20
-293.7078540021213
 30
0.0
 11
-99.61967709896697
 21
-293.7078540021213
 31
0.0
  0
LINE
  5
213
330
1F
100
AcDbEntity
  8
0-0
  6
JWW_DASHED1
 62
   120
370
     5
100
AcDbLine
 10
-672.6196770989677
 20
-280.7078540010217
 30
0.0
 11
-99.61967709896697
 21
-280.7078540010217
 31
0.0
  0
LINE
  5
214
330
1F
100
AcDbEntity
  8
0-0
  6
JWW_DASHED1
 62
   120
370
     5
100
AcDbLine
 10
-672.6196770989677
 20
-279.7078540011215
 30
0.0
 11
-99.61967709896697
 21
-279.7078540011215
 31
0.0
  0
LINE
  5
215
330
1F
100
AcDbEntity
  8
0-0
  6
JWW_DASHED1
 62
   120
370
     5
100
AcDbLine
 10
-672.6196770989677
 20
-266.7078540000219
 30
0.0
 11
-99.61967709896697
 21
-266.7078540000219
 31
0.0
  0
LINE
  5
216
330
1F
100
AcDbEntity
  8
0-0
  6
JWW_DASHED1
 62
   120
370
     5
100
AcDbLine
 10
-672.6196770989677
 20
-265.7078540001217
 30
0.0
 11
-99.61967709896697
 21
-265.7078540001217
 31
0.0
  0
LINE
  5
217
330
1F
100
AcDbEntity
  8
0-0
  6
JWW_DASHED1
 62
   120
370
     5
100
AcDbLine
 10
-672.6196770989677
 20
-252.7078539990221
 30
0.0
 11
-99.61967709896697
 21
-252.7078539990221
 31
0.0
  0
LINE
  5
218
330
1F
100
AcDbEntity
  8
0-0
  6
JWW_DASHED1
 62
   120
370
     5
100
AcDbLine
 10
-672.6196770989677
 20
-251.7078539991219
 30
0.0
 11
-99.61967709896697
 21
-251.7078539991219
 31
0.0
  0
LINE
  5
219
330
1F
100
AcDbEntity
  8
0-0
  6
JWW_DASHED1
 62
   120
370
     5
100
AcDbLine
 10
-672.6196770989677
 20
-238.7078539980223
 30
0.0
 11
-99.61967709896697
 21
-238.7078539980223
 31
0.0
  0
LINE
  5
21A
330
1F
100
AcDbEntity
  8
0-0
  6
JWW_DASHED1
 62
   120
370
     5
100
AcDbLine
 10
-672.6196770989677
 20
-237.7078539981221
 30
0.0
 11
-99.61967709896697
 21
-237.7078539981221
 31
0.0
  0
LINE
  5
21B
330
1F
100
AcDbEntity
  8
0-0
  6
JWW_DASHED1
 62
   120
370
     5
100
AcDbLine
 10
-672.6196770989677
 20
-224.7078539970225
 30
0.0
 11
-99.61967709896697
 21
-224.7078539970225
 31
0.0
  0
LINE
  5
21C
330
1F
100
AcDbEntity
  8
0-0
  6
JWW_DASHED1
 62
   120
370
     5
100
AcDbLine
 10
-672.6196770989677
 20
-223.7078539971223
 30
0.0
 11
-99.61967709896697
 21
-223.7078539971223
 31
0.0
  0
LINE
  5
21D
330
1F
100
AcDbEntity
  8
0-0
  6
JWW_DASHED1
 62
   120
370
     5
100
AcDbLine
 10
-672.6196770989677
 20
-210.7078539960227
 30
0.0
 11
-99.61967709896697
 21
-210.7078539960227
 31
0.0
  0
LINE
  5
21E
330
1F
100
AcDbEntity
  8
0-0
  6
JWW_DASHED1
 62
   120
370
     5
100
AcDbLine
 10
-672.6196770989677
 20
-209.7078539961225
 30
0.0
 11
-99.61967709896697
 21
-209.7078539961225
 31
0.0
  0
LINE
  5
21F
330
1F
100
AcDbEntity
  8
0-0
  6
JWW_DASHED1
 62
   120
370
     5
100
AcDbLine
 10
-672.6196770989677
 20
-196.7078539950229
 30
0.0
 11
-99.61967709896697
 21
-196.7078539950229
 31
0.0
  0
LINE
  5
220
330
1F
100
AcDbEntity
  8
0-0
  6
JWW_DASHED1
 62
   120
370
     5
100
AcDbLine
 10
-672.6196770989677
 20
-195.7078539951227
 30
0.0
 11
-99.61967709896697
 21
-195.7078539951227
 31
0.0
  0
LINE
  5
221
330
1F
100
AcDbEntity
  8
0-0
  6
JWW_DASHED1
 62
   120
370
     5
100
AcDbLine
 10
-672.6196770989677
 20
-182.7078539940231
 30
0.0
 11
-99.61967709896697
 21
-182.7078539940231
 31
0.0
  0
LINE
  5
222
330
1F
100
AcDbEntity
  8
0-0
  6
JWW_DASHED1
 62
   120
370
     5
100
AcDbLine
 10
-672.6196770989677
 20
-181.707853994123
 30
0.0
 11
-99.61967709896697
 21
-181.707853994123
 31
0.0
  0
LINE
  5
223
330
1F
100
AcDbEntity
  8
0-0
  6
JWW_DASHED1
 62
   120
370
     5
100
AcDbLine
 10
-672.6196770989677
 20
-168.7078539930233
 30
0.0
 11
-99.61967709896697
 21
-168.7078539930233
 31
0.0
  0
LINE
  5
224
330
1F
100
AcDbEntity
  8
0-0
  6
JWW_DASHED1
 62
   120
370
     5
100
AcDbLine
 10
-672.6196770989677
 20
-167.7078539931232
 30
0.0
 11
-99.61967709896697
 21
-167.7078539931232
 31
0.0
  0
LINE
  5
225
330
1F
100
AcDbEntity
  8
0-0
  6
JWW_DASHED1
 62
   120
370
     5
100
AcDbLine
 10
-672.6196770989677
 20
-154.7078539920236
 30
0.0
 11
-99.61967709896697
 21
-154.7078539920236
 31
0.0
  0
LINE
  5
226
330
1F
100
AcDbEntity
  8
0-0
  6
JWW_DASHED1
 62
   120
370
     5
100
AcDbLine
 10
-672.6196770989677
 20
-153.7078539921234
 30
0.0
 11
-99.61967709896697
 21
-153.7078539921234
 31
0.0
  0
LINE
  5
227
330
1F
100
AcDbEntity
  8
0-0
  6
JWW_DASHED1
 62
   120
370
     5
100
AcDbLine
 10
-672.6196770989677
 20
-140.7078539910238
 30
0.0
 11
-99.61967709896697
 21
-140.7078539910238
 31
0.0
  0
LINE
  5
228
330
1F
100
AcDbEntity
  8
0-0
  6
JWW_DASHED1
 62
   120
370
     5
100
AcDbLine
 10
-672.6196770989677
 20
-139.7078539911236
 30
0.0
 11
-99.61967709896697
 21
-139.7078539911236
 31
0.0
  0
LINE
  5
229
330
1F
100
AcDbEntity
  8
0-0
  6
JWW_DASHED1
 62
   120
370
     5
100
AcDbLine
 10
-672.6196770989677
 20
-126.707853990024
 30
0.0
 11
-99.61967709896697
 21
-126.707853990024
 31
0.0
  0
LINE
  5
22A
330
1F
100
AcDbEntity
  8
0-0
  6
JWW_DASHED1
 62
   120
370
     5
100
AcDbLine
 10
-672.6196770989677
 20
-125.7078539901238
 30
0.0
 11
-99.61967709896697
 21
-125.7078539901238
 31
0.0
  0
LINE
  5
22B
330
1F
100
AcDbEntity
  8
0-0
  6
JWW_DASHED1
 62
   120
370
     5
100
AcDbLine
 10
-672.6196770989677
 20
-112.7078539890242
 30
0.0
 11
-99.61967709896697
 21
-112.7078539890242
 31
0.0
  0
LINE
  5
22C
330
1F
100
AcDbEntity
  8
0-0
  6
JWW_DASHED1
 62
   120
370
     5
100
AcDbLine
 10
-672.6196770989677
 20
-111.707853989124
 30
0.0
 11
-99.61967709896697
 21
-111.707853989124
 31
0.0
  0
LINE
  5
22D
330
1F
100
AcDbEntity
  8
0-0
  6
JWW_DASHED1
 62
   120
370
     5
100
AcDbLine
 10
-672.6196770989677
 20
-98.7078539880244
 30
0.0
 11
-99.61967709896697
 21
-98.7078539880244
 31
0.0
  0
LINE
  5
22E
330
1F
100
AcDbEntity
  8
0-0
  6
JWW_DASHED1
 62
   120
370
     5
100
AcDbLine
 10
-672.6196770989677
 20
-97.70785398812421
 30
0.0
 11
-99.61967709896697
 21
-97.70785398812421
 31
0.0
  0
LINE
  5
22F
330
1F
100
AcDbEntity
  8
0-0
  6
JWW_DASHED1
 62
   120
370
     5
100
AcDbLine
 10
-672.6196770989677
 20
-84.7078539870246
 30
0.0
 11
-99.61967709896697
 21
-84.7078539870246
 31
0.0
  0
LINE
  5
230
330
1F
100
AcDbEntity
  8
0-0
  6
JWW_DASHED1
 62
   120
370
     5
100
AcDbLine
 10
-672.6196770989677
 20
-83.70785398712442
 30
0.0
 11
-99.61967709896697
 21
-83.70785398712442
 31
0.0
  0
LINE
  5
231
330
1F
100
AcDbEntity
  8
0-0
  6
JWW_DASHED1
 62
   120
370
     5
100
AcDbLine
 10
-672.6196770989677
 20
-70.70785398602482
 30
0.0
 11
-99.61967709896697
 21
-70.70785398602482
 31
0.0
  0
LINE
  5
232
330
1F
100
AcDbEntity
  8
0-0
  6
JWW_DASHED1
 62
   120
370
     5
100
AcDbLine
 10
-672.6196770989677
 20
-69.70785398612463
 30
0.0
 11
-99.61967709896697
 21
-69.70785398612463
 31
0.0
  0
LINE
  5
233
330
1F
100
AcDbEntity
  8
0-0
  6
JWW_DASHED1
 62
   120
370
     5
100
AcDbLine
 10
-672.6196770989677
 20
-56.70785398502503
 30
0.0
 11
-99.61967709896697
 21
-56.70785398502503
 31
0.0
  0
LINE
  5
234
330
1F
100
AcDbEntity
  8
0-0
  6
JWW_DASHED1
 62
   120
370
     5
100
AcDbLine
 10
-672.6196770989677
 20
-55.70785398512484
 30
0.0
 11
-99.61967709896697
 21
-55.70785398512484
 31
0.0
  0
LINE
  5
235
330
1F
100
AcDbEntity
  8
0-0
  6
JWW_DASHED1
 62
   120
370
     5
100
AcDbLine
 10
-672.6196770989677
 20
-42.70785398402523
 30
0.0
 11
-99.61967709896697
 21
-42.70785398402523
 31
0.0
  0
LINE
  5
236
330
1F
100
AcDbEntity
  8
0-0
  6
JWW_DASHED1
 62
   120
370
     5
100
AcDbLine
 10
-672.6196770989677
 20
-41.70785398412505
 30
0.0
 11
-99.61967709896697
 21
-41.70785398412505
 31
0.0
  0
LINE
  5
237
330
1F
100
AcDbEntity
  8
0-0
  6
JWW_DASHED1
 62
   120
370
     5
100
AcDbLine
 10
-672.6196770989677
 20
-28.70785398302544
 30
0.0
 11
-99.61967709896697
 21
-28.70785398302544
 31
0.0
  0
LINE
  5
238
330
1F
100
AcDbEntity
  8
0-0
  6
JWW_DASHED1
 62
   120
370
     5
100
AcDbLine
 10
-672.6196770989677
 20
-27.70785398312526
 30
0.0
 11
-99.61967709896697
 21
-27.70785398312526
 31
0.0
  0
LINE
  5
239
330
1F
100
AcDbEntity
  8
0-0
  6
JWW_DASHED1
 62
   120
370
     5
100
AcDbLine
 10
-672.6196770989677
 20
-14.70785398202565
 30
0.0
 11
-99.61967709896697
 21
-14.70785398202565
 31
0.0
  0
LINE
  5
23A
330
1F
100
AcDbEntity
  8
0-0
  6
JWW_DASHED1
 62
   120
370
     5
100
AcDbLine
 10
-672.6196770989677
 20
-13.70785398212547
 30
0.0
 11
-99.61967709896697
 21
-13.70785398212547
 31
0.0
  0
LINE
  5
23B
330
1F
100
AcDbEntity
  8
0-0
  6
JWW_DASHED1
 62
   120
370
     5
100
AcDbLine
 10
-672.6196770989677
 20
-0.7078539810258633
 30
0.0
 11
-99.61967709896697
 21
-0.7078539810258633
 31
0.0
  0
LINE
  5
23C
330
1F
100
AcDbEntity
  8
0-0
  6
JWW_DASHED1
 62
   120
370
     5
100
AcDbLine
 10
-672.6196770989677
 20
0.2921460188743197
 30
0.0
 11
-99.61967709896697
 21
0.2921460188743197
 31
0.0
  0
LINE
  5
23D
330
1F
100
AcDbEntity
  8
0-0
  6
JWW_DASHED1
 62
   120
370
     5
100
AcDbLine
 10
-672.6196770989677
 20
13.29214601997393
 30
0.0
 11
-99.61967709896697
 21
13.29214601997393
 31
0.0
  0
LINE
  5
23E
330
1F
100
AcDbEntity
  8
0-0
  6
JWW_DASHED1
 62
   120
370
     5
100
AcDbLine
 10
-672.6196770989677
 20
14.29214601987411
 30
0.0
 11
-99.61967709896697
 21
14.29214601987411
 31
0.0
  0
LINE
  5
23F
330
1F
100
AcDbEntity
  8
0-0
  6
JWW_DASHED1
 62
   120
370
     5
100
AcDbLine
 10
-672.6196770989677
 20
27.29214602097372
 30
0.0
 11
-99.61967709896697
 21
27.29214602097372
 31
0.0
  0
LINE
  5
240
330
1F
100
AcDbEntity
  8
0-0
  6
JWW_DASHED1
 62
   120
370
     5
100
AcDbLine
 10
-672.6196770989677
 20
28.2921460208739
 30
0.0
 11
-99.61967709896697
 21
28.2921460208739
 31
0.0
  0
LINE
  5
241
330
1F
100
AcDbEntity
  8
0-0
  6
JWW_DASHED1
 62
   120
370
     5
100
AcDbLine
 10
-672.6196770989677
 20
41.29214602197351
 30
0.0
 11
-99.61967709896697
 21
41.29214602197351
 31
0.0
  0
LINE
  5
242
330
1F
100
AcDbEntity
  8
0-0
  6
JWW_DASHED1
 62
   120
370
     5
100
AcDbLine
 10
-672.6196770989677
 20
42.29214602187369
 30
0.0
 11
-99.61967709896697
 21
42.29214602187369
 31
0.0
  0
LINE
  5
243
330
1F
100
AcDbEntity
  8
0-0
  6
JWW_DASHED1
 62
   120
370
     5
100
AcDbLine
 10
-672.6196770989677
 20
55.2921460229733
 30
0.0
 11
-99.61967709896697
 21
55.2921460229733
 31
0.0
  0
LINE
  5
244
330
1F
100
AcDbEntity
  8
0-0
  6
JWW_DASHED1
 62
   120
370
     5
100
AcDbLine
 10
-672.6196770989677
 20
56.29214602287348
 30
0.0
 11
-99.61967709896697
 21
56.29214602287348
 31
0.0
  0
LINE
  5
245
330
1F
100
AcDbEntity
  8
0-0
  6
JWW_DASHED1
 62
   120
370
     5
100
AcDbLine
 10
-672.6196770989677
 20
69.29214602397309
 30
0.0
 11
-99.61967709896697
 21
69.29214602397309
 31
0.0
  0
LINE
  5
246
330
1F
100
AcDbEntity
  8
0-0
  6
JWW_DASHED1
 62
   120
370
     5
100
AcDbLine
 10
-672.6196770989677
 20
70.29214602387327
 30
0.0
 11
-99.61967709896697
 21
70.29214602387327
 31
0.0
  0
LINE
  5
247
330
1F
100
AcDbEntity
  8
0-0
  6
JWW_DASHED1
 62
   120
370
     5
100
AcDbLine
 10
-672.6196770989677
 20
83.29214602497288
 30
0.0
 11
-99.61967709896697
 21
83.29214602497288
 31
0.0
  0
LINE
  5
248
330
1F
100
AcDbEntity
  8
0-0
  6
JWW_DASHED1
 62
   120
370
     5
100
AcDbLine
 10
-672.6196770989677
 20
84.29214602487306
 30
0.0
 11
-99.61967709896697
 21
84.29214602487306
 31
0.0
  0
LINE
  5
249
330
1F
100
AcDbEntity
  8
0-0
  6
JWW_DASHED1
 62
   120
370
     5
100
AcDbLine
 10
-672.6196770989677
 20
97.29214602597267
 30
0.0
 11
-99.61967709896697
 21
97.29214602597267
 31
0.0
  0
LINE
  5
24A
330
1F
100
AcDbEntity
  8
0-0
  6
JWW_DASHED1
 62
   120
370
     5
100
AcDbLine
 10
-672.6196770989677
 20
98.29214602587285
 30
0.0
 11
-99.61967709896697
 21
98.29214602587285
 31
0.0
  0
LINE
  5
24B
330
1F
100
AcDbEntity
  8
0-0
  6
JWW_DASHED1
 62
   120
370
     5
100
AcDbLine
 10
-672.6196770989677
 20
111.2921460269725
 30
0.0
 11
-99.61967709896697
 21
111.2921460269725
 31
0.0
  0
LINE
  5
24C
330
1F
100
AcDbEntity
  8
0-0
  6
JWW_DASHED1
 62
   120
370
     5
100
AcDbLine
 10
-672.6196770989677
 20
112.2921460268726
 30
0.0
 11
-99.61967709896697
 21
112.2921460268726
 31
0.0
  0
LINE
  5
24D
330
1F
100
AcDbEntity
  8
0-0
  6
JWW_DASHED1
 62
   120
370
     5
100
AcDbLine
 10
-672.6196770989677
 20
125.2921460279723
 30
0.0
 11
-99.61967709896697
 21
125.2921460279723
 31
0.0
  0
LINE
  5
24E
330
1F
100
AcDbEntity
  8
0-0
  6
JWW_DASHED1
 62
   120
370
     5
100
AcDbLine
 10
-672.6196770989677
 20
126.2921460278724
 30
0.0
 11
-99.61967709896697
 21
126.2921460278724
 31
0.0
  0
LINE
  5
24F
330
1F
100
AcDbEntity
  8
0-0
  6
JWW_DASHED1
 62
   120
370
     5
100
AcDbLine
 10
-672.6196770989677
 20
139.292146028972
 30
0.0
 11
-99.61967709896697
 21
139.292146028972
 31
0.0
  0
LINE
  5
250
330
1F
100
AcDbEntity
  8
0-0
  6
JWW_DASHED1
 62
   120
370
     5
100
AcDbLine
 10
-672.6196770989677
 20
140.2921460288722
 30
0.0
 11
-99.61967709896697
 21
140.2921460288722
 31
0.0
  0
LINE
  5
251
330
1F
100
AcDbEntity
  8
0-0
  6
JWW_DASHED1
 62
   120
370
     5
100
AcDbLine
 10
-672.6196770989677
 20
153.2921460299718
 30
0.0
 11
-99.61967709896697
 21
153.2921460299718
 31
0.0
  0
LINE
  5
252
330
1F
100
AcDbEntity
  8
0-0
  6
JWW_DASHED1
 62
   120
370
     5
100
AcDbLine
 10
-672.6196770989677
 20
154.292146029872
 30
0.0
 11
-99.61967709896697
 21
154.292146029872
 31
0.0
  0
LINE
  5
253
330
1F
100
AcDbEntity
  8
0-0
  6
JWW_DASHED1
 62
   120
370
     5
100
AcDbLine
 10
-672.6196770989677
 20
167.2921460309716
 30
0.0
 11
-99.61967709896697
 21
167.2921460309716
 31
0.0
  0
LINE
  5
254
330
1F
100
AcDbEntity
  8
0-0
  6
JWW_DASHED1
 62
   120
370
     5
100
AcDbLine
 10
-672.6196770989677
 20
168.2921460308718
 30
0.0
 11
-99.61967709896697
 21
168.2921460308718
 31
0.0
  0
LINE
  5
255
330
1F
100
AcDbEntity
  8
0-0
  6
JWW_DASHED1
 62
   120
370
     5
100
AcDbLine
 10
-672.6196770989677
 20
181.2921460319714
 30
0.0
 11
-99.61967709896697
 21
181.2921460319714
 31
0.0
  0
LINE
  5
256
330
1F
100
AcDbEntity
  8
0-0
  6
JWW_DASHED1
 62
   120
370
     5
100
AcDbLine
 10
-672.6196770989677
 20
182.2921460318716
 30
0.0
 11
-99.61967709896697
 21
182.2921460318716
 31
0.0
  0
LINE
  5
257
330
1F
100
AcDbEntity
  8
0-0
  6
JWW_DASHED1
 62
   120
370
     5
100
AcDbLine
 10
-672.6196770989677
 20
195.2921460329712
 30
0.0
 11
-99.61967709896697
 21
195.2921460329712
 31
0.0
  0
LINE
  5
258
330
1F
100
AcDbEntity
  8
0-0
  6
JWW_DASHED1
 62
   120
370
     5
100
AcDbLine
 10
-672.6196770989677
 20
196.2921460328714
 30
0.0
 11
-99.61967709896697
 21
196.2921460328714
 31
0.0
  0
LINE
  5
259
330
1F
100
AcDbEntity
  8
0-0
  6
JWW_DASHED1
 62
   120
370
     5
100
AcDbLine
 10
-672.6196770989677
 20
209.292146033971
 30
0.0
 11
-99.61967709896697
 21
209.292146033971
 31
0.0
  0
LINE
  5
25A
330
1F
100
AcDbEntity
  8
0-0
  6
JWW_DASHED1
 62
   120
370
     5
100
AcDbLine
 10
-672.6196770989677
 20
210.2921460338712
 30
0.0
 11
-99.61967709896697
 21
210.2921460338712
 31
0.0
  0
LINE
  5
25B
330
1F
100
AcDbEntity
  8
0-0
  6
JWW_DASHED1
 62
   120
370
     5
100
AcDbLine
 10
-672.6196770989677
 20
223.2921460349708
 30
0.0
 11
-99.61967709896697
 21
223.2921460349708
 31
0.0
  0
LINE
  5
25C
330
1F
100
AcDbEntity
  8
0-0
  6
JWW_DASHED1
 62
   120
370
     5
100
AcDbLine
 10
-672.6196770989677
 20
224.292146034871
 30
0.0
 11
-99.61967709896697
 21
224.292146034871
 31
0.0
  0
LINE
  5
25D
330
1F
100
AcDbEntity
  8
0-0
  6
JWW_DASHED1
 62
   120
370
     5
100
AcDbLine
 10
-672.6196770989677
 20
237.2921460359706
 30
0.0
 11
-99.61967709896697
 21
237.2921460359706
 31
0.0
  0
LINE
  5
25E
330
1F
100
AcDbEntity
  8
0-0
  6
JWW_DASHED1
 62
   120
370
     5
100
AcDbLine
 10
-672.6196770989677
 20
238.2921460358708
 30
0.0
 11
-99.61967709896697
 21
238.2921460358708
 31
0.0
  0
LINE
  5
25F
330
1F
100
AcDbEntity
  8
0-0
  6
JWW_DASHED1
 62
   120
370
     5
100
AcDbLine
 10
-672.6196770989677
 20
251.2921460369704
 30
0.0
 11
-99.61967709896697
 21
251.2921460369704
 31
0.0
  0
LINE
  5
260
330
1F
100
AcDbEntity
  8
0-0
  6
JWW_DASHED1
 62
   120
370
     5
100
AcDbLine
 10
-672.6196770989677
 20
252.2921460368705
 30
0.0
 11
-99.61967709896697
 21
252.2921460368705
 31
0.0
  0
LINE
  5
261
330
1F
100
AcDbEntity
  8
0-0
  6
JWW_DASHED1
 62
   120
370
     5
100
AcDbLine
 10
-672.6196770989677
 20
265.2921460379702
 30
0.0
 11
-99.61967709896697
 21
265.2921460379702
 31
0.0
  0
LINE
  5
262
330
1F
100
AcDbEntity
  8
0-0
  6
JWW_DASHED1
 62
   120
370
     5
100
AcDbLine
 10
-672.6196770989677
 20
266.2921460378703
 30
0.0
 11
-99.61967709896697
 21
266.2921460378703
 31
0.0
  0
LINE
  5
263
330
1F
100
AcDbEntity
  8
0-0
  6
JWW_DASHED1
 62
   120
370
     5
100
AcDbLine
 10
-672.6196770989677
 20
279.2921460389699
 30
0.0
 11
-99.61967709896697
 21
279.2921460389699
 31
0.0
  0
LINE
  5
264
330
1F
100
AcDbEntity
  8
0-0
  6
JWW_DASHED1
 62
   120
370
     5
100
AcDbLine
 10
-672.6196770989677
 20
280.2921460388701
 30
0.0
 11
-99.61967709896697
 21
280.2921460388701
 31
0.0
  0
LINE
  5
265
330
1F
100
AcDbEntity
  8
0-0
  6
JWW_DASHED1
 62
   120
370
     5
100
AcDbLine
 10
-672.6196770989677
 20
293.2921460399697
 30
0.0
 11
-99.61967709896697
 21
293.2921460399697
 31
0.0
  0
LINE
  5
266
330
1F
100
AcDbEntity
  8
0-0
  6
JWW_DASHED1
 62
   120
370
     5
100
AcDbLine
 10
-672.6196770989677
 20
294.2921460398699
 30
0.0
 11
-99.61967709896697
 21
294.2921460398699
 31
0.0
  0
LINE
  5
267
330
1F
100
AcDbEntity
  8
0-0
  6
JWW_DASHED1
 62
   120
370
     5
100
AcDbLine
 10
-672.6196770989677
 20
307.2921460409696
 30
0.0
 11
-99.61967709896697
 21
307.2921460409696
 31
0.0
  0
LINE
  5
268
330
1F
100
AcDbEntity
  8
0-0
  6
JWW_DASHED1
 62
   120
370
     5
100
AcDbLine
 10
-672.6196770989677
 20
308.2921460408697
 30
0.0
 11
-99.61967709896697
 21
308.2921460408697
 31
0.0
  0
LINE
  5
269
330
1F
100
AcDbEntity
  8
0-0
  6
JWW_DASHED1
 62
   120
370
     5
100
AcDbLine
 10
-672.6196770989677
 20
321.2921460419693
 30
0.0
 11
-99.61967709896697
 21
321.2921460419693
 31
0.0
  0
LINE
  5
26A
330
1F
100
AcDbEntity
  8
0-0
  6
JWW_DASHED1
 62
   120
370
     5
100
AcDbLine
 10
-672.6196770989677
 20
322.2921460418695
 30
0.0
 11
-99.61967709896697
 21
322.2921460418695
 31
0.0
  0
LINE
  5
26B
330
1F
100
AcDbEntity
  8
0-0
  6
JWW_DASHED1
 62
   120
370
     5
100
AcDbLine
 10
-672.6196770989677
 20
335.2921460429691
 30
0.0
 11
-99.61967709896697
 21
335.2921460429691
 31
0.0
  0
LINE
  5
26C
330
1F
100
AcDbEntity
  8
0-0
  6
JWW_DASHED1
 62
   120
370
     5
100
AcDbLine
 10
-672.6196770989677
 20
336.2921460428693
 30
0.0
 11
-99.61967709896697
 21
336.2921460428693
 31
0.0
  0
LINE
  5
26D
330
1F
100
AcDbEntity
  8
0-0
  6
JWW_DASHED1
 62
   120
370
     5
100
AcDbLine
 10
-672.6196770989677
 20
349.2921460439689
 30
0.0
 11
-99.61967709896697
 21
349.2921460439689
 31
0.0
  0
LINE
  5
26E
330
1F
100
AcDbEntity
  8
0-0
  6
JWW_DASHED1
 62
   120
370
     5
100
AcDbLine
 10
-672.6196770989677
 20
350.2921460438691
 30
0.0
 11
-99.61967709896697
 21
350.2921460438691
 31
0.0
  0
LINE
  5
26F
330
1F
100
AcDbEntity
  8
0-0
  6
JWW_DASHED1
 62
   120
370
     5
100
AcDbLine
 10
-672.6196770989677
 20
363.2921460449687
 30
0.0
 11
-99.61967709896697
 21
363.2921460449687
 31
0.0
  0
LINE
  5
270
330
1F
100
AcDbEntity
  8
0-0
  6
JWW_DASHED1
 62
   120
370
     5
100
AcDbLine
 10
-672.6196770989677
 20
364.2921460448689
 30
0.0
 11
-99.61967709896697
 21
364.2921460448689
 31
0.0
  0
LINE
  5
271
330
1F
100
AcDbEntity
  8
0-0
  6
JWW_DASHED1
 62
   120
370
     5
100
AcDbLine
 10
-672.6196770989677
 20
377.2921460459685
 30
0.0
 11
-99.61967709896697
 21
377.2921460459685
 31
0.0
  0
LINE
  5
272
330
1F
100
AcDbEntity
  8
0-0
  6
JWW_DASHED1
 62
   120
370
     5
100
AcDbLine
 10
-672.6196770989677
 20
378.2921460458687
 30
0.0
 11
-99.61967709896697
 21
378.2921460458687
 31
0.0
  0
LINE
  5
273
330
1F
100
AcDbEntity
  8
0-0
  6
JWW_DASHED1
 62
   120
370
     5
100
AcDbLine
 10
-672.6196770989677
 20
391.2921460469682
 30
0.0
 11
-99.61967709896697
 21
391.2921460469682
 31
0.0
  0
LINE
  5
274
330
1F
100
AcDbEntity
  8
0-0
  6
JWW_DASHED1
 62
   120
370
     5
100
AcDbLine
 10
-672.6196770989677
 20
392.2921460468684
 30
0.0
 11
-99.61967709896697
 21
392.2921460468684
 31
0.0
  0
LINE
  5
275
330
1F
100
AcDbEntity
  8
0-0
  6
JWW_DASHED1
 62
   120
370
     5
100
AcDbLine
 10
-672.6196770989677
 20
405.2921460479681
 30
0.0
 11
-99.61967709896697
 21
405.2921460479681
 31
0.0
  0
LINE
  5
276
330
1F
100
AcDbEntity
  8
0-0
  6
JWW_DASHED1
 62
   120
370
     5
100
AcDbLine
 10
-672.6196770989677
 20
406.2921460478682
 30
0.0
 11
-99.61967709896697
 21
406.2921460478682
 31
0.0
  0
LINE
  5
277
330
1F
100
AcDbEntity
  8
0-0
  6
JWW_DASHED1
 62
   120
370
     5
100
AcDbLine
 10
-672.6196770989677
 20
419.2921460489679
 30
0.0
 11
-99.61967709896697
 21
419.2921460489679
 31
0.0
  0
LINE
  5
278
330
1F
100
AcDbEntity
  8
0-0
  6
JWW_DASHED1
 62
   120
370
     5
100
AcDbLine
 10
-672.6196770989677
 20
420.2921460488681
 30
0.0
 11
-99.61967709896697
 21
420.2921460488681
 31
0.0
  0
LINE
  5
279
330
1F
100
AcDbEntity
  8
0-0
  6
JWW_DASHED1
 62
   120
370
     5
100
AcDbLine
 10
-672.6196770989677
 20
433.2921460499676
 30
0.0
 11
-99.61967709896697
 21
433.2921460499676
 31
0.0
  0
LINE
  5
27A
330
1F
100
AcDbEntity
  8
0-0
  6
JWW_DASHED1
 62
   120
370
     5
100
AcDbLine
 10
-672.6196770989677
 20
434.2921460498678
 30
0.0
 11
-99.61967709896697
 21
434.2921460498678
 31
0.0
  0
LINE
  5
27B
330
1F
100
AcDbEntity
  8
0-0
  6
JWW_DASHED1
 62
   120
370
     5
100
AcDbLine
 10
-672.6196770989677
 20
447.2921460509674
 30
0.0
 11
-99.61967709896697
 21
447.2921460509674
 31
0.0
  0
LINE
  5
27C
330
1F
100
AcDbEntity
  8
0-0
  6
JWW_DASHED1
 62
   120
370
     5
100
AcDbLine
 10
-672.6196770989677
 20
448.2921460508676
 30
0.0
 11
-99.61967709896697
 21
448.2921460508676
 31
0.0
  0
LINE
  5
27D
330
1F
100
AcDbEntity
  8
0-0
  6
JWW_DASHED1
 62
   120
370
     5
100
AcDbLine
 10
-672.6196770989677
 20
461.2921460519672
 30
0.0
 11
-99.61967709896697
 21
461.2921460519672
 31
0.0
  0
LINE
  5
27E
330
1F
100
AcDbEntity
  8
0-0
  6
JWW_DASHED1
 62
   120
370
     5
100
AcDbLine
 10
-672.6196770989677
 20
462.2921460518674
 30
0.0
 11
-99.61967709896697
 21
462.2921460518674
 31
0.0
  0
LINE
  5
27F
330
1F
100
AcDbEntity
  8
0-0
  6
JWW_DASHED1
 62
   120
370
     5
100
AcDbLine
 10
-672.6196770989677
 20
475.292146052967
 30
0.0
 11
-99.61967709896697
 21
475.292146052967
 31
0.0
  0
LINE
  5
280
330
1F
100
AcDbEntity
  8
0-0
  6
JWW_DASHED1
 62
   120
370
     5
100
AcDbLine
 10
-672.6196770989677
 20
476.2921460528672
 30
0.0
 11
-99.61967709896697
 21
476.2921460528672
 31
0.0
  0
LINE
  5
281
330
1F
100
AcDbEntity
  8
0-0
  6
JWW_DASHED1
 62
   120
370
     5
100
AcDbLine
 10
-672.6196770989677
 20
489.2921460539668
 30
0.0
 11
-99.61967709896697
 21
489.2921460539668
 31
0.0
  0
LINE
  5
282
330
1F
100
AcDbEntity
  8
0-0
  6
JWW_DASHED1
 62
   120
370
     5
100
AcDbLine
 10
-672.6196770989677
 20
490.292146053867
 30
0.0
 11
-99.61967709896697
 21
490.292146053867
 31
0.0
  0
LINE
  5
283
330
1F
100
AcDbEntity
  8
0-0
  6
JWW_DASHED1
 62
   120
370
     5
100
AcDbLine
 10
-672.6196770989677
 20
503.2921460549666
 30
0.0
 11
-99.61967709896697
 21
503.2921460549666
 31
0.0
  0
LINE
  5
284
330
1F
100
AcDbEntity
  8
0-0
  6
JWW_DASHED1
 62
   120
370
     5
100
AcDbLine
 10
-672.6196770989677
 20
504.2921460548667
 30
0.0
 11
-99.61967709896697
 21
504.2921460548667
 31
0.0
  0
LINE
  5
285
330
1F
100
AcDbEntity
  8
0-0
  6
JWW_DASHED1
 62
   120
370
     5
100
AcDbLine
 10
-672.6196770989677
 20
517.2921460559664
 30
0.0
 11
-99.61967709896697
 21
517.2921460559664
 31
0.0
  0
LINE
  5
286
330
1F
100
AcDbEntity
  8
0-0
  6
JWW_DASHED1
 62
   120
370
     5
100
AcDbLine
 10
-672.6196770989677
 20
518.2921460558666
 30
0.0
 11
-99.61967709896697
 21
518.2921460558666
 31
0.0
  0
LINE
  5
287
330
1F
100
AcDbEntity
  8
0-0
  6
JWW_DASHED1
 62
   120
370
     5
100
AcDbLine
 10
-672.6196770989677
 20
531.2921460569662
 30
0.0
 11
-99.61967709896697
 21
531.2921460569662
 31
0.0
  0
LINE
  5
288
330
1F
100
AcDbEntity
  8
0-0
  6
JWW_DASHED1
 62
   120
370
     5
100
AcDbLine
 10
-672.6196770989677
 20
532.2921460568664
 30
0.0
 11
-99.61967709896697
 21
532.2921460568664
 31
0.0
  0
LINE
  5
289
330
1F
100
AcDbEntity
  8
0-0
  6
JWW_DASHED1
 62
   120
370
     5
100
AcDbLine
 10
-672.6196770989677
 20
545.292146057966
 30
0.0
 11
-99.61967709896697
 21
545.292146057966
 31
0.0
  0
LINE
  5
28A
330
1F
100
AcDbEntity
  8
0-0
  6
JWW_DASHED1
 62
   120
370
     5
100
AcDbLine
 10
-672.6196770989677
 20
546.2921460578661
 30
0.0
 11
-99.61967709896697
 21
546.2921460578661
 31
0.0
  0
LINE
  5
28B
330
1F
100
AcDbEntity
  8
0-0
  6
JWW_DASHED1
 62
   120
370
     5
100
AcDbLine
 10
-672.6196770989677
 20
559.2921460589657
 30
0.0
 11
-99.61967709896697
 21
559.2921460589657
 31
0.0
  0
LINE
  5
28C
330
1F
100
AcDbEntity
  8
0-0
  6
JWW_DASHED1
 62
   120
370
     5
100
AcDbLine
 10
-672.6196770989677
 20
560.2921460588659
 30
0.0
 11
-99.61967709896697
 21
560.2921460588659
 31
0.0
  0
LINE
  5
28D
330
1F
100
AcDbEntity
  8
0-0
  6
JWW_DASHED1
 62
   120
370
     5
100
AcDbLine
 10
-672.6196770989677
 20
573.2921460599655
 30
0.0
 11
-99.61967709896697
 21
573.2921460599655
 31
0.0
  0
LINE
  5
28E
330
1F
100
AcDbEntity
  8
0-0
  6
JWW_DASHED1
 62
   120
370
     5
100
AcDbLine
 10
-672.6196770989677
 20
574.2921460598657
 30
0.0
 11
-99.61967709896697
 21
574.2921460598657
 31
0.0
  0
LINE
  5
28F
330
1F
100
AcDbEntity
  8
0-0
  6
JWW_DASHED1
 62
   120
370
     5
100
AcDbLine
 10
-672.6196770989677
 20
587.2921460609654
 30
0.0
 11
-99.61967709896697
 21
587.2921460609654
 31
0.0
  0
LINE
  5
290
330
1F
100
AcDbEntity
  8
0-0
  6
JWW_DASHED1
 62
   120
370
     5
100
AcDbLine
 10
-672.6196770989677
 20
588.2921460608655
 30
0.0
 11
-99.61967709896697
 21
588.2921460608655
 31
0.0
  0
LINE
  5
291
330
1F
100
AcDbEntity
  8
0-0
  6
JWW_DASHED1
 62
   120
370
     5
100
AcDbLine
 10
-672.6196770989677
 20
601.2921460619651
 30
0.0
 11
-99.61967709896697
 21
601.2921460619651
 31
0.0
  0
LINE
  5
292
330
1F
100
AcDbEntity
  8
0-0
  6
JWW_DASHED1
 62
   120
370
     5
100
AcDbLine
 10
-672.6196770989677
 20
602.2921460618653
 30
0.0
 11
-99.61967709896697
 21
602.2921460618653
 31
0.0
  0
LINE
  5
293
330
1F
100
AcDbEntity
  8
0-0
  6
JWW_DASHED1
 62
   120
370
     5
100
AcDbLine
 10
-672.6196770989677
 20
615.2921460629649
 30
0.0
 11
-99.61967709896697
 21
615.2921460629649
 31
0.0
  0
LINE
  5
294
330
1F
100
AcDbEntity
  8
0-0
  6
JWW_DASHED1
 62
   120
370
     5
100
AcDbLine
 10
-672.6196770989677
 20
616.2921460628651
 30
0.0
 11
-99.61967709896697
 21
616.2921460628651
 31
0.0
  0
LINE
  5
295
330
1F
100
AcDbEntity
  8
0-0
  6
JWW_DASHED1
 62
   120
370
     5
100
AcDbLine
 10
-672.6196770989677
 20
629.2921460639648
 30
0.0
 11
-99.61967709896697
 21
629.2921460639648
 31
0.0
  0
LINE
  5
296
330
1F
100
AcDbEntity
  8
0-0
  6
JWW_DASHED1
 62
   120
370
     5
100
AcDbLine
 10
-672.6196770989677
 20
630.292146063865
 30
0.0
 11
-99.61967709896697
 21
630.292146063865
 31
0.0
  0
LINE
  5
297
330
1F
100
AcDbEntity
  8
0-0
  6
JWW_DASHED1
 62
   120
370
     5
100
AcDbLine
 10
-672.6196770989677
 20
643.2921460649645
 30
0.0
 11
-99.61967709896697
 21
643.2921460649645
 31
0.0
  0
LINE
  5
298
330
1F
100
AcDbEntity
  8
0-0
  6
JWW_DASHED1
 62
   120
370
     5
100
AcDbLine
 10
-672.6196770989677
 20
644.2921460648647
 30
0.0
 11
-99.61967709896697
 21
644.2921460648647
 31
0.0
  0
LINE
  5
299
330
1F
100
AcDbEntity
  8
0-0
  6
JWW_DASHED1
 62
   120
370
     5
100
AcDbLine
 10
-666.6196586409359
 20
-462.7077057001752
 30
0.0
 11
-666.6196586409359
 21
712.292294299825
 31
0.0
  0
LINE
  5
29A
330
1F
100
AcDbEntity
  8
0-0
  6
JWW_DASHED1
 62
   120
370
     5
100
AcDbLine
 10
-133.6196586030356
 20
-462.7077057001752
 30
0.0
 11
-133.6196586030356
 21
712.292294299825
 31
0.0
  0
LINE
  5
29B
330
1F
100
AcDbEntity
  8
0-0
  6
JWW_DASHED1
 62
   120
370
     5
100
AcDbLine
 10
-134.6196586029357
 20
-462.7077057001752
 30
0.0
 11
-134.6196586029353
 21
712.292294299825
 31
0.0
  0
LINE
  5
29C
330
1F
100
AcDbEntity
  8
0-0
  6
JWW_DASHED1
 62
   120
370
     5
100
AcDbLine
 10
-147.6196586040358
 20
-462.7077057001752
 30
0.0
 11
-147.6196586040354
 21
712.292294299825
 31
0.0
  0
LINE
  5
29D
330
1F
100
AcDbEntity
  8
0-0
  6
JWW_DASHED1
 62
   120
370
     5
100
AcDbLine
 10
-148.6196586039355
 20
-462.7077057001752
 30
0.0
 11
-148.6196586039355
 21
712.292294299825
 31
0.0
  0
LINE
  5
29E
330
1F
100
AcDbEntity
  8
0-0
  6
JWW_DASHED1
 62
   120
370
     5
100
AcDbLine
 10
-161.619658605036
 20
-462.7077057001752
 30
0.0
 11
-161.619658605036
 21
712.292294299825
 31
0.0
  0
LINE
  5
29F
330
1F
100
AcDbEntity
  8
0-0
  6
JWW_DASHED1
 62
   120
370
     5
100
AcDbLine
 10
-162.6196586049358
 20
-462.7077057001752
 30
0.0
 11
-162.6196586049358
 21
712.292294299825
 31
0.0
  0
LINE
  5
2A0
330
1F
100
AcDbEntity
  8
0-0
  6
JWW_DASHED1
 62
   120
370
     5
100
AcDbLine
 10
-175.6196586060358
 20
-462.7077057001752
 30
0.0
 11
-175.6196586060358
 21
712.292294299825
 31
0.0
  0
LINE
  5
2A1
330
1F
100
AcDbEntity
  8
0-0
  6
JWW_DASHED1
 62
   120
370
     5
100
AcDbLine
 10
-176.619658605936
 20
-462.7077057001752
 30
0.0
 11
-176.619658605936
 21
712.292294299825
 31
0.0
  0
LINE
  5
2A2
330
1F
100
AcDbEntity
  8
0-0
  6
JWW_DASHED1
 62
   120
370
     5
100
AcDbLine
 10
-189.619658607036
 20
-462.7077057001752
 30
0.0
 11
-189.619658607036
 21
712.292294299825
 31
0.0
  0
LINE
  5
2A3
330
1F
100
AcDbEntity
  8
0-0
  6
JWW_DASHED1
 62
   120
370
     5
100
AcDbLine
 10
-190.6196586069358
 20
-462.7077057001752
 30
0.0
 11
-190.6196586069353
 21
712.292294299825
 31
0.0
  0
LINE
  5
2A4
330
1F
100
AcDbEntity
  8
0-0
  6
JWW_DASHED1
 62
   120
370
     5
100
AcDbLine
 10
-203.6196586080358
 20
-462.7077057001752
 30
0.0
 11
-203.6196586080354
 21
712.292294299825
 31
0.0
  0
LINE
  5
2A5
330
1F
100
AcDbEntity
  8
0-0
  6
JWW_DASHED1
 62
   120
370
     5
100
AcDbLine
 10
-204.6196586079355
 20
-462.7077057001752
 30
0.0
 11
-204.6196586079355
 21
712.292294299825
 31
0.0
  0
LINE
  5
2A6
330
1F
100
AcDbEntity
  8
0-0
  6
JWW_DASHED1
 62
   120
370
     5
100
AcDbLine
 10
-217.6196586090356
 20
-462.7077057001752
 30
0.0
 11
-217.6196586090356
 21
712.292294299825
 31
0.0
  0
LINE
  5
2A7
330
1F
100
AcDbEntity
  8
0-0
  6
JWW_DASHED1
 62
   120
370
     5
100
AcDbLine
 10
-218.6196586089358
 20
-462.7077057001752
 30
0.0
 11
-218.6196586089358
 21
712.292294299825
 31
0.0
  0
LINE
  5
2A8
330
1F
100
AcDbEntity
  8
0-0
  6
JWW_DASHED1
 62
   120
370
     5
100
AcDbLine
 10
-231.6196586100354
 20
-462.7077057001752
 30
0.0
 11
-231.6196586100354
 21
712.292294299825
 31
0.0
  0
LINE
  5
2A9
330
1F
100
AcDbEntity
  8
0-0
  6
JWW_DASHED1
 62
   120
370
     5
100
AcDbLine
 10
-232.6196586099356
 20
-462.7077057001752
 30
0.0
 11
-232.6196586099356
 21
712.292294299825
 31
0.0
  0
LINE
  5
2AA
330
1F
100
AcDbEntity
  8
0-0
  6
JWW_DASHED1
 62
   120
370
     5
100
AcDbLine
 10
-245.6196586110352
 20
-462.7077057001752
 30
0.0
 11
-245.6196586110352
 21
712.292294299825
 31
0.0
  0
LINE
  5
2AB
330
1F
100
AcDbEntity
  8
0-0
  6
JWW_DASHED1
 62
   120
370
     5
100
AcDbLine
 10
-246.6196586109353
 20
-462.7077057001752
 30
0.0
 11
-246.6196586109353
 21
712.292294299825
 31
0.0
  0
LINE
  5
2AC
330
1F
100
AcDbEntity
  8
0-0
  6
JWW_DASHED1
 62
   120
370
     5
100
AcDbLine
 10
-259.6196586120354
 20
-462.7077057001752
 30
0.0
 11
-259.6196586120354
 21
712.292294299825
 31
0.0
  0
LINE
  5
2AD
330
1F
100
AcDbEntity
  8
0-0
  6
JWW_DASHED1
 62
   120
370
     5
100
AcDbLine
 10
-260.6196586119356
 20
-462.7077057001752
 30
0.0
 11
-260.6196586119356
 21
712.292294299825
 31
0.0
  0
LINE
  5
2AE
330
1F
100
AcDbEntity
  8
0-0
  6
JWW_DASHED1
 62
   120
370
     5
100
AcDbLine
 10
-273.6196586130356
 20
-462.7077057001752
 30
0.0
 11
-273.6196586130356
 21
712.292294299825
 31
0.0
  0
LINE
  5
2AF
330
1F
100
AcDbEntity
  8
0-0
  6
JWW_DASHED1
 62
   120
370
     5
100
AcDbLine
 10
-274.6196586129358
 20
-462.7077057001752
 30
0.0
 11
-274.6196586129358
 21
712.292294299825
 31
0.0
  0
LINE
  5
2B0
330
1F
100
AcDbEntity
  8
0-0
  6
JWW_DASHED1
 62
   120
370
     5
100
AcDbLine
 10
-287.6196586140354
 20
-462.7077057001752
 30
0.0
 11
-287.6196586140354
 21
712.292294299825
 31
0.0
  0
LINE
  5
2B1
330
1F
100
AcDbEntity
  8
0-0
  6
JWW_DASHED1
 62
   120
370
     5
100
AcDbLine
 10
-288.6196586139356
 20
-462.7077057001752
 30
0.0
 11
-288.6196586139356
 21
712.292294299825
 31
0.0
  0
LINE
  5
2B2
330
1F
100
AcDbEntity
  8
0-0
  6
JWW_DASHED1
 62
   120
370
     5
100
AcDbLine
 10
-301.6196586150352
 20
-462.7077057001752
 30
0.0
 11
-301.6196586150352
 21
712.292294299825
 31
0.0
  0
LINE
  5
2B3
330
1F
100
AcDbEntity
  8
0-0
  6
JWW_DASHED1
 62
   120
370
     5
100
AcDbLine
 10
-302.6196586149354
 20
-462.7077057001752
 30
0.0
 11
-302.6196586149354
 21
712.292294299825
 31
0.0
  0
LINE
  5
2B4
330
1F
100
AcDbEntity
  8
0-0
  6
JWW_DASHED1
 62
   120
370
     5
100
AcDbLine
 10
-315.6196586160354
 20
-462.7077057001752
 30
0.0
 11
-315.6196586160354
 21
712.292294299825
 31
0.0
  0
LINE
  5
2B5
330
1F
100
AcDbEntity
  8
0-0
  6
JWW_DASHED1
 62
   120
370
     5
100
AcDbLine
 10
-316.6196586159356
 20
-462.7077057001752
 30
0.0
 11
-316.6196586159356
 21
712.292294299825
 31
0.0
  0
LINE
  5
2B6
330
1F
100
AcDbEntity
  8
0-0
  6
JWW_DASHED1
 62
   120
370
     5
100
AcDbLine
 10
-329.6196586170356
 20
-462.7077057001752
 30
0.0
 11
-329.6196586170356
 21
712.292294299825
 31
0.0
  0
LINE
  5
2B7
330
1F
100
AcDbEntity
  8
0-0
  6
JWW_DASHED1
 62
   120
370
     5
100
AcDbLine
 10
-330.6196586169358
 20
-462.7077057001752
 30
0.0
 11
-330.6196586169358
 21
712.292294299825
 31
0.0
  0
LINE
  5
2B8
330
1F
100
AcDbEntity
  8
0-0
  6
JWW_DASHED1
 62
   120
370
     5
100
AcDbLine
 10
-343.6196586180354
 20
-462.7077057001752
 30
0.0
 11
-343.6196586180354
 21
712.292294299825
 31
0.0
  0
LINE
  5
2B9
330
1F
100
AcDbEntity
  8
0-0
  6
JWW_DASHED1
 62
   120
370
     5
100
AcDbLine
 10
-344.6196586179356
 20
-462.7077057001752
 30
0.0
 11
-344.6196586179356
 21
712.292294299825
 31
0.0
  0
LINE
  5
2BA
330
1F
100
AcDbEntity
  8
0-0
  6
JWW_DASHED1
 62
   120
370
     5
100
AcDbLine
 10
-357.6196586190352
 20
-462.7077057001752
 30
0.0
 11
-357.6196586190352
 21
712.292294299825
 31
0.0
  0
LINE
  5
2BB
330
1F
100
AcDbEntity
  8
0-0
  6
JWW_DASHED1
 62
   120
370
     5
100
AcDbLine
 10
-358.6196586189358
 20
-462.7077057001752
 30
0.0
 11
-358.6196586189358
 21
712.292294299825
 31
0.0
  0
LINE
  5
2BC
330
1F
100
AcDbEntity
  8
0-0
  6
JWW_DASHED1
 62
   120
370
     5
100
AcDbLine
 10
-371.6196586200354
 20
-462.7077057001752
 30
0.0
 11
-371.6196586200354
 21
712.292294299825
 31
0.0
  0
LINE
  5
2BD
330
1F
100
AcDbEntity
  8
0-0
  6
JWW_DASHED1
 62
   120
370
     5
100
AcDbLine
 10
-372.6196586199356
 20
-462.7077057001752
 30
0.0
 11
-372.6196586199356
 21
712.292294299825
 31
0.0
  0
LINE
  5
2BE
330
1F
100
AcDbEntity
  8
0-0
  6
JWW_DASHED1
 62
   120
370
     5
100
AcDbLine
 10
-385.6196586210356
 20
-462.7077057001752
 30
0.0
 11
-385.6196586210356
 21
712.292294299825
 31
0.0
  0
LINE
  5
2BF
330
1F
100
AcDbEntity
  8
0-0
  6
JWW_DASHED1
 62
   120
370
     5
100
AcDbLine
 10
-386.6196586209358
 20
-462.7077057001752
 30
0.0
 11
-386.6196586209358
 21
712.292294299825
 31
0.0
  0
LINE
  5
2C0
330
1F
100
AcDbEntity
  8
0-0
  6
JWW_DASHED1
 62
   120
370
     5
100
AcDbLine
 10
-399.6196586220358
 20
-462.7077057001752
 30
0.0
 11
-399.6196586220358
 21
712.292294299825
 31
0.0
  0
LINE
  5
2C1
330
1F
100
AcDbEntity
  8
0-0
  6
JWW_DASHED1
 62
   120
370
     5
100
AcDbLine
 10
-400.6196586219356
 20
-462.7077057001752
 30
0.0
 11
-400.6196586219356
 21
712.292294299825
 31
0.0
  0
LINE
  5
2C2
330
1F
100
AcDbEntity
  8
0-0
  6
JWW_DASHED1
 62
   120
370
     5
100
AcDbLine
 10
-413.6196586230352
 20
-462.7077057001752
 30
0.0
 11
-413.6196586230352
 21
712.292294299825
 31
0.0
  0
LINE
  5
2C3
330
1F
100
AcDbEntity
  8
0-0
  6
JWW_DASHED1
 62
   120
370
     5
100
AcDbLine
 10
-414.6196586229354
 20
-462.7077057001752
 30
0.0
 11
-414.6196586229354
 21
712.292294299825
 31
0.0
  0
LINE
  5
2C4
330
1F
100
AcDbEntity
  8
0-0
  6
JWW_DASHED1
 62
   120
370
     5
100
AcDbLine
 10
-427.6196586240354
 20
-462.7077057001752
 30
0.0
 11
-427.6196586240354
 21
712.292294299825
 31
0.0
  0
LINE
  5
2C5
330
1F
100
AcDbEntity
  8
0-0
  6
JWW_DASHED1
 62
   120
370
     5
100
AcDbLine
 10
-428.6196586239356
 20
-462.7077057001752
 30
0.0
 11
-428.6196586239356
 21
712.292294299825
 31
0.0
  0
LINE
  5
2C6
330
1F
100
AcDbEntity
  8
0-0
  6
JWW_DASHED1
 62
   120
370
     5
100
AcDbLine
 10
-441.6196586250356
 20
-462.7077057001752
 30
0.0
 11
-441.6196586250356
 21
712.292294299825
 31
0.0
  0
LINE
  5
2C7
330
1F
100
AcDbEntity
  8
0-0
  6
JWW_DASHED1
 62
   120
370
     5
100
AcDbLine
 10
-442.6196586249358
 20
-462.7077057001752
 30
0.0
 11
-442.6196586249358
 21
712.292294299825
 31
0.0
  0
LINE
  5
2C8
330
1F
100
AcDbEntity
  8
0-0
  6
JWW_DASHED1
 62
   120
370
     5
100
AcDbLine
 10
-455.6196586260354
 20
-462.7077057001752
 30
0.0
 11
-455.6196586260354
 21
712.292294299825
 31
0.0
  0
LINE
  5
2C9
330
1F
100
AcDbEntity
  8
0-0
  6
JWW_DASHED1
 62
   120
370
     5
100
AcDbLine
 10
-456.6196586259356
 20
-462.7077057001752
 30
0.0
 11
-456.6196586259356
 21
712.292294299825
 31
0.0
  0
LINE
  5
2CA
330
1F
100
AcDbEntity
  8
0-0
  6
JWW_DASHED1
 62
   120
370
     5
100
AcDbLine
 10
-469.6196586270352
 20
-462.7077057001752
 30
0.0
 11
-469.6196586270352
 21
712.292294299825
 31
0.0
  0
LINE
  5
2CB
330
1F
100
AcDbEntity
  8
0-0
  6
JWW_DASHED1
 62
   120
370
     5
100
AcDbLine
 10
-470.6196586269354
 20
-462.7077057001752
 30
0.0
 11
-470.6196586269354
 21
712.292294299825
 31
0.0
  0
LINE
  5
2CC
330
1F
100
AcDbEntity
  8
0-0
  6
JWW_DASHED1
 62
   120
370
     5
100
AcDbLine
 10
-483.6196586280354
 20
-462.7077057001752
 30
0.0
 11
-483.6196586280354
 21
712.292294299825
 31
0.0
  0
LINE
  5
2CD
330
1F
100
AcDbEntity
  8
0-0
  6
JWW_DASHED1
 62
   120
370
     5
100
AcDbLine
 10
-484.6196586279356
 20
-462.7077057001752
 30
0.0
 11
-484.6196586279356
 21
712.292294299825
 31
0.0
  0
LINE
  5
2CE
330
1F
100
AcDbEntity
  8
0-0
  6
JWW_DASHED1
 62
   120
370
     5
100
AcDbLine
 10
-497.6196586290357
 20
-462.7077057001752
 30
0.0
 11
-497.6196586290357
 21
712.292294299825
 31
0.0
  0
LINE
  5
2CF
330
1F
100
AcDbEntity
  8
0-0
  6
JWW_DASHED1
 62
   120
370
     5
100
AcDbLine
 10
-498.6196586289358
 20
-462.7077057001752
 30
0.0
 11
-498.6196586289358
 21
712.292294299825
 31
0.0
  0
LINE
  5
2D0
330
1F
100
AcDbEntity
  8
0-0
  6
JWW_DASHED1
 62
   120
370
     5
100
AcDbLine
 10
-511.6196586300355
 20
-462.7077057001752
 30
0.0
 11
-511.6196586300355
 21
712.292294299825
 31
0.0
  0
LINE
  5
2D1
330
1F
100
AcDbEntity
  8
0-0
  6
JWW_DASHED1
 62
   120
370
     5
100
AcDbLine
 10
-512.6196586299357
 20
-462.7077057001752
 30
0.0
 11
-512.6196586299357
 21
712.292294299825
 31
0.0
  0
LINE
  5
2D2
330
1F
100
AcDbEntity
  8
0-0
  6
JWW_DASHED1
 62
   120
370
     5
100
AcDbLine
 10
-525.6196586310352
 20
-462.7077057001752
 30
0.0
 11
-525.6196586310352
 21
712.292294299825
 31
0.0
  0
LINE
  5
2D3
330
1F
100
AcDbEntity
  8
0-0
  6
JWW_DASHED1
 62
   120
370
     5
100
AcDbLine
 10
-526.6196586309354
 20
-462.7077057001752
 30
0.0
 11
-526.6196586309354
 21
712.292294299825
 31
0.0
  0
LINE
  5
2D4
330
1F
100
AcDbEntity
  8
0-0
  6
JWW_DASHED1
 62
   120
370
     5
100
AcDbLine
 10
-539.6196586320355
 20
-462.7077057001752
 30
0.0
 11
-539.6196586320355
 21
712.292294299825
 31
0.0
  0
LINE
  5
2D5
330
1F
100
AcDbEntity
  8
0-0
  6
JWW_DASHED1
 62
   120
370
     5
100
AcDbLine
 10
-540.6196586319356
 20
-462.7077057001752
 30
0.0
 11
-540.6196586319356
 21
712.292294299825
 31
0.0
  0
LINE
  5
2D6
330
1F
100
AcDbEntity
  8
0-0
  6
JWW_DASHED1
 62
   120
370
     5
100
AcDbLine
 10
-553.6196586330357
 20
-462.7077057001752
 30
0.0
 11
-553.6196586330357
 21
712.292294299825
 31
0.0
  0
LINE
  5
2D7
330
1F
100
AcDbEntity
  8
0-0
  6
JWW_DASHED1
 62
   120
370
     5
100
AcDbLine
 10
-554.6196586329359
 20
-462.7077057001752
 30
0.0
 11
-554.6196586329359
 21
712.292294299825
 31
0.0
  0
LINE
  5
2D8
330
1F
100
AcDbEntity
  8
0-0
  6
JWW_DASHED1
 62
   120
370
     5
100
AcDbLine
 10
-567.6196586340354
 20
-462.7077057001752
 30
0.0
 11
-567.6196586340354
 21
712.292294299825
 31
0.0
  0
LINE
  5
2D9
330
1F
100
AcDbEntity
  8
0-0
  6
JWW_DASHED1
 62
   120
370
     5
100
AcDbLine
 10
-568.6196586339356
 20
-462.7077057001752
 30
0.0
 11
-568.6196586339356
 21
712.292294299825
 31
0.0
  0
LINE
  5
2DA
330
1F
100
AcDbEntity
  8
0-0
  6
JWW_DASHED1
 62
   120
370
     5
100
AcDbLine
 10
-581.6196586350356
 20
-462.7077057001752
 30
0.0
 11
-581.6196586350356
 21
712.292294299825
 31
0.0
  0
LINE
  5
2DB
330
1F
100
AcDbEntity
  8
0-0
  6
JWW_DASHED1
 62
   120
370
     5
100
AcDbLine
 10
-582.6196586349354
 20
-462.7077057001752
 30
0.0
 11
-582.6196586349354
 21
712.292294299825
 31
0.0
  0
LINE
  5
2DC
330
1F
100
AcDbEntity
  8
0-0
  6
JWW_DASHED1
 62
   120
370
     5
100
AcDbLine
 10
-595.6196586360354
 20
-462.7077057001752
 30
0.0
 11
-595.6196586360354
 21
712.292294299825
 31
0.0
  0
LINE
  5
2DD
330
1F
100
AcDbEntity
  8
0-0
  6
JWW_DASHED1
 62
   120
370
     5
100
AcDbLine
 10
-596.619658635936
 20
-462.7077057001752
 30
0.0
 11
-596.619658635936
 21
712.292294299825
 31
0.0
  0
LINE
  5
2DE
330
1F
100
AcDbEntity
  8
0-0
  6
JWW_DASHED1
 62
   120
370
     5
100
AcDbLine
 10
-609.6196586370356
 20
-462.7077057001752
 30
0.0
 11
-609.6196586370356
 21
712.292294299825
 31
0.0
  0
LINE
  5
2DF
330
1F
100
AcDbEntity
  8
0-0
  6
JWW_DASHED1
 62
   120
370
     5
100
AcDbLine
 10
-610.6196586369358
 20
-462.7077057001752
 30
0.0
 11
-610.6196586369358
 21
712.292294299825
 31
0.0
  0
LINE
  5
2E0
330
1F
100
AcDbEntity
  8
0-0
  6
JWW_DASHED1
 62
   120
370
     5
100
AcDbLine
 10
-623.6196586380355
 20
-462.7077057001752
 30
0.0
 11
-623.6196586380355
 21
712.292294299825
 31
0.0
  0
LINE
  5
2E1
330
1F
100
AcDbEntity
  8
0-0
  6
JWW_DASHED1
 62
   120
370
     5
100
AcDbLine
 10
-624.619658637936
 20
-462.7077057001752
 30
0.0
 11
-624.619658637936
 21
712.292294299825
 31
0.0
  0
LINE
  5
2E2
330
1F
100
AcDbEntity
  8
0-0
  6
JWW_DASHED1
 62
   120
370
     5
100
AcDbLine
 10
-637.6196586390353
 20
-462.7077057001752
 30
0.0
 11
-637.6196586390353
 21
712.292294299825
 31
0.0
  0
LINE
  5
2E3
330
1F
100
AcDbEntity
  8
0-0
  6
JWW_DASHED1
 62
   120
370
     5
100
AcDbLine
 10
-638.6196586389354
 20
-462.7077057001752
 30
0.0
 11
-638.6196586389354
 21
712.292294299825
 31
0.0
  0
LINE
  5
2E4
330
1F
100
AcDbEntity
  8
0-0
  6
JWW_DASHED1
 62
   120
370
     5
100
AcDbLine
 10
-651.6196586400355
 20
-462.7077057001752
 30
0.0
 11
-651.6196586400355
 21
712.292294299825
 31
0.0
  0
LINE
  5
2E5
330
1F
100
AcDbEntity
  8
0-0
  6
JWW_DASHED1
 62
   120
370
     5
100
AcDbLine
 10
-652.6196586399357
 20
-462.7077057001752
 30
0.0
 11
-652.6196586399357
 21
712.292294299825
 31
0.0
  0
LINE
  5
2E6
330
1F
100
AcDbEntity
  8
0-0
  6
JWW_DASHED1
 62
   120
370
     5
100
AcDbLine
 10
-665.6196586410357
 20
-462.7077057001752
 30
0.0
 11
-665.6196586410357
 21
712.292294299825
 31
0.0
  0
LINE
  5
2E7
330
1F
100
AcDbEntity
  8
0-0
  6
JWW_DASHED1
 62
   120
370
     5
100
AcDbLine
 10
-105.6196586010356
 20
-462.7077057001752
 30
0.0
 11
-105.6196586010356
 21
712.292294299825
 31
0.0
  0
LINE
  5
2E8
330
1F
100
AcDbEntity
  8
0-0
  6
JWW_DASHED1
 62
   120
370
     5
100
AcDbLine
 10
-120.6196586019355
 20
-462.7077057001752
 30
0.0
 11
-120.6196586019355
 21
712.292294299825
 31
0.0
  0
LINE
  5
2E9
330
1F
100
AcDbEntity
  8
0-0
  6
JWW_DASHED1
 62
   120
370
     5
100
AcDbLine
 10
-106.6196586009357
 20
-462.7077057001752
 30
0.0
 11
-106.6196586009357
 21
712.292294299825
 31
0.0
  0
LINE
  5
2EA
330
1F
100
AcDbEntity
  8
0-0
  6
JWW_DASHED1
 62
   120
370
     5
100
AcDbLine
 10
-119.6196586020358
 20
-462.7077057001752
 30
0.0
 11
-119.6196586020358
 21
712.292294299825
 31
0.0
  0
LINE
  5
2EB
330
1F
100
AcDbEntity
  8
0-0
  6
JWW_DASHED1
 62
   120
370
     5
100
AcDbLine
 10
-672.6196770989668
 20
700.2921460688639
 30
0.0
 11
-99.61967709896783
 21
700.2921460688639
 31
0.0
  0
LINE
  5
2EC
330
1F
100
AcDbEntity
  8
0-0
  6
JWW_DASHED1
 62
   120
370
     5
100
AcDbLine
 10
-672.6196770989668
 20
657.2921460659643
 30
0.0
 11
-99.61967709896783
 21
657.2921460659643
 31
0.0
  0
LINE
  5
2ED
330
1F
100
AcDbEntity
  8
0-0
  6
JWW_DASHED1
 62
   120
370
     5
100
AcDbLine
 10
-672.6196770989668
 20
658.2921460658645
 30
0.0
 11
-99.61967709896783
 21
658.2921460658645
 31
0.0
  0
LINE
  5
2EE
330
1F
100
AcDbEntity
  8
0-0
  6
JWW_DASHED1
 62
   120
370
     5
100
AcDbLine
 10
-672.6196770989668
 20
671.292146066964
 30
0.0
 11
-99.61967709896783
 21
671.292146066964
 31
0.0
  0
LINE
  5
2EF
330
1F
100
AcDbEntity
  8
0-0
  6
JWW_DASHED1
 62
   120
370
     5
100
AcDbLine
 10
-672.6196770989668
 20
672.2921460668642
 30
0.0
 11
-99.61967709896783
 21
672.2921460668642
 31
0.0
  0
LINE
  5
2F0
330
1F
100
AcDbEntity
  8
0-0
  6
JWW_DASHED1
 62
   120
370
     5
100
AcDbLine
 10
-672.6196770989668
 20
685.2921460679638
 30
0.0
 11
-99.61967709896783
 21
685.2921460679638
 31
0.0
  0
LINE
  5
2F1
330
1F
100
AcDbEntity
  8
0-0
  6
JWW_DASHED1
 62
   120
370
     5
100
AcDbLine
 10
-672.6196770989668
 20
686.292146067864
 30
0.0
 11
-99.61967709896783
 21
686.292146067864
 31
0.0
  0
LINE
  5
2F2
330
1F
100
AcDbEntity
  8
0-0
  6
JWW_DASHED1
 62
   120
370
     5
100
AcDbLine
 10
-672.6196770989668
 20
699.2921460689637
 30
0.0
 11
-99.61967709896783
 21
699.2921460689637
 31
0.0
  0
LINE
  5
2F3
330
1F
100
AcDbEntity
  8
0-0
  6
JWW_DASHED1
 62
   120
370
     5
100
AcDbLine
 10
137.3803229010323
 20
-461.7078540141188
 30
0.0
 11
710.380322901033
 21
-461.7078540141188
 31
0.0
  0
LINE
  5
2F4
330
1F
100
AcDbEntity
  8
0-0
  6
JWW_DASHED1
 62
   120
370
     5
100
AcDbLine
 10
137.3803229010323
 20
-448.7078540130192
 30
0.0
 11
710.380322901033
 21
-448.7078540130192
 31
0.0
  0
LINE
  5
2F5
330
1F
100
AcDbEntity
  8
0-0
  6
JWW_DASHED1
 62
   120
370
     5
100
AcDbLine
 10
137.3803229010323
 20
-447.707854013119
 30
0.0
 11
710.380322901033
 21
-447.707854013119
 31
0.0
  0
LINE
  5
2F6
330
1F
100
AcDbEntity
  8
0-0
  6
JWW_DASHED1
 62
   120
370
     5
100
AcDbLine
 10
137.3803229010323
 20
-434.7078540120194
 30
0.0
 11
710.380322901033
 21
-434.7078540120194
 31
0.0
  0
LINE
  5
2F7
330
1F
100
AcDbEntity
  8
0-0
  6
JWW_DASHED1
 62
   120
370
     5
100
AcDbLine
 10
137.3803229010323
 20
-433.7078540121192
 30
0.0
 11
710.380322901033
 21
-433.7078540121192
 31
0.0
  0
LINE
  5
2F8
330
1F
100
AcDbEntity
  8
0-0
  6
JWW_DASHED1
 62
   120
370
     5
100
AcDbLine
 10
137.3803229010323
 20
-420.7078540110195
 30
0.0
 11
710.380322901033
 21
-420.7078540110195
 31
0.0
  0
LINE
  5
2F9
330
1F
100
AcDbEntity
  8
0-0
  6
JWW_DASHED1
 62
   120
370
     5
100
AcDbLine
 10
137.3803229010323
 20
-419.7078540111194
 30
0.0
 11
710.380322901033
 21
-419.7078540111194
 31
0.0
  0
LINE
  5
2FA
330
1F
100
AcDbEntity
  8
0-0
  6
JWW_DASHED1
 62
   120
370
     5
100
AcDbLine
 10
137.3803229010323
 20
-406.7078540100198
 30
0.0
 11
710.380322901033
 21
-406.7078540100198
 31
0.0
  0
LINE
  5
2FB
330
1F
100
AcDbEntity
  8
0-0
  6
JWW_DASHED1
 62
   120
370
     5
100
AcDbLine
 10
137.3803229010323
 20
-405.7078540101196
 30
0.0
 11
710.380322901033
 21
-405.7078540101196
 31
0.0
  0
LINE
  5
2FC
330
1F
100
AcDbEntity
  8
0-0
  6
JWW_DASHED1
 62
   120
370
     5
100
AcDbLine
 10
137.3803229010323
 20
-392.70785400902
 30
0.0
 11
710.380322901033
 21
-392.70785400902
 31
0.0
  0
LINE
  5
2FD
330
1F
100
AcDbEntity
  8
0-0
  6
JWW_DASHED1
 62
   120
370
     5
100
AcDbLine
 10
137.3803229010323
 20
-391.7078540091198
 30
0.0
 11
710.380322901033
 21
-391.7078540091198
 31
0.0
  0
LINE
  5
2FE
330
1F
100
AcDbEntity
  8
0-0
  6
JWW_DASHED1
 62
   120
370
     5
100
AcDbLine
 10
137.3803229010323
 20
-378.7078540080202
 30
0.0
 11
710.380322901033
 21
-378.7078540080202
 31
0.0
  0
LINE
  5
2FF
330
1F
100
AcDbEntity
  8
0-0
  6
JWW_DASHED1
 62
   120
370
     5
100
AcDbLine
 10
137.3803229010323
 20
-377.70785400812
 30
0.0
 11
710.380322901033
 21
-377.70785400812
 31
0.0
  0
LINE
  5
300
330
1F
100
AcDbEntity
  8
0-0
  6
JWW_DASHED1
 62
   120
370
     5
100
AcDbLine
 10
137.3803229010323
 20
-364.7078540070204
 30
0.0
 11
710.380322901033
 21
-364.7078540070204
 31
0.0
  0
LINE
  5
301
330
1F
100
AcDbEntity
  8
0-0
  6
JWW_DASHED1
 62
   120
370
     5
100
AcDbLine
 10
137.3803229010323
 20
-363.7078540071202
 30
0.0
 11
710.380322901033
 21
-363.7078540071202
 31
0.0
  0
LINE
  5
302
330
1F
100
AcDbEntity
  8
0-0
  6
JWW_DASHED1
 62
   120
370
     5
100
AcDbLine
 10
137.3803229010323
 20
-350.7078540060206
 30
0.0
 11
710.380322901033
 21
-350.7078540060206
 31
0.0
  0
LINE
  5
303
330
1F
100
AcDbEntity
  8
0-0
  6
JWW_DASHED1
 62
   120
370
     5
100
AcDbLine
 10
137.3803229010323
 20
-349.7078540061204
 30
0.0
 11
710.380322901033
 21
-349.7078540061204
 31
0.0
  0
LINE
  5
304
330
1F
100
AcDbEntity
  8
0-0
  6
JWW_DASHED1
 62
   120
370
     5
100
AcDbLine
 10
137.3803229010323
 20
-336.7078540050209
 30
0.0
 11
710.380322901033
 21
-336.7078540050209
 31
0.0
  0
LINE
  5
305
330
1F
100
AcDbEntity
  8
0-0
  6
JWW_DASHED1
 62
   120
370
     5
100
AcDbLine
 10
137.3803229010323
 20
-335.7078540051207
 30
0.0
 11
710.380322901033
 21
-335.7078540051207
 31
0.0
  0
LINE
  5
306
330
1F
100
AcDbEntity
  8
0-0
  6
JWW_DASHED1
 62
   120
370
     5
100
AcDbLine
 10
137.3803229010323
 20
-322.707854004021
 30
0.0
 11
710.380322901033
 21
-322.707854004021
 31
0.0
  0
LINE
  5
307
330
1F
100
AcDbEntity
  8
0-0
  6
JWW_DASHED1
 62
   120
370
     5
100
AcDbLine
 10
137.3803229010323
 20
-321.7078540041209
 30
0.0
 11
710.380322901033
 21
-321.7078540041209
 31
0.0
  0
LINE
  5
308
330
1F
100
AcDbEntity
  8
0-0
  6
JWW_DASHED1
 62
   120
370
     5
100
AcDbLine
 10
137.3803229010323
 20
-308.7078540030212
 30
0.0
 11
710.380322901033
 21
-308.7078540030212
 31
0.0
  0
LINE
  5
309
330
1F
100
AcDbEntity
  8
0-0
  6
JWW_DASHED1
 62
   120
370
     5
100
AcDbLine
 10
137.3803229010323
 20
-307.707854003121
 30
0.0
 11
710.380322901033
 21
-307.707854003121
 31
0.0
  0
LINE
  5
30A
330
1F
100
AcDbEntity
  8
0-0
  6
JWW_DASHED1
 62
   120
370
     5
100
AcDbLine
 10
137.3803229010323
 20
-294.7078540020215
 30
0.0
 11
710.380322901033
 21
-294.7078540020215
 31
0.0
  0
LINE
  5
30B
330
1F
100
AcDbEntity
  8
0-0
  6
JWW_DASHED1
 62
   120
370
     5
100
AcDbLine
 10
137.3803229010323
 20
-293.7078540021213
 30
0.0
 11
710.380322901033
 21
-293.7078540021213
 31
0.0
  0
LINE
  5
30C
330
1F
100
AcDbEntity
  8
0-0
  6
JWW_DASHED1
 62
   120
370
     5
100
AcDbLine
 10
137.3803229010323
 20
-280.7078540010217
 30
0.0
 11
710.380322901033
 21
-280.7078540010217
 31
0.0
  0
LINE
  5
30D
330
1F
100
AcDbEntity
  8
0-0
  6
JWW_DASHED1
 62
   120
370
     5
100
AcDbLine
 10
137.3803229010323
 20
-279.7078540011215
 30
0.0
 11
710.380322901033
 21
-279.7078540011215
 31
0.0
  0
LINE
  5
30E
330
1F
100
AcDbEntity
  8
0-0
  6
JWW_DASHED1
 62
   120
370
     5
100
AcDbLine
 10
137.3803229010323
 20
-266.7078540000219
 30
0.0
 11
710.380322901033
 21
-266.7078540000219
 31
0.0
  0
LINE
  5
30F
330
1F
100
AcDbEntity
  8
0-0
  6
JWW_DASHED1
 62
   120
370
     5
100
AcDbLine
 10
137.3803229010323
 20
-265.7078540001217
 30
0.0
 11
710.380322901033
 21
-265.7078540001217
 31
0.0
  0
LINE
  5
310
330
1F
100
AcDbEntity
  8
0-0
  6
JWW_DASHED1
 62
   120
370
     5
100
AcDbLine
 10
137.3803229010323
 20
-252.7078539990221
 30
0.0
 11
710.380322901033
 21
-252.7078539990221
 31
0.0
  0
LINE
  5
311
330
1F
100
AcDbEntity
  8
0-0
  6
JWW_DASHED1
 62
   120
370
     5
100
AcDbLine
 10
137.3803229010323
 20
-251.7078539991219
 30
0.0
 11
710.380322901033
 21
-251.7078539991219
 31
0.0
  0
LINE
  5
312
330
1F
100
AcDbEntity
  8
0-0
  6
JWW_DASHED1
 62
   120
370
     5
100
AcDbLine
 10
137.3803229010323
 20
-238.7078539980223
 30
0.0
 11
710.380322901033
 21
-238.7078539980223
 31
0.0
  0
LINE
  5
313
330
1F
100
AcDbEntity
  8
0-0
  6
JWW_DASHED1
 62
   120
370
     5
100
AcDbLine
 10
137.3803229010323
 20
-237.7078539981221
 30
0.0
 11
710.380322901033
 21
-237.7078539981221
 31
0.0
  0
LINE
  5
314
330
1F
100
AcDbEntity
  8
0-0
  6
JWW_DASHED1
 62
   120
370
     5
100
AcDbLine
 10
137.3803229010323
 20
-224.7078539970225
 30
0.0
 11
710.380322901033
 21
-224.7078539970225
 31
0.0
  0
LINE
  5
315
330
1F
100
AcDbEntity
  8
0-0
  6
JWW_DASHED1
 62
   120
370
     5
100
AcDbLine
 10
137.3803229010323
 20
-223.7078539971223
 30
0.0
 11
710.380322901033
 21
-223.7078539971223
 31
0.0
  0
LINE
  5
316
330
1F
100
AcDbEntity
  8
0-0
  6
JWW_DASHED1
 62
   120
370
     5
100
AcDbLine
 10
137.3803229010323
 20
-210.7078539960227
 30
0.0
 11
710.380322901033
 21
-210.7078539960227
 31
0.0
  0
LINE
  5
317
330
1F
100
AcDbEntity
  8
0-0
  6
JWW_DASHED1
 62
   120
370
     5
100
AcDbLine
 10
137.3803229010323
 20
-209.7078539961225
 30
0.0
 11
710.380322901033
 21
-209.7078539961225
 31
0.0
  0
LINE
  5
318
330
1F
100
AcDbEntity
  8
0-0
  6
JWW_DASHED1
 62
   120
370
     5
100
AcDbLine
 10
137.3803229010323
 20
-196.7078539950229
 30
0.0
 11
710.380322901033
 21
-196.7078539950229
 31
0.0
  0
LINE
  5
319
330
1F
100
AcDbEntity
  8
0-0
  6
JWW_DASHED1
 62
   120
370
     5
100
AcDbLine
 10
137.3803229010323
 20
-195.7078539951227
 30
0.0
 11
710.380322901033
 21
-195.7078539951227
 31
0.0
  0
LINE
  5
31A
330
1F
100
AcDbEntity
  8
0-0
  6
JWW_DASHED1
 62
   120
370
     5
100
AcDbLine
 10
137.3803229010323
 20
-182.7078539940231
 30
0.0
 11
710.380322901033
 21
-182.7078539940231
 31
0.0
  0
LINE
  5
31B
330
1F
100
AcDbEntity
  8
0-0
  6
JWW_DASHED1
 62
   120
370
     5
100
AcDbLine
 10
137.3803229010323
 20
-181.707853994123
 30
0.0
 11
710.380322901033
 21
-181.707853994123
 31
0.0
  0
LINE
  5
31C
330
1F
100
AcDbEntity
  8
0-0
  6
JWW_DASHED1
 62
   120
370
     5
100
AcDbLine
 10
137.3803229010323
 20
-168.7078539930233
 30
0.0
 11
710.380322901033
 21
-168.7078539930233
 31
0.0
  0
LINE
  5
31D
330
1F
100
AcDbEntity
  8
0-0
  6
JWW_DASHED1
 62
   120
370
     5
100
AcDbLine
 10
137.3803229010323
 20
-167.7078539931232
 30
0.0
 11
710.380322901033
 21
-167.7078539931232
 31
0.0
  0
LINE
  5
31E
330
1F
100
AcDbEntity
  8
0-0
  6
JWW_DASHED1
 62
   120
370
     5
100
AcDbLine
 10
137.3803229010323
 20
-154.7078539920236
 30
0.0
 11
710.380322901033
 21
-154.7078539920236
 31
0.0
  0
LINE
  5
31F
330
1F
100
AcDbEntity
  8
0-0
  6
JWW_DASHED1
 62
   120
370
     5
100
AcDbLine
 10
137.3803229010323
 20
-153.7078539921234
 30
0.0
 11
710.380322901033
 21
-153.7078539921234
 31
0.0
  0
LINE
  5
320
330
1F
100
AcDbEntity
  8
0-0
  6
JWW_DASHED1
 62
   120
370
     5
100
AcDbLine
 10
137.3803229010323
 20
-140.7078539910238
 30
0.0
 11
710.380322901033
 21
-140.7078539910238
 31
0.0
  0
LINE
  5
321
330
1F
100
AcDbEntity
  8
0-0
  6
JWW_DASHED1
 62
   120
370
     5
100
AcDbLine
 10
137.3803229010323
 20
-139.7078539911236
 30
0.0
 11
710.380322901033
 21
-139.7078539911236
 31
0.0
  0
LINE
  5
322
330
1F
100
AcDbEntity
  8
0-0
  6
JWW_DASHED1
 62
   120
370
     5
100
AcDbLine
 10
137.3803229010323
 20
-126.707853990024
 30
0.0
 11
710.380322901033
 21
-126.707853990024
 31
0.0
  0
LINE
  5
323
330
1F
100
AcDbEntity
  8
0-0
  6
JWW_DASHED1
 62
   120
370
     5
100
AcDbLine
 10
137.3803229010323
 20
-125.7078539901238
 30
0.0
 11
710.380322901033
 21
-125.7078539901238
 31
0.0
  0
LINE
  5
324
330
1F
100
AcDbEntity
  8
0-0
  6
JWW_DASHED1
 62
   120
370
     5
100
AcDbLine
 10
137.3803229010323
 20
-112.7078539890242
 30
0.0
 11
710.380322901033
 21
-112.7078539890242
 31
0.0
  0
LINE
  5
325
330
1F
100
AcDbEntity
  8
0-0
  6
JWW_DASHED1
 62
   120
370
     5
100
AcDbLine
 10
137.3803229010323
 20
-111.707853989124
 30
0.0
 11
710.380322901033
 21
-111.707853989124
 31
0.0
  0
LINE
  5
326
330
1F
100
AcDbEntity
  8
0-0
  6
JWW_DASHED1
 62
   120
370
     5
100
AcDbLine
 10
137.3803229010323
 20
-98.7078539880244
 30
0.0
 11
710.380322901033
 21
-98.7078539880244
 31
0.0
  0
LINE
  5
327
330
1F
100
AcDbEntity
  8
0-0
  6
JWW_DASHED1
 62
   120
370
     5
100
AcDbLine
 10
137.3803229010323
 20
-97.70785398812421
 30
0.0
 11
710.380322901033
 21
-97.70785398812421
 31
0.0
  0
LINE
  5
328
330
1F
100
AcDbEntity
  8
0-0
  6
JWW_DASHED1
 62
   120
370
     5
100
AcDbLine
 10
137.3803229010323
 20
-84.7078539870246
 30
0.0
 11
710.380322901033
 21
-84.7078539870246
 31
0.0
  0
LINE
  5
329
330
1F
100
AcDbEntity
  8
0-0
  6
JWW_DASHED1
 62
   120
370
     5
100
AcDbLine
 10
137.3803229010323
 20
-83.70785398712442
 30
0.0
 11
710.380322901033
 21
-83.70785398712442
 31
0.0
  0
LINE
  5
32A
330
1F
100
AcDbEntity
  8
0-0
  6
JWW_DASHED1
 62
   120
370
     5
100
AcDbLine
 10
137.3803229010323
 20
-70.70785398602482
 30
0.0
 11
710.380322901033
 21
-70.70785398602482
 31
0.0
  0
LINE
  5
32B
330
1F
100
AcDbEntity
  8
0-0
  6
JWW_DASHED1
 62
   120
370
     5
100
AcDbLine
 10
137.3803229010323
 20
-69.70785398612463
 30
0.0
 11
710.380322901033
 21
-69.70785398612463
 31
0.0
  0
LINE
  5
32C
330
1F
100
AcDbEntity
  8
0-0
  6
JWW_DASHED1
 62
   120
370
     5
100
AcDbLine
 10
137.3803229010323
 20
-56.70785398502503
 30
0.0
 11
710.380322901033
 21
-56.70785398502503
 31
0.0
  0
LINE
  5
32D
330
1F
100
AcDbEntity
  8
0-0
  6
JWW_DASHED1
 62
   120
370
     5
100
AcDbLine
 10
137.3803229010323
 20
-55.70785398512484
 30
0.0
 11
710.380322901033
 21
-55.70785398512484
 31
0.0
  0
LINE
  5
32E
330
1F
100
AcDbEntity
  8
0-0
  6
JWW_DASHED1
 62
   120
370
     5
100
AcDbLine
 10
137.3803229010323
 20
-42.70785398402523
 30
0.0
 11
710.380322901033
 21
-42.70785398402523
 31
0.0
  0
LINE
  5
32F
330
1F
100
AcDbEntity
  8
0-0
  6
JWW_DASHED1
 62
   120
370
     5
100
AcDbLine
 10
137.3803229010323
 20
-41.70785398412505
 30
0.0
 11
710.380322901033
 21
-41.70785398412505
 31
0.0
  0
LINE
  5
330
330
1F
100
AcDbEntity
  8
0-0
  6
JWW_DASHED1
 62
   120
370
     5
100
AcDbLine
 10
137.3803229010323
 20
-28.70785398302544
 30
0.0
 11
710.380322901033
 21
-28.70785398302544
 31
0.0
  0
LINE
  5
331
330
1F
100
AcDbEntity
  8
0-0
  6
JWW_DASHED1
 62
   120
370
     5
100
AcDbLine
 10
137.3803229010323
 20
-27.70785398312526
 30
0.0
 11
710.380322901033
 21
-27.70785398312526
 31
0.0
  0
LINE
  5
332
330
1F
100
AcDbEntity
  8
0-0
  6
JWW_DASHED1
 62
   120
370
     5
100
AcDbLine
 10
137.3803229010323
 20
-14.70785398202565
 30
0.0
 11
710.380322901033
 21
-14.70785398202565
 31
0.0
  0
LINE
  5
333
330
1F
100
AcDbEntity
  8
0-0
  6
JWW_DASHED1
 62
   120
370
     5
100
AcDbLine
 10
137.3803229010323
 20
-13.70785398212547
 30
0.0
 11
710.380322901033
 21
-13.70785398212547
 31
0.0
  0
LINE
  5
334
330
1F
100
AcDbEntity
  8
0-0
  6
JWW_DASHED1
 62
   120
370
     5
100
AcDbLine
 10
137.3803229010323
 20
-0.7078539810258633
 30
0.0
 11
710.380322901033
 21
-0.7078539810258633
 31
0.0
  0
LINE
  5
335
330
1F
100
AcDbEntity
  8
0-0
  6
JWW_DASHED1
 62
   120
370
     5
100
AcDbLine
 10
137.3803229010323
 20
0.2921460188743197
 30
0.0
 11
710.380322901033
 21
0.2921460188743197
 31
0.0
  0
LINE
  5
336
330
1F
100
AcDbEntity
  8
0-0
  6
JWW_DASHED1
 62
   120
370
     5
100
AcDbLine
 10
137.3803229010323
 20
13.29214601997393
 30
0.0
 11
710.380322901033
 21
13.29214601997393
 31
0.0
  0
LINE
  5
337
330
1F
100
AcDbEntity
  8
0-0
  6
JWW_DASHED1
 62
   120
370
     5
100
AcDbLine
 10
137.3803229010323
 20
14.29214601987411
 30
0.0
 11
710.380322901033
 21
14.29214601987411
 31
0.0
  0
LINE
  5
338
330
1F
100
AcDbEntity
  8
0-0
  6
JWW_DASHED1
 62
   120
370
     5
100
AcDbLine
 10
137.3803229010323
 20
27.29214602097372
 30
0.0
 11
710.380322901033
 21
27.29214602097372
 31
0.0
  0
LINE
  5
339
330
1F
100
AcDbEntity
  8
0-0
  6
JWW_DASHED1
 62
   120
370
     5
100
AcDbLine
 10
137.3803229010323
 20
28.2921460208739
 30
0.0
 11
710.380322901033
 21
28.2921460208739
 31
0.0
  0
LINE
  5
33A
330
1F
100
AcDbEntity
  8
0-0
  6
JWW_DASHED1
 62
   120
370
     5
100
AcDbLine
 10
137.3803229010323
 20
41.29214602197351
 30
0.0
 11
710.380322901033
 21
41.29214602197351
 31
0.0
  0
LINE
  5
33B
330
1F
100
AcDbEntity
  8
0-0
  6
JWW_DASHED1
 62
   120
370
     5
100
AcDbLine
 10
137.3803229010323
 20
42.29214602187369
 30
0.0
 11
710.380322901033
 21
42.29214602187369
 31
0.0
  0
LINE
  5
33C
330
1F
100
AcDbEntity
  8
0-0
  6
JWW_DASHED1
 62
   120
370
     5
100
AcDbLine
 10
137.3803229010323
 20
55.2921460229733
 30
0.0
 11
710.380322901033
 21
55.2921460229733
 31
0.0
  0
LINE
  5
33D
330
1F
100
AcDbEntity
  8
0-0
  6
JWW_DASHED1
 62
   120
370
     5
100
AcDbLine
 10
137.3803229010323
 20
56.29214602287348
 30
0.0
 11
710.380322901033
 21
56.29214602287348
 31
0.0
  0
LINE
  5
33E
330
1F
100
AcDbEntity
  8
0-0
  6
JWW_DASHED1
 62
   120
370
     5
100
AcDbLine
 10
137.3803229010323
 20
69.29214602397309
 30
0.0
 11
710.380322901033
 21
69.29214602397309
 31
0.0
  0
LINE
  5
33F
330
1F
100
AcDbEntity
  8
0-0
  6
JWW_DASHED1
 62
   120
370
     5
100
AcDbLine
 10
137.3803229010323
 20
70.29214602387327
 30
0.0
 11
710.380322901033
 21
70.29214602387327
 31
0.0
  0
LINE
  5
340
330
1F
100
AcDbEntity
  8
0-0
  6
JWW_DASHED1
 62
   120
370
     5
100
AcDbLine
 10
137.3803229010323
 20
83.29214602497288
 30
0.0
 11
710.380322901033
 21
83.29214602497288
 31
0.0
  0
LINE
  5
341
330
1F
100
AcDbEntity
  8
0-0
  6
JWW_DASHED1
 62
   120
370
     5
100
AcDbLine
 10
137.3803229010323
 20
84.29214602487306
 30
0.0
 11
710.380322901033
 21
84.29214602487306
 31
0.0
  0
LINE
  5
342
330
1F
100
AcDbEntity
  8
0-0
  6
JWW_DASHED1
 62
   120
370
     5
100
AcDbLine
 10
137.3803229010323
 20
97.29214602597267
 30
0.0
 11
710.380322901033
 21
97.29214602597267
 31
0.0
  0
LINE
  5
343
330
1F
100
AcDbEntity
  8
0-0
  6
JWW_DASHED1
 62
   120
370
     5
100
AcDbLine
 10
137.3803229010323
 20
98.29214602587285
 30
0.0
 11
710.380322901033
 21
98.29214602587285
 31
0.0
  0
LINE
  5
344
330
1F
100
AcDbEntity
  8
0-0
  6
JWW_DASHED1
 62
   120
370
     5
100
AcDbLine
 10
137.3803229010323
 20
111.2921460269725
 30
0.0
 11
710.380322901033
 21
111.2921460269725
 31
0.0
  0
LINE
  5
345
330
1F
100
AcDbEntity
  8
0-0
  6
JWW_DASHED1
 62
   120
370
     5
100
AcDbLine
 10
137.3803229010323
 20
112.2921460268726
 30
0.0
 11
710.380322901033
 21
112.2921460268726
 31
0.0
  0
LINE
  5
346
330
1F
100
AcDbEntity
  8
0-0
  6
JWW_DASHED1
 62
   120
370
     5
100
AcDbLine
 10
137.3803229010323
 20
125.2921460279723
 30
0.0
 11
710.380322901033
 21
125.2921460279723
 31
0.0
  0
LINE
  5
347
330
1F
100
AcDbEntity
  8
0-0
  6
JWW_DASHED1
 62
   120
370
     5
100
AcDbLine
 10
137.3803229010323
 20
126.2921460278724
 30
0.0
 11
710.380322901033
 21
126.2921460278724
 31
0.0
  0
LINE
  5
348
330
1F
100
AcDbEntity
  8
0-0
  6
JWW_DASHED1
 62
   120
370
     5
100
AcDbLine
 10
137.3803229010323
 20
139.292146028972
 30
0.0
 11
710.380322901033
 21
139.292146028972
 31
0.0
  0
LINE
  5
349
330
1F
100
AcDbEntity
  8
0-0
  6
JWW_DASHED1
 62
   120
370
     5
100
AcDbLine
 10
137.3803229010323
 20
140.2921460288722
 30
0.0
 11
710.380322901033
 21
140.2921460288722
 31
0.0
  0
LINE
  5
34A
330
1F
100
AcDbEntity
  8
0-0
  6
JWW_DASHED1
 62
   120
370
     5
100
AcDbLine
 10
137.3803229010323
 20
153.2921460299718
 30
0.0
 11
710.380322901033
 21
153.2921460299718
 31
0.0
  0
LINE
  5
34B
330
1F
100
AcDbEntity
  8
0-0
  6
JWW_DASHED1
 62
   120
370
     5
100
AcDbLine
 10
137.3803229010323
 20
154.292146029872
 30
0.0
 11
710.380322901033
 21
154.292146029872
 31
0.0
  0
LINE
  5
34C
330
1F
100
AcDbEntity
  8
0-0
  6
JWW_DASHED1
 62
   120
370
     5
100
AcDbLine
 10
137.3803229010323
 20
167.2921460309716
 30
0.0
 11
710.380322901033
 21
167.2921460309716
 31
0.0
  0
LINE
  5
34D
330
1F
100
AcDbEntity
  8
0-0
  6
JWW_DASHED1
 62
   120
370
     5
100
AcDbLine
 10
137.3803229010323
 20
168.2921460308718
 30
0.0
 11
710.380322901033
 21
168.2921460308718
 31
0.0
  0
LINE
  5
34E
330
1F
100
AcDbEntity
  8
0-0
  6
JWW_DASHED1
 62
   120
370
     5
100
AcDbLine
 10
137.3803229010323
 20
181.2921460319714
 30
0.0
 11
710.380322901033
 21
181.2921460319714
 31
0.0
  0
LINE
  5
34F
330
1F
100
AcDbEntity
  8
0-0
  6
JWW_DASHED1
 62
   120
370
     5
100
AcDbLine
 10
137.3803229010323
 20
182.2921460318716
 30
0.0
 11
710.380322901033
 21
182.2921460318716
 31
0.0
  0
LINE
  5
350
330
1F
100
AcDbEntity
  8
0-0
  6
JWW_DASHED1
 62
   120
370
     5
100
AcDbLine
 10
137.3803229010323
 20
195.2921460329712
 30
0.0
 11
710.380322901033
 21
195.2921460329712
 31
0.0
  0
LINE
  5
351
330
1F
100
AcDbEntity
  8
0-0
  6
JWW_DASHED1
 62
   120
370
     5
100
AcDbLine
 10
137.3803229010323
 20
196.2921460328714
 30
0.0
 11
710.380322901033
 21
196.2921460328714
 31
0.0
  0
LINE
  5
352
330
1F
100
AcDbEntity
  8
0-0
  6
JWW_DASHED1
 62
   120
370
     5
100
AcDbLine
 10
137.3803229010323
 20
209.292146033971
 30
0.0
 11
710.380322901033
 21
209.292146033971
 31
0.0
  0
LINE
  5
353
330
1F
100
AcDbEntity
  8
0-0
  6
JWW_DASHED1
 62
   120
370
     5
100
AcDbLine
 10
137.3803229010323
 20
210.2921460338712
 30
0.0
 11
710.380322901033
 21
210.2921460338712
 31
0.0
  0
LINE
  5
354
330
1F
100
AcDbEntity
  8
0-0
  6
JWW_DASHED1
 62
   120
370
     5
100
AcDbLine
 10
137.3803229010323
 20
223.2921460349708
 30
0.0
 11
710.380322901033
 21
223.2921460349708
 31
0.0
  0
LINE
  5
355
330
1F
100
AcDbEntity
  8
0-0
  6
JWW_DASHED1
 62
   120
370
     5
100
AcDbLine
 10
137.3803229010323
 20
224.292146034871
 30
0.0
 11
710.380322901033
 21
224.292146034871
 31
0.0
  0
LINE
  5
356
330
1F
100
AcDbEntity
  8
0-0
  6
JWW_DASHED1
 62
   120
370
     5
100
AcDbLine
 10
137.3803229010323
 20
237.2921460359706
 30
0.0
 11
710.380322901033
 21
237.2921460359706
 31
0.0
  0
LINE
  5
357
330
1F
100
AcDbEntity
  8
0-0
  6
JWW_DASHED1
 62
   120
370
     5
100
AcDbLine
 10
137.3803229010323
 20
238.2921460358708
 30
0.0
 11
710.380322901033
 21
238.2921460358708
 31
0.0
  0
LINE
  5
358
330
1F
100
AcDbEntity
  8
0-0
  6
JWW_DASHED1
 62
   120
370
     5
100
AcDbLine
 10
137.3803229010323
 20
251.2921460369704
 30
0.0
 11
710.380322901033
 21
251.2921460369704
 31
0.0
  0
LINE
  5
359
330
1F
100
AcDbEntity
  8
0-0
  6
JWW_DASHED1
 62
   120
370
     5
100
AcDbLine
 10
137.3803229010323
 20
252.2921460368705
 30
0.0
 11
710.380322901033
 21
252.2921460368705
 31
0.0
  0
LINE
  5
35A
330
1F
100
AcDbEntity
  8
0-0
  6
JWW_DASHED1
 62
   120
370
     5
100
AcDbLine
 10
137.3803229010323
 20
265.2921460379702
 30
0.0
 11
710.380322901033
 21
265.2921460379702
 31
0.0
  0
LINE
  5
35B
330
1F
100
AcDbEntity
  8
0-0
  6
JWW_DASHED1
 62
   120
370
     5
100
AcDbLine
 10
137.3803229010323
 20
266.2921460378703
 30
0.0
 11
710.380322901033
 21
266.2921460378703
 31
0.0
  0
LINE
  5
35C
330
1F
100
AcDbEntity
  8
0-0
  6
JWW_DASHED1
 62
   120
370
     5
100
AcDbLine
 10
137.3803229010323
 20
279.2921460389699
 30
0.0
 11
710.380322901033
 21
279.2921460389699
 31
0.0
  0
LINE
  5
35D
330
1F
100
AcDbEntity
  8
0-0
  6
JWW_DASHED1
 62
   120
370
     5
100
AcDbLine
 10
137.3803229010323
 20
280.2921460388701
 30
0.0
 11
710.380322901033
 21
280.2921460388701
 31
0.0
  0
LINE
  5
35E
330
1F
100
AcDbEntity
  8
0-0
  6
JWW_DASHED1
 62
   120
370
     5
100
AcDbLine
 10
137.3803229010323
 20
293.2921460399697
 30
0.0
 11
710.380322901033
 21
293.2921460399697
 31
0.0
  0
LINE
  5
35F
330
1F
100
AcDbEntity
  8
0-0
  6
JWW_DASHED1
 62
   120
370
     5
100
AcDbLine
 10
137.3803229010323
 20
294.2921460398699
 30
0.0
 11
710.380322901033
 21
294.2921460398699
 31
0.0
  0
LINE
  5
360
330
1F
100
AcDbEntity
  8
0-0
  6
JWW_DASHED1
 62
   120
370
     5
100
AcDbLine
 10
137.3803229010323
 20
307.2921460409696
 30
0.0
 11
710.380322901033
 21
307.2921460409696
 31
0.0
  0
LINE
  5
361
330
1F
100
AcDbEntity
  8
0-0
  6
JWW_DASHED1
 62
   120
370
     5
100
AcDbLine
 10
137.3803229010323
 20
308.2921460408697
 30
0.0
 11
710.380322901033
 21
308.2921460408697
 31
0.0
  0
LINE
  5
362
330
1F
100
AcDbEntity
  8
0-0
  6
JWW_DASHED1
 62
   120
370
     5
100
AcDbLine
 10
137.3803229010323
 20
321.2921460419693
 30
0.0
 11
710.380322901033
 21
321.2921460419693
 31
0.0
  0
LINE
  5
363
330
1F
100
AcDbEntity
  8
0-0
  6
JWW_DASHED1
 62
   120
370
     5
100
AcDbLine
 10
137.3803229010323
 20
322.2921460418695
 30
0.0
 11
710.380322901033
 21
322.2921460418695
 31
0.0
  0
LINE
  5
364
330
1F
100
AcDbEntity
  8
0-0
  6
JWW_DASHED1
 62
   120
370
     5
100
AcDbLine
 10
137.3803229010323
 20
335.2921460429691
 30
0.0
 11
710.380322901033
 21
335.2921460429691
 31
0.0
  0
LINE
  5
365
330
1F
100
AcDbEntity
  8
0-0
  6
JWW_DASHED1
 62
   120
370
     5
100
AcDbLine
 10
137.3803229010323
 20
336.2921460428693
 30
0.0
 11
710.380322901033
 21
336.2921460428693
 31
0.0
  0
LINE
  5
366
330
1F
100
AcDbEntity
  8
0-0
  6
JWW_DASHED1
 62
   120
370
     5
100
AcDbLine
 10
137.3803229010323
 20
349.2921460439689
 30
0.0
 11
710.380322901033
 21
349.2921460439689
 31
0.0
  0
LINE
  5
367
330
1F
100
AcDbEntity
  8
0-0
  6
JWW_DASHED1
 62
   120
370
     5
100
AcDbLine
 10
137.3803229010323
 20
350.2921460438691
 30
0.0
 11
710.380322901033
 21
350.2921460438691
 31
0.0
  0
LINE
  5
368
330
1F
100
AcDbEntity
  8
0-0
  6
JWW_DASHED1
 62
   120
370
     5
100
AcDbLine
 10
137.3803229010323
 20
363.2921460449687
 30
0.0
 11
710.380322901033
 21
363.2921460449687
 31
0.0
  0
LINE
  5
369
330
1F
100
AcDbEntity
  8
0-0
  6
JWW_DASHED1
 62
   120
370
     5
100
AcDbLine
 10
137.3803229010323
 20
364.2921460448689
 30
0.0
 11
710.380322901033
 21
364.2921460448689
 31
0.0
  0
LINE
  5
36A
330
1F
100
AcDbEntity
  8
0-0
  6
JWW_DASHED1
 62
   120
370
     5
100
AcDbLine
 10
137.3803229010323
 20
377.2921460459685
 30
0.0
 11
710.380322901033
 21
377.2921460459685
 31
0.0
  0
LINE
  5
36B
330
1F
100
AcDbEntity
  8
0-0
  6
JWW_DASHED1
 62
   120
370
     5
100
AcDbLine
 10
137.3803229010323
 20
378.2921460458687
 30
0.0
 11
710.380322901033
 21
378.2921460458687
 31
0.0
  0
LINE
  5
36C
330
1F
100
AcDbEntity
  8
0-0
  6
JWW_DASHED1
 62
   120
370
     5
100
AcDbLine
 10
137.3803229010323
 20
391.2921460469682
 30
0.0
 11
710.380322901033
 21
391.2921460469682
 31
0.0
  0
LINE
  5
36D
330
1F
100
AcDbEntity
  8
0-0
  6
JWW_DASHED1
 62
   120
370
     5
100
AcDbLine
 10
137.3803229010323
 20
392.2921460468684
 30
0.0
 11
710.380322901033
 21
392.2921460468684
 31
0.0
  0
LINE
  5
36E
330
1F
100
AcDbEntity
  8
0-0
  6
JWW_DASHED1
 62
   120
370
     5
100
AcDbLine
 10
137.3803229010323
 20
405.2921460479681
 30
0.0
 11
710.380322901033
 21
405.2921460479681
 31
0.0
  0
LINE
  5
36F
330
1F
100
AcDbEntity
  8
0-0
  6
JWW_DASHED1
 62
   120
370
     5
100
AcDbLine
 10
137.3803229010323
 20
406.2921460478682
 30
0.0
 11
710.380322901033
 21
406.2921460478682
 31
0.0
  0
LINE
  5
370
330
1F
100
AcDbEntity
  8
0-0
  6
JWW_DASHED1
 62
   120
370
     5
100
AcDbLine
 10
137.3803229010323
 20
419.2921460489679
 30
0.0
 11
710.380322901033
 21
419.2921460489679
 31
0.0
  0
LINE
  5
371
330
1F
100
AcDbEntity
  8
0-0
  6
JWW_DASHED1
 62
   120
370
     5
100
AcDbLine
 10
137.3803229010323
 20
420.2921460488681
 30
0.0
 11
710.380322901033
 21
420.2921460488681
 31
0.0
  0
LINE
  5
372
330
1F
100
AcDbEntity
  8
0-0
  6
JWW_DASHED1
 62
   120
370
     5
100
AcDbLine
 10
137.3803229010323
 20
433.2921460499676
 30
0.0
 11
710.380322901033
 21
433.2921460499676
 31
0.0
  0
LINE
  5
373
330
1F
100
AcDbEntity
  8
0-0
  6
JWW_DASHED1
 62
   120
370
     5
100
AcDbLine
 10
137.3803229010323
 20
434.2921460498678
 30
0.0
 11
710.380322901033
 21
434.2921460498678
 31
0.0
  0
LINE
  5
374
330
1F
100
AcDbEntity
  8
0-0
  6
JWW_DASHED1
 62
   120
370
     5
100
AcDbLine
 10
137.3803229010323
 20
447.2921460509674
 30
0.0
 11
710.380322901033
 21
447.2921460509674
 31
0.0
  0
LINE
  5
375
330
1F
100
AcDbEntity
  8
0-0
  6
JWW_DASHED1
 62
   120
370
     5
100
AcDbLine
 10
137.3803229010323
 20
448.2921460508676
 30
0.0
 11
710.380322901033
 21
448.2921460508676
 31
0.0
  0
LINE
  5
376
330
1F
100
AcDbEntity
  8
0-0
  6
JWW_DASHED1
 62
   120
370
     5
100
AcDbLine
 10
137.3803229010323
 20
461.2921460519672
 30
0.0
 11
710.380322901033
 21
461.2921460519672
 31
0.0
  0
LINE
  5
377
330
1F
100
AcDbEntity
  8
0-0
  6
JWW_DASHED1
 62
   120
370
     5
100
AcDbLine
 10
137.3803229010323
 20
462.2921460518674
 30
0.0
 11
710.380322901033
 21
462.2921460518674
 31
0.0
  0
LINE
  5
378
330
1F
100
AcDbEntity
  8
0-0
  6
JWW_DASHED1
 62
   120
370
     5
100
AcDbLine
 10
137.3803229010323
 20
475.292146052967
 30
0.0
 11
710.380322901033
 21
475.292146052967
 31
0.0
  0
LINE
  5
379
330
1F
100
AcDbEntity
  8
0-0
  6
JWW_DASHED1
 62
   120
370
     5
100
AcDbLine
 10
137.3803229010323
 20
476.2921460528672
 30
0.0
 11
710.380322901033
 21
476.2921460528672
 31
0.0
  0
LINE
  5
37A
330
1F
100
AcDbEntity
  8
0-0
  6
JWW_DASHED1
 62
   120
370
     5
100
AcDbLine
 10
137.3803229010323
 20
489.2921460539668
 30
0.0
 11
710.380322901033
 21
489.2921460539668
 31
0.0
  0
LINE
  5
37B
330
1F
100
AcDbEntity
  8
0-0
  6
JWW_DASHED1
 62
   120
370
     5
100
AcDbLine
 10
137.3803229010323
 20
490.292146053867
 30
0.0
 11
710.380322901033
 21
490.292146053867
 31
0.0
  0
LINE
  5
37C
330
1F
100
AcDbEntity
  8
0-0
  6
JWW_DASHED1
 62
   120
370
     5
100
AcDbLine
 10
137.3803229010323
 20
503.2921460549666
 30
0.0
 11
710.380322901033
 21
503.2921460549666
 31
0.0
  0
LINE
  5
37D
330
1F
100
AcDbEntity
  8
0-0
  6
JWW_DASHED1
 62
   120
370
     5
100
AcDbLine
 10
137.3803229010323
 20
504.2921460548667
 30
0.0
 11
710.380322901033
 21
504.2921460548667
 31
0.0
  0
LINE
  5
37E
330
1F
100
AcDbEntity
  8
0-0
  6
JWW_DASHED1
 62
   120
370
     5
100
AcDbLine
 10
137.3803229010323
 20
517.2921460559664
 30
0.0
 11
710.380322901033
 21
517.2921460559664
 31
0.0
  0
LINE
  5
37F
330
1F
100
AcDbEntity
  8
0-0
  6
JWW_DASHED1
 62
   120
370
     5
100
AcDbLine
 10
137.3803229010323
 20
518.2921460558666
 30
0.0
 11
710.380322901033
 21
518.2921460558666
 31
0.0
  0
LINE
  5
380
330
1F
100
AcDbEntity
  8
0-0
  6
JWW_DASHED1
 62
   120
370
     5
100
AcDbLine
 10
137.3803229010323
 20
531.2921460569662
 30
0.0
 11
710.380322901033
 21
531.2921460569662
 31
0.0
  0
LINE
  5
381
330
1F
100
AcDbEntity
  8
0-0
  6
JWW_DASHED1
 62
   120
370
     5
100
AcDbLine
 10
137.3803229010323
 20
532.2921460568664
 30
0.0
 11
710.380322901033
 21
532.2921460568664
 31
0.0
  0
LINE
  5
382
330
1F
100
AcDbEntity
  8
0-0
  6
JWW_DASHED1
 62
   120
370
     5
100
AcDbLine
 10
137.3803229010323
 20
545.292146057966
 30
0.0
 11
710.380322901033
 21
545.292146057966
 31
0.0
  0
LINE
  5
383
330
1F
100
AcDbEntity
  8
0-0
  6
JWW_DASHED1
 62
   120
370
     5
100
AcDbLine
 10
137.3803229010323
 20
546.2921460578661
 30
0.0
 11
710.380322901033
 21
546.2921460578661
 31
0.0
  0
LINE
  5
384
330
1F
100
AcDbEntity
  8
0-0
  6
JWW_DASHED1
 62
   120
370
     5
100
AcDbLine
 10
137.3803229010323
 20
559.2921460589657
 30
0.0
 11
710.380322901033
 21
559.2921460589657
 31
0.0
  0
LINE
  5
385
330
1F
100
AcDbEntity
  8
0-0
  6
JWW_DASHED1
 62
   120
370
     5
100
AcDbLine
 10
137.3803229010323
 20
560.2921460588659
 30
0.0
 11
710.380322901033
 21
560.2921460588659
 31
0.0
  0
LINE
  5
386
330
1F
100
AcDbEntity
  8
0-0
  6
JWW_DASHED1
 62
   120
370
     5
100
AcDbLine
 10
137.3803229010323
 20
573.2921460599655
 30
0.0
 11
710.380322901033
 21
573.2921460599655
 31
0.0
  0
LINE
  5
387
330
1F
100
AcDbEntity
  8
0-0
  6
JWW_DASHED1
 62
   120
370
     5
100
AcDbLine
 10
137.3803229010323
 20
574.2921460598657
 30
0.0
 11
710.380322901033
 21
574.2921460598657
 31
0.0
  0
LINE
  5
388
330
1F
100
AcDbEntity
  8
0-0
  6
JWW_DASHED1
 62
   120
370
     5
100
AcDbLine
 10
137.3803229010323
 20
587.2921460609654
 30
0.0
 11
710.380322901033
 21
587.2921460609654
 31
0.0
  0
LINE
  5
389
330
1F
100
AcDbEntity
  8
0-0
  6
JWW_DASHED1
 62
   120
370
     5
100
AcDbLine
 10
137.3803229010323
 20
588.2921460608655
 30
0.0
 11
710.380322901033
 21
588.2921460608655
 31
0.0
  0
LINE
  5
38A
330
1F
100
AcDbEntity
  8
0-0
  6
JWW_DASHED1
 62
   120
370
     5
100
AcDbLine
 10
137.3803229010323
 20
601.2921460619651
 30
0.0
 11
710.380322901033
 21
601.2921460619651
 31
0.0
  0
LINE
  5
38B
330
1F
100
AcDbEntity
  8
0-0
  6
JWW_DASHED1
 62
   120
370
     5
100
AcDbLine
 10
137.3803229010323
 20
602.2921460618653
 30
0.0
 11
710.380322901033
 21
602.2921460618653
 31
0.0
  0
LINE
  5
38C
330
1F
100
AcDbEntity
  8
0-0
  6
JWW_DASHED1
 62
   120
370
     5
100
AcDbLine
 10
137.3803229010323
 20
615.2921460629649
 30
0.0
 11
710.380322901033
 21
615.2921460629649
 31
0.0
  0
LINE
  5
38D
330
1F
100
AcDbEntity
  8
0-0
  6
JWW_DASHED1
 62
   120
370
     5
100
AcDbLine
 10
137.3803229010323
 20
616.2921460628651
 30
0.0
 11
710.380322901033
 21
616.2921460628651
 31
0.0
  0
LINE
  5
38E
330
1F
100
AcDbEntity
  8
0-0
  6
JWW_DASHED1
 62
   120
370
     5
100
AcDbLine
 10
137.3803229010323
 20
629.2921460639648
 30
0.0
 11
710.380322901033
 21
629.2921460639648
 31
0.0
  0
LINE
  5
38F
330
1F
100
AcDbEntity
  8
0-0
  6
JWW_DASHED1
 62
   120
370
     5
100
AcDbLine
 10
137.3803229010323
 20
630.292146063865
 30
0.0
 11
710.380322901033
 21
630.292146063865
 31
0.0
  0
LINE
  5
390
330
1F
100
AcDbEntity
  8
0-0
  6
JWW_DASHED1
 62
   120
370
     5
100
AcDbLine
 10
137.3803229010323
 20
643.2921460649645
 30
0.0
 11
710.380322901033
 21
643.2921460649645
 31
0.0
  0
LINE
  5
391
330
1F
100
AcDbEntity
  8
0-0
  6
JWW_DASHED1
 62
   120
370
     5
100
AcDbLine
 10
137.3803229010323
 20
644.2921460648647
 30
0.0
 11
710.380322901033
 21
644.2921460648647
 31
0.0
  0
LINE
  5
392
330
1F
100
AcDbEntity
  8
0-0
  6
JWW_DASHED1
 62
   120
370
     5
100
AcDbLine
 10
143.3803413590641
 20
-462.7077057001752
 30
0.0
 11
143.3803413590641
 21
712.292294299825
 31
0.0
  0
LINE
  5
393
330
1F
100
AcDbEntity
  8
0-0
  6
JWW_DASHED1
 62
   120
370
     5
100
AcDbLine
 10
676.3803413969649
 20
-462.7077057001752
 30
0.0
 11
676.3803413969649
 21
712.292294299825
 31
0.0
  0
LINE
  5
394
330
1F
100
AcDbEntity
  8
0-0
  6
JWW_DASHED1
 62
   120
370
     5
100
AcDbLine
 10
675.3803413970647
 20
-462.7077057001752
 30
0.0
 11
675.3803413970647
 21
712.292294299825
 31
0.0
  0
LINE
  5
395
330
1F
100
AcDbEntity
  8
0-0
  6
JWW_DASHED1
 62
   120
370
     5
100
AcDbLine
 10
662.3803413959647
 20
-462.7077057001752
 30
0.0
 11
662.3803413959647
 21
712.292294299825
 31
0.0
  0
LINE
  5
396
330
1F
100
AcDbEntity
  8
0-0
  6
JWW_DASHED1
 62
   120
370
     5
100
AcDbLine
 10
661.3803413960645
 20
-462.7077057001752
 30
0.0
 11
661.3803413960645
 21
712.292294299825
 31
0.0
  0
LINE
  5
397
330
1F
100
AcDbEntity
  8
0-0
  6
JWW_DASHED1
 62
   120
370
     5
100
AcDbLine
 10
648.3803413949645
 20
-462.7077057001752
 30
0.0
 11
648.3803413949645
 21
712.292294299825
 31
0.0
  0
LINE
  5
398
330
1F
100
AcDbEntity
  8
0-0
  6
JWW_DASHED1
 62
   120
370
     5
100
AcDbLine
 10
647.3803413950643
 20
-462.7077057001752
 30
0.0
 11
647.3803413950643
 21
712.292294299825
 31
0.0
  0
LINE
  5
399
330
1F
100
AcDbEntity
  8
0-0
  6
JWW_DASHED1
 62
   120
370
     5
100
AcDbLine
 10
634.3803413939643
 20
-462.7077057001752
 30
0.0
 11
634.3803413939643
 21
712.292294299825
 31
0.0
  0
LINE
  5
39A
330
1F
100
AcDbEntity
  8
0-0
  6
JWW_DASHED1
 62
   120
370
     5
100
AcDbLine
 10
633.3803413940641
 20
-462.7077057001752
 30
0.0
 11
633.3803413940641
 21
712.292294299825
 31
0.0
  0
LINE
  5
39B
330
1F
100
AcDbEntity
  8
0-0
  6
JWW_DASHED1
 62
   120
370
     5
100
AcDbLine
 10
620.380341392964
 20
-462.7077057001752
 30
0.0
 11
620.380341392964
 21
712.292294299825
 31
0.0
  0
LINE
  5
39C
330
1F
100
AcDbEntity
  8
0-0
  6
JWW_DASHED1
 62
   120
370
     5
100
AcDbLine
 10
619.3803413930639
 20
-462.7077057001752
 30
0.0
 11
619.3803413930647
 21
712.292294299825
 31
0.0
  0
LINE
  5
39D
330
1F
100
AcDbEntity
  8
0-0
  6
JWW_DASHED1
 62
   120
370
     5
100
AcDbLine
 10
606.3803413919638
 20
-462.7077057001752
 30
0.0
 11
606.3803413919646
 21
712.292294299825
 31
0.0
  0
LINE
  5
39E
330
1F
100
AcDbEntity
  8
0-0
  6
JWW_DASHED1
 62
   120
370
     5
100
AcDbLine
 10
605.3803413920645
 20
-462.7077057001752
 30
0.0
 11
605.3803413920645
 21
712.292294299825
 31
0.0
  0
LINE
  5
39F
330
1F
100
AcDbEntity
  8
0-0
  6
JWW_DASHED1
 62
   120
370
     5
100
AcDbLine
 10
592.3803413909644
 20
-462.7077057001752
 30
0.0
 11
592.3803413909644
 21
712.292294299825
 31
0.0
  0
LINE
  5
3A0
330
1F
100
AcDbEntity
  8
0-0
  6
JWW_DASHED1
 62
   120
370
     5
100
AcDbLine
 10
591.3803413910642
 20
-462.7077057001752
 30
0.0
 11
591.3803413910642
 21
712.292294299825
 31
0.0
  0
LINE
  5
3A1
330
1F
100
AcDbEntity
  8
0-0
  6
JWW_DASHED1
 62
   120
370
     5
100
AcDbLine
 10
578.380341389965
 20
-462.7077057001752
 30
0.0
 11
578.380341389965
 21
712.292294299825
 31
0.0
  0
LINE
  5
3A2
330
1F
100
AcDbEntity
  8
0-0
  6
JWW_DASHED1
 62
   120
370
     5
100
AcDbLine
 10
577.3803413900648
 20
-462.7077057001752
 30
0.0
 11
577.3803413900648
 21
712.292294299825
 31
0.0
  0
LINE
  5
3A3
330
1F
100
AcDbEntity
  8
0-0
  6
JWW_DASHED1
 62
   120
370
     5
100
AcDbLine
 10
564.3803413889648
 20
-462.7077057001752
 30
0.0
 11
564.3803413889648
 21
712.292294299825
 31
0.0
  0
LINE
  5
3A4
330
1F
100
AcDbEntity
  8
0-0
  6
JWW_DASHED1
 62
   120
370
     5
100
AcDbLine
 10
563.3803413890646
 20
-462.7077057001752
 30
0.0
 11
563.3803413890646
 21
712.292294299825
 31
0.0
  0
LINE
  5
3A5
330
1F
100
AcDbEntity
  8
0-0
  6
JWW_DASHED1
 62
   120
370
     5
100
AcDbLine
 10
550.3803413879646
 20
-462.7077057001752
 30
0.0
 11
550.3803413879646
 21
712.292294299825
 31
0.0
  0
LINE
  5
3A6
330
1F
100
AcDbEntity
  8
0-0
  6
JWW_DASHED1
 62
   120
370
     5
100
AcDbLine
 10
549.3803413880644
 20
-462.7077057001752
 30
0.0
 11
549.3803413880644
 21
712.292294299825
 31
0.0
  0
LINE
  5
3A7
330
1F
100
AcDbEntity
  8
0-0
  6
JWW_DASHED1
 62
   120
370
     5
100
AcDbLine
 10
536.3803413869643
 20
-462.7077057001752
 30
0.0
 11
536.3803413869643
 21
712.292294299825
 31
0.0
  0
LINE
  5
3A8
330
1F
100
AcDbEntity
  8
0-0
  6
JWW_DASHED1
 62
   120
370
     5
100
AcDbLine
 10
535.3803413870642
 20
-462.7077057001752
 30
0.0
 11
535.3803413870642
 21
712.292294299825
 31
0.0
  0
LINE
  5
3A9
330
1F
100
AcDbEntity
  8
0-0
  6
JWW_DASHED1
 62
   120
370
     5
100
AcDbLine
 10
522.3803413859641
 20
-462.7077057001752
 30
0.0
 11
522.3803413859641
 21
712.292294299825
 31
0.0
  0
LINE
  5
3AA
330
1F
100
AcDbEntity
  8
0-0
  6
JWW_DASHED1
 62
   120
370
     5
100
AcDbLine
 10
521.380341386064
 20
-462.7077057001752
 30
0.0
 11
521.380341386064
 21
712.292294299825
 31
0.0
  0
LINE
  5
3AB
330
1F
100
AcDbEntity
  8
0-0
  6
JWW_DASHED1
 62
   120
370
     5
100
AcDbLine
 10
508.3803413849648
 20
-462.7077057001752
 30
0.0
 11
508.3803413849648
 21
712.292294299825
 31
0.0
  0
LINE
  5
3AC
330
1F
100
AcDbEntity
  8
0-0
  6
JWW_DASHED1
 62
   120
370
     5
100
AcDbLine
 10
507.3803413850646
 20
-462.7077057001752
 30
0.0
 11
507.3803413850646
 21
712.292294299825
 31
0.0
  0
LINE
  5
3AD
330
1F
100
AcDbEntity
  8
0-0
  6
JWW_DASHED1
 62
   120
370
     5
100
AcDbLine
 10
494.3803413839646
 20
-462.7077057001752
 30
0.0
 11
494.3803413839646
 21
712.292294299825
 31
0.0
  0
LINE
  5
3AE
330
1F
100
AcDbEntity
  8
0-0
  6
JWW_DASHED1
 62
   120
370
     5
100
AcDbLine
 10
493.3803413840644
 20
-462.7077057001752
 30
0.0
 11
493.3803413840644
 21
712.292294299825
 31
0.0
  0
LINE
  5
3AF
330
1F
100
AcDbEntity
  8
0-0
  6
JWW_DASHED1
 62
   120
370
     5
100
AcDbLine
 10
480.3803413829644
 20
-462.7077057001752
 30
0.0
 11
480.3803413829644
 21
712.292294299825
 31
0.0
  0
LINE
  5
3B0
330
1F
100
AcDbEntity
  8
0-0
  6
JWW_DASHED1
 62
   120
370
     5
100
AcDbLine
 10
479.3803413830642
 20
-462.7077057001752
 30
0.0
 11
479.3803413830642
 21
712.292294299825
 31
0.0
  0
LINE
  5
3B1
330
1F
100
AcDbEntity
  8
0-0
  6
JWW_DASHED1
 62
   120
370
     5
100
AcDbLine
 10
466.380341381965
 20
-462.7077057001752
 30
0.0
 11
466.380341381965
 21
712.292294299825
 31
0.0
  0
LINE
  5
3B2
330
1F
100
AcDbEntity
  8
0-0
  6
JWW_DASHED1
 62
   120
370
     5
100
AcDbLine
 10
465.3803413820648
 20
-462.7077057001752
 30
0.0
 11
465.3803413820648
 21
712.292294299825
 31
0.0
  0
LINE
  5
3B3
330
1F
100
AcDbEntity
  8
0-0
  6
JWW_DASHED1
 62
   120
370
     5
100
AcDbLine
 10
452.3803413809648
 20
-462.7077057001752
 30
0.0
 11
452.3803413809648
 21
712.292294299825
 31
0.0
  0
LINE
  5
3B4
330
1F
100
AcDbEntity
  8
0-0
  6
JWW_DASHED1
 62
   120
370
     5
100
AcDbLine
 10
451.3803413810646
 20
-462.7077057001752
 30
0.0
 11
451.3803413810646
 21
712.292294299825
 31
0.0
  0
LINE
  5
3B5
330
1F
100
AcDbEntity
  8
0-0
  6
JWW_DASHED1
 62
   120
370
     5
100
AcDbLine
 10
438.3803413799646
 20
-462.7077057001752
 30
0.0
 11
438.3803413799646
 21
712.292294299825
 31
0.0
  0
LINE
  5
3B6
330
1F
100
AcDbEntity
  8
0-0
  6
JWW_DASHED1
 62
   120
370
     5
100
AcDbLine
 10
437.3803413800644
 20
-462.7077057001752
 30
0.0
 11
437.3803413800644
 21
712.292294299825
 31
0.0
  0
LINE
  5
3B7
330
1F
100
AcDbEntity
  8
0-0
  6
JWW_DASHED1
 62
   120
370
     5
100
AcDbLine
 10
424.3803413789644
 20
-462.7077057001752
 30
0.0
 11
424.3803413789644
 21
712.292294299825
 31
0.0
  0
LINE
  5
3B8
330
1F
100
AcDbEntity
  8
0-0
  6
JWW_DASHED1
 62
   120
370
     5
100
AcDbLine
 10
423.3803413790642
 20
-462.7077057001752
 30
0.0
 11
423.3803413790642
 21
712.292294299825
 31
0.0
  0
LINE
  5
3B9
330
1F
100
AcDbEntity
  8
0-0
  6
JWW_DASHED1
 62
   120
370
     5
100
AcDbLine
 10
410.3803413779642
 20
-462.7077057001752
 30
0.0
 11
410.3803413779642
 21
712.292294299825
 31
0.0
  0
LINE
  5
3BA
330
1F
100
AcDbEntity
  8
0-0
  6
JWW_DASHED1
 62
   120
370
     5
100
AcDbLine
 10
409.380341378064
 20
-462.7077057001752
 30
0.0
 11
409.380341378064
 21
712.292294299825
 31
0.0
  0
LINE
  5
3BB
330
1F
100
AcDbEntity
  8
0-0
  6
JWW_DASHED1
 62
   120
370
     5
100
AcDbLine
 10
396.3803413769648
 20
-462.7077057001752
 30
0.0
 11
396.3803413769648
 21
712.292294299825
 31
0.0
  0
LINE
  5
3BC
330
1F
100
AcDbEntity
  8
0-0
  6
JWW_DASHED1
 62
   120
370
     5
100
AcDbLine
 10
395.3803413770646
 20
-462.7077057001752
 30
0.0
 11
395.3803413770646
 21
712.292294299825
 31
0.0
  0
LINE
  5
3BD
330
1F
100
AcDbEntity
  8
0-0
  6
JWW_DASHED1
 62
   120
370
     5
100
AcDbLine
 10
382.3803413759646
 20
-462.7077057001752
 30
0.0
 11
382.3803413759646
 21
712.292294299825
 31
0.0
  0
LINE
  5
3BE
330
1F
100
AcDbEntity
  8
0-0
  6
JWW_DASHED1
 62
   120
370
     5
100
AcDbLine
 10
381.3803413760644
 20
-462.7077057001752
 30
0.0
 11
381.3803413760644
 21
712.292294299825
 31
0.0
  0
LINE
  5
3BF
330
1F
100
AcDbEntity
  8
0-0
  6
JWW_DASHED1
 62
   120
370
     5
100
AcDbLine
 10
368.3803413749644
 20
-462.7077057001752
 30
0.0
 11
368.3803413749644
 21
712.292294299825
 31
0.0
  0
LINE
  5
3C0
330
1F
100
AcDbEntity
  8
0-0
  6
JWW_DASHED1
 62
   120
370
     5
100
AcDbLine
 10
367.3803413750642
 20
-462.7077057001752
 30
0.0
 11
367.3803413750642
 21
712.292294299825
 31
0.0
  0
LINE
  5
3C1
330
1F
100
AcDbEntity
  8
0-0
  6
JWW_DASHED1
 62
   120
370
     5
100
AcDbLine
 10
354.380341373965
 20
-462.7077057001752
 30
0.0
 11
354.380341373965
 21
712.292294299825
 31
0.0
  0
LINE
  5
3C2
330
1F
100
AcDbEntity
  8
0-0
  6
JWW_DASHED1
 62
   120
370
     5
100
AcDbLine
 10
353.3803413740648
 20
-462.7077057001752
 30
0.0
 11
353.3803413740648
 21
712.292294299825
 31
0.0
  0
LINE
  5
3C3
330
1F
100
AcDbEntity
  8
0-0
  6
JWW_DASHED1
 62
   120
370
     5
100
AcDbLine
 10
340.3803413729648
 20
-462.7077057001752
 30
0.0
 11
340.3803413729648
 21
712.292294299825
 31
0.0
  0
LINE
  5
3C4
330
1F
100
AcDbEntity
  8
0-0
  6
JWW_DASHED1
 62
   120
370
     5
100
AcDbLine
 10
339.3803413730646
 20
-462.7077057001752
 30
0.0
 11
339.3803413730646
 21
712.292294299825
 31
0.0
  0
LINE
  5
3C5
330
1F
100
AcDbEntity
  8
0-0
  6
JWW_DASHED1
 62
   120
370
     5
100
AcDbLine
 10
326.3803413719646
 20
-462.7077057001752
 30
0.0
 11
326.3803413719646
 21
712.292294299825
 31
0.0
  0
LINE
  5
3C6
330
1F
100
AcDbEntity
  8
0-0
  6
JWW_DASHED1
 62
   120
370
     5
100
AcDbLine
 10
325.3803413720644
 20
-462.7077057001752
 30
0.0
 11
325.3803413720644
 21
712.292294299825
 31
0.0
  0
LINE
  5
3C7
330
1F
100
AcDbEntity
  8
0-0
  6
JWW_DASHED1
 62
   120
370
     5
100
AcDbLine
 10
312.3803413709643
 20
-462.7077057001752
 30
0.0
 11
312.3803413709643
 21
712.292294299825
 31
0.0
  0
LINE
  5
3C8
330
1F
100
AcDbEntity
  8
0-0
  6
JWW_DASHED1
 62
   120
370
     5
100
AcDbLine
 10
311.3803413710642
 20
-462.7077057001752
 30
0.0
 11
311.3803413710642
 21
712.292294299825
 31
0.0
  0
LINE
  5
3C9
330
1F
100
AcDbEntity
  8
0-0
  6
JWW_DASHED1
 62
   120
370
     5
100
AcDbLine
 10
298.3803413699641
 20
-462.7077057001752
 30
0.0
 11
298.3803413699641
 21
712.292294299825
 31
0.0
  0
LINE
  5
3CA
330
1F
100
AcDbEntity
  8
0-0
  6
JWW_DASHED1
 62
   120
370
     5
100
AcDbLine
 10
297.3803413700639
 20
-462.7077057001752
 30
0.0
 11
297.3803413700639
 21
712.292294299825
 31
0.0
  0
LINE
  5
3CB
330
1F
100
AcDbEntity
  8
0-0
  6
JWW_DASHED1
 62
   120
370
     5
100
AcDbLine
 10
284.3803413689648
 20
-462.7077057001752
 30
0.0
 11
284.3803413689648
 21
712.292294299825
 31
0.0
  0
LINE
  5
3CC
330
1F
100
AcDbEntity
  8
0-0
  6
JWW_DASHED1
 62
   120
370
     5
100
AcDbLine
 10
283.3803413690646
 20
-462.7077057001752
 30
0.0
 11
283.3803413690646
 21
712.292294299825
 31
0.0
  0
LINE
  5
3CD
330
1F
100
AcDbEntity
  8
0-0
  6
JWW_DASHED1
 62
   120
370
     5
100
AcDbLine
 10
270.3803413679645
 20
-462.7077057001752
 30
0.0
 11
270.3803413679645
 21
712.292294299825
 31
0.0
  0
LINE
  5
3CE
330
1F
100
AcDbEntity
  8
0-0
  6
JWW_DASHED1
 62
   120
370
     5
100
AcDbLine
 10
269.3803413680644
 20
-462.7077057001752
 30
0.0
 11
269.3803413680644
 21
712.292294299825
 31
0.0
  0
LINE
  5
3CF
330
1F
100
AcDbEntity
  8
0-0
  6
JWW_DASHED1
 62
   120
370
     5
100
AcDbLine
 10
256.3803413669643
 20
-462.7077057001752
 30
0.0
 11
256.3803413669643
 21
712.292294299825
 31
0.0
  0
LINE
  5
3D0
330
1F
100
AcDbEntity
  8
0-0
  6
JWW_DASHED1
 62
   120
370
     5
100
AcDbLine
 10
255.3803413670641
 20
-462.7077057001752
 30
0.0
 11
255.3803413670641
 21
712.292294299825
 31
0.0
  0
LINE
  5
3D1
330
1F
100
AcDbEntity
  8
0-0
  6
JWW_DASHED1
 62
   120
370
     5
100
AcDbLine
 10
242.380341365965
 20
-462.7077057001752
 30
0.0
 11
242.380341365965
 21
712.292294299825
 31
0.0
  0
LINE
  5
3D2
330
1F
100
AcDbEntity
  8
0-0
  6
JWW_DASHED1
 62
   120
370
     5
100
AcDbLine
 10
241.3803413660648
 20
-462.7077057001752
 30
0.0
 11
241.3803413660648
 21
712.292294299825
 31
0.0
  0
LINE
  5
3D3
330
1F
100
AcDbEntity
  8
0-0
  6
JWW_DASHED1
 62
   120
370
     5
100
AcDbLine
 10
228.3803413649647
 20
-462.7077057001752
 30
0.0
 11
228.3803413649647
 21
712.292294299825
 31
0.0
  0
LINE
  5
3D4
330
1F
100
AcDbEntity
  8
0-0
  6
JWW_DASHED1
 62
   120
370
     5
100
AcDbLine
 10
227.3803413650646
 20
-462.7077057001752
 30
0.0
 11
227.3803413650646
 21
712.292294299825
 31
0.0
  0
LINE
  5
3D5
330
1F
100
AcDbEntity
  8
0-0
  6
JWW_DASHED1
 62
   120
370
     5
100
AcDbLine
 10
214.3803413639645
 20
-462.7077057001752
 30
0.0
 11
214.3803413639645
 21
712.292294299825
 31
0.0
  0
LINE
  5
3D6
330
1F
100
AcDbEntity
  8
0-0
  6
JWW_DASHED1
 62
   120
370
     5
100
AcDbLine
 10
213.3803413640643
 20
-462.7077057001752
 30
0.0
 11
213.3803413640643
 21
712.292294299825
 31
0.0
  0
LINE
  5
3D7
330
1F
100
AcDbEntity
  8
0-0
  6
JWW_DASHED1
 62
   120
370
     5
100
AcDbLine
 10
200.3803413629643
 20
-462.7077057001752
 30
0.0
 11
200.3803413629643
 21
712.292294299825
 31
0.0
  0
LINE
  5
3D8
330
1F
100
AcDbEntity
  8
0-0
  6
JWW_DASHED1
 62
   120
370
     5
100
AcDbLine
 10
199.3803413630641
 20
-462.7077057001752
 30
0.0
 11
199.3803413630641
 21
712.292294299825
 31
0.0
  0
LINE
  5
3D9
330
1F
100
AcDbEntity
  8
0-0
  6
JWW_DASHED1
 62
   120
370
     5
100
AcDbLine
 10
186.3803413619641
 20
-462.7077057001752
 30
0.0
 11
186.3803413619641
 21
712.292294299825
 31
0.0
  0
LINE
  5
3DA
330
1F
100
AcDbEntity
  8
0-0
  6
JWW_DASHED1
 62
   120
370
     5
100
AcDbLine
 10
185.3803413620639
 20
-462.7077057001752
 30
0.0
 11
185.3803413620639
 21
712.292294299825
 31
0.0
  0
LINE
  5
3DB
330
1F
100
AcDbEntity
  8
0-0
  6
JWW_DASHED1
 62
   120
370
     5
100
AcDbLine
 10
172.3803413609647
 20
-462.7077057001752
 30
0.0
 11
172.3803413609647
 21
712.292294299825
 31
0.0
  0
LINE
  5
3DC
330
1F
100
AcDbEntity
  8
0-0
  6
JWW_DASHED1
 62
   120
370
     5
100
AcDbLine
 10
171.3803413610646
 20
-462.7077057001752
 30
0.0
 11
171.3803413610646
 21
712.292294299825
 31
0.0
  0
LINE
  5
3DD
330
1F
100
AcDbEntity
  8
0-0
  6
JWW_DASHED1
 62
   120
370
     5
100
AcDbLine
 10
158.3803413599645
 20
-462.7077057001752
 30
0.0
 11
158.3803413599645
 21
712.292294299825
 31
0.0
  0
LINE
  5
3DE
330
1F
100
AcDbEntity
  8
0-0
  6
JWW_DASHED1
 62
   120
370
     5
100
AcDbLine
 10
157.3803413600643
 20
-462.7077057001752
 30
0.0
 11
157.3803413600643
 21
712.292294299825
 31
0.0
  0
LINE
  5
3DF
330
1F
100
AcDbEntity
  8
0-0
  6
JWW_DASHED1
 62
   120
370
     5
100
AcDbLine
 10
144.3803413589643
 20
-462.7077057001752
 30
0.0
 11
144.3803413589643
 21
712.292294299825
 31
0.0
  0
LINE
  5
3E0
330
1F
100
AcDbEntity
  8
0-0
  6
JWW_DASHED1
 62
   120
370
     5
100
AcDbLine
 10
704.3803413989644
 20
-462.7077057001752
 30
0.0
 11
704.3803413989644
 21
712.292294299825
 31
0.0
  0
LINE
  5
3E1
330
1F
100
AcDbEntity
  8
0-0
  6
JWW_DASHED1
 62
   120
370
     5
100
AcDbLine
 10
689.380341398064
 20
-462.7077057001752
 30
0.0
 11
689.380341398064
 21
712.292294299825
 31
0.0
  0
LINE
  5
3E2
330
1F
100
AcDbEntity
  8
0-0
  6
JWW_DASHED1
 62
   120
370
     5
100
AcDbLine
 10
703.3803413990643
 20
-462.7077057001752
 30
0.0
 11
703.3803413990643
 21
712.292294299825
 31
0.0
  0
LINE
  5
3E3
330
1F
100
AcDbEntity
  8
0-0
  6
JWW_DASHED1
 62
   120
370
     5
100
AcDbLine
 10
690.3803413979642
 20
-462.7077057001752
 30
0.0
 11
690.3803413979642
 21
712.292294299825
 31
0.0
  0
LINE
  5
3E4
330
1F
100
AcDbEntity
  8
0-0
  6
JWW_DASHED1
 62
   120
370
     5
100
AcDbLine
 10
137.3803229010332
 20
700.2921460688639
 30
0.0
 11
710.3803229010322
 21
700.2921460688639
 31
0.0
  0
LINE
  5
3E5
330
1F
100
AcDbEntity
  8
0-0
  6
JWW_DASHED1
 62
   120
370
     5
100
AcDbLine
 10
137.3803229010332
 20
657.2921460659643
 30
0.0
 11
710.3803229010322
 21
657.2921460659643
 31
0.0
  0
LINE
  5
3E6
330
1F
100
AcDbEntity
  8
0-0
  6
JWW_DASHED1
 62
   120
370
     5
100
AcDbLine
 10
137.3803229010332
 20
658.2921460658645
 30
0.0
 11
710.3803229010322
 21
658.2921460658645
 31
0.0
  0
LINE
  5
3E7
330
1F
100
AcDbEntity
  8
0-0
  6
JWW_DASHED1
 62
   120
370
     5
100
AcDbLine
 10
137.3803229010332
 20
671.292146066964
 30
0.0
 11
710.3803229010322
 21
671.292146066964
 31
0.0
  0
LINE
  5
3E8
330
1F
100
AcDbEntity
  8
0-0
  6
JWW_DASHED1
 62
   120
370
     5
100
AcDbLine
 10
137.3803229010332
 20
672.2921460668642
 30
0.0
 11
710.3803229010322
 21
672.2921460668642
 31
0.0
  0
LINE
  5
3E9
330
1F
100
AcDbEntity
  8
0-0
  6
JWW_DASHED1
 62
   120
370
     5
100
AcDbLine
 10
137.3803229010332
 20
685.2921460679638
 30
0.0
 11
710.3803229010322
 21
685.2921460679638
 31
0.0
  0
LINE
  5
3EA
330
1F
100
AcDbEntity
  8
0-0
  6
JWW_DASHED1
 62
   120
370
     5
100
AcDbLine
 10
137.3803229010332
 20
686.292146067864
 30
0.0
 11
710.3803229010322
 21
686.292146067864
 31
0.0
  0
LINE
  5
3EB
330
1F
100
AcDbEntity
  8
0-0
  6
JWW_DASHED1
 62
   120
370
     5
100
AcDbLine
 10
137.3803229010332
 20
699.2921460689637
 30
0.0
 11
710.3803229010322
 21
699.2921460689637
 31
0.0
  0
LINE
  5
3EC
330
1F
100
AcDbEntity
  8
0-0
  6
JWW_DASHED1
 62
   120
370
     5
100
AcDbLine
 10
917.3803229010323
 20
-461.7078540141188
 30
0.0
 11
1490.380322901033
 21
-461.7078540141188
 31
0.0
  0
LINE
  5
3ED
330
1F
100
AcDbEntity
  8
0-0
  6
JWW_DASHED1
 62
   120
370
     5
100
AcDbLine
 10
917.3803229010323
 20
-448.7078540130192
 30
0.0
 11
1490.380322901033
 21
-448.7078540130192
 31
0.0
  0
LINE
  5
3EE
330
1F
100
AcDbEntity
  8
0-0
  6
JWW_DASHED1
 62
   120
370
     5
100
AcDbLine
 10
917.3803229010323
 20
-447.707854013119
 30
0.0
 11
1490.380322901033
 21
-447.707854013119
 31
0.0
  0
LINE
  5
3EF
330
1F
100
AcDbEntity
  8
0-0
  6
JWW_DASHED1
 62
   120
370
     5
100
AcDbLine
 10
917.3803229010323
 20
-434.7078540120194
 30
0.0
 11
1490.380322901033
 21
-434.7078540120194
 31
0.0
  0
LINE
  5
3F0
330
1F
100
AcDbEntity
  8
0-0
  6
JWW_DASHED1
 62
   120
370
     5
100
AcDbLine
 10
917.3803229010323
 20
-433.7078540121192
 30
0.0
 11
1490.380322901033
 21
-433.7078540121192
 31
0.0
  0
LINE
  5
3F1
330
1F
100
AcDbEntity
  8
0-0
  6
JWW_DASHED1
 62
   120
370
     5
100
AcDbLine
 10
917.3803229010323
 20
-420.7078540110195
 30
0.0
 11
1490.380322901033
 21
-420.7078540110195
 31
0.0
  0
LINE
  5
3F2
330
1F
100
AcDbEntity
  8
0-0
  6
JWW_DASHED1
 62
   120
370
     5
100
AcDbLine
 10
917.3803229010323
 20
-419.7078540111194
 30
0.0
 11
1490.380322901033
 21
-419.7078540111194
 31
0.0
  0
LINE
  5
3F3
330
1F
100
AcDbEntity
  8
0-0
  6
JWW_DASHED1
 62
   120
370
     5
100
AcDbLine
 10
917.3803229010323
 20
-406.7078540100198
 30
0.0
 11
1490.380322901033
 21
-406.7078540100198
 31
0.0
  0
LINE
  5
3F4
330
1F
100
AcDbEntity
  8
0-0
  6
JWW_DASHED1
 62
   120
370
     5
100
AcDbLine
 10
917.3803229010323
 20
-405.7078540101196
 30
0.0
 11
1490.380322901033
 21
-405.7078540101196
 31
0.0
  0
LINE
  5
3F5
330
1F
100
AcDbEntity
  8
0-0
  6
JWW_DASHED1
 62
   120
370
     5
100
AcDbLine
 10
917.3803229010323
 20
-392.70785400902
 30
0.0
 11
1490.380322901033
 21
-392.70785400902
 31
0.0
  0
LINE
  5
3F6
330
1F
100
AcDbEntity
  8
0-0
  6
JWW_DASHED1
 62
   120
370
     5
100
AcDbLine
 10
917.3803229010323
 20
-391.7078540091198
 30
0.0
 11
1490.380322901033
 21
-391.7078540091198
 31
0.0
  0
LINE
  5
3F7
330
1F
100
AcDbEntity
  8
0-0
  6
JWW_DASHED1
 62
   120
370
     5
100
AcDbLine
 10
917.3803229010323
 20
-378.7078540080202
 30
0.0
 11
1490.380322901033
 21
-378.7078540080202
 31
0.0
  0
LINE
  5
3F8
330
1F
100
AcDbEntity
  8
0-0
  6
JWW_DASHED1
 62
   120
370
     5
100
AcDbLine
 10
917.3803229010323
 20
-377.70785400812
 30
0.0
 11
1490.380322901033
 21
-377.70785400812
 31
0.0
  0
LINE
  5
3F9
330
1F
100
AcDbEntity
  8
0-0
  6
JWW_DASHED1
 62
   120
370
     5
100
AcDbLine
 10
917.3803229010323
 20
-364.7078540070204
 30
0.0
 11
1490.380322901033
 21
-364.7078540070204
 31
0.0
  0
LINE
  5
3FA
330
1F
100
AcDbEntity
  8
0-0
  6
JWW_DASHED1
 62
   120
370
     5
100
AcDbLine
 10
917.3803229010323
 20
-363.7078540071202
 30
0.0
 11
1490.380322901033
 21
-363.7078540071202
 31
0.0
  0
LINE
  5
3FB
330
1F
100
AcDbEntity
  8
0-0
  6
JWW_DASHED1
 62
   120
370
     5
100
AcDbLine
 10
917.3803229010323
 20
-350.7078540060206
 30
0.0
 11
1490.380322901033
 21
-350.7078540060206
 31
0.0
  0
LINE
  5
3FC
330
1F
100
AcDbEntity
  8
0-0
  6
JWW_DASHED1
 62
   120
370
     5
100
AcDbLine
 10
917.3803229010323
 20
-349.7078540061204
 30
0.0
 11
1490.380322901033
 21
-349.7078540061204
 31
0.0
  0
LINE
  5
3FD
330
1F
100
AcDbEntity
  8
0-0
  6
JWW_DASHED1
 62
   120
370
     5
100
AcDbLine
 10
917.3803229010323
 20
-336.7078540050209
 30
0.0
 11
1490.380322901033
 21
-336.7078540050209
 31
0.0
  0
LINE
  5
3FE
330
1F
100
AcDbEntity
  8
0-0
  6
JWW_DASHED1
 62
   120
370
     5
100
AcDbLine
 10
917.3803229010323
 20
-335.7078540051207
 30
0.0
 11
1490.380322901033
 21
-335.7078540051207
 31
0.0
  0
LINE
  5
3FF
330
1F
100
AcDbEntity
  8
0-0
  6
JWW_DASHED1
 62
   120
370
     5
100
AcDbLine
 10
917.3803229010323
 20
-322.707854004021
 30
0.0
 11
1490.380322901033
 21
-322.707854004021
 31
0.0
  0
LINE
  5
400
330
1F
100
AcDbEntity
  8
0-0
  6
JWW_DASHED1
 62
   120
370
     5
100
AcDbLine
 10
917.3803229010323
 20
-321.7078540041209
 30
0.0
 11
1490.380322901033
 21
-321.7078540041209
 31
0.0
  0
LINE
  5
401
330
1F
100
AcDbEntity
  8
0-0
  6
JWW_DASHED1
 62
   120
370
     5
100
AcDbLine
 10
917.3803229010323
 20
-308.7078540030212
 30
0.0
 11
1490.380322901033
 21
-308.7078540030212
 31
0.0
  0
LINE
  5
402
330
1F
100
AcDbEntity
  8
0-0
  6
JWW_DASHED1
 62
   120
370
     5
100
AcDbLine
 10
917.3803229010323
 20
-307.707854003121
 30
0.0
 11
1490.380322901033
 21
-307.707854003121
 31
0.0
  0
LINE
  5
403
330
1F
100
AcDbEntity
  8
0-0
  6
JWW_DASHED1
 62
   120
370
     5
100
AcDbLine
 10
917.3803229010323
 20
-294.7078540020215
 30
0.0
 11
1490.380322901033
 21
-294.7078540020215
 31
0.0
  0
LINE
  5
404
330
1F
100
AcDbEntity
  8
0-0
  6
JWW_DASHED1
 62
   120
370
     5
100
AcDbLine
 10
917.3803229010323
 20
-293.7078540021213
 30
0.0
 11
1490.380322901033
 21
-293.7078540021213
 31
0.0
  0
LINE
  5
405
330
1F
100
AcDbEntity
  8
0-0
  6
JWW_DASHED1
 62
   120
370
     5
100
AcDbLine
 10
917.3803229010323
 20
-280.7078540010217
 30
0.0
 11
1490.380322901033
 21
-280.7078540010217
 31
0.0
  0
LINE
  5
406
330
1F
100
AcDbEntity
  8
0-0
  6
JWW_DASHED1
 62
   120
370
     5
100
AcDbLine
 10
917.3803229010323
 20
-279.7078540011215
 30
0.0
 11
1490.380322901033
 21
-279.7078540011215
 31
0.0
  0
LINE
  5
407
330
1F
100
AcDbEntity
  8
0-0
  6
JWW_DASHED1
 62
   120
370
     5
100
AcDbLine
 10
917.3803229010323
 20
-266.7078540000219
 30
0.0
 11
1490.380322901033
 21
-266.7078540000219
 31
0.0
  0
LINE
  5
408
330
1F
100
AcDbEntity
  8
0-0
  6
JWW_DASHED1
 62
   120
370
     5
100
AcDbLine
 10
917.3803229010323
 20
-265.7078540001217
 30
0.0
 11
1490.380322901033
 21
-265.7078540001217
 31
0.0
  0
LINE
  5
409
330
1F
100
AcDbEntity
  8
0-0
  6
JWW_DASHED1
 62
   120
370
     5
100
AcDbLine
 10
917.3803229010323
 20
-252.7078539990221
 30
0.0
 11
1490.380322901033
 21
-252.7078539990221
 31
0.0
  0
LINE
  5
40A
330
1F
100
AcDbEntity
  8
0-0
  6
JWW_DASHED1
 62
   120
370
     5
100
AcDbLine
 10
917.3803229010323
 20
-251.7078539991219
 30
0.0
 11
1490.380322901033
 21
-251.7078539991219
 31
0.0
  0
LINE
  5
40B
330
1F
100
AcDbEntity
  8
0-0
  6
JWW_DASHED1
 62
   120
370
     5
100
AcDbLine
 10
917.3803229010323
 20
-238.7078539980223
 30
0.0
 11
1490.380322901033
 21
-238.7078539980223
 31
0.0
  0
LINE
  5
40C
330
1F
100
AcDbEntity
  8
0-0
  6
JWW_DASHED1
 62
   120
370
     5
100
AcDbLine
 10
917.3803229010323
 20
-237.7078539981221
 30
0.0
 11
1490.380322901033
 21
-237.7078539981221
 31
0.0
  0
LINE
  5
40D
330
1F
100
AcDbEntity
  8
0-0
  6
JWW_DASHED1
 62
   120
370
     5
100
AcDbLine
 10
917.3803229010323
 20
-224.7078539970225
 30
0.0
 11
1490.380322901033
 21
-224.7078539970225
 31
0.0
  0
LINE
  5
40E
330
1F
100
AcDbEntity
  8
0-0
  6
JWW_DASHED1
 62
   120
370
     5
100
AcDbLine
 10
917.3803229010323
 20
-223.7078539971223
 30
0.0
 11
1490.380322901033
 21
-223.7078539971223
 31
0.0
  0
LINE
  5
40F
330
1F
100
AcDbEntity
  8
0-0
  6
JWW_DASHED1
 62
   120
370
     5
100
AcDbLine
 10
917.3803229010323
 20
-210.7078539960227
 30
0.0
 11
1490.380322901033
 21
-210.7078539960227
 31
0.0
  0
LINE
  5
410
330
1F
100
AcDbEntity
  8
0-0
  6
JWW_DASHED1
 62
   120
370
     5
100
AcDbLine
 10
917.3803229010323
 20
-209.7078539961225
 30
0.0
 11
1490.380322901033
 21
-209.7078539961225
 31
0.0
  0
LINE
  5
411
330
1F
100
AcDbEntity
  8
0-0
  6
JWW_DASHED1
 62
   120
370
     5
100
AcDbLine
 10
917.3803229010323
 20
-196.7078539950229
 30
0.0
 11
1490.380322901033
 21
-196.7078539950229
 31
0.0
  0
LINE
  5
412
330
1F
100
AcDbEntity
  8
0-0
  6
JWW_DASHED1
 62
   120
370
     5
100
AcDbLine
 10
917.3803229010323
 20
-195.7078539951227
 30
0.0
 11
1490.380322901033
 21
-195.7078539951227
 31
0.0
  0
LINE
  5
413
330
1F
100
AcDbEntity
  8
0-0
  6
JWW_DASHED1
 62
   120
370
     5
100
AcDbLine
 10
917.3803229010323
 20
-182.7078539940231
 30
0.0
 11
1490.380322901033
 21
-182.7078539940231
 31
0.0
  0
LINE
  5
414
330
1F
100
AcDbEntity
  8
0-0
  6
JWW_DASHED1
 62
   120
370
     5
100
AcDbLine
 10
917.3803229010323
 20
-181.707853994123
 30
0.0
 11
1490.380322901033
 21
-181.707853994123
 31
0.0
  0
LINE
  5
415
330
1F
100
AcDbEntity
  8
0-0
  6
JWW_DASHED1
 62
   120
370
     5
100
AcDbLine
 10
917.3803229010323
 20
-168.7078539930233
 30
0.0
 11
1490.380322901033
 21
-168.7078539930233
 31
0.0
  0
LINE
  5
416
330
1F
100
AcDbEntity
  8
0-0
  6
JWW_DASHED1
 62
   120
370
     5
100
AcDbLine
 10
917.3803229010323
 20
-167.7078539931232
 30
0.0
 11
1490.380322901033
 21
-167.7078539931232
 31
0.0
  0
LINE
  5
417
330
1F
100
AcDbEntity
  8
0-0
  6
JWW_DASHED1
 62
   120
370
     5
100
AcDbLine
 10
917.3803229010323
 20
-154.7078539920236
 30
0.0
 11
1490.380322901033
 21
-154.7078539920236
 31
0.0
  0
LINE
  5
418
330
1F
100
AcDbEntity
  8
0-0
  6
JWW_DASHED1
 62
   120
370
     5
100
AcDbLine
 10
917.3803229010323
 20
-153.7078539921234
 30
0.0
 11
1490.380322901033
 21
-153.7078539921234
 31
0.0
  0
LINE
  5
419
330
1F
100
AcDbEntity
  8
0-0
  6
JWW_DASHED1
 62
   120
370
     5
100
AcDbLine
 10
917.3803229010323
 20
-140.7078539910238
 30
0.0
 11
1490.380322901033
 21
-140.7078539910238
 31
0.0
  0
LINE
  5
41A
330
1F
100
AcDbEntity
  8
0-0
  6
JWW_DASHED1
 62
   120
370
     5
100
AcDbLine
 10
917.3803229010323
 20
-139.7078539911236
 30
0.0
 11
1490.380322901033
 21
-139.7078539911236
 31
0.0
  0
LINE
  5
41B
330
1F
100
AcDbEntity
  8
0-0
  6
JWW_DASHED1
 62
   120
370
     5
100
AcDbLine
 10
917.3803229010323
 20
-126.707853990024
 30
0.0
 11
1490.380322901033
 21
-126.707853990024
 31
0.0
  0
LINE
  5
41C
330
1F
100
AcDbEntity
  8
0-0
  6
JWW_DASHED1
 62
   120
370
     5
100
AcDbLine
 10
917.3803229010323
 20
-125.7078539901238
 30
0.0
 11
1490.380322901033
 21
-125.7078539901238
 31
0.0
  0
LINE
  5
41D
330
1F
100
AcDbEntity
  8
0-0
  6
JWW_DASHED1
 62
   120
370
     5
100
AcDbLine
 10
917.3803229010323
 20
-112.7078539890242
 30
0.0
 11
1490.380322901033
 21
-112.7078539890242
 31
0.0
  0
LINE
  5
41E
330
1F
100
AcDbEntity
  8
0-0
  6
JWW_DASHED1
 62
   120
370
     5
100
AcDbLine
 10
917.3803229010323
 20
-111.707853989124
 30
0.0
 11
1490.380322901033
 21
-111.707853989124
 31
0.0
  0
LINE
  5
41F
330
1F
100
AcDbEntity
  8
0-0
  6
JWW_DASHED1
 62
   120
370
     5
100
AcDbLine
 10
917.3803229010323
 20
-98.7078539880244
 30
0.0
 11
1490.380322901033
 21
-98.7078539880244
 31
0.0
  0
LINE
  5
420
330
1F
100
AcDbEntity
  8
0-0
  6
JWW_DASHED1
 62
   120
370
     5
100
AcDbLine
 10
917.3803229010323
 20
-97.70785398812421
 30
0.0
 11
1490.380322901033
 21
-97.70785398812421
 31
0.0
  0
LINE
  5
421
330
1F
100
AcDbEntity
  8
0-0
  6
JWW_DASHED1
 62
   120
370
     5
100
AcDbLine
 10
917.3803229010323
 20
-84.7078539870246
 30
0.0
 11
1490.380322901033
 21
-84.7078539870246
 31
0.0
  0
LINE
  5
422
330
1F
100
AcDbEntity
  8
0-0
  6
JWW_DASHED1
 62
   120
370
     5
100
AcDbLine
 10
917.3803229010323
 20
-83.70785398712442
 30
0.0
 11
1490.380322901033
 21
-83.70785398712442
 31
0.0
  0
LINE
  5
423
330
1F
100
AcDbEntity
  8
0-0
  6
JWW_DASHED1
 62
   120
370
     5
100
AcDbLine
 10
917.3803229010323
 20
-70.70785398602482
 30
0.0
 11
1490.380322901033
 21
-70.70785398602482
 31
0.0
  0
LINE
  5
424
330
1F
100
AcDbEntity
  8
0-0
  6
JWW_DASHED1
 62
   120
370
     5
100
AcDbLine
 10
917.3803229010323
 20
-69.70785398612463
 30
0.0
 11
1490.380322901033
 21
-69.70785398612463
 31
0.0
  0
LINE
  5
425
330
1F
100
AcDbEntity
  8
0-0
  6
JWW_DASHED1
 62
   120
370
     5
100
AcDbLine
 10
917.3803229010323
 20
-56.70785398502503
 30
0.0
 11
1490.380322901033
 21
-56.70785398502503
 31
0.0
  0
LINE
  5
426
330
1F
100
AcDbEntity
  8
0-0
  6
JWW_DASHED1
 62
   120
370
     5
100
AcDbLine
 10
917.3803229010323
 20
-55.70785398512484
 30
0.0
 11
1490.380322901033
 21
-55.70785398512484
 31
0.0
  0
LINE
  5
427
330
1F
100
AcDbEntity
  8
0-0
  6
JWW_DASHED1
 62
   120
370
     5
100
AcDbLine
 10
917.3803229010323
 20
-42.70785398402523
 30
0.0
 11
1490.380322901033
 21
-42.70785398402523
 31
0.0
  0
LINE
  5
428
330
1F
100
AcDbEntity
  8
0-0
  6
JWW_DASHED1
 62
   120
370
     5
100
AcDbLine
 10
917.3803229010323
 20
-41.70785398412505
 30
0.0
 11
1490.380322901033
 21
-41.70785398412505
 31
0.0
  0
LINE
  5
429
330
1F
100
AcDbEntity
  8
0-0
  6
JWW_DASHED1
 62
   120
370
     5
100
AcDbLine
 10
917.3803229010323
 20
-28.70785398302544
 30
0.0
 11
1490.380322901033
 21
-28.70785398302544
 31
0.0
  0
LINE
  5
42A
330
1F
100
AcDbEntity
  8
0-0
  6
JWW_DASHED1
 62
   120
370
     5
100
AcDbLine
 10
917.3803229010323
 20
-27.70785398312526
 30
0.0
 11
1490.380322901033
 21
-27.70785398312526
 31
0.0
  0
LINE
  5
42B
330
1F
100
AcDbEntity
  8
0-0
  6
JWW_DASHED1
 62
   120
370
     5
100
AcDbLine
 10
917.3803229010323
 20
-14.70785398202565
 30
0.0
 11
1490.380322901033
 21
-14.70785398202565
 31
0.0
  0
LINE
  5
42C
330
1F
100
AcDbEntity
  8
0-0
  6
JWW_DASHED1
 62
   120
370
     5
100
AcDbLine
 10
917.3803229010323
 20
-13.70785398212547
 30
0.0
 11
1490.380322901033
 21
-13.70785398212547
 31
0.0
  0
LINE
  5
42D
330
1F
100
AcDbEntity
  8
0-0
  6
JWW_DASHED1
 62
   120
370
     5
100
AcDbLine
 10
917.3803229010323
 20
-0.7078539810258633
 30
0.0
 11
1490.380322901033
 21
-0.7078539810258633
 31
0.0
  0
LINE
  5
42E
330
1F
100
AcDbEntity
  8
0-0
  6
JWW_DASHED1
 62
   120
370
     5
100
AcDbLine
 10
917.3803229010323
 20
0.2921460188743197
 30
0.0
 11
1490.380322901033
 21
0.2921460188743197
 31
0.0
  0
LINE
  5
42F
330
1F
100
AcDbEntity
  8
0-0
  6
JWW_DASHED1
 62
   120
370
     5
100
AcDbLine
 10
917.3803229010323
 20
13.29214601997393
 30
0.0
 11
1490.380322901033
 21
13.29214601997393
 31
0.0
  0
LINE
  5
430
330
1F
100
AcDbEntity
  8
0-0
  6
JWW_DASHED1
 62
   120
370
     5
100
AcDbLine
 10
917.3803229010323
 20
14.29214601987411
 30
0.0
 11
1490.380322901033
 21
14.29214601987411
 31
0.0
  0
LINE
  5
431
330
1F
100
AcDbEntity
  8
0-0
  6
JWW_DASHED1
 62
   120
370
     5
100
AcDbLine
 10
917.3803229010323
 20
27.29214602097372
 30
0.0
 11
1490.380322901033
 21
27.29214602097372
 31
0.0
  0
LINE
  5
432
330
1F
100
AcDbEntity
  8
0-0
  6
JWW_DASHED1
 62
   120
370
     5
100
AcDbLine
 10
917.3803229010323
 20
28.2921460208739
 30
0.0
 11
1490.380322901033
 21
28.2921460208739
 31
0.0
  0
LINE
  5
433
330
1F
100
AcDbEntity
  8
0-0
  6
JWW_DASHED1
 62
   120
370
     5
100
AcDbLine
 10
917.3803229010323
 20
41.29214602197351
 30
0.0
 11
1490.380322901033
 21
41.29214602197351
 31
0.0
  0
LINE
  5
434
330
1F
100
AcDbEntity
  8
0-0
  6
JWW_DASHED1
 62
   120
370
     5
100
AcDbLine
 10
917.3803229010323
 20
42.29214602187369
 30
0.0
 11
1490.380322901033
 21
42.29214602187369
 31
0.0
  0
LINE
  5
435
330
1F
100
AcDbEntity
  8
0-0
  6
JWW_DASHED1
 62
   120
370
     5
100
AcDbLine
 10
917.3803229010323
 20
55.2921460229733
 30
0.0
 11
1490.380322901033
 21
55.2921460229733
 31
0.0
  0
LINE
  5
436
330
1F
100
AcDbEntity
  8
0-0
  6
JWW_DASHED1
 62
   120
370
     5
100
AcDbLine
 10
917.3803229010323
 20
56.29214602287348
 30
0.0
 11
1490.380322901033
 21
56.29214602287348
 31
0.0
  0
LINE
  5
437
330
1F
100
AcDbEntity
  8
0-0
  6
JWW_DASHED1
 62
   120
370
     5
100
AcDbLine
 10
917.3803229010323
 20
69.29214602397309
 30
0.0
 11
1490.380322901033
 21
69.29214602397309
 31
0.0
  0
LINE
  5
438
330
1F
100
AcDbEntity
  8
0-0
  6
JWW_DASHED1
 62
   120
370
     5
100
AcDbLine
 10
917.3803229010323
 20
70.29214602387327
 30
0.0
 11
1490.380322901033
 21
70.29214602387327
 31
0.0
  0
LINE
  5
439
330
1F
100
AcDbEntity
  8
0-0
  6
JWW_DASHED1
 62
   120
370
     5
100
AcDbLine
 10
917.3803229010323
 20
83.29214602497288
 30
0.0
 11
1490.380322901033
 21
83.29214602497288
 31
0.0
  0
LINE
  5
43A
330
1F
100
AcDbEntity
  8
0-0
  6
JWW_DASHED1
 62
   120
370
     5
100
AcDbLine
 10
917.3803229010323
 20
84.29214602487306
 30
0.0
 11
1490.380322901033
 21
84.29214602487306
 31
0.0
  0
LINE
  5
43B
330
1F
100
AcDbEntity
  8
0-0
  6
JWW_DASHED1
 62
   120
370
     5
100
AcDbLine
 10
917.3803229010323
 20
97.29214602597267
 30
0.0
 11
1490.380322901033
 21
97.29214602597267
 31
0.0
  0
LINE
  5
43C
330
1F
100
AcDbEntity
  8
0-0
  6
JWW_DASHED1
 62
   120
370
     5
100
AcDbLine
 10
917.3803229010323
 20
98.29214602587285
 30
0.0
 11
1490.380322901033
 21
98.29214602587285
 31
0.0
  0
LINE
  5
43D
330
1F
100
AcDbEntity
  8
0-0
  6
JWW_DASHED1
 62
   120
370
     5
100
AcDbLine
 10
917.3803229010323
 20
111.2921460269725
 30
0.0
 11
1490.380322901033
 21
111.2921460269725
 31
0.0
  0
LINE
  5
43E
330
1F
100
AcDbEntity
  8
0-0
  6
JWW_DASHED1
 62
   120
370
     5
100
AcDbLine
 10
917.3803229010323
 20
112.2921460268726
 30
0.0
 11
1490.380322901033
 21
112.2921460268726
 31
0.0
  0
LINE
  5
43F
330
1F
100
AcDbEntity
  8
0-0
  6
JWW_DASHED1
 62
   120
370
     5
100
AcDbLine
 10
917.3803229010323
 20
125.2921460279723
 30
0.0
 11
1490.380322901033
 21
125.2921460279723
 31
0.0
  0
LINE
  5
440
330
1F
100
AcDbEntity
  8
0-0
  6
JWW_DASHED1
 62
   120
370
     5
100
AcDbLine
 10
917.3803229010323
 20
126.2921460278724
 30
0.0
 11
1490.380322901033
 21
126.2921460278724
 31
0.0
  0
LINE
  5
441
330
1F
100
AcDbEntity
  8
0-0
  6
JWW_DASHED1
 62
   120
370
     5
100
AcDbLine
 10
917.3803229010323
 20
139.292146028972
 30
0.0
 11
1490.380322901033
 21
139.292146028972
 31
0.0
  0
LINE
  5
442
330
1F
100
AcDbEntity
  8
0-0
  6
JWW_DASHED1
 62
   120
370
     5
100
AcDbLine
 10
917.3803229010323
 20
140.2921460288722
 30
0.0
 11
1490.380322901033
 21
140.2921460288722
 31
0.0
  0
LINE
  5
443
330
1F
100
AcDbEntity
  8
0-0
  6
JWW_DASHED1
 62
   120
370
     5
100
AcDbLine
 10
917.3803229010323
 20
153.2921460299718
 30
0.0
 11
1490.380322901033
 21
153.2921460299718
 31
0.0
  0
LINE
  5
444
330
1F
100
AcDbEntity
  8
0-0
  6
JWW_DASHED1
 62
   120
370
     5
100
AcDbLine
 10
917.3803229010323
 20
154.292146029872
 30
0.0
 11
1490.380322901033
 21
154.292146029872
 31
0.0
  0
LINE
  5
445
330
1F
100
AcDbEntity
  8
0-0
  6
JWW_DASHED1
 62
   120
370
     5
100
AcDbLine
 10
917.3803229010323
 20
167.2921460309716
 30
0.0
 11
1490.380322901033
 21
167.2921460309716
 31
0.0
  0
LINE
  5
446
330
1F
100
AcDbEntity
  8
0-0
  6
JWW_DASHED1
 62
   120
370
     5
100
AcDbLine
 10
917.3803229010323
 20
168.2921460308718
 30
0.0
 11
1490.380322901033
 21
168.2921460308718
 31
0.0
  0
LINE
  5
447
330
1F
100
AcDbEntity
  8
0-0
  6
JWW_DASHED1
 62
   120
370
     5
100
AcDbLine
 10
917.3803229010323
 20
181.2921460319714
 30
0.0
 11
1490.380322901033
 21
181.2921460319714
 31
0.0
  0
LINE
  5
448
330
1F
100
AcDbEntity
  8
0-0
  6
JWW_DASHED1
 62
   120
370
     5
100
AcDbLine
 10
917.3803229010323
 20
182.2921460318716
 30
0.0
 11
1490.380322901033
 21
182.2921460318716
 31
0.0
  0
LINE
  5
449
330
1F
100
AcDbEntity
  8
0-0
  6
JWW_DASHED1
 62
   120
370
     5
100
AcDbLine
 10
917.3803229010323
 20
195.2921460329712
 30
0.0
 11
1490.380322901033
 21
195.2921460329712
 31
0.0
  0
LINE
  5
44A
330
1F
100
AcDbEntity
  8
0-0
  6
JWW_DASHED1
 62
   120
370
     5
100
AcDbLine
 10
917.3803229010323
 20
196.2921460328714
 30
0.0
 11
1490.380322901033
 21
196.2921460328714
 31
0.0
  0
LINE
  5
44B
330
1F
100
AcDbEntity
  8
0-0
  6
JWW_DASHED1
 62
   120
370
     5
100
AcDbLine
 10
917.3803229010323
 20
209.292146033971
 30
0.0
 11
1490.380322901033
 21
209.292146033971
 31
0.0
  0
LINE
  5
44C
330
1F
100
AcDbEntity
  8
0-0
  6
JWW_DASHED1
 62
   120
370
     5
100
AcDbLine
 10
917.3803229010323
 20
210.2921460338712
 30
0.0
 11
1490.380322901033
 21
210.2921460338712
 31
0.0
  0
LINE
  5
44D
330
1F
100
AcDbEntity
  8
0-0
  6
JWW_DASHED1
 62
   120
370
     5
100
AcDbLine
 10
917.3803229010323
 20
223.2921460349708
 30
0.0
 11
1490.380322901033
 21
223.2921460349708
 31
0.0
  0
LINE
  5
44E
330
1F
100
AcDbEntity
  8
0-0
  6
JWW_DASHED1
 62
   120
370
     5
100
AcDbLine
 10
917.3803229010323
 20
224.292146034871
 30
0.0
 11
1490.380322901033
 21
224.292146034871
 31
0.0
  0
LINE
  5
44F
330
1F
100
AcDbEntity
  8
0-0
  6
JWW_DASHED1
 62
   120
370
     5
100
AcDbLine
 10
917.3803229010323
 20
237.2921460359706
 30
0.0
 11
1490.380322901033
 21
237.2921460359706
 31
0.0
  0
LINE
  5
450
330
1F
100
AcDbEntity
  8
0-0
  6
JWW_DASHED1
 62
   120
370
     5
100
AcDbLine
 10
917.3803229010323
 20
238.2921460358708
 30
0.0
 11
1490.380322901033
 21
238.2921460358708
 31
0.0
  0
LINE
  5
451
330
1F
100
AcDbEntity
  8
0-0
  6
JWW_DASHED1
 62
   120
370
     5
100
AcDbLine
 10
917.3803229010323
 20
251.2921460369704
 30
0.0
 11
1490.380322901033
 21
251.2921460369704
 31
0.0
  0
LINE
  5
452
330
1F
100
AcDbEntity
  8
0-0
  6
JWW_DASHED1
 62
   120
370
     5
100
AcDbLine
 10
917.3803229010323
 20
252.2921460368705
 30
0.0
 11
1490.380322901033
 21
252.2921460368705
 31
0.0
  0
LINE
  5
453
330
1F
100
AcDbEntity
  8
0-0
  6
JWW_DASHED1
 62
   120
370
     5
100
AcDbLine
 10
917.3803229010323
 20
265.2921460379702
 30
0.0
 11
1490.380322901033
 21
265.2921460379702
 31
0.0
  0
LINE
  5
454
330
1F
100
AcDbEntity
  8
0-0
  6
JWW_DASHED1
 62
   120
370
     5
100
AcDbLine
 10
917.3803229010323
 20
266.2921460378703
 30
0.0
 11
1490.380322901033
 21
266.2921460378703
 31
0.0
  0
LINE
  5
455
330
1F
100
AcDbEntity
  8
0-0
  6
JWW_DASHED1
 62
   120
370
     5
100
AcDbLine
 10
917.3803229010323
 20
279.2921460389699
 30
0.0
 11
1490.380322901033
 21
279.2921460389699
 31
0.0
  0
LINE
  5
456
330
1F
100
AcDbEntity
  8
0-0
  6
JWW_DASHED1
 62
   120
370
     5
100
AcDbLine
 10
917.3803229010323
 20
280.2921460388701
 30
0.0
 11
1490.380322901033
 21
280.2921460388701
 31
0.0
  0
LINE
  5
457
330
1F
100
AcDbEntity
  8
0-0
  6
JWW_DASHED1
 62
   120
370
     5
100
AcDbLine
 10
917.3803229010323
 20
293.2921460399697
 30
0.0
 11
1490.380322901033
 21
293.2921460399697
 31
0.0
  0
LINE
  5
458
330
1F
100
AcDbEntity
  8
0-0
  6
JWW_DASHED1
 62
   120
370
     5
100
AcDbLine
 10
917.3803229010323
 20
294.2921460398699
 30
0.0
 11
1490.380322901033
 21
294.2921460398699
 31
0.0
  0
LINE
  5
459
330
1F
100
AcDbEntity
  8
0-0
  6
JWW_DASHED1
 62
   120
370
     5
100
AcDbLine
 10
917.3803229010323
 20
307.2921460409696
 30
0.0
 11
1490.380322901033
 21
307.2921460409696
 31
0.0
  0
LINE
  5
45A
330
1F
100
AcDbEntity
  8
0-0
  6
JWW_DASHED1
 62
   120
370
     5
100
AcDbLine
 10
917.3803229010323
 20
308.2921460408697
 30
0.0
 11
1490.380322901033
 21
308.2921460408697
 31
0.0
  0
LINE
  5
45B
330
1F
100
AcDbEntity
  8
0-0
  6
JWW_DASHED1
 62
   120
370
     5
100
AcDbLine
 10
917.3803229010323
 20
321.2921460419693
 30
0.0
 11
1490.380322901033
 21
321.2921460419693
 31
0.0
  0
LINE
  5
45C
330
1F
100
AcDbEntity
  8
0-0
  6
JWW_DASHED1
 62
   120
370
     5
100
AcDbLine
 10
917.3803229010323
 20
322.2921460418695
 30
0.0
 11
1490.380322901033
 21
322.2921460418695
 31
0.0
  0
LINE
  5
45D
330
1F
100
AcDbEntity
  8
0-0
  6
JWW_DASHED1
 62
   120
370
     5
100
AcDbLine
 10
917.3803229010323
 20
335.2921460429691
 30
0.0
 11
1490.380322901033
 21
335.2921460429691
 31
0.0
  0
LINE
  5
45E
330
1F
100
AcDbEntity
  8
0-0
  6
JWW_DASHED1
 62
   120
370
     5
100
AcDbLine
 10
917.3803229010323
 20
336.2921460428693
 30
0.0
 11
1490.380322901033
 21
336.2921460428693
 31
0.0
  0
LINE
  5
45F
330
1F
100
AcDbEntity
  8
0-0
  6
JWW_DASHED1
 62
   120
370
     5
100
AcDbLine
 10
917.3803229010323
 20
349.2921460439689
 30
0.0
 11
1490.380322901033
 21
349.2921460439689
 31
0.0
  0
LINE
  5
460
330
1F
100
AcDbEntity
  8
0-0
  6
JWW_DASHED1
 62
   120
370
     5
100
AcDbLine
 10
917.3803229010323
 20
350.2921460438691
 30
0.0
 11
1490.380322901033
 21
350.2921460438691
 31
0.0
  0
LINE
  5
461
330
1F
100
AcDbEntity
  8
0-0
  6
JWW_DASHED1
 62
   120
370
     5
100
AcDbLine
 10
917.3803229010323
 20
363.2921460449687
 30
0.0
 11
1490.380322901033
 21
363.2921460449687
 31
0.0
  0
LINE
  5
462
330
1F
100
AcDbEntity
  8
0-0
  6
JWW_DASHED1
 62
   120
370
     5
100
AcDbLine
 10
917.3803229010323
 20
364.2921460448689
 30
0.0
 11
1490.380322901033
 21
364.2921460448689
 31
0.0
  0
LINE
  5
463
330
1F
100
AcDbEntity
  8
0-0
  6
JWW_DASHED1
 62
   120
370
     5
100
AcDbLine
 10
917.3803229010323
 20
377.2921460459685
 30
0.0
 11
1490.380322901033
 21
377.2921460459685
 31
0.0
  0
LINE
  5
464
330
1F
100
AcDbEntity
  8
0-0
  6
JWW_DASHED1
 62
   120
370
     5
100
AcDbLine
 10
917.3803229010323
 20
378.2921460458687
 30
0.0
 11
1490.380322901033
 21
378.2921460458687
 31
0.0
  0
LINE
  5
465
330
1F
100
AcDbEntity
  8
0-0
  6
JWW_DASHED1
 62
   120
370
     5
100
AcDbLine
 10
917.3803229010323
 20
391.2921460469682
 30
0.0
 11
1490.380322901033
 21
391.2921460469682
 31
0.0
  0
LINE
  5
466
330
1F
100
AcDbEntity
  8
0-0
  6
JWW_DASHED1
 62
   120
370
     5
100
AcDbLine
 10
917.3803229010323
 20
392.2921460468684
 30
0.0
 11
1490.380322901033
 21
392.2921460468684
 31
0.0
  0
LINE
  5
467
330
1F
100
AcDbEntity
  8
0-0
  6
JWW_DASHED1
 62
   120
370
     5
100
AcDbLine
 10
917.3803229010323
 20
405.2921460479681
 30
0.0
 11
1490.380322901033
 21
405.2921460479681
 31
0.0
  0
LINE
  5
468
330
1F
100
AcDbEntity
  8
0-0
  6
JWW_DASHED1
 62
   120
370
     5
100
AcDbLine
 10
917.3803229010323
 20
406.2921460478682
 30
0.0
 11
1490.380322901033
 21
406.2921460478682
 31
0.0
  0
LINE
  5
469
330
1F
100
AcDbEntity
  8
0-0
  6
JWW_DASHED1
 62
   120
370
     5
100
AcDbLine
 10
917.3803229010323
 20
419.2921460489679
 30
0.0
 11
1490.380322901033
 21
419.2921460489679
 31
0.0
  0
LINE
  5
46A
330
1F
100
AcDbEntity
  8
0-0
  6
JWW_DASHED1
 62
   120
370
     5
100
AcDbLine
 10
917.3803229010323
 20
420.2921460488681
 30
0.0
 11
1490.380322901033
 21
420.2921460488681
 31
0.0
  0
LINE
  5
46B
330
1F
100
AcDbEntity
  8
0-0
  6
JWW_DASHED1
 62
   120
370
     5
100
AcDbLine
 10
917.3803229010323
 20
433.2921460499676
 30
0.0
 11
1490.380322901033
 21
433.2921460499676
 31
0.0
  0
LINE
  5
46C
330
1F
100
AcDbEntity
  8
0-0
  6
JWW_DASHED1
 62
   120
370
     5
100
AcDbLine
 10
917.3803229010323
 20
434.2921460498678
 30
0.0
 11
1490.380322901033
 21
434.2921460498678
 31
0.0
  0
LINE
  5
46D
330
1F
100
AcDbEntity
  8
0-0
  6
JWW_DASHED1
 62
   120
370
     5
100
AcDbLine
 10
917.3803229010323
 20
447.2921460509674
 30
0.0
 11
1490.380322901033
 21
447.2921460509674
 31
0.0
  0
LINE
  5
46E
330
1F
100
AcDbEntity
  8
0-0
  6
JWW_DASHED1
 62
   120
370
     5
100
AcDbLine
 10
917.3803229010323
 20
448.2921460508676
 30
0.0
 11
1490.380322901033
 21
448.2921460508676
 31
0.0
  0
LINE
  5
46F
330
1F
100
AcDbEntity
  8
0-0
  6
JWW_DASHED1
 62
   120
370
     5
100
AcDbLine
 10
917.3803229010323
 20
461.2921460519672
 30
0.0
 11
1490.380322901033
 21
461.2921460519672
 31
0.0
  0
LINE
  5
470
330
1F
100
AcDbEntity
  8
0-0
  6
JWW_DASHED1
 62
   120
370
     5
100
AcDbLine
 10
917.3803229010323
 20
462.2921460518674
 30
0.0
 11
1490.380322901033
 21
462.2921460518674
 31
0.0
  0
LINE
  5
471
330
1F
100
AcDbEntity
  8
0-0
  6
JWW_DASHED1
 62
   120
370
     5
100
AcDbLine
 10
917.3803229010323
 20
475.292146052967
 30
0.0
 11
1490.380322901033
 21
475.292146052967
 31
0.0
  0
LINE
  5
472
330
1F
100
AcDbEntity
  8
0-0
  6
JWW_DASHED1
 62
   120
370
     5
100
AcDbLine
 10
917.3803229010323
 20
476.2921460528672
 30
0.0
 11
1490.380322901033
 21
476.2921460528672
 31
0.0
  0
LINE
  5
473
330
1F
100
AcDbEntity
  8
0-0
  6
JWW_DASHED1
 62
   120
370
     5
100
AcDbLine
 10
917.3803229010323
 20
489.2921460539668
 30
0.0
 11
1490.380322901033
 21
489.2921460539668
 31
0.0
  0
LINE
  5
474
330
1F
100
AcDbEntity
  8
0-0
  6
JWW_DASHED1
 62
   120
370
     5
100
AcDbLine
 10
917.3803229010323
 20
490.292146053867
 30
0.0
 11
1490.380322901033
 21
490.292146053867
 31
0.0
  0
LINE
  5
475
330
1F
100
AcDbEntity
  8
0-0
  6
JWW_DASHED1
 62
   120
370
     5
100
AcDbLine
 10
917.3803229010323
 20
503.2921460549666
 30
0.0
 11
1490.380322901033
 21
503.2921460549666
 31
0.0
  0
LINE
  5
476
330
1F
100
AcDbEntity
  8
0-0
  6
JWW_DASHED1
 62
   120
370
     5
100
AcDbLine
 10
917.3803229010323
 20
504.2921460548667
 30
0.0
 11
1490.380322901033
 21
504.2921460548667
 31
0.0
  0
LINE
  5
477
330
1F
100
AcDbEntity
  8
0-0
  6
JWW_DASHED1
 62
   120
370
     5
100
AcDbLine
 10
917.3803229010323
 20
517.2921460559664
 30
0.0
 11
1490.380322901033
 21
517.2921460559664
 31
0.0
  0
LINE
  5
478
330
1F
100
AcDbEntity
  8
0-0
  6
JWW_DASHED1
 62
   120
370
     5
100
AcDbLine
 10
917.3803229010323
 20
518.2921460558666
 30
0.0
 11
1490.380322901033
 21
518.2921460558666
 31
0.0
  0
LINE
  5
479
330
1F
100
AcDbEntity
  8
0-0
  6
JWW_DASHED1
 62
   120
370
     5
100
AcDbLine
 10
917.3803229010323
 20
531.2921460569662
 30
0.0
 11
1490.380322901033
 21
531.2921460569662
 31
0.0
  0
LINE
  5
47A
330
1F
100
AcDbEntity
  8
0-0
  6
JWW_DASHED1
 62
   120
370
     5
100
AcDbLine
 10
917.3803229010323
 20
532.2921460568664
 30
0.0
 11
1490.380322901033
 21
532.2921460568664
 31
0.0
  0
LINE
  5
47B
330
1F
100
AcDbEntity
  8
0-0
  6
JWW_DASHED1
 62
   120
370
     5
100
AcDbLine
 10
917.3803229010323
 20
545.292146057966
 30
0.0
 11
1490.380322901033
 21
545.292146057966
 31
0.0
  0
LINE
  5
47C
330
1F
100
AcDbEntity
  8
0-0
  6
JWW_DASHED1
 62
   120
370
     5
100
AcDbLine
 10
917.3803229010323
 20
546.2921460578661
 30
0.0
 11
1490.380322901033
 21
546.2921460578661
 31
0.0
  0
LINE
  5
47D
330
1F
100
AcDbEntity
  8
0-0
  6
JWW_DASHED1
 62
   120
370
     5
100
AcDbLine
 10
917.3803229010323
 20
559.2921460589657
 30
0.0
 11
1490.380322901033
 21
559.2921460589657
 31
0.0
  0
LINE
  5
47E
330
1F
100
AcDbEntity
  8
0-0
  6
JWW_DASHED1
 62
   120
370
     5
100
AcDbLine
 10
917.3803229010323
 20
560.2921460588659
 30
0.0
 11
1490.380322901033
 21
560.2921460588659
 31
0.0
  0
LINE
  5
47F
330
1F
100
AcDbEntity
  8
0-0
  6
JWW_DASHED1
 62
   120
370
     5
100
AcDbLine
 10
917.3803229010323
 20
573.2921460599655
 30
0.0
 11
1490.380322901033
 21
573.2921460599655
 31
0.0
  0
LINE
  5
480
330
1F
100
AcDbEntity
  8
0-0
  6
JWW_DASHED1
 62
   120
370
     5
100
AcDbLine
 10
917.3803229010323
 20
574.2921460598657
 30
0.0
 11
1490.380322901033
 21
574.2921460598657
 31
0.0
  0
LINE
  5
481
330
1F
100
AcDbEntity
  8
0-0
  6
JWW_DASHED1
 62
   120
370
     5
100
AcDbLine
 10
917.3803229010323
 20
587.2921460609654
 30
0.0
 11
1490.380322901033
 21
587.2921460609654
 31
0.0
  0
LINE
  5
482
330
1F
100
AcDbEntity
  8
0-0
  6
JWW_DASHED1
 62
   120
370
     5
100
AcDbLine
 10
917.3803229010323
 20
588.2921460608655
 30
0.0
 11
1490.380322901033
 21
588.2921460608655
 31
0.0
  0
LINE
  5
483
330
1F
100
AcDbEntity
  8
0-0
  6
JWW_DASHED1
 62
   120
370
     5
100
AcDbLine
 10
917.3803229010323
 20
601.2921460619651
 30
0.0
 11
1490.380322901033
 21
601.2921460619651
 31
0.0
  0
LINE
  5
484
330
1F
100
AcDbEntity
  8
0-0
  6
JWW_DASHED1
 62
   120
370
     5
100
AcDbLine
 10
917.3803229010323
 20
602.2921460618653
 30
0.0
 11
1490.380322901033
 21
602.2921460618653
 31
0.0
  0
LINE
  5
485
330
1F
100
AcDbEntity
  8
0-0
  6
JWW_DASHED1
 62
   120
370
     5
100
AcDbLine
 10
917.3803229010323
 20
615.2921460629649
 30
0.0
 11
1490.380322901033
 21
615.2921460629649
 31
0.0
  0
LINE
  5
486
330
1F
100
AcDbEntity
  8
0-0
  6
JWW_DASHED1
 62
   120
370
     5
100
AcDbLine
 10
917.3803229010323
 20
616.2921460628651
 30
0.0
 11
1490.380322901033
 21
616.2921460628651
 31
0.0
  0
LINE
  5
487
330
1F
100
AcDbEntity
  8
0-0
  6
JWW_DASHED1
 62
   120
370
     5
100
AcDbLine
 10
917.3803229010323
 20
629.2921460639648
 30
0.0
 11
1490.380322901033
 21
629.2921460639648
 31
0.0
  0
LINE
  5
488
330
1F
100
AcDbEntity
  8
0-0
  6
JWW_DASHED1
 62
   120
370
     5
100
AcDbLine
 10
917.3803229010323
 20
630.292146063865
 30
0.0
 11
1490.380322901033
 21
630.292146063865
 31
0.0
  0
LINE
  5
489
330
1F
100
AcDbEntity
  8
0-0
  6
JWW_DASHED1
 62
   120
370
     5
100
AcDbLine
 10
917.3803229010323
 20
643.2921460649645
 30
0.0
 11
1490.380322901033
 21
643.2921460649645
 31
0.0
  0
LINE
  5
48A
330
1F
100
AcDbEntity
  8
0-0
  6
JWW_DASHED1
 62
   120
370
     5
100
AcDbLine
 10
917.3803229010323
 20
644.2921460648647
 30
0.0
 11
1490.380322901033
 21
644.2921460648647
 31
0.0
  0
LINE
  5
48B
330
1F
100
AcDbEntity
  8
0-0
  6
JWW_DASHED1
 62
   120
370
     5
100
AcDbLine
 10
923.3803413590641
 20
-462.7077057001752
 30
0.0
 11
923.3803413590641
 21
712.292294299825
 31
0.0
  0
LINE
  5
48C
330
1F
100
AcDbEntity
  8
0-0
  6
JWW_DASHED1
 62
   120
370
     5
100
AcDbLine
 10
1456.380341396965
 20
-462.7077057001752
 30
0.0
 11
1456.380341396965
 21
712.292294299825
 31
0.0
  0
LINE
  5
48D
330
1F
100
AcDbEntity
  8
0-0
  6
JWW_DASHED1
 62
   120
370
     5
100
AcDbLine
 10
1455.380341397065
 20
-462.7077057001752
 30
0.0
 11
1455.380341397065
 21
712.292294299825
 31
0.0
  0
LINE
  5
48E
330
1F
100
AcDbEntity
  8
0-0
  6
JWW_DASHED1
 62
   120
370
     5
100
AcDbLine
 10
1442.380341395965
 20
-462.7077057001752
 30
0.0
 11
1442.380341395965
 21
712.292294299825
 31
0.0
  0
LINE
  5
48F
330
1F
100
AcDbEntity
  8
0-0
  6
JWW_DASHED1
 62
   120
370
     5
100
AcDbLine
 10
1441.380341396065
 20
-462.7077057001752
 30
0.0
 11
1441.380341396065
 21
712.292294299825
 31
0.0
  0
LINE
  5
490
330
1F
100
AcDbEntity
  8
0-0
  6
JWW_DASHED1
 62
   120
370
     5
100
AcDbLine
 10
1428.380341394964
 20
-462.7077057001752
 30
0.0
 11
1428.380341394964
 21
712.292294299825
 31
0.0
  0
LINE
  5
491
330
1F
100
AcDbEntity
  8
0-0
  6
JWW_DASHED1
 62
   120
370
     5
100
AcDbLine
 10
1427.380341395064
 20
-462.7077057001752
 30
0.0
 11
1427.380341395064
 21
712.292294299825
 31
0.0
  0
LINE
  5
492
330
1F
100
AcDbEntity
  8
0-0
  6
JWW_DASHED1
 62
   120
370
     5
100
AcDbLine
 10
1414.380341393964
 20
-462.7077057001752
 30
0.0
 11
1414.380341393964
 21
712.292294299825
 31
0.0
  0
LINE
  5
493
330
1F
100
AcDbEntity
  8
0-0
  6
JWW_DASHED1
 62
   120
370
     5
100
AcDbLine
 10
1413.380341394064
 20
-462.7077057001752
 30
0.0
 11
1413.380341394064
 21
712.292294299825
 31
0.0
  0
LINE
  5
494
330
1F
100
AcDbEntity
  8
0-0
  6
JWW_DASHED1
 62
   120
370
     5
100
AcDbLine
 10
1400.380341392964
 20
-462.7077057001752
 30
0.0
 11
1400.380341392964
 21
712.292294299825
 31
0.0
  0
LINE
  5
495
330
1F
100
AcDbEntity
  8
0-0
  6
JWW_DASHED1
 62
   120
370
     5
100
AcDbLine
 10
1399.380341393064
 20
-462.7077057001752
 30
0.0
 11
1399.380341393065
 21
712.292294299825
 31
0.0
  0
LINE
  5
496
330
1F
100
AcDbEntity
  8
0-0
  6
JWW_DASHED1
 62
   120
370
     5
100
AcDbLine
 10
1386.380341391964
 20
-462.7077057001752
 30
0.0
 11
1386.380341391965
 21
712.292294299825
 31
0.0
  0
LINE
  5
497
330
1F
100
AcDbEntity
  8
0-0
  6
JWW_DASHED1
 62
   120
370
     5
100
AcDbLine
 10
1385.380341392065
 20
-462.7077057001752
 30
0.0
 11
1385.380341392065
 21
712.292294299825
 31
0.0
  0
LINE
  5
498
330
1F
100
AcDbEntity
  8
0-0
  6
JWW_DASHED1
 62
   120
370
     5
100
AcDbLine
 10
1372.380341390965
 20
-462.7077057001752
 30
0.0
 11
1372.380341390965
 21
712.292294299825
 31
0.0
  0
LINE
  5
499
330
1F
100
AcDbEntity
  8
0-0
  6
JWW_DASHED1
 62
   120
370
     5
100
AcDbLine
 10
1371.380341391064
 20
-462.7077057001752
 30
0.0
 11
1371.380341391064
 21
712.292294299825
 31
0.0
  0
LINE
  5
49A
330
1F
100
AcDbEntity
  8
0-0
  6
JWW_DASHED1
 62
   120
370
     5
100
AcDbLine
 10
1358.380341389965
 20
-462.7077057001752
 30
0.0
 11
1358.380341389965
 21
712.292294299825
 31
0.0
  0
LINE
  5
49B
330
1F
100
AcDbEntity
  8
0-0
  6
JWW_DASHED1
 62
   120
370
     5
100
AcDbLine
 10
1357.380341390065
 20
-462.7077057001752
 30
0.0
 11
1357.380341390065
 21
712.292294299825
 31
0.0
  0
LINE
  5
49C
330
1F
100
AcDbEntity
  8
0-0
  6
JWW_DASHED1
 62
   120
370
     5
100
AcDbLine
 10
1344.380341388965
 20
-462.7077057001752
 30
0.0
 11
1344.380341388965
 21
712.292294299825
 31
0.0
  0
LINE
  5
49D
330
1F
100
AcDbEntity
  8
0-0
  6
JWW_DASHED1
 62
   120
370
     5
100
AcDbLine
 10
1343.380341389065
 20
-462.7077057001752
 30
0.0
 11
1343.380341389065
 21
712.292294299825
 31
0.0
  0
LINE
  5
49E
330
1F
100
AcDbEntity
  8
0-0
  6
JWW_DASHED1
 62
   120
370
     5
100
AcDbLine
 10
1330.380341387965
 20
-462.7077057001752
 30
0.0
 11
1330.380341387965
 21
712.292294299825
 31
0.0
  0
LINE
  5
49F
330
1F
100
AcDbEntity
  8
0-0
  6
JWW_DASHED1
 62
   120
370
     5
100
AcDbLine
 10
1329.380341388064
 20
-462.7077057001752
 30
0.0
 11
1329.380341388064
 21
712.292294299825
 31
0.0
  0
LINE
  5
4A0
330
1F
100
AcDbEntity
  8
0-0
  6
JWW_DASHED1
 62
   120
370
     5
100
AcDbLine
 10
1316.380341386964
 20
-462.7077057001752
 30
0.0
 11
1316.380341386964
 21
712.292294299825
 31
0.0
  0
LINE
  5
4A1
330
1F
100
AcDbEntity
  8
0-0
  6
JWW_DASHED1
 62
   120
370
     5
100
AcDbLine
 10
1315.380341387064
 20
-462.7077057001752
 30
0.0
 11
1315.380341387064
 21
712.292294299825
 31
0.0
  0
LINE
  5
4A2
330
1F
100
AcDbEntity
  8
0-0
  6
JWW_DASHED1
 62
   120
370
     5
100
AcDbLine
 10
1302.380341385964
 20
-462.7077057001752
 30
0.0
 11
1302.380341385964
 21
712.292294299825
 31
0.0
  0
LINE
  5
4A3
330
1F
100
AcDbEntity
  8
0-0
  6
JWW_DASHED1
 62
   120
370
     5
100
AcDbLine
 10
1301.380341386064
 20
-462.7077057001752
 30
0.0
 11
1301.380341386064
 21
712.292294299825
 31
0.0
  0
LINE
  5
4A4
330
1F
100
AcDbEntity
  8
0-0
  6
JWW_DASHED1
 62
   120
370
     5
100
AcDbLine
 10
1288.380341384965
 20
-462.7077057001752
 30
0.0
 11
1288.380341384965
 21
712.292294299825
 31
0.0
  0
LINE
  5
4A5
330
1F
100
AcDbEntity
  8
0-0
  6
JWW_DASHED1
 62
   120
370
     5
100
AcDbLine
 10
1287.380341385065
 20
-462.7077057001752
 30
0.0
 11
1287.380341385065
 21
712.292294299825
 31
0.0
  0
LINE
  5
4A6
330
1F
100
AcDbEntity
  8
0-0
  6
JWW_DASHED1
 62
   120
370
     5
100
AcDbLine
 10
1274.380341383965
 20
-462.7077057001752
 30
0.0
 11
1274.380341383965
 21
712.292294299825
 31
0.0
  0
LINE
  5
4A7
330
1F
100
AcDbEntity
  8
0-0
  6
JWW_DASHED1
 62
   120
370
     5
100
AcDbLine
 10
1273.380341384064
 20
-462.7077057001752
 30
0.0
 11
1273.380341384064
 21
712.292294299825
 31
0.0
  0
LINE
  5
4A8
330
1F
100
AcDbEntity
  8
0-0
  6
JWW_DASHED1
 62
   120
370
     5
100
AcDbLine
 10
1260.380341382964
 20
-462.7077057001752
 30
0.0
 11
1260.380341382964
 21
712.292294299825
 31
0.0
  0
LINE
  5
4A9
330
1F
100
AcDbEntity
  8
0-0
  6
JWW_DASHED1
 62
   120
370
     5
100
AcDbLine
 10
1259.380341383064
 20
-462.7077057001752
 30
0.0
 11
1259.380341383064
 21
712.292294299825
 31
0.0
  0
LINE
  5
4AA
330
1F
100
AcDbEntity
  8
0-0
  6
JWW_DASHED1
 62
   120
370
     5
100
AcDbLine
 10
1246.380341381965
 20
-462.7077057001752
 30
0.0
 11
1246.380341381965
 21
712.292294299825
 31
0.0
  0
LINE
  5
4AB
330
1F
100
AcDbEntity
  8
0-0
  6
JWW_DASHED1
 62
   120
370
     5
100
AcDbLine
 10
1245.380341382065
 20
-462.7077057001752
 30
0.0
 11
1245.380341382065
 21
712.292294299825
 31
0.0
  0
LINE
  5
4AC
330
1F
100
AcDbEntity
  8
0-0
  6
JWW_DASHED1
 62
   120
370
     5
100
AcDbLine
 10
1232.380341380965
 20
-462.7077057001752
 30
0.0
 11
1232.380341380965
 21
712.292294299825
 31
0.0
  0
LINE
  5
4AD
330
1F
100
AcDbEntity
  8
0-0
  6
JWW_DASHED1
 62
   120
370
     5
100
AcDbLine
 10
1231.380341381065
 20
-462.7077057001752
 30
0.0
 11
1231.380341381065
 21
712.292294299825
 31
0.0
  0
LINE
  5
4AE
330
1F
100
AcDbEntity
  8
0-0
  6
JWW_DASHED1
 62
   120
370
     5
100
AcDbLine
 10
1218.380341379965
 20
-462.7077057001752
 30
0.0
 11
1218.380341379965
 21
712.292294299825
 31
0.0
  0
LINE
  5
4AF
330
1F
100
AcDbEntity
  8
0-0
  6
JWW_DASHED1
 62
   120
370
     5
100
AcDbLine
 10
1217.380341380064
 20
-462.7077057001752
 30
0.0
 11
1217.380341380064
 21
712.292294299825
 31
0.0
  0
LINE
  5
4B0
330
1F
100
AcDbEntity
  8
0-0
  6
JWW_DASHED1
 62
   120
370
     5
100
AcDbLine
 10
1204.380341378964
 20
-462.7077057001752
 30
0.0
 11
1204.380341378964
 21
712.292294299825
 31
0.0
  0
LINE
  5
4B1
330
1F
100
AcDbEntity
  8
0-0
  6
JWW_DASHED1
 62
   120
370
     5
100
AcDbLine
 10
1203.380341379064
 20
-462.7077057001752
 30
0.0
 11
1203.380341379064
 21
712.292294299825
 31
0.0
  0
LINE
  5
4B2
330
1F
100
AcDbEntity
  8
0-0
  6
JWW_DASHED1
 62
   120
370
     5
100
AcDbLine
 10
1190.380341377964
 20
-462.7077057001752
 30
0.0
 11
1190.380341377964
 21
712.292294299825
 31
0.0
  0
LINE
  5
4B3
330
1F
100
AcDbEntity
  8
0-0
  6
JWW_DASHED1
 62
   120
370
     5
100
AcDbLine
 10
1189.380341378064
 20
-462.7077057001752
 30
0.0
 11
1189.380341378064
 21
712.292294299825
 31
0.0
  0
LINE
  5
4B4
330
1F
100
AcDbEntity
  8
0-0
  6
JWW_DASHED1
 62
   120
370
     5
100
AcDbLine
 10
1176.380341376965
 20
-462.7077057001752
 30
0.0
 11
1176.380341376965
 21
712.292294299825
 31
0.0
  0
LINE
  5
4B5
330
1F
100
AcDbEntity
  8
0-0
  6
JWW_DASHED1
 62
   120
370
     5
100
AcDbLine
 10
1175.380341377065
 20
-462.7077057001752
 30
0.0
 11
1175.380341377065
 21
712.292294299825
 31
0.0
  0
LINE
  5
4B6
330
1F
100
AcDbEntity
  8
0-0
  6
JWW_DASHED1
 62
   120
370
     5
100
AcDbLine
 10
1162.380341375965
 20
-462.7077057001752
 30
0.0
 11
1162.380341375965
 21
712.292294299825
 31
0.0
  0
LINE
  5
4B7
330
1F
100
AcDbEntity
  8
0-0
  6
JWW_DASHED1
 62
   120
370
     5
100
AcDbLine
 10
1161.380341376064
 20
-462.7077057001752
 30
0.0
 11
1161.380341376064
 21
712.292294299825
 31
0.0
  0
LINE
  5
4B8
330
1F
100
AcDbEntity
  8
0-0
  6
JWW_DASHED1
 62
   120
370
     5
100
AcDbLine
 10
1148.380341374964
 20
-462.7077057001752
 30
0.0
 11
1148.380341374964
 21
712.292294299825
 31
0.0
  0
LINE
  5
4B9
330
1F
100
AcDbEntity
  8
0-0
  6
JWW_DASHED1
 62
   120
370
     5
100
AcDbLine
 10
1147.380341375064
 20
-462.7077057001752
 30
0.0
 11
1147.380341375064
 21
712.292294299825
 31
0.0
  0
LINE
  5
4BA
330
1F
100
AcDbEntity
  8
0-0
  6
JWW_DASHED1
 62
   120
370
     5
100
AcDbLine
 10
1134.380341373965
 20
-462.7077057001752
 30
0.0
 11
1134.380341373965
 21
712.292294299825
 31
0.0
  0
LINE
  5
4BB
330
1F
100
AcDbEntity
  8
0-0
  6
JWW_DASHED1
 62
   120
370
     5
100
AcDbLine
 10
1133.380341374065
 20
-462.7077057001752
 30
0.0
 11
1133.380341374065
 21
712.292294299825
 31
0.0
  0
LINE
  5
4BC
330
1F
100
AcDbEntity
  8
0-0
  6
JWW_DASHED1
 62
   120
370
     5
100
AcDbLine
 10
1120.380341372965
 20
-462.7077057001752
 30
0.0
 11
1120.380341372965
 21
712.292294299825
 31
0.0
  0
LINE
  5
4BD
330
1F
100
AcDbEntity
  8
0-0
  6
JWW_DASHED1
 62
   120
370
     5
100
AcDbLine
 10
1119.380341373065
 20
-462.7077057001752
 30
0.0
 11
1119.380341373065
 21
712.292294299825
 31
0.0
  0
LINE
  5
4BE
330
1F
100
AcDbEntity
  8
0-0
  6
JWW_DASHED1
 62
   120
370
     5
100
AcDbLine
 10
1106.380341371965
 20
-462.7077057001752
 30
0.0
 11
1106.380341371965
 21
712.292294299825
 31
0.0
  0
LINE
  5
4BF
330
1F
100
AcDbEntity
  8
0-0
  6
JWW_DASHED1
 62
   120
370
     5
100
AcDbLine
 10
1105.380341372064
 20
-462.7077057001752
 30
0.0
 11
1105.380341372064
 21
712.292294299825
 31
0.0
  0
LINE
  5
4C0
330
1F
100
AcDbEntity
  8
0-0
  6
JWW_DASHED1
 62
   120
370
     5
100
AcDbLine
 10
1092.380341370964
 20
-462.7077057001752
 30
0.0
 11
1092.380341370964
 21
712.292294299825
 31
0.0
  0
LINE
  5
4C1
330
1F
100
AcDbEntity
  8
0-0
  6
JWW_DASHED1
 62
   120
370
     5
100
AcDbLine
 10
1091.380341371064
 20
-462.7077057001752
 30
0.0
 11
1091.380341371064
 21
712.292294299825
 31
0.0
  0
LINE
  5
4C2
330
1F
100
AcDbEntity
  8
0-0
  6
JWW_DASHED1
 62
   120
370
     5
100
AcDbLine
 10
1078.380341369964
 20
-462.7077057001752
 30
0.0
 11
1078.380341369964
 21
712.292294299825
 31
0.0
  0
LINE
  5
4C3
330
1F
100
AcDbEntity
  8
0-0
  6
JWW_DASHED1
 62
   120
370
     5
100
AcDbLine
 10
1077.380341370064
 20
-462.7077057001752
 30
0.0
 11
1077.380341370064
 21
712.292294299825
 31
0.0
  0
LINE
  5
4C4
330
1F
100
AcDbEntity
  8
0-0
  6
JWW_DASHED1
 62
   120
370
     5
100
AcDbLine
 10
1064.380341368965
 20
-462.7077057001752
 30
0.0
 11
1064.380341368965
 21
712.292294299825
 31
0.0
  0
LINE
  5
4C5
330
1F
100
AcDbEntity
  8
0-0
  6
JWW_DASHED1
 62
   120
370
     5
100
AcDbLine
 10
1063.380341369065
 20
-462.7077057001752
 30
0.0
 11
1063.380341369065
 21
712.292294299825
 31
0.0
  0
LINE
  5
4C6
330
1F
100
AcDbEntity
  8
0-0
  6
JWW_DASHED1
 62
   120
370
     5
100
AcDbLine
 10
1050.380341367965
 20
-462.7077057001752
 30
0.0
 11
1050.380341367965
 21
712.292294299825
 31
0.0
  0
LINE
  5
4C7
330
1F
100
AcDbEntity
  8
0-0
  6
JWW_DASHED1
 62
   120
370
     5
100
AcDbLine
 10
1049.380341368064
 20
-462.7077057001752
 30
0.0
 11
1049.380341368064
 21
712.292294299825
 31
0.0
  0
LINE
  5
4C8
330
1F
100
AcDbEntity
  8
0-0
  6
JWW_DASHED1
 62
   120
370
     5
100
AcDbLine
 10
1036.380341366964
 20
-462.7077057001752
 30
0.0
 11
1036.380341366964
 21
712.292294299825
 31
0.0
  0
LINE
  5
4C9
330
1F
100
AcDbEntity
  8
0-0
  6
JWW_DASHED1
 62
   120
370
     5
100
AcDbLine
 10
1035.380341367064
 20
-462.7077057001752
 30
0.0
 11
1035.380341367064
 21
712.292294299825
 31
0.0
  0
LINE
  5
4CA
330
1F
100
AcDbEntity
  8
0-0
  6
JWW_DASHED1
 62
   120
370
     5
100
AcDbLine
 10
1022.380341365965
 20
-462.7077057001752
 30
0.0
 11
1022.380341365965
 21
712.292294299825
 31
0.0
  0
LINE
  5
4CB
330
1F
100
AcDbEntity
  8
0-0
  6
JWW_DASHED1
 62
   120
370
     5
100
AcDbLine
 10
1021.380341366065
 20
-462.7077057001752
 30
0.0
 11
1021.380341366065
 21
712.292294299825
 31
0.0
  0
LINE
  5
4CC
330
1F
100
AcDbEntity
  8
0-0
  6
JWW_DASHED1
 62
   120
370
     5
100
AcDbLine
 10
1008.380341364965
 20
-462.7077057001752
 30
0.0
 11
1008.380341364965
 21
712.292294299825
 31
0.0
  0
LINE
  5
4CD
330
1F
100
AcDbEntity
  8
0-0
  6
JWW_DASHED1
 62
   120
370
     5
100
AcDbLine
 10
1007.380341365065
 20
-462.7077057001752
 30
0.0
 11
1007.380341365065
 21
712.292294299825
 31
0.0
  0
LINE
  5
4CE
330
1F
100
AcDbEntity
  8
0-0
  6
JWW_DASHED1
 62
   120
370
     5
100
AcDbLine
 10
994.3803413639646
 20
-462.7077057001752
 30
0.0
 11
994.3803413639646
 21
712.292294299825
 31
0.0
  0
LINE
  5
4CF
330
1F
100
AcDbEntity
  8
0-0
  6
JWW_DASHED1
 62
   120
370
     5
100
AcDbLine
 10
993.3803413640644
 20
-462.7077057001752
 30
0.0
 11
993.3803413640644
 21
712.292294299825
 31
0.0
  0
LINE
  5
4D0
330
1F
100
AcDbEntity
  8
0-0
  6
JWW_DASHED1
 62
   120
370
     5
100
AcDbLine
 10
980.3803413629644
 20
-462.7077057001752
 30
0.0
 11
980.3803413629644
 21
712.292294299825
 31
0.0
  0
LINE
  5
4D1
330
1F
100
AcDbEntity
  8
0-0
  6
JWW_DASHED1
 62
   120
370
     5
100
AcDbLine
 10
979.3803413630642
 20
-462.7077057001752
 30
0.0
 11
979.3803413630642
 21
712.292294299825
 31
0.0
  0
LINE
  5
4D2
330
1F
100
AcDbEntity
  8
0-0
  6
JWW_DASHED1
 62
   120
370
     5
100
AcDbLine
 10
966.3803413619642
 20
-462.7077057001752
 30
0.0
 11
966.3803413619642
 21
712.292294299825
 31
0.0
  0
LINE
  5
4D3
330
1F
100
AcDbEntity
  8
0-0
  6
JWW_DASHED1
 62
   120
370
     5
100
AcDbLine
 10
965.380341362064
 20
-462.7077057001752
 30
0.0
 11
965.380341362064
 21
712.292294299825
 31
0.0
  0
LINE
  5
4D4
330
1F
100
AcDbEntity
  8
0-0
  6
JWW_DASHED1
 62
   120
370
     5
100
AcDbLine
 10
952.3803413609647
 20
-462.7077057001752
 30
0.0
 11
952.3803413609647
 21
712.292294299825
 31
0.0
  0
LINE
  5
4D5
330
1F
100
AcDbEntity
  8
0-0
  6
JWW_DASHED1
 62
   120
370
     5
100
AcDbLine
 10
951.3803413610646
 20
-462.7077057001752
 30
0.0
 11
951.3803413610646
 21
712.292294299825
 31
0.0
  0
LINE
  5
4D6
330
1F
100
AcDbEntity
  8
0-0
  6
JWW_DASHED1
 62
   120
370
     5
100
AcDbLine
 10
938.3803413599645
 20
-462.7077057001752
 30
0.0
 11
938.3803413599645
 21
712.292294299825
 31
0.0
  0
LINE
  5
4D7
330
1F
100
AcDbEntity
  8
0-0
  6
JWW_DASHED1
 62
   120
370
     5
100
AcDbLine
 10
937.3803413600643
 20
-462.7077057001752
 30
0.0
 11
937.3803413600643
 21
712.292294299825
 31
0.0
  0
LINE
  5
4D8
330
1F
100
AcDbEntity
  8
0-0
  6
JWW_DASHED1
 62
   120
370
     5
100
AcDbLine
 10
924.3803413589643
 20
-462.7077057001752
 30
0.0
 11
924.3803413589643
 21
712.292294299825
 31
0.0
  0
LINE
  5
4D9
330
1F
100
AcDbEntity
  8
0-0
  6
JWW_DASHED1
 62
   120
370
     5
100
AcDbLine
 10
1484.380341398964
 20
-462.7077057001752
 30
0.0
 11
1484.380341398964
 21
712.292294299825
 31
0.0
  0
LINE
  5
4DA
330
1F
100
AcDbEntity
  8
0-0
  6
JWW_DASHED1
 62
   120
370
     5
100
AcDbLine
 10
1469.380341398064
 20
-462.7077057001752
 30
0.0
 11
1469.380341398064
 21
712.292294299825
 31
0.0
  0
LINE
  5
4DB
330
1F
100
AcDbEntity
  8
0-0
  6
JWW_DASHED1
 62
   120
370
     5
100
AcDbLine
 10
1483.380341399064
 20
-462.7077057001752
 30
0.0
 11
1483.380341399064
 21
712.292294299825
 31
0.0
  0
LINE
  5
4DC
330
1F
100
AcDbEntity
  8
0-0
  6
JWW_DASHED1
 62
   120
370
     5
100
AcDbLine
 10
1470.380341397964
 20
-462.7077057001752
 30
0.0
 11
1470.380341397964
 21
712.292294299825
 31
0.0
  0
LINE
  5
4DD
330
1F
100
AcDbEntity
  8
0-0
  6
JWW_DASHED1
 62
   120
370
     5
100
AcDbLine
 10
917.3803229010332
 20
700.2921460688639
 30
0.0
 11
1490.380322901032
 21
700.2921460688639
 31
0.0
  0
LINE
  5
4DE
330
1F
100
AcDbEntity
  8
0-0
  6
JWW_DASHED1
 62
   120
370
     5
100
AcDbLine
 10
917.3803229010332
 20
657.2921460659643
 30
0.0
 11
1490.380322901032
 21
657.2921460659643
 31
0.0
  0
LINE
  5
4DF
330
1F
100
AcDbEntity
  8
0-0
  6
JWW_DASHED1
 62
   120
370
     5
100
AcDbLine
 10
917.3803229010332
 20
658.2921460658645
 30
0.0
 11
1490.380322901032
 21
658.2921460658645
 31
0.0
  0
LINE
  5
4E0
330
1F
100
AcDbEntity
  8
0-0
  6
JWW_DASHED1
 62
   120
370
     5
100
AcDbLine
 10
917.3803229010332
 20
671.292146066964
 30
0.0
 11
1490.380322901032
 21
671.292146066964
 31
0.0
  0
LINE
  5
4E1
330
1F
100
AcDbEntity
  8
0-0
  6
JWW_DASHED1
 62
   120
370
     5
100
AcDbLine
 10
917.3803229010332
 20
672.2921460668642
 30
0.0
 11
1490.380322901032
 21
672.2921460668642
 31
0.0
  0
LINE
  5
4E2
330
1F
100
AcDbEntity
  8
0-0
  6
JWW_DASHED1
 62
   120
370
     5
100
AcDbLine
 10
917.3803229010332
 20
685.2921460679638
 30
0.0
 11
1490.380322901032
 21
685.2921460679638
 31
0.0
  0
LINE
  5
4E3
330
1F
100
AcDbEntity
  8
0-0
  6
JWW_DASHED1
 62
   120
370
     5
100
AcDbLine
 10
917.3803229010332
 20
686.292146067864
 30
0.0
 11
1490.380322901032
 21
686.292146067864
 31
0.0
  0
LINE
  5
4E4
330
1F
100
AcDbEntity
  8
0-0
  6
JWW_DASHED1
 62
   120
370
     5
100
AcDbLine
 10
917.3803229010332
 20
699.2921460689637
 30
0.0
 11
1490.380322901032
 21
699.2921460689637
 31
0.0
  0
LWPOLYLINE
  5
4E5
330
1F
100
AcDbEntity
  8
寸法
  6
Continuous
 62
     7
370
     9
100
AcDbPolyline
 90
        4
 70
     1
 43
3.0
 10
-2046.619677098967
 20
-1355.707705700176
 42
0.4142135623731
 10
-2048.119677098967
 20
-1354.207705700176
 42
0.4142135623731
 10
-2049.619677098966
 20
-1355.707705700176
 42
0.4142135623731
 10
-2048.119677098967
 20
-1357.207705700175
 42
0.4142135623731
  0
LWPOLYLINE
  5
4E6
330
1F
100
AcDbEntity
  8
寸法
  6
Continuous
 62
     7
370
     9
100
AcDbPolyline
 90
        4
 70
     1
 43
3.0
 10
-1846.619677098967
 20
-1335.707705700175
 42
0.4142135623731
 10
-1848.119677098967
 20
-1334.207705700175
 42
0.4142135623731
 10
-1849.619677098967
 20
-1335.707705700175
 42
0.4142135623731
 10
-1848.119677098967
 20
-1337.207705700175
 42
0.4142135623731
  0
LINE
  5
4E7
330
1F
100
AcDbEntity
  8
寸法
  6
Continuous
 62
   120
370
     5
100
AcDbLine
 10
-2048.119677098967
 20
-1355.707705700176
 30
0.0
 11
-1648.119677098965
 21
-1355.707705700176
 31
0.0
  0
LINE
  5
4E8
330
1F
100
AcDbEntity
  8
寸法
  6
Continuous
 62
   120
370
     5
100
AcDbLine
 10
-1848.119677098967
 20
-1335.707705700175
 30
0.0
 11
-1648.119677098965
 21
-1335.707705700175
 31
0.0
  0
LINE
  5
4E9
330
1F
100
AcDbEntity
  8
寸法
  6
Continuous
 62
   120
370
     5
100
AcDbLine
 10
-1568.119677098967
 20
-1805.707705700176
 30
0.0
 11
-1568.119677098967
 21
-1405.707705700178
 31
0.0
  0
LINE
  5
4EA
330
1F
100
AcDbEntity
  8
寸法
  6
Continuous
 62
   120
370
     5
100
AcDbLine
 10
-1598.119677098967
 20
-2005.707705700175
 30
0.0
 11
-1598.119677098967
 21
-1405.707705700178
 31
0.0
  0
LINE
  5
4EB
330
1F
100
AcDbEntity
  8
寸法
  6
Continuous
 62
   120
370
     5
100
AcDbLine
 10
18.88032290103268
 20
-1605.707705700175
 30
0.0
 11
18.88032290103268
 21
-1405.707705700178
 31
0.0
  0
LINE
  5
4EC
330
1F
100
AcDbEntity
  8
寸法
  6
Continuous
 62
   120
370
     5
100
AcDbLine
 10
-791.1196770989673
 20
-1605.707705700175
 30
0.0
 11
-791.1196770989673
 21
-1405.707705700178
 31
0.0
  0
LINE
  5
4ED
330
1F
100
AcDbEntity
  8
寸法
  6
Continuous
 62
   120
370
     5
100
AcDbLine
 10
-791.1196770989673
 20
-1605.707705700175
 30
0.0
 11
828.8803229010327
 21
-1605.707705700175
 31
0.0
  0
LINE
  5
4EE
330
1F
100
AcDbEntity
  8
寸法
  6
Continuous
 62
   120
370
     5
100
AcDbLine
 10
-1568.119677098967
 20
-1805.707705700176
 30
0.0
 11
1605.880322901032
 21
-1805.707705700175
 31
0.0
  0
LINE
  5
4EF
330
1F
100
AcDbEntity
  8
寸法
  6
Continuous
 62
   120
370
     5
100
AcDbLine
 10
1605.880322901032
 20
-1805.707705700175
 30
0.0
 11
1605.880322901032
 21
-1405.707705700175
 31
0.0
  0
LINE
  5
4F0
330
1F
100
AcDbEntity
  8
寸法
  6
Continuous
 62
   120
370
     5
100
AcDbLine
 10
-1598.119677098967
 20
-2005.707705700175
 30
0.0
 11
1635.880322901032
 21
-2005.707705700175
 31
0.0
  0
LINE
  5
4F1
330
1F
100
AcDbEntity
  8
寸法
  6
Continuous
 62
   120
370
     5
100
AcDbLine
 10
1635.880322901032
 20
-2005.707705700175
 30
0.0
 11
1635.880322901032
 21
-1405.707705700175
 31
0.0
  0
LINE
  5
4F2
330
1F
100
AcDbEntity
  8
寸法
  6
Continuous
 62
   120
370
     5
100
AcDbLine
 10
828.8803229010327
 20
-1605.707705700175
 30
0.0
 11
828.8803229010327
 21
-1405.707705700178
 31
0.0
  0
LWPOLYLINE
  5
4F3
330
1F
100
AcDbEntity
  8
寸法
  6
Continuous
 62
     7
370
     9
100
AcDbPolyline
 90
        4
 70
     1
 43
3.0
 10
-1566.619677098967
 20
-1805.707705700176
 42
0.4142135623731
 10
-1568.119677098967
 20
-1804.207705700176
 42
0.4142135623731
 10
-1569.619677098967
 20
-1805.707705700176
 42
0.4142135623731
 10
-1568.119677098967
 20
-1807.207705700176
 42
0.4142135623731
  0
LWPOLYLINE
  5
4F4
330
1F
100
AcDbEntity
  8
寸法
  6
Continuous
 62
     7
370
     9
100
AcDbPolyline
 90
        4
 70
     1
 43
3.0
 10
-1596.619677098967
 20
-2005.707705700175
 42
0.4142135623731
 10
-1598.119677098967
 20
-2004.207705700175
 42
0.4142135623731
 10
-1599.619677098967
 20
-2005.707705700175
 42
0.4142135623731
 10
-1598.119677098967
 20
-2007.207705700175
 42
0.4142135623731
  0
LWPOLYLINE
  5
4F5
330
1F
100
AcDbEntity
  8
寸法
  6
Continuous
 62
     7
370
     9
100
AcDbPolyline
 90
        4
 70
     1
 43
3.0
 10
20.38032290103268
 20
-1605.707705700175
 42
0.4142135623731
 10
18.88032290103268
 20
-1604.207705700175
 42
0.4142135623731
 10
17.38032290103268
 20
-1605.707705700175
 42
0.4142135623731
 10
18.88032290103268
 20
-1607.207705700175
 42
0.4142135623731
  0
LWPOLYLINE
  5
4F6
330
1F
100
AcDbEntity
  8
寸法
  6
Continuous
 62
     7
370
     9
100
AcDbPolyline
 90
        4
 70
     1
 43
3.0
 10
-789.6196770989671
 20
-1605.707705700175
 42
0.4142135623731
 10
-791.1196770989673
 20
-1604.207705700175
 42
0.4142135623731
 10
-792.6196770989673
 20
-1605.707705700175
 42
0.4142135623731
 10
-791.1196770989673
 20
-1607.207705700175
 42
0.4142135623731
  0
LWPOLYLINE
  5
4F7
330
1F
100
AcDbEntity
  8
寸法
  6
Continuous
 62
     7
370
     9
100
AcDbPolyline
 90
        4
 70
     1
 43
3.0
 10
1607.380322901032
 20
-1805.707705700175
 42
0.4142135623731
 10
1605.880322901032
 20
-1804.207705700175
 42
0.4142135623731
 10
1604.380322901032
 20
-1805.707705700175
 42
0.4142135623731
 10
1605.880322901032
 20
-1807.207705700175
 42
0.4142135623731
  0
LWPOLYLINE
  5
4F8
330
1F
100
AcDbEntity
  8
寸法
  6
Continuous
 62
     7
370
     9
100
AcDbPolyline
 90
        4
 70
     1
 43
3.0
 10
1637.380322901032
 20
-2005.707705700175
 42
0.4142135623731
 10
1635.880322901032
 20
-2004.207705700175
 42
0.4142135623731
 10
1634.380322901032
 20
-2005.707705700175
 42
0.4142135623731
 10
1635.880322901032
 20
-2007.207705700174
 42
0.4142135623731
  0
LWPOLYLINE
  5
4F9
330
1F
100
AcDbEntity
  8
寸法
  6
Continuous
 62
     7
370
     9
100
AcDbPolyline
 90
        4
 70
     1
 43
3.0
 10
830.3803229010327
 20
-1605.707705700175
 42
0.4142135623731
 10
828.8803229010327
 20
-1604.207705700175
 42
0.4142135623731
 10
827.3803229010326
 20
-1605.707705700175
 42
0.4142135623731
 10
828.8803229010327
 20
-1607.207705700175
 42
0.4142135623731
  0
MTEXT
  5
4FA
330
1F
100
AcDbEntity
  8
寸法
  6
Continuous
 62
     7
370
    70
100
AcDbMText
 10
-2063.119677098967
 20
-459.3827057001748
 30
0.0
 40
57.14999999999999
 41
412.5
 46
0.0
 71
     7
 72
     1
  1
{\fＭＳ ゴシック|b0|i0|c128|p49;枠外＝2,247}
 11
6.123031769111886E-17
 21
1.0
 31
0.0
 73
     1
 44
1.0
  0
MTEXT
  5
4FB
330
1F
100
AcDbEntity
  8
寸法
  6
Continuous
 62
     7
370
    70
100
AcDbMText
 10
-1863.119677098967
 20
-459.3827057001748
 30
0.0
 40
57.14999999999999
 41
412.5
 46
0.0
 71
     7
 72
     1
  1
{\fＭＳ ゴシック|b0|i0|c128|p49;ＤＨ＝2,183}
 11
6.123031769111886E-17
 21
1.0
 31
0.0
 73
     1
 44
1.0
  0
MTEXT
  5
4FC
330
1F
100
AcDbEntity
  8
寸法
  6
Continuous
 62
     7
370
   211
100
AcDbMText
 10
-554.8696770989673
 20
-1599.632705700175
 30
0.0
 40
57.15000000000001
 41
337.5000000000001
 46
0.0
 71
     7
 72
     1
  1
{\fＭＳ ゴシック|b0|i0|c128|p49;ＤＷ＝810}
 73
     1
 44
1.0
  0
MTEXT
  5
4FD
330
1F
100
AcDbEntity
  8
寸法
  6
Continuous
 62
     7
370
   211
100
AcDbMText
 10
-187.3696770989673
 20
-1999.632705700175
 30
0.0
 40
57.14999999999999
 41
412.5
 46
0.0
 71
     7
 72
     1
  1
{\fＭＳ ゴシック|b0|i0|c128|p49;枠外＝3,234}
 73
     1
 44
1.0
  0
LINE
  5
4FE
330
1F
100
AcDbEntity
  8
寸法
  6
Continuous
 62
   120
370
     5
100
AcDbLine
 10
-2048.119677098967
 20
891.2922942998255
 30
0.0
 11
-1648.119677098965
 21
891.2922942998255
 31
0.0
  0
LWPOLYLINE
  5
4FF
330
1F
100
AcDbEntity
  8
寸法
  6
Continuous
 62
     7
370
     9
100
AcDbPolyline
 90
        4
 70
     1
 43
3.0
 10
-2046.619677098967
 20
891.2922942998255
 42
0.4142135623731
 10
-2048.119677098967
 20
892.7922942998255
 42
0.4142135623731
 10
-2049.619677098966
 20
891.2922942998255
 42
0.4142135623731
 10
-2048.119677098967
 20
889.7922942998255
 42
0.4142135623731
  0
LINE
  5
500
330
1F
100
AcDbEntity
  8
寸法
  6
Continuous
 62
   120
370
     5
100
AcDbLine
 10
-2048.119677098967
 20
891.2922942998255
 30
0.0
 11
-2048.119677098967
 21
-1355.707705700176
 31
0.0
  0
LINE
  5
501
330
1F
100
AcDbEntity
  8
寸法
  6
Continuous
 62
   120
370
     5
100
AcDbLine
 10
-1848.119677098967
 20
847.2922942998246
 30
0.0
 11
-1648.119677098965
 21
847.2922942998246
 31
0.0
  0
LWPOLYLINE
  5
502
330
1F
100
AcDbEntity
  8
寸法
  6
Continuous
 62
     7
370
     9
100
AcDbPolyline
 90
        4
 70
     1
 43
3.0
 10
-1846.619677098967
 20
847.2922942998246
 42
0.4142135623731
 10
-1848.119677098967
 20
848.7922942998246
 42
0.4142135623731
 10
-1849.619677098967
 20
847.2922942998246
 42
0.4142135623731
 10
-1848.119677098967
 20
845.7922942998246
 42
0.4142135623731
  0
LINE
  5
503
330
1F
100
AcDbEntity
  8
寸法
  6
Continuous
 62
   120
370
     5
100
AcDbLine
 10
-1848.119677098967
 20
847.2922942998246
 30
0.0
 11
-1848.119677098967
 21
-1335.707705700175
 31
0.0
  0
MTEXT
  5
504
330
1F
100
AcDbEntity
  8
寸法
  6
Continuous
 62
     7
370
   211
100
AcDbMText
 10
-187.3696770989673
 20
-1799.632705700176
 30
0.0
 40
57.14999999999999
 41
412.5
 46
0.0
 71
     7
 72
     1
  1
{\fＭＳ ゴシック|b0|i0|c128|p49;枠内＝3,174}
 73
     1
 44
1.0
  0
MTEXT
  5
505
330
1F
100
AcDbEntity
  8
寸法
  6
Continuous
 62
     7
370
   211
100
AcDbMText
 10
255.1303229010327
 20
-1599.632705700175
 30
0.0
 40
57.14999999999998
 41
337.4999999999999
 46
0.0
 71
     7
 72
     1
  1
{\fＭＳ ゴシック|b0|i0|c128|p49;ＤＷ＝810}
 73
     1
 44
1.0
  0
ENDSEC
  0
SECTION
  2
OBJECTS
  0
DICTIONARY
  5
C
330
0
100
AcDbDictionary
281
     1
  3
ACAD_GROUP
350
D
  3
ACAD_LAYOUT
350
1A
  3
ACAD_MATERIAL
350
3B
  3
ACAD_MLEADERSTYLE
350
507
  3
ACAD_MLINESTYLE
350
17
  3
ACAD_PLOTSETTINGS
350
19
  3
ACAD_PLOTSTYLENAME
350
E
  3
ACAD_TABLESTYLE
350
506
  3
ACAD_VISUALSTYLE
350
2A
  0
DICTIONARY
  5
D
102
{ACAD_REACTORS
330
C
102
}
330
C
100
AcDbDictionary
281
     1
  0
DICTIONARY
  5
1A
102
{ACAD_REACTORS
330
C
102
}
330
C
100
AcDbDictionary
281
     1
  3
Layout1
350
1E
  3
Layout2
350
26
  3
Model
350
22
  0
DICTIONARY
  5
3B
102
{ACAD_REACTORS
330
C
102
}
330
C
100
AcDbDictionary
281
     1
  3
ByBlock
350
3D
  3
ByLayer
350
3C
  3
Global
350
3E
  0
DICTIONARY
  5
507
102
{ACAD_REACTORS
330
C
102
}
330
C
100
AcDbDictionary
281
     1
  0
DICTIONARY
  5
17
102
{ACAD_REACTORS
330
C
102
}
330
C
100
AcDbDictionary
281
     1
  3
Standard
350
18
  0
DICTIONARY
  5
19
102
{ACAD_REACTORS
330
C
102
}
330
C
100
AcDbDictionary
281
     1
  0
ACDBDICTIONARYWDFLT
  5
E
102
{ACAD_REACTORS
330
C
102
}
330
C
100
AcDbDictionary
281
     1
  3
Normal
350
F
100
AcDbDictionaryWithDefault
340
F
  0
DICTIONARY
  5
506
102
{ACAD_REACTORS
330
C
102
}
330
C
100
AcDbDictionary
281
     1
  0
DICTIONARY
  5
2A
102
{ACAD_REACTORS
330
C
102
}
330
C
100
AcDbDictionary
281
     1
  3
2dWireframe
350
2F
  3
3D Hidden
350
31
  3
3dWireframe
350
30
  3
Basic
350
32
  3
Brighten
350
36
  3
ColorChange
350
3A
  3
Conceptual
350
34
  3
Dim
350
35
  3
Facepattern
350
39
  3
Flat
350
2B
  3
FlatWithEdges
350
2C
  3
Gouraud
350
2D
  3
GouraudWithEdges
350
2E
  3
Linepattern
350
38
  3
Realistic
350
33
  3
Thicken
350
37
  0
LAYOUT
  5
1E
102
{ACAD_REACTORS
330
1A
102
}
330
1A
100
AcDbPlotSettings
  1

  2
none_device
  4

  6

 40
0.0
 41
0.0
 42
0.0
 43
0.0
 44
0.0
 45
0.0
 46
0.0
 47
0.0
 48
0.0
 49
0.0
140
0.0
141
0.0
142
1.0
143
1.0
 70
   688
 72
     0
 73
     0
 74
     5
  7

 75
    16
 76
     0
 77
     5
 78
   300
147
1.0
148
0.0
149
0.0
100
AcDbLayout
  1
Layout1
 70
     1
 71
     1
 10
0.0
 20
0.0
 11
420.0
 21
297.0
 12
0.0
 22
0.0
 32
0.0
 14
1.000000000000000E+20
 24
1.000000000000000E+20
 34
1.000000000000000E+20
 15
-1.000000000000000E+20
 25
-1.000000000000000E+20
 35
-1.000000000000000E+20
146
0.0
 13
0.0
 23
0.0
 33
0.0
 16
1.0
 26
0.0
 36
0.0
 17
0.0
 27
1.0
 37
0.0
 76
     0
330
1B
  0
LAYOUT
  5
26
102
{ACAD_REACTORS
330
1A
102
}
330
1A
100
AcDbPlotSettings
  1

  2
none_device
  4

  6

 40
0.0
 41
0.0
 42
0.0
 43
0.0
 44
0.0
 45
0.0
 46
0.0
 47
0.0
 48
0.0
 49
0.0
140
0.0
141
0.0
142
1.0
143
1.0
 70
   688
 72
     0
 73
     0
 74
     5
  7

 75
    16
 76
     0
 77
     5
 78
   300
147
1.0
148
0.0
149
0.0
100
AcDbLayout
  1
Layout2
 70
     1
 71
     2
 10
0.0
 20
0.0
 11
0.0
 21
0.0
 12
0.0
 22
0.0
 32
0.0
 14
0.0
 24
0.0
 34
0.0
 15
0.0
 25
0.0
 35
0.0
146
0.0
 13
0.0
 23
0.0
 33
0.0
 16
1.0
 26
0.0
 36
0.0
 17
0.0
 27
1.0
 37
0.0
 76
     0
330
23
  0
LAYOUT
  5
22
102
{ACAD_REACTORS
330
1A
102
}
330
1A
100
AcDbPlotSettings
  1

  2
none_device
  4

  6

 40
0.0
 41
0.0
 42
0.0
 43
0.0
 44
0.0
 45
0.0
 46
0.0
 47
0.0
 48
0.0
 49
0.0
140
0.0
141
0.0
142
1.0
143
1.0
 70
  1712
 72
     0
 73
     0
 74
     0
  7

 75
     0
 76
     0
 77
     5
 78
   300
147
1.0
148
0.0
149
0.0
100
AcDbLayout
  1
Model
 70
     1
 71
     0
 10
-4455.0
 20
-3150.0
 11
4455.0
 21
3150.0
 12
0.0
 22
0.0
 32
0.0
 14
-4455.0
 24
-3150.0
 34
0.0
 15
4455.0
 25
3150.0
 35
0.0
146
0.0
 13
0.0
 23
0.0
 33
0.0
 16
1.0
 26
0.0
 36
0.0
 17
0.0
 27
1.0
 37
0.0
 76
     0
330
1F
331
29
  0
MATERIAL
  5
3D
102
{ACAD_REACTORS
330
3B
102
}
330
3B
100
AcDbMaterial
  1
ByBlock
 72
     1
 94
      127
  0
MATERIAL
  5
3C
102
{ACAD_REACTORS
330
3B
102
}
330
3B
100
AcDbMaterial
  1
ByLayer
 72
     1
 94
      127
  0
MATERIAL
  5
3E
102
{ACAD_REACTORS
330
3B
102
}
330
3B
100
AcDbMaterial
  1
Global
 72
     1
 94
      127
  0
MLINESTYLE
  5
18
102
{ACAD_REACTORS
330
17
102
}
330
17
100
AcDbMlineStyle
  2
Standard
 70
     0
  3

 62
   256
 51
90.0
 52
90.0
 71
     2
 49
0.5
 62
   256
  6
BYLAYER
 49
-0.5
 62
   256
  6
BYLAYER
  0
ACDBPLACEHOLDER
  5
F
102
{ACAD_REACTORS
330
E
102
}
330
E
  0
VISUALSTYLE
  5
2F
102
{ACAD_REACTORS
330
2A
102
}
330
2A
100
AcDbVisualStyle
  2
2dWireframe
 70
     4
177
     2
291
     0
 71
     0
176
     1
 72
     2
176
     1
 73
     0
176
     1
 90
        0
176
     1
 40
-0.6
176
     1
 41
-30.0
176
     1
 62
     5
 63
     7
421
 16777215
176
     1
 74
     1
176
     1
 91
        4
176
     1
 64
     7
176
     1
 65
   257
176
     1
 75
     1
176
     1
175
     1
176
     1
 42
1.0
176
     1
 92
        0
176
     1
 66
   257
176
     1
 43
1.0
176
     1
 76
     1
176
     1
 77
     6
176
     1
 78
     2
176
     1
 67
     7
176
     1
 79
     5
176
     1
170
     0
176
     1
171
     0
176
     1
290
     0
176
     1
 93
        1
176
     1
 44
0.0
176
     1
173
     0
176
     1
  0
VISUALSTYLE
  5
31
102
{ACAD_REACTORS
330
2A
102
}
330
2A
100
AcDbVisualStyle
  2
3D Hidden
 70
     6
177
     2
291
     0
 71
     1
176
     1
 72
     2
176
     1
 73
     2
176
     1
 90
        0
176
     1
 40
-0.6
176
     1
 41
-30.0
176
     1
 62
     5
 63
     7
421
 16777215
176
     1
 74
     2
176
     1
 91
        2
176
     1
 64
     7
176
     1
 65
   257
176
     1
 75
     2
176
     1
175
     1
176
     1
 42
40.0
176
     1
 92
        0
176
     1
 66
   257
176
     1
 43
1.0
176
     1
 76
     1
176
     1
 77
     6
176
     1
 78
     2
176
     1
 67
     7
176
     1
 79
     3
176
     1
170
     0
176
     1
171
     0
176
     1
290
     0
176
     1
 93
        1
176
     1
 44
0.0
176
     1
173
     0
176
     1
  0
VISUALSTYLE
  5
30
102
{ACAD_REACTORS
330
2A
102
}
330
2A
100
AcDbVisualStyle
  2
3dWireframe
 70
     5
177
     2
291
     0
 71
     0
176
     1
 72
     2
176
     1
 73
     0
176
     1
 90
        0
176
     1
 40
-0.6
176
     1
 41
-30.0
176
     1
 62
     5
 63
     7
421
 16777215
176
     1
 74
     1
176
     1
 91
        4
176
     1
 64
     7
176
     1
 65
   257
176
     1
 75
     1
176
     1
175
     1
176
     1
 42
1.0
176
     1
 92
        0
176
     1
 66
   257
176
     1
 43
1.0
176
     1
 76
     1
176
     1
 77
     6
176
     1
 78
     2
176
     1
 67
     7
176
     1
 79
     5
176
     1
170
     0
176
     1
171
     0
176
     1
290
     0
176
     1
 93
        1
176
     1
 44
0.0
176
     1
173
     0
176
     1
  0
VISUALSTYLE
  5
32
102
{ACAD_REACTORS
330
2A
102
}
330
2A
100
AcDbVisualStyle
  2
Basic
 70
     7
177
     2
291
     1
 71
     1
176
     1
 72
     0
176
     1
 73
     1
176
     1
 90
        0
176
     1
 40
-0.6
176
     1
 41
-30.0
176
     1
 62
     5
 63
     7
421
 16777215
176
     1
 74
     0
176
     1
 91
        4
176
     1
 64
     7
176
     1
 65
   257
176
     1
 75
     1
176
     1
175
     1
176
     1
 42
1.0
176
     1
 92
        8
176
     1
 66
     7
176
     1
 43
1.0
176
     1
 76
     1
176
     1
 77
     6
176
     1
 78
     2
176
     1
 67
     7
176
     1
 79
     5
176
     1
170
     0
176
     1
171
     0
176
     1
290
     0
176
     1
 93
        1
176
     1
 44
0.0
176
     1
173
     0
176
     1
  0
VISUALSTYLE
  5
36
102
{ACAD_REACTORS
330
2A
102
}
330
2A
100
AcDbVisualStyle
  2
Brighten
 70
    12
177
     2
291
     1
 71
     2
176
     1
 72
     2
176
     1
 73
     0
176
     1
 90
        0
176
     1
 40
-0.6
176
     1
 41
-30.0
176
     1
 62
     5
 63
     7
421
 16777215
176
     1
 74
     1
176
     1
 91
        4
176
     1
 64
     7
176
     1
 65
   257
176
     1
 75
     1
176
     1
175
     1
176
     1
 42
1.0
176
     1
 92
        8
176
     1
 66
     7
176
     1
 43
1.0
176
     1
 76
     1
176
     1
 77
     6
176
     1
 78
     2
176
     1
 67
     7
176
     1
 79
     5
176
     1
170
     0
176
     1
171
     0
176
     1
290
     0
176
     1
 93
        1
176
     1
 44
50.0
176
     1
173
     0
176
     1
  0
VISUALSTYLE
  5
3A
102
{ACAD_REACTORS
330
2A
102
}
330
2A
100
AcDbVisualStyle
  2
ColorChange
 70
    16
177
     2
291
     1
 71
     2
176
     1
 72
     2
176
     1
 73
     3
176
     1
 90
        0
176
     1
 40
-0.6
176
     1
 41
-30.0
176
     1
 62
     5
 63
     8
421
  8421504
176
     1
 74
     1
176
     1
 91
        4
176
     1
 64
     7
176
     1
 65
   257
176
     1
 75
     1
176
     1
175
     1
176
     1
 42
1.0
176
     1
 92
        8
176
     1
 66
     8
424
  8421504
176
     1
 43
1.0
176
     1
 76
     1
176
     1
 77
     6
176
     1
 78
     2
176
     1
 67
     7
176
     1
 79
     5
176
     1
170
     0
176
     1
171
     0
176
     1
290
     0
176
     1
 93
        1
176
     1
 44
0.0
176
     1
173
     0
176
     1
  0
VISUALSTYLE
  5
34
102
{ACAD_REACTORS
330
2A
102
}
330
2A
100
AcDbVisualStyle
  2
Conceptual
 70
     9
177
     2
291
     0
 71
     3
176
     1
 72
     2
176
     1
 73
     0
176
     1
 90
        0
176
     1
 40
-0.6
176
     1
 41
-30.0
176
     1
 62
     5
 63
     7
421
 16777215
176
     1
 74
     2
176
     1
 91
        2
176
     1
 64
     7
176
     1
 65
   257
176
     1
 75
     1
176
     1
175
     1
176
     1
 42
40.0
176
     1
 92
        8
176
     1
 66
     7
176
     1
 43
1.0
176
     1
 76
     1
176
     1
 77
     6
176
     1
 78
     2
176
     1
 67
     7
176
     1
 79
     3
176
     1
170
     0
176
     1
171
     0
176
     1
290
     0
176
     1
 93
        1
176
     1
 44
0.0
176
     1
173
     0
176
     1
  0
VISUALSTYLE
  5
35
102
{ACAD_REACTORS
330
2A
102
}
330
2A
100
AcDbVisualStyle
  2
Dim
 70
    11
177
     2
291
     1
 71
     2
176
     1
 72
     2
176
     1
 73
     0
176
     1
 90
        0
176
     1
 40
-0.6
176
     1
 41
-30.0
176
     1
 62
     5
 63
     7
421
 16777215
176
     1
 74
     1
176
     1
 91
        4
176
     1
 64
     7
176
     1
 65
   257
176
     1
 75
     1
176
     1
175
     1
176
     1
 42
1.0
176
     1
 92
        8
176
     1
 66
     7
176
     1
 43
1.0
176
     1
 76
     1
176
     1
 77
     6
176
     1
 78
     2
176
     1
 67
     7
176
     1
 79
     5
176
     1
170
     0
176
     1
171
     0
176
     1
290
     0
176
     1
 93
        1
176
     1
 44
-50.0
176
     1
173
     0
176
     1
  0
VISUALSTYLE
  5
39
102
{ACAD_REACTORS
330
2A
102
}
330
2A
100
AcDbVisualStyle
  2
Facepattern
 70
    15
177
     2
291
     1
 71
     2
176
     1
 72
     2
176
     1
 73
     0
176
     1
 90
        0
176
     1
 40
-0.6
176
     1
 41
-30.0
176
     1
 62
     5
 63
     7
421
 16777215
176
     1
 74
     1
176
     1
 91
        4
176
     1
 64
     7
176
     1
 65
   257
176
     1
 75
     1
176
     1
175
     1
176
     1
 42
1.0
176
     1
 92
        8
176
     1
 66
     7
176
     1
 43
1.0
176
     1
 76
     1
176
     1
 77
     6
176
     1
 78
     2
176
     1
 67
     7
176
     1
 79
     5
176
     1
170
     0
176
     1
171
     0
176
     1
290
     0
176
     1
 93
        1
176
     1
 44
0.0
176
     1
173
     0
176
     1
  0
VISUALSTYLE
  5
2B
102
{ACAD_REACTORS
330
2A
102
}
330
2A
100
AcDbVisualStyle
  2
Flat
 70
     0
177
     2
291
     1
 71
     2
176
     1
 72
     1
176
     1
 73
     1
176
     1
 90
        2
176
     1
 40
-0.6
176
     1
 41
30.0
176
     1
 62
     5
 63
     7
421
 16777215
176
     1
 74
     0
176
     1
 91
        4
176
     1
 64
     7
176
     1
 65
   257
176
     1
 75
     1
176
     1
175
     1
176
     1
 42
1.0
176
     1
 92
        8
176
     1
 66
     7
176
     1
 43
1.0
176
     1
 76
     1
176
     1
 77
     6
176
     1
 78
     2
176
     1
 67
     7
176
     1
 79
     5
176
     1
170
     0
176
     1
171
     0
176
     1
290
     0
176
     1
 93
       13
176
     1
 44
0.0
176
     1
173
     0
176
     1
  0
VISUALSTYLE
  5
2C
102
{ACAD_REACTORS
330
2A
102
}
330
2A
100
AcDbVisualStyle
  2
FlatWithEdges
 70
     1
177
     2
291
     1
 71
     2
176
     1
 72
     1
176
     1
 73
     1
176
     1
 90
        2
176
     1
 40
-0.6
176
     1
 41
30.0
176
     1
 62
     5
 63
     7
421
 16777215
176
     1
 74
     1
176
     1
 91
        4
176
     1
 64
     7
176
     1
 65
   257
176
     1
 75
     1
176
     1
175
     1
176
     1
 42
1.0
176
     1
 92
        0
176
     1
 66
   257
176
     1
 43
1.0
176
     1
 76
     1
176
     1
 77
     6
176
     1
 78
     2
176
     1
 67
     7
176
     1
 79
     5
176
     1
170
     0
176
     1
171
     0
176
     1
290
     0
176
     1
 93
       13
176
     1
 44
0.0
176
     1
173
     0
176
     1
  0
VISUALSTYLE
  5
2D
102
{ACAD_REACTORS
330
2A
102
}
330
2A
100
AcDbVisualStyle
  2
Gouraud
 70
     2
177
     2
291
     1
 71
     2
176
     1
 72
     2
176
     1
 73
     1
176
     1
 90
        2
176
     1
 40
-0.6
176
     1
 41
30.0
176
     1
 62
     5
 63
     7
421
 16777215
176
     1
 74
     0
176
     1
 91
        4
176
     1
 64
     7
176
     1
 65
   257
176
     1
 75
     1
176
     1
175
     1
176
     1
 42
1.0
176
     1
 92
        0
176
     1
 66
     7
176
     1
 43
1.0
176
     1
 76
     1
176
     1
 77
     6
176
     1
 78
     2
176
     1
 67
     7
176
     1
 79
     5
176
     1
170
     0
176
     1
171
     0
176
     1
290
     0
176
     1
 93
       13
176
     1
 44
0.0
176
     1
173
     0
176
     1
  0
VISUALSTYLE
  5
2E
102
{ACAD_REACTORS
330
2A
102
}
330
2A
100
AcDbVisualStyle
  2
GouraudWithEdges
 70
     3
177
     2
291
     1
 71
     2
176
     1
 72
     2
176
     1
 73
     1
176
     1
 90
        2
176
     1
 40
-0.6
176
     1
 41
30.0
176
     1
 62
     5
 63
     7
421
 16777215
176
     1
 74
     1
176
     1
 91
        4
176
     1
 64
     7
176
     1
 65
   257
176
     1
 75
     1
176
     1
175
     1
176
     1
 42
1.0
176
     1
 92
        0
176
     1
 66
   257
176
     1
 43
1.0
176
     1
 76
     1
176
     1
 77
     6
176
     1
 78
     2
176
     1
 67
     7
176
     1
 79
     5
176
     1
170
     0
176
     1
171
     0
176
     1
290
     0
176
     1
 93
       13
176
     1
 44
0.0
176
     1
173
     0
176
     1
  0
VISUALSTYLE
  5
38
102
{ACAD_REACTORS
330
2A
102
}
330
2A
100
AcDbVisualStyle
  2
Linepattern
 70
    14
177
     2
291
     1
 71
     2
176
     1
 72
     2
176
     1
 73
     0
176
     1
 90
        0
176
     1
 40
-0.6
176
     1
 41
-30.0
176
     1
 62
     5
 63
     7
421
 16777215
176
     1
 74
     1
176
     1
 91
        4
176
     1
 64
     7
176
     1
 65
   257
176
     1
 75
     7
176
     1
175
     7
176
     1
 42
1.0
176
     1
 92
        8
176
     1
 66
     7
176
     1
 43
1.0
176
     1
 76
     1
176
     1
 77
     6
176
     1
 78
     2
176
     1
 67
     7
176
     1
 79
     5
176
     1
170
     0
176
     1
171
     0
176
     1
290
     0
176
     1
 93
        1
176
     1
 44
0.0
176
     1
173
     0
176
     1
  0
VISUALSTYLE
  5
33
102
{ACAD_REACTORS
330
2A
102
}
330
2A
100
AcDbVisualStyle
  2
Realistic
 70
     8
177
     2
291
     0
 71
     2
176
     1
 72
     2
176
     1
 73
     0
176
     1
 90
        0
176
     1
 40
-0.6
176
     1
 41
-30.0
176
     1
 62
     5
 63
     7
421
 16777215
176
     1
 74
     1
176
     1
 91
        0
176
     1
 64
     7
176
     1
 65
   257
176
     1
 75
     1
176
     1
175
     1
176
     1
 42
1.0
176
     1
 92
        8
176
     1
 66
     8
424
  7895160
176
     1
 43
1.0
176
     1
 76
     1
176
     1
 77
     6
176
     1
 78
     2
176
     1
 67
     7
176
     1
 79
     5
176
     1
170
     0
176
     1
171
     0
176
     1
290
     0
176
     1
 93
       13
176
     1
 44
0.0
176
     1
173
     0
176
     1
  0
VISUALSTYLE
  5
37
102
{ACAD_REACTORS
330
2A
102
}
330
2A
100
AcDbVisualStyle
  2
Thicken
 70
    13
177
     2
291
     1
 71
     2
176
     1
 72
     2
176
     1
 73
     0
176
     1
 90
        0
176
     1
 40
-0.6
176
     1
 41
-30.0
176
     1
 62
     5
 63
     7
421
 16777215
176
     1
 74
     1
176
     1
 91
        4
176
     1
 64
     7
176
     1
 65
   257
176
     1
 75
     1
176
     1
175
     1
176
     1
 42
1.0
176
     1
 92
       12
176
     1
 66
     7
176
     1
 43
1.0
176
     1
 76
     1
176
     1
 77
     6
176
     1
 78
     2
176
     1
 67
     7
176
     1
 79
     5
176
     1
170
     0
176
     1
171
     0
176
     1
290
     0
176
     1
 93
        1
176
     1
 44
0.0
176
     1
173
     0
176
     1
  0
ENDSEC
  0
EOF
