  0
SECTION
  2
HEADER
  9
$ACADVER
  1
AC1024
  9
$ACADMAINTVER
 70
     6
  9
$DWGCODEPAGE
  3
ANSI_932
  9
$INSBASE
 10
0.0
 20
0.0
 30
0.0
  9
$EXTMIN
 10
-4455.0
 20
-3150.0
 30
0.0
  9
$EXTMAX
 10
4455.0
 20
3150.0
 30
0.0
  9
$LIMMIN
 10
-4455.0
 20
-3150.0
  9
$LIMMAX
 10
4455.0
 20
3150.0
  9
$ORTHOMODE
 70
     0
  9
$REGENMODE
 70
     1
  9
$FILLMODE
 70
     1
  9
$QTEXTMODE
 70
     0
  9
$MIRRTEXT
 70
     1
  9
$LTSCALE
 40
30.0
  9
$ATTMODE
 70
     1
  9
$TEXTSIZE
 40
2.5
  9
$TRACEWID
 40
1.0
  9
$TEXTSTYLE
  7
Standard
  9
$CLAYER
  8
0
  9
$CELTYPE
  6
ByLayer
  9
$CECOLOR
 62
   256
  9
$CELTSCALE
 40
1.0
  9
$DISPSILH
 70
     0
  9
$DIMSCALE
 40
1.0
  9
$DIMASZ
 40
2.5
  9
$DIMEXO
 40
0.625
  9
$DIMDLI
 40
3.75
  9
$DIMRND
 40
0.0
  9
$DIMDLE
 40
0.0
  9
$DIMEXE
 40
1.25
  9
$DIMTP
 40
0.0
  9
$DIMTM
 40
0.0
  9
$DIMTXT
 40
2.5
  9
$DIMCEN
 40
2.5
  9
$DIMTSZ
 40
0.0
  9
$DIMTOL
 70
     0
  9
$DIMLIM
 70
     0
  9
$DIMTIH
 70
     0
  9
$DIMTOH
 70
     0
  9
$DIMSE1
 70
     0
  9
$DIMSE2
 70
     0
  9
$DIMTAD
 70
     1
  9
$DIMZIN
 70
     8
  9
$DIMBLK
  1

  9
$DIMASO
 70
     1
  9
$DIMSHO
 70
     1
  9
$DIMPOST
  1

  9
$DIMAPOST
  1

  9
$DIMALT
 70
     0
  9
$DIMALTD
 70
     3
  9
$DIMALTF
 40
0.03937007874016
  9
$DIMLFAC
 40
1.0
  9
$DIMTOFL
 70
     1
  9
$DIMTVP
 40
0.0
  9
$DIMTIX
 70
     0
  9
$DIMSOXD
 70
     0
  9
$DIMSAH
 70
     0
  9
$DIMBLK1
  1

  9
$DIMBLK2
  1

  9
$DIMSTYLE
  2
ISO-25
  9
$DIMCLRD
 70
     0
  9
$DIMCLRE
 70
     0
  9
$DIMCLRT
 70
     0
  9
$DIMTFAC
 40
1.0
  9
$DIMGAP
 40
0.625
  9
$DIMJUST
 70
     0
  9
$DIMSD1
 70
     0
  9
$DIMSD2
 70
     0
  9
$DIMTOLJ
 70
     0
  9
$DIMTZIN
 70
     8
  9
$DIMALTZ
 70
     0
  9
$DIMALTTZ
 70
     0
  9
$DIMUPT
 70
     0
  9
$DIMDEC
 70
     2
  9
$DIMTDEC
 70
     2
  9
$DIMALTU
 70
     2
  9
$DIMALTTD
 70
     3
  9
$DIMTXSTY
  7
Standard
  9
$DIMAUNIT
 70
     0
  9
$DIMADEC
 70
     0
  9
$DIMALTRND
 40
0.0
  9
$DIMAZIN
 70
     0
  9
$DIMDSEP
 70
    44
  9
$DIMATFIT
 70
     3
  9
$DIMFRAC
 70
     0
  9
$DIMLDRBLK
  1

  9
$DIMLUNIT
 70
     2
  9
$DIMLWD
 70
    -2
  9
$DIMLWE
 70
    -2
  9
$DIMTMOVE
 70
     0
  9
$DIMFXL
 40
1.0
  9
$DIMFXLON
 70
     0
  9
$DIMJOGANG
 40
0.7853981633974483
  9
$DIMTFILL
 70
     0
  9
$DIMTFILLCLR
 70
     0
  9
$DIMARCSYM
 70
     0
  9
$DIMLTYPE
  6

  9
$DIMLTEX1
  6

  9
$DIMLTEX2
  6

  9
$DIMTXTDIRECTION
 70
     0
  9
$LUNITS
 70
     2
  9
$LUPREC
 70
     4
  9
$SKETCHINC
 40
1.0
  9
$FILLETRAD
 40
10.0
  9
$AUNITS
 70
     0
  9
$AUPREC
 70
     0
  9
$MENU
  1
.
  9
$ELEVATION
 40
0.0
  9
$PELEVATION
 40
0.0
  9
$THICKNESS
 40
0.0
  9
$LIMCHECK
 70
     0
  9
$CHAMFERA
 40
10.0
  9
$CHAMFERB
 40
10.0
  9
$CHAMFERC
 40
20.0
  9
$CHAMFERD
 40
0.0
  9
$SKPOLY
 70
     0
  9
$TDCREATE
 40
2457953.400780405
  9
$TDUCREATE
 40
2457953.025780405
  9
$TDUPDATE
 40
2457953.400780417
  9
$TDUUPDATE
 40
2457953.025780417
  9
$TDINDWG
 40
0.0000000116
  9
$TDUSRTIMER
 40
0.0000000116
  9
$USRTIMER
 70
     1
  9
$ANGBASE
 50
0.0
  9
$ANGDIR
 70
     0
  9
$PDMODE
 70
     0
  9
$PDSIZE
 40
0.0
  9
$PLINEWID
 40
0.0
  9
$SPLFRAME
 70
     0
  9
$SPLINETYPE
 70
     6
  9
$SPLINESEGS
 70
     8
  9
$HANDSEED
  5
446
  9
$SURFTAB1
 70
     6
  9
$SURFTAB2
 70
     6
  9
$SURFTYPE
 70
     6
  9
$SURFU
 70
     6
  9
$SURFV
 70
     6
  9
$UCSBASE
  2

  9
$UCSNAME
  2

  9
$UCSORG
 10
0.0
 20
0.0
 30
0.0
  9
$UCSXDIR
 10
1.0
 20
0.0
 30
0.0
  9
$UCSYDIR
 10
0.0
 20
1.0
 30
0.0
  9
$UCSORTHOREF
  2

  9
$UCSORTHOVIEW
 70
     0
  9
$UCSORGTOP
 10
0.0
 20
0.0
 30
0.0
  9
$UCSORGBOTTOM
 10
0.0
 20
0.0
 30
0.0
  9
$UCSORGLEFT
 10
0.0
 20
0.0
 30
0.0
  9
$UCSORGRIGHT
 10
0.0
 20
0.0
 30
0.0
  9
$UCSORGFRONT
 10
0.0
 20
0.0
 30
0.0
  9
$UCSORGBACK
 10
0.0
 20
0.0
 30
0.0
  9
$PUCSBASE
  2

  9
$PUCSNAME
  2

  9
$PUCSORG
 10
0.0
 20
0.0
 30
0.0
  9
$PUCSXDIR
 10
1.0
 20
0.0
 30
0.0
  9
$PUCSYDIR
 10
0.0
 20
1.0
 30
0.0
  9
$PUCSORTHOREF
  2

  9
$PUCSORTHOVIEW
 70
     0
  9
$PUCSORGTOP
 10
0.0
 20
0.0
 30
0.0
  9
$PUCSORGBOTTOM
 10
0.0
 20
0.0
 30
0.0
  9
$PUCSORGLEFT
 10
0.0
 20
0.0
 30
0.0
  9
$PUCSORGRIGHT
 10
0.0
 20
0.0
 30
0.0
  9
$PUCSORGFRONT
 10
0.0
 20
0.0
 30
0.0
  9
$PUCSORGBACK
 10
0.0
 20
0.0
 30
0.0
  9
$USERI1
 70
     0
  9
$USERI2
 70
     0
  9
$USERI3
 70
     0
  9
$USERI4
 70
     0
  9
$USERI5
 70
     0
  9
$USERR1
 40
0.0
  9
$USERR2
 40
0.0
  9
$USERR3
 40
0.0
  9
$USERR4
 40
0.0
  9
$USERR5
 40
0.0
  9
$WORLDVIEW
 70
     1
  9
$SHADEDGE
 70
     3
  9
$SHADEDIF
 70
    70
  9
$TILEMODE
 70
     1
  9
$MAXACTVP
 70
    64
  9
$PINSBASE
 10
0.0
 20
0.0
 30
0.0
  9
$PLIMCHECK
 70
     0
  9
$PEXTMIN
 10
1.000000000000000E+20
 20
1.000000000000000E+20
 30
1.000000000000000E+20
  9
$PEXTMAX
 10
-1.000000000000000E+20
 20
-1.000000000000000E+20
 30
-1.000000000000000E+20
  9
$PLIMMIN
 10
0.0
 20
0.0
  9
$PLIMMAX
 10
420.0
 20
297.0
  9
$UNITMODE
 70
     0
  9
$VISRETAIN
 70
     1
  9
$PLINEGEN
 70
     0
  9
$PSLTSCALE
 70
     1
  9
$TREEDEPTH
 70
  3020
  9
$CMLSTYLE
  2
Standard
  9
$CMLJUST
 70
     0
  9
$CMLSCALE
 40
20.0
  9
$PROXYGRAPHICS
 70
     1
  9
$MEASUREMENT
 70
     1
  9
$CELWEIGHT
370
    -1
  9
$ENDCAPS
280
     0
  9
$JOINSTYLE
280
     0
  9
$LWDISPLAY
290
     0
  9
$INSUNITS
 70
     4
  9
$HYPERLINKBASE
  1

  9
$STYLESHEET
  1

  9
$XEDIT
290
     1
  9
$CEPSNTYPE
380
     0
  9
$PSTYLEMODE
290
     1
  9
$FINGERPRINTGUID
  2
{8B659484-7F3D-448A-B638-0D7A4C9AF679}
  9
$VERSIONGUID
  2
{FAEB1C32-E019-11D5-929B-00C0DF256EC4}
  9
$EXTNAMES
290
     1
  9
$PSVPSCALE
 40
0.0
  9
$OLESTARTUP
290
     0
  9
$SORTENTS
280
   127
  9
$INDEXCTL
280
     0
  9
$HIDETEXT
280
     1
  9
$XCLIPFRAME
280
     2
  9
$HALOGAP
280
     0
  9
$OBSCOLOR
 70
   257
  9
$OBSLTYPE
280
     0
  9
$INTERSECTIONDISPLAY
280
     0
  9
$INTERSECTIONCOLOR
 70
   257
  9
$DIMASSOC
280
     2
  9
$PROJECTNAME
  1

  9
$CAMERADISPLAY
290
     0
  9
$LENSLENGTH
 40
50.0
  9
$CAMERAHEIGHT
 40
0.0
  9
$STEPSPERSEC
 40
2.0
  9
$STEPSIZE
 40
6.0
  9
$3DDWFPREC
 40
2.0
  9
$PSOLWIDTH
 40
5.0
  9
$PSOLHEIGHT
 40
80.0
  9
$LOFTANG1
 40
1.570796326794897
  9
$LOFTANG2
 40
1.570796326794897
  9
$LOFTMAG1
 40
0.0
  9
$LOFTMAG2
 40
0.0
  9
$LOFTPARAM
 70
     7
  9
$LOFTNORMALS
280
     1
  9
$LATITUDE
 40
37.795
  9
$LONGITUDE
 40
-122.394
  9
$NORTHDIRECTION
 40
0.0
  9
$TIMEZONE
 70
 -8000
  9
$LIGHTGLYPHDISPLAY
280
     1
  9
$TILEMODELIGHTSYNCH
280
     1
  9
$SOLIDHIST
280
     1
  9
$SHOWHIST
280
     1
  9
$DWFFRAME
280
     2
  9
$DGNFRAME
280
     2
  9
$REALWORLDSCALE
290
     1
  9
$INTERFERECOLOR
 62
   256
  9
$CSHADOW
280
     0
  9
$SHADOWPLANELOCATION
 40
0.0
  0
ENDSEC
  0
SECTION
  2
CLASSES
  0
CLASS
  1
ACDBDICTIONARYWDFLT
  2
AcDbDictionaryWithDefault
  3
ObjectDBX Classes
 90
        0
 91
        4
280
     0
281
     0
  0
CLASS
  1
VISUALSTYLE
  2
AcDbVisualStyle
  3
ObjectDBX Classes
 90
     4095
 91
        4
280
     0
281
     0
  0
CLASS
  1
MATERIAL
  2
AcDbMaterial
  3
ObjectDBX Classes
 90
     1153
 91
        4
280
     0
281
     0
  0
ENDSEC
  0
SECTION
  2
TABLES
  0
TABLE
  2
VPORT
  5
8
330
0
100
AcDbSymbolTable
 70
     1
  0
VPORT
  5
29
330
8
100
AcDbSymbolTableRecord
100
AcDbViewportTableRecord
  2
*Active
 70
     0
 10
0.0
 20
0.0
 11
1.0
 21
1.0
 12
0.0
 22
0.0
 13
0.0
 23
0.0
 14
10.0
 24
10.0
 15
10.0
 25
10.0
 16
0.0
 26
0.0
 36
1.0
 17
0.0
 27
0.0
 37
0.0
 40
6930.000000000001
 41
1.414285714285714
 42
50.0
 43
0.0
 44
0.0
 50
0.0
 51
0.0
 71
     0
 72
 10000
 73
     1
 74
     3
 75
     0
 76
     0
 77
     0
 78
     0
281
     0
 65
     1
110
0.0
120
0.0
130
0.0
111
1.0
121
0.0
131
0.0
112
0.0
122
1.0
132
0.0
 79
     0
146
0.0
 60
     3
 61
     5
292
     1
282
     1
141
0.0
142
0.0
 63
   250
  0
ENDTAB
  0
TABLE
  2
LTYPE
  5
5
330
0
100
AcDbSymbolTable
 70
     2
  0
LTYPE
  5
14
330
5
100
AcDbSymbolTableRecord
100
AcDbLinetypeTableRecord
  2
ByBlock
 70
     0
  3

 72
    65
 73
     0
 40
0.0
  0
LTYPE
  5
15
330
5
100
AcDbSymbolTableRecord
100
AcDbLinetypeTableRecord
  2
ByLayer
 70
     0
  3

 72
    65
 73
     0
 40
0.0
  0
LTYPE
  5
16
330
5
100
AcDbSymbolTableRecord
100
AcDbLinetypeTableRecord
  2
Continuous
 70
     0
  3
Solid line
 72
    65
 73
     0
 40
0.0
  0
LTYPE
  5
3F
330
5
100
AcDbSymbolTableRecord
100
AcDbLinetypeTableRecord
  2
JWW_DASHED1
 70
     0
  3
-  --  --  --  --  --  --  --  -
 72
    65
 73
     2
 40
1.693333333333333
 49
0.8466666666666667
 74
     0
 49
-0.8466666666666667
 74
     0
  0
ENDTAB
  0
TABLE
  2
LAYER
  5
2
330
0
100
AcDbSymbolTable
 70
     4
  0
LAYER
  5
10
330
2
100
AcDbSymbolTableRecord
100
AcDbLayerTableRecord
  2
0
 70
     0
 62
     7
  6
Continuous
370
    -3
390
F
347
3E
  0
LAYER
  5
40
330
2
100
AcDbSymbolTableRecord
100
AcDbLayerTableRecord
  2
0-0
 70
     0
 62
     7
  6
Continuous
370
    -3
390
F
347
3E
  0
LAYER
  5
41
330
2
100
AcDbSymbolTableRecord
100
AcDbLayerTableRecord
  2
文字
 70
     0
 62
     7
  6
Continuous
370
    -3
390
F
347
3E
  0
LAYER
  5
42
330
2
100
AcDbSymbolTableRecord
100
AcDbLayerTableRecord
  2
寸法
 70
     0
 62
     7
  6
Continuous
370
    -3
390
F
347
3E
  0
ENDTAB
  0
TABLE
  2
STYLE
  5
3
330
0
100
AcDbSymbolTable
 70
     1
  0
STYLE
  5
11
330
3
100
AcDbSymbolTableRecord
100
AcDbTextStyleTableRecord
  2
Standard
 70
     0
 40
0.0
 41
1.0
 50
0.0
 71
     0
 42
2.5
  3
txt
  4

  0
ENDTAB
  0
TABLE
  2
VIEW
  5
6
330
0
100
AcDbSymbolTable
 70
     0
  0
ENDTAB
  0
TABLE
  2
UCS
  5
7
330
0
100
AcDbSymbolTable
 70
     0
  0
ENDTAB
  0
TABLE
  2
APPID
  5
9
330
0
100
AcDbSymbolTable
 70
     1
  0
APPID
  5
12
330
9
100
AcDbSymbolTableRecord
100
AcDbRegAppTableRecord
  2
ACAD
 70
     0
  0
ENDTAB
  0
TABLE
  2
DIMSTYLE
  5
A
330
0
100
AcDbSymbolTable
 70
     1
100
AcDbDimStyleTable
  0
DIMSTYLE
105
27
330
A
100
AcDbSymbolTableRecord
100
AcDbDimStyleTableRecord
  2
ISO-25
 70
     0
 41
2.5
 42
0.625
 43
3.75
 44
1.25
 73
     0
 74
     0
 77
     1
 78
     8
140
2.5
141
2.5
143
0.03937007874016
147
0.625
171
     3
172
     1
178
     0
271
     2
272
     2
274
     3
278
    44
283
     0
284
     8
340
11
  0
ENDTAB
  0
TABLE
  2
BLOCK_RECORD
  5
1
330
0
100
AcDbSymbolTable
 70
     1
  0
BLOCK_RECORD
  5
1F
330
1
100
AcDbSymbolTableRecord
100
AcDbBlockTableRecord
  2
*Model_Space
340
22
 70
     0
280
     1
281
     0
  0
BLOCK_RECORD
  5
1B
330
1
100
AcDbSymbolTableRecord
100
AcDbBlockTableRecord
  2
*Paper_Space
340
1E
 70
     0
280
     1
281
     0
  0
BLOCK_RECORD
  5
23
330
1
100
AcDbSymbolTableRecord
100
AcDbBlockTableRecord
  2
*Paper_Space0
340
26
 70
     0
280
     1
281
     0
  0
ENDTAB
  0
ENDSEC
  0
SECTION
  2
BLOCKS
  0
BLOCK
  5
20
330
1F
100
AcDbEntity
  8
0
100
AcDbBlockBegin
  2
*Model_Space
 70
     0
 10
0.0
 20
0.0
 30
0.0
  3
*Model_Space
  1

  0
ENDBLK
  5
21
330
1F
100
AcDbEntity
  8
0
100
AcDbBlockEnd
  0
BLOCK
  5
1C
330
1B
100
AcDbEntity
 67
     1
  8
0
100
AcDbBlockBegin
  2
*Paper_Space
 70
     0
 10
0.0
 20
0.0
 30
0.0
  3
*Paper_Space
  1

  0
ENDBLK
  5
1D
330
1B
100
AcDbEntity
 67
     1
  8
0
100
AcDbBlockEnd
  0
BLOCK
  5
24
330
23
100
AcDbEntity
  8
0
100
AcDbBlockBegin
  2
*Paper_Space0
 70
     0
 10
0.0
 20
0.0
 30
0.0
  3
*Paper_Space0
  1

  0
ENDBLK
  5
25
330
23
100
AcDbEntity
  8
0
100
AcDbBlockEnd
  0
ENDSEC
  0
SECTION
  2
ENTITIES
  0
LINE
  5
43
330
1F
100
AcDbEntity
  8
0-0
  6
Continuous
 62
    92
370
    13
100
AcDbLine
 10
1640.797368735791
 20
-1076.720125512614
 30
0.0
 11
-1593.202631264207
 21
-1076.720125512614
 31
0.0
  0
LINE
  5
44
330
1F
100
AcDbEntity
  8
0-0
  6
Continuous
 62
    92
370
    13
100
AcDbLine
 10
1610.797368735791
 20
-1061.720125512614
 30
0.0
 11
-1563.202631264207
 21
-1061.720125512614
 31
0.0
  0
ARC
  5
45
330
1F
100
AcDbEntity
  8
0-0
  6
Continuous
 62
    92
370
    13
100
AcDbCircle
 10
-1534.702631264206
 20
-39.72012551261358
 30
0.0
 40
1.5
100
AcDbArc
 50
90.0
 51
180.0
  0
LINE
  5
46
330
1F
100
AcDbEntity
  8
0-0
  6
Continuous
 62
    92
370
    13
100
AcDbLine
 10
-1495.702631264207
 20
-38.22012551261324
 30
0.0
 11
-1534.702631264206
 21
-38.22012551261324
 31
0.0
  0
ARC
  5
47
330
1F
100
AcDbEntity
  8
0-0
  6
Continuous
 62
    92
370
    13
100
AcDbCircle
 10
-1495.702631264207
 20
-39.72012551261358
 30
0.0
 40
1.5
100
AcDbArc
 50
0.0
 51
90.00000000000001
  0
LINE
  5
48
330
1F
100
AcDbEntity
  8
0-0
  6
Continuous
 62
    92
370
    13
100
AcDbLine
 10
-1494.202631264207
 20
-158.7201255126128
 30
0.0
 11
-1494.202631264207
 21
-39.72012551261358
 31
0.0
  0
ARC
  5
49
330
1F
100
AcDbEntity
  8
0-0
  6
Continuous
 62
    92
370
    13
100
AcDbCircle
 10
-1495.702631264207
 20
-158.7201255126128
 30
0.0
 40
1.5
100
AcDbArc
 50
270.0
 51
0.0
  0
LINE
  5
4A
330
1F
100
AcDbEntity
  8
0-0
  6
Continuous
 62
    92
370
    13
100
AcDbLine
 10
-1534.702631264206
 20
-160.2201255126148
 30
0.0
 11
-1495.702631264207
 21
-160.2201255126148
 31
0.0
  0
LINE
  5
4B
330
1F
100
AcDbEntity
  8
0-0
  6
Continuous
 62
    92
370
    13
100
AcDbLine
 10
-1536.202631264206
 20
-158.7201255126128
 30
0.0
 11
-1536.202631264206
 21
-39.72012551261358
 31
0.0
  0
ARC
  5
4C
330
1F
100
AcDbEntity
  8
0-0
  6
Continuous
 62
    92
370
    13
100
AcDbCircle
 10
-1534.702631264206
 20
-158.7201255126128
 30
0.0
 40
1.5
100
AcDbArc
 50
180.0
 51
270.0
  0
ARC
  5
4D
330
1F
100
AcDbEntity
  8
0-0
  6
Continuous
 62
     7
370
     9
100
AcDbCircle
 10
-1515.202631264207
 20
-128.8201255126127
 30
0.0
 40
15.0
100
AcDbArc
 50
180.0
 51
0.0
  0
ARC
  5
4E
330
1F
100
AcDbEntity
  8
0-0
  6
Continuous
 62
     7
370
     9
100
AcDbCircle
 10
-1515.202631264207
 20
-69.62012551261282
 30
0.0
 40
15.0
100
AcDbArc
 50
0.0
 51
180.0
  0
LINE
  5
4F
330
1F
100
AcDbEntity
  8
0-0
  6
Continuous
 62
     7
370
     9
100
AcDbLine
 10
-1500.202631264207
 20
-128.8201255126127
 30
0.0
 11
-1500.202631264207
 21
-69.62012551261282
 31
0.0
  0
LINE
  5
50
330
1F
100
AcDbEntity
  8
0-0
  6
Continuous
 62
     7
370
     9
100
AcDbLine
 10
-1530.202631264207
 20
-69.62012551261282
 30
0.0
 11
-1530.202631264207
 21
-128.8201255126127
 31
0.0
  0
ARC
  5
51
330
1F
100
AcDbEntity
  8
0-0
  6
Continuous
 62
    92
370
    13
100
AcDbCircle
 10
-46.70263126420508
 20
-39.72012551261358
 30
0.0
 40
1.5
100
AcDbArc
 50
90.0
 51
180.0
  0
LINE
  5
52
330
1F
100
AcDbEntity
  8
0-0
  6
Continuous
 62
    92
370
    13
100
AcDbLine
 10
-7.702631264206445
 20
-38.22012551261324
 30
0.0
 11
-46.70263126420508
 21
-38.22012551261324
 31
0.0
  0
ARC
  5
53
330
1F
100
AcDbEntity
  8
0-0
  6
Continuous
 62
    92
370
    13
100
AcDbCircle
 10
-7.702631264206445
 20
-39.72012551261358
 30
0.0
 40
1.5
100
AcDbArc
 50
0.0
 51
90.00000000000001
  0
LINE
  5
54
330
1F
100
AcDbEntity
  8
0-0
  6
Continuous
 62
    92
370
    13
100
AcDbLine
 10
-6.202631264206104
 20
-158.7201255126128
 30
0.0
 11
-6.202631264206104
 21
-39.72012551261358
 31
0.0
  0
ARC
  5
55
330
1F
100
AcDbEntity
  8
0-0
  6
Continuous
 62
    92
370
    13
100
AcDbCircle
 10
-7.702631264206445
 20
-158.7201255126128
 30
0.0
 40
1.5
100
AcDbArc
 50
270.0
 51
0.0
  0
LINE
  5
56
330
1F
100
AcDbEntity
  8
0-0
  6
Continuous
 62
    92
370
    13
100
AcDbLine
 10
-46.70263126420508
 20
-160.2201255126148
 30
0.0
 11
-7.702631264206445
 21
-160.2201255126148
 31
0.0
  0
LINE
  5
57
330
1F
100
AcDbEntity
  8
0-0
  6
Continuous
 62
    92
370
    13
100
AcDbLine
 10
-48.20263126420542
 20
-158.7201255126128
 30
0.0
 11
-48.20263126420542
 21
-39.72012551261358
 31
0.0
  0
ARC
  5
58
330
1F
100
AcDbEntity
  8
0-0
  6
Continuous
 62
    92
370
    13
100
AcDbCircle
 10
-46.70263126420508
 20
-158.7201255126128
 30
0.0
 40
1.5
100
AcDbArc
 50
180.0
 51
270.0
  0
ARC
  5
59
330
1F
100
AcDbEntity
  8
0-0
  6
Continuous
 62
     7
370
     9
100
AcDbCircle
 10
-27.20263126420576
 20
-128.8201255126127
 30
0.0
 40
15.0
100
AcDbArc
 50
180.0
 51
0.0
  0
ARC
  5
5A
330
1F
100
AcDbEntity
  8
0-0
  6
Continuous
 62
     7
370
     9
100
AcDbCircle
 10
-27.20263126420576
 20
-69.62012551261282
 30
0.0
 40
15.0
100
AcDbArc
 50
0.0
 51
180.0
  0
LINE
  5
5B
330
1F
100
AcDbEntity
  8
0-0
  6
Continuous
 62
     7
370
     9
100
AcDbLine
 10
-12.20263126420576
 20
-128.8201255126127
 30
0.0
 11
-12.20263126420576
 21
-69.62012551261282
 31
0.0
  0
LINE
  5
5C
330
1F
100
AcDbEntity
  8
0-0
  6
Continuous
 62
     7
370
     9
100
AcDbLine
 10
-42.20263126420576
 20
-69.62012551261282
 30
0.0
 11
-42.20263126420576
 21
-128.8201255126127
 31
0.0
  0
ARC
  5
5D
330
1F
100
AcDbEntity
  8
0-0
  6
Continuous
 62
    92
370
    13
100
AcDbCircle
 10
55.29736873579083
 20
-39.72012551261358
 30
0.0
 40
1.5
100
AcDbArc
 50
90.0
 51
180.0
  0
LINE
  5
5E
330
1F
100
AcDbEntity
  8
0-0
  6
Continuous
 62
    92
370
    13
100
AcDbLine
 10
94.29736873578946
 20
-38.22012551261324
 30
0.0
 11
55.29736873579083
 21
-38.22012551261324
 31
0.0
  0
ARC
  5
5F
330
1F
100
AcDbEntity
  8
0-0
  6
Continuous
 62
    92
370
    13
100
AcDbCircle
 10
94.29736873578946
 20
-39.72012551261358
 30
0.0
 40
1.5
100
AcDbArc
 50
0.0
 51
90.00000000000001
  0
LINE
  5
60
330
1F
100
AcDbEntity
  8
0-0
  6
Continuous
 62
    92
370
    13
100
AcDbLine
 10
95.7973687357898
 20
-158.7201255126128
 30
0.0
 11
95.7973687357898
 21
-39.72012551261358
 31
0.0
  0
ARC
  5
61
330
1F
100
AcDbEntity
  8
0-0
  6
Continuous
 62
    92
370
    13
100
AcDbCircle
 10
94.29736873578946
 20
-158.7201255126128
 30
0.0
 40
1.5
100
AcDbArc
 50
270.0
 51
0.0
  0
LINE
  5
62
330
1F
100
AcDbEntity
  8
0-0
  6
Continuous
 62
    92
370
    13
100
AcDbLine
 10
55.29736873579083
 20
-160.2201255126148
 30
0.0
 11
94.29736873578946
 21
-160.2201255126148
 31
0.0
  0
LINE
  5
63
330
1F
100
AcDbEntity
  8
0-0
  6
Continuous
 62
    92
370
    13
100
AcDbLine
 10
53.79736873579049
 20
-158.7201255126128
 30
0.0
 11
53.79736873579049
 21
-39.72012551261358
 31
0.0
  0
ARC
  5
64
330
1F
100
AcDbEntity
  8
0-0
  6
Continuous
 62
    92
370
    13
100
AcDbCircle
 10
55.29736873579083
 20
-158.7201255126128
 30
0.0
 40
1.5
100
AcDbArc
 50
180.0
 51
270.0
  0
ARC
  5
65
330
1F
100
AcDbEntity
  8
0-0
  6
Continuous
 62
     7
370
     9
100
AcDbCircle
 10
74.79736873579014
 20
-128.8201255126127
 30
0.0
 40
15.0
100
AcDbArc
 50
180.0
 51
0.0
  0
ARC
  5
66
330
1F
100
AcDbEntity
  8
0-0
  6
Continuous
 62
     7
370
     9
100
AcDbCircle
 10
74.79736873579014
 20
-69.62012551261282
 30
0.0
 40
15.0
100
AcDbArc
 50
0.0
 51
180.0
  0
LINE
  5
67
330
1F
100
AcDbEntity
  8
0-0
  6
Continuous
 62
     7
370
     9
100
AcDbLine
 10
89.79736873579014
 20
-128.8201255126127
 30
0.0
 11
89.79736873579014
 21
-69.62012551261282
 31
0.0
  0
LINE
  5
68
330
1F
100
AcDbEntity
  8
0-0
  6
Continuous
 62
     7
370
     9
100
AcDbLine
 10
59.79736873579014
 20
-69.62012551261282
 30
0.0
 11
59.79736873579014
 21
-128.8201255126127
 31
0.0
  0
ARC
  5
69
330
1F
100
AcDbEntity
  8
0-0
  6
Continuous
 62
    92
370
    13
100
AcDbCircle
 10
1543.297368735794
 20
-39.72012551261358
 30
0.0
 40
1.5
100
AcDbArc
 50
90.0
 51
180.0
  0
LINE
  5
6A
330
1F
100
AcDbEntity
  8
0-0
  6
Continuous
 62
    92
370
    13
100
AcDbLine
 10
1582.297368735794
 20
-38.22012551261324
 30
0.0
 11
1543.297368735794
 21
-38.22012551261324
 31
0.0
  0
ARC
  5
6B
330
1F
100
AcDbEntity
  8
0-0
  6
Continuous
 62
    92
370
    13
100
AcDbCircle
 10
1582.297368735794
 20
-39.72012551261358
 30
0.0
 40
1.5
100
AcDbArc
 50
0.0
 51
90.00000000000001
  0
LINE
  5
6C
330
1F
100
AcDbEntity
  8
0-0
  6
Continuous
 62
    92
370
    13
100
AcDbLine
 10
1583.797368735794
 20
-158.7201255126128
 30
0.0
 11
1583.797368735794
 21
-39.72012551261358
 31
0.0
  0
ARC
  5
6D
330
1F
100
AcDbEntity
  8
0-0
  6
Continuous
 62
    92
370
    13
100
AcDbCircle
 10
1582.297368735794
 20
-158.7201255126128
 30
0.0
 40
1.5
100
AcDbArc
 50
270.0
 51
0.0
  0
LINE
  5
6E
330
1F
100
AcDbEntity
  8
0-0
  6
Continuous
 62
    92
370
    13
100
AcDbLine
 10
1543.297368735794
 20
-160.2201255126148
 30
0.0
 11
1582.297368735794
 21
-160.2201255126148
 31
0.0
  0
LINE
  5
6F
330
1F
100
AcDbEntity
  8
0-0
  6
Continuous
 62
    92
370
    13
100
AcDbLine
 10
1541.797368735795
 20
-158.7201255126128
 30
0.0
 11
1541.797368735795
 21
-39.72012551261358
 31
0.0
  0
ARC
  5
70
330
1F
100
AcDbEntity
  8
0-0
  6
Continuous
 62
    92
370
    13
100
AcDbCircle
 10
1543.297368735794
 20
-158.7201255126128
 30
0.0
 40
1.5
100
AcDbArc
 50
180.0
 51
270.0
  0
ARC
  5
71
330
1F
100
AcDbEntity
  8
0-0
  6
Continuous
 62
     7
370
     9
100
AcDbCircle
 10
1562.797368735794
 20
-128.8201255126127
 30
0.0
 40
15.0
100
AcDbArc
 50
180.0
 51
0.0
  0
ARC
  5
72
330
1F
100
AcDbEntity
  8
0-0
  6
Continuous
 62
     7
370
     9
100
AcDbCircle
 10
1562.797368735794
 20
-69.62012551261282
 30
0.0
 40
15.0
100
AcDbArc
 50
0.0
 51
180.0
  0
LINE
  5
73
330
1F
100
AcDbEntity
  8
0-0
  6
Continuous
 62
     7
370
     9
100
AcDbLine
 10
1577.797368735794
 20
-128.8201255126127
 30
0.0
 11
1577.797368735794
 21
-69.62012551261282
 31
0.0
  0
LINE
  5
74
330
1F
100
AcDbEntity
  8
0-0
  6
Continuous
 62
     7
370
     9
100
AcDbLine
 10
1547.797368735794
 20
-69.62012551261282
 30
0.0
 11
1547.797368735794
 21
-128.8201255126127
 31
0.0
  0
LINE
  5
75
330
1F
100
AcDbEntity
  8
0-0
  6
Continuous
 62
    92
370
    13
100
AcDbLine
 10
-1563.202631264207
 20
-1056.720125512614
 30
0.0
 11
23.79736873579219
 21
-1056.720125512614
 31
0.0
  0
LINE
  5
76
330
1F
100
AcDbEntity
  8
0-0
  6
Continuous
 62
    92
370
    13
100
AcDbLine
 10
1610.797368735791
 20
-1056.720125512614
 30
0.0
 11
23.79736873579219
 21
-1056.720125512614
 31
0.0
  0
LINE
  5
77
330
1F
100
AcDbEntity
  8
0-0
  6
JWW_DASHED1
 62
   120
370
     5
100
AcDbLine
 10
-1563.202631264207
 20
-1056.720125512614
 30
0.0
 11
-1566.202631264208
 21
-1056.720125512614
 31
0.0
  0
LINE
  5
78
330
1F
100
AcDbEntity
  8
0-0
  6
JWW_DASHED1
 62
   120
370
     5
100
AcDbLine
 10
1610.797368735791
 20
-1056.720125512614
 30
0.0
 11
1613.797368735792
 21
-1056.720125512614
 31
0.0
  0
LINE
  5
79
330
1F
100
AcDbEntity
  8
0-0
  6
Continuous
 62
    92
370
    13
100
AcDbLine
 10
-1593.202631264207
 20
1170.279874487387
 30
0.0
 11
1640.797368735791
 21
1170.279874487387
 31
0.0
  0
LINE
  5
7A
330
1F
100
AcDbEntity
  8
0-0
  6
Continuous
 62
    92
370
    13
100
AcDbLine
 10
-1563.202631264207
 20
1134.279874487385
 30
0.0
 11
1610.797368735791
 21
1134.279874487385
 31
0.0
  0
LINE
  5
7B
330
1F
100
AcDbEntity
  8
0-0
  6
Continuous
 62
    92
370
    13
100
AcDbLine
 10
1610.797368735791
 20
-1076.720125512614
 30
0.0
 11
1610.797368735791
 21
1170.279874487387
 31
0.0
  0
LINE
  5
7C
330
1F
100
AcDbEntity
  8
0-0
  6
Continuous
 62
    92
370
    13
100
AcDbLine
 10
-1563.202631264207
 20
-1076.720125512614
 30
0.0
 11
-1563.202631264207
 21
1170.279874487387
 31
0.0
  0
LINE
  5
7D
330
1F
100
AcDbEntity
  8
0-0
  6
Continuous
 62
    92
370
    13
100
AcDbLine
 10
1640.797368735791
 20
-1076.720125512614
 30
0.0
 11
1640.797368735791
 21
1170.279874487387
 31
0.0
  0
LINE
  5
7E
330
1F
100
AcDbEntity
  8
0-0
  6
Continuous
 62
    92
370
    13
100
AcDbLine
 10
-1593.202631264207
 20
-1076.720125512614
 30
0.0
 11
-1593.202631264207
 21
1170.279874487387
 31
0.0
  0
LINE
  5
7F
330
1F
100
AcDbEntity
  8
0-0
  6
Continuous
 62
    92
370
    13
100
AcDbLine
 10
-786.2026312642079
 20
-1056.720125512614
 30
0.0
 11
-786.2026312642079
 21
1126.279874487386
 31
0.0
  0
LINE
  5
80
330
1F
100
AcDbEntity
  8
0-0
  6
JWW_DASHED1
 62
   120
370
     5
100
AcDbLine
 10
-756.2026312642079
 20
-1056.720125512614
 30
0.0
 11
-756.2026312642079
 21
1126.279874487386
 31
0.0
  0
LINE
  5
81
330
1F
100
AcDbEntity
  8
0-0
  6
Continuous
 62
    92
370
    13
100
AcDbLine
 10
-1563.202631264207
 20
1126.279874487386
 30
0.0
 11
23.79736873579219
 21
1126.279874487386
 31
0.0
  0
LINE
  5
82
330
1F
100
AcDbEntity
  8
0-0
  6
Continuous
 62
    92
370
    13
100
AcDbLine
 10
23.79736873579219
 20
-1056.720125512614
 30
0.0
 11
23.79736873579219
 21
1126.279874487386
 31
0.0
  0
LINE
  5
83
330
1F
100
AcDbEntity
  8
0-0
  6
Continuous
 62
    92
370
    13
100
AcDbLine
 10
833.7973687357921
 20
-1056.720125512614
 30
0.0
 11
833.7973687357921
 21
1126.279874487386
 31
0.0
  0
LINE
  5
84
330
1F
100
AcDbEntity
  8
0-0
  6
JWW_DASHED1
 62
   120
370
     5
100
AcDbLine
 10
803.7973687357921
 20
-1056.720125512614
 30
0.0
 11
803.7973687357921
 21
1126.279874487386
 31
0.0
  0
LINE
  5
85
330
1F
100
AcDbEntity
  8
0-0
  6
Continuous
 62
    92
370
    13
100
AcDbLine
 10
1610.797368735791
 20
1126.279874487386
 30
0.0
 11
23.79736873579219
 21
1126.279874487386
 31
0.0
  0
LINE
  5
86
330
1F
100
AcDbEntity
  8
0-0
  6
JWW_DASHED1
 62
   120
370
     5
100
AcDbLine
 10
-1566.202631264208
 20
-1056.720125512614
 30
0.0
 11
-1566.202631264208
 21
1126.279874487386
 31
0.0
  0
LINE
  5
87
330
1F
100
AcDbEntity
  8
0-0
  6
JWW_DASHED1
 62
   120
370
     5
100
AcDbLine
 10
-1566.202631264208
 20
1126.279874487386
 30
0.0
 11
-1563.202631264207
 21
1126.279874487386
 31
0.0
  0
LINE
  5
88
330
1F
100
AcDbEntity
  8
0-0
  6
JWW_DASHED1
 62
   120
370
     5
100
AcDbLine
 10
1613.797368735792
 20
-1056.720125512614
 30
0.0
 11
1613.797368735792
 21
1126.279874487386
 31
0.0
  0
LINE
  5
89
330
1F
100
AcDbEntity
  8
0-0
  6
JWW_DASHED1
 62
   120
370
     5
100
AcDbLine
 10
1613.797368735792
 20
1126.279874487386
 30
0.0
 11
1610.797368735791
 21
1126.279874487386
 31
0.0
  0
LINE
  5
8A
330
1F
100
AcDbEntity
  8
0-0
  6
Continuous
 62
     7
370
     9
100
AcDbLine
 10
1423.797368735792
 20
-1048.720125512614
 30
0.0
 11
1503.797368735792
 21
-1048.720125512614
 31
0.0
  0
LINE
  5
8B
330
1F
100
AcDbEntity
  8
0-0
  6
Continuous
 62
     7
370
     9
100
AcDbLine
 10
-166.2026312642089
 20
-1048.720125512614
 30
0.0
 11
-86.20263126420838
 21
-1048.720125512614
 31
0.0
  0
LINE
  5
8C
330
1F
100
AcDbEntity
  8
0-0
  6
Continuous
 62
     7
370
     9
100
AcDbLine
 10
-1376.202631264207
 20
-1048.720125512614
 30
0.0
 11
-1456.202631264207
 21
-1048.720125512614
 31
0.0
  0
LINE
  5
8D
330
1F
100
AcDbEntity
  8
0-0
  6
Continuous
 62
     7
370
     9
100
AcDbLine
 10
213.7973687357933
 20
-1048.720125512614
 30
0.0
 11
133.7973687357928
 21
-1048.720125512614
 31
0.0
  0
LINE
  5
8E
330
1F
100
AcDbEntity
  8
0-0
  6
Continuous
 62
    92
370
    13
100
AcDbLine
 10
1423.797368735792
 20
-1056.720125512614
 30
0.0
 11
1423.797368735792
 21
1126.279874487386
 31
0.0
  0
LINE
  5
8F
330
1F
100
AcDbEntity
  8
0-0
  6
Continuous
 62
     7
370
     9
100
AcDbLine
 10
1423.797368735792
 20
1118.279874487386
 30
0.0
 11
1503.797368735792
 21
1118.279874487386
 31
0.0
  0
LINE
  5
90
330
1F
100
AcDbEntity
  8
0-0
  6
Continuous
 62
    92
370
    13
100
AcDbLine
 10
1503.797368735792
 20
-1056.720125512614
 30
0.0
 11
1503.797368735792
 21
1126.279874487386
 31
0.0
  0
LINE
  5
91
330
1F
100
AcDbEntity
  8
0-0
  6
Continuous
 62
    92
370
    13
100
AcDbLine
 10
-86.20263126420838
 20
-1056.720125512614
 30
0.0
 11
-86.20263126420838
 21
1126.279874487386
 31
0.0
  0
LINE
  5
92
330
1F
100
AcDbEntity
  8
0-0
  6
Continuous
 62
     7
370
     9
100
AcDbLine
 10
-166.2026312642089
 20
1118.279874487386
 30
0.0
 11
-86.20263126420838
 21
1118.279874487386
 31
0.0
  0
LINE
  5
93
330
1F
100
AcDbEntity
  8
0-0
  6
Continuous
 62
    92
370
    13
100
AcDbLine
 10
-166.2026312642089
 20
-1056.720125512614
 30
0.0
 11
-166.2026312642089
 21
1126.279874487386
 31
0.0
  0
LINE
  5
94
330
1F
100
AcDbEntity
  8
0-0
  6
Continuous
 62
    92
370
    13
100
AcDbLine
 10
-1376.202631264207
 20
-1056.720125512614
 30
0.0
 11
-1376.202631264207
 21
1126.279874487386
 31
0.0
  0
LINE
  5
95
330
1F
100
AcDbEntity
  8
0-0
  6
Continuous
 62
     7
370
     9
100
AcDbLine
 10
-1376.202631264207
 20
1118.279874487386
 30
0.0
 11
-1456.202631264207
 21
1118.279874487386
 31
0.0
  0
LINE
  5
96
330
1F
100
AcDbEntity
  8
0-0
  6
Continuous
 62
    92
370
    13
100
AcDbLine
 10
-1456.202631264207
 20
-1056.720125512614
 30
0.0
 11
-1456.202631264207
 21
1126.279874487386
 31
0.0
  0
LINE
  5
97
330
1F
100
AcDbEntity
  8
0-0
  6
Continuous
 62
    92
370
    13
100
AcDbLine
 10
213.7973687357933
 20
-1056.720125512614
 30
0.0
 11
213.7973687357933
 21
1126.279874487386
 31
0.0
  0
LINE
  5
98
330
1F
100
AcDbEntity
  8
0-0
  6
Continuous
 62
     7
370
     9
100
AcDbLine
 10
213.7973687357933
 20
1118.279874487386
 30
0.0
 11
133.7973687357928
 21
1118.279874487386
 31
0.0
  0
LINE
  5
99
330
1F
100
AcDbEntity
  8
0-0
  6
Continuous
 62
    92
370
    13
100
AcDbLine
 10
133.7973687357928
 20
-1056.720125512614
 30
0.0
 11
133.7973687357928
 21
1126.279874487386
 31
0.0
  0
LINE
  5
9A
330
1F
100
AcDbEntity
  8
0-0
  6
JWW_DASHED1
 62
   120
370
     5
100
AcDbLine
 10
-1386.050168371559
 20
-1048.720125512609
 30
0.0
 11
-1376.202631264215
 21
-1038.872588405265
 31
0.0
  0
LINE
  5
9B
330
1F
100
AcDbEntity
  8
0-0
  6
JWW_DASHED1
 62
   120
370
     5
100
AcDbLine
 10
-1395.949663306722
 20
-1048.72012551261
 30
0.0
 11
-1376.202631264213
 21
-1028.973093470101
 31
0.0
  0
LINE
  5
9C
330
1F
100
AcDbEntity
  8
0-0
  6
JWW_DASHED1
 62
   120
370
     5
100
AcDbLine
 10
-1405.849158241946
 20
-1048.720125512617
 30
0.0
 11
-1376.202631264205
 21
-1019.073598534877
 31
0.0
  0
LINE
  5
9D
330
1F
100
AcDbEntity
  8
0-0
  6
JWW_DASHED1
 62
   120
370
     5
100
AcDbLine
 10
-1415.748653177162
 20
-1048.720125512617
 30
0.0
 11
-1376.202631264214
 21
-1009.174103599668
 31
0.0
  0
LINE
  5
9E
330
1F
100
AcDbEntity
  8
0-0
  6
JWW_DASHED1
 62
   120
370
     5
100
AcDbLine
 10
-1425.648148112318
 20
-1048.720125512612
 30
0.0
 11
-1376.20263126421
 21
-999.2746086645036
 31
0.0
  0
LINE
  5
9F
330
1F
100
AcDbEntity
  8
0-0
  6
JWW_DASHED1
 62
   120
370
     5
100
AcDbLine
 10
-1435.547643047527
 20
-1048.720125512604
 30
0.0
 11
-1376.202631264219
 21
-989.3751137292958
 31
0.0
  0
LINE
  5
A0
330
1F
100
AcDbEntity
  8
0-0
  6
JWW_DASHED1
 62
   120
370
     5
100
AcDbLine
 10
-1445.447137982765
 20
-1048.720125512626
 30
0.0
 11
-1376.202631264212
 21
-979.4756187940718
 31
0.0
  0
LINE
  5
A1
330
1F
100
AcDbEntity
  8
0-0
  6
JWW_DASHED1
 62
   120
370
     5
100
AcDbLine
 10
-1455.346632917916
 20
-1048.720125512615
 30
0.0
 11
-1376.202631264224
 21
-969.5761238589223
 31
0.0
  0
LINE
  5
A2
330
1F
100
AcDbEntity
  8
0-0
  6
JWW_DASHED1
 62
   120
370
     5
100
AcDbLine
 10
-1456.202631264214
 20
-1039.676628923697
 30
0.0
 11
-1376.202631264216
 21
-959.6766289236987
 31
0.0
  0
LINE
  5
A3
330
1F
100
AcDbEntity
  8
0-0
  6
JWW_DASHED1
 62
   120
370
     5
100
AcDbLine
 10
-1456.202631264192
 20
-1029.777133988457
 30
0.0
 11
-1376.202631264209
 21
-949.7771339884755
 31
0.0
  0
LINE
  5
A4
330
1F
100
AcDbEntity
  8
0-0
  6
JWW_DASHED1
 62
   120
370
     5
100
AcDbLine
 10
-1456.202631264204
 20
-1019.877639053308
 30
0.0
 11
-1376.202631264222
 21
-939.8776390533261
 31
0.0
  0
LINE
  5
A5
330
1F
100
AcDbEntity
  8
0-0
  6
JWW_DASHED1
 62
   120
370
     5
100
AcDbLine
 10
-1456.202631264212
 20
-1009.978144118101
 30
0.0
 11
-1376.202631264214
 21
-929.9781441181017
 31
0.0
  0
LINE
  5
A6
330
1F
100
AcDbEntity
  8
0-0
  6
JWW_DASHED1
 62
   120
370
     5
100
AcDbLine
 10
-1456.202631264206
 20
-1000.078649182877
 30
0.0
 11
-1376.202631264207
 21
-920.0786491828785
 31
0.0
  0
LINE
  5
A7
330
1F
100
AcDbEntity
  8
0-0
  6
JWW_DASHED1
 62
   120
370
     5
100
AcDbLine
 10
-1456.202631264202
 20
-990.1791542477122
 30
0.0
 11
-1376.202631264219
 21
-910.1791542477291
 31
0.0
  0
LINE
  5
A8
330
1F
100
AcDbEntity
  8
0-0
  6
JWW_DASHED1
 62
   120
370
     5
100
AcDbLine
 10
-1456.202631264211
 20
-980.2796593125036
 30
0.0
 11
-1376.202631264211
 21
-900.2796593125047
 31
0.0
  0
LINE
  5
A9
330
1F
100
AcDbEntity
  8
0-0
  6
JWW_DASHED1
 62
   120
370
     5
100
AcDbLine
 10
-1456.202631264203
 20
-970.3801643772804
 30
0.0
 11
-1376.202631264205
 21
-890.3801643772819
 31
0.0
  0
LINE
  5
AA
330
1F
100
AcDbEntity
  8
0-0
  6
JWW_DASHED1
 62
   120
370
     5
100
AcDbLine
 10
-1456.2026312642
 20
-960.4806694421155
 30
0.0
 11
-1376.202631264217
 21
-880.4806694421329
 31
0.0
  0
LINE
  5
AB
330
1F
100
AcDbEntity
  8
0-0
  6
JWW_DASHED1
 62
   120
370
     5
100
AcDbLine
 10
-1456.202631264207
 20
-950.5811745069065
 30
0.0
 11
-1376.202631264224
 21
-870.5811745069234
 31
0.0
  0
LINE
  5
AC
330
1F
100
AcDbEntity
  8
0-0
  6
JWW_DASHED1
 62
   120
370
     5
100
AcDbLine
 10
-1456.202631264217
 20
-940.6816795717281
 30
0.0
 11
-1376.202631264219
 21
-860.6816795717288
 31
0.0
  0
LINE
  5
AD
330
1F
100
AcDbEntity
  8
0-0
  6
JWW_DASHED1
 62
   120
370
     5
100
AcDbLine
 10
-1456.202631264197
 20
-930.7821846365185
 30
0.0
 11
-1376.202631264215
 21
-850.7821846365358
 31
0.0
  0
LINE
  5
AE
330
1F
100
AcDbEntity
  8
0-0
  6
JWW_DASHED1
 62
   120
370
     5
100
AcDbLine
 10
-1456.202631264207
 20
-920.8826897013107
 30
0.0
 11
-1376.202631264224
 21
-840.882689701328
 31
0.0
  0
LINE
  5
AF
330
1F
100
AcDbEntity
  8
0-0
  6
JWW_DASHED1
 62
   120
370
     5
100
AcDbLine
 10
-1456.202631264217
 20
-910.9831947661604
 30
0.0
 11
-1376.202631264219
 21
-830.9831947661615
 31
0.0
  0
LINE
  5
B0
330
1F
100
AcDbEntity
  8
0-0
  6
JWW_DASHED1
 62
   120
370
     5
100
AcDbLine
 10
-1456.202631264195
 20
-901.0836998309219
 30
0.0
 11
-1376.202631264213
 21
-821.0836998309392
 31
0.0
  0
LINE
  5
B1
330
1F
100
AcDbEntity
  8
0-0
  6
JWW_DASHED1
 62
   120
370
     5
100
AcDbLine
 10
-1456.202631264204
 20
-891.1842048957136
 30
0.0
 11
-1376.202631264222
 21
-811.1842048957315
 31
0.0
  0
LINE
  5
B2
330
1F
100
AcDbEntity
  8
0-0
  6
JWW_DASHED1
 62
   120
370
     5
100
AcDbLine
 10
-1456.202631264215
 20
-881.2847099605633
 30
0.0
 11
-1376.202631264216
 21
-801.2847099605644
 31
0.0
  0
LINE
  5
B3
330
1F
100
AcDbEntity
  8
0-0
  6
JWW_DASHED1
 62
   120
370
     5
100
AcDbLine
 10
-1456.202631264194
 20
-871.3852150253249
 30
0.0
 11
-1376.20263126421
 21
-791.3852150253422
 31
0.0
  0
LINE
  5
B4
330
1F
100
AcDbEntity
  8
0-0
  6
JWW_DASHED1
 62
   120
370
     5
100
AcDbLine
 10
-1456.2026312642
 20
-861.4857200901166
 30
0.0
 11
-1376.202631264219
 21
-781.4857200901344
 31
0.0
  0
LINE
  5
B5
330
1F
100
AcDbEntity
  8
0-0
  6
JWW_DASHED1
 62
   120
370
     5
100
AcDbLine
 10
-1456.202631264212
 20
-851.5862251549663
 30
0.0
 11
-1376.202631264214
 21
-771.5862251549675
 31
0.0
  0
LINE
  5
B6
330
1F
100
AcDbEntity
  8
0-0
  6
JWW_DASHED1
 62
   120
370
     5
100
AcDbLine
 10
-1456.202631264207
 20
-841.686730219744
 30
0.0
 11
-1376.202631264208
 21
-761.6867302197455
 31
0.0
  0
LINE
  5
B7
330
1F
100
AcDbEntity
  8
0-0
  6
JWW_DASHED1
 62
   120
370
     5
100
AcDbLine
 10
-1456.2026312642
 20
-831.7872352845209
 30
0.0
 11
-1376.202631264217
 21
-751.7872352845382
 31
0.0
  0
LINE
  5
B8
330
1F
100
AcDbEntity
  8
0-0
  6
JWW_DASHED1
 62
   120
370
     5
100
AcDbLine
 10
-1456.20263126421
 20
-821.8877403493693
 30
0.0
 11
-1376.202631264212
 21
-741.8877403493708
 31
0.0
  0
LINE
  5
B9
330
1F
100
AcDbEntity
  8
0-0
  6
JWW_DASHED1
 62
   120
370
     5
100
AcDbLine
 10
-1456.202631264204
 20
-811.988245414147
 30
0.0
 11
-1376.202631264207
 21
-731.9882454141493
 31
0.0
  0
LINE
  5
BA
330
1F
100
AcDbEntity
  8
0-0
  6
JWW_DASHED1
 62
   120
370
     5
100
AcDbLine
 10
-1456.202631264197
 20
-802.0887504789238
 30
0.0
 11
-1376.202631264214
 21
-722.0887504789412
 31
0.0
  0
LINE
  5
BB
330
1F
100
AcDbEntity
  8
0-0
  6
JWW_DASHED1
 62
   120
370
     5
100
AcDbLine
 10
-1456.202631264208
 20
-792.1892555437727
 30
0.0
 11
-1376.202631264208
 21
-712.1892555437738
 31
0.0
  0
LINE
  5
BC
330
1F
100
AcDbEntity
  8
0-0
  6
JWW_DASHED1
 62
   120
370
     5
100
AcDbLine
 10
-1456.202631264216
 20
-782.2897606085644
 30
0.0
 11
-1376.202631264217
 21
-702.2897606085655
 31
0.0
  0
LINE
  5
BD
330
1F
100
AcDbEntity
  8
0-0
  6
JWW_DASHED1
 62
   120
370
     5
100
AcDbLine
 10
-1456.202631264194
 20
-772.3902656733267
 30
0.0
 11
-1376.202631264212
 21
-692.3902656733445
 31
0.0
  0
LINE
  5
BE
330
1F
100
AcDbEntity
  8
0-0
  6
JWW_DASHED1
 62
   120
370
     5
100
AcDbLine
 10
-1456.202631264206
 20
-762.4907707381756
 30
0.0
 11
-1376.202631264222
 21
-682.4907707381925
 31
0.0
  0
LINE
  5
BF
330
1F
100
AcDbEntity
  8
0-0
  6
JWW_DASHED1
 62
   120
370
     5
100
AcDbLine
 10
-1456.202631264214
 20
-752.5912758029674
 30
0.0
 11
-1376.202631264214
 21
-672.5912758029685
 31
0.0
  0
LINE
  5
C0
330
1F
100
AcDbEntity
  8
0-0
  6
JWW_DASHED1
 62
   120
370
     5
100
AcDbLine
 10
-1456.202631264193
 20
-742.6917808677301
 30
0.0
 11
-1376.20263126421
 21
-662.6917808677474
 31
0.0
  0
LINE
  5
C1
330
1F
100
AcDbEntity
  8
0-0
  6
JWW_DASHED1
 62
   120
370
     5
100
AcDbLine
 10
-1456.202631264206
 20
-732.7922859325811
 30
0.0
 11
-1376.202631264222
 21
-652.7922859325985
 31
0.0
  0
LINE
  5
C2
330
1F
100
AcDbEntity
  8
0-0
  6
JWW_DASHED1
 62
   120
370
     5
100
AcDbLine
 10
-1456.202631264212
 20
-722.8927909973711
 30
0.0
 11
-1376.202631264212
 21
-642.8927909973714
 31
0.0
  0
LINE
  5
C3
330
1F
100
AcDbEntity
  8
0-0
  6
JWW_DASHED1
 62
   120
370
     5
100
AcDbLine
 10
-1456.202631264207
 20
-712.9932960621493
 30
0.0
 11
-1376.202631264208
 21
-632.9932960621509
 31
0.0
  0
LINE
  5
C4
330
1F
100
AcDbEntity
  8
0-0
  6
JWW_DASHED1
 62
   120
370
     5
100
AcDbLine
 10
-1456.202631264204
 20
-703.0938011269845
 30
0.0
 11
-1376.20263126422
 21
-623.0938011270018
 31
0.0
  0
LINE
  5
C5
330
1F
100
AcDbEntity
  8
0-0
  6
JWW_DASHED1
 62
   120
370
     5
100
AcDbLine
 10
-1456.202631264209
 20
-693.1943061917732
 30
0.0
 11
-1376.20263126421
 21
-613.1943061917748
 31
0.0
  0
LINE
  5
C6
330
1F
100
AcDbEntity
  8
0-0
  6
JWW_DASHED1
 62
   120
370
     5
100
AcDbLine
 10
-1456.202631264217
 20
-683.2948112565655
 30
0.0
 11
-1376.202631264218
 21
-603.2948112565666
 31
0.0
  0
LINE
  5
C7
330
1F
100
AcDbEntity
  8
0-0
  6
JWW_DASHED1
 62
   120
370
     5
100
AcDbLine
 10
-1456.2026312642
 20
-673.3953163213874
 30
0.0
 11
-1376.202631264219
 21
-593.3953163214056
 31
0.0
  0
LINE
  5
C8
330
1F
100
AcDbEntity
  8
0-0
  6
JWW_DASHED1
 62
   120
370
     5
100
AcDbLine
 10
-1456.202631264207
 20
-663.4958213861771
 30
0.0
 11
-1376.202631264224
 21
-583.4958213861939
 31
0.0
  0
LINE
  5
C9
330
1F
100
AcDbEntity
  8
0-0
  6
JWW_DASHED1
 62
   120
370
     5
100
AcDbLine
 10
-1456.202631264214
 20
-653.5963264509684
 30
0.0
 11
-1376.202631264215
 21
-573.5963264509695
 31
0.0
  0
LINE
  5
CA
330
1F
100
AcDbEntity
  8
0-0
  6
JWW_DASHED1
 62
   120
370
     5
100
AcDbLine
 10
-1456.202631264199
 20
-643.6968315157903
 30
0.0
 11
-1376.202631264216
 21
-563.6968315158085
 31
0.0
  0
LINE
  5
CB
330
1F
100
AcDbEntity
  8
0-0
  6
JWW_DASHED1
 62
   120
370
     5
100
AcDbLine
 10
-1456.202631264207
 20
-633.797336580583
 30
0.0
 11
-1376.202631264225
 21
-553.7973365806008
 31
0.0
  0
LINE
  5
CC
330
1F
100
AcDbEntity
  8
0-0
  6
JWW_DASHED1
 62
   120
370
     5
100
AcDbLine
 10
-1456.202631264216
 20
-623.8978416454302
 30
0.0
 11
-1376.202631264219
 21
-543.8978416454322
 31
0.0
  0
LINE
  5
CD
330
1F
100
AcDbEntity
  8
0-0
  6
JWW_DASHED1
 62
   120
370
     5
100
AcDbLine
 10
-1456.202631264196
 20
-613.9983467101943
 30
0.0
 11
-1376.202631264214
 21
-533.9983467102115
 31
0.0
  0
LINE
  5
CE
330
1F
100
AcDbEntity
  8
0-0
  6
JWW_DASHED1
 62
   120
370
     5
100
AcDbLine
 10
-1456.202631264205
 20
-604.0988517749863
 30
0.0
 11
-1376.202631264222
 21
-524.0988517750037
 31
0.0
  0
LINE
  5
CF
330
1F
100
AcDbEntity
  8
0-0
  6
JWW_DASHED1
 62
   120
370
     5
100
AcDbLine
 10
-1456.202631264214
 20
-594.1993568398344
 30
0.0
 11
-1376.202631264215
 21
-514.1993568398346
 31
0.0
  0
LINE
  5
D0
330
1F
100
AcDbEntity
  8
0-0
  6
JWW_DASHED1
 62
   120
370
     5
100
AcDbLine
 10
-1456.202631264194
 20
-584.2998619045976
 30
0.0
 11
-1376.202631264212
 21
-504.2998619046149
 31
0.0
  0
LINE
  5
D1
330
1F
100
AcDbEntity
  8
0-0
  6
JWW_DASHED1
 62
   120
370
     5
100
AcDbLine
 10
-1456.202631264202
 20
-574.4003669693893
 30
0.0
 11
-1376.202631264219
 21
-494.4003669694067
 31
0.0
  0
LINE
  5
D2
330
1F
100
AcDbEntity
  8
0-0
  6
JWW_DASHED1
 62
   120
370
     5
100
AcDbLine
 10
-1456.202631264212
 20
-564.5008720342373
 30
0.0
 11
-1376.202631264212
 21
-484.5008720342377
 31
0.0
  0
LINE
  5
D3
330
1F
100
AcDbEntity
  8
0-0
  6
JWW_DASHED1
 62
   120
370
     5
100
AcDbLine
 10
-1456.202631264207
 20
-554.6013770990163
 30
0.0
 11
-1376.20263126421
 21
-474.6013770990183
 31
0.0
  0
LINE
  5
D4
330
1F
100
AcDbEntity
  8
0-0
  6
JWW_DASHED1
 62
   120
370
     5
100
AcDbLine
 10
-1456.2026312642
 20
-544.7018821637927
 30
0.0
 11
-1376.202631264217
 21
-464.7018821638101
 31
0.0
  0
LINE
  5
D5
330
1F
100
AcDbEntity
  8
0-0
  6
JWW_DASHED1
 62
   120
370
     5
100
AcDbLine
 10
-1456.202631264209
 20
-534.8023872286403
 30
0.0
 11
-1376.20263126421
 21
-454.802387228641
 31
0.0
  0
LINE
  5
D6
330
1F
100
AcDbEntity
  8
0-0
  6
JWW_DASHED1
 62
   120
370
     5
100
AcDbLine
 10
-1456.202631264206
 20
-524.9028922934197
 30
0.0
 11
-1376.202631264207
 21
-444.9028922934212
 31
0.0
  0
LINE
  5
D7
330
1F
100
AcDbEntity
  8
0-0
  6
JWW_DASHED1
 62
   120
370
     5
100
AcDbLine
 10
-1456.202631264198
 20
-515.0033973581957
 30
0.0
 11
-1376.202631264215
 21
-435.0033973582139
 31
0.0
  0
LINE
  5
D8
330
1F
100
AcDbEntity
  8
0-0
  6
JWW_DASHED1
 62
   120
370
     5
100
AcDbLine
 10
-1456.202631264207
 20
-505.1039024230432
 30
0.0
 11
-1376.202631264208
 21
-425.103902423044
 31
0.0
  0
LINE
  5
D9
330
1F
100
AcDbEntity
  8
0-0
  6
JWW_DASHED1
 62
   120
370
     5
100
AcDbLine
 10
-1456.202631264215
 20
-495.204407487835
 30
0.0
 11
-1376.202631264215
 21
-415.2044074878357
 31
0.0
  0
LINE
  5
DA
330
1F
100
AcDbEntity
  8
0-0
  6
JWW_DASHED1
 62
   120
370
     5
100
AcDbLine
 10
-1456.202631264195
 20
-485.3049125525986
 30
0.0
 11
-1376.202631264214
 21
-405.3049125526168
 31
0.0
  0
LINE
  5
DB
330
1F
100
AcDbEntity
  8
0-0
  6
JWW_DASHED1
 62
   120
370
     5
100
AcDbLine
 10
-1456.202631264209
 20
-475.4054176174504
 30
0.0
 11
-1376.202631264225
 21
-395.4054176174674
 31
0.0
  0
LINE
  5
DC
330
1F
100
AcDbEntity
  8
0-0
  6
JWW_DASHED1
 62
   120
370
     5
100
AcDbLine
 10
-1456.202631264212
 20
-465.5059226822375
 30
0.0
 11
-1376.202631264214
 21
-385.5059226822395
 31
0.0
  0
LINE
  5
DD
330
1F
100
AcDbEntity
  8
0-0
  6
JWW_DASHED1
 62
   120
370
     5
100
AcDbLine
 10
-1456.202631264209
 20
-455.6064277470186
 30
0.0
 11
-1376.20263126421
 21
-375.6064277470193
 31
0.0
  0
LINE
  5
DE
330
1F
100
AcDbEntity
  8
0-0
  6
JWW_DASHED1
 62
   120
370
     5
100
AcDbLine
 10
-1456.202631264207
 20
-445.7069328118538
 30
0.0
 11
-1376.202631264224
 21
-365.7069328118703
 31
0.0
  0
LINE
  5
DF
330
1F
100
AcDbEntity
  8
0-0
  6
JWW_DASHED1
 62
   120
370
     5
100
AcDbLine
 10
-1456.202631264211
 20
-435.8074378766413
 30
0.0
 11
-1376.202631264212
 21
-355.807437876642
 31
0.0
  0
LINE
  5
E0
330
1F
100
AcDbEntity
  8
0-0
  6
JWW_DASHED1
 62
   120
370
     5
100
AcDbLine
 10
-1456.202631264207
 20
-425.9079429414215
 30
0.0
 11
-1376.202631264209
 21
-345.9079429414236
 31
0.0
  0
LINE
  5
E1
330
1F
100
AcDbEntity
  8
0-0
  6
JWW_DASHED1
 62
   120
370
     5
100
AcDbLine
 10
-1456.202631264204
 20
-416.0084480062568
 30
0.0
 11
-1376.202631264221
 21
-336.0084480062741
 31
0.0
  0
LINE
  5
E2
330
1F
100
AcDbEntity
  8
0-0
  6
JWW_DASHED1
 62
   120
370
     5
100
AcDbLine
 10
-1456.202631264207
 20
-406.1089530710443
 30
0.0
 11
-1376.202631264208
 21
-326.108953071045
 31
0.0
  0
LINE
  5
E3
330
1F
100
AcDbEntity
  8
0-0
  6
JWW_DASHED1
 62
   120
370
     5
100
AcDbLine
 10
-1456.202631264216
 20
-396.209458135836
 30
0.0
 11
-1376.202631264217
 21
-316.2094581358367
 31
0.0
  0
LINE
  5
E4
330
1F
100
AcDbEntity
  8
0-0
  6
JWW_DASHED1
 62
   120
370
     5
100
AcDbLine
 10
-1456.202631264201
 20
-386.3099632006598
 30
0.0
 11
-1376.202631264219
 21
-306.3099632006775
 31
0.0
  0
LINE
  5
E5
330
1F
100
AcDbEntity
  8
0-0
  6
JWW_DASHED1
 62
   120
370
     5
100
AcDbLine
 10
-1456.202631264206
 20
-376.4104682654472
 30
0.0
 11
-1376.202631264222
 21
-296.4104682654637
 31
0.0
  0
LINE
  5
E6
330
1F
100
AcDbEntity
  8
0-0
  6
JWW_DASHED1
 62
   120
370
     5
100
AcDbLine
 10
-1456.202631264216
 20
-366.5109733302684
 30
0.0
 11
-1376.202631264217
 21
-286.5109733302695
 31
0.0
  0
LINE
  5
E7
330
1F
100
AcDbEntity
  8
0-0
  6
JWW_DASHED1
 62
   120
370
     5
100
AcDbLine
 10
-1456.202631264199
 20
-356.6114783950632
 30
0.0
 11
-1376.202631264217
 21
-276.6114783950804
 31
0.0
  0
LINE
  5
E8
330
1F
100
AcDbEntity
  8
0-0
  6
JWW_DASHED1
 62
   120
370
     5
100
AcDbLine
 10
-1456.202631264207
 20
-346.7119834598549
 30
0.0
 11
-1376.202631264225
 21
-266.7119834598726
 31
0.0
  0
LINE
  5
E9
330
1F
100
AcDbEntity
  8
0-0
  6
JWW_DASHED1
 62
   120
370
     5
100
AcDbLine
 10
-1456.202631264216
 20
-336.8124885247012
 30
0.0
 11
-1376.202631264216
 21
-256.8124885247019
 31
0.0
  0
LINE
  5
EA
330
1F
100
AcDbEntity
  8
0-0
  6
JWW_DASHED1
 62
   120
370
     5
100
AcDbLine
 10
-1456.202631264197
 20
-326.912993589467
 30
0.0
 11
-1376.202631264214
 21
-246.9129935894834
 31
0.0
  0
LINE
  5
EB
330
1F
100
AcDbEntity
  8
0-0
  6
JWW_DASHED1
 62
   120
370
     5
100
AcDbLine
 10
-1456.202631264206
 20
-317.0134986542591
 30
0.0
 11
-1376.202631264222
 21
-237.0134986542756
 31
0.0
  0
LINE
  5
EC
330
1F
100
AcDbEntity
  8
0-0
  6
JWW_DASHED1
 62
   120
370
     5
100
AcDbLine
 10
-1456.202631264212
 20
-307.1140037191042
 30
0.0
 11
-1376.202631264214
 21
-227.1140037191049
 31
0.0
  0
LINE
  5
ED
330
1F
100
AcDbEntity
  8
0-0
  6
JWW_DASHED1
 62
   120
370
     5
100
AcDbLine
 10
-1456.202631264195
 20
-297.2145087838699
 30
0.0
 11
-1376.202631264213
 21
-217.2145087838877
 31
0.0
  0
LINE
  5
EE
330
1F
100
AcDbEntity
  8
0-0
  6
JWW_DASHED1
 62
   120
370
     5
100
AcDbLine
 10
-1456.202631264204
 20
-287.315013848662
 30
0.0
 11
-1376.20263126422
 21
-207.3150138486785
 31
0.0
  0
LINE
  5
EF
330
1F
100
AcDbEntity
  8
0-0
  6
JWW_DASHED1
 62
   120
370
     5
100
AcDbLine
 10
-1456.202631264211
 20
-277.4155189135071
 30
0.0
 11
-1376.202631264211
 21
-197.4155189135078
 31
0.0
  0
LINE
  5
F0
330
1F
100
AcDbEntity
  8
0-0
  6
JWW_DASHED1
 62
   120
370
     5
100
AcDbLine
 10
-1456.202631264209
 20
-267.516023978289
 30
0.0
 11
-1376.20263126421
 21
-187.5160239782906
 31
0.0
  0
LINE
  5
F1
330
1F
100
AcDbEntity
  8
0-0
  6
JWW_DASHED1
 62
   120
370
     5
100
AcDbLine
 10
-1456.2026312642
 20
-257.616529043065
 30
0.0
 11
-1376.202631264219
 21
-177.6165290430828
 31
0.0
  0
LINE
  5
F2
330
1F
100
AcDbEntity
  8
0-0
  6
JWW_DASHED1
 62
   120
370
     5
100
AcDbLine
 10
-1456.202631264207
 20
-247.7170341079096
 30
0.0
 11
-1376.202631264208
 21
-167.7170341079108
 31
0.0
  0
LINE
  5
F3
330
1F
100
AcDbEntity
  8
0-0
  6
JWW_DASHED1
 62
   120
370
     5
100
AcDbLine
 10
-1456.202631264207
 20
-237.8175391726924
 30
0.0
 11
-1376.202631264207
 21
-157.8175391726936
 31
0.0
  0
LINE
  5
F4
330
1F
100
AcDbEntity
  8
0-0
  6
JWW_DASHED1
 62
   120
370
     5
100
AcDbLine
 10
-1456.202631264199
 20
-227.9180442374684
 30
0.0
 11
-1376.202631264216
 21
-147.9180442374857
 31
0.0
  0
LINE
  5
F5
330
1F
100
AcDbEntity
  8
0-0
  6
JWW_DASHED1
 62
   120
370
     5
100
AcDbLine
 10
-1456.202631264206
 20
-218.0185493023134
 30
0.0
 11
-1376.202631264222
 21
-138.0185493023299
 31
0.0
  0
LINE
  5
F6
330
1F
100
AcDbEntity
  8
0-0
  6
JWW_DASHED1
 62
   120
370
     5
100
AcDbLine
 10
-1456.202631264214
 20
-208.1190543671052
 30
0.0
 11
-1376.202631264215
 21
-128.1190543671059
 31
0.0
  0
LINE
  5
F7
330
1F
100
AcDbEntity
  8
0-0
  6
JWW_DASHED1
 62
   120
370
     5
100
AcDbLine
 10
-1456.202631264196
 20
-198.2195594318713
 30
0.0
 11
-1376.202631264214
 21
-118.2195594318887
 31
0.0
  0
LINE
  5
F8
330
1F
100
AcDbEntity
  8
0-0
  6
JWW_DASHED1
 62
   120
370
     5
100
AcDbLine
 10
-1456.20263126421
 20
-188.3200644967228
 30
0.0
 11
-1376.202631264226
 21
-108.3200644967397
 31
0.0
  0
LINE
  5
F9
330
1F
100
AcDbEntity
  8
0-0
  6
JWW_DASHED1
 62
   120
370
     5
100
AcDbLine
 10
-1456.202631264211
 20
-178.4205695615081
 30
0.0
 11
-1376.202631264212
 21
-98.42056956150884
 31
0.0
  0
LINE
  5
FA
330
1F
100
AcDbEntity
  8
0-0
  6
JWW_DASHED1
 62
   120
370
     5
100
AcDbLine
 10
-1456.202631264211
 20
-168.5210746262905
 30
0.0
 11
-1376.202631264211
 21
-88.52107462629164
 31
0.0
  0
LINE
  5
FB
330
1F
100
AcDbEntity
  8
0-0
  6
JWW_DASHED1
 62
   120
370
     5
100
AcDbLine
 10
-1456.202631264207
 20
-158.6215796911257
 30
0.0
 11
-1376.202631264224
 21
-78.62157969114307
 31
0.0
  0
LINE
  5
FC
330
1F
100
AcDbEntity
  8
0-0
  6
JWW_DASHED1
 62
   120
370
     5
100
AcDbLine
 10
-1456.202631264209
 20
-148.7220847559111
 30
0.0
 11
-1376.202631264209
 21
-68.7220847559118
 31
0.0
  0
LINE
  5
FD
330
1F
100
AcDbEntity
  8
0-0
  6
JWW_DASHED1
 62
   120
370
     5
100
AcDbLine
 10
-1456.202631264197
 20
-138.8225898207369
 30
0.0
 11
-1376.202631264214
 21
-58.82258982075427
 31
0.0
  0
LINE
  5
FE
330
1F
100
AcDbEntity
  8
0-0
  6
JWW_DASHED1
 62
   120
370
     5
100
AcDbLine
 10
-1456.202631264205
 20
-128.9230948855287
 30
0.0
 11
-1376.202631264222
 21
-48.92309488554687
 31
0.0
  0
LINE
  5
FF
330
1F
100
AcDbEntity
  8
0-0
  6
JWW_DASHED1
 62
   120
370
     5
100
AcDbLine
 10
-1456.202631264206
 20
-119.023599950314
 30
0.0
 11
-1376.202631264207
 21
-39.02359995031475
 31
0.0
  0
LINE
  5
100
330
1F
100
AcDbEntity
  8
0-0
  6
JWW_DASHED1
 62
   120
370
     5
100
AcDbLine
 10
-1456.202631264211
 20
-109.1241050151565
 30
0.0
 11
-1376.202631264211
 21
-29.12410501515723
 31
0.0
  0
LINE
  5
101
330
1F
100
AcDbEntity
  8
0-0
  6
JWW_DASHED1
 62
   120
370
     5
100
AcDbLine
 10
-1456.202631264202
 20
-99.22461007993249
 30
0.0
 11
-1376.20263126422
 21
-19.2246100799494
 31
0.0
  0
LINE
  5
102
330
1F
100
AcDbEntity
  8
0-0
  6
JWW_DASHED1
 62
   120
370
     5
100
AcDbLine
 10
-1456.202631264204
 20
-89.32511514471699
 30
0.0
 11
-1376.20263126422
 21
-9.3251151447339
 31
0.0
  0
LINE
  5
103
330
1F
100
AcDbEntity
  8
0-0
  6
JWW_DASHED1
 62
   120
370
     5
100
AcDbLine
 10
-1456.202631264207
 20
-79.42562020955947
 30
0.0
 11
-1376.202631264209
 21
0.574379790438968
 31
0.0
  0
LINE
  5
104
330
1F
100
AcDbEntity
  8
0-0
  6
JWW_DASHED1
 62
   120
370
     5
100
AcDbLine
 10
-1456.2026312642
 20
-69.52612527433587
 30
0.0
 11
-1376.202631264217
 21
10.47387472564765
 31
0.0
  0
LINE
  5
105
330
1F
100
AcDbEntity
  8
0-0
  6
JWW_DASHED1
 62
   120
370
     5
100
AcDbLine
 10
-1456.202631264209
 20
-59.62663033912762
 30
0.0
 11
-1376.202631264225
 21
20.37336966085505
 31
0.0
  0
LINE
  5
106
330
1F
100
AcDbEntity
  8
0-0
  6
JWW_DASHED1
 62
   120
370
     5
100
AcDbLine
 10
-1456.202631264214
 20
-49.72713540397052
 30
0.0
 11
-1376.202631264215
 21
30.27286459602792
 31
0.0
  0
LINE
  5
107
330
1F
100
AcDbEntity
  8
0-0
  6
JWW_DASHED1
 62
   120
370
     5
100
AcDbLine
 10
-1456.202631264198
 20
-39.82764046873882
 30
0.0
 11
-1376.202631264215
 21
40.17235953124384
 31
0.0
  0
LINE
  5
108
330
1F
100
AcDbEntity
  8
0-0
  6
JWW_DASHED1
 62
   120
370
     5
100
AcDbLine
 10
-1456.202631264207
 20
-29.92814553353099
 30
0.0
 11
-1376.202631264224
 21
50.07185446645209
 31
0.0
  0
LINE
  5
109
330
1F
100
AcDbEntity
  8
0-0
  6
JWW_DASHED1
 62
   120
370
     5
100
AcDbLine
 10
-1456.202631264212
 20
-20.02865059837433
 30
0.0
 11
-1376.202631264212
 21
59.97134940162496
 31
0.0
  0
LINE
  5
10A
330
1F
100
AcDbEntity
  8
0-0
  6
JWW_DASHED1
 62
   120
370
     5
100
AcDbLine
 10
-1456.202631264195
 20
-10.12915566314177
 30
0.0
 11
-1376.202631264214
 21
69.87084433684046
 31
0.0
  0
LINE
  5
10B
330
1F
100
AcDbEntity
  8
0-0
  6
JWW_DASHED1
 62
   120
370
     5
100
AcDbLine
 10
-1456.202631264204
 20
-0.2296607279339469
 30
0.0
 11
-1376.202631264221
 21
79.77033927204872
 31
0.0
  0
LINE
  5
10C
330
1F
100
AcDbEntity
  8
0-0
  6
JWW_DASHED1
 62
   120
370
     5
100
AcDbLine
 10
-1456.202631264209
 20
9.669834207222294
 30
0.0
 11
-1376.20263126421
 21
89.66983420722201
 31
0.0
  0
LINE
  5
10D
330
1F
100
AcDbEntity
  8
0-0
  6
JWW_DASHED1
 62
   120
370
     5
100
AcDbLine
 10
-1456.202631264209
 20
19.56932914243907
 30
0.0
 11
-1376.20263126421
 21
99.56932914243751
 31
0.0
  0
LINE
  5
10E
330
1F
100
AcDbEntity
  8
0-0
  6
JWW_DASHED1
 62
   120
370
     5
100
AcDbLine
 10
-1456.202631264201
 20
29.4688240776631
 30
0.0
 11
-1376.202631264219
 21
109.4688240776453
 31
0.0
  0
LINE
  5
10F
330
1F
100
AcDbEntity
  8
0-0
  6
JWW_DASHED1
 62
   120
370
     5
100
AcDbLine
 10
-1456.202631264207
 20
39.36831901281934
 30
0.0
 11
-1376.202631264208
 21
119.3683190128182
 31
0.0
  0
LINE
  5
110
330
1F
100
AcDbEntity
  8
0-0
  6
JWW_DASHED1
 62
   120
370
     5
100
AcDbLine
 10
-1456.202631264214
 20
49.26781394802802
 30
0.0
 11
-1376.202631264215
 21
129.2678139480273
 31
0.0
  0
LINE
  5
111
330
1F
100
AcDbEntity
  8
0-0
  6
JWW_DASHED1
 62
   120
370
     5
100
AcDbLine
 10
-1456.202631264204
 20
59.16730888320004
 30
0.0
 11
-1376.202631264222
 21
139.1673088831831
 31
0.0
  0
LINE
  5
112
330
1F
100
AcDbEntity
  8
0-0
  6
JWW_DASHED1
 62
   120
370
     5
100
AcDbLine
 10
-1456.202631264204
 20
69.06680381841639
 30
0.0
 11
-1376.202631264221
 21
149.0668038183999
 31
0.0
  0
LINE
  5
113
330
1F
100
AcDbEntity
  8
0-0
  6
JWW_DASHED1
 62
   120
370
     5
100
AcDbLine
 10
-1456.202631264212
 20
78.96629875362464
 30
0.0
 11
-1376.202631264213
 21
158.9662987536244
 31
0.0
  0
LINE
  5
114
330
1F
100
AcDbEntity
  8
0-0
  6
JWW_DASHED1
 62
   120
370
     5
100
AcDbLine
 10
-1456.202631264202
 20
88.86579368879708
 30
0.0
 11
-1376.202631264219
 21
168.8657936887802
 31
0.0
  0
LINE
  5
115
330
1F
100
AcDbEntity
  8
0-0
  6
JWW_DASHED1
 62
   120
370
     5
100
AcDbLine
 10
-1456.202631264211
 20
98.76528862400491
 30
0.0
 11
-1376.202631264227
 21
178.7652886239884
 31
0.0
  0
LINE
  5
116
330
1F
100
AcDbEntity
  8
0-0
  6
JWW_DASHED1
 62
   120
370
     5
100
AcDbLine
 10
-1456.20263126421
 20
108.6647835592217
 30
0.0
 11
-1376.202631264212
 21
188.6647835592201
 31
0.0
  0
LINE
  5
117
330
1F
100
AcDbEntity
  8
0-0
  6
JWW_DASHED1
 62
   120
370
     5
100
AcDbLine
 10
-1456.202631264199
 20
118.5642784943941
 30
0.0
 11
-1376.202631264217
 21
198.5642784943764
 31
0.0
  0
LINE
  5
118
330
1F
100
AcDbEntity
  8
0-0
  6
JWW_DASHED1
 62
   120
370
     5
100
AcDbLine
 10
-1456.202631264207
 20
128.463773429602
 30
0.0
 11
-1376.202631264225
 21
208.4637734295842
 31
0.0
  0
LINE
  5
119
330
1F
100
AcDbEntity
  8
0-0
  6
JWW_DASHED1
 62
   120
370
     5
100
AcDbLine
 10
-1456.202631264207
 20
138.3632683648183
 30
0.0
 11
-1376.202631264208
 21
218.3632683648172
 31
0.0
  0
LINE
  5
11A
330
1F
100
AcDbEntity
  8
0-0
  6
JWW_DASHED1
 62
   120
370
     5
100
AcDbLine
 10
-1456.202631264197
 20
148.2627632999903
 30
0.0
 11
-1376.202631264214
 21
228.2627632999734
 31
0.0
  0
LINE
  5
11B
330
1F
100
AcDbEntity
  8
0-0
  6
JWW_DASHED1
 62
   120
370
     5
100
AcDbLine
 10
-1456.202631264206
 20
158.162258235199
 30
0.0
 11
-1376.202631264223
 21
238.1622582351812
 31
0.0
  0
LINE
  5
11C
330
1F
100
AcDbEntity
  8
0-0
  6
JWW_DASHED1
 62
   120
370
     5
100
AcDbLine
 10
-1456.202631264206
 20
168.0617531704154
 30
0.0
 11
-1376.202631264207
 21
248.0617531704142
 31
0.0
  0
LINE
  5
11D
330
1F
100
AcDbEntity
  8
0-0
  6
JWW_DASHED1
 62
   120
370
     5
100
AcDbLine
 10
-1456.202631264211
 20
177.9612481055716
 30
0.0
 11
-1376.202631264212
 21
257.96124810557
 31
0.0
  0
LINE
  5
11E
330
1F
100
AcDbEntity
  8
0-0
  6
JWW_DASHED1
 62
   120
370
     5
100
AcDbLine
 10
-1456.202631264204
 20
187.8607430407948
 30
0.0
 11
-1376.20263126422
 21
267.8607430407783
 31
0.0
  0
LINE
  5
11F
330
1F
100
AcDbEntity
  8
0-0
  6
JWW_DASHED1
 62
   120
370
     5
100
AcDbLine
 10
-1456.202631264202
 20
197.7602379760124
 30
0.0
 11
-1376.202631264219
 21
277.7602379759955
 31
0.0
  0
LINE
  5
120
330
1F
100
AcDbEntity
  8
0-0
  6
JWW_DASHED1
 62
   120
370
     5
100
AcDbLine
 10
-1456.202631264208
 20
207.6597329111686
 30
0.0
 11
-1376.20263126421
 21
287.6597329111667
 31
0.0
  0
LINE
  5
121
330
1F
100
AcDbEntity
  8
0-0
  6
JWW_DASHED1
 62
   120
370
     5
100
AcDbLine
 10
-1456.202631264201
 20
217.5592278463918
 30
0.0
 11
-1376.202631264219
 21
297.5592278463749
 31
0.0
  0
LINE
  5
122
330
1F
100
AcDbEntity
  8
0-0
  6
JWW_DASHED1
 62
   120
370
     5
100
AcDbLine
 10
-1456.20263126421
 20
227.4587227815996
 30
0.0
 11
-1376.202631264227
 21
307.4587227815823
 31
0.0
  0
LINE
  5
123
330
1F
100
AcDbEntity
  8
0-0
  6
JWW_DASHED1
 62
   120
370
     5
100
AcDbLine
 10
-1456.202631264212
 20
237.3582177167584
 30
0.0
 11
-1376.202631264214
 21
317.3582177167573
 31
0.0
  0
LINE
  5
124
330
1F
100
AcDbEntity
  8
0-0
  6
JWW_DASHED1
 62
   120
370
     5
100
AcDbLine
 10
-1456.202631264199
 20
247.2577126519893
 30
0.0
 11
-1376.202631264217
 21
327.2577126519711
 31
0.0
  0
LINE
  5
125
330
1F
100
AcDbEntity
  8
0-0
  6
JWW_DASHED1
 62
   120
370
     5
100
AcDbLine
 10
-1456.202631264211
 20
257.1572075871383
 30
0.0
 11
-1376.202631264229
 21
337.1572075871201
 31
0.0
  0
LINE
  5
126
330
1F
100
AcDbEntity
  8
0-0
  6
JWW_DASHED1
 62
   120
370
     5
100
AcDbLine
 10
-1456.202631264211
 20
267.0567025223555
 30
0.0
 11
-1376.202631264212
 21
347.0567025223544
 31
0.0
  0
LINE
  5
127
330
1F
100
AcDbEntity
  8
0-0
  6
JWW_DASHED1
 62
   120
370
     5
100
AcDbLine
 10
-1456.202631264212
 20
276.9561974575697
 30
0.0
 11
-1376.202631264214
 21
356.9561974575681
 31
0.0
  0
LINE
  5
128
330
1F
100
AcDbEntity
  8
0-0
  6
JWW_DASHED1
 62
   120
370
     5
100
AcDbLine
 10
-1456.202631264209
 20
286.8556923927354
 30
0.0
 11
-1376.202631264227
 21
366.8556923927176
 31
0.0
  0
LINE
  5
129
330
1F
100
AcDbEntity
  8
0-0
  6
JWW_DASHED1
 62
   120
370
     5
100
AcDbLine
 10
-1456.202631264207
 20
296.7551873279525
 30
0.0
 11
-1376.202631264208
 21
376.7551873279514
 31
0.0
  0
LINE
  5
12A
330
1F
100
AcDbEntity
  8
0-0
  6
JWW_DASHED1
 62
   120
370
     5
100
AcDbLine
 10
-1456.202631264211
 20
306.6546822631664
 30
0.0
 11
-1376.202631264212
 21
386.6546822631648
 31
0.0
  0
LINE
  5
12B
330
1F
100
AcDbEntity
  8
0-0
  6
JWW_DASHED1
 62
   120
370
     5
100
AcDbLine
 10
-1456.202631264207
 20
316.5541771983311
 30
0.0
 11
-1376.202631264224
 21
396.5541771983146
 31
0.0
  0
LINE
  5
12C
330
1F
100
AcDbEntity
  8
0-0
  6
JWW_DASHED1
 62
   120
370
     5
100
AcDbLine
 10
-1456.202631264206
 20
326.4536721335496
 30
0.0
 11
-1376.202631264207
 21
406.453672133548
 31
0.0
  0
LINE
  5
12D
330
1F
100
AcDbEntity
  8
0-0
  6
JWW_DASHED1
 62
   120
370
     5
100
AcDbLine
 10
-1456.202631264214
 20
336.3531670687574
 30
0.0
 11
-1376.202631264215
 21
416.3531670687563
 31
0.0
  0
LINE
  5
12E
330
1F
100
AcDbEntity
  8
0-0
  6
JWW_DASHED1
 62
   120
370
     5
100
AcDbLine
 10
-1456.202631264205
 20
346.2526620039282
 30
0.0
 11
-1376.202631264222
 21
426.2526620039104
 31
0.0
  0
LINE
  5
12F
330
1F
100
AcDbEntity
  8
0-0
  6
JWW_DASHED1
 62
   120
370
     5
100
AcDbLine
 10
-1456.202631264202
 20
356.1521569391466
 30
0.0
 11
-1376.20263126422
 21
436.1521569391293
 31
0.0
  0
LINE
  5
130
330
1F
100
AcDbEntity
  8
0-0
  6
JWW_DASHED1
 62
   120
370
     5
100
AcDbLine
 10
-1456.202631264211
 20
366.0516518743544
 30
0.0
 11
-1376.202631264212
 21
446.0516518743533
 31
0.0
  0
LINE
  5
131
330
1F
100
AcDbEntity
  8
0-0
  6
JWW_DASHED1
 62
   120
370
     5
100
AcDbLine
 10
-1456.202631264202
 20
375.9511468095252
 30
0.0
 11
-1376.20263126422
 21
455.9511468095075
 31
0.0
  0
LINE
  5
132
330
1F
100
AcDbEntity
  8
0-0
  6
JWW_DASHED1
 62
   120
370
     5
100
AcDbLine
 10
-1456.202631264211
 20
385.850641744733
 30
0.0
 11
-1376.202631264228
 21
465.8506417447157
 31
0.0
  0
LINE
  5
133
330
1F
100
AcDbEntity
  8
0-0
  6
JWW_DASHED1
 62
   120
370
     5
100
AcDbLine
 10
-1456.202631264209
 20
395.7501366799515
 30
0.0
 11
-1376.20263126421
 21
475.7501366799504
 31
0.0
  0
LINE
  5
134
330
1F
100
AcDbEntity
  8
0-0
  6
JWW_DASHED1
 62
   120
370
     5
100
AcDbLine
 10
-1456.2026312642
 20
405.6496316151218
 30
0.0
 11
-1376.202631264217
 21
485.6496316151045
 31
0.0
  0
LINE
  5
135
330
1F
100
AcDbEntity
  8
0-0
  6
JWW_DASHED1
 62
   120
370
     5
100
AcDbLine
 10
-1456.202631264208
 20
415.5491265503301
 30
0.0
 11
-1376.202631264226
 21
495.5491265503123
 31
0.0
  0
LINE
  5
136
330
1F
100
AcDbEntity
  8
0-0
  6
JWW_DASHED1
 62
   120
370
     5
100
AcDbLine
 10
-1456.202631264206
 20
425.4486214855485
 30
0.0
 11
-1376.202631264207
 21
505.4486214855474
 31
0.0
  0
LINE
  5
137
330
1F
100
AcDbEntity
  8
0-0
  6
JWW_DASHED1
 62
   120
370
     5
100
AcDbLine
 10
-1456.202631264199
 20
435.348116420718
 30
0.0
 11
-1376.202631264215
 21
515.3481164207006
 31
0.0
  0
LINE
  5
138
330
1F
100
AcDbEntity
  8
0-0
  6
JWW_DASHED1
 62
   120
370
     5
100
AcDbLine
 10
-1456.202631264207
 20
445.2476113559263
 30
0.0
 11
-1376.202631264224
 21
525.2476113559094
 31
0.0
  0
LINE
  5
139
330
1F
100
AcDbEntity
  8
0-0
  6
JWW_DASHED1
 62
   120
370
     5
100
AcDbLine
 10
-1456.202631264208
 20
455.1471062910863
 30
0.0
 11
-1376.202631264208
 21
535.1471062910861
 31
0.0
  0
LINE
  5
13A
330
1F
100
AcDbEntity
  8
0-0
  6
JWW_DASHED1
 62
   120
370
     5
100
AcDbLine
 10
-1456.202631264212
 20
465.0466012262993
 30
0.0
 11
-1376.202631264214
 21
545.0466012262973
 31
0.0
  0
LINE
  5
13B
330
1F
100
AcDbEntity
  8
0-0
  6
JWW_DASHED1
 62
   120
370
     5
100
AcDbLine
 10
-1456.202631264204
 20
474.9460961615229
 30
0.0
 11
-1376.202631264222
 21
554.9460961615056
 31
0.0
  0
LINE
  5
13C
330
1F
100
AcDbEntity
  8
0-0
  6
JWW_DASHED1
 62
   120
370
     5
100
AcDbLine
 10
-1456.202631264206
 20
484.8455910966834
 30
0.0
 11
-1376.202631264207
 21
564.8455910966818
 31
0.0
  0
LINE
  5
13D
330
1F
100
AcDbEntity
  8
0-0
  6
JWW_DASHED1
 62
   120
370
     5
100
AcDbLine
 10
-1456.202631264214
 20
494.7450860318917
 30
0.0
 11
-1376.202631264214
 21
574.7450860318909
 31
0.0
  0
LINE
  5
13E
330
1F
100
AcDbEntity
  8
0-0
  6
JWW_DASHED1
 62
   120
370
     5
100
AcDbLine
 10
-1456.202631264202
 20
504.64458096712
 30
0.0
 11
-1376.202631264219
 21
584.6445809671022
 31
0.0
  0
LINE
  5
13F
330
1F
100
AcDbEntity
  8
0-0
  6
JWW_DASHED1
 62
   120
370
     5
100
AcDbLine
 10
-1456.202631264204
 20
514.54407590228
 30
0.0
 11
-1376.20263126422
 21
594.5440759022631
 31
0.0
  0
LINE
  5
140
330
1F
100
AcDbEntity
  8
0-0
  6
JWW_DASHED1
 62
   120
370
     5
100
AcDbLine
 10
-1456.202631264211
 20
524.4435708374887
 30
0.0
 11
-1376.202631264213
 21
604.4435708374872
 31
0.0
  0
LINE
  5
141
330
1F
100
AcDbEntity
  8
0-0
  6
JWW_DASHED1
 62
   120
370
     5
100
AcDbLine
 10
-1456.2026312642
 20
534.3430657727165
 30
0.0
 11
-1376.202631264217
 21
614.3430657726992
 31
0.0
  0
LINE
  5
142
330
1F
100
AcDbEntity
  8
0-0
  6
JWW_DASHED1
 62
   120
370
     5
100
AcDbLine
 10
-1456.202631264212
 20
544.2425607078656
 30
0.0
 11
-1376.20263126423
 21
624.2425607078483
 31
0.0
  0
LINE
  5
143
330
1F
100
AcDbEntity
  8
0-0
  6
JWW_DASHED1
 62
   120
370
     5
100
AcDbLine
 10
-1456.20263126421
 20
554.1420556430844
 30
0.0
 11
-1376.20263126421
 21
634.1420556430842
 31
0.0
  0
LINE
  5
144
330
1F
100
AcDbEntity
  8
0-0
  6
JWW_DASHED1
 62
   120
370
     5
100
AcDbLine
 10
-1456.202631264214
 20
564.041550578297
 30
0.0
 11
-1376.202631264214
 21
644.0415505782962
 31
0.0
  0
LINE
  5
145
330
1F
100
AcDbEntity
  8
0-0
  6
JWW_DASHED1
 62
   120
370
     5
100
AcDbLine
 10
-1456.20263126421
 20
573.9410455134625
 30
0.0
 11
-1376.202631264227
 21
653.9410455134448
 31
0.0
  0
LINE
  5
146
330
1F
100
AcDbEntity
  8
0-0
  6
JWW_DASHED1
 62
   120
370
     5
100
AcDbLine
 10
-1456.202631264207
 20
583.8405404486823
 30
0.0
 11
-1376.202631264207
 21
663.8405404486812
 31
0.0
  0
LINE
  5
147
330
1F
100
AcDbEntity
  8
0-0
  6
JWW_DASHED1
 62
   120
370
     5
100
AcDbLine
 10
-1456.202631264211
 20
593.7400353838945
 30
0.0
 11
-1376.202631264214
 21
673.7400353838921
 31
0.0
  0
LINE
  5
148
330
1F
100
AcDbEntity
  8
0-0
  6
JWW_DASHED1
 62
   120
370
     5
100
AcDbLine
 10
-1456.202631264208
 20
603.6395303190588
 30
0.0
 11
-1376.202631264225
 21
683.6395303190419
 31
0.0
  0
LINE
  5
149
330
1F
100
AcDbEntity
  8
0-0
  6
JWW_DASHED1
 62
   120
370
     5
100
AcDbLine
 10
-1456.202631264204
 20
613.5390252542794
 30
0.0
 11
-1376.202631264205
 21
693.5390252542783
 31
0.0
  0
LINE
  5
14A
330
1F
100
AcDbEntity
  8
0-0
  6
JWW_DASHED1
 62
   120
370
     5
100
AcDbLine
 10
-1456.202631264212
 20
623.4385201894877
 30
0.0
 11
-1376.202631264214
 21
703.4385201894866
 31
0.0
  0
LINE
  5
14B
330
1F
100
AcDbEntity
  8
0-0
  6
JWW_DASHED1
 62
   120
370
     5
100
AcDbLine
 10
-1456.202631264206
 20
633.3380151246563
 30
0.0
 11
-1376.202631264224
 21
713.3380151246381
 31
0.0
  0
LINE
  5
14C
330
1F
100
AcDbEntity
  8
0-0
  6
JWW_DASHED1
 62
   120
370
     5
100
AcDbLine
 10
-1456.202631264202
 20
643.2375100598761
 30
0.0
 11
-1376.202631264219
 21
723.2375100598591
 31
0.0
  0
LINE
  5
14D
330
1F
100
AcDbEntity
  8
0-0
  6
JWW_DASHED1
 62
   120
370
     5
100
AcDbLine
 10
-1456.202631264211
 20
653.1370049950284
 30
0.0
 11
-1376.202631264213
 21
733.1370049950269
 31
0.0
  0
LINE
  5
14E
330
1F
100
AcDbEntity
  8
0-0
  6
JWW_DASHED1
 62
   120
370
     5
100
AcDbLine
 10
-1456.202631264204
 20
663.0364999302525
 30
0.0
 11
-1376.20263126422
 21
743.0364999302351
 31
0.0
  0
LINE
  5
14F
330
1F
100
AcDbEntity
  8
0-0
  6
JWW_DASHED1
 62
   120
370
     5
100
AcDbLine
 10
-1456.202631264212
 20
672.9359948654608
 30
0.0
 11
-1376.202631264229
 21
752.9359948654429
 31
0.0
  0
LINE
  5
150
330
1F
100
AcDbEntity
  8
0-0
  6
JWW_DASHED1
 62
   120
370
     5
100
AcDbLine
 10
-1456.202631264212
 20
682.8354898006221
 30
0.0
 11
-1376.202631264214
 21
762.835489800621
 31
0.0
  0
LINE
  5
151
330
1F
100
AcDbEntity
  8
0-0
  6
JWW_DASHED1
 62
   120
370
     5
100
AcDbLine
 10
-1456.2026312642
 20
692.7349847358495
 30
0.0
 11
-1376.202631264219
 21
772.7349847358322
 31
0.0
  0
LINE
  5
152
330
1F
100
AcDbEntity
  8
0-0
  6
JWW_DASHED1
 62
   120
370
     5
100
AcDbLine
 10
-1456.202631264209
 20
702.6344796710573
 30
0.0
 11
-1376.202631264227
 21
782.63447967104
 31
0.0
  0
LINE
  5
153
330
1F
100
AcDbEntity
  8
0-0
  6
JWW_DASHED1
 62
   120
370
     5
100
AcDbLine
 10
-1456.202631264209
 20
712.5339746062191
 30
0.0
 11
-1376.20263126421
 21
792.533974606218
 31
0.0
  0
LINE
  5
154
330
1F
100
AcDbEntity
  8
0-0
  6
JWW_DASHED1
 62
   120
370
     5
100
AcDbLine
 10
-1456.202631264214
 20
722.4334695414303
 30
0.0
 11
-1376.202631264217
 21
802.4334695414284
 31
0.0
  0
LINE
  5
155
330
1F
100
AcDbEntity
  8
0-0
  6
JWW_DASHED1
 62
   120
370
     5
100
AcDbLine
 10
-1456.202631264207
 20
732.332964476654
 30
0.0
 11
-1376.202631264225
 21
812.3329644766366
 31
0.0
  0
LINE
  5
156
330
1F
100
AcDbEntity
  8
0-0
  6
JWW_DASHED1
 62
   120
370
     5
100
AcDbLine
 10
-1456.202631264207
 20
742.2324594118162
 30
0.0
 11
-1376.202631264208
 21
822.2324594118151
 31
0.0
  0
LINE
  5
157
330
1F
100
AcDbEntity
  8
0-0
  6
JWW_DASHED1
 62
   120
370
     5
100
AcDbLine
 10
-1456.202631264212
 20
752.131954347027
 30
0.0
 11
-1376.202631264214
 21
832.1319543470254
 31
0.0
  0
LINE
  5
158
330
1F
100
AcDbEntity
  8
0-0
  6
JWW_DASHED1
 62
   120
370
     5
100
AcDbLine
 10
-1456.202631264205
 20
762.0314492822511
 30
0.0
 11
-1376.202631264223
 21
842.0314492822329
 31
0.0
  0
LINE
  5
159
330
1F
100
AcDbEntity
  8
0-0
  6
JWW_DASHED1
 62
   120
370
     5
100
AcDbLine
 10
-1456.202631264204
 20
771.9309442174132
 30
0.0
 11
-1376.202631264205
 21
851.930944217412
 31
0.0
  0
LINE
  5
15A
330
1F
100
AcDbEntity
  8
0-0
  6
JWW_DASHED1
 62
   120
370
     5
100
AcDbLine
 10
-1456.202631264212
 20
781.8304391526215
 30
0.0
 11
-1376.202631264214
 21
861.8304391526199
 31
0.0
  0
LINE
  5
15B
330
1F
100
AcDbEntity
  8
0-0
  6
JWW_DASHED1
 62
   120
370
     5
100
AcDbLine
 10
-1456.202631264203
 20
791.7299340878471
 30
0.0
 11
-1376.20263126422
 21
871.7299340878299
 31
0.0
  0
LINE
  5
15C
330
1F
100
AcDbEntity
  8
0-0
  6
JWW_DASHED1
 62
   120
370
     5
100
AcDbLine
 10
-1456.202631264202
 20
801.6294290230103
 30
0.0
 11
-1376.202631264219
 21
881.6294290229929
 31
0.0
  0
LINE
  5
15D
330
1F
100
AcDbEntity
  8
0-0
  6
JWW_DASHED1
 62
   120
370
     5
100
AcDbLine
 10
-1456.202631264211
 20
811.5289239582181
 30
0.0
 11
-1376.202631264212
 21
891.528923958217
 31
0.0
  0
LINE
  5
15E
330
1F
100
AcDbEntity
  8
0-0
  6
JWW_DASHED1
 62
   120
370
     5
100
AcDbLine
 10
-1456.2026312642
 20
821.4284188934438
 30
0.0
 11
-1376.202631264219
 21
901.4284188934265
 31
0.0
  0
LINE
  5
15F
330
1F
100
AcDbEntity
  8
0-0
  6
JWW_DASHED1
 62
   120
370
     5
100
AcDbLine
 10
-1456.202631264213
 20
831.3279138285932
 30
0.0
 11
-1376.202631264231
 21
911.3279138285759
 31
0.0
  0
LINE
  5
160
330
1F
100
AcDbEntity
  8
0-0
  6
JWW_DASHED1
 62
   120
370
     5
100
AcDbLine
 10
-1456.202631264207
 20
841.2274087638151
 30
0.0
 11
-1376.202631264208
 21
921.227408763814
 31
0.0
  0
LINE
  5
161
330
1F
100
AcDbEntity
  8
0-0
  6
JWW_DASHED1
 62
   120
370
     5
100
AcDbLine
 10
-1456.202631264202
 20
851.126903698982
 30
0.0
 11
-1376.202631264219
 21
931.1269036989652
 31
0.0
  0
LINE
  5
162
330
1F
100
AcDbEntity
  8
0-0
  6
JWW_DASHED1
 62
   120
370
     5
100
AcDbLine
 10
-1456.202631264211
 20
861.0263986341898
 30
0.0
 11
-1376.202631264229
 21
941.0263986341726
 31
0.0
  0
LINE
  5
163
330
1F
100
AcDbEntity
  8
0-0
  6
JWW_DASHED1
 62
   120
370
     5
100
AcDbLine
 10
-1456.202631264206
 20
870.9258935694122
 30
0.0
 11
-1376.202631264207
 21
950.9258935694111
 31
0.0
  0
LINE
  5
164
330
1F
100
AcDbEntity
  8
0-0
  6
JWW_DASHED1
 62
   120
370
     5
100
AcDbLine
 10
-1456.2026312642
 20
880.8253885045787
 30
0.0
 11
-1376.202631264218
 21
960.8253885045613
 31
0.0
  0
LINE
  5
165
330
1F
100
AcDbEntity
  8
0-0
  6
JWW_DASHED1
 62
   120
370
     5
100
AcDbLine
 10
-1456.202631264209
 20
890.7248834397869
 30
0.0
 11
-1376.202631264225
 21
970.7248834397695
 31
0.0
  0
LINE
  5
166
330
1F
100
AcDbEntity
  8
0-0
  6
JWW_DASHED1
 62
   120
370
     5
100
AcDbLine
 10
-1456.202631264202
 20
900.6243783750092
 30
0.0
 11
-1376.202631264203
 21
980.6243783750081
 31
0.0
  0
LINE
  5
167
330
1F
100
AcDbEntity
  8
0-0
  6
JWW_DASHED1
 62
   120
370
     5
100
AcDbLine
 10
-1456.202631264214
 20
910.5238733101595
 30
0.0
 11
-1376.202631264215
 21
990.5238733101579
 31
0.0
  0
LINE
  5
168
330
1F
100
AcDbEntity
  8
0-0
  6
JWW_DASHED1
 62
   120
370
     5
100
AcDbLine
 10
-1456.202631264207
 20
920.4233682453835
 30
0.0
 11
-1376.202631264224
 21
1000.423368245366
 31
0.0
  0
LINE
  5
169
330
1F
100
AcDbEntity
  8
0-0
  6
JWW_DASHED1
 62
   120
370
     5
100
AcDbLine
 10
-1456.2026312642
 20
930.3228631806063
 30
0.0
 11
-1376.202631264217
 21
1010.322863180589
 31
0.0
  0
LINE
  5
16A
330
1F
100
AcDbEntity
  8
0-0
  6
JWW_DASHED1
 62
   120
370
     5
100
AcDbLine
 10
-1456.202631264212
 20
940.2223581157566
 30
0.0
 11
-1376.202631264214
 21
1020.222358115755
 31
0.0
  0
LINE
  5
16B
330
1F
100
AcDbEntity
  8
0-0
  6
JWW_DASHED1
 62
   120
370
     5
100
AcDbLine
 10
-1456.202631264204
 20
950.1218530509801
 30
0.0
 11
-1376.202631264222
 21
1030.121853050963
 31
0.0
  0
LINE
  5
16C
330
1F
100
AcDbEntity
  8
0-0
  6
JWW_DASHED1
 62
   120
370
     5
100
AcDbLine
 10
-1456.202631264212
 20
960.021347986188
 30
0.0
 11
-1376.20263126423
 21
1040.021347986171
 31
0.0
  0
LINE
  5
16D
330
1F
100
AcDbEntity
  8
0-0
  6
JWW_DASHED1
 62
   120
370
     5
100
AcDbLine
 10
-1456.202631264211
 20
969.9208429213523
 30
0.0
 11
-1376.202631264212
 21
1049.920842921351
 31
0.0
  0
LINE
  5
16E
330
1F
100
AcDbEntity
  8
0-0
  6
JWW_DASHED1
 62
   120
370
     5
100
AcDbLine
 10
-1456.202631264202
 20
979.8203378565768
 30
0.0
 11
-1376.202631264219
 21
1059.82033785656
 31
0.0
  0
LINE
  5
16F
330
1F
100
AcDbEntity
  8
0-0
  6
JWW_DASHED1
 62
   120
370
     5
100
AcDbLine
 10
-1456.202631264211
 20
989.719832791785
 30
0.0
 11
-1376.202631264228
 21
1069.719832791767
 31
0.0
  0
LINE
  5
170
330
1F
100
AcDbEntity
  8
0-0
  6
JWW_DASHED1
 62
   120
370
     5
100
AcDbLine
 10
-1456.202631264208
 20
999.619327726949
 30
0.0
 11
-1376.202631264208
 21
1079.619327726948
 31
0.0
  0
LINE
  5
171
330
1F
100
AcDbEntity
  8
0-0
  6
JWW_DASHED1
 62
   120
370
     5
100
AcDbLine
 10
-1456.202631264216
 20
1009.518822662158
 30
0.0
 11
-1376.202631264217
 21
1089.518822662156
 31
0.0
  0
LINE
  5
172
330
1F
100
AcDbEntity
  8
0-0
  6
JWW_DASHED1
 62
   120
370
     5
100
AcDbLine
 10
-1456.202631264208
 20
1019.418317597382
 30
0.0
 11
-1376.202631264225
 21
1099.418317597364
 31
0.0
  0
LINE
  5
173
330
1F
100
AcDbEntity
  8
0-0
  6
JWW_DASHED1
 62
   120
370
     5
100
AcDbLine
 10
-1456.202631264206
 20
1029.317812532546
 30
0.0
 11
-1376.202631264207
 21
1109.317812532545
 31
0.0
  0
LINE
  5
174
330
1F
100
AcDbEntity
  8
0-0
  6
JWW_DASHED1
 62
   120
370
     5
100
AcDbLine
 10
-1456.202631264213
 20
1039.217307467754
 30
0.0
 11
-1377.140064244574
 21
1118.279874487393
 31
0.0
  0
LINE
  5
175
330
1F
100
AcDbEntity
  8
0-0
  6
JWW_DASHED1
 62
   120
370
     5
100
AcDbLine
 10
-1456.202631264211
 20
1049.116802402919
 30
0.0
 11
-1387.039559179726
 21
1118.279874487403
 31
0.0
  0
LINE
  5
176
330
1F
100
AcDbEntity
  8
0-0
  6
JWW_DASHED1
 62
   120
370
     5
100
AcDbLine
 10
-1456.202631264203
 20
1059.016297338143
 30
0.0
 11
-1396.939054114964
 21
1118.279874487382
 31
0.0
  0
LINE
  5
177
330
1F
100
AcDbEntity
  8
0-0
  6
JWW_DASHED1
 62
   120
370
     5
100
AcDbLine
 10
-1456.202631264211
 20
1068.915792273351
 30
0.0
 11
-1406.838549050172
 21
1118.27987448739
 31
0.0
  0
LINE
  5
178
330
1F
100
AcDbEntity
  8
0-0
  6
JWW_DASHED1
 62
   120
370
     5
100
AcDbLine
 10
-1456.202631264207
 20
1078.815287208516
 30
0.0
 11
-1416.738043985329
 21
1118.279874487395
 31
0.0
  0
LINE
  5
179
330
1F
100
AcDbEntity
  8
0-0
  6
JWW_DASHED1
 62
   120
370
     5
100
AcDbLine
 10
-1456.2026312642
 20
1088.71478214374
 30
0.0
 11
-1426.637538920555
 21
1118.279874487386
 31
0.0
  0
LINE
  5
17A
330
1F
100
AcDbEntity
  8
0-0
  6
JWW_DASHED1
 62
   120
370
     5
100
AcDbLine
 10
-1456.202631264209
 20
1098.614277078948
 30
0.0
 11
-1436.537033855768
 21
1118.279874487388
 31
0.0
  0
LINE
  5
17B
330
1F
100
AcDbEntity
  8
0-0
  6
JWW_DASHED1
 62
   120
370
     5
100
AcDbLine
 10
-1456.202631264206
 20
1108.513772014113
 30
0.0
 11
-1446.436528790932
 21
1118.279874487387
 31
0.0
  0
LINE
  5
17C
330
1F
100
AcDbEntity
  8
0-0
  6
JWW_DASHED1
 62
   120
370
     5
100
AcDbLine
 10
-96.05016837156057
 20
-1048.720125512609
 30
0.0
 11
-86.2026312642169
 21
-1038.872588405265
 31
0.0
  0
LINE
  5
17D
330
1F
100
AcDbEntity
  8
0-0
  6
JWW_DASHED1
 62
   120
370
     5
100
AcDbLine
 10
-105.9496633067241
 20
-1048.72012551261
 30
0.0
 11
-86.20263126421435
 21
-1028.973093470101
 31
0.0
  0
LINE
  5
17E
330
1F
100
AcDbEntity
  8
0-0
  6
JWW_DASHED1
 62
   120
370
     5
100
AcDbLine
 10
-115.8491582419472
 20
-1048.720125512617
 30
0.0
 11
-86.20263126420667
 21
-1019.073598534877
 31
0.0
  0
LINE
  5
17F
330
1F
100
AcDbEntity
  8
0-0
  6
JWW_DASHED1
 62
   120
370
     5
100
AcDbLine
 10
-125.7486531771636
 20
-1048.720125512617
 30
0.0
 11
-86.2026312642152
 21
-1009.174103599668
 31
0.0
  0
LINE
  5
180
330
1F
100
AcDbEntity
  8
0-0
  6
JWW_DASHED1
 62
   120
370
     5
100
AcDbLine
 10
-135.6481481123203
 20
-1048.720125512612
 30
0.0
 11
-86.20263126421179
 21
-999.2746086645036
 31
0.0
  0
LINE
  5
181
330
1F
100
AcDbEntity
  8
0-0
  6
JWW_DASHED1
 62
   120
370
     5
100
AcDbLine
 10
-145.5476430475289
 20
-1048.720125512604
 30
0.0
 11
-86.20263126422032
 21
-989.3751137292958
 31
0.0
  0
LINE
  5
182
330
1F
100
AcDbEntity
  8
0-0
  6
JWW_DASHED1
 62
   120
370
     5
100
AcDbLine
 10
-155.4471379827666
 20
-1048.720125512626
 30
0.0
 11
-86.2026312642135
 21
-979.4756187940718
 31
0.0
  0
LINE
  5
183
330
1F
100
AcDbEntity
  8
0-0
  6
JWW_DASHED1
 62
   120
370
     5
100
AcDbLine
 10
-165.3466329179182
 20
-1048.720125512615
 30
0.0
 11
-86.20263126422543
 21
-969.5761238589223
 31
0.0
  0
LINE
  5
184
330
1F
100
AcDbEntity
  8
0-0
  6
JWW_DASHED1
 62
   120
370
     5
100
AcDbLine
 10
-166.2026312642158
 20
-1039.676628923697
 30
0.0
 11
-86.20263126421776
 21
-959.6766289236987
 31
0.0
  0
LINE
  5
185
330
1F
100
AcDbEntity
  8
0-0
  6
JWW_DASHED1
 62
   120
370
     5
100
AcDbLine
 10
-166.2026312641936
 20
-1029.777133988457
 30
0.0
 11
-86.20263126421094
 21
-949.7771339884755
 31
0.0
  0
LINE
  5
186
330
1F
100
AcDbEntity
  8
0-0
  6
JWW_DASHED1
 62
   120
370
     5
100
AcDbLine
 10
-166.2026312642055
 20
-1019.877639053308
 30
0.0
 11
-86.20263126422373
 21
-939.8776390533261
 31
0.0
  0
LINE
  5
187
330
1F
100
AcDbEntity
  8
0-0
  6
JWW_DASHED1
 62
   120
370
     5
100
AcDbLine
 10
-166.2026312642141
 20
-1009.978144118101
 30
0.0
 11
-86.2026312642152
 21
-929.9781441181017
 31
0.0
  0
LINE
  5
188
330
1F
100
AcDbEntity
  8
0-0
  6
JWW_DASHED1
 62
   120
370
     5
100
AcDbLine
 10
-166.2026312642072
 20
-1000.078649182877
 30
0.0
 11
-86.20263126420838
 21
-920.0786491828785
 31
0.0
  0
LINE
  5
189
330
1F
100
AcDbEntity
  8
0-0
  6
JWW_DASHED1
 62
   120
370
     5
100
AcDbLine
 10
-166.2026312642038
 20
-990.1791542477122
 30
0.0
 11
-86.20263126422117
 21
-910.1791542477291
 31
0.0
  0
LINE
  5
18A
330
1F
100
AcDbEntity
  8
0-0
  6
JWW_DASHED1
 62
   120
370
     5
100
AcDbLine
 10
-166.2026312642124
 20
-980.2796593125036
 30
0.0
 11
-86.20263126421264
 21
-900.2796593125047
 31
0.0
  0
LINE
  5
18B
330
1F
100
AcDbEntity
  8
0-0
  6
JWW_DASHED1
 62
   120
370
     5
100
AcDbLine
 10
-166.2026312642047
 20
-970.3801643772804
 30
0.0
 11
-86.20263126420667
 21
-890.3801643772819
 31
0.0
  0
LINE
  5
18C
330
1F
100
AcDbEntity
  8
0-0
  6
JWW_DASHED1
 62
   120
370
     5
100
AcDbLine
 10
-166.2026312642021
 20
-960.4806694421155
 30
0.0
 11
-86.20263126421861
 21
-880.4806694421329
 31
0.0
  0
LINE
  5
18D
330
1F
100
AcDbEntity
  8
0-0
  6
JWW_DASHED1
 62
   120
370
     5
100
AcDbLine
 10
-166.2026312642089
 20
-950.5811745069065
 30
0.0
 11
-86.20263126422543
 21
-870.5811745069234
 31
0.0
  0
LINE
  5
18E
330
1F
100
AcDbEntity
  8
0-0
  6
JWW_DASHED1
 62
   120
370
     5
100
AcDbLine
 10
-166.2026312642192
 20
-940.6816795717281
 30
0.0
 11
-86.20263126422032
 21
-860.6816795717288
 31
0.0
  0
LINE
  5
18F
330
1F
100
AcDbEntity
  8
0-0
  6
JWW_DASHED1
 62
   120
370
     5
100
AcDbLine
 10
-166.2026312641987
 20
-930.7821846365185
 30
0.0
 11
-86.2026312642169
 21
-850.7821846365358
 31
0.0
  0
LINE
  5
190
330
1F
100
AcDbEntity
  8
0-0
  6
JWW_DASHED1
 62
   120
370
     5
100
AcDbLine
 10
-166.2026312642081
 20
-920.8826897013107
 30
0.0
 11
-86.20263126422543
 21
-840.882689701328
 31
0.0
  0
LINE
  5
191
330
1F
100
AcDbEntity
  8
0-0
  6
JWW_DASHED1
 62
   120
370
     5
100
AcDbLine
 10
-166.2026312642192
 20
-910.9831947661604
 30
0.0
 11
-86.20263126422032
 21
-830.9831947661615
 31
0.0
  0
LINE
  5
192
330
1F
100
AcDbEntity
  8
0-0
  6
JWW_DASHED1
 62
   120
370
     5
100
AcDbLine
 10
-166.202631264197
 20
-901.0836998309219
 30
0.0
 11
-86.20263126421435
 21
-821.0836998309392
 31
0.0
  0
LINE
  5
193
330
1F
100
AcDbEntity
  8
0-0
  6
JWW_DASHED1
 62
   120
370
     5
100
AcDbLine
 10
-166.2026312642055
 20
-891.1842048957136
 30
0.0
 11
-86.20263126422373
 21
-811.1842048957315
 31
0.0
  0
LINE
  5
194
330
1F
100
AcDbEntity
  8
0-0
  6
JWW_DASHED1
 62
   120
370
     5
100
AcDbLine
 10
-166.2026312642166
 20
-881.2847099605633
 30
0.0
 11
-86.20263126421776
 21
-801.2847099605644
 31
0.0
  0
LINE
  5
195
330
1F
100
AcDbEntity
  8
0-0
  6
JWW_DASHED1
 62
   120
370
     5
100
AcDbLine
 10
-166.2026312641953
 20
-871.3852150253249
 30
0.0
 11
-86.20263126421179
 21
-791.3852150253422
 31
0.0
  0
LINE
  5
196
330
1F
100
AcDbEntity
  8
0-0
  6
JWW_DASHED1
 62
   120
370
     5
100
AcDbLine
 10
-166.2026312642021
 20
-861.4857200901166
 30
0.0
 11
-86.20263126422032
 21
-781.4857200901344
 31
0.0
  0
LINE
  5
197
330
1F
100
AcDbEntity
  8
0-0
  6
JWW_DASHED1
 62
   120
370
     5
100
AcDbLine
 10
-166.2026312642141
 20
-851.5862251549663
 30
0.0
 11
-86.2026312642152
 21
-771.5862251549675
 31
0.0
  0
LINE
  5
198
330
1F
100
AcDbEntity
  8
0-0
  6
JWW_DASHED1
 62
   120
370
     5
100
AcDbLine
 10
-166.2026312642089
 20
-841.686730219744
 30
0.0
 11
-86.20263126421008
 21
-761.6867302197455
 31
0.0
  0
LINE
  5
199
330
1F
100
AcDbEntity
  8
0-0
  6
JWW_DASHED1
 62
   120
370
     5
100
AcDbLine
 10
-166.2026312642013
 20
-831.7872352845209
 30
0.0
 11
-86.20263126421861
 21
-751.7872352845382
 31
0.0
  0
LINE
  5
19A
330
1F
100
AcDbEntity
  8
0-0
  6
JWW_DASHED1
 62
   120
370
     5
100
AcDbLine
 10
-166.2026312642115
 20
-821.8877403493693
 30
0.0
 11
-86.2026312642135
 21
-741.8877403493708
 31
0.0
  0
LINE
  5
19B
330
1F
100
AcDbEntity
  8
0-0
  6
JWW_DASHED1
 62
   120
370
     5
100
AcDbLine
 10
-166.2026312642055
 20
-811.988245414147
 30
0.0
 11
-86.20263126420838
 21
-731.9882454141493
 31
0.0
  0
LINE
  5
19C
330
1F
100
AcDbEntity
  8
0-0
  6
JWW_DASHED1
 62
   120
370
     5
100
AcDbLine
 10
-166.2026312641987
 20
-802.0887504789238
 30
0.0
 11
-86.20263126421605
 21
-722.0887504789412
 31
0.0
  0
LINE
  5
19D
330
1F
100
AcDbEntity
  8
0-0
  6
JWW_DASHED1
 62
   120
370
     5
100
AcDbLine
 10
-166.2026312642098
 20
-792.1892555437727
 30
0.0
 11
-86.20263126421008
 21
-712.1892555437738
 31
0.0
  0
LINE
  5
19E
330
1F
100
AcDbEntity
  8
0-0
  6
JWW_DASHED1
 62
   120
370
     5
100
AcDbLine
 10
-166.2026312642175
 20
-782.2897606085644
 30
0.0
 11
-86.20263126421861
 21
-702.2897606085655
 31
0.0
  0
LINE
  5
19F
330
1F
100
AcDbEntity
  8
0-0
  6
JWW_DASHED1
 62
   120
370
     5
100
AcDbLine
 10
-166.2026312641962
 20
-772.3902656733267
 30
0.0
 11
-86.2026312642135
 21
-692.3902656733445
 31
0.0
  0
LINE
  5
1A0
330
1F
100
AcDbEntity
  8
0-0
  6
JWW_DASHED1
 62
   120
370
     5
100
AcDbLine
 10
-166.2026312642072
 20
-762.4907707381756
 30
0.0
 11
-86.20263126422373
 21
-682.4907707381925
 31
0.0
  0
LINE
  5
1A1
330
1F
100
AcDbEntity
  8
0-0
  6
JWW_DASHED1
 62
   120
370
     5
100
AcDbLine
 10
-166.2026312642158
 20
-752.5912758029674
 30
0.0
 11
-86.20263126421605
 21
-672.5912758029685
 31
0.0
  0
LINE
  5
1A2
330
1F
100
AcDbEntity
  8
0-0
  6
JWW_DASHED1
 62
   120
370
     5
100
AcDbLine
 10
-166.2026312641945
 20
-742.6917808677301
 30
0.0
 11
-86.20263126421179
 21
-662.6917808677474
 31
0.0
  0
LINE
  5
1A3
330
1F
100
AcDbEntity
  8
0-0
  6
JWW_DASHED1
 62
   120
370
     5
100
AcDbLine
 10
-166.2026312642072
 20
-732.7922859325811
 30
0.0
 11
-86.20263126422373
 21
-652.7922859325985
 31
0.0
  0
LINE
  5
1A4
330
1F
100
AcDbEntity
  8
0-0
  6
JWW_DASHED1
 62
   120
370
     5
100
AcDbLine
 10
-166.2026312642132
 20
-722.8927909973711
 30
0.0
 11
-86.2026312642135
 21
-642.8927909973714
 31
0.0
  0
LINE
  5
1A5
330
1F
100
AcDbEntity
  8
0-0
  6
JWW_DASHED1
 62
   120
370
     5
100
AcDbLine
 10
-166.2026312642081
 20
-712.9932960621493
 30
0.0
 11
-86.20263126421008
 21
-632.9932960621509
 31
0.0
  0
LINE
  5
1A6
330
1F
100
AcDbEntity
  8
0-0
  6
JWW_DASHED1
 62
   120
370
     5
100
AcDbLine
 10
-166.2026312642055
 20
-703.0938011269845
 30
0.0
 11
-86.20263126422202
 21
-623.0938011270018
 31
0.0
  0
LINE
  5
1A7
330
1F
100
AcDbEntity
  8
0-0
  6
JWW_DASHED1
 62
   120
370
     5
100
AcDbLine
 10
-166.2026312642107
 20
-693.1943061917732
 30
0.0
 11
-86.20263126421179
 21
-613.1943061917748
 31
0.0
  0
LINE
  5
1A8
330
1F
100
AcDbEntity
  8
0-0
  6
JWW_DASHED1
 62
   120
370
     5
100
AcDbLine
 10
-166.2026312642192
 20
-683.2948112565655
 30
0.0
 11
-86.20263126421946
 21
-603.2948112565666
 31
0.0
  0
LINE
  5
1A9
330
1F
100
AcDbEntity
  8
0-0
  6
JWW_DASHED1
 62
   120
370
     5
100
AcDbLine
 10
-166.2026312642021
 20
-673.3953163213874
 30
0.0
 11
-86.20263126422032
 21
-593.3953163214056
 31
0.0
  0
LINE
  5
1AA
330
1F
100
AcDbEntity
  8
0-0
  6
JWW_DASHED1
 62
   120
370
     5
100
AcDbLine
 10
-166.2026312642081
 20
-663.4958213861771
 30
0.0
 11
-86.20263126422543
 21
-583.4958213861939
 31
0.0
  0
LINE
  5
1AB
330
1F
100
AcDbEntity
  8
0-0
  6
JWW_DASHED1
 62
   120
370
     5
100
AcDbLine
 10
-166.2026312642158
 20
-653.5963264509684
 30
0.0
 11
-86.2026312642169
 21
-573.5963264509695
 31
0.0
  0
LINE
  5
1AC
330
1F
100
AcDbEntity
  8
0-0
  6
JWW_DASHED1
 62
   120
370
     5
100
AcDbLine
 10
-166.2026312642004
 20
-643.6968315157903
 30
0.0
 11
-86.20263126421776
 21
-563.6968315158085
 31
0.0
  0
LINE
  5
1AD
330
1F
100
AcDbEntity
  8
0-0
  6
JWW_DASHED1
 62
   120
370
     5
100
AcDbLine
 10
-166.2026312642089
 20
-633.797336580583
 30
0.0
 11
-86.20263126422628
 21
-553.7973365806008
 31
0.0
  0
LINE
  5
1AE
330
1F
100
AcDbEntity
  8
0-0
  6
JWW_DASHED1
 62
   120
370
     5
100
AcDbLine
 10
-166.2026312642175
 20
-623.8978416454302
 30
0.0
 11
-86.20263126422032
 21
-543.8978416454322
 31
0.0
  0
LINE
  5
1AF
330
1F
100
AcDbEntity
  8
0-0
  6
JWW_DASHED1
 62
   120
370
     5
100
AcDbLine
 10
-166.2026312641979
 20
-613.9983467101943
 30
0.0
 11
-86.2026312642152
 21
-533.9983467102115
 31
0.0
  0
LINE
  5
1B0
330
1F
100
AcDbEntity
  8
0-0
  6
JWW_DASHED1
 62
   120
370
     5
100
AcDbLine
 10
-166.2026312642064
 20
-604.0988517749863
 30
0.0
 11
-86.20263126422373
 21
-524.0988517750037
 31
0.0
  0
LINE
  5
1B1
330
1F
100
AcDbEntity
  8
0-0
  6
JWW_DASHED1
 62
   120
370
     5
100
AcDbLine
 10
-166.2026312642158
 20
-594.1993568398344
 30
0.0
 11
-86.2026312642169
 21
-514.1993568398346
 31
0.0
  0
LINE
  5
1B2
330
1F
100
AcDbEntity
  8
0-0
  6
JWW_DASHED1
 62
   120
370
     5
100
AcDbLine
 10
-166.2026312641953
 20
-584.2998619045976
 30
0.0
 11
-86.2026312642135
 21
-504.2998619046149
 31
0.0
  0
LINE
  5
1B3
330
1F
100
AcDbEntity
  8
0-0
  6
JWW_DASHED1
 62
   120
370
     5
100
AcDbLine
 10
-166.2026312642038
 20
-574.4003669693893
 30
0.0
 11
-86.20263126422117
 21
-494.4003669694067
 31
0.0
  0
LINE
  5
1B4
330
1F
100
AcDbEntity
  8
0-0
  6
JWW_DASHED1
 62
   120
370
     5
100
AcDbLine
 10
-166.2026312642141
 20
-564.5008720342373
 30
0.0
 11
-86.2026312642135
 21
-484.5008720342377
 31
0.0
  0
LINE
  5
1B5
330
1F
100
AcDbEntity
  8
0-0
  6
JWW_DASHED1
 62
   120
370
     5
100
AcDbLine
 10
-166.2026312642089
 20
-554.6013770990163
 30
0.0
 11
-86.20263126421179
 21
-474.6013770990183
 31
0.0
  0
LINE
  5
1B6
330
1F
100
AcDbEntity
  8
0-0
  6
JWW_DASHED1
 62
   120
370
     5
100
AcDbLine
 10
-166.2026312642021
 20
-544.7018821637927
 30
0.0
 11
-86.20263126421861
 21
-464.7018821638101
 31
0.0
  0
LINE
  5
1B7
330
1F
100
AcDbEntity
  8
0-0
  6
JWW_DASHED1
 62
   120
370
     5
100
AcDbLine
 10
-166.2026312642107
 20
-534.8023872286403
 30
0.0
 11
-86.20263126421179
 21
-454.802387228641
 31
0.0
  0
LINE
  5
1B8
330
1F
100
AcDbEntity
  8
0-0
  6
JWW_DASHED1
 62
   120
370
     5
100
AcDbLine
 10
-166.2026312642072
 20
-524.9028922934197
 30
0.0
 11
-86.20263126420838
 21
-444.9028922934212
 31
0.0
  0
LINE
  5
1B9
330
1F
100
AcDbEntity
  8
0-0
  6
JWW_DASHED1
 62
   120
370
     5
100
AcDbLine
 10
-166.2026312641996
 20
-515.0033973581957
 30
0.0
 11
-86.2026312642169
 21
-435.0033973582139
 31
0.0
  0
LINE
  5
1BA
330
1F
100
AcDbEntity
  8
0-0
  6
JWW_DASHED1
 62
   120
370
     5
100
AcDbLine
 10
-166.2026312642089
 20
-505.1039024230432
 30
0.0
 11
-86.20263126421008
 21
-425.103902423044
 31
0.0
  0
LINE
  5
1BB
330
1F
100
AcDbEntity
  8
0-0
  6
JWW_DASHED1
 62
   120
370
     5
100
AcDbLine
 10
-166.2026312642166
 20
-495.204407487835
 30
0.0
 11
-86.2026312642169
 21
-415.2044074878357
 31
0.0
  0
LINE
  5
1BC
330
1F
100
AcDbEntity
  8
0-0
  6
JWW_DASHED1
 62
   120
370
     5
100
AcDbLine
 10
-166.202631264197
 20
-485.3049125525986
 30
0.0
 11
-86.2026312642152
 21
-405.3049125526168
 31
0.0
  0
LINE
  5
1BD
330
1F
100
AcDbEntity
  8
0-0
  6
JWW_DASHED1
 62
   120
370
     5
100
AcDbLine
 10
-166.2026312642107
 20
-475.4054176174504
 30
0.0
 11
-86.20263126422714
 21
-395.4054176174674
 31
0.0
  0
LINE
  5
1BE
330
1F
100
AcDbEntity
  8
0-0
  6
JWW_DASHED1
 62
   120
370
     5
100
AcDbLine
 10
-166.2026312642141
 20
-465.5059226822375
 30
0.0
 11
-86.2026312642152
 21
-385.5059226822395
 31
0.0
  0
LINE
  5
1BF
330
1F
100
AcDbEntity
  8
0-0
  6
JWW_DASHED1
 62
   120
370
     5
100
AcDbLine
 10
-166.2026312642107
 20
-455.6064277470186
 30
0.0
 11
-86.20263126421179
 21
-375.6064277470193
 31
0.0
  0
LINE
  5
1C0
330
1F
100
AcDbEntity
  8
0-0
  6
JWW_DASHED1
 62
   120
370
     5
100
AcDbLine
 10
-166.2026312642081
 20
-445.7069328118538
 30
0.0
 11
-86.20263126422543
 21
-365.7069328118703
 31
0.0
  0
LINE
  5
1C1
330
1F
100
AcDbEntity
  8
0-0
  6
JWW_DASHED1
 62
   120
370
     5
100
AcDbLine
 10
-166.2026312642124
 20
-435.8074378766413
 30
0.0
 11
-86.2026312642135
 21
-355.807437876642
 31
0.0
  0
LINE
  5
1C2
330
1F
100
AcDbEntity
  8
0-0
  6
JWW_DASHED1
 62
   120
370
     5
100
AcDbLine
 10
-166.2026312642089
 20
-425.9079429414215
 30
0.0
 11
-86.20263126421094
 21
-345.9079429414236
 31
0.0
  0
LINE
  5
1C3
330
1F
100
AcDbEntity
  8
0-0
  6
JWW_DASHED1
 62
   120
370
     5
100
AcDbLine
 10
-166.2026312642055
 20
-416.0084480062568
 30
0.0
 11
-86.20263126422287
 21
-336.0084480062741
 31
0.0
  0
LINE
  5
1C4
330
1F
100
AcDbEntity
  8
0-0
  6
JWW_DASHED1
 62
   120
370
     5
100
AcDbLine
 10
-166.2026312642089
 20
-406.1089530710443
 30
0.0
 11
-86.20263126421008
 21
-326.108953071045
 31
0.0
  0
LINE
  5
1C5
330
1F
100
AcDbEntity
  8
0-0
  6
JWW_DASHED1
 62
   120
370
     5
100
AcDbLine
 10
-166.2026312642175
 20
-396.209458135836
 30
0.0
 11
-86.20263126421861
 21
-316.2094581358367
 31
0.0
  0
LINE
  5
1C6
330
1F
100
AcDbEntity
  8
0-0
  6
JWW_DASHED1
 62
   120
370
     5
100
AcDbLine
 10
-166.202631264203
 20
-386.3099632006598
 30
0.0
 11
-86.20263126422032
 21
-306.3099632006775
 31
0.0
  0
LINE
  5
1C7
330
1F
100
AcDbEntity
  8
0-0
  6
JWW_DASHED1
 62
   120
370
     5
100
AcDbLine
 10
-166.2026312642072
 20
-376.4104682654472
 30
0.0
 11
-86.20263126422373
 21
-296.4104682654637
 31
0.0
  0
LINE
  5
1C8
330
1F
100
AcDbEntity
  8
0-0
  6
JWW_DASHED1
 62
   120
370
     5
100
AcDbLine
 10
-166.2026312642175
 20
-366.5109733302684
 30
0.0
 11
-86.20263126421861
 21
-286.5109733302695
 31
0.0
  0
LINE
  5
1C9
330
1F
100
AcDbEntity
  8
0-0
  6
JWW_DASHED1
 62
   120
370
     5
100
AcDbLine
 10
-166.2026312642004
 20
-356.6114783950632
 30
0.0
 11
-86.20263126421861
 21
-276.6114783950804
 31
0.0
  0
LINE
  5
1CA
330
1F
100
AcDbEntity
  8
0-0
  6
JWW_DASHED1
 62
   120
370
     5
100
AcDbLine
 10
-166.2026312642089
 20
-346.7119834598549
 30
0.0
 11
-86.20263126422714
 21
-266.7119834598726
 31
0.0
  0
LINE
  5
1CB
330
1F
100
AcDbEntity
  8
0-0
  6
JWW_DASHED1
 62
   120
370
     5
100
AcDbLine
 10
-166.2026312642175
 20
-336.8124885247012
 30
0.0
 11
-86.20263126421776
 21
-256.8124885247019
 31
0.0
  0
LINE
  5
1CC
330
1F
100
AcDbEntity
  8
0-0
  6
JWW_DASHED1
 62
   120
370
     5
100
AcDbLine
 10
-166.2026312641987
 20
-326.912993589467
 30
0.0
 11
-86.2026312642152
 21
-246.9129935894834
 31
0.0
  0
LINE
  5
1CD
330
1F
100
AcDbEntity
  8
0-0
  6
JWW_DASHED1
 62
   120
370
     5
100
AcDbLine
 10
-166.2026312642072
 20
-317.0134986542591
 30
0.0
 11
-86.20263126422373
 21
-237.0134986542756
 31
0.0
  0
LINE
  5
1CE
330
1F
100
AcDbEntity
  8
0-0
  6
JWW_DASHED1
 62
   120
370
     5
100
AcDbLine
 10
-166.2026312642141
 20
-307.1140037191042
 30
0.0
 11
-86.2026312642152
 21
-227.1140037191049
 31
0.0
  0
LINE
  5
1CF
330
1F
100
AcDbEntity
  8
0-0
  6
JWW_DASHED1
 62
   120
370
     5
100
AcDbLine
 10
-166.202631264197
 20
-297.2145087838699
 30
0.0
 11
-86.20263126421435
 21
-217.2145087838877
 31
0.0
  0
LINE
  5
1D0
330
1F
100
AcDbEntity
  8
0-0
  6
JWW_DASHED1
 62
   120
370
     5
100
AcDbLine
 10
-166.2026312642055
 20
-287.315013848662
 30
0.0
 11
-86.20263126422202
 21
-207.3150138486785
 31
0.0
  0
LINE
  5
1D1
330
1F
100
AcDbEntity
  8
0-0
  6
JWW_DASHED1
 62
   120
370
     5
100
AcDbLine
 10
-166.2026312642124
 20
-277.4155189135071
 30
0.0
 11
-86.20263126421264
 21
-197.4155189135078
 31
0.0
  0
LINE
  5
1D2
330
1F
100
AcDbEntity
  8
0-0
  6
JWW_DASHED1
 62
   120
370
     5
100
AcDbLine
 10
-166.2026312642107
 20
-267.516023978289
 30
0.0
 11
-86.20263126421179
 21
-187.5160239782906
 31
0.0
  0
LINE
  5
1D3
330
1F
100
AcDbEntity
  8
0-0
  6
JWW_DASHED1
 62
   120
370
     5
100
AcDbLine
 10
-166.2026312642021
 20
-257.616529043065
 30
0.0
 11
-86.20263126422032
 21
-177.6165290430828
 31
0.0
  0
LINE
  5
1D4
330
1F
100
AcDbEntity
  8
0-0
  6
JWW_DASHED1
 62
   120
370
     5
100
AcDbLine
 10
-166.2026312642089
 20
-247.7170341079096
 30
0.0
 11
-86.20263126421008
 21
-167.7170341079108
 31
0.0
  0
LINE
  5
1D5
330
1F
100
AcDbEntity
  8
0-0
  6
JWW_DASHED1
 62
   120
370
     5
100
AcDbLine
 10
-166.2026312642081
 20
-237.8175391726924
 30
0.0
 11
-86.20263126420923
 21
-157.8175391726936
 31
0.0
  0
LINE
  5
1D6
330
1F
100
AcDbEntity
  8
0-0
  6
JWW_DASHED1
 62
   120
370
     5
100
AcDbLine
 10
-166.2026312642004
 20
-227.9180442374684
 30
0.0
 11
-86.20263126421776
 21
-147.9180442374857
 31
0.0
  0
LINE
  5
1D7
330
1F
100
AcDbEntity
  8
0-0
  6
JWW_DASHED1
 62
   120
370
     5
100
AcDbLine
 10
-166.2026312642072
 20
-218.0185493023134
 30
0.0
 11
-86.20263126422373
 21
-138.0185493023299
 31
0.0
  0
LINE
  5
1D8
330
1F
100
AcDbEntity
  8
0-0
  6
JWW_DASHED1
 62
   120
370
     5
100
AcDbLine
 10
-166.2026312642158
 20
-208.1190543671052
 30
0.0
 11
-86.2026312642169
 21
-128.1190543671059
 31
0.0
  0
LINE
  5
1D9
330
1F
100
AcDbEntity
  8
0-0
  6
JWW_DASHED1
 62
   120
370
     5
100
AcDbLine
 10
-166.2026312641979
 20
-198.2195594318713
 30
0.0
 11
-86.2026312642152
 21
-118.2195594318887
 31
0.0
  0
LINE
  5
1DA
330
1F
100
AcDbEntity
  8
0-0
  6
JWW_DASHED1
 62
   120
370
     5
100
AcDbLine
 10
-166.2026312642115
 20
-188.3200644967228
 30
0.0
 11
-86.20263126422799
 21
-108.3200644967397
 31
0.0
  0
LINE
  5
1DB
330
1F
100
AcDbEntity
  8
0-0
  6
JWW_DASHED1
 62
   120
370
     5
100
AcDbLine
 10
-166.2026312642124
 20
-178.4205695615081
 30
0.0
 11
-86.2026312642135
 21
-98.42056956150884
 31
0.0
  0
LINE
  5
1DC
330
1F
100
AcDbEntity
  8
0-0
  6
JWW_DASHED1
 62
   120
370
     5
100
AcDbLine
 10
-166.2026312642124
 20
-168.5210746262905
 30
0.0
 11
-86.20263126421264
 21
-88.52107462629164
 31
0.0
  0
LINE
  5
1DD
330
1F
100
AcDbEntity
  8
0-0
  6
JWW_DASHED1
 62
   120
370
     5
100
AcDbLine
 10
-166.2026312642089
 20
-158.6215796911257
 30
0.0
 11
-86.20263126422543
 21
-78.62157969114307
 31
0.0
  0
LINE
  5
1DE
330
1F
100
AcDbEntity
  8
0-0
  6
JWW_DASHED1
 62
   120
370
     5
100
AcDbLine
 10
-166.2026312642107
 20
-148.7220847559111
 30
0.0
 11
-86.20263126421094
 21
-68.7220847559118
 31
0.0
  0
LINE
  5
1DF
330
1F
100
AcDbEntity
  8
0-0
  6
JWW_DASHED1
 62
   120
370
     5
100
AcDbLine
 10
-166.2026312641987
 20
-138.8225898207369
 30
0.0
 11
-86.2026312642152
 21
-58.82258982075427
 31
0.0
  0
LINE
  5
1E0
330
1F
100
AcDbEntity
  8
0-0
  6
JWW_DASHED1
 62
   120
370
     5
100
AcDbLine
 10
-166.2026312642064
 20
-128.9230948855287
 30
0.0
 11
-86.20263126422373
 21
-48.92309488554687
 31
0.0
  0
LINE
  5
1E1
330
1F
100
AcDbEntity
  8
0-0
  6
JWW_DASHED1
 62
   120
370
     5
100
AcDbLine
 10
-166.2026312642072
 20
-119.023599950314
 30
0.0
 11
-86.20263126420838
 21
-39.02359995031475
 31
0.0
  0
LINE
  5
1E2
330
1F
100
AcDbEntity
  8
0-0
  6
JWW_DASHED1
 62
   120
370
     5
100
AcDbLine
 10
-166.2026312642124
 20
-109.1241050151565
 30
0.0
 11
-86.20263126421264
 21
-29.12410501515723
 31
0.0
  0
LINE
  5
1E3
330
1F
100
AcDbEntity
  8
0-0
  6
JWW_DASHED1
 62
   120
370
     5
100
AcDbLine
 10
-166.2026312642038
 20
-99.22461007993249
 30
0.0
 11
-86.20263126422202
 21
-19.2246100799494
 31
0.0
  0
LINE
  5
1E4
330
1F
100
AcDbEntity
  8
0-0
  6
JWW_DASHED1
 62
   120
370
     5
100
AcDbLine
 10
-166.2026312642055
 20
-89.32511514471699
 30
0.0
 11
-86.20263126422202
 21
-9.3251151447339
 31
0.0
  0
LINE
  5
1E5
330
1F
100
AcDbEntity
  8
0-0
  6
JWW_DASHED1
 62
   120
370
     5
100
AcDbLine
 10
-166.2026312642089
 20
-79.42562020955947
 30
0.0
 11
-86.20263126421094
 21
0.574379790438968
 31
0.0
  0
LINE
  5
1E6
330
1F
100
AcDbEntity
  8
0-0
  6
JWW_DASHED1
 62
   120
370
     5
100
AcDbLine
 10
-166.2026312642021
 20
-69.52612527433587
 30
0.0
 11
-86.20263126421861
 21
10.47387472564765
 31
0.0
  0
LINE
  5
1E7
330
1F
100
AcDbEntity
  8
0-0
  6
JWW_DASHED1
 62
   120
370
     5
100
AcDbLine
 10
-166.2026312642107
 20
-59.62663033912762
 30
0.0
 11
-86.20263126422714
 21
20.37336966085505
 31
0.0
  0
LINE
  5
1E8
330
1F
100
AcDbEntity
  8
0-0
  6
JWW_DASHED1
 62
   120
370
     5
100
AcDbLine
 10
-166.2026312642158
 20
-49.72713540397052
 30
0.0
 11
-86.2026312642169
 21
30.27286459602792
 31
0.0
  0
LINE
  5
1E9
330
1F
100
AcDbEntity
  8
0-0
  6
JWW_DASHED1
 62
   120
370
     5
100
AcDbLine
 10
-166.2026312641996
 20
-39.82764046873882
 30
0.0
 11
-86.2026312642169
 21
40.17235953124384
 31
0.0
  0
LINE
  5
1EA
330
1F
100
AcDbEntity
  8
0-0
  6
JWW_DASHED1
 62
   120
370
     5
100
AcDbLine
 10
-166.2026312642081
 20
-29.92814553353099
 30
0.0
 11
-86.20263126422543
 21
50.07185446645209
 31
0.0
  0
LINE
  5
1EB
330
1F
100
AcDbEntity
  8
0-0
  6
JWW_DASHED1
 62
   120
370
     5
100
AcDbLine
 10
-166.2026312642132
 20
-20.02865059837433
 30
0.0
 11
-86.2026312642135
 21
59.97134940162496
 31
0.0
  0
LINE
  5
1EC
330
1F
100
AcDbEntity
  8
0-0
  6
JWW_DASHED1
 62
   120
370
     5
100
AcDbLine
 10
-166.202631264197
 20
-10.12915566314177
 30
0.0
 11
-86.2026312642152
 21
69.87084433684046
 31
0.0
  0
LINE
  5
1ED
330
1F
100
AcDbEntity
  8
0-0
  6
JWW_DASHED1
 62
   120
370
     5
100
AcDbLine
 10
-166.2026312642055
 20
-0.2296607279339469
 30
0.0
 11
-86.20263126422287
 21
79.77033927204872
 31
0.0
  0
LINE
  5
1EE
330
1F
100
AcDbEntity
  8
0-0
  6
JWW_DASHED1
 62
   120
370
     5
100
AcDbLine
 10
-166.2026312642107
 20
9.669834207222294
 30
0.0
 11
-86.20263126421179
 21
89.66983420722201
 31
0.0
  0
LINE
  5
1EF
330
1F
100
AcDbEntity
  8
0-0
  6
JWW_DASHED1
 62
   120
370
     5
100
AcDbLine
 10
-166.2026312642107
 20
19.56932914243907
 30
0.0
 11
-86.20263126421179
 21
99.56932914243751
 31
0.0
  0
LINE
  5
1F0
330
1F
100
AcDbEntity
  8
0-0
  6
JWW_DASHED1
 62
   120
370
     5
100
AcDbLine
 10
-166.202631264203
 20
29.4688240776631
 30
0.0
 11
-86.20263126422117
 21
109.4688240776453
 31
0.0
  0
LINE
  5
1F1
330
1F
100
AcDbEntity
  8
0-0
  6
JWW_DASHED1
 62
   120
370
     5
100
AcDbLine
 10
-166.2026312642089
 20
39.36831901281934
 30
0.0
 11
-86.20263126421008
 21
119.3683190128182
 31
0.0
  0
LINE
  5
1F2
330
1F
100
AcDbEntity
  8
0-0
  6
JWW_DASHED1
 62
   120
370
     5
100
AcDbLine
 10
-166.2026312642158
 20
49.26781394802802
 30
0.0
 11
-86.2026312642169
 21
129.2678139480273
 31
0.0
  0
LINE
  5
1F3
330
1F
100
AcDbEntity
  8
0-0
  6
JWW_DASHED1
 62
   120
370
     5
100
AcDbLine
 10
-166.2026312642055
 20
59.16730888320004
 30
0.0
 11
-86.20263126422373
 21
139.1673088831831
 31
0.0
  0
LINE
  5
1F4
330
1F
100
AcDbEntity
  8
0-0
  6
JWW_DASHED1
 62
   120
370
     5
100
AcDbLine
 10
-166.2026312642055
 20
69.06680381841639
 30
0.0
 11
-86.20263126422287
 21
149.0668038183999
 31
0.0
  0
LINE
  5
1F5
330
1F
100
AcDbEntity
  8
0-0
  6
JWW_DASHED1
 62
   120
370
     5
100
AcDbLine
 10
-166.2026312642141
 20
78.96629875362464
 30
0.0
 11
-86.20263126421435
 21
158.9662987536244
 31
0.0
  0
LINE
  5
1F6
330
1F
100
AcDbEntity
  8
0-0
  6
JWW_DASHED1
 62
   120
370
     5
100
AcDbLine
 10
-166.2026312642038
 20
88.86579368879708
 30
0.0
 11
-86.20263126422032
 21
168.8657936887802
 31
0.0
  0
LINE
  5
1F7
330
1F
100
AcDbEntity
  8
0-0
  6
JWW_DASHED1
 62
   120
370
     5
100
AcDbLine
 10
-166.2026312642124
 20
98.76528862400491
 30
0.0
 11
-86.20263126422884
 21
178.7652886239884
 31
0.0
  0
LINE
  5
1F8
330
1F
100
AcDbEntity
  8
0-0
  6
JWW_DASHED1
 62
   120
370
     5
100
AcDbLine
 10
-166.2026312642115
 20
108.6647835592217
 30
0.0
 11
-86.2026312642135
 21
188.6647835592201
 31
0.0
  0
LINE
  5
1F9
330
1F
100
AcDbEntity
  8
0-0
  6
JWW_DASHED1
 62
   120
370
     5
100
AcDbLine
 10
-166.2026312642004
 20
118.5642784943941
 30
0.0
 11
-86.20263126421861
 21
198.5642784943764
 31
0.0
  0
LINE
  5
1FA
330
1F
100
AcDbEntity
  8
0-0
  6
JWW_DASHED1
 62
   120
370
     5
100
AcDbLine
 10
-166.2026312642089
 20
128.463773429602
 30
0.0
 11
-86.20263126422714
 21
208.4637734295842
 31
0.0
  0
LINE
  5
1FB
330
1F
100
AcDbEntity
  8
0-0
  6
JWW_DASHED1
 62
   120
370
     5
100
AcDbLine
 10
-166.2026312642089
 20
138.3632683648183
 30
0.0
 11
-86.20263126421008
 21
218.3632683648172
 31
0.0
  0
LINE
  5
1FC
330
1F
100
AcDbEntity
  8
0-0
  6
JWW_DASHED1
 62
   120
370
     5
100
AcDbLine
 10
-166.2026312641987
 20
148.2627632999903
 30
0.0
 11
-86.20263126421605
 21
228.2627632999734
 31
0.0
  0
LINE
  5
1FD
330
1F
100
AcDbEntity
  8
0-0
  6
JWW_DASHED1
 62
   120
370
     5
100
AcDbLine
 10
-166.2026312642072
 20
158.162258235199
 30
0.0
 11
-86.20263126422458
 21
238.1622582351812
 31
0.0
  0
LINE
  5
1FE
330
1F
100
AcDbEntity
  8
0-0
  6
JWW_DASHED1
 62
   120
370
     5
100
AcDbLine
 10
-166.2026312642072
 20
168.0617531704154
 30
0.0
 11
-86.20263126420838
 21
248.0617531704142
 31
0.0
  0
LINE
  5
1FF
330
1F
100
AcDbEntity
  8
0-0
  6
JWW_DASHED1
 62
   120
370
     5
100
AcDbLine
 10
-166.2026312642124
 20
177.9612481055716
 30
0.0
 11
-86.2026312642135
 21
257.96124810557
 31
0.0
  0
LINE
  5
200
330
1F
100
AcDbEntity
  8
0-0
  6
JWW_DASHED1
 62
   120
370
     5
100
AcDbLine
 10
-166.2026312642055
 20
187.8607430407948
 30
0.0
 11
-86.20263126422202
 21
267.8607430407783
 31
0.0
  0
LINE
  5
201
330
1F
100
AcDbEntity
  8
0-0
  6
JWW_DASHED1
 62
   120
370
     5
100
AcDbLine
 10
-166.2026312642038
 20
197.7602379760124
 30
0.0
 11
-86.20263126422117
 21
277.7602379759955
 31
0.0
  0
LINE
  5
202
330
1F
100
AcDbEntity
  8
0-0
  6
JWW_DASHED1
 62
   120
370
     5
100
AcDbLine
 10
-166.2026312642098
 20
207.6597329111686
 30
0.0
 11
-86.20263126421179
 21
287.6597329111667
 31
0.0
  0
LINE
  5
203
330
1F
100
AcDbEntity
  8
0-0
  6
JWW_DASHED1
 62
   120
370
     5
100
AcDbLine
 10
-166.202631264203
 20
217.5592278463918
 30
0.0
 11
-86.20263126422032
 21
297.5592278463749
 31
0.0
  0
LINE
  5
204
330
1F
100
AcDbEntity
  8
0-0
  6
JWW_DASHED1
 62
   120
370
     5
100
AcDbLine
 10
-166.2026312642115
 20
227.4587227815996
 30
0.0
 11
-86.20263126422884
 21
307.4587227815823
 31
0.0
  0
LINE
  5
205
330
1F
100
AcDbEntity
  8
0-0
  6
JWW_DASHED1
 62
   120
370
     5
100
AcDbLine
 10
-166.2026312642141
 20
237.3582177167584
 30
0.0
 11
-86.2026312642152
 21
317.3582177167573
 31
0.0
  0
LINE
  5
206
330
1F
100
AcDbEntity
  8
0-0
  6
JWW_DASHED1
 62
   120
370
     5
100
AcDbLine
 10
-166.2026312642004
 20
247.2577126519893
 30
0.0
 11
-86.20263126421861
 21
327.2577126519711
 31
0.0
  0
LINE
  5
207
330
1F
100
AcDbEntity
  8
0-0
  6
JWW_DASHED1
 62
   120
370
     5
100
AcDbLine
 10
-166.2026312642124
 20
257.1572075871383
 30
0.0
 11
-86.20263126423055
 21
337.1572075871201
 31
0.0
  0
LINE
  5
208
330
1F
100
AcDbEntity
  8
0-0
  6
JWW_DASHED1
 62
   120
370
     5
100
AcDbLine
 10
-166.2026312642124
 20
267.0567025223555
 30
0.0
 11
-86.2026312642135
 21
347.0567025223544
 31
0.0
  0
LINE
  5
209
330
1F
100
AcDbEntity
  8
0-0
  6
JWW_DASHED1
 62
   120
370
     5
100
AcDbLine
 10
-166.2026312642141
 20
276.9561974575697
 30
0.0
 11
-86.2026312642152
 21
356.9561974575681
 31
0.0
  0
LINE
  5
20A
330
1F
100
AcDbEntity
  8
0-0
  6
JWW_DASHED1
 62
   120
370
     5
100
AcDbLine
 10
-166.2026312642107
 20
286.8556923927354
 30
0.0
 11
-86.20263126422884
 21
366.8556923927176
 31
0.0
  0
LINE
  5
20B
330
1F
100
AcDbEntity
  8
0-0
  6
JWW_DASHED1
 62
   120
370
     5
100
AcDbLine
 10
-166.2026312642089
 20
296.7551873279525
 30
0.0
 11
-86.20263126421008
 21
376.7551873279514
 31
0.0
  0
LINE
  5
20C
330
1F
100
AcDbEntity
  8
0-0
  6
JWW_DASHED1
 62
   120
370
     5
100
AcDbLine
 10
-166.2026312642124
 20
306.6546822631664
 30
0.0
 11
-86.2026312642135
 21
386.6546822631648
 31
0.0
  0
LINE
  5
20D
330
1F
100
AcDbEntity
  8
0-0
  6
JWW_DASHED1
 62
   120
370
     5
100
AcDbLine
 10
-166.2026312642089
 20
316.5541771983311
 30
0.0
 11
-86.20263126422543
 21
396.5541771983146
 31
0.0
  0
LINE
  5
20E
330
1F
100
AcDbEntity
  8
0-0
  6
JWW_DASHED1
 62
   120
370
     5
100
AcDbLine
 10
-166.2026312642072
 20
326.4536721335496
 30
0.0
 11
-86.20263126420838
 21
406.453672133548
 31
0.0
  0
LINE
  5
20F
330
1F
100
AcDbEntity
  8
0-0
  6
JWW_DASHED1
 62
   120
370
     5
100
AcDbLine
 10
-166.2026312642158
 20
336.3531670687574
 30
0.0
 11
-86.2026312642169
 21
416.3531670687563
 31
0.0
  0
LINE
  5
210
330
1F
100
AcDbEntity
  8
0-0
  6
JWW_DASHED1
 62
   120
370
     5
100
AcDbLine
 10
-166.2026312642064
 20
346.2526620039282
 30
0.0
 11
-86.20263126422373
 21
426.2526620039104
 31
0.0
  0
LINE
  5
211
330
1F
100
AcDbEntity
  8
0-0
  6
JWW_DASHED1
 62
   120
370
     5
100
AcDbLine
 10
-166.2026312642038
 20
356.1521569391466
 30
0.0
 11
-86.20263126422202
 21
436.1521569391293
 31
0.0
  0
LINE
  5
212
330
1F
100
AcDbEntity
  8
0-0
  6
JWW_DASHED1
 62
   120
370
     5
100
AcDbLine
 10
-166.2026312642124
 20
366.0516518743544
 30
0.0
 11
-86.2026312642135
 21
446.0516518743533
 31
0.0
  0
LINE
  5
213
330
1F
100
AcDbEntity
  8
0-0
  6
JWW_DASHED1
 62
   120
370
     5
100
AcDbLine
 10
-166.2026312642038
 20
375.9511468095252
 30
0.0
 11
-86.20263126422202
 21
455.9511468095075
 31
0.0
  0
LINE
  5
214
330
1F
100
AcDbEntity
  8
0-0
  6
JWW_DASHED1
 62
   120
370
     5
100
AcDbLine
 10
-166.2026312642124
 20
385.850641744733
 30
0.0
 11
-86.2026312642297
 21
465.8506417447157
 31
0.0
  0
LINE
  5
215
330
1F
100
AcDbEntity
  8
0-0
  6
JWW_DASHED1
 62
   120
370
     5
100
AcDbLine
 10
-166.2026312642107
 20
395.7501366799515
 30
0.0
 11
-86.20263126421179
 21
475.7501366799504
 31
0.0
  0
LINE
  5
216
330
1F
100
AcDbEntity
  8
0-0
  6
JWW_DASHED1
 62
   120
370
     5
100
AcDbLine
 10
-166.2026312642021
 20
405.6496316151218
 30
0.0
 11
-86.20263126421861
 21
485.6496316151045
 31
0.0
  0
LINE
  5
217
330
1F
100
AcDbEntity
  8
0-0
  6
JWW_DASHED1
 62
   120
370
     5
100
AcDbLine
 10
-166.2026312642098
 20
415.5491265503301
 30
0.0
 11
-86.20263126422799
 21
495.5491265503123
 31
0.0
  0
LINE
  5
218
330
1F
100
AcDbEntity
  8
0-0
  6
JWW_DASHED1
 62
   120
370
     5
100
AcDbLine
 10
-166.2026312642072
 20
425.4486214855485
 30
0.0
 11
-86.20263126420838
 21
505.4486214855474
 31
0.0
  0
LINE
  5
219
330
1F
100
AcDbEntity
  8
0-0
  6
JWW_DASHED1
 62
   120
370
     5
100
AcDbLine
 10
-166.2026312642004
 20
435.348116420718
 30
0.0
 11
-86.2026312642169
 21
515.3481164207006
 31
0.0
  0
LINE
  5
21A
330
1F
100
AcDbEntity
  8
0-0
  6
JWW_DASHED1
 62
   120
370
     5
100
AcDbLine
 10
-166.2026312642081
 20
445.2476113559263
 30
0.0
 11
-86.20263126422543
 21
525.2476113559094
 31
0.0
  0
LINE
  5
21B
330
1F
100
AcDbEntity
  8
0-0
  6
JWW_DASHED1
 62
   120
370
     5
100
AcDbLine
 10
-166.2026312642098
 20
455.1471062910863
 30
0.0
 11
-86.20263126421008
 21
535.1471062910861
 31
0.0
  0
LINE
  5
21C
330
1F
100
AcDbEntity
  8
0-0
  6
JWW_DASHED1
 62
   120
370
     5
100
AcDbLine
 10
-166.2026312642132
 20
465.0466012262993
 30
0.0
 11
-86.2026312642152
 21
545.0466012262973
 31
0.0
  0
LINE
  5
21D
330
1F
100
AcDbEntity
  8
0-0
  6
JWW_DASHED1
 62
   120
370
     5
100
AcDbLine
 10
-166.2026312642055
 20
474.9460961615229
 30
0.0
 11
-86.20263126422373
 21
554.9460961615056
 31
0.0
  0
LINE
  5
21E
330
1F
100
AcDbEntity
  8
0-0
  6
JWW_DASHED1
 62
   120
370
     5
100
AcDbLine
 10
-166.2026312642072
 20
484.8455910966834
 30
0.0
 11
-86.20263126420838
 21
564.8455910966818
 31
0.0
  0
LINE
  5
21F
330
1F
100
AcDbEntity
  8
0-0
  6
JWW_DASHED1
 62
   120
370
     5
100
AcDbLine
 10
-166.2026312642158
 20
494.7450860318917
 30
0.0
 11
-86.20263126421605
 21
574.7450860318909
 31
0.0
  0
LINE
  5
220
330
1F
100
AcDbEntity
  8
0-0
  6
JWW_DASHED1
 62
   120
370
     5
100
AcDbLine
 10
-166.2026312642038
 20
504.64458096712
 30
0.0
 11
-86.20263126422117
 21
584.6445809671022
 31
0.0
  0
LINE
  5
221
330
1F
100
AcDbEntity
  8
0-0
  6
JWW_DASHED1
 62
   120
370
     5
100
AcDbLine
 10
-166.2026312642055
 20
514.54407590228
 30
0.0
 11
-86.20263126422202
 21
594.5440759022631
 31
0.0
  0
LINE
  5
222
330
1F
100
AcDbEntity
  8
0-0
  6
JWW_DASHED1
 62
   120
370
     5
100
AcDbLine
 10
-166.2026312642124
 20
524.4435708374887
 30
0.0
 11
-86.20263126421435
 21
604.4435708374872
 31
0.0
  0
LINE
  5
223
330
1F
100
AcDbEntity
  8
0-0
  6
JWW_DASHED1
 62
   120
370
     5
100
AcDbLine
 10
-166.2026312642013
 20
534.3430657727165
 30
0.0
 11
-86.20263126421861
 21
614.3430657726992
 31
0.0
  0
LINE
  5
224
330
1F
100
AcDbEntity
  8
0-0
  6
JWW_DASHED1
 62
   120
370
     5
100
AcDbLine
 10
-166.2026312642141
 20
544.2425607078656
 30
0.0
 11
-86.2026312642314
 21
624.2425607078483
 31
0.0
  0
LINE
  5
225
330
1F
100
AcDbEntity
  8
0-0
  6
JWW_DASHED1
 62
   120
370
     5
100
AcDbLine
 10
-166.2026312642115
 20
554.1420556430844
 30
0.0
 11
-86.20263126421179
 21
634.1420556430842
 31
0.0
  0
LINE
  5
226
330
1F
100
AcDbEntity
  8
0-0
  6
JWW_DASHED1
 62
   120
370
     5
100
AcDbLine
 10
-166.2026312642158
 20
564.041550578297
 30
0.0
 11
-86.20263126421605
 21
644.0415505782962
 31
0.0
  0
LINE
  5
227
330
1F
100
AcDbEntity
  8
0-0
  6
JWW_DASHED1
 62
   120
370
     5
100
AcDbLine
 10
-166.2026312642115
 20
573.9410455134625
 30
0.0
 11
-86.20263126422884
 21
653.9410455134448
 31
0.0
  0
LINE
  5
228
330
1F
100
AcDbEntity
  8
0-0
  6
JWW_DASHED1
 62
   120
370
     5
100
AcDbLine
 10
-166.2026312642081
 20
583.8405404486823
 30
0.0
 11
-86.20263126420923
 21
663.8405404486812
 31
0.0
  0
LINE
  5
229
330
1F
100
AcDbEntity
  8
0-0
  6
JWW_DASHED1
 62
   120
370
     5
100
AcDbLine
 10
-166.2026312642124
 20
593.7400353838945
 30
0.0
 11
-86.2026312642152
 21
673.7400353838921
 31
0.0
  0
LINE
  5
22A
330
1F
100
AcDbEntity
  8
0-0
  6
JWW_DASHED1
 62
   120
370
     5
100
AcDbLine
 10
-166.2026312642098
 20
603.6395303190588
 30
0.0
 11
-86.20263126422714
 21
683.6395303190419
 31
0.0
  0
LINE
  5
22B
330
1F
100
AcDbEntity
  8
0-0
  6
JWW_DASHED1
 62
   120
370
     5
100
AcDbLine
 10
-166.2026312642055
 20
613.5390252542794
 30
0.0
 11
-86.20263126420667
 21
693.5390252542783
 31
0.0
  0
LINE
  5
22C
330
1F
100
AcDbEntity
  8
0-0
  6
JWW_DASHED1
 62
   120
370
     5
100
AcDbLine
 10
-166.2026312642141
 20
623.4385201894877
 30
0.0
 11
-86.2026312642152
 21
703.4385201894866
 31
0.0
  0
LINE
  5
22D
330
1F
100
AcDbEntity
  8
0-0
  6
JWW_DASHED1
 62
   120
370
     5
100
AcDbLine
 10
-166.2026312642072
 20
633.3380151246563
 30
0.0
 11
-86.20263126422543
 21
713.3380151246381
 31
0.0
  0
LINE
  5
22E
330
1F
100
AcDbEntity
  8
0-0
  6
JWW_DASHED1
 62
   120
370
     5
100
AcDbLine
 10
-166.2026312642038
 20
643.2375100598761
 30
0.0
 11
-86.20263126422032
 21
723.2375100598591
 31
0.0
  0
LINE
  5
22F
330
1F
100
AcDbEntity
  8
0-0
  6
JWW_DASHED1
 62
   120
370
     5
100
AcDbLine
 10
-166.2026312642124
 20
653.1370049950284
 30
0.0
 11
-86.20263126421435
 21
733.1370049950269
 31
0.0
  0
LINE
  5
230
330
1F
100
AcDbEntity
  8
0-0
  6
JWW_DASHED1
 62
   120
370
     5
100
AcDbLine
 10
-166.2026312642055
 20
663.0364999302525
 30
0.0
 11
-86.20263126422202
 21
743.0364999302351
 31
0.0
  0
LINE
  5
231
330
1F
100
AcDbEntity
  8
0-0
  6
JWW_DASHED1
 62
   120
370
     5
100
AcDbLine
 10
-166.2026312642132
 20
672.9359948654608
 30
0.0
 11
-86.20263126423055
 21
752.9359948654429
 31
0.0
  0
LINE
  5
232
330
1F
100
AcDbEntity
  8
0-0
  6
JWW_DASHED1
 62
   120
370
     5
100
AcDbLine
 10
-166.2026312642141
 20
682.8354898006221
 30
0.0
 11
-86.2026312642152
 21
762.835489800621
 31
0.0
  0
LINE
  5
233
330
1F
100
AcDbEntity
  8
0-0
  6
JWW_DASHED1
 62
   120
370
     5
100
AcDbLine
 10
-166.2026312642021
 20
692.7349847358495
 30
0.0
 11
-86.20263126422032
 21
772.7349847358322
 31
0.0
  0
LINE
  5
234
330
1F
100
AcDbEntity
  8
0-0
  6
JWW_DASHED1
 62
   120
370
     5
100
AcDbLine
 10
-166.2026312642107
 20
702.6344796710573
 30
0.0
 11
-86.20263126422884
 21
782.63447967104
 31
0.0
  0
LINE
  5
235
330
1F
100
AcDbEntity
  8
0-0
  6
JWW_DASHED1
 62
   120
370
     5
100
AcDbLine
 10
-166.2026312642107
 20
712.5339746062191
 30
0.0
 11
-86.20263126421179
 21
792.533974606218
 31
0.0
  0
LINE
  5
236
330
1F
100
AcDbEntity
  8
0-0
  6
JWW_DASHED1
 62
   120
370
     5
100
AcDbLine
 10
-166.2026312642158
 20
722.4334695414303
 30
0.0
 11
-86.20263126421861
 21
802.4334695414284
 31
0.0
  0
LINE
  5
237
330
1F
100
AcDbEntity
  8
0-0
  6
JWW_DASHED1
 62
   120
370
     5
100
AcDbLine
 10
-166.2026312642089
 20
732.332964476654
 30
0.0
 11
-86.20263126422628
 21
812.3329644766366
 31
0.0
  0
LINE
  5
238
330
1F
100
AcDbEntity
  8
0-0
  6
JWW_DASHED1
 62
   120
370
     5
100
AcDbLine
 10
-166.2026312642089
 20
742.2324594118162
 30
0.0
 11
-86.20263126421008
 21
822.2324594118151
 31
0.0
  0
LINE
  5
239
330
1F
100
AcDbEntity
  8
0-0
  6
JWW_DASHED1
 62
   120
370
     5
100
AcDbLine
 10
-166.2026312642141
 20
752.131954347027
 30
0.0
 11
-86.2026312642152
 21
832.1319543470254
 31
0.0
  0
LINE
  5
23A
330
1F
100
AcDbEntity
  8
0-0
  6
JWW_DASHED1
 62
   120
370
     5
100
AcDbLine
 10
-166.2026312642064
 20
762.0314492822511
 30
0.0
 11
-86.20263126422458
 21
842.0314492822329
 31
0.0
  0
LINE
  5
23B
330
1F
100
AcDbEntity
  8
0-0
  6
JWW_DASHED1
 62
   120
370
     5
100
AcDbLine
 10
-166.2026312642055
 20
771.9309442174132
 30
0.0
 11
-86.20263126420667
 21
851.930944217412
 31
0.0
  0
LINE
  5
23C
330
1F
100
AcDbEntity
  8
0-0
  6
JWW_DASHED1
 62
   120
370
     5
100
AcDbLine
 10
-166.2026312642141
 20
781.8304391526215
 30
0.0
 11
-86.2026312642152
 21
861.8304391526199
 31
0.0
  0
LINE
  5
23D
330
1F
100
AcDbEntity
  8
0-0
  6
JWW_DASHED1
 62
   120
370
     5
100
AcDbLine
 10
-166.2026312642047
 20
791.7299340878471
 30
0.0
 11
-86.20263126422202
 21
871.7299340878299
 31
0.0
  0
LINE
  5
23E
330
1F
100
AcDbEntity
  8
0-0
  6
JWW_DASHED1
 62
   120
370
     5
100
AcDbLine
 10
-166.2026312642038
 20
801.6294290230103
 30
0.0
 11
-86.20263126422032
 21
881.6294290229929
 31
0.0
  0
LINE
  5
23F
330
1F
100
AcDbEntity
  8
0-0
  6
JWW_DASHED1
 62
   120
370
     5
100
AcDbLine
 10
-166.2026312642124
 20
811.5289239582181
 30
0.0
 11
-86.2026312642135
 21
891.528923958217
 31
0.0
  0
LINE
  5
240
330
1F
100
AcDbEntity
  8
0-0
  6
JWW_DASHED1
 62
   120
370
     5
100
AcDbLine
 10
-166.2026312642021
 20
821.4284188934438
 30
0.0
 11
-86.20263126422032
 21
901.4284188934265
 31
0.0
  0
LINE
  5
241
330
1F
100
AcDbEntity
  8
0-0
  6
JWW_DASHED1
 62
   120
370
     5
100
AcDbLine
 10
-166.2026312642149
 20
831.3279138285932
 30
0.0
 11
-86.20263126423225
 21
911.3279138285759
 31
0.0
  0
LINE
  5
242
330
1F
100
AcDbEntity
  8
0-0
  6
JWW_DASHED1
 62
   120
370
     5
100
AcDbLine
 10
-166.2026312642089
 20
841.2274087638151
 30
0.0
 11
-86.20263126421008
 21
921.227408763814
 31
0.0
  0
LINE
  5
243
330
1F
100
AcDbEntity
  8
0-0
  6
JWW_DASHED1
 62
   120
370
     5
100
AcDbLine
 10
-166.2026312642038
 20
851.126903698982
 30
0.0
 11
-86.20263126422117
 21
931.1269036989652
 31
0.0
  0
LINE
  5
244
330
1F
100
AcDbEntity
  8
0-0
  6
JWW_DASHED1
 62
   120
370
     5
100
AcDbLine
 10
-166.2026312642124
 20
861.0263986341898
 30
0.0
 11
-86.20263126423055
 21
941.0263986341726
 31
0.0
  0
LINE
  5
245
330
1F
100
AcDbEntity
  8
0-0
  6
JWW_DASHED1
 62
   120
370
     5
100
AcDbLine
 10
-166.2026312642072
 20
870.9258935694122
 30
0.0
 11
-86.20263126420838
 21
950.9258935694111
 31
0.0
  0
LINE
  5
246
330
1F
100
AcDbEntity
  8
0-0
  6
JWW_DASHED1
 62
   120
370
     5
100
AcDbLine
 10
-166.2026312642021
 20
880.8253885045787
 30
0.0
 11
-86.20263126421946
 21
960.8253885045613
 31
0.0
  0
LINE
  5
247
330
1F
100
AcDbEntity
  8
0-0
  6
JWW_DASHED1
 62
   120
370
     5
100
AcDbLine
 10
-166.2026312642107
 20
890.7248834397869
 30
0.0
 11
-86.20263126422714
 21
970.7248834397695
 31
0.0
  0
LINE
  5
248
330
1F
100
AcDbEntity
  8
0-0
  6
JWW_DASHED1
 62
   120
370
     5
100
AcDbLine
 10
-166.2026312642038
 20
900.6243783750092
 30
0.0
 11
-86.20263126420497
 21
980.6243783750081
 31
0.0
  0
LINE
  5
249
330
1F
100
AcDbEntity
  8
0-0
  6
JWW_DASHED1
 62
   120
370
     5
100
AcDbLine
 10
-166.2026312642158
 20
910.5238733101595
 30
0.0
 11
-86.2026312642169
 21
990.5238733101579
 31
0.0
  0
LINE
  5
24A
330
1F
100
AcDbEntity
  8
0-0
  6
JWW_DASHED1
 62
   120
370
     5
100
AcDbLine
 10
-166.2026312642081
 20
920.4233682453835
 30
0.0
 11
-86.20263126422543
 21
1000.423368245366
 31
0.0
  0
LINE
  5
24B
330
1F
100
AcDbEntity
  8
0-0
  6
JWW_DASHED1
 62
   120
370
     5
100
AcDbLine
 10
-166.2026312642021
 20
930.3228631806063
 30
0.0
 11
-86.20263126421861
 21
1010.322863180589
 31
0.0
  0
LINE
  5
24C
330
1F
100
AcDbEntity
  8
0-0
  6
JWW_DASHED1
 62
   120
370
     5
100
AcDbLine
 10
-166.2026312642132
 20
940.2223581157566
 30
0.0
 11
-86.2026312642152
 21
1020.222358115755
 31
0.0
  0
LINE
  5
24D
330
1F
100
AcDbEntity
  8
0-0
  6
JWW_DASHED1
 62
   120
370
     5
100
AcDbLine
 10
-166.2026312642055
 20
950.1218530509801
 30
0.0
 11
-86.20263126422373
 21
1030.121853050963
 31
0.0
  0
LINE
  5
24E
330
1F
100
AcDbEntity
  8
0-0
  6
JWW_DASHED1
 62
   120
370
     5
100
AcDbLine
 10
-166.2026312642141
 20
960.021347986188
 30
0.0
 11
-86.2026312642314
 21
1040.021347986171
 31
0.0
  0
LINE
  5
24F
330
1F
100
AcDbEntity
  8
0-0
  6
JWW_DASHED1
 62
   120
370
     5
100
AcDbLine
 10
-166.2026312642124
 20
969.9208429213523
 30
0.0
 11
-86.2026312642135
 21
1049.920842921351
 31
0.0
  0
LINE
  5
250
330
1F
100
AcDbEntity
  8
0-0
  6
JWW_DASHED1
 62
   120
370
     5
100
AcDbLine
 10
-166.2026312642038
 20
979.8203378565768
 30
0.0
 11
-86.20263126422032
 21
1059.82033785656
 31
0.0
  0
LINE
  5
251
330
1F
100
AcDbEntity
  8
0-0
  6
JWW_DASHED1
 62
   120
370
     5
100
AcDbLine
 10
-166.2026312642124
 20
989.719832791785
 30
0.0
 11
-86.2026312642297
 21
1069.719832791767
 31
0.0
  0
LINE
  5
252
330
1F
100
AcDbEntity
  8
0-0
  6
JWW_DASHED1
 62
   120
370
     5
100
AcDbLine
 10
-166.2026312642098
 20
999.619327726949
 30
0.0
 11
-86.20263126421008
 21
1079.619327726948
 31
0.0
  0
LINE
  5
253
330
1F
100
AcDbEntity
  8
0-0
  6
JWW_DASHED1
 62
   120
370
     5
100
AcDbLine
 10
-166.2026312642175
 20
1009.518822662158
 30
0.0
 11
-86.20263126421861
 21
1089.518822662156
 31
0.0
  0
LINE
  5
254
330
1F
100
AcDbEntity
  8
0-0
  6
JWW_DASHED1
 62
   120
370
     5
100
AcDbLine
 10
-166.2026312642098
 20
1019.418317597382
 30
0.0
 11
-86.20263126422714
 21
1099.418317597364
 31
0.0
  0
LINE
  5
255
330
1F
100
AcDbEntity
  8
0-0
  6
JWW_DASHED1
 62
   120
370
     5
100
AcDbLine
 10
-166.2026312642072
 20
1029.317812532546
 30
0.0
 11
-86.20263126420838
 21
1109.317812532545
 31
0.0
  0
LINE
  5
256
330
1F
100
AcDbEntity
  8
0-0
  6
JWW_DASHED1
 62
   120
370
     5
100
AcDbLine
 10
-166.2026312642149
 20
1039.217307467754
 30
0.0
 11
-87.14006424457608
 21
1118.279874487393
 31
0.0
  0
LINE
  5
257
330
1F
100
AcDbEntity
  8
0-0
  6
JWW_DASHED1
 62
   120
370
     5
100
AcDbLine
 10
-166.2026312642124
 20
1049.116802402919
 30
0.0
 11
-97.03955917972763
 21
1118.279874487403
 31
0.0
  0
LINE
  5
258
330
1F
100
AcDbEntity
  8
0-0
  6
JWW_DASHED1
 62
   120
370
     5
100
AcDbLine
 10
-166.2026312642047
 20
1059.016297338143
 30
0.0
 11
-106.9390541149653
 21
1118.279874487382
 31
0.0
  0
LINE
  5
259
330
1F
100
AcDbEntity
  8
0-0
  6
JWW_DASHED1
 62
   120
370
     5
100
AcDbLine
 10
-166.2026312642124
 20
1068.915792273351
 30
0.0
 11
-116.838549050174
 21
1118.27987448739
 31
0.0
  0
LINE
  5
25A
330
1F
100
AcDbEntity
  8
0-0
  6
JWW_DASHED1
 62
   120
370
     5
100
AcDbLine
 10
-166.2026312642089
 20
1078.815287208516
 30
0.0
 11
-126.7380439853306
 21
1118.279874487395
 31
0.0
  0
LINE
  5
25B
330
1F
100
AcDbEntity
  8
0-0
  6
JWW_DASHED1
 62
   120
370
     5
100
AcDbLine
 10
-166.2026312642021
 20
1088.71478214374
 30
0.0
 11
-136.6375389205564
 21
1118.279874487386
 31
0.0
  0
LINE
  5
25C
330
1F
100
AcDbEntity
  8
0-0
  6
JWW_DASHED1
 62
   120
370
     5
100
AcDbLine
 10
-166.2026312642107
 20
1098.614277078948
 30
0.0
 11
-146.5370338557702
 21
1118.279874487388
 31
0.0
  0
LINE
  5
25D
330
1F
100
AcDbEntity
  8
0-0
  6
JWW_DASHED1
 62
   120
370
     5
100
AcDbLine
 10
-166.2026312642072
 20
1108.513772014113
 30
0.0
 11
-156.4365287909337
 21
1118.279874487387
 31
0.0
  0
LINE
  5
25E
330
1F
100
AcDbEntity
  8
0-0
  6
JWW_DASHED1
 62
   120
370
     5
100
AcDbLine
 10
203.9498316284411
 20
-1048.720125512609
 30
0.0
 11
213.7973687357848
 21
-1038.872588405265
 31
0.0
  0
LINE
  5
25F
330
1F
100
AcDbEntity
  8
0-0
  6
JWW_DASHED1
 62
   120
370
     5
100
AcDbLine
 10
194.0503366932776
 20
-1048.72012551261
 30
0.0
 11
213.7973687357874
 21
-1028.973093470101
 31
0.0
  0
LINE
  5
260
330
1F
100
AcDbEntity
  8
0-0
  6
JWW_DASHED1
 62
   120
370
     5
100
AcDbLine
 10
184.1508417580545
 20
-1048.720125512617
 30
0.0
 11
213.797368735795
 21
-1019.073598534877
 31
0.0
  0
LINE
  5
261
330
1F
100
AcDbEntity
  8
0-0
  6
JWW_DASHED1
 62
   120
370
     5
100
AcDbLine
 10
174.2513468228381
 20
-1048.720125512617
 30
0.0
 11
213.7973687357865
 21
-1009.174103599668
 31
0.0
  0
LINE
  5
262
330
1F
100
AcDbEntity
  8
0-0
  6
JWW_DASHED1
 62
   120
370
     5
100
AcDbLine
 10
164.3518518876814
 20
-1048.720125512612
 30
0.0
 11
213.7973687357899
 21
-999.2746086645036
 31
0.0
  0
LINE
  5
263
330
1F
100
AcDbEntity
  8
0-0
  6
JWW_DASHED1
 62
   120
370
     5
100
AcDbLine
 10
154.4523569524728
 20
-1048.720125512604
 30
0.0
 11
213.7973687357814
 21
-989.3751137292958
 31
0.0
  0
LINE
  5
264
330
1F
100
AcDbEntity
  8
0-0
  6
JWW_DASHED1
 62
   120
370
     5
100
AcDbLine
 10
144.5528620172351
 20
-1048.720125512626
 30
0.0
 11
213.7973687357882
 21
-979.4756187940718
 31
0.0
  0
LINE
  5
265
330
1F
100
AcDbEntity
  8
0-0
  6
JWW_DASHED1
 62
   120
370
     5
100
AcDbLine
 10
134.6533670820835
 20
-1048.720125512615
 30
0.0
 11
213.7973687357763
 21
-969.5761238589223
 31
0.0
  0
LINE
  5
266
330
1F
100
AcDbEntity
  8
0-0
  6
JWW_DASHED1
 62
   120
370
     5
100
AcDbLine
 10
133.7973687357859
 20
-1039.676628923697
 30
0.0
 11
213.7973687357839
 21
-959.6766289236987
 31
0.0
  0
LINE
  5
267
330
1F
100
AcDbEntity
  8
0-0
  6
JWW_DASHED1
 62
   120
370
     5
100
AcDbLine
 10
133.7973687358081
 20
-1029.777133988457
 30
0.0
 11
213.7973687357908
 21
-949.7771339884755
 31
0.0
  0
LINE
  5
268
330
1F
100
AcDbEntity
  8
0-0
  6
JWW_DASHED1
 62
   120
370
     5
100
AcDbLine
 10
133.7973687357962
 20
-1019.877639053308
 30
0.0
 11
213.797368735778
 21
-939.8776390533261
 31
0.0
  0
LINE
  5
269
330
1F
100
AcDbEntity
  8
0-0
  6
JWW_DASHED1
 62
   120
370
     5
100
AcDbLine
 10
133.7973687357876
 20
-1009.978144118101
 30
0.0
 11
213.7973687357865
 21
-929.9781441181017
 31
0.0
  0
LINE
  5
26A
330
1F
100
AcDbEntity
  8
0-0
  6
JWW_DASHED1
 62
   120
370
     5
100
AcDbLine
 10
133.7973687357945
 20
-1000.078649182877
 30
0.0
 11
213.7973687357933
 21
-920.0786491828785
 31
0.0
  0
LINE
  5
26B
330
1F
100
AcDbEntity
  8
0-0
  6
JWW_DASHED1
 62
   120
370
     5
100
AcDbLine
 10
133.7973687357979
 20
-990.1791542477122
 30
0.0
 11
213.7973687357805
 21
-910.1791542477291
 31
0.0
  0
LINE
  5
26C
330
1F
100
AcDbEntity
  8
0-0
  6
JWW_DASHED1
 62
   120
370
     5
100
AcDbLine
 10
133.7973687357893
 20
-980.2796593125036
 30
0.0
 11
213.7973687357891
 21
-900.2796593125047
 31
0.0
  0
LINE
  5
26D
330
1F
100
AcDbEntity
  8
0-0
  6
JWW_DASHED1
 62
   120
370
     5
100
AcDbLine
 10
133.797368735797
 20
-970.3801643772804
 30
0.0
 11
213.797368735795
 21
-890.3801643772819
 31
0.0
  0
LINE
  5
26E
330
1F
100
AcDbEntity
  8
0-0
  6
JWW_DASHED1
 62
   120
370
     5
100
AcDbLine
 10
133.7973687357996
 20
-960.4806694421155
 30
0.0
 11
213.7973687357831
 21
-880.4806694421329
 31
0.0
  0
LINE
  5
26F
330
1F
100
AcDbEntity
  8
0-0
  6
JWW_DASHED1
 62
   120
370
     5
100
AcDbLine
 10
133.7973687357928
 20
-950.5811745069065
 30
0.0
 11
213.7973687357763
 21
-870.5811745069234
 31
0.0
  0
LINE
  5
270
330
1F
100
AcDbEntity
  8
0-0
  6
JWW_DASHED1
 62
   120
370
     5
100
AcDbLine
 10
133.7973687357825
 20
-940.6816795717281
 30
0.0
 11
213.7973687357814
 21
-860.6816795717288
 31
0.0
  0
LINE
  5
271
330
1F
100
AcDbEntity
  8
0-0
  6
JWW_DASHED1
 62
   120
370
     5
100
AcDbLine
 10
133.797368735803
 20
-930.7821846365185
 30
0.0
 11
213.7973687357848
 21
-850.7821846365358
 31
0.0
  0
LINE
  5
272
330
1F
100
AcDbEntity
  8
0-0
  6
JWW_DASHED1
 62
   120
370
     5
100
AcDbLine
 10
133.7973687357936
 20
-920.8826897013107
 30
0.0
 11
213.7973687357763
 21
-840.882689701328
 31
0.0
  0
LINE
  5
273
330
1F
100
AcDbEntity
  8
0-0
  6
JWW_DASHED1
 62
   120
370
     5
100
AcDbLine
 10
133.7973687357825
 20
-910.9831947661604
 30
0.0
 11
213.7973687357814
 21
-830.9831947661615
 31
0.0
  0
LINE
  5
274
330
1F
100
AcDbEntity
  8
0-0
  6
JWW_DASHED1
 62
   120
370
     5
100
AcDbLine
 10
133.7973687358047
 20
-901.0836998309219
 30
0.0
 11
213.7973687357874
 21
-821.0836998309392
 31
0.0
  0
LINE
  5
275
330
1F
100
AcDbEntity
  8
0-0
  6
JWW_DASHED1
 62
   120
370
     5
100
AcDbLine
 10
133.7973687357962
 20
-891.1842048957136
 30
0.0
 11
213.797368735778
 21
-811.1842048957315
 31
0.0
  0
LINE
  5
276
330
1F
100
AcDbEntity
  8
0-0
  6
JWW_DASHED1
 62
   120
370
     5
100
AcDbLine
 10
133.7973687357851
 20
-881.2847099605633
 30
0.0
 11
213.7973687357839
 21
-801.2847099605644
 31
0.0
  0
LINE
  5
277
330
1F
100
AcDbEntity
  8
0-0
  6
JWW_DASHED1
 62
   120
370
     5
100
AcDbLine
 10
133.7973687358064
 20
-871.3852150253249
 30
0.0
 11
213.7973687357899
 21
-791.3852150253422
 31
0.0
  0
LINE
  5
278
330
1F
100
AcDbEntity
  8
0-0
  6
JWW_DASHED1
 62
   120
370
     5
100
AcDbLine
 10
133.7973687357996
 20
-861.4857200901166
 30
0.0
 11
213.7973687357814
 21
-781.4857200901344
 31
0.0
  0
LINE
  5
279
330
1F
100
AcDbEntity
  8
0-0
  6
JWW_DASHED1
 62
   120
370
     5
100
AcDbLine
 10
133.7973687357876
 20
-851.5862251549663
 30
0.0
 11
213.7973687357865
 21
-771.5862251549675
 31
0.0
  0
LINE
  5
27A
330
1F
100
AcDbEntity
  8
0-0
  6
JWW_DASHED1
 62
   120
370
     5
100
AcDbLine
 10
133.7973687357928
 20
-841.686730219744
 30
0.0
 11
213.7973687357916
 21
-761.6867302197455
 31
0.0
  0
LINE
  5
27B
330
1F
100
AcDbEntity
  8
0-0
  6
JWW_DASHED1
 62
   120
370
     5
100
AcDbLine
 10
133.7973687358004
 20
-831.7872352845209
 30
0.0
 11
213.7973687357831
 21
-751.7872352845382
 31
0.0
  0
LINE
  5
27C
330
1F
100
AcDbEntity
  8
0-0
  6
JWW_DASHED1
 62
   120
370
     5
100
AcDbLine
 10
133.7973687357902
 20
-821.8877403493693
 30
0.0
 11
213.7973687357882
 21
-741.8877403493708
 31
0.0
  0
LINE
  5
27D
330
1F
100
AcDbEntity
  8
0-0
  6
JWW_DASHED1
 62
   120
370
     5
100
AcDbLine
 10
133.7973687357962
 20
-811.988245414147
 30
0.0
 11
213.7973687357933
 21
-731.9882454141493
 31
0.0
  0
LINE
  5
27E
330
1F
100
AcDbEntity
  8
0-0
  6
JWW_DASHED1
 62
   120
370
     5
100
AcDbLine
 10
133.797368735803
 20
-802.0887504789238
 30
0.0
 11
213.7973687357857
 21
-722.0887504789412
 31
0.0
  0
LINE
  5
27F
330
1F
100
AcDbEntity
  8
0-0
  6
JWW_DASHED1
 62
   120
370
     5
100
AcDbLine
 10
133.7973687357919
 20
-792.1892555437727
 30
0.0
 11
213.7973687357916
 21
-712.1892555437738
 31
0.0
  0
LINE
  5
280
330
1F
100
AcDbEntity
  8
0-0
  6
JWW_DASHED1
 62
   120
370
     5
100
AcDbLine
 10
133.7973687357842
 20
-782.2897606085644
 30
0.0
 11
213.7973687357831
 21
-702.2897606085655
 31
0.0
  0
LINE
  5
281
330
1F
100
AcDbEntity
  8
0-0
  6
JWW_DASHED1
 62
   120
370
     5
100
AcDbLine
 10
133.7973687358055
 20
-772.3902656733267
 30
0.0
 11
213.7973687357882
 21
-692.3902656733445
 31
0.0
  0
LINE
  5
282
330
1F
100
AcDbEntity
  8
0-0
  6
JWW_DASHED1
 62
   120
370
     5
100
AcDbLine
 10
133.7973687357945
 20
-762.4907707381756
 30
0.0
 11
213.797368735778
 21
-682.4907707381925
 31
0.0
  0
LINE
  5
283
330
1F
100
AcDbEntity
  8
0-0
  6
JWW_DASHED1
 62
   120
370
     5
100
AcDbLine
 10
133.7973687357859
 20
-752.5912758029674
 30
0.0
 11
213.7973687357857
 21
-672.5912758029685
 31
0.0
  0
LINE
  5
284
330
1F
100
AcDbEntity
  8
0-0
  6
JWW_DASHED1
 62
   120
370
     5
100
AcDbLine
 10
133.7973687358073
 20
-742.6917808677301
 30
0.0
 11
213.7973687357899
 21
-662.6917808677474
 31
0.0
  0
LINE
  5
285
330
1F
100
AcDbEntity
  8
0-0
  6
JWW_DASHED1
 62
   120
370
     5
100
AcDbLine
 10
133.7973687357945
 20
-732.7922859325811
 30
0.0
 11
213.797368735778
 21
-652.7922859325985
 31
0.0
  0
LINE
  5
286
330
1F
100
AcDbEntity
  8
0-0
  6
JWW_DASHED1
 62
   120
370
     5
100
AcDbLine
 10
133.7973687357885
 20
-722.8927909973711
 30
0.0
 11
213.7973687357882
 21
-642.8927909973714
 31
0.0
  0
LINE
  5
287
330
1F
100
AcDbEntity
  8
0-0
  6
JWW_DASHED1
 62
   120
370
     5
100
AcDbLine
 10
133.7973687357936
 20
-712.9932960621493
 30
0.0
 11
213.7973687357916
 21
-632.9932960621509
 31
0.0
  0
LINE
  5
288
330
1F
100
AcDbEntity
  8
0-0
  6
JWW_DASHED1
 62
   120
370
     5
100
AcDbLine
 10
133.7973687357962
 20
-703.0938011269845
 30
0.0
 11
213.7973687357797
 21
-623.0938011270018
 31
0.0
  0
LINE
  5
289
330
1F
100
AcDbEntity
  8
0-0
  6
JWW_DASHED1
 62
   120
370
     5
100
AcDbLine
 10
133.7973687357911
 20
-693.1943061917732
 30
0.0
 11
213.7973687357899
 21
-613.1943061917748
 31
0.0
  0
LINE
  5
28A
330
1F
100
AcDbEntity
  8
0-0
  6
JWW_DASHED1
 62
   120
370
     5
100
AcDbLine
 10
133.7973687357825
 20
-683.2948112565655
 30
0.0
 11
213.7973687357822
 21
-603.2948112565666
 31
0.0
  0
LINE
  5
28B
330
1F
100
AcDbEntity
  8
0-0
  6
JWW_DASHED1
 62
   120
370
     5
100
AcDbLine
 10
133.7973687357996
 20
-673.3953163213874
 30
0.0
 11
213.7973687357814
 21
-593.3953163214056
 31
0.0
  0
LINE
  5
28C
330
1F
100
AcDbEntity
  8
0-0
  6
JWW_DASHED1
 62
   120
370
     5
100
AcDbLine
 10
133.7973687357936
 20
-663.4958213861771
 30
0.0
 11
213.7973687357763
 21
-583.4958213861939
 31
0.0
  0
LINE
  5
28D
330
1F
100
AcDbEntity
  8
0-0
  6
JWW_DASHED1
 62
   120
370
     5
100
AcDbLine
 10
133.7973687357859
 20
-653.5963264509684
 30
0.0
 11
213.7973687357848
 21
-573.5963264509695
 31
0.0
  0
LINE
  5
28E
330
1F
100
AcDbEntity
  8
0-0
  6
JWW_DASHED1
 62
   120
370
     5
100
AcDbLine
 10
133.7973687358013
 20
-643.6968315157903
 30
0.0
 11
213.7973687357839
 21
-563.6968315158085
 31
0.0
  0
LINE
  5
28F
330
1F
100
AcDbEntity
  8
0-0
  6
JWW_DASHED1
 62
   120
370
     5
100
AcDbLine
 10
133.7973687357928
 20
-633.797336580583
 30
0.0
 11
213.7973687357754
 21
-553.7973365806008
 31
0.0
  0
LINE
  5
290
330
1F
100
AcDbEntity
  8
0-0
  6
JWW_DASHED1
 62
   120
370
     5
100
AcDbLine
 10
133.7973687357842
 20
-623.8978416454302
 30
0.0
 11
213.7973687357814
 21
-543.8978416454322
 31
0.0
  0
LINE
  5
291
330
1F
100
AcDbEntity
  8
0-0
  6
JWW_DASHED1
 62
   120
370
     5
100
AcDbLine
 10
133.7973687358038
 20
-613.9983467101943
 30
0.0
 11
213.7973687357865
 21
-533.9983467102115
 31
0.0
  0
LINE
  5
292
330
1F
100
AcDbEntity
  8
0-0
  6
JWW_DASHED1
 62
   120
370
     5
100
AcDbLine
 10
133.7973687357953
 20
-604.0988517749863
 30
0.0
 11
213.797368735778
 21
-524.0988517750037
 31
0.0
  0
LINE
  5
293
330
1F
100
AcDbEntity
  8
0-0
  6
JWW_DASHED1
 62
   120
370
     5
100
AcDbLine
 10
133.7973687357859
 20
-594.1993568398344
 30
0.0
 11
213.7973687357848
 21
-514.1993568398346
 31
0.0
  0
LINE
  5
294
330
1F
100
AcDbEntity
  8
0-0
  6
JWW_DASHED1
 62
   120
370
     5
100
AcDbLine
 10
133.7973687358064
 20
-584.2998619045976
 30
0.0
 11
213.7973687357882
 21
-504.2998619046149
 31
0.0
  0
LINE
  5
295
330
1F
100
AcDbEntity
  8
0-0
  6
JWW_DASHED1
 62
   120
370
     5
100
AcDbLine
 10
133.7973687357979
 20
-574.4003669693893
 30
0.0
 11
213.7973687357805
 21
-494.4003669694067
 31
0.0
  0
LINE
  5
296
330
1F
100
AcDbEntity
  8
0-0
  6
JWW_DASHED1
 62
   120
370
     5
100
AcDbLine
 10
133.7973687357876
 20
-564.5008720342373
 30
0.0
 11
213.7973687357882
 21
-484.5008720342377
 31
0.0
  0
LINE
  5
297
330
1F
100
AcDbEntity
  8
0-0
  6
JWW_DASHED1
 62
   120
370
     5
100
AcDbLine
 10
133.7973687357928
 20
-554.6013770990163
 30
0.0
 11
213.7973687357899
 21
-474.6013770990183
 31
0.0
  0
LINE
  5
298
330
1F
100
AcDbEntity
  8
0-0
  6
JWW_DASHED1
 62
   120
370
     5
100
AcDbLine
 10
133.7973687357996
 20
-544.7018821637927
 30
0.0
 11
213.7973687357831
 21
-464.7018821638101
 31
0.0
  0
LINE
  5
299
330
1F
100
AcDbEntity
  8
0-0
  6
JWW_DASHED1
 62
   120
370
     5
100
AcDbLine
 10
133.7973687357911
 20
-534.8023872286403
 30
0.0
 11
213.7973687357899
 21
-454.802387228641
 31
0.0
  0
LINE
  5
29A
330
1F
100
AcDbEntity
  8
0-0
  6
JWW_DASHED1
 62
   120
370
     5
100
AcDbLine
 10
133.7973687357945
 20
-524.9028922934197
 30
0.0
 11
213.7973687357933
 21
-444.9028922934212
 31
0.0
  0
LINE
  5
29B
330
1F
100
AcDbEntity
  8
0-0
  6
JWW_DASHED1
 62
   120
370
     5
100
AcDbLine
 10
133.7973687358021
 20
-515.0033973581957
 30
0.0
 11
213.7973687357848
 21
-435.0033973582139
 31
0.0
  0
LINE
  5
29C
330
1F
100
AcDbEntity
  8
0-0
  6
JWW_DASHED1
 62
   120
370
     5
100
AcDbLine
 10
133.7973687357928
 20
-505.1039024230432
 30
0.0
 11
213.7973687357916
 21
-425.103902423044
 31
0.0
  0
LINE
  5
29D
330
1F
100
AcDbEntity
  8
0-0
  6
JWW_DASHED1
 62
   120
370
     5
100
AcDbLine
 10
133.7973687357851
 20
-495.204407487835
 30
0.0
 11
213.7973687357848
 21
-415.2044074878357
 31
0.0
  0
LINE
  5
29E
330
1F
100
AcDbEntity
  8
0-0
  6
JWW_DASHED1
 62
   120
370
     5
100
AcDbLine
 10
133.7973687358047
 20
-485.3049125525986
 30
0.0
 11
213.7973687357865
 21
-405.3049125526168
 31
0.0
  0
LINE
  5
29F
330
1F
100
AcDbEntity
  8
0-0
  6
JWW_DASHED1
 62
   120
370
     5
100
AcDbLine
 10
133.7973687357911
 20
-475.4054176174504
 30
0.0
 11
213.7973687357746
 21
-395.4054176174674
 31
0.0
  0
LINE
  5
2A0
330
1F
100
AcDbEntity
  8
0-0
  6
JWW_DASHED1
 62
   120
370
     5
100
AcDbLine
 10
133.7973687357876
 20
-465.5059226822375
 30
0.0
 11
213.7973687357865
 21
-385.5059226822395
 31
0.0
  0
LINE
  5
2A1
330
1F
100
AcDbEntity
  8
0-0
  6
JWW_DASHED1
 62
   120
370
     5
100
AcDbLine
 10
133.7973687357911
 20
-455.6064277470186
 30
0.0
 11
213.7973687357899
 21
-375.6064277470193
 31
0.0
  0
LINE
  5
2A2
330
1F
100
AcDbEntity
  8
0-0
  6
JWW_DASHED1
 62
   120
370
     5
100
AcDbLine
 10
133.7973687357936
 20
-445.7069328118538
 30
0.0
 11
213.7973687357763
 21
-365.7069328118703
 31
0.0
  0
LINE
  5
2A3
330
1F
100
AcDbEntity
  8
0-0
  6
JWW_DASHED1
 62
   120
370
     5
100
AcDbLine
 10
133.7973687357893
 20
-435.8074378766413
 30
0.0
 11
213.7973687357882
 21
-355.807437876642
 31
0.0
  0
LINE
  5
2A4
330
1F
100
AcDbEntity
  8
0-0
  6
JWW_DASHED1
 62
   120
370
     5
100
AcDbLine
 10
133.7973687357928
 20
-425.9079429414215
 30
0.0
 11
213.7973687357908
 21
-345.9079429414236
 31
0.0
  0
LINE
  5
2A5
330
1F
100
AcDbEntity
  8
0-0
  6
JWW_DASHED1
 62
   120
370
     5
100
AcDbLine
 10
133.7973687357962
 20
-416.0084480062568
 30
0.0
 11
213.7973687357788
 21
-336.0084480062741
 31
0.0
  0
LINE
  5
2A6
330
1F
100
AcDbEntity
  8
0-0
  6
JWW_DASHED1
 62
   120
370
     5
100
AcDbLine
 10
133.7973687357928
 20
-406.1089530710443
 30
0.0
 11
213.7973687357916
 21
-326.108953071045
 31
0.0
  0
LINE
  5
2A7
330
1F
100
AcDbEntity
  8
0-0
  6
JWW_DASHED1
 62
   120
370
     5
100
AcDbLine
 10
133.7973687357842
 20
-396.209458135836
 30
0.0
 11
213.7973687357831
 21
-316.2094581358367
 31
0.0
  0
LINE
  5
2A8
330
1F
100
AcDbEntity
  8
0-0
  6
JWW_DASHED1
 62
   120
370
     5
100
AcDbLine
 10
133.7973687357987
 20
-386.3099632006598
 30
0.0
 11
213.7973687357814
 21
-306.3099632006775
 31
0.0
  0
LINE
  5
2A9
330
1F
100
AcDbEntity
  8
0-0
  6
JWW_DASHED1
 62
   120
370
     5
100
AcDbLine
 10
133.7973687357945
 20
-376.4104682654472
 30
0.0
 11
213.797368735778
 21
-296.4104682654637
 31
0.0
  0
LINE
  5
2AA
330
1F
100
AcDbEntity
  8
0-0
  6
JWW_DASHED1
 62
   120
370
     5
100
AcDbLine
 10
133.7973687357842
 20
-366.5109733302684
 30
0.0
 11
213.7973687357831
 21
-286.5109733302695
 31
0.0
  0
LINE
  5
2AB
330
1F
100
AcDbEntity
  8
0-0
  6
JWW_DASHED1
 62
   120
370
     5
100
AcDbLine
 10
133.7973687358013
 20
-356.6114783950632
 30
0.0
 11
213.7973687357831
 21
-276.6114783950804
 31
0.0
  0
LINE
  5
2AC
330
1F
100
AcDbEntity
  8
0-0
  6
JWW_DASHED1
 62
   120
370
     5
100
AcDbLine
 10
133.7973687357928
 20
-346.7119834598549
 30
0.0
 11
213.7973687357746
 21
-266.7119834598726
 31
0.0
  0
LINE
  5
2AD
330
1F
100
AcDbEntity
  8
0-0
  6
JWW_DASHED1
 62
   120
370
     5
100
AcDbLine
 10
133.7973687357842
 20
-336.8124885247012
 30
0.0
 11
213.7973687357839
 21
-256.8124885247019
 31
0.0
  0
LINE
  5
2AE
330
1F
100
AcDbEntity
  8
0-0
  6
JWW_DASHED1
 62
   120
370
     5
100
AcDbLine
 10
133.797368735803
 20
-326.912993589467
 30
0.0
 11
213.7973687357865
 21
-246.9129935894834
 31
0.0
  0
LINE
  5
2AF
330
1F
100
AcDbEntity
  8
0-0
  6
JWW_DASHED1
 62
   120
370
     5
100
AcDbLine
 10
133.7973687357945
 20
-317.0134986542591
 30
0.0
 11
213.797368735778
 21
-237.0134986542756
 31
0.0
  0
LINE
  5
2B0
330
1F
100
AcDbEntity
  8
0-0
  6
JWW_DASHED1
 62
   120
370
     5
100
AcDbLine
 10
133.7973687357876
 20
-307.1140037191042
 30
0.0
 11
213.7973687357865
 21
-227.1140037191049
 31
0.0
  0
LINE
  5
2B1
330
1F
100
AcDbEntity
  8
0-0
  6
JWW_DASHED1
 62
   120
370
     5
100
AcDbLine
 10
133.7973687358047
 20
-297.2145087838699
 30
0.0
 11
213.7973687357874
 21
-217.2145087838877
 31
0.0
  0
LINE
  5
2B2
330
1F
100
AcDbEntity
  8
0-0
  6
JWW_DASHED1
 62
   120
370
     5
100
AcDbLine
 10
133.7973687357962
 20
-287.315013848662
 30
0.0
 11
213.7973687357797
 21
-207.3150138486785
 31
0.0
  0
LINE
  5
2B3
330
1F
100
AcDbEntity
  8
0-0
  6
JWW_DASHED1
 62
   120
370
     5
100
AcDbLine
 10
133.7973687357893
 20
-277.4155189135071
 30
0.0
 11
213.7973687357891
 21
-197.4155189135078
 31
0.0
  0
LINE
  5
2B4
330
1F
100
AcDbEntity
  8
0-0
  6
JWW_DASHED1
 62
   120
370
     5
100
AcDbLine
 10
133.7973687357911
 20
-267.516023978289
 30
0.0
 11
213.7973687357899
 21
-187.5160239782906
 31
0.0
  0
LINE
  5
2B5
330
1F
100
AcDbEntity
  8
0-0
  6
JWW_DASHED1
 62
   120
370
     5
100
AcDbLine
 10
133.7973687357996
 20
-257.616529043065
 30
0.0
 11
213.7973687357814
 21
-177.6165290430828
 31
0.0
  0
LINE
  5
2B6
330
1F
100
AcDbEntity
  8
0-0
  6
JWW_DASHED1
 62
   120
370
     5
100
AcDbLine
 10
133.7973687357928
 20
-247.7170341079096
 30
0.0
 11
213.7973687357916
 21
-167.7170341079108
 31
0.0
  0
LINE
  5
2B7
330
1F
100
AcDbEntity
  8
0-0
  6
JWW_DASHED1
 62
   120
370
     5
100
AcDbLine
 10
133.7973687357936
 20
-237.8175391726924
 30
0.0
 11
213.7973687357925
 21
-157.8175391726936
 31
0.0
  0
LINE
  5
2B8
330
1F
100
AcDbEntity
  8
0-0
  6
JWW_DASHED1
 62
   120
370
     5
100
AcDbLine
 10
133.7973687358013
 20
-227.9180442374684
 30
0.0
 11
213.7973687357839
 21
-147.9180442374857
 31
0.0
  0
LINE
  5
2B9
330
1F
100
AcDbEntity
  8
0-0
  6
JWW_DASHED1
 62
   120
370
     5
100
AcDbLine
 10
133.7973687357945
 20
-218.0185493023134
 30
0.0
 11
213.797368735778
 21
-138.0185493023299
 31
0.0
  0
LINE
  5
2BA
330
1F
100
AcDbEntity
  8
0-0
  6
JWW_DASHED1
 62
   120
370
     5
100
AcDbLine
 10
133.7973687357859
 20
-208.1190543671052
 30
0.0
 11
213.7973687357848
 21
-128.1190543671059
 31
0.0
  0
LINE
  5
2BB
330
1F
100
AcDbEntity
  8
0-0
  6
JWW_DASHED1
 62
   120
370
     5
100
AcDbLine
 10
133.7973687358038
 20
-198.2195594318713
 30
0.0
 11
213.7973687357865
 21
-118.2195594318887
 31
0.0
  0
LINE
  5
2BC
330
1F
100
AcDbEntity
  8
0-0
  6
JWW_DASHED1
 62
   120
370
     5
100
AcDbLine
 10
133.7973687357902
 20
-188.3200644967228
 30
0.0
 11
213.7973687357737
 21
-108.3200644967397
 31
0.0
  0
LINE
  5
2BD
330
1F
100
AcDbEntity
  8
0-0
  6
JWW_DASHED1
 62
   120
370
     5
100
AcDbLine
 10
133.7973687357893
 20
-178.4205695615081
 30
0.0
 11
213.7973687357882
 21
-98.42056956150884
 31
0.0
  0
LINE
  5
2BE
330
1F
100
AcDbEntity
  8
0-0
  6
JWW_DASHED1
 62
   120
370
     5
100
AcDbLine
 10
133.7973687357893
 20
-168.5210746262905
 30
0.0
 11
213.7973687357891
 21
-88.52107462629164
 31
0.0
  0
LINE
  5
2BF
330
1F
100
AcDbEntity
  8
0-0
  6
JWW_DASHED1
 62
   120
370
     5
100
AcDbLine
 10
133.7973687357928
 20
-158.6215796911257
 30
0.0
 11
213.7973687357763
 21
-78.62157969114307
 31
0.0
  0
LINE
  5
2C0
330
1F
100
AcDbEntity
  8
0-0
  6
JWW_DASHED1
 62
   120
370
     5
100
AcDbLine
 10
133.7973687357911
 20
-148.7220847559111
 30
0.0
 11
213.7973687357908
 21
-68.7220847559118
 31
0.0
  0
LINE
  5
2C1
330
1F
100
AcDbEntity
  8
0-0
  6
JWW_DASHED1
 62
   120
370
     5
100
AcDbLine
 10
133.797368735803
 20
-138.8225898207369
 30
0.0
 11
213.7973687357865
 21
-58.82258982075427
 31
0.0
  0
LINE
  5
2C2
330
1F
100
AcDbEntity
  8
0-0
  6
JWW_DASHED1
 62
   120
370
     5
100
AcDbLine
 10
133.7973687357953
 20
-128.9230948855287
 30
0.0
 11
213.797368735778
 21
-48.92309488554687
 31
0.0
  0
LINE
  5
2C3
330
1F
100
AcDbEntity
  8
0-0
  6
JWW_DASHED1
 62
   120
370
     5
100
AcDbLine
 10
133.7973687357945
 20
-119.023599950314
 30
0.0
 11
213.7973687357933
 21
-39.02359995031475
 31
0.0
  0
LINE
  5
2C4
330
1F
100
AcDbEntity
  8
0-0
  6
JWW_DASHED1
 62
   120
370
     5
100
AcDbLine
 10
133.7973687357893
 20
-109.1241050151565
 30
0.0
 11
213.7973687357891
 21
-29.12410501515723
 31
0.0
  0
LINE
  5
2C5
330
1F
100
AcDbEntity
  8
0-0
  6
JWW_DASHED1
 62
   120
370
     5
100
AcDbLine
 10
133.7973687357979
 20
-99.22461007993249
 30
0.0
 11
213.7973687357797
 21
-19.2246100799494
 31
0.0
  0
LINE
  5
2C6
330
1F
100
AcDbEntity
  8
0-0
  6
JWW_DASHED1
 62
   120
370
     5
100
AcDbLine
 10
133.7973687357962
 20
-89.32511514471699
 30
0.0
 11
213.7973687357797
 21
-9.3251151447339
 31
0.0
  0
LINE
  5
2C7
330
1F
100
AcDbEntity
  8
0-0
  6
JWW_DASHED1
 62
   120
370
     5
100
AcDbLine
 10
133.7973687357928
 20
-79.42562020955947
 30
0.0
 11
213.7973687357908
 21
0.574379790438968
 31
0.0
  0
LINE
  5
2C8
330
1F
100
AcDbEntity
  8
0-0
  6
JWW_DASHED1
 62
   120
370
     5
100
AcDbLine
 10
133.7973687357996
 20
-69.52612527433587
 30
0.0
 11
213.7973687357831
 21
10.47387472564765
 31
0.0
  0
LINE
  5
2C9
330
1F
100
AcDbEntity
  8
0-0
  6
JWW_DASHED1
 62
   120
370
     5
100
AcDbLine
 10
133.7973687357911
 20
-59.62663033912762
 30
0.0
 11
213.7973687357746
 21
20.37336966085505
 31
0.0
  0
LINE
  5
2CA
330
1F
100
AcDbEntity
  8
0-0
  6
JWW_DASHED1
 62
   120
370
     5
100
AcDbLine
 10
133.7973687357859
 20
-49.72713540397052
 30
0.0
 11
213.7973687357848
 21
30.27286459602792
 31
0.0
  0
LINE
  5
2CB
330
1F
100
AcDbEntity
  8
0-0
  6
JWW_DASHED1
 62
   120
370
     5
100
AcDbLine
 10
133.7973687358021
 20
-39.82764046873882
 30
0.0
 11
213.7973687357848
 21
40.17235953124384
 31
0.0
  0
LINE
  5
2CC
330
1F
100
AcDbEntity
  8
0-0
  6
JWW_DASHED1
 62
   120
370
     5
100
AcDbLine
 10
133.7973687357936
 20
-29.92814553353099
 30
0.0
 11
213.7973687357763
 21
50.07185446645209
 31
0.0
  0
LINE
  5
2CD
330
1F
100
AcDbEntity
  8
0-0
  6
JWW_DASHED1
 62
   120
370
     5
100
AcDbLine
 10
133.7973687357885
 20
-20.02865059837433
 30
0.0
 11
213.7973687357882
 21
59.97134940162496
 31
0.0
  0
LINE
  5
2CE
330
1F
100
AcDbEntity
  8
0-0
  6
JWW_DASHED1
 62
   120
370
     5
100
AcDbLine
 10
133.7973687358047
 20
-10.12915566314177
 30
0.0
 11
213.7973687357865
 21
69.87084433684046
 31
0.0
  0
LINE
  5
2CF
330
1F
100
AcDbEntity
  8
0-0
  6
JWW_DASHED1
 62
   120
370
     5
100
AcDbLine
 10
133.7973687357962
 20
-0.2296607279339469
 30
0.0
 11
213.7973687357788
 21
79.77033927204872
 31
0.0
  0
LINE
  5
2D0
330
1F
100
AcDbEntity
  8
0-0
  6
JWW_DASHED1
 62
   120
370
     5
100
AcDbLine
 10
133.7973687357911
 20
9.669834207222294
 30
0.0
 11
213.7973687357899
 21
89.66983420722201
 31
0.0
  0
LINE
  5
2D1
330
1F
100
AcDbEntity
  8
0-0
  6
JWW_DASHED1
 62
   120
370
     5
100
AcDbLine
 10
133.7973687357911
 20
19.56932914243907
 30
0.0
 11
213.7973687357899
 21
99.56932914243751
 31
0.0
  0
LINE
  5
2D2
330
1F
100
AcDbEntity
  8
0-0
  6
JWW_DASHED1
 62
   120
370
     5
100
AcDbLine
 10
133.7973687357987
 20
29.4688240776631
 30
0.0
 11
213.7973687357805
 21
109.4688240776453
 31
0.0
  0
LINE
  5
2D3
330
1F
100
AcDbEntity
  8
0-0
  6
JWW_DASHED1
 62
   120
370
     5
100
AcDbLine
 10
133.7973687357928
 20
39.36831901281934
 30
0.0
 11
213.7973687357916
 21
119.3683190128182
 31
0.0
  0
LINE
  5
2D4
330
1F
100
AcDbEntity
  8
0-0
  6
JWW_DASHED1
 62
   120
370
     5
100
AcDbLine
 10
133.7973687357859
 20
49.26781394802802
 30
0.0
 11
213.7973687357848
 21
129.2678139480273
 31
0.0
  0
LINE
  5
2D5
330
1F
100
AcDbEntity
  8
0-0
  6
JWW_DASHED1
 62
   120
370
     5
100
AcDbLine
 10
133.7973687357962
 20
59.16730888320004
 30
0.0
 11
213.797368735778
 21
139.1673088831831
 31
0.0
  0
LINE
  5
2D6
330
1F
100
AcDbEntity
  8
0-0
  6
JWW_DASHED1
 62
   120
370
     5
100
AcDbLine
 10
133.7973687357962
 20
69.06680381841639
 30
0.0
 11
213.7973687357788
 21
149.0668038183999
 31
0.0
  0
LINE
  5
2D7
330
1F
100
AcDbEntity
  8
0-0
  6
JWW_DASHED1
 62
   120
370
     5
100
AcDbLine
 10
133.7973687357876
 20
78.96629875362464
 30
0.0
 11
213.7973687357874
 21
158.9662987536244
 31
0.0
  0
LINE
  5
2D8
330
1F
100
AcDbEntity
  8
0-0
  6
JWW_DASHED1
 62
   120
370
     5
100
AcDbLine
 10
133.7973687357979
 20
88.86579368879708
 30
0.0
 11
213.7973687357814
 21
168.8657936887802
 31
0.0
  0
LINE
  5
2D9
330
1F
100
AcDbEntity
  8
0-0
  6
JWW_DASHED1
 62
   120
370
     5
100
AcDbLine
 10
133.7973687357893
 20
98.76528862400491
 30
0.0
 11
213.7973687357729
 21
178.7652886239884
 31
0.0
  0
LINE
  5
2DA
330
1F
100
AcDbEntity
  8
0-0
  6
JWW_DASHED1
 62
   120
370
     5
100
AcDbLine
 10
133.7973687357902
 20
108.6647835592217
 30
0.0
 11
213.7973687357882
 21
188.6647835592201
 31
0.0
  0
LINE
  5
2DB
330
1F
100
AcDbEntity
  8
0-0
  6
JWW_DASHED1
 62
   120
370
     5
100
AcDbLine
 10
133.7973687358013
 20
118.5642784943941
 30
0.0
 11
213.7973687357831
 21
198.5642784943764
 31
0.0
  0
LINE
  5
2DC
330
1F
100
AcDbEntity
  8
0-0
  6
JWW_DASHED1
 62
   120
370
     5
100
AcDbLine
 10
133.7973687357928
 20
128.463773429602
 30
0.0
 11
213.7973687357746
 21
208.4637734295842
 31
0.0
  0
LINE
  5
2DD
330
1F
100
AcDbEntity
  8
0-0
  6
JWW_DASHED1
 62
   120
370
     5
100
AcDbLine
 10
133.7973687357928
 20
138.3632683648183
 30
0.0
 11
213.7973687357916
 21
218.3632683648172
 31
0.0
  0
LINE
  5
2DE
330
1F
100
AcDbEntity
  8
0-0
  6
JWW_DASHED1
 62
   120
370
     5
100
AcDbLine
 10
133.797368735803
 20
148.2627632999903
 30
0.0
 11
213.7973687357857
 21
228.2627632999734
 31
0.0
  0
LINE
  5
2DF
330
1F
100
AcDbEntity
  8
0-0
  6
JWW_DASHED1
 62
   120
370
     5
100
AcDbLine
 10
133.7973687357945
 20
158.162258235199
 30
0.0
 11
213.7973687357771
 21
238.1622582351812
 31
0.0
  0
LINE
  5
2E0
330
1F
100
AcDbEntity
  8
0-0
  6
JWW_DASHED1
 62
   120
370
     5
100
AcDbLine
 10
133.7973687357945
 20
168.0617531704154
 30
0.0
 11
213.7973687357933
 21
248.0617531704142
 31
0.0
  0
LINE
  5
2E1
330
1F
100
AcDbEntity
  8
0-0
  6
JWW_DASHED1
 62
   120
370
     5
100
AcDbLine
 10
133.7973687357893
 20
177.9612481055716
 30
0.0
 11
213.7973687357882
 21
257.96124810557
 31
0.0
  0
LINE
  5
2E2
330
1F
100
AcDbEntity
  8
0-0
  6
JWW_DASHED1
 62
   120
370
     5
100
AcDbLine
 10
133.7973687357962
 20
187.8607430407948
 30
0.0
 11
213.7973687357797
 21
267.8607430407783
 31
0.0
  0
LINE
  5
2E3
330
1F
100
AcDbEntity
  8
0-0
  6
JWW_DASHED1
 62
   120
370
     5
100
AcDbLine
 10
133.7973687357979
 20
197.7602379760124
 30
0.0
 11
213.7973687357805
 21
277.7602379759955
 31
0.0
  0
LINE
  5
2E4
330
1F
100
AcDbEntity
  8
0-0
  6
JWW_DASHED1
 62
   120
370
     5
100
AcDbLine
 10
133.7973687357919
 20
207.6597329111686
 30
0.0
 11
213.7973687357899
 21
287.6597329111667
 31
0.0
  0
LINE
  5
2E5
330
1F
100
AcDbEntity
  8
0-0
  6
JWW_DASHED1
 62
   120
370
     5
100
AcDbLine
 10
133.7973687357987
 20
217.5592278463918
 30
0.0
 11
213.7973687357814
 21
297.5592278463749
 31
0.0
  0
LINE
  5
2E6
330
1F
100
AcDbEntity
  8
0-0
  6
JWW_DASHED1
 62
   120
370
     5
100
AcDbLine
 10
133.7973687357902
 20
227.4587227815996
 30
0.0
 11
213.7973687357729
 21
307.4587227815823
 31
0.0
  0
LINE
  5
2E7
330
1F
100
AcDbEntity
  8
0-0
  6
JWW_DASHED1
 62
   120
370
     5
100
AcDbLine
 10
133.7973687357876
 20
237.3582177167584
 30
0.0
 11
213.7973687357865
 21
317.3582177167573
 31
0.0
  0
LINE
  5
2E8
330
1F
100
AcDbEntity
  8
0-0
  6
JWW_DASHED1
 62
   120
370
     5
100
AcDbLine
 10
133.7973687358013
 20
247.2577126519893
 30
0.0
 11
213.7973687357831
 21
327.2577126519711
 31
0.0
  0
LINE
  5
2E9
330
1F
100
AcDbEntity
  8
0-0
  6
JWW_DASHED1
 62
   120
370
     5
100
AcDbLine
 10
133.7973687357893
 20
257.1572075871383
 30
0.0
 11
213.7973687357712
 21
337.1572075871201
 31
0.0
  0
LINE
  5
2EA
330
1F
100
AcDbEntity
  8
0-0
  6
JWW_DASHED1
 62
   120
370
     5
100
AcDbLine
 10
133.7973687357893
 20
267.0567025223555
 30
0.0
 11
213.7973687357882
 21
347.0567025223544
 31
0.0
  0
LINE
  5
2EB
330
1F
100
AcDbEntity
  8
0-0
  6
JWW_DASHED1
 62
   120
370
     5
100
AcDbLine
 10
133.7973687357876
 20
276.9561974575697
 30
0.0
 11
213.7973687357865
 21
356.9561974575681
 31
0.0
  0
LINE
  5
2EC
330
1F
100
AcDbEntity
  8
0-0
  6
JWW_DASHED1
 62
   120
370
     5
100
AcDbLine
 10
133.7973687357911
 20
286.8556923927354
 30
0.0
 11
213.7973687357729
 21
366.8556923927176
 31
0.0
  0
LINE
  5
2ED
330
1F
100
AcDbEntity
  8
0-0
  6
JWW_DASHED1
 62
   120
370
     5
100
AcDbLine
 10
133.7973687357928
 20
296.7551873279525
 30
0.0
 11
213.7973687357916
 21
376.7551873279514
 31
0.0
  0
LINE
  5
2EE
330
1F
100
AcDbEntity
  8
0-0
  6
JWW_DASHED1
 62
   120
370
     5
100
AcDbLine
 10
133.7973687357893
 20
306.6546822631664
 30
0.0
 11
213.7973687357882
 21
386.6546822631648
 31
0.0
  0
LINE
  5
2EF
330
1F
100
AcDbEntity
  8
0-0
  6
JWW_DASHED1
 62
   120
370
     5
100
AcDbLine
 10
133.7973687357928
 20
316.5541771983311
 30
0.0
 11
213.7973687357763
 21
396.5541771983146
 31
0.0
  0
LINE
  5
2F0
330
1F
100
AcDbEntity
  8
0-0
  6
JWW_DASHED1
 62
   120
370
     5
100
AcDbLine
 10
133.7973687357945
 20
326.4536721335496
 30
0.0
 11
213.7973687357933
 21
406.453672133548
 31
0.0
  0
LINE
  5
2F1
330
1F
100
AcDbEntity
  8
0-0
  6
JWW_DASHED1
 62
   120
370
     5
100
AcDbLine
 10
133.7973687357859
 20
336.3531670687574
 30
0.0
 11
213.7973687357848
 21
416.3531670687563
 31
0.0
  0
LINE
  5
2F2
330
1F
100
AcDbEntity
  8
0-0
  6
JWW_DASHED1
 62
   120
370
     5
100
AcDbLine
 10
133.7973687357953
 20
346.2526620039282
 30
0.0
 11
213.797368735778
 21
426.2526620039104
 31
0.0
  0
LINE
  5
2F3
330
1F
100
AcDbEntity
  8
0-0
  6
JWW_DASHED1
 62
   120
370
     5
100
AcDbLine
 10
133.7973687357979
 20
356.1521569391466
 30
0.0
 11
213.7973687357797
 21
436.1521569391293
 31
0.0
  0
LINE
  5
2F4
330
1F
100
AcDbEntity
  8
0-0
  6
JWW_DASHED1
 62
   120
370
     5
100
AcDbLine
 10
133.7973687357893
 20
366.0516518743544
 30
0.0
 11
213.7973687357882
 21
446.0516518743533
 31
0.0
  0
LINE
  5
2F5
330
1F
100
AcDbEntity
  8
0-0
  6
JWW_DASHED1
 62
   120
370
     5
100
AcDbLine
 10
133.7973687357979
 20
375.9511468095252
 30
0.0
 11
213.7973687357797
 21
455.9511468095075
 31
0.0
  0
LINE
  5
2F6
330
1F
100
AcDbEntity
  8
0-0
  6
JWW_DASHED1
 62
   120
370
     5
100
AcDbLine
 10
133.7973687357893
 20
385.850641744733
 30
0.0
 11
213.797368735772
 21
465.8506417447157
 31
0.0
  0
LINE
  5
2F7
330
1F
100
AcDbEntity
  8
0-0
  6
JWW_DASHED1
 62
   120
370
     5
100
AcDbLine
 10
133.7973687357911
 20
395.7501366799515
 30
0.0
 11
213.7973687357899
 21
475.7501366799504
 31
0.0
  0
LINE
  5
2F8
330
1F
100
AcDbEntity
  8
0-0
  6
JWW_DASHED1
 62
   120
370
     5
100
AcDbLine
 10
133.7973687357996
 20
405.6496316151218
 30
0.0
 11
213.7973687357831
 21
485.6496316151045
 31
0.0
  0
LINE
  5
2F9
330
1F
100
AcDbEntity
  8
0-0
  6
JWW_DASHED1
 62
   120
370
     5
100
AcDbLine
 10
133.7973687357919
 20
415.5491265503301
 30
0.0
 11
213.7973687357737
 21
495.5491265503123
 31
0.0
  0
LINE
  5
2FA
330
1F
100
AcDbEntity
  8
0-0
  6
JWW_DASHED1
 62
   120
370
     5
100
AcDbLine
 10
133.7973687357945
 20
425.4486214855485
 30
0.0
 11
213.7973687357933
 21
505.4486214855474
 31
0.0
  0
LINE
  5
2FB
330
1F
100
AcDbEntity
  8
0-0
  6
JWW_DASHED1
 62
   120
370
     5
100
AcDbLine
 10
133.7973687358013
 20
435.348116420718
 30
0.0
 11
213.7973687357848
 21
515.3481164207006
 31
0.0
  0
LINE
  5
2FC
330
1F
100
AcDbEntity
  8
0-0
  6
JWW_DASHED1
 62
   120
370
     5
100
AcDbLine
 10
133.7973687357936
 20
445.2476113559263
 30
0.0
 11
213.7973687357763
 21
525.2476113559094
 31
0.0
  0
LINE
  5
2FD
330
1F
100
AcDbEntity
  8
0-0
  6
JWW_DASHED1
 62
   120
370
     5
100
AcDbLine
 10
133.7973687357919
 20
455.1471062910863
 30
0.0
 11
213.7973687357916
 21
535.1471062910861
 31
0.0
  0
LINE
  5
2FE
330
1F
100
AcDbEntity
  8
0-0
  6
JWW_DASHED1
 62
   120
370
     5
100
AcDbLine
 10
133.7973687357885
 20
465.0466012262993
 30
0.0
 11
213.7973687357865
 21
545.0466012262973
 31
0.0
  0
LINE
  5
2FF
330
1F
100
AcDbEntity
  8
0-0
  6
JWW_DASHED1
 62
   120
370
     5
100
AcDbLine
 10
133.7973687357962
 20
474.9460961615229
 30
0.0
 11
213.797368735778
 21
554.9460961615056
 31
0.0
  0
LINE
  5
300
330
1F
100
AcDbEntity
  8
0-0
  6
JWW_DASHED1
 62
   120
370
     5
100
AcDbLine
 10
133.7973687357945
 20
484.8455910966834
 30
0.0
 11
213.7973687357933
 21
564.8455910966818
 31
0.0
  0
LINE
  5
301
330
1F
100
AcDbEntity
  8
0-0
  6
JWW_DASHED1
 62
   120
370
     5
100
AcDbLine
 10
133.7973687357859
 20
494.7450860318917
 30
0.0
 11
213.7973687357857
 21
574.7450860318909
 31
0.0
  0
LINE
  5
302
330
1F
100
AcDbEntity
  8
0-0
  6
JWW_DASHED1
 62
   120
370
     5
100
AcDbLine
 10
133.7973687357979
 20
504.64458096712
 30
0.0
 11
213.7973687357805
 21
584.6445809671022
 31
0.0
  0
LINE
  5
303
330
1F
100
AcDbEntity
  8
0-0
  6
JWW_DASHED1
 62
   120
370
     5
100
AcDbLine
 10
133.7973687357962
 20
514.54407590228
 30
0.0
 11
213.7973687357797
 21
594.5440759022631
 31
0.0
  0
LINE
  5
304
330
1F
100
AcDbEntity
  8
0-0
  6
JWW_DASHED1
 62
   120
370
     5
100
AcDbLine
 10
133.7973687357893
 20
524.4435708374887
 30
0.0
 11
213.7973687357874
 21
604.4435708374872
 31
0.0
  0
LINE
  5
305
330
1F
100
AcDbEntity
  8
0-0
  6
JWW_DASHED1
 62
   120
370
     5
100
AcDbLine
 10
133.7973687358004
 20
534.3430657727165
 30
0.0
 11
213.7973687357831
 21
614.3430657726992
 31
0.0
  0
LINE
  5
306
330
1F
100
AcDbEntity
  8
0-0
  6
JWW_DASHED1
 62
   120
370
     5
100
AcDbLine
 10
133.7973687357876
 20
544.2425607078656
 30
0.0
 11
213.7973687357703
 21
624.2425607078483
 31
0.0
  0
LINE
  5
307
330
1F
100
AcDbEntity
  8
0-0
  6
JWW_DASHED1
 62
   120
370
     5
100
AcDbLine
 10
133.7973687357902
 20
554.1420556430844
 30
0.0
 11
213.7973687357899
 21
634.1420556430842
 31
0.0
  0
LINE
  5
308
330
1F
100
AcDbEntity
  8
0-0
  6
JWW_DASHED1
 62
   120
370
     5
100
AcDbLine
 10
133.7973687357859
 20
564.041550578297
 30
0.0
 11
213.7973687357857
 21
644.0415505782962
 31
0.0
  0
LINE
  5
309
330
1F
100
AcDbEntity
  8
0-0
  6
JWW_DASHED1
 62
   120
370
     5
100
AcDbLine
 10
133.7973687357902
 20
573.9410455134625
 30
0.0
 11
213.7973687357729
 21
653.9410455134448
 31
0.0
  0
LINE
  5
30A
330
1F
100
AcDbEntity
  8
0-0
  6
JWW_DASHED1
 62
   120
370
     5
100
AcDbLine
 10
133.7973687357936
 20
583.8405404486823
 30
0.0
 11
213.7973687357925
 21
663.8405404486812
 31
0.0
  0
LINE
  5
30B
330
1F
100
AcDbEntity
  8
0-0
  6
JWW_DASHED1
 62
   120
370
     5
100
AcDbLine
 10
133.7973687357893
 20
593.7400353838945
 30
0.0
 11
213.7973687357865
 21
673.7400353838921
 31
0.0
  0
LINE
  5
30C
330
1F
100
AcDbEntity
  8
0-0
  6
JWW_DASHED1
 62
   120
370
     5
100
AcDbLine
 10
133.7973687357919
 20
603.6395303190588
 30
0.0
 11
213.7973687357746
 21
683.6395303190419
 31
0.0
  0
LINE
  5
30D
330
1F
100
AcDbEntity
  8
0-0
  6
JWW_DASHED1
 62
   120
370
     5
100
AcDbLine
 10
133.7973687357962
 20
613.5390252542794
 30
0.0
 11
213.797368735795
 21
693.5390252542783
 31
0.0
  0
LINE
  5
30E
330
1F
100
AcDbEntity
  8
0-0
  6
JWW_DASHED1
 62
   120
370
     5
100
AcDbLine
 10
133.7973687357876
 20
623.4385201894877
 30
0.0
 11
213.7973687357865
 21
703.4385201894866
 31
0.0
  0
LINE
  5
30F
330
1F
100
AcDbEntity
  8
0-0
  6
JWW_DASHED1
 62
   120
370
     5
100
AcDbLine
 10
133.7973687357945
 20
633.3380151246563
 30
0.0
 11
213.7973687357763
 21
713.3380151246381
 31
0.0
  0
LINE
  5
310
330
1F
100
AcDbEntity
  8
0-0
  6
JWW_DASHED1
 62
   120
370
     5
100
AcDbLine
 10
133.7973687357979
 20
643.2375100598761
 30
0.0
 11
213.7973687357814
 21
723.2375100598591
 31
0.0
  0
LINE
  5
311
330
1F
100
AcDbEntity
  8
0-0
  6
JWW_DASHED1
 62
   120
370
     5
100
AcDbLine
 10
133.7973687357893
 20
653.1370049950284
 30
0.0
 11
213.7973687357874
 21
733.1370049950269
 31
0.0
  0
LINE
  5
312
330
1F
100
AcDbEntity
  8
0-0
  6
JWW_DASHED1
 62
   120
370
     5
100
AcDbLine
 10
133.7973687357962
 20
663.0364999302525
 30
0.0
 11
213.7973687357797
 21
743.0364999302351
 31
0.0
  0
LINE
  5
313
330
1F
100
AcDbEntity
  8
0-0
  6
JWW_DASHED1
 62
   120
370
     5
100
AcDbLine
 10
133.7973687357885
 20
672.9359948654608
 30
0.0
 11
213.7973687357712
 21
752.9359948654429
 31
0.0
  0
LINE
  5
314
330
1F
100
AcDbEntity
  8
0-0
  6
JWW_DASHED1
 62
   120
370
     5
100
AcDbLine
 10
133.7973687357876
 20
682.8354898006221
 30
0.0
 11
213.7973687357865
 21
762.835489800621
 31
0.0
  0
LINE
  5
315
330
1F
100
AcDbEntity
  8
0-0
  6
JWW_DASHED1
 62
   120
370
     5
100
AcDbLine
 10
133.7973687357996
 20
692.7349847358495
 30
0.0
 11
213.7973687357814
 21
772.7349847358322
 31
0.0
  0
LINE
  5
316
330
1F
100
AcDbEntity
  8
0-0
  6
JWW_DASHED1
 62
   120
370
     5
100
AcDbLine
 10
133.7973687357911
 20
702.6344796710573
 30
0.0
 11
213.7973687357729
 21
782.63447967104
 31
0.0
  0
LINE
  5
317
330
1F
100
AcDbEntity
  8
0-0
  6
JWW_DASHED1
 62
   120
370
     5
100
AcDbLine
 10
133.7973687357911
 20
712.5339746062191
 30
0.0
 11
213.7973687357899
 21
792.533974606218
 31
0.0
  0
LINE
  5
318
330
1F
100
AcDbEntity
  8
0-0
  6
JWW_DASHED1
 62
   120
370
     5
100
AcDbLine
 10
133.7973687357859
 20
722.4334695414303
 30
0.0
 11
213.7973687357831
 21
802.4334695414284
 31
0.0
  0
LINE
  5
319
330
1F
100
AcDbEntity
  8
0-0
  6
JWW_DASHED1
 62
   120
370
     5
100
AcDbLine
 10
133.7973687357928
 20
732.332964476654
 30
0.0
 11
213.7973687357754
 21
812.3329644766366
 31
0.0
  0
LINE
  5
31A
330
1F
100
AcDbEntity
  8
0-0
  6
JWW_DASHED1
 62
   120
370
     5
100
AcDbLine
 10
133.7973687357928
 20
742.2324594118162
 30
0.0
 11
213.7973687357916
 21
822.2324594118151
 31
0.0
  0
LINE
  5
31B
330
1F
100
AcDbEntity
  8
0-0
  6
JWW_DASHED1
 62
   120
370
     5
100
AcDbLine
 10
133.7973687357876
 20
752.131954347027
 30
0.0
 11
213.7973687357865
 21
832.1319543470254
 31
0.0
  0
LINE
  5
31C
330
1F
100
AcDbEntity
  8
0-0
  6
JWW_DASHED1
 62
   120
370
     5
100
AcDbLine
 10
133.7973687357953
 20
762.0314492822511
 30
0.0
 11
213.7973687357771
 21
842.0314492822329
 31
0.0
  0
LINE
  5
31D
330
1F
100
AcDbEntity
  8
0-0
  6
JWW_DASHED1
 62
   120
370
     5
100
AcDbLine
 10
133.7973687357962
 20
771.9309442174132
 30
0.0
 11
213.797368735795
 21
851.930944217412
 31
0.0
  0
LINE
  5
31E
330
1F
100
AcDbEntity
  8
0-0
  6
JWW_DASHED1
 62
   120
370
     5
100
AcDbLine
 10
133.7973687357876
 20
781.8304391526215
 30
0.0
 11
213.7973687357865
 21
861.8304391526199
 31
0.0
  0
LINE
  5
31F
330
1F
100
AcDbEntity
  8
0-0
  6
JWW_DASHED1
 62
   120
370
     5
100
AcDbLine
 10
133.797368735797
 20
791.7299340878471
 30
0.0
 11
213.7973687357797
 21
871.7299340878299
 31
0.0
  0
LINE
  5
320
330
1F
100
AcDbEntity
  8
0-0
  6
JWW_DASHED1
 62
   120
370
     5
100
AcDbLine
 10
133.7973687357979
 20
801.6294290230103
 30
0.0
 11
213.7973687357814
 21
881.6294290229929
 31
0.0
  0
LINE
  5
321
330
1F
100
AcDbEntity
  8
0-0
  6
JWW_DASHED1
 62
   120
370
     5
100
AcDbLine
 10
133.7973687357893
 20
811.5289239582181
 30
0.0
 11
213.7973687357882
 21
891.528923958217
 31
0.0
  0
LINE
  5
322
330
1F
100
AcDbEntity
  8
0-0
  6
JWW_DASHED1
 62
   120
370
     5
100
AcDbLine
 10
133.7973687357996
 20
821.4284188934438
 30
0.0
 11
213.7973687357814
 21
901.4284188934265
 31
0.0
  0
LINE
  5
323
330
1F
100
AcDbEntity
  8
0-0
  6
JWW_DASHED1
 62
   120
370
     5
100
AcDbLine
 10
133.7973687357868
 20
831.3279138285932
 30
0.0
 11
213.7973687357695
 21
911.3279138285759
 31
0.0
  0
LINE
  5
324
330
1F
100
AcDbEntity
  8
0-0
  6
JWW_DASHED1
 62
   120
370
     5
100
AcDbLine
 10
133.7973687357928
 20
841.2274087638151
 30
0.0
 11
213.7973687357916
 21
921.227408763814
 31
0.0
  0
LINE
  5
325
330
1F
100
AcDbEntity
  8
0-0
  6
JWW_DASHED1
 62
   120
370
     5
100
AcDbLine
 10
133.7973687357979
 20
851.126903698982
 30
0.0
 11
213.7973687357805
 21
931.1269036989652
 31
0.0
  0
LINE
  5
326
330
1F
100
AcDbEntity
  8
0-0
  6
JWW_DASHED1
 62
   120
370
     5
100
AcDbLine
 10
133.7973687357893
 20
861.0263986341898
 30
0.0
 11
213.7973687357712
 21
941.0263986341726
 31
0.0
  0
LINE
  5
327
330
1F
100
AcDbEntity
  8
0-0
  6
JWW_DASHED1
 62
   120
370
     5
100
AcDbLine
 10
133.7973687357945
 20
870.9258935694122
 30
0.0
 11
213.7973687357933
 21
950.9258935694111
 31
0.0
  0
LINE
  5
328
330
1F
100
AcDbEntity
  8
0-0
  6
JWW_DASHED1
 62
   120
370
     5
100
AcDbLine
 10
133.7973687357996
 20
880.8253885045787
 30
0.0
 11
213.7973687357822
 21
960.8253885045613
 31
0.0
  0
LINE
  5
329
330
1F
100
AcDbEntity
  8
0-0
  6
JWW_DASHED1
 62
   120
370
     5
100
AcDbLine
 10
133.7973687357911
 20
890.7248834397869
 30
0.0
 11
213.7973687357746
 21
970.7248834397695
 31
0.0
  0
LINE
  5
32A
330
1F
100
AcDbEntity
  8
0-0
  6
JWW_DASHED1
 62
   120
370
     5
100
AcDbLine
 10
133.7973687357979
 20
900.6243783750092
 30
0.0
 11
213.7973687357967
 21
980.6243783750081
 31
0.0
  0
LINE
  5
32B
330
1F
100
AcDbEntity
  8
0-0
  6
JWW_DASHED1
 62
   120
370
     5
100
AcDbLine
 10
133.7973687357859
 20
910.5238733101595
 30
0.0
 11
213.7973687357848
 21
990.5238733101579
 31
0.0
  0
LINE
  5
32C
330
1F
100
AcDbEntity
  8
0-0
  6
JWW_DASHED1
 62
   120
370
     5
100
AcDbLine
 10
133.7973687357936
 20
920.4233682453835
 30
0.0
 11
213.7973687357763
 21
1000.423368245366
 31
0.0
  0
LINE
  5
32D
330
1F
100
AcDbEntity
  8
0-0
  6
JWW_DASHED1
 62
   120
370
     5
100
AcDbLine
 10
133.7973687357996
 20
930.3228631806063
 30
0.0
 11
213.7973687357831
 21
1010.322863180589
 31
0.0
  0
LINE
  5
32E
330
1F
100
AcDbEntity
  8
0-0
  6
JWW_DASHED1
 62
   120
370
     5
100
AcDbLine
 10
133.7973687357885
 20
940.2223581157566
 30
0.0
 11
213.7973687357865
 21
1020.222358115755
 31
0.0
  0
LINE
  5
32F
330
1F
100
AcDbEntity
  8
0-0
  6
JWW_DASHED1
 62
   120
370
     5
100
AcDbLine
 10
133.7973687357962
 20
950.1218530509801
 30
0.0
 11
213.797368735778
 21
1030.121853050963
 31
0.0
  0
LINE
  5
330
330
1F
100
AcDbEntity
  8
0-0
  6
JWW_DASHED1
 62
   120
370
     5
100
AcDbLine
 10
133.7973687357876
 20
960.021347986188
 30
0.0
 11
213.7973687357703
 21
1040.021347986171
 31
0.0
  0
LINE
  5
331
330
1F
100
AcDbEntity
  8
0-0
  6
JWW_DASHED1
 62
   120
370
     5
100
AcDbLine
 10
133.7973687357893
 20
969.9208429213523
 30
0.0
 11
213.7973687357882
 21
1049.920842921351
 31
0.0
  0
LINE
  5
332
330
1F
100
AcDbEntity
  8
0-0
  6
JWW_DASHED1
 62
   120
370
     5
100
AcDbLine
 10
133.7973687357979
 20
979.8203378565768
 30
0.0
 11
213.7973687357814
 21
1059.82033785656
 31
0.0
  0
LINE
  5
333
330
1F
100
AcDbEntity
  8
0-0
  6
JWW_DASHED1
 62
   120
370
     5
100
AcDbLine
 10
133.7973687357893
 20
989.719832791785
 30
0.0
 11
213.797368735772
 21
1069.719832791767
 31
0.0
  0
LINE
  5
334
330
1F
100
AcDbEntity
  8
0-0
  6
JWW_DASHED1
 62
   120
370
     5
100
AcDbLine
 10
133.7973687357919
 20
999.619327726949
 30
0.0
 11
213.7973687357916
 21
1079.619327726948
 31
0.0
  0
LINE
  5
335
330
1F
100
AcDbEntity
  8
0-0
  6
JWW_DASHED1
 62
   120
370
     5
100
AcDbLine
 10
133.7973687357842
 20
1009.518822662158
 30
0.0
 11
213.7973687357831
 21
1089.518822662156
 31
0.0
  0
LINE
  5
336
330
1F
100
AcDbEntity
  8
0-0
  6
JWW_DASHED1
 62
   120
370
     5
100
AcDbLine
 10
133.7973687357919
 20
1019.418317597382
 30
0.0
 11
213.7973687357746
 21
1099.418317597364
 31
0.0
  0
LINE
  5
337
330
1F
100
AcDbEntity
  8
0-0
  6
JWW_DASHED1
 62
   120
370
     5
100
AcDbLine
 10
133.7973687357945
 20
1029.317812532546
 30
0.0
 11
213.7973687357933
 21
1109.317812532545
 31
0.0
  0
LINE
  5
338
330
1F
100
AcDbEntity
  8
0-0
  6
JWW_DASHED1
 62
   120
370
     5
100
AcDbLine
 10
133.7973687357868
 20
1039.217307467754
 30
0.0
 11
212.8599357554256
 21
1118.279874487393
 31
0.0
  0
LINE
  5
339
330
1F
100
AcDbEntity
  8
0-0
  6
JWW_DASHED1
 62
   120
370
     5
100
AcDbLine
 10
133.7973687357893
 20
1049.116802402919
 30
0.0
 11
202.9604408202741
 21
1118.279874487403
 31
0.0
  0
LINE
  5
33A
330
1F
100
AcDbEntity
  8
0-0
  6
JWW_DASHED1
 62
   120
370
     5
100
AcDbLine
 10
133.797368735797
 20
1059.016297338143
 30
0.0
 11
193.0609458850364
 21
1118.279874487382
 31
0.0
  0
LINE
  5
33B
330
1F
100
AcDbEntity
  8
0-0
  6
JWW_DASHED1
 62
   120
370
     5
100
AcDbLine
 10
133.7973687357893
 20
1068.915792273351
 30
0.0
 11
183.1614509498277
 21
1118.27987448739
 31
0.0
  0
LINE
  5
33C
330
1F
100
AcDbEntity
  8
0-0
  6
JWW_DASHED1
 62
   120
370
     5
100
AcDbLine
 10
133.7973687357928
 20
1078.815287208516
 30
0.0
 11
173.2619560146711
 21
1118.279874487395
 31
0.0
  0
LINE
  5
33D
330
1F
100
AcDbEntity
  8
0-0
  6
JWW_DASHED1
 62
   120
370
     5
100
AcDbLine
 10
133.7973687357996
 20
1088.71478214374
 30
0.0
 11
163.3624610794453
 21
1118.279874487386
 31
0.0
  0
LINE
  5
33E
330
1F
100
AcDbEntity
  8
0-0
  6
JWW_DASHED1
 62
   120
370
     5
100
AcDbLine
 10
133.7973687357911
 20
1098.614277078948
 30
0.0
 11
153.4629661442315
 21
1118.279874487388
 31
0.0
  0
LINE
  5
33F
330
1F
100
AcDbEntity
  8
0-0
  6
JWW_DASHED1
 62
   120
370
     5
100
AcDbLine
 10
133.7973687357945
 20
1108.513772014113
 30
0.0
 11
143.563471209068
 21
1118.279874487387
 31
0.0
  0
LINE
  5
340
330
1F
100
AcDbEntity
  8
0-0
  6
JWW_DASHED1
 62
   120
370
     5
100
AcDbLine
 10
1493.949831628439
 20
-1048.720125512609
 30
0.0
 11
1503.797368735783
 21
-1038.872588405265
 31
0.0
  0
LINE
  5
341
330
1F
100
AcDbEntity
  8
0-0
  6
JWW_DASHED1
 62
   120
370
     5
100
AcDbLine
 10
1484.050336693276
 20
-1048.72012551261
 30
0.0
 11
1503.797368735786
 21
-1028.973093470101
 31
0.0
  0
LINE
  5
342
330
1F
100
AcDbEntity
  8
0-0
  6
JWW_DASHED1
 62
   120
370
     5
100
AcDbLine
 10
1474.150841758053
 20
-1048.720125512617
 30
0.0
 11
1503.797368735793
 21
-1019.073598534877
 31
0.0
  0
LINE
  5
343
330
1F
100
AcDbEntity
  8
0-0
  6
JWW_DASHED1
 62
   120
370
     5
100
AcDbLine
 10
1464.251346822836
 20
-1048.720125512617
 30
0.0
 11
1503.797368735785
 21
-1009.174103599668
 31
0.0
  0
LINE
  5
344
330
1F
100
AcDbEntity
  8
0-0
  6
JWW_DASHED1
 62
   120
370
     5
100
AcDbLine
 10
1454.35185188768
 20
-1048.720125512612
 30
0.0
 11
1503.797368735788
 21
-999.2746086645036
 31
0.0
  0
LINE
  5
345
330
1F
100
AcDbEntity
  8
0-0
  6
JWW_DASHED1
 62
   120
370
     5
100
AcDbLine
 10
1444.452356952471
 20
-1048.720125512604
 30
0.0
 11
1503.79736873578
 21
-989.3751137292958
 31
0.0
  0
LINE
  5
346
330
1F
100
AcDbEntity
  8
0-0
  6
JWW_DASHED1
 62
   120
370
     5
100
AcDbLine
 10
1434.552862017233
 20
-1048.720125512626
 30
0.0
 11
1503.797368735786
 21
-979.4756187940718
 31
0.0
  0
LINE
  5
347
330
1F
100
AcDbEntity
  8
0-0
  6
JWW_DASHED1
 62
   120
370
     5
100
AcDbLine
 10
1424.653367082082
 20
-1048.720125512615
 30
0.0
 11
1503.797368735775
 21
-969.5761238589223
 31
0.0
  0
LINE
  5
348
330
1F
100
AcDbEntity
  8
0-0
  6
JWW_DASHED1
 62
   120
370
     5
100
AcDbLine
 10
1423.797368735784
 20
-1039.676628923697
 30
0.0
 11
1503.797368735782
 21
-959.6766289236987
 31
0.0
  0
LINE
  5
349
330
1F
100
AcDbEntity
  8
0-0
  6
JWW_DASHED1
 62
   120
370
     5
100
AcDbLine
 10
1423.797368735806
 20
-1029.777133988457
 30
0.0
 11
1503.797368735789
 21
-949.7771339884755
 31
0.0
  0
LINE
  5
34A
330
1F
100
AcDbEntity
  8
0-0
  6
JWW_DASHED1
 62
   120
370
     5
100
AcDbLine
 10
1423.797368735794
 20
-1019.877639053308
 30
0.0
 11
1503.797368735776
 21
-939.8776390533261
 31
0.0
  0
LINE
  5
34B
330
1F
100
AcDbEntity
  8
0-0
  6
JWW_DASHED1
 62
   120
370
     5
100
AcDbLine
 10
1423.797368735786
 20
-1009.978144118101
 30
0.0
 11
1503.797368735785
 21
-929.9781441181017
 31
0.0
  0
LINE
  5
34C
330
1F
100
AcDbEntity
  8
0-0
  6
JWW_DASHED1
 62
   120
370
     5
100
AcDbLine
 10
1423.797368735793
 20
-1000.078649182877
 30
0.0
 11
1503.797368735792
 21
-920.0786491828785
 31
0.0
  0
LINE
  5
34D
330
1F
100
AcDbEntity
  8
0-0
  6
JWW_DASHED1
 62
   120
370
     5
100
AcDbLine
 10
1423.797368735796
 20
-990.1791542477122
 30
0.0
 11
1503.797368735779
 21
-910.1791542477291
 31
0.0
  0
LINE
  5
34E
330
1F
100
AcDbEntity
  8
0-0
  6
JWW_DASHED1
 62
   120
370
     5
100
AcDbLine
 10
1423.797368735788
 20
-980.2796593125036
 30
0.0
 11
1503.797368735787
 21
-900.2796593125047
 31
0.0
  0
LINE
  5
34F
330
1F
100
AcDbEntity
  8
0-0
  6
JWW_DASHED1
 62
   120
370
     5
100
AcDbLine
 10
1423.797368735795
 20
-970.3801643772804
 30
0.0
 11
1503.797368735793
 21
-890.3801643772819
 31
0.0
  0
LINE
  5
350
330
1F
100
AcDbEntity
  8
0-0
  6
JWW_DASHED1
 62
   120
370
     5
100
AcDbLine
 10
1423.797368735798
 20
-960.4806694421155
 30
0.0
 11
1503.797368735781
 21
-880.4806694421329
 31
0.0
  0
LINE
  5
351
330
1F
100
AcDbEntity
  8
0-0
  6
JWW_DASHED1
 62
   120
370
     5
100
AcDbLine
 10
1423.797368735791
 20
-950.5811745069065
 30
0.0
 11
1503.797368735775
 21
-870.5811745069234
 31
0.0
  0
LINE
  5
352
330
1F
100
AcDbEntity
  8
0-0
  6
JWW_DASHED1
 62
   120
370
     5
100
AcDbLine
 10
1423.797368735781
 20
-940.6816795717281
 30
0.0
 11
1503.79736873578
 21
-860.6816795717288
 31
0.0
  0
LINE
  5
353
330
1F
100
AcDbEntity
  8
0-0
  6
JWW_DASHED1
 62
   120
370
     5
100
AcDbLine
 10
1423.797368735801
 20
-930.7821846365185
 30
0.0
 11
1503.797368735783
 21
-850.7821846365358
 31
0.0
  0
LINE
  5
354
330
1F
100
AcDbEntity
  8
0-0
  6
JWW_DASHED1
 62
   120
370
     5
100
AcDbLine
 10
1423.797368735792
 20
-920.8826897013107
 30
0.0
 11
1503.797368735775
 21
-840.882689701328
 31
0.0
  0
LINE
  5
355
330
1F
100
AcDbEntity
  8
0-0
  6
JWW_DASHED1
 62
   120
370
     5
100
AcDbLine
 10
1423.797368735781
 20
-910.9831947661604
 30
0.0
 11
1503.79736873578
 21
-830.9831947661615
 31
0.0
  0
LINE
  5
356
330
1F
100
AcDbEntity
  8
0-0
  6
JWW_DASHED1
 62
   120
370
     5
100
AcDbLine
 10
1423.797368735803
 20
-901.0836998309219
 30
0.0
 11
1503.797368735786
 21
-821.0836998309392
 31
0.0
  0
LINE
  5
357
330
1F
100
AcDbEntity
  8
0-0
  6
JWW_DASHED1
 62
   120
370
     5
100
AcDbLine
 10
1423.797368735794
 20
-891.1842048957136
 30
0.0
 11
1503.797368735776
 21
-811.1842048957315
 31
0.0
  0
LINE
  5
358
330
1F
100
AcDbEntity
  8
0-0
  6
JWW_DASHED1
 62
   120
370
     5
100
AcDbLine
 10
1423.797368735783
 20
-881.2847099605633
 30
0.0
 11
1503.797368735782
 21
-801.2847099605644
 31
0.0
  0
LINE
  5
359
330
1F
100
AcDbEntity
  8
0-0
  6
JWW_DASHED1
 62
   120
370
     5
100
AcDbLine
 10
1423.797368735805
 20
-871.3852150253249
 30
0.0
 11
1503.797368735788
 21
-791.3852150253422
 31
0.0
  0
LINE
  5
35A
330
1F
100
AcDbEntity
  8
0-0
  6
JWW_DASHED1
 62
   120
370
     5
100
AcDbLine
 10
1423.797368735798
 20
-861.4857200901166
 30
0.0
 11
1503.79736873578
 21
-781.4857200901344
 31
0.0
  0
LINE
  5
35B
330
1F
100
AcDbEntity
  8
0-0
  6
JWW_DASHED1
 62
   120
370
     5
100
AcDbLine
 10
1423.797368735786
 20
-851.5862251549663
 30
0.0
 11
1503.797368735785
 21
-771.5862251549675
 31
0.0
  0
LINE
  5
35C
330
1F
100
AcDbEntity
  8
0-0
  6
JWW_DASHED1
 62
   120
370
     5
100
AcDbLine
 10
1423.797368735791
 20
-841.686730219744
 30
0.0
 11
1503.79736873579
 21
-761.6867302197455
 31
0.0
  0
LINE
  5
35D
330
1F
100
AcDbEntity
  8
0-0
  6
JWW_DASHED1
 62
   120
370
     5
100
AcDbLine
 10
1423.797368735799
 20
-831.7872352845209
 30
0.0
 11
1503.797368735781
 21
-751.7872352845382
 31
0.0
  0
LINE
  5
35E
330
1F
100
AcDbEntity
  8
0-0
  6
JWW_DASHED1
 62
   120
370
     5
100
AcDbLine
 10
1423.797368735788
 20
-821.8877403493693
 30
0.0
 11
1503.797368735786
 21
-741.8877403493708
 31
0.0
  0
LINE
  5
35F
330
1F
100
AcDbEntity
  8
0-0
  6
JWW_DASHED1
 62
   120
370
     5
100
AcDbLine
 10
1423.797368735794
 20
-811.988245414147
 30
0.0
 11
1503.797368735792
 21
-731.9882454141493
 31
0.0
  0
LINE
  5
360
330
1F
100
AcDbEntity
  8
0-0
  6
JWW_DASHED1
 62
   120
370
     5
100
AcDbLine
 10
1423.797368735801
 20
-802.0887504789238
 30
0.0
 11
1503.797368735784
 21
-722.0887504789412
 31
0.0
  0
LINE
  5
361
330
1F
100
AcDbEntity
  8
0-0
  6
JWW_DASHED1
 62
   120
370
     5
100
AcDbLine
 10
1423.79736873579
 20
-792.1892555437727
 30
0.0
 11
1503.79736873579
 21
-712.1892555437738
 31
0.0
  0
LINE
  5
362
330
1F
100
AcDbEntity
  8
0-0
  6
JWW_DASHED1
 62
   120
370
     5
100
AcDbLine
 10
1423.797368735783
 20
-782.2897606085644
 30
0.0
 11
1503.797368735781
 21
-702.2897606085655
 31
0.0
  0
LINE
  5
363
330
1F
100
AcDbEntity
  8
0-0
  6
JWW_DASHED1
 62
   120
370
     5
100
AcDbLine
 10
1423.797368735804
 20
-772.3902656733267
 30
0.0
 11
1503.797368735786
 21
-692.3902656733445
 31
0.0
  0
LINE
  5
364
330
1F
100
AcDbEntity
  8
0-0
  6
JWW_DASHED1
 62
   120
370
     5
100
AcDbLine
 10
1423.797368735793
 20
-762.4907707381756
 30
0.0
 11
1503.797368735776
 21
-682.4907707381925
 31
0.0
  0
LINE
  5
365
330
1F
100
AcDbEntity
  8
0-0
  6
JWW_DASHED1
 62
   120
370
     5
100
AcDbLine
 10
1423.797368735784
 20
-752.5912758029674
 30
0.0
 11
1503.797368735784
 21
-672.5912758029685
 31
0.0
  0
LINE
  5
366
330
1F
100
AcDbEntity
  8
0-0
  6
JWW_DASHED1
 62
   120
370
     5
100
AcDbLine
 10
1423.797368735806
 20
-742.6917808677301
 30
0.0
 11
1503.797368735788
 21
-662.6917808677474
 31
0.0
  0
LINE
  5
367
330
1F
100
AcDbEntity
  8
0-0
  6
JWW_DASHED1
 62
   120
370
     5
100
AcDbLine
 10
1423.797368735793
 20
-732.7922859325811
 30
0.0
 11
1503.797368735776
 21
-652.7922859325985
 31
0.0
  0
LINE
  5
368
330
1F
100
AcDbEntity
  8
0-0
  6
JWW_DASHED1
 62
   120
370
     5
100
AcDbLine
 10
1423.797368735787
 20
-722.8927909973711
 30
0.0
 11
1503.797368735786
 21
-642.8927909973714
 31
0.0
  0
LINE
  5
369
330
1F
100
AcDbEntity
  8
0-0
  6
JWW_DASHED1
 62
   120
370
     5
100
AcDbLine
 10
1423.797368735792
 20
-712.9932960621493
 30
0.0
 11
1503.79736873579
 21
-632.9932960621509
 31
0.0
  0
LINE
  5
36A
330
1F
100
AcDbEntity
  8
0-0
  6
JWW_DASHED1
 62
   120
370
     5
100
AcDbLine
 10
1423.797368735794
 20
-703.0938011269845
 30
0.0
 11
1503.797368735778
 21
-623.0938011270018
 31
0.0
  0
LINE
  5
36B
330
1F
100
AcDbEntity
  8
0-0
  6
JWW_DASHED1
 62
   120
370
     5
100
AcDbLine
 10
1423.797368735789
 20
-693.1943061917732
 30
0.0
 11
1503.797368735788
 21
-613.1943061917748
 31
0.0
  0
LINE
  5
36C
330
1F
100
AcDbEntity
  8
0-0
  6
JWW_DASHED1
 62
   120
370
     5
100
AcDbLine
 10
1423.797368735781
 20
-683.2948112565655
 30
0.0
 11
1503.797368735781
 21
-603.2948112565666
 31
0.0
  0
LINE
  5
36D
330
1F
100
AcDbEntity
  8
0-0
  6
JWW_DASHED1
 62
   120
370
     5
100
AcDbLine
 10
1423.797368735798
 20
-673.3953163213874
 30
0.0
 11
1503.79736873578
 21
-593.3953163214056
 31
0.0
  0
LINE
  5
36E
330
1F
100
AcDbEntity
  8
0-0
  6
JWW_DASHED1
 62
   120
370
     5
100
AcDbLine
 10
1423.797368735792
 20
-663.4958213861771
 30
0.0
 11
1503.797368735775
 21
-583.4958213861939
 31
0.0
  0
LINE
  5
36F
330
1F
100
AcDbEntity
  8
0-0
  6
JWW_DASHED1
 62
   120
370
     5
100
AcDbLine
 10
1423.797368735784
 20
-653.5963264509684
 30
0.0
 11
1503.797368735783
 21
-573.5963264509695
 31
0.0
  0
LINE
  5
370
330
1F
100
AcDbEntity
  8
0-0
  6
JWW_DASHED1
 62
   120
370
     5
100
AcDbLine
 10
1423.7973687358
 20
-643.6968315157903
 30
0.0
 11
1503.797368735782
 21
-563.6968315158085
 31
0.0
  0
LINE
  5
371
330
1F
100
AcDbEntity
  8
0-0
  6
JWW_DASHED1
 62
   120
370
     5
100
AcDbLine
 10
1423.797368735791
 20
-633.797336580583
 30
0.0
 11
1503.797368735774
 21
-553.7973365806008
 31
0.0
  0
LINE
  5
372
330
1F
100
AcDbEntity
  8
0-0
  6
JWW_DASHED1
 62
   120
370
     5
100
AcDbLine
 10
1423.797368735783
 20
-623.8978416454302
 30
0.0
 11
1503.79736873578
 21
-543.8978416454322
 31
0.0
  0
LINE
  5
373
330
1F
100
AcDbEntity
  8
0-0
  6
JWW_DASHED1
 62
   120
370
     5
100
AcDbLine
 10
1423.797368735802
 20
-613.9983467101943
 30
0.0
 11
1503.797368735785
 21
-533.9983467102115
 31
0.0
  0
LINE
  5
374
330
1F
100
AcDbEntity
  8
0-0
  6
JWW_DASHED1
 62
   120
370
     5
100
AcDbLine
 10
1423.797368735793
 20
-604.0988517749863
 30
0.0
 11
1503.797368735776
 21
-524.0988517750037
 31
0.0
  0
LINE
  5
375
330
1F
100
AcDbEntity
  8
0-0
  6
JWW_DASHED1
 62
   120
370
     5
100
AcDbLine
 10
1423.797368735784
 20
-594.1993568398344
 30
0.0
 11
1503.797368735783
 21
-514.1993568398346
 31
0.0
  0
LINE
  5
376
330
1F
100
AcDbEntity
  8
0-0
  6
JWW_DASHED1
 62
   120
370
     5
100
AcDbLine
 10
1423.797368735805
 20
-584.2998619045976
 30
0.0
 11
1503.797368735786
 21
-504.2998619046149
 31
0.0
  0
LINE
  5
377
330
1F
100
AcDbEntity
  8
0-0
  6
JWW_DASHED1
 62
   120
370
     5
100
AcDbLine
 10
1423.797368735796
 20
-574.4003669693893
 30
0.0
 11
1503.797368735779
 21
-494.4003669694067
 31
0.0
  0
LINE
  5
378
330
1F
100
AcDbEntity
  8
0-0
  6
JWW_DASHED1
 62
   120
370
     5
100
AcDbLine
 10
1423.797368735786
 20
-564.5008720342373
 30
0.0
 11
1503.797368735786
 21
-484.5008720342377
 31
0.0
  0
LINE
  5
379
330
1F
100
AcDbEntity
  8
0-0
  6
JWW_DASHED1
 62
   120
370
     5
100
AcDbLine
 10
1423.797368735791
 20
-554.6013770990163
 30
0.0
 11
1503.797368735788
 21
-474.6013770990183
 31
0.0
  0
LINE
  5
37A
330
1F
100
AcDbEntity
  8
0-0
  6
JWW_DASHED1
 62
   120
370
     5
100
AcDbLine
 10
1423.797368735798
 20
-544.7018821637927
 30
0.0
 11
1503.797368735781
 21
-464.7018821638101
 31
0.0
  0
LINE
  5
37B
330
1F
100
AcDbEntity
  8
0-0
  6
JWW_DASHED1
 62
   120
370
     5
100
AcDbLine
 10
1423.797368735789
 20
-534.8023872286403
 30
0.0
 11
1503.797368735788
 21
-454.802387228641
 31
0.0
  0
LINE
  5
37C
330
1F
100
AcDbEntity
  8
0-0
  6
JWW_DASHED1
 62
   120
370
     5
100
AcDbLine
 10
1423.797368735793
 20
-524.9028922934197
 30
0.0
 11
1503.797368735792
 21
-444.9028922934212
 31
0.0
  0
LINE
  5
37D
330
1F
100
AcDbEntity
  8
0-0
  6
JWW_DASHED1
 62
   120
370
     5
100
AcDbLine
 10
1423.7973687358
 20
-515.0033973581957
 30
0.0
 11
1503.797368735783
 21
-435.0033973582139
 31
0.0
  0
LINE
  5
37E
330
1F
100
AcDbEntity
  8
0-0
  6
JWW_DASHED1
 62
   120
370
     5
100
AcDbLine
 10
1423.797368735791
 20
-505.1039024230432
 30
0.0
 11
1503.79736873579
 21
-425.103902423044
 31
0.0
  0
LINE
  5
37F
330
1F
100
AcDbEntity
  8
0-0
  6
JWW_DASHED1
 62
   120
370
     5
100
AcDbLine
 10
1423.797368735783
 20
-495.204407487835
 30
0.0
 11
1503.797368735783
 21
-415.2044074878357
 31
0.0
  0
LINE
  5
380
330
1F
100
AcDbEntity
  8
0-0
  6
JWW_DASHED1
 62
   120
370
     5
100
AcDbLine
 10
1423.797368735803
 20
-485.3049125525986
 30
0.0
 11
1503.797368735785
 21
-405.3049125526168
 31
0.0
  0
LINE
  5
381
330
1F
100
AcDbEntity
  8
0-0
  6
JWW_DASHED1
 62
   120
370
     5
100
AcDbLine
 10
1423.797368735789
 20
-475.4054176174504
 30
0.0
 11
1503.797368735773
 21
-395.4054176174674
 31
0.0
  0
LINE
  5
382
330
1F
100
AcDbEntity
  8
0-0
  6
JWW_DASHED1
 62
   120
370
     5
100
AcDbLine
 10
1423.797368735786
 20
-465.5059226822375
 30
0.0
 11
1503.797368735785
 21
-385.5059226822395
 31
0.0
  0
LINE
  5
383
330
1F
100
AcDbEntity
  8
0-0
  6
JWW_DASHED1
 62
   120
370
     5
100
AcDbLine
 10
1423.797368735789
 20
-455.6064277470186
 30
0.0
 11
1503.797368735788
 21
-375.6064277470193
 31
0.0
  0
LINE
  5
384
330
1F
100
AcDbEntity
  8
0-0
  6
JWW_DASHED1
 62
   120
370
     5
100
AcDbLine
 10
1423.797368735792
 20
-445.7069328118538
 30
0.0
 11
1503.797368735775
 21
-365.7069328118703
 31
0.0
  0
LINE
  5
385
330
1F
100
AcDbEntity
  8
0-0
  6
JWW_DASHED1
 62
   120
370
     5
100
AcDbLine
 10
1423.797368735788
 20
-435.8074378766413
 30
0.0
 11
1503.797368735786
 21
-355.807437876642
 31
0.0
  0
LINE
  5
386
330
1F
100
AcDbEntity
  8
0-0
  6
JWW_DASHED1
 62
   120
370
     5
100
AcDbLine
 10
1423.797368735791
 20
-425.9079429414215
 30
0.0
 11
1503.797368735789
 21
-345.9079429414236
 31
0.0
  0
LINE
  5
387
330
1F
100
AcDbEntity
  8
0-0
  6
JWW_DASHED1
 62
   120
370
     5
100
AcDbLine
 10
1423.797368735794
 20
-416.0084480062568
 30
0.0
 11
1503.797368735777
 21
-336.0084480062741
 31
0.0
  0
LINE
  5
388
330
1F
100
AcDbEntity
  8
0-0
  6
JWW_DASHED1
 62
   120
370
     5
100
AcDbLine
 10
1423.797368735791
 20
-406.1089530710443
 30
0.0
 11
1503.79736873579
 21
-326.108953071045
 31
0.0
  0
LINE
  5
389
330
1F
100
AcDbEntity
  8
0-0
  6
JWW_DASHED1
 62
   120
370
     5
100
AcDbLine
 10
1423.797368735783
 20
-396.209458135836
 30
0.0
 11
1503.797368735781
 21
-316.2094581358367
 31
0.0
  0
LINE
  5
38A
330
1F
100
AcDbEntity
  8
0-0
  6
JWW_DASHED1
 62
   120
370
     5
100
AcDbLine
 10
1423.797368735797
 20
-386.3099632006598
 30
0.0
 11
1503.79736873578
 21
-306.3099632006775
 31
0.0
  0
LINE
  5
38B
330
1F
100
AcDbEntity
  8
0-0
  6
JWW_DASHED1
 62
   120
370
     5
100
AcDbLine
 10
1423.797368735793
 20
-376.4104682654472
 30
0.0
 11
1503.797368735776
 21
-296.4104682654637
 31
0.0
  0
LINE
  5
38C
330
1F
100
AcDbEntity
  8
0-0
  6
JWW_DASHED1
 62
   120
370
     5
100
AcDbLine
 10
1423.797368735783
 20
-366.5109733302684
 30
0.0
 11
1503.797368735781
 21
-286.5109733302695
 31
0.0
  0
LINE
  5
38D
330
1F
100
AcDbEntity
  8
0-0
  6
JWW_DASHED1
 62
   120
370
     5
100
AcDbLine
 10
1423.7973687358
 20
-356.6114783950632
 30
0.0
 11
1503.797368735781
 21
-276.6114783950804
 31
0.0
  0
LINE
  5
38E
330
1F
100
AcDbEntity
  8
0-0
  6
JWW_DASHED1
 62
   120
370
     5
100
AcDbLine
 10
1423.797368735791
 20
-346.7119834598549
 30
0.0
 11
1503.797368735773
 21
-266.7119834598726
 31
0.0
  0
LINE
  5
38F
330
1F
100
AcDbEntity
  8
0-0
  6
JWW_DASHED1
 62
   120
370
     5
100
AcDbLine
 10
1423.797368735783
 20
-336.8124885247012
 30
0.0
 11
1503.797368735782
 21
-256.8124885247019
 31
0.0
  0
LINE
  5
390
330
1F
100
AcDbEntity
  8
0-0
  6
JWW_DASHED1
 62
   120
370
     5
100
AcDbLine
 10
1423.797368735801
 20
-326.912993589467
 30
0.0
 11
1503.797368735785
 21
-246.9129935894834
 31
0.0
  0
LINE
  5
391
330
1F
100
AcDbEntity
  8
0-0
  6
JWW_DASHED1
 62
   120
370
     5
100
AcDbLine
 10
1423.797368735793
 20
-317.0134986542591
 30
0.0
 11
1503.797368735776
 21
-237.0134986542756
 31
0.0
  0
LINE
  5
392
330
1F
100
AcDbEntity
  8
0-0
  6
JWW_DASHED1
 62
   120
370
     5
100
AcDbLine
 10
1423.797368735786
 20
-307.1140037191042
 30
0.0
 11
1503.797368735785
 21
-227.1140037191049
 31
0.0
  0
LINE
  5
393
330
1F
100
AcDbEntity
  8
0-0
  6
JWW_DASHED1
 62
   120
370
     5
100
AcDbLine
 10
1423.797368735803
 20
-297.2145087838699
 30
0.0
 11
1503.797368735786
 21
-217.2145087838877
 31
0.0
  0
LINE
  5
394
330
1F
100
AcDbEntity
  8
0-0
  6
JWW_DASHED1
 62
   120
370
     5
100
AcDbLine
 10
1423.797368735794
 20
-287.315013848662
 30
0.0
 11
1503.797368735778
 21
-207.3150138486785
 31
0.0
  0
LINE
  5
395
330
1F
100
AcDbEntity
  8
0-0
  6
JWW_DASHED1
 62
   120
370
     5
100
AcDbLine
 10
1423.797368735788
 20
-277.4155189135071
 30
0.0
 11
1503.797368735787
 21
-197.4155189135078
 31
0.0
  0
LINE
  5
396
330
1F
100
AcDbEntity
  8
0-0
  6
JWW_DASHED1
 62
   120
370
     5
100
AcDbLine
 10
1423.797368735789
 20
-267.516023978289
 30
0.0
 11
1503.797368735788
 21
-187.5160239782906
 31
0.0
  0
LINE
  5
397
330
1F
100
AcDbEntity
  8
0-0
  6
JWW_DASHED1
 62
   120
370
     5
100
AcDbLine
 10
1423.797368735798
 20
-257.616529043065
 30
0.0
 11
1503.79736873578
 21
-177.6165290430828
 31
0.0
  0
LINE
  5
398
330
1F
100
AcDbEntity
  8
0-0
  6
JWW_DASHED1
 62
   120
370
     5
100
AcDbLine
 10
1423.797368735791
 20
-247.7170341079096
 30
0.0
 11
1503.79736873579
 21
-167.7170341079108
 31
0.0
  0
LINE
  5
399
330
1F
100
AcDbEntity
  8
0-0
  6
JWW_DASHED1
 62
   120
370
     5
100
AcDbLine
 10
1423.797368735792
 20
-237.8175391726924
 30
0.0
 11
1503.797368735791
 21
-157.8175391726936
 31
0.0
  0
LINE
  5
39A
330
1F
100
AcDbEntity
  8
0-0
  6
JWW_DASHED1
 62
   120
370
     5
100
AcDbLine
 10
1423.7973687358
 20
-227.9180442374684
 30
0.0
 11
1503.797368735782
 21
-147.9180442374857
 31
0.0
  0
LINE
  5
39B
330
1F
100
AcDbEntity
  8
0-0
  6
JWW_DASHED1
 62
   120
370
     5
100
AcDbLine
 10
1423.797368735793
 20
-218.0185493023134
 30
0.0
 11
1503.797368735776
 21
-138.0185493023299
 31
0.0
  0
LINE
  5
39C
330
1F
100
AcDbEntity
  8
0-0
  6
JWW_DASHED1
 62
   120
370
     5
100
AcDbLine
 10
1423.797368735784
 20
-208.1190543671052
 30
0.0
 11
1503.797368735783
 21
-128.1190543671059
 31
0.0
  0
LINE
  5
39D
330
1F
100
AcDbEntity
  8
0-0
  6
JWW_DASHED1
 62
   120
370
     5
100
AcDbLine
 10
1423.797368735802
 20
-198.2195594318713
 30
0.0
 11
1503.797368735785
 21
-118.2195594318887
 31
0.0
  0
LINE
  5
39E
330
1F
100
AcDbEntity
  8
0-0
  6
JWW_DASHED1
 62
   120
370
     5
100
AcDbLine
 10
1423.797368735788
 20
-188.3200644967228
 30
0.0
 11
1503.797368735772
 21
-108.3200644967397
 31
0.0
  0
LINE
  5
39F
330
1F
100
AcDbEntity
  8
0-0
  6
JWW_DASHED1
 62
   120
370
     5
100
AcDbLine
 10
1423.797368735788
 20
-178.4205695615081
 30
0.0
 11
1503.797368735786
 21
-98.42056956150884
 31
0.0
  0
LINE
  5
3A0
330
1F
100
AcDbEntity
  8
0-0
  6
JWW_DASHED1
 62
   120
370
     5
100
AcDbLine
 10
1423.797368735788
 20
-168.5210746262905
 30
0.0
 11
1503.797368735787
 21
-88.52107462629164
 31
0.0
  0
LINE
  5
3A1
330
1F
100
AcDbEntity
  8
0-0
  6
JWW_DASHED1
 62
   120
370
     5
100
AcDbLine
 10
1423.797368735791
 20
-158.6215796911257
 30
0.0
 11
1503.797368735775
 21
-78.62157969114307
 31
0.0
  0
LINE
  5
3A2
330
1F
100
AcDbEntity
  8
0-0
  6
JWW_DASHED1
 62
   120
370
     5
100
AcDbLine
 10
1423.797368735789
 20
-148.7220847559111
 30
0.0
 11
1503.797368735789
 21
-68.7220847559118
 31
0.0
  0
LINE
  5
3A3
330
1F
100
AcDbEntity
  8
0-0
  6
JWW_DASHED1
 62
   120
370
     5
100
AcDbLine
 10
1423.797368735801
 20
-138.8225898207369
 30
0.0
 11
1503.797368735785
 21
-58.82258982075427
 31
0.0
  0
LINE
  5
3A4
330
1F
100
AcDbEntity
  8
0-0
  6
JWW_DASHED1
 62
   120
370
     5
100
AcDbLine
 10
1423.797368735793
 20
-128.9230948855287
 30
0.0
 11
1503.797368735776
 21
-48.92309488554687
 31
0.0
  0
LINE
  5
3A5
330
1F
100
AcDbEntity
  8
0-0
  6
JWW_DASHED1
 62
   120
370
     5
100
AcDbLine
 10
1423.797368735793
 20
-119.023599950314
 30
0.0
 11
1503.797368735792
 21
-39.02359995031475
 31
0.0
  0
LINE
  5
3A6
330
1F
100
AcDbEntity
  8
0-0
  6
JWW_DASHED1
 62
   120
370
     5
100
AcDbLine
 10
1423.797368735788
 20
-109.1241050151565
 30
0.0
 11
1503.797368735787
 21
-29.12410501515723
 31
0.0
  0
LINE
  5
3A7
330
1F
100
AcDbEntity
  8
0-0
  6
JWW_DASHED1
 62
   120
370
     5
100
AcDbLine
 10
1423.797368735796
 20
-99.22461007993249
 30
0.0
 11
1503.797368735778
 21
-19.2246100799494
 31
0.0
  0
LINE
  5
3A8
330
1F
100
AcDbEntity
  8
0-0
  6
JWW_DASHED1
 62
   120
370
     5
100
AcDbLine
 10
1423.797368735794
 20
-89.32511514471699
 30
0.0
 11
1503.797368735778
 21
-9.3251151447339
 31
0.0
  0
LINE
  5
3A9
330
1F
100
AcDbEntity
  8
0-0
  6
JWW_DASHED1
 62
   120
370
     5
100
AcDbLine
 10
1423.797368735791
 20
-79.42562020955947
 30
0.0
 11
1503.797368735789
 21
0.574379790438968
 31
0.0
  0
LINE
  5
3AA
330
1F
100
AcDbEntity
  8
0-0
  6
JWW_DASHED1
 62
   120
370
     5
100
AcDbLine
 10
1423.797368735798
 20
-69.52612527433587
 30
0.0
 11
1503.797368735781
 21
10.47387472564765
 31
0.0
  0
LINE
  5
3AB
330
1F
100
AcDbEntity
  8
0-0
  6
JWW_DASHED1
 62
   120
370
     5
100
AcDbLine
 10
1423.797368735789
 20
-59.62663033912762
 30
0.0
 11
1503.797368735773
 21
20.37336966085505
 31
0.0
  0
LINE
  5
3AC
330
1F
100
AcDbEntity
  8
0-0
  6
JWW_DASHED1
 62
   120
370
     5
100
AcDbLine
 10
1423.797368735784
 20
-49.72713540397052
 30
0.0
 11
1503.797368735783
 21
30.27286459602792
 31
0.0
  0
LINE
  5
3AD
330
1F
100
AcDbEntity
  8
0-0
  6
JWW_DASHED1
 62
   120
370
     5
100
AcDbLine
 10
1423.7973687358
 20
-39.82764046873882
 30
0.0
 11
1503.797368735783
 21
40.17235953124384
 31
0.0
  0
LINE
  5
3AE
330
1F
100
AcDbEntity
  8
0-0
  6
JWW_DASHED1
 62
   120
370
     5
100
AcDbLine
 10
1423.797368735792
 20
-29.92814553353099
 30
0.0
 11
1503.797368735775
 21
50.07185446645209
 31
0.0
  0
LINE
  5
3AF
330
1F
100
AcDbEntity
  8
0-0
  6
JWW_DASHED1
 62
   120
370
     5
100
AcDbLine
 10
1423.797368735787
 20
-20.02865059837433
 30
0.0
 11
1503.797368735786
 21
59.97134940162496
 31
0.0
  0
LINE
  5
3B0
330
1F
100
AcDbEntity
  8
0-0
  6
JWW_DASHED1
 62
   120
370
     5
100
AcDbLine
 10
1423.797368735803
 20
-10.12915566314177
 30
0.0
 11
1503.797368735785
 21
69.87084433684046
 31
0.0
  0
LINE
  5
3B1
330
1F
100
AcDbEntity
  8
0-0
  6
JWW_DASHED1
 62
   120
370
     5
100
AcDbLine
 10
1423.797368735794
 20
-0.2296607279339469
 30
0.0
 11
1503.797368735777
 21
79.77033927204872
 31
0.0
  0
LINE
  5
3B2
330
1F
100
AcDbEntity
  8
0-0
  6
JWW_DASHED1
 62
   120
370
     5
100
AcDbLine
 10
1423.797368735789
 20
9.669834207222294
 30
0.0
 11
1503.797368735788
 21
89.66983420722201
 31
0.0
  0
LINE
  5
3B3
330
1F
100
AcDbEntity
  8
0-0
  6
JWW_DASHED1
 62
   120
370
     5
100
AcDbLine
 10
1423.797368735789
 20
19.56932914243907
 30
0.0
 11
1503.797368735788
 21
99.56932914243751
 31
0.0
  0
LINE
  5
3B4
330
1F
100
AcDbEntity
  8
0-0
  6
JWW_DASHED1
 62
   120
370
     5
100
AcDbLine
 10
1423.797368735797
 20
29.4688240776631
 30
0.0
 11
1503.797368735779
 21
109.4688240776453
 31
0.0
  0
LINE
  5
3B5
330
1F
100
AcDbEntity
  8
0-0
  6
JWW_DASHED1
 62
   120
370
     5
100
AcDbLine
 10
1423.797368735791
 20
39.36831901281934
 30
0.0
 11
1503.79736873579
 21
119.3683190128182
 31
0.0
  0
LINE
  5
3B6
330
1F
100
AcDbEntity
  8
0-0
  6
JWW_DASHED1
 62
   120
370
     5
100
AcDbLine
 10
1423.797368735784
 20
49.26781394802802
 30
0.0
 11
1503.797368735783
 21
129.2678139480273
 31
0.0
  0
LINE
  5
3B7
330
1F
100
AcDbEntity
  8
0-0
  6
JWW_DASHED1
 62
   120
370
     5
100
AcDbLine
 10
1423.797368735794
 20
59.16730888320004
 30
0.0
 11
1503.797368735776
 21
139.1673088831831
 31
0.0
  0
LINE
  5
3B8
330
1F
100
AcDbEntity
  8
0-0
  6
JWW_DASHED1
 62
   120
370
     5
100
AcDbLine
 10
1423.797368735794
 20
69.06680381841639
 30
0.0
 11
1503.797368735777
 21
149.0668038183999
 31
0.0
  0
LINE
  5
3B9
330
1F
100
AcDbEntity
  8
0-0
  6
JWW_DASHED1
 62
   120
370
     5
100
AcDbLine
 10
1423.797368735786
 20
78.96629875362464
 30
0.0
 11
1503.797368735786
 21
158.9662987536244
 31
0.0
  0
LINE
  5
3BA
330
1F
100
AcDbEntity
  8
0-0
  6
JWW_DASHED1
 62
   120
370
     5
100
AcDbLine
 10
1423.797368735796
 20
88.86579368879708
 30
0.0
 11
1503.79736873578
 21
168.8657936887802
 31
0.0
  0
LINE
  5
3BB
330
1F
100
AcDbEntity
  8
0-0
  6
JWW_DASHED1
 62
   120
370
     5
100
AcDbLine
 10
1423.797368735788
 20
98.76528862400491
 30
0.0
 11
1503.797368735771
 21
178.7652886239884
 31
0.0
  0
LINE
  5
3BC
330
1F
100
AcDbEntity
  8
0-0
  6
JWW_DASHED1
 62
   120
370
     5
100
AcDbLine
 10
1423.797368735788
 20
108.6647835592217
 30
0.0
 11
1503.797368735786
 21
188.6647835592201
 31
0.0
  0
LINE
  5
3BD
330
1F
100
AcDbEntity
  8
0-0
  6
JWW_DASHED1
 62
   120
370
     5
100
AcDbLine
 10
1423.7973687358
 20
118.5642784943941
 30
0.0
 11
1503.797368735781
 21
198.5642784943764
 31
0.0
  0
LINE
  5
3BE
330
1F
100
AcDbEntity
  8
0-0
  6
JWW_DASHED1
 62
   120
370
     5
100
AcDbLine
 10
1423.797368735791
 20
128.463773429602
 30
0.0
 11
1503.797368735773
 21
208.4637734295842
 31
0.0
  0
LINE
  5
3BF
330
1F
100
AcDbEntity
  8
0-0
  6
JWW_DASHED1
 62
   120
370
     5
100
AcDbLine
 10
1423.797368735791
 20
138.3632683648183
 30
0.0
 11
1503.79736873579
 21
218.3632683648172
 31
0.0
  0
LINE
  5
3C0
330
1F
100
AcDbEntity
  8
0-0
  6
JWW_DASHED1
 62
   120
370
     5
100
AcDbLine
 10
1423.797368735801
 20
148.2627632999903
 30
0.0
 11
1503.797368735784
 21
228.2627632999734
 31
0.0
  0
LINE
  5
3C1
330
1F
100
AcDbEntity
  8
0-0
  6
JWW_DASHED1
 62
   120
370
     5
100
AcDbLine
 10
1423.797368735793
 20
158.162258235199
 30
0.0
 11
1503.797368735775
 21
238.1622582351812
 31
0.0
  0
LINE
  5
3C2
330
1F
100
AcDbEntity
  8
0-0
  6
JWW_DASHED1
 62
   120
370
     5
100
AcDbLine
 10
1423.797368735793
 20
168.0617531704154
 30
0.0
 11
1503.797368735792
 21
248.0617531704142
 31
0.0
  0
LINE
  5
3C3
330
1F
100
AcDbEntity
  8
0-0
  6
JWW_DASHED1
 62
   120
370
     5
100
AcDbLine
 10
1423.797368735788
 20
177.9612481055716
 30
0.0
 11
1503.797368735786
 21
257.96124810557
 31
0.0
  0
LINE
  5
3C4
330
1F
100
AcDbEntity
  8
0-0
  6
JWW_DASHED1
 62
   120
370
     5
100
AcDbLine
 10
1423.797368735794
 20
187.8607430407948
 30
0.0
 11
1503.797368735778
 21
267.8607430407783
 31
0.0
  0
LINE
  5
3C5
330
1F
100
AcDbEntity
  8
0-0
  6
JWW_DASHED1
 62
   120
370
     5
100
AcDbLine
 10
1423.797368735796
 20
197.7602379760124
 30
0.0
 11
1503.797368735779
 21
277.7602379759955
 31
0.0
  0
LINE
  5
3C6
330
1F
100
AcDbEntity
  8
0-0
  6
JWW_DASHED1
 62
   120
370
     5
100
AcDbLine
 10
1423.79736873579
 20
207.6597329111686
 30
0.0
 11
1503.797368735788
 21
287.6597329111667
 31
0.0
  0
LINE
  5
3C7
330
1F
100
AcDbEntity
  8
0-0
  6
JWW_DASHED1
 62
   120
370
     5
100
AcDbLine
 10
1423.797368735797
 20
217.5592278463918
 30
0.0
 11
1503.79736873578
 21
297.5592278463749
 31
0.0
  0
LINE
  5
3C8
330
1F
100
AcDbEntity
  8
0-0
  6
JWW_DASHED1
 62
   120
370
     5
100
AcDbLine
 10
1423.797368735788
 20
227.4587227815996
 30
0.0
 11
1503.797368735771
 21
307.4587227815823
 31
0.0
  0
LINE
  5
3C9
330
1F
100
AcDbEntity
  8
0-0
  6
JWW_DASHED1
 62
   120
370
     5
100
AcDbLine
 10
1423.797368735786
 20
237.3582177167584
 30
0.0
 11
1503.797368735785
 21
317.3582177167573
 31
0.0
  0
LINE
  5
3CA
330
1F
100
AcDbEntity
  8
0-0
  6
JWW_DASHED1
 62
   120
370
     5
100
AcDbLine
 10
1423.7973687358
 20
247.2577126519893
 30
0.0
 11
1503.797368735781
 21
327.2577126519711
 31
0.0
  0
LINE
  5
3CB
330
1F
100
AcDbEntity
  8
0-0
  6
JWW_DASHED1
 62
   120
370
     5
100
AcDbLine
 10
1423.797368735788
 20
257.1572075871383
 30
0.0
 11
1503.797368735769
 21
337.1572075871201
 31
0.0
  0
LINE
  5
3CC
330
1F
100
AcDbEntity
  8
0-0
  6
JWW_DASHED1
 62
   120
370
     5
100
AcDbLine
 10
1423.797368735788
 20
267.0567025223555
 30
0.0
 11
1503.797368735786
 21
347.0567025223544
 31
0.0
  0
LINE
  5
3CD
330
1F
100
AcDbEntity
  8
0-0
  6
JWW_DASHED1
 62
   120
370
     5
100
AcDbLine
 10
1423.797368735786
 20
276.9561974575697
 30
0.0
 11
1503.797368735785
 21
356.9561974575681
 31
0.0
  0
LINE
  5
3CE
330
1F
100
AcDbEntity
  8
0-0
  6
JWW_DASHED1
 62
   120
370
     5
100
AcDbLine
 10
1423.797368735789
 20
286.8556923927354
 30
0.0
 11
1503.797368735771
 21
366.8556923927176
 31
0.0
  0
LINE
  5
3CF
330
1F
100
AcDbEntity
  8
0-0
  6
JWW_DASHED1
 62
   120
370
     5
100
AcDbLine
 10
1423.797368735791
 20
296.7551873279525
 30
0.0
 11
1503.79736873579
 21
376.7551873279514
 31
0.0
  0
LINE
  5
3D0
330
1F
100
AcDbEntity
  8
0-0
  6
JWW_DASHED1
 62
   120
370
     5
100
AcDbLine
 10
1423.797368735788
 20
306.6546822631664
 30
0.0
 11
1503.797368735786
 21
386.6546822631648
 31
0.0
  0
LINE
  5
3D1
330
1F
100
AcDbEntity
  8
0-0
  6
JWW_DASHED1
 62
   120
370
     5
100
AcDbLine
 10
1423.797368735791
 20
316.5541771983311
 30
0.0
 11
1503.797368735775
 21
396.5541771983146
 31
0.0
  0
LINE
  5
3D2
330
1F
100
AcDbEntity
  8
0-0
  6
JWW_DASHED1
 62
   120
370
     5
100
AcDbLine
 10
1423.797368735793
 20
326.4536721335496
 30
0.0
 11
1503.797368735792
 21
406.453672133548
 31
0.0
  0
LINE
  5
3D3
330
1F
100
AcDbEntity
  8
0-0
  6
JWW_DASHED1
 62
   120
370
     5
100
AcDbLine
 10
1423.797368735784
 20
336.3531670687574
 30
0.0
 11
1503.797368735783
 21
416.3531670687563
 31
0.0
  0
LINE
  5
3D4
330
1F
100
AcDbEntity
  8
0-0
  6
JWW_DASHED1
 62
   120
370
     5
100
AcDbLine
 10
1423.797368735793
 20
346.2526620039282
 30
0.0
 11
1503.797368735776
 21
426.2526620039104
 31
0.0
  0
LINE
  5
3D5
330
1F
100
AcDbEntity
  8
0-0
  6
JWW_DASHED1
 62
   120
370
     5
100
AcDbLine
 10
1423.797368735796
 20
356.1521569391466
 30
0.0
 11
1503.797368735778
 21
436.1521569391293
 31
0.0
  0
LINE
  5
3D6
330
1F
100
AcDbEntity
  8
0-0
  6
JWW_DASHED1
 62
   120
370
     5
100
AcDbLine
 10
1423.797368735788
 20
366.0516518743544
 30
0.0
 11
1503.797368735786
 21
446.0516518743533
 31
0.0
  0
LINE
  5
3D7
330
1F
100
AcDbEntity
  8
0-0
  6
JWW_DASHED1
 62
   120
370
     5
100
AcDbLine
 10
1423.797368735796
 20
375.9511468095252
 30
0.0
 11
1503.797368735778
 21
455.9511468095075
 31
0.0
  0
LINE
  5
3D8
330
1F
100
AcDbEntity
  8
0-0
  6
JWW_DASHED1
 62
   120
370
     5
100
AcDbLine
 10
1423.797368735788
 20
385.850641744733
 30
0.0
 11
1503.79736873577
 21
465.8506417447157
 31
0.0
  0
LINE
  5
3D9
330
1F
100
AcDbEntity
  8
0-0
  6
JWW_DASHED1
 62
   120
370
     5
100
AcDbLine
 10
1423.797368735789
 20
395.7501366799515
 30
0.0
 11
1503.797368735788
 21
475.7501366799504
 31
0.0
  0
LINE
  5
3DA
330
1F
100
AcDbEntity
  8
0-0
  6
JWW_DASHED1
 62
   120
370
     5
100
AcDbLine
 10
1423.797368735798
 20
405.6496316151218
 30
0.0
 11
1503.797368735781
 21
485.6496316151045
 31
0.0
  0
LINE
  5
3DB
330
1F
100
AcDbEntity
  8
0-0
  6
JWW_DASHED1
 62
   120
370
     5
100
AcDbLine
 10
1423.79736873579
 20
415.5491265503301
 30
0.0
 11
1503.797368735772
 21
495.5491265503123
 31
0.0
  0
LINE
  5
3DC
330
1F
100
AcDbEntity
  8
0-0
  6
JWW_DASHED1
 62
   120
370
     5
100
AcDbLine
 10
1423.797368735793
 20
425.4486214855485
 30
0.0
 11
1503.797368735792
 21
505.4486214855474
 31
0.0
  0
LINE
  5
3DD
330
1F
100
AcDbEntity
  8
0-0
  6
JWW_DASHED1
 62
   120
370
     5
100
AcDbLine
 10
1423.7973687358
 20
435.348116420718
 30
0.0
 11
1503.797368735783
 21
515.3481164207006
 31
0.0
  0
LINE
  5
3DE
330
1F
100
AcDbEntity
  8
0-0
  6
JWW_DASHED1
 62
   120
370
     5
100
AcDbLine
 10
1423.797368735792
 20
445.2476113559263
 30
0.0
 11
1503.797368735775
 21
525.2476113559094
 31
0.0
  0
LINE
  5
3DF
330
1F
100
AcDbEntity
  8
0-0
  6
JWW_DASHED1
 62
   120
370
     5
100
AcDbLine
 10
1423.79736873579
 20
455.1471062910863
 30
0.0
 11
1503.79736873579
 21
535.1471062910861
 31
0.0
  0
LINE
  5
3E0
330
1F
100
AcDbEntity
  8
0-0
  6
JWW_DASHED1
 62
   120
370
     5
100
AcDbLine
 10
1423.797368735787
 20
465.0466012262993
 30
0.0
 11
1503.797368735785
 21
545.0466012262973
 31
0.0
  0
LINE
  5
3E1
330
1F
100
AcDbEntity
  8
0-0
  6
JWW_DASHED1
 62
   120
370
     5
100
AcDbLine
 10
1423.797368735794
 20
474.9460961615229
 30
0.0
 11
1503.797368735776
 21
554.9460961615056
 31
0.0
  0
LINE
  5
3E2
330
1F
100
AcDbEntity
  8
0-0
  6
JWW_DASHED1
 62
   120
370
     5
100
AcDbLine
 10
1423.797368735793
 20
484.8455910966834
 30
0.0
 11
1503.797368735792
 21
564.8455910966818
 31
0.0
  0
LINE
  5
3E3
330
1F
100
AcDbEntity
  8
0-0
  6
JWW_DASHED1
 62
   120
370
     5
100
AcDbLine
 10
1423.797368735784
 20
494.7450860318917
 30
0.0
 11
1503.797368735784
 21
574.7450860318909
 31
0.0
  0
LINE
  5
3E4
330
1F
100
AcDbEntity
  8
0-0
  6
JWW_DASHED1
 62
   120
370
     5
100
AcDbLine
 10
1423.797368735796
 20
504.64458096712
 30
0.0
 11
1503.797368735779
 21
584.6445809671022
 31
0.0
  0
LINE
  5
3E5
330
1F
100
AcDbEntity
  8
0-0
  6
JWW_DASHED1
 62
   120
370
     5
100
AcDbLine
 10
1423.797368735794
 20
514.54407590228
 30
0.0
 11
1503.797368735778
 21
594.5440759022631
 31
0.0
  0
LINE
  5
3E6
330
1F
100
AcDbEntity
  8
0-0
  6
JWW_DASHED1
 62
   120
370
     5
100
AcDbLine
 10
1423.797368735788
 20
524.4435708374887
 30
0.0
 11
1503.797368735786
 21
604.4435708374872
 31
0.0
  0
LINE
  5
3E7
330
1F
100
AcDbEntity
  8
0-0
  6
JWW_DASHED1
 62
   120
370
     5
100
AcDbLine
 10
1423.797368735799
 20
534.3430657727165
 30
0.0
 11
1503.797368735781
 21
614.3430657726992
 31
0.0
  0
LINE
  5
3E8
330
1F
100
AcDbEntity
  8
0-0
  6
JWW_DASHED1
 62
   120
370
     5
100
AcDbLine
 10
1423.797368735786
 20
544.2425607078656
 30
0.0
 11
1503.797368735768
 21
624.2425607078483
 31
0.0
  0
LINE
  5
3E9
330
1F
100
AcDbEntity
  8
0-0
  6
JWW_DASHED1
 62
   120
370
     5
100
AcDbLine
 10
1423.797368735788
 20
554.1420556430844
 30
0.0
 11
1503.797368735788
 21
634.1420556430842
 31
0.0
  0
LINE
  5
3EA
330
1F
100
AcDbEntity
  8
0-0
  6
JWW_DASHED1
 62
   120
370
     5
100
AcDbLine
 10
1423.797368735784
 20
564.041550578297
 30
0.0
 11
1503.797368735784
 21
644.0415505782962
 31
0.0
  0
LINE
  5
3EB
330
1F
100
AcDbEntity
  8
0-0
  6
JWW_DASHED1
 62
   120
370
     5
100
AcDbLine
 10
1423.797368735788
 20
573.9410455134625
 30
0.0
 11
1503.797368735771
 21
653.9410455134448
 31
0.0
  0
LINE
  5
3EC
330
1F
100
AcDbEntity
  8
0-0
  6
JWW_DASHED1
 62
   120
370
     5
100
AcDbLine
 10
1423.797368735792
 20
583.8405404486823
 30
0.0
 11
1503.797368735791
 21
663.8405404486812
 31
0.0
  0
LINE
  5
3ED
330
1F
100
AcDbEntity
  8
0-0
  6
JWW_DASHED1
 62
   120
370
     5
100
AcDbLine
 10
1423.797368735788
 20
593.7400353838945
 30
0.0
 11
1503.797368735785
 21
673.7400353838921
 31
0.0
  0
LINE
  5
3EE
330
1F
100
AcDbEntity
  8
0-0
  6
JWW_DASHED1
 62
   120
370
     5
100
AcDbLine
 10
1423.79736873579
 20
603.6395303190588
 30
0.0
 11
1503.797368735773
 21
683.6395303190419
 31
0.0
  0
LINE
  5
3EF
330
1F
100
AcDbEntity
  8
0-0
  6
JWW_DASHED1
 62
   120
370
     5
100
AcDbLine
 10
1423.797368735794
 20
613.5390252542794
 30
0.0
 11
1503.797368735793
 21
693.5390252542783
 31
0.0
  0
LINE
  5
3F0
330
1F
100
AcDbEntity
  8
0-0
  6
JWW_DASHED1
 62
   120
370
     5
100
AcDbLine
 10
1423.797368735786
 20
623.4385201894877
 30
0.0
 11
1503.797368735785
 21
703.4385201894866
 31
0.0
  0
LINE
  5
3F1
330
1F
100
AcDbEntity
  8
0-0
  6
JWW_DASHED1
 62
   120
370
     5
100
AcDbLine
 10
1423.797368735793
 20
633.3380151246563
 30
0.0
 11
1503.797368735775
 21
713.3380151246381
 31
0.0
  0
LINE
  5
3F2
330
1F
100
AcDbEntity
  8
0-0
  6
JWW_DASHED1
 62
   120
370
     5
100
AcDbLine
 10
1423.797368735796
 20
643.2375100598761
 30
0.0
 11
1503.79736873578
 21
723.2375100598591
 31
0.0
  0
LINE
  5
3F3
330
1F
100
AcDbEntity
  8
0-0
  6
JWW_DASHED1
 62
   120
370
     5
100
AcDbLine
 10
1423.797368735788
 20
653.1370049950284
 30
0.0
 11
1503.797368735786
 21
733.1370049950269
 31
0.0
  0
LINE
  5
3F4
330
1F
100
AcDbEntity
  8
0-0
  6
JWW_DASHED1
 62
   120
370
     5
100
AcDbLine
 10
1423.797368735794
 20
663.0364999302525
 30
0.0
 11
1503.797368735778
 21
743.0364999302351
 31
0.0
  0
LINE
  5
3F5
330
1F
100
AcDbEntity
  8
0-0
  6
JWW_DASHED1
 62
   120
370
     5
100
AcDbLine
 10
1423.797368735787
 20
672.9359948654608
 30
0.0
 11
1503.797368735769
 21
752.9359948654429
 31
0.0
  0
LINE
  5
3F6
330
1F
100
AcDbEntity
  8
0-0
  6
JWW_DASHED1
 62
   120
370
     5
100
AcDbLine
 10
1423.797368735786
 20
682.8354898006221
 30
0.0
 11
1503.797368735785
 21
762.835489800621
 31
0.0
  0
LINE
  5
3F7
330
1F
100
AcDbEntity
  8
0-0
  6
JWW_DASHED1
 62
   120
370
     5
100
AcDbLine
 10
1423.797368735798
 20
692.7349847358495
 30
0.0
 11
1503.79736873578
 21
772.7349847358322
 31
0.0
  0
LINE
  5
3F8
330
1F
100
AcDbEntity
  8
0-0
  6
JWW_DASHED1
 62
   120
370
     5
100
AcDbLine
 10
1423.797368735789
 20
702.6344796710573
 30
0.0
 11
1503.797368735771
 21
782.63447967104
 31
0.0
  0
LINE
  5
3F9
330
1F
100
AcDbEntity
  8
0-0
  6
JWW_DASHED1
 62
   120
370
     5
100
AcDbLine
 10
1423.797368735789
 20
712.5339746062191
 30
0.0
 11
1503.797368735788
 21
792.533974606218
 31
0.0
  0
LINE
  5
3FA
330
1F
100
AcDbEntity
  8
0-0
  6
JWW_DASHED1
 62
   120
370
     5
100
AcDbLine
 10
1423.797368735784
 20
722.4334695414303
 30
0.0
 11
1503.797368735781
 21
802.4334695414284
 31
0.0
  0
LINE
  5
3FB
330
1F
100
AcDbEntity
  8
0-0
  6
JWW_DASHED1
 62
   120
370
     5
100
AcDbLine
 10
1423.797368735791
 20
732.332964476654
 30
0.0
 11
1503.797368735774
 21
812.3329644766366
 31
0.0
  0
LINE
  5
3FC
330
1F
100
AcDbEntity
  8
0-0
  6
JWW_DASHED1
 62
   120
370
     5
100
AcDbLine
 10
1423.797368735791
 20
742.2324594118162
 30
0.0
 11
1503.79736873579
 21
822.2324594118151
 31
0.0
  0
LINE
  5
3FD
330
1F
100
AcDbEntity
  8
0-0
  6
JWW_DASHED1
 62
   120
370
     5
100
AcDbLine
 10
1423.797368735786
 20
752.131954347027
 30
0.0
 11
1503.797368735785
 21
832.1319543470254
 31
0.0
  0
LINE
  5
3FE
330
1F
100
AcDbEntity
  8
0-0
  6
JWW_DASHED1
 62
   120
370
     5
100
AcDbLine
 10
1423.797368735793
 20
762.0314492822511
 30
0.0
 11
1503.797368735775
 21
842.0314492822329
 31
0.0
  0
LINE
  5
3FF
330
1F
100
AcDbEntity
  8
0-0
  6
JWW_DASHED1
 62
   120
370
     5
100
AcDbLine
 10
1423.797368735794
 20
771.9309442174132
 30
0.0
 11
1503.797368735793
 21
851.930944217412
 31
0.0
  0
LINE
  5
400
330
1F
100
AcDbEntity
  8
0-0
  6
JWW_DASHED1
 62
   120
370
     5
100
AcDbLine
 10
1423.797368735786
 20
781.8304391526215
 30
0.0
 11
1503.797368735785
 21
861.8304391526199
 31
0.0
  0
LINE
  5
401
330
1F
100
AcDbEntity
  8
0-0
  6
JWW_DASHED1
 62
   120
370
     5
100
AcDbLine
 10
1423.797368735795
 20
791.7299340878471
 30
0.0
 11
1503.797368735778
 21
871.7299340878299
 31
0.0
  0
LINE
  5
402
330
1F
100
AcDbEntity
  8
0-0
  6
JWW_DASHED1
 62
   120
370
     5
100
AcDbLine
 10
1423.797368735796
 20
801.6294290230103
 30
0.0
 11
1503.79736873578
 21
881.6294290229929
 31
0.0
  0
LINE
  5
403
330
1F
100
AcDbEntity
  8
0-0
  6
JWW_DASHED1
 62
   120
370
     5
100
AcDbLine
 10
1423.797368735788
 20
811.5289239582181
 30
0.0
 11
1503.797368735786
 21
891.528923958217
 31
0.0
  0
LINE
  5
404
330
1F
100
AcDbEntity
  8
0-0
  6
JWW_DASHED1
 62
   120
370
     5
100
AcDbLine
 10
1423.797368735798
 20
821.4284188934438
 30
0.0
 11
1503.79736873578
 21
901.4284188934265
 31
0.0
  0
LINE
  5
405
330
1F
100
AcDbEntity
  8
0-0
  6
JWW_DASHED1
 62
   120
370
     5
100
AcDbLine
 10
1423.797368735785
 20
831.3279138285932
 30
0.0
 11
1503.797368735768
 21
911.3279138285759
 31
0.0
  0
LINE
  5
406
330
1F
100
AcDbEntity
  8
0-0
  6
JWW_DASHED1
 62
   120
370
     5
100
AcDbLine
 10
1423.797368735791
 20
841.2274087638151
 30
0.0
 11
1503.79736873579
 21
921.227408763814
 31
0.0
  0
LINE
  5
407
330
1F
100
AcDbEntity
  8
0-0
  6
JWW_DASHED1
 62
   120
370
     5
100
AcDbLine
 10
1423.797368735796
 20
851.126903698982
 30
0.0
 11
1503.797368735779
 21
931.1269036989652
 31
0.0
  0
LINE
  5
408
330
1F
100
AcDbEntity
  8
0-0
  6
JWW_DASHED1
 62
   120
370
     5
100
AcDbLine
 10
1423.797368735788
 20
861.0263986341898
 30
0.0
 11
1503.797368735769
 21
941.0263986341726
 31
0.0
  0
LINE
  5
409
330
1F
100
AcDbEntity
  8
0-0
  6
JWW_DASHED1
 62
   120
370
     5
100
AcDbLine
 10
1423.797368735793
 20
870.9258935694122
 30
0.0
 11
1503.797368735792
 21
950.9258935694111
 31
0.0
  0
LINE
  5
40A
330
1F
100
AcDbEntity
  8
0-0
  6
JWW_DASHED1
 62
   120
370
     5
100
AcDbLine
 10
1423.797368735798
 20
880.8253885045787
 30
0.0
 11
1503.797368735781
 21
960.8253885045613
 31
0.0
  0
LINE
  5
40B
330
1F
100
AcDbEntity
  8
0-0
  6
JWW_DASHED1
 62
   120
370
     5
100
AcDbLine
 10
1423.797368735789
 20
890.7248834397869
 30
0.0
 11
1503.797368735773
 21
970.7248834397695
 31
0.0
  0
LINE
  5
40C
330
1F
100
AcDbEntity
  8
0-0
  6
JWW_DASHED1
 62
   120
370
     5
100
AcDbLine
 10
1423.797368735796
 20
900.6243783750092
 30
0.0
 11
1503.797368735795
 21
980.6243783750081
 31
0.0
  0
LINE
  5
40D
330
1F
100
AcDbEntity
  8
0-0
  6
JWW_DASHED1
 62
   120
370
     5
100
AcDbLine
 10
1423.797368735784
 20
910.5238733101595
 30
0.0
 11
1503.797368735783
 21
990.5238733101579
 31
0.0
  0
LINE
  5
40E
330
1F
100
AcDbEntity
  8
0-0
  6
JWW_DASHED1
 62
   120
370
     5
100
AcDbLine
 10
1423.797368735792
 20
920.4233682453835
 30
0.0
 11
1503.797368735775
 21
1000.423368245366
 31
0.0
  0
LINE
  5
40F
330
1F
100
AcDbEntity
  8
0-0
  6
JWW_DASHED1
 62
   120
370
     5
100
AcDbLine
 10
1423.797368735798
 20
930.3228631806063
 30
0.0
 11
1503.797368735781
 21
1010.322863180589
 31
0.0
  0
LINE
  5
410
330
1F
100
AcDbEntity
  8
0-0
  6
JWW_DASHED1
 62
   120
370
     5
100
AcDbLine
 10
1423.797368735787
 20
940.2223581157566
 30
0.0
 11
1503.797368735785
 21
1020.222358115755
 31
0.0
  0
LINE
  5
411
330
1F
100
AcDbEntity
  8
0-0
  6
JWW_DASHED1
 62
   120
370
     5
100
AcDbLine
 10
1423.797368735794
 20
950.1218530509801
 30
0.0
 11
1503.797368735776
 21
1030.121853050963
 31
0.0
  0
LINE
  5
412
330
1F
100
AcDbEntity
  8
0-0
  6
JWW_DASHED1
 62
   120
370
     5
100
AcDbLine
 10
1423.797368735786
 20
960.021347986188
 30
0.0
 11
1503.797368735768
 21
1040.021347986171
 31
0.0
  0
LINE
  5
413
330
1F
100
AcDbEntity
  8
0-0
  6
JWW_DASHED1
 62
   120
370
     5
100
AcDbLine
 10
1423.797368735788
 20
969.9208429213523
 30
0.0
 11
1503.797368735786
 21
1049.920842921351
 31
0.0
  0
LINE
  5
414
330
1F
100
AcDbEntity
  8
0-0
  6
JWW_DASHED1
 62
   120
370
     5
100
AcDbLine
 10
1423.797368735796
 20
979.8203378565768
 30
0.0
 11
1503.79736873578
 21
1059.82033785656
 31
0.0
  0
LINE
  5
415
330
1F
100
AcDbEntity
  8
0-0
  6
JWW_DASHED1
 62
   120
370
     5
100
AcDbLine
 10
1423.797368735788
 20
989.719832791785
 30
0.0
 11
1503.79736873577
 21
1069.719832791767
 31
0.0
  0
LINE
  5
416
330
1F
100
AcDbEntity
  8
0-0
  6
JWW_DASHED1
 62
   120
370
     5
100
AcDbLine
 10
1423.79736873579
 20
999.619327726949
 30
0.0
 11
1503.79736873579
 21
1079.619327726948
 31
0.0
  0
LINE
  5
417
330
1F
100
AcDbEntity
  8
0-0
  6
JWW_DASHED1
 62
   120
370
     5
100
AcDbLine
 10
1423.797368735783
 20
1009.518822662158
 30
0.0
 11
1503.797368735781
 21
1089.518822662156
 31
0.0
  0
LINE
  5
418
330
1F
100
AcDbEntity
  8
0-0
  6
JWW_DASHED1
 62
   120
370
     5
100
AcDbLine
 10
1423.79736873579
 20
1019.418317597382
 30
0.0
 11
1503.797368735773
 21
1099.418317597364
 31
0.0
  0
LINE
  5
419
330
1F
100
AcDbEntity
  8
0-0
  6
JWW_DASHED1
 62
   120
370
     5
100
AcDbLine
 10
1423.797368735793
 20
1029.317812532546
 30
0.0
 11
1503.797368735792
 21
1109.317812532545
 31
0.0
  0
LINE
  5
41A
330
1F
100
AcDbEntity
  8
0-0
  6
JWW_DASHED1
 62
   120
370
     5
100
AcDbLine
 10
1423.797368735785
 20
1039.217307467754
 30
0.0
 11
1502.859935755424
 21
1118.279874487393
 31
0.0
  0
LINE
  5
41B
330
1F
100
AcDbEntity
  8
0-0
  6
JWW_DASHED1
 62
   120
370
     5
100
AcDbLine
 10
1423.797368735788
 20
1049.116802402919
 30
0.0
 11
1492.960440820272
 21
1118.279874487403
 31
0.0
  0
LINE
  5
41C
330
1F
100
AcDbEntity
  8
0-0
  6
JWW_DASHED1
 62
   120
370
     5
100
AcDbLine
 10
1423.797368735795
 20
1059.016297338143
 30
0.0
 11
1483.060945885035
 21
1118.279874487382
 31
0.0
  0
LINE
  5
41D
330
1F
100
AcDbEntity
  8
0-0
  6
JWW_DASHED1
 62
   120
370
     5
100
AcDbLine
 10
1423.797368735788
 20
1068.915792273351
 30
0.0
 11
1473.161450949826
 21
1118.27987448739
 31
0.0
  0
LINE
  5
41E
330
1F
100
AcDbEntity
  8
0-0
  6
JWW_DASHED1
 62
   120
370
     5
100
AcDbLine
 10
1423.797368735791
 20
1078.815287208516
 30
0.0
 11
1463.261956014669
 21
1118.279874487395
 31
0.0
  0
LINE
  5
41F
330
1F
100
AcDbEntity
  8
0-0
  6
JWW_DASHED1
 62
   120
370
     5
100
AcDbLine
 10
1423.797368735798
 20
1088.71478214374
 30
0.0
 11
1453.362461079444
 21
1118.279874487386
 31
0.0
  0
LINE
  5
420
330
1F
100
AcDbEntity
  8
0-0
  6
JWW_DASHED1
 62
   120
370
     5
100
AcDbLine
 10
1423.797368735789
 20
1098.614277078948
 30
0.0
 11
1443.46296614423
 21
1118.279874487388
 31
0.0
  0
LINE
  5
421
330
1F
100
AcDbEntity
  8
0-0
  6
JWW_DASHED1
 62
   120
370
     5
100
AcDbLine
 10
1423.797368735793
 20
1108.513772014113
 30
0.0
 11
1433.563471209066
 21
1118.279874487387
 31
0.0
  0
MTEXT
  5
422
330
1F
100
AcDbEntity
  8
文字
  6
Continuous
 62
     7
370
     9
100
AcDbMText
 10
-2143.202631264207
 20
1471.263024452768
 30
0.0
 40
45.71999999999998
 41
1620.0
 46
0.0
 71
     7
 72
     1
  1
{\fＭＳ ゴシック|b0|i0|c128|p49;※ＸＭは縦木目柄、ＬＭは横木目柄のデザインとなります。}
 73
     1
 44
1.0
  0
LWPOLYLINE
  5
423
330
1F
100
AcDbEntity
  8
寸法
  6
Continuous
 62
     7
370
     9
100
AcDbPolyline
 90
        4
 70
     1
 43
3.0
 10
-2041.702631264207
 20
-1076.720125512614
 42
0.4142135623731
 10
-2043.202631264207
 20
-1075.220125512614
 42
0.4142135623731
 10
-2044.702631264207
 20
-1076.720125512614
 42
0.4142135623731
 10
-2043.202631264207
 20
-1078.220125512614
 42
0.4142135623731
  0
LWPOLYLINE
  5
424
330
1F
100
AcDbEntity
  8
寸法
  6
Continuous
 62
     7
370
     9
100
AcDbPolyline
 90
        4
 70
     1
 43
3.0
 10
-1841.702631264207
 20
-1056.720125512614
 42
0.4142135623731
 10
-1843.202631264207
 20
-1055.220125512614
 42
0.4142135623731
 10
-1844.702631264207
 20
-1056.720125512614
 42
0.4142135623731
 10
-1843.202631264207
 20
-1058.220125512614
 42
0.4142135623731
  0
LINE
  5
425
330
1F
100
AcDbEntity
  8
寸法
  6
Continuous
 62
   120
370
     5
100
AcDbLine
 10
-2043.202631264207
 20
-1076.720125512614
 30
0.0
 11
-1643.202631264206
 21
-1076.720125512614
 31
0.0
  0
LINE
  5
426
330
1F
100
AcDbEntity
  8
寸法
  6
Continuous
 62
   120
370
     5
100
AcDbLine
 10
-1843.202631264207
 20
-1056.720125512614
 30
0.0
 11
-1643.202631264206
 21
-1056.720125512614
 31
0.0
  0
LINE
  5
427
330
1F
100
AcDbEntity
  8
寸法
  6
Continuous
 62
   120
370
     5
100
AcDbLine
 10
-1563.202631264207
 20
-1526.720125512615
 30
0.0
 11
-1563.202631264207
 21
-1126.720125512616
 31
0.0
  0
LINE
  5
428
330
1F
100
AcDbEntity
  8
寸法
  6
Continuous
 62
   120
370
     5
100
AcDbLine
 10
-1593.202631264207
 20
-1726.720125512614
 30
0.0
 11
-1593.202631264207
 21
-1126.720125512616
 31
0.0
  0
LINE
  5
429
330
1F
100
AcDbEntity
  8
寸法
  6
Continuous
 62
   120
370
     5
100
AcDbLine
 10
23.79736873579219
 20
-1326.720125512614
 30
0.0
 11
23.79736873579219
 21
-1126.720125512616
 31
0.0
  0
LINE
  5
42A
330
1F
100
AcDbEntity
  8
寸法
  6
Continuous
 62
   120
370
     5
100
AcDbLine
 10
-786.2026312642079
 20
-1326.720125512614
 30
0.0
 11
-786.2026312642079
 21
-1126.720125512616
 31
0.0
  0
LINE
  5
42B
330
1F
100
AcDbEntity
  8
寸法
  6
Continuous
 62
   120
370
     5
100
AcDbLine
 10
-786.2026312642079
 20
-1326.720125512614
 30
0.0
 11
833.7973687357921
 21
-1326.720125512614
 31
0.0
  0
LINE
  5
42C
330
1F
100
AcDbEntity
  8
寸法
  6
Continuous
 62
   120
370
     5
100
AcDbLine
 10
-1563.202631264207
 20
-1526.720125512615
 30
0.0
 11
1610.797368735791
 21
-1526.720125512614
 31
0.0
  0
LINE
  5
42D
330
1F
100
AcDbEntity
  8
寸法
  6
Continuous
 62
   120
370
     5
100
AcDbLine
 10
1610.797368735791
 20
-1526.720125512614
 30
0.0
 11
1610.797368735791
 21
-1126.720125512614
 31
0.0
  0
LINE
  5
42E
330
1F
100
AcDbEntity
  8
寸法
  6
Continuous
 62
   120
370
     5
100
AcDbLine
 10
-1593.202631264207
 20
-1726.720125512614
 30
0.0
 11
1640.797368735791
 21
-1726.720125512613
 31
0.0
  0
LINE
  5
42F
330
1F
100
AcDbEntity
  8
寸法
  6
Continuous
 62
   120
370
     5
100
AcDbLine
 10
1640.797368735791
 20
-1726.720125512613
 30
0.0
 11
1640.797368735791
 21
-1126.720125512614
 31
0.0
  0
LINE
  5
430
330
1F
100
AcDbEntity
  8
寸法
  6
Continuous
 62
   120
370
     5
100
AcDbLine
 10
833.7973687357921
 20
-1326.720125512614
 30
0.0
 11
833.7973687357921
 21
-1126.720125512616
 31
0.0
  0
LWPOLYLINE
  5
431
330
1F
100
AcDbEntity
  8
寸法
  6
Continuous
 62
     7
370
     9
100
AcDbPolyline
 90
        4
 70
     1
 43
3.0
 10
-1561.702631264207
 20
-1526.720125512615
 42
0.4142135623731
 10
-1563.202631264207
 20
-1525.220125512615
 42
0.4142135623731
 10
-1564.702631264207
 20
-1526.720125512615
 42
0.4142135623731
 10
-1563.202631264207
 20
-1528.220125512615
 42
0.4142135623731
  0
LWPOLYLINE
  5
432
330
1F
100
AcDbEntity
  8
寸法
  6
Continuous
 62
     7
370
     9
100
AcDbPolyline
 90
        4
 70
     1
 43
3.0
 10
-1591.702631264207
 20
-1726.720125512614
 42
0.4142135623731
 10
-1593.202631264207
 20
-1725.220125512614
 42
0.4142135623731
 10
-1594.702631264207
 20
-1726.720125512614
 42
0.4142135623731
 10
-1593.202631264207
 20
-1728.220125512614
 42
0.4142135623731
  0
LWPOLYLINE
  5
433
330
1F
100
AcDbEntity
  8
寸法
  6
Continuous
 62
     7
370
     9
100
AcDbPolyline
 90
        4
 70
     1
 43
3.0
 10
25.29736873579219
 20
-1326.720125512614
 42
0.4142135623731
 10
23.79736873579219
 20
-1325.220125512614
 42
0.4142135623731
 10
22.29736873579219
 20
-1326.720125512614
 42
0.4142135623731
 10
23.79736873579219
 20
-1328.220125512614
 42
0.4142135623731
  0
LWPOLYLINE
  5
434
330
1F
100
AcDbEntity
  8
寸法
  6
Continuous
 62
     7
370
     9
100
AcDbPolyline
 90
        4
 70
     1
 43
3.0
 10
-784.7026312642078
 20
-1326.720125512614
 42
0.4142135623731
 10
-786.2026312642079
 20
-1325.220125512614
 42
0.4142135623731
 10
-787.7026312642079
 20
-1326.720125512614
 42
0.4142135623731
 10
-786.2026312642079
 20
-1328.220125512614
 42
0.4142135623731
  0
LWPOLYLINE
  5
435
330
1F
100
AcDbEntity
  8
寸法
  6
Continuous
 62
     7
370
     9
100
AcDbPolyline
 90
        4
 70
     1
 43
3.0
 10
1612.297368735791
 20
-1526.720125512614
 42
0.4142135623731
 10
1610.797368735791
 20
-1525.220125512614
 42
0.4142135623731
 10
1609.297368735792
 20
-1526.720125512614
 42
0.4142135623731
 10
1610.797368735791
 20
-1528.220125512613
 42
0.4142135623731
  0
LWPOLYLINE
  5
436
330
1F
100
AcDbEntity
  8
寸法
  6
Continuous
 62
     7
370
     9
100
AcDbPolyline
 90
        4
 70
     1
 43
3.0
 10
1642.297368735791
 20
-1726.720125512613
 42
0.4142135623731
 10
1640.797368735791
 20
-1725.220125512613
 42
0.4142135623731
 10
1639.297368735792
 20
-1726.720125512613
 42
0.4142135623731
 10
1640.797368735791
 20
-1728.220125512613
 42
0.4142135623731
  0
LWPOLYLINE
  5
437
330
1F
100
AcDbEntity
  8
寸法
  6
Continuous
 62
     7
370
     9
100
AcDbPolyline
 90
        4
 70
     1
 43
3.0
 10
835.2973687357921
 20
-1326.720125512614
 42
0.4142135623731
 10
833.7973687357921
 20
-1325.220125512614
 42
0.4142135623731
 10
832.297368735792
 20
-1326.720125512614
 42
0.4142135623731
 10
833.7973687357921
 20
-1328.220125512614
 42
0.4142135623731
  0
LINE
  5
438
330
1F
100
AcDbEntity
  8
寸法
  6
Continuous
 62
   120
370
     5
100
AcDbLine
 10
-2043.202631264207
 20
1170.279874487387
 30
0.0
 11
-1643.202631264206
 21
1170.279874487387
 31
0.0
  0
LWPOLYLINE
  5
439
330
1F
100
AcDbEntity
  8
寸法
  6
Continuous
 62
     7
370
     9
100
AcDbPolyline
 90
        4
 70
     1
 43
3.0
 10
-2041.702631264207
 20
1170.279874487387
 42
0.4142135623731
 10
-2043.202631264207
 20
1171.779874487387
 42
0.4142135623731
 10
-2044.702631264207
 20
1170.279874487387
 42
0.4142135623731
 10
-2043.202631264207
 20
1168.779874487387
 42
0.4142135623731
  0
LINE
  5
43A
330
1F
100
AcDbEntity
  8
寸法
  6
Continuous
 62
   120
370
     5
100
AcDbLine
 10
-2043.202631264207
 20
1170.279874487387
 30
0.0
 11
-2043.202631264207
 21
-1076.720125512614
 31
0.0
  0
LINE
  5
43B
330
1F
100
AcDbEntity
  8
寸法
  6
Continuous
 62
   120
370
     5
100
AcDbLine
 10
-1843.202631264207
 20
1126.279874487386
 30
0.0
 11
-1643.202631264206
 21
1126.279874487386
 31
0.0
  0
LWPOLYLINE
  5
43C
330
1F
100
AcDbEntity
  8
寸法
  6
Continuous
 62
     7
370
     9
100
AcDbPolyline
 90
        4
 70
     1
 43
3.0
 10
-1841.702631264207
 20
1126.279874487386
 42
0.4142135623731
 10
-1843.202631264207
 20
1127.779874487386
 42
0.4142135623731
 10
-1844.702631264207
 20
1126.279874487386
 42
0.4142135623731
 10
-1843.202631264207
 20
1124.779874487386
 42
0.4142135623731
  0
LINE
  5
43D
330
1F
100
AcDbEntity
  8
寸法
  6
Continuous
 62
   120
370
     5
100
AcDbLine
 10
-1843.202631264207
 20
1126.279874487386
 30
0.0
 11
-1843.202631264207
 21
-1056.720125512614
 31
0.0
  0
MTEXT
  5
43E
330
1F
100
AcDbEntity
  8
寸法
  6
Continuous
 62
     7
370
    70
100
AcDbMText
 10
-2058.202631264207
 20
-177.3951255126133
 30
0.0
 40
57.14999999999999
 41
412.5
 46
0.0
 71
     7
 72
     1
  1
{\fＭＳ ゴシック|b0|i0|c128|p49;枠外＝2,247}
 11
6.123031769111886E-17
 21
1.0
 31
0.0
 73
     1
 44
1.0
  0
MTEXT
  5
43F
330
1F
100
AcDbEntity
  8
寸法
  6
Continuous
 62
     7
370
    70
100
AcDbMText
 10
-1858.202631264207
 20
-183.395125512613
 30
0.0
 40
57.14999999999999
 41
412.5
 46
0.0
 71
     7
 72
     1
  1
{\fＭＳ ゴシック|b0|i0|c128|p49;ＤＨ＝2,183}
 11
6.123031769111886E-17
 21
1.0
 31
0.0
 73
     1
 44
1.0
  0
MTEXT
  5
440
330
1F
100
AcDbEntity
  8
寸法
  6
Continuous
 62
     7
370
   211
100
AcDbMText
 10
-549.9526312642079
 20
-1320.645125512614
 30
0.0
 40
57.14999999999998
 41
337.4999999999999
 46
0.0
 71
     7
 72
     1
  1
{\fＭＳ ゴシック|b0|i0|c128|p49;ＤＷ＝810}
 73
     1
 44
1.0
  0
MTEXT
  5
441
330
1F
100
AcDbEntity
  8
寸法
  6
Continuous
 62
     7
370
   211
100
AcDbMText
 10
260.0473687357921
 20
-1320.645125512614
 30
0.0
 40
57.15000000000001
 41
337.5000000000001
 46
0.0
 71
     7
 72
     1
  1
{\fＭＳ ゴシック|b0|i0|c128|p49;ＤＷ＝810}
 73
     1
 44
1.0
  0
MTEXT
  5
442
330
1F
100
AcDbEntity
  8
寸法
  6
Continuous
 62
     7
370
   211
100
AcDbMText
 10
-182.4526312642078
 20
-1520.645125512615
 30
0.0
 40
57.14999999999999
 41
412.5
 46
0.0
 71
     7
 72
     1
  1
{\fＭＳ ゴシック|b0|i0|c128|p49;枠内＝3,174}
 73
     1
 44
1.0
  0
MTEXT
  5
443
330
1F
100
AcDbEntity
  8
寸法
  6
Continuous
 62
     7
370
   211
100
AcDbMText
 10
-182.4526312642078
 20
-1720.645125512614
 30
0.0
 40
57.14999999999999
 41
412.5
 46
0.0
 71
     7
 72
     1
  1
{\fＭＳ ゴシック|b0|i0|c128|p49;枠外＝3,234}
 73
     1
 44
1.0
  0
ENDSEC
  0
SECTION
  2
OBJECTS
  0
DICTIONARY
  5
C
330
0
100
AcDbDictionary
281
     1
  3
ACAD_GROUP
350
D
  3
ACAD_LAYOUT
350
1A
  3
ACAD_MATERIAL
350
3B
  3
ACAD_MLEADERSTYLE
350
445
  3
ACAD_MLINESTYLE
350
17
  3
ACAD_PLOTSETTINGS
350
19
  3
ACAD_PLOTSTYLENAME
350
E
  3
ACAD_TABLESTYLE
350
444
  3
ACAD_VISUALSTYLE
350
2A
  0
DICTIONARY
  5
D
102
{ACAD_REACTORS
330
C
102
}
330
C
100
AcDbDictionary
281
     1
  0
DICTIONARY
  5
1A
102
{ACAD_REACTORS
330
C
102
}
330
C
100
AcDbDictionary
281
     1
  3
Layout1
350
1E
  3
Layout2
350
26
  3
Model
350
22
  0
DICTIONARY
  5
3B
102
{ACAD_REACTORS
330
C
102
}
330
C
100
AcDbDictionary
281
     1
  3
ByBlock
350
3D
  3
ByLayer
350
3C
  3
Global
350
3E
  0
DICTIONARY
  5
445
102
{ACAD_REACTORS
330
C
102
}
330
C
100
AcDbDictionary
281
     1
  0
DICTIONARY
  5
17
102
{ACAD_REACTORS
330
C
102
}
330
C
100
AcDbDictionary
281
     1
  3
Standard
350
18
  0
DICTIONARY
  5
19
102
{ACAD_REACTORS
330
C
102
}
330
C
100
AcDbDictionary
281
     1
  0
ACDBDICTIONARYWDFLT
  5
E
102
{ACAD_REACTORS
330
C
102
}
330
C
100
AcDbDictionary
281
     1
  3
Normal
350
F
100
AcDbDictionaryWithDefault
340
F
  0
DICTIONARY
  5
444
102
{ACAD_REACTORS
330
C
102
}
330
C
100
AcDbDictionary
281
     1
  0
DICTIONARY
  5
2A
102
{ACAD_REACTORS
330
C
102
}
330
C
100
AcDbDictionary
281
     1
  3
2dWireframe
350
2F
  3
3D Hidden
350
31
  3
3dWireframe
350
30
  3
Basic
350
32
  3
Brighten
350
36
  3
ColorChange
350
3A
  3
Conceptual
350
34
  3
Dim
350
35
  3
Facepattern
350
39
  3
Flat
350
2B
  3
FlatWithEdges
350
2C
  3
Gouraud
350
2D
  3
GouraudWithEdges
350
2E
  3
Linepattern
350
38
  3
Realistic
350
33
  3
Thicken
350
37
  0
LAYOUT
  5
1E
102
{ACAD_REACTORS
330
1A
102
}
330
1A
100
AcDbPlotSettings
  1

  2
none_device
  4

  6

 40
0.0
 41
0.0
 42
0.0
 43
0.0
 44
0.0
 45
0.0
 46
0.0
 47
0.0
 48
0.0
 49
0.0
140
0.0
141
0.0
142
1.0
143
1.0
 70
   688
 72
     0
 73
     0
 74
     5
  7

 75
    16
 76
     0
 77
     5
 78
   300
147
1.0
148
0.0
149
0.0
100
AcDbLayout
  1
Layout1
 70
     1
 71
     1
 10
0.0
 20
0.0
 11
420.0
 21
297.0
 12
0.0
 22
0.0
 32
0.0
 14
1.000000000000000E+20
 24
1.000000000000000E+20
 34
1.000000000000000E+20
 15
-1.000000000000000E+20
 25
-1.000000000000000E+20
 35
-1.000000000000000E+20
146
0.0
 13
0.0
 23
0.0
 33
0.0
 16
1.0
 26
0.0
 36
0.0
 17
0.0
 27
1.0
 37
0.0
 76
     0
330
1B
  0
LAYOUT
  5
26
102
{ACAD_REACTORS
330
1A
102
}
330
1A
100
AcDbPlotSettings
  1

  2
none_device
  4

  6

 40
0.0
 41
0.0
 42
0.0
 43
0.0
 44
0.0
 45
0.0
 46
0.0
 47
0.0
 48
0.0
 49
0.0
140
0.0
141
0.0
142
1.0
143
1.0
 70
   688
 72
     0
 73
     0
 74
     5
  7

 75
    16
 76
     0
 77
     5
 78
   300
147
1.0
148
0.0
149
0.0
100
AcDbLayout
  1
Layout2
 70
     1
 71
     2
 10
0.0
 20
0.0
 11
0.0
 21
0.0
 12
0.0
 22
0.0
 32
0.0
 14
0.0
 24
0.0
 34
0.0
 15
0.0
 25
0.0
 35
0.0
146
0.0
 13
0.0
 23
0.0
 33
0.0
 16
1.0
 26
0.0
 36
0.0
 17
0.0
 27
1.0
 37
0.0
 76
     0
330
23
  0
LAYOUT
  5
22
102
{ACAD_REACTORS
330
1A
102
}
330
1A
100
AcDbPlotSettings
  1

  2
none_device
  4

  6

 40
0.0
 41
0.0
 42
0.0
 43
0.0
 44
0.0
 45
0.0
 46
0.0
 47
0.0
 48
0.0
 49
0.0
140
0.0
141
0.0
142
1.0
143
1.0
 70
  1712
 72
     0
 73
     0
 74
     0
  7

 75
     0
 76
     0
 77
     5
 78
   300
147
1.0
148
0.0
149
0.0
100
AcDbLayout
  1
Model
 70
     1
 71
     0
 10
-4455.0
 20
-3150.0
 11
4455.0
 21
3150.0
 12
0.0
 22
0.0
 32
0.0
 14
-4455.0
 24
-3150.0
 34
0.0
 15
4455.0
 25
3150.0
 35
0.0
146
0.0
 13
0.0
 23
0.0
 33
0.0
 16
1.0
 26
0.0
 36
0.0
 17
0.0
 27
1.0
 37
0.0
 76
     0
330
1F
331
29
  0
MATERIAL
  5
3D
102
{ACAD_REACTORS
330
3B
102
}
330
3B
100
AcDbMaterial
  1
ByBlock
 72
     1
 94
      127
  0
MATERIAL
  5
3C
102
{ACAD_REACTORS
330
3B
102
}
330
3B
100
AcDbMaterial
  1
ByLayer
 72
     1
 94
      127
  0
MATERIAL
  5
3E
102
{ACAD_REACTORS
330
3B
102
}
330
3B
100
AcDbMaterial
  1
Global
 72
     1
 94
      127
  0
MLINESTYLE
  5
18
102
{ACAD_REACTORS
330
17
102
}
330
17
100
AcDbMlineStyle
  2
Standard
 70
     0
  3

 62
   256
 51
90.0
 52
90.0
 71
     2
 49
0.5
 62
   256
  6
BYLAYER
 49
-0.5
 62
   256
  6
BYLAYER
  0
ACDBPLACEHOLDER
  5
F
102
{ACAD_REACTORS
330
E
102
}
330
E
  0
VISUALSTYLE
  5
2F
102
{ACAD_REACTORS
330
2A
102
}
330
2A
100
AcDbVisualStyle
  2
2dWireframe
 70
     4
177
     2
291
     0
 71
     0
176
     1
 72
     2
176
     1
 73
     0
176
     1
 90
        0
176
     1
 40
-0.6
176
     1
 41
-30.0
176
     1
 62
     5
 63
     7
421
 16777215
176
     1
 74
     1
176
     1
 91
        4
176
     1
 64
     7
176
     1
 65
   257
176
     1
 75
     1
176
     1
175
     1
176
     1
 42
1.0
176
     1
 92
        0
176
     1
 66
   257
176
     1
 43
1.0
176
     1
 76
     1
176
     1
 77
     6
176
     1
 78
     2
176
     1
 67
     7
176
     1
 79
     5
176
     1
170
     0
176
     1
171
     0
176
     1
290
     0
176
     1
 93
        1
176
     1
 44
0.0
176
     1
173
     0
176
     1
  0
VISUALSTYLE
  5
31
102
{ACAD_REACTORS
330
2A
102
}
330
2A
100
AcDbVisualStyle
  2
3D Hidden
 70
     6
177
     2
291
     0
 71
     1
176
     1
 72
     2
176
     1
 73
     2
176
     1
 90
        0
176
     1
 40
-0.6
176
     1
 41
-30.0
176
     1
 62
     5
 63
     7
421
 16777215
176
     1
 74
     2
176
     1
 91
        2
176
     1
 64
     7
176
     1
 65
   257
176
     1
 75
     2
176
     1
175
     1
176
     1
 42
40.0
176
     1
 92
        0
176
     1
 66
   257
176
     1
 43
1.0
176
     1
 76
     1
176
     1
 77
     6
176
     1
 78
     2
176
     1
 67
     7
176
     1
 79
     3
176
     1
170
     0
176
     1
171
     0
176
     1
290
     0
176
     1
 93
        1
176
     1
 44
0.0
176
     1
173
     0
176
     1
  0
VISUALSTYLE
  5
30
102
{ACAD_REACTORS
330
2A
102
}
330
2A
100
AcDbVisualStyle
  2
3dWireframe
 70
     5
177
     2
291
     0
 71
     0
176
     1
 72
     2
176
     1
 73
     0
176
     1
 90
        0
176
     1
 40
-0.6
176
     1
 41
-30.0
176
     1
 62
     5
 63
     7
421
 16777215
176
     1
 74
     1
176
     1
 91
        4
176
     1
 64
     7
176
     1
 65
   257
176
     1
 75
     1
176
     1
175
     1
176
     1
 42
1.0
176
     1
 92
        0
176
     1
 66
   257
176
     1
 43
1.0
176
     1
 76
     1
176
     1
 77
     6
176
     1
 78
     2
176
     1
 67
     7
176
     1
 79
     5
176
     1
170
     0
176
     1
171
     0
176
     1
290
     0
176
     1
 93
        1
176
     1
 44
0.0
176
     1
173
     0
176
     1
  0
VISUALSTYLE
  5
32
102
{ACAD_REACTORS
330
2A
102
}
330
2A
100
AcDbVisualStyle
  2
Basic
 70
     7
177
     2
291
     1
 71
     1
176
     1
 72
     0
176
     1
 73
     1
176
     1
 90
        0
176
     1
 40
-0.6
176
     1
 41
-30.0
176
     1
 62
     5
 63
     7
421
 16777215
176
     1
 74
     0
176
     1
 91
        4
176
     1
 64
     7
176
     1
 65
   257
176
     1
 75
     1
176
     1
175
     1
176
     1
 42
1.0
176
     1
 92
        8
176
     1
 66
     7
176
     1
 43
1.0
176
     1
 76
     1
176
     1
 77
     6
176
     1
 78
     2
176
     1
 67
     7
176
     1
 79
     5
176
     1
170
     0
176
     1
171
     0
176
     1
290
     0
176
     1
 93
        1
176
     1
 44
0.0
176
     1
173
     0
176
     1
  0
VISUALSTYLE
  5
36
102
{ACAD_REACTORS
330
2A
102
}
330
2A
100
AcDbVisualStyle
  2
Brighten
 70
    12
177
     2
291
     1
 71
     2
176
     1
 72
     2
176
     1
 73
     0
176
     1
 90
        0
176
     1
 40
-0.6
176
     1
 41
-30.0
176
     1
 62
     5
 63
     7
421
 16777215
176
     1
 74
     1
176
     1
 91
        4
176
     1
 64
     7
176
     1
 65
   257
176
     1
 75
     1
176
     1
175
     1
176
     1
 42
1.0
176
     1
 92
        8
176
     1
 66
     7
176
     1
 43
1.0
176
     1
 76
     1
176
     1
 77
     6
176
     1
 78
     2
176
     1
 67
     7
176
     1
 79
     5
176
     1
170
     0
176
     1
171
     0
176
     1
290
     0
176
     1
 93
        1
176
     1
 44
50.0
176
     1
173
     0
176
     1
  0
VISUALSTYLE
  5
3A
102
{ACAD_REACTORS
330
2A
102
}
330
2A
100
AcDbVisualStyle
  2
ColorChange
 70
    16
177
     2
291
     1
 71
     2
176
     1
 72
     2
176
     1
 73
     3
176
     1
 90
        0
176
     1
 40
-0.6
176
     1
 41
-30.0
176
     1
 62
     5
 63
     8
421
  8421504
176
     1
 74
     1
176
     1
 91
        4
176
     1
 64
     7
176
     1
 65
   257
176
     1
 75
     1
176
     1
175
     1
176
     1
 42
1.0
176
     1
 92
        8
176
     1
 66
     8
424
  8421504
176
     1
 43
1.0
176
     1
 76
     1
176
     1
 77
     6
176
     1
 78
     2
176
     1
 67
     7
176
     1
 79
     5
176
     1
170
     0
176
     1
171
     0
176
     1
290
     0
176
     1
 93
        1
176
     1
 44
0.0
176
     1
173
     0
176
     1
  0
VISUALSTYLE
  5
34
102
{ACAD_REACTORS
330
2A
102
}
330
2A
100
AcDbVisualStyle
  2
Conceptual
 70
     9
177
     2
291
     0
 71
     3
176
     1
 72
     2
176
     1
 73
     0
176
     1
 90
        0
176
     1
 40
-0.6
176
     1
 41
-30.0
176
     1
 62
     5
 63
     7
421
 16777215
176
     1
 74
     2
176
     1
 91
        2
176
     1
 64
     7
176
     1
 65
   257
176
     1
 75
     1
176
     1
175
     1
176
     1
 42
40.0
176
     1
 92
        8
176
     1
 66
     7
176
     1
 43
1.0
176
     1
 76
     1
176
     1
 77
     6
176
     1
 78
     2
176
     1
 67
     7
176
     1
 79
     3
176
     1
170
     0
176
     1
171
     0
176
     1
290
     0
176
     1
 93
        1
176
     1
 44
0.0
176
     1
173
     0
176
     1
  0
VISUALSTYLE
  5
35
102
{ACAD_REACTORS
330
2A
102
}
330
2A
100
AcDbVisualStyle
  2
Dim
 70
    11
177
     2
291
     1
 71
     2
176
     1
 72
     2
176
     1
 73
     0
176
     1
 90
        0
176
     1
 40
-0.6
176
     1
 41
-30.0
176
     1
 62
     5
 63
     7
421
 16777215
176
     1
 74
     1
176
     1
 91
        4
176
     1
 64
     7
176
     1
 65
   257
176
     1
 75
     1
176
     1
175
     1
176
     1
 42
1.0
176
     1
 92
        8
176
     1
 66
     7
176
     1
 43
1.0
176
     1
 76
     1
176
     1
 77
     6
176
     1
 78
     2
176
     1
 67
     7
176
     1
 79
     5
176
     1
170
     0
176
     1
171
     0
176
     1
290
     0
176
     1
 93
        1
176
     1
 44
-50.0
176
     1
173
     0
176
     1
  0
VISUALSTYLE
  5
39
102
{ACAD_REACTORS
330
2A
102
}
330
2A
100
AcDbVisualStyle
  2
Facepattern
 70
    15
177
     2
291
     1
 71
     2
176
     1
 72
     2
176
     1
 73
     0
176
     1
 90
        0
176
     1
 40
-0.6
176
     1
 41
-30.0
176
     1
 62
     5
 63
     7
421
 16777215
176
     1
 74
     1
176
     1
 91
        4
176
     1
 64
     7
176
     1
 65
   257
176
     1
 75
     1
176
     1
175
     1
176
     1
 42
1.0
176
     1
 92
        8
176
     1
 66
     7
176
     1
 43
1.0
176
     1
 76
     1
176
     1
 77
     6
176
     1
 78
     2
176
     1
 67
     7
176
     1
 79
     5
176
     1
170
     0
176
     1
171
     0
176
     1
290
     0
176
     1
 93
        1
176
     1
 44
0.0
176
     1
173
     0
176
     1
  0
VISUALSTYLE
  5
2B
102
{ACAD_REACTORS
330
2A
102
}
330
2A
100
AcDbVisualStyle
  2
Flat
 70
     0
177
     2
291
     1
 71
     2
176
     1
 72
     1
176
     1
 73
     1
176
     1
 90
        2
176
     1
 40
-0.6
176
     1
 41
30.0
176
     1
 62
     5
 63
     7
421
 16777215
176
     1
 74
     0
176
     1
 91
        4
176
     1
 64
     7
176
     1
 65
   257
176
     1
 75
     1
176
     1
175
     1
176
     1
 42
1.0
176
     1
 92
        8
176
     1
 66
     7
176
     1
 43
1.0
176
     1
 76
     1
176
     1
 77
     6
176
     1
 78
     2
176
     1
 67
     7
176
     1
 79
     5
176
     1
170
     0
176
     1
171
     0
176
     1
290
     0
176
     1
 93
       13
176
     1
 44
0.0
176
     1
173
     0
176
     1
  0
VISUALSTYLE
  5
2C
102
{ACAD_REACTORS
330
2A
102
}
330
2A
100
AcDbVisualStyle
  2
FlatWithEdges
 70
     1
177
     2
291
     1
 71
     2
176
     1
 72
     1
176
     1
 73
     1
176
     1
 90
        2
176
     1
 40
-0.6
176
     1
 41
30.0
176
     1
 62
     5
 63
     7
421
 16777215
176
     1
 74
     1
176
     1
 91
        4
176
     1
 64
     7
176
     1
 65
   257
176
     1
 75
     1
176
     1
175
     1
176
     1
 42
1.0
176
     1
 92
        0
176
     1
 66
   257
176
     1
 43
1.0
176
     1
 76
     1
176
     1
 77
     6
176
     1
 78
     2
176
     1
 67
     7
176
     1
 79
     5
176
     1
170
     0
176
     1
171
     0
176
     1
290
     0
176
     1
 93
       13
176
     1
 44
0.0
176
     1
173
     0
176
     1
  0
VISUALSTYLE
  5
2D
102
{ACAD_REACTORS
330
2A
102
}
330
2A
100
AcDbVisualStyle
  2
Gouraud
 70
     2
177
     2
291
     1
 71
     2
176
     1
 72
     2
176
     1
 73
     1
176
     1
 90
        2
176
     1
 40
-0.6
176
     1
 41
30.0
176
     1
 62
     5
 63
     7
421
 16777215
176
     1
 74
     0
176
     1
 91
        4
176
     1
 64
     7
176
     1
 65
   257
176
     1
 75
     1
176
     1
175
     1
176
     1
 42
1.0
176
     1
 92
        0
176
     1
 66
     7
176
     1
 43
1.0
176
     1
 76
     1
176
     1
 77
     6
176
     1
 78
     2
176
     1
 67
     7
176
     1
 79
     5
176
     1
170
     0
176
     1
171
     0
176
     1
290
     0
176
     1
 93
       13
176
     1
 44
0.0
176
     1
173
     0
176
     1
  0
VISUALSTYLE
  5
2E
102
{ACAD_REACTORS
330
2A
102
}
330
2A
100
AcDbVisualStyle
  2
GouraudWithEdges
 70
     3
177
     2
291
     1
 71
     2
176
     1
 72
     2
176
     1
 73
     1
176
     1
 90
        2
176
     1
 40
-0.6
176
     1
 41
30.0
176
     1
 62
     5
 63
     7
421
 16777215
176
     1
 74
     1
176
     1
 91
        4
176
     1
 64
     7
176
     1
 65
   257
176
     1
 75
     1
176
     1
175
     1
176
     1
 42
1.0
176
     1
 92
        0
176
     1
 66
   257
176
     1
 43
1.0
176
     1
 76
     1
176
     1
 77
     6
176
     1
 78
     2
176
     1
 67
     7
176
     1
 79
     5
176
     1
170
     0
176
     1
171
     0
176
     1
290
     0
176
     1
 93
       13
176
     1
 44
0.0
176
     1
173
     0
176
     1
  0
VISUALSTYLE
  5
38
102
{ACAD_REACTORS
330
2A
102
}
330
2A
100
AcDbVisualStyle
  2
Linepattern
 70
    14
177
     2
291
     1
 71
     2
176
     1
 72
     2
176
     1
 73
     0
176
     1
 90
        0
176
     1
 40
-0.6
176
     1
 41
-30.0
176
     1
 62
     5
 63
     7
421
 16777215
176
     1
 74
     1
176
     1
 91
        4
176
     1
 64
     7
176
     1
 65
   257
176
     1
 75
     7
176
     1
175
     7
176
     1
 42
1.0
176
     1
 92
        8
176
     1
 66
     7
176
     1
 43
1.0
176
     1
 76
     1
176
     1
 77
     6
176
     1
 78
     2
176
     1
 67
     7
176
     1
 79
     5
176
     1
170
     0
176
     1
171
     0
176
     1
290
     0
176
     1
 93
        1
176
     1
 44
0.0
176
     1
173
     0
176
     1
  0
VISUALSTYLE
  5
33
102
{ACAD_REACTORS
330
2A
102
}
330
2A
100
AcDbVisualStyle
  2
Realistic
 70
     8
177
     2
291
     0
 71
     2
176
     1
 72
     2
176
     1
 73
     0
176
     1
 90
        0
176
     1
 40
-0.6
176
     1
 41
-30.0
176
     1
 62
     5
 63
     7
421
 16777215
176
     1
 74
     1
176
     1
 91
        0
176
     1
 64
     7
176
     1
 65
   257
176
     1
 75
     1
176
     1
175
     1
176
     1
 42
1.0
176
     1
 92
        8
176
     1
 66
     8
424
  7895160
176
     1
 43
1.0
176
     1
 76
     1
176
     1
 77
     6
176
     1
 78
     2
176
     1
 67
     7
176
     1
 79
     5
176
     1
170
     0
176
     1
171
     0
176
     1
290
     0
176
     1
 93
       13
176
     1
 44
0.0
176
     1
173
     0
176
     1
  0
VISUALSTYLE
  5
37
102
{ACAD_REACTORS
330
2A
102
}
330
2A
100
AcDbVisualStyle
  2
Thicken
 70
    13
177
     2
291
     1
 71
     2
176
     1
 72
     2
176
     1
 73
     0
176
     1
 90
        0
176
     1
 40
-0.6
176
     1
 41
-30.0
176
     1
 62
     5
 63
     7
421
 16777215
176
     1
 74
     1
176
     1
 91
        4
176
     1
 64
     7
176
     1
 65
   257
176
     1
 75
     1
176
     1
175
     1
176
     1
 42
1.0
176
     1
 92
       12
176
     1
 66
     7
176
     1
 43
1.0
176
     1
 76
     1
176
     1
 77
     6
176
     1
 78
     2
176
     1
 67
     7
176
     1
 79
     5
176
     1
170
     0
176
     1
171
     0
176
     1
290
     0
176
     1
 93
        1
176
     1
 44
0.0
176
     1
173
     0
176
     1
  0
ENDSEC
  0
EOF
