  0
SECTION
  2
HEADER
  9
$ACADVER
  1
AC1024
  9
$ACADMAINTVER
 70
     6
  9
$DWGCODEPAGE
  3
ANSI_932
  9
$INSBASE
 10
0.0
 20
0.0
 30
0.0
  9
$EXTMIN
 10
-4455.0
 20
-3150.0
 30
0.0
  9
$EXTMAX
 10
4455.0
 20
3150.0
 30
0.0
  9
$LIMMIN
 10
-4455.0
 20
-3150.0
  9
$LIMMAX
 10
4455.0
 20
3150.0
  9
$ORTHOMODE
 70
     0
  9
$REGENMODE
 70
     1
  9
$FILLMODE
 70
     1
  9
$QTEXTMODE
 70
     0
  9
$MIRRTEXT
 70
     1
  9
$LTSCALE
 40
30.0
  9
$ATTMODE
 70
     1
  9
$TEXTSIZE
 40
2.5
  9
$TRACEWID
 40
1.0
  9
$TEXTSTYLE
  7
Standard
  9
$CLAYER
  8
0
  9
$CELTYPE
  6
ByLayer
  9
$CECOLOR
 62
   256
  9
$CELTSCALE
 40
1.0
  9
$DISPSILH
 70
     0
  9
$DIMSCALE
 40
1.0
  9
$DIMASZ
 40
2.5
  9
$DIMEXO
 40
0.625
  9
$DIMDLI
 40
3.75
  9
$DIMRND
 40
0.0
  9
$DIMDLE
 40
0.0
  9
$DIMEXE
 40
1.25
  9
$DIMTP
 40
0.0
  9
$DIMTM
 40
0.0
  9
$DIMTXT
 40
2.5
  9
$DIMCEN
 40
2.5
  9
$DIMTSZ
 40
0.0
  9
$DIMTOL
 70
     0
  9
$DIMLIM
 70
     0
  9
$DIMTIH
 70
     0
  9
$DIMTOH
 70
     0
  9
$DIMSE1
 70
     0
  9
$DIMSE2
 70
     0
  9
$DIMTAD
 70
     1
  9
$DIMZIN
 70
     8
  9
$DIMBLK
  1

  9
$DIMASO
 70
     1
  9
$DIMSHO
 70
     1
  9
$DIMPOST
  1

  9
$DIMAPOST
  1

  9
$DIMALT
 70
     0
  9
$DIMALTD
 70
     3
  9
$DIMALTF
 40
0.03937007874016
  9
$DIMLFAC
 40
1.0
  9
$DIMTOFL
 70
     1
  9
$DIMTVP
 40
0.0
  9
$DIMTIX
 70
     0
  9
$DIMSOXD
 70
     0
  9
$DIMSAH
 70
     0
  9
$DIMBLK1
  1

  9
$DIMBLK2
  1

  9
$DIMSTYLE
  2
ISO-25
  9
$DIMCLRD
 70
     0
  9
$DIMCLRE
 70
     0
  9
$DIMCLRT
 70
     0
  9
$DIMTFAC
 40
1.0
  9
$DIMGAP
 40
0.625
  9
$DIMJUST
 70
     0
  9
$DIMSD1
 70
     0
  9
$DIMSD2
 70
     0
  9
$DIMTOLJ
 70
     0
  9
$DIMTZIN
 70
     8
  9
$DIMALTZ
 70
     0
  9
$DIMALTTZ
 70
     0
  9
$DIMUPT
 70
     0
  9
$DIMDEC
 70
     2
  9
$DIMTDEC
 70
     2
  9
$DIMALTU
 70
     2
  9
$DIMALTTD
 70
     3
  9
$DIMTXSTY
  7
Standard
  9
$DIMAUNIT
 70
     0
  9
$DIMADEC
 70
     0
  9
$DIMALTRND
 40
0.0
  9
$DIMAZIN
 70
     0
  9
$DIMDSEP
 70
    44
  9
$DIMATFIT
 70
     3
  9
$DIMFRAC
 70
     0
  9
$DIMLDRBLK
  1

  9
$DIMLUNIT
 70
     2
  9
$DIMLWD
 70
    -2
  9
$DIMLWE
 70
    -2
  9
$DIMTMOVE
 70
     0
  9
$DIMFXL
 40
1.0
  9
$DIMFXLON
 70
     0
  9
$DIMJOGANG
 40
0.7853981633974483
  9
$DIMTFILL
 70
     0
  9
$DIMTFILLCLR
 70
     0
  9
$DIMARCSYM
 70
     0
  9
$DIMLTYPE
  6

  9
$DIMLTEX1
  6

  9
$DIMLTEX2
  6

  9
$DIMTXTDIRECTION
 70
     0
  9
$LUNITS
 70
     2
  9
$LUPREC
 70
     4
  9
$SKETCHINC
 40
1.0
  9
$FILLETRAD
 40
10.0
  9
$AUNITS
 70
     0
  9
$AUPREC
 70
     0
  9
$MENU
  1
.
  9
$ELEVATION
 40
0.0
  9
$PELEVATION
 40
0.0
  9
$THICKNESS
 40
0.0
  9
$LIMCHECK
 70
     0
  9
$CHAMFERA
 40
10.0
  9
$CHAMFERB
 40
10.0
  9
$CHAMFERC
 40
20.0
  9
$CHAMFERD
 40
0.0
  9
$SKPOLY
 70
     0
  9
$TDCREATE
 40
2457953.400774085
  9
$TDUCREATE
 40
2457953.025774085
  9
$TDUPDATE
 40
2457953.400774097
  9
$TDUUPDATE
 40
2457953.025774097
  9
$TDINDWG
 40
0.0000000116
  9
$TDUSRTIMER
 40
0.0000000116
  9
$USRTIMER
 70
     1
  9
$ANGBASE
 50
0.0
  9
$ANGDIR
 70
     0
  9
$PDMODE
 70
     0
  9
$PDSIZE
 40
0.0
  9
$PLINEWID
 40
0.0
  9
$SPLFRAME
 70
     0
  9
$SPLINETYPE
 70
     6
  9
$SPLINESEGS
 70
     8
  9
$HANDSEED
  5
360
  9
$SURFTAB1
 70
     6
  9
$SURFTAB2
 70
     6
  9
$SURFTYPE
 70
     6
  9
$SURFU
 70
     6
  9
$SURFV
 70
     6
  9
$UCSBASE
  2

  9
$UCSNAME
  2

  9
$UCSORG
 10
0.0
 20
0.0
 30
0.0
  9
$UCSXDIR
 10
1.0
 20
0.0
 30
0.0
  9
$UCSYDIR
 10
0.0
 20
1.0
 30
0.0
  9
$UCSORTHOREF
  2

  9
$UCSORTHOVIEW
 70
     0
  9
$UCSORGTOP
 10
0.0
 20
0.0
 30
0.0
  9
$UCSORGBOTTOM
 10
0.0
 20
0.0
 30
0.0
  9
$UCSORGLEFT
 10
0.0
 20
0.0
 30
0.0
  9
$UCSORGRIGHT
 10
0.0
 20
0.0
 30
0.0
  9
$UCSORGFRONT
 10
0.0
 20
0.0
 30
0.0
  9
$UCSORGBACK
 10
0.0
 20
0.0
 30
0.0
  9
$PUCSBASE
  2

  9
$PUCSNAME
  2

  9
$PUCSORG
 10
0.0
 20
0.0
 30
0.0
  9
$PUCSXDIR
 10
1.0
 20
0.0
 30
0.0
  9
$PUCSYDIR
 10
0.0
 20
1.0
 30
0.0
  9
$PUCSORTHOREF
  2

  9
$PUCSORTHOVIEW
 70
     0
  9
$PUCSORGTOP
 10
0.0
 20
0.0
 30
0.0
  9
$PUCSORGBOTTOM
 10
0.0
 20
0.0
 30
0.0
  9
$PUCSORGLEFT
 10
0.0
 20
0.0
 30
0.0
  9
$PUCSORGRIGHT
 10
0.0
 20
0.0
 30
0.0
  9
$PUCSORGFRONT
 10
0.0
 20
0.0
 30
0.0
  9
$PUCSORGBACK
 10
0.0
 20
0.0
 30
0.0
  9
$USERI1
 70
     0
  9
$USERI2
 70
     0
  9
$USERI3
 70
     0
  9
$USERI4
 70
     0
  9
$USERI5
 70
     0
  9
$USERR1
 40
0.0
  9
$USERR2
 40
0.0
  9
$USERR3
 40
0.0
  9
$USERR4
 40
0.0
  9
$USERR5
 40
0.0
  9
$WORLDVIEW
 70
     1
  9
$SHADEDGE
 70
     3
  9
$SHADEDIF
 70
    70
  9
$TILEMODE
 70
     1
  9
$MAXACTVP
 70
    64
  9
$PINSBASE
 10
0.0
 20
0.0
 30
0.0
  9
$PLIMCHECK
 70
     0
  9
$PEXTMIN
 10
1.000000000000000E+20
 20
1.000000000000000E+20
 30
1.000000000000000E+20
  9
$PEXTMAX
 10
-1.000000000000000E+20
 20
-1.000000000000000E+20
 30
-1.000000000000000E+20
  9
$PLIMMIN
 10
0.0
 20
0.0
  9
$PLIMMAX
 10
420.0
 20
297.0
  9
$UNITMODE
 70
     0
  9
$VISRETAIN
 70
     1
  9
$PLINEGEN
 70
     0
  9
$PSLTSCALE
 70
     1
  9
$TREEDEPTH
 70
  3020
  9
$CMLSTYLE
  2
Standard
  9
$CMLJUST
 70
     0
  9
$CMLSCALE
 40
20.0
  9
$PROXYGRAPHICS
 70
     1
  9
$MEASUREMENT
 70
     1
  9
$CELWEIGHT
370
    -1
  9
$ENDCAPS
280
     0
  9
$JOINSTYLE
280
     0
  9
$LWDISPLAY
290
     0
  9
$INSUNITS
 70
     4
  9
$HYPERLINKBASE
  1

  9
$STYLESHEET
  1

  9
$XEDIT
290
     1
  9
$CEPSNTYPE
380
     0
  9
$PSTYLEMODE
290
     1
  9
$FINGERPRINTGUID
  2
{FD64BA25-A357-42E3-94DD-08307AE68219}
  9
$VERSIONGUID
  2
{FAEB1C32-E019-11D5-929B-00C0DF256EC4}
  9
$EXTNAMES
290
     1
  9
$PSVPSCALE
 40
0.0
  9
$OLESTARTUP
290
     0
  9
$SORTENTS
280
   127
  9
$INDEXCTL
280
     0
  9
$HIDETEXT
280
     1
  9
$XCLIPFRAME
280
     2
  9
$HALOGAP
280
     0
  9
$OBSCOLOR
 70
   257
  9
$OBSLTYPE
280
     0
  9
$INTERSECTIONDISPLAY
280
     0
  9
$INTERSECTIONCOLOR
 70
   257
  9
$DIMASSOC
280
     2
  9
$PROJECTNAME
  1

  9
$CAMERADISPLAY
290
     0
  9
$LENSLENGTH
 40
50.0
  9
$CAMERAHEIGHT
 40
0.0
  9
$STEPSPERSEC
 40
2.0
  9
$STEPSIZE
 40
6.0
  9
$3DDWFPREC
 40
2.0
  9
$PSOLWIDTH
 40
5.0
  9
$PSOLHEIGHT
 40
80.0
  9
$LOFTANG1
 40
1.570796326794897
  9
$LOFTANG2
 40
1.570796326794897
  9
$LOFTMAG1
 40
0.0
  9
$LOFTMAG2
 40
0.0
  9
$LOFTPARAM
 70
     7
  9
$LOFTNORMALS
280
     1
  9
$LATITUDE
 40
37.795
  9
$LONGITUDE
 40
-122.394
  9
$NORTHDIRECTION
 40
0.0
  9
$TIMEZONE
 70
 -8000
  9
$LIGHTGLYPHDISPLAY
280
     1
  9
$TILEMODELIGHTSYNCH
280
     1
  9
$SOLIDHIST
280
     1
  9
$SHOWHIST
280
     1
  9
$DWFFRAME
280
     2
  9
$DGNFRAME
280
     2
  9
$REALWORLDSCALE
290
     1
  9
$INTERFERECOLOR
 62
   256
  9
$CSHADOW
280
     0
  9
$SHADOWPLANELOCATION
 40
0.0
  0
ENDSEC
  0
SECTION
  2
CLASSES
  0
CLASS
  1
ACDBDICTIONARYWDFLT
  2
AcDbDictionaryWithDefault
  3
ObjectDBX Classes
 90
        0
 91
        4
280
     0
281
     0
  0
CLASS
  1
VISUALSTYLE
  2
AcDbVisualStyle
  3
ObjectDBX Classes
 90
     4095
 91
        4
280
     0
281
     0
  0
CLASS
  1
MATERIAL
  2
AcDbMaterial
  3
ObjectDBX Classes
 90
     1153
 91
        4
280
     0
281
     0
  0
ENDSEC
  0
SECTION
  2
TABLES
  0
TABLE
  2
VPORT
  5
8
330
0
100
AcDbSymbolTable
 70
     1
  0
VPORT
  5
29
330
8
100
AcDbSymbolTableRecord
100
AcDbViewportTableRecord
  2
*Active
 70
     0
 10
0.0
 20
0.0
 11
1.0
 21
1.0
 12
0.0
 22
0.0
 13
0.0
 23
0.0
 14
10.0
 24
10.0
 15
10.0
 25
10.0
 16
0.0
 26
0.0
 36
1.0
 17
0.0
 27
0.0
 37
0.0
 40
6930.000000000001
 41
1.414285714285714
 42
50.0
 43
0.0
 44
0.0
 50
0.0
 51
0.0
 71
     0
 72
 10000
 73
     1
 74
     3
 75
     0
 76
     0
 77
     0
 78
     0
281
     0
 65
     1
110
0.0
120
0.0
130
0.0
111
1.0
121
0.0
131
0.0
112
0.0
122
1.0
132
0.0
 79
     0
146
0.0
 60
     3
 61
     5
292
     1
282
     1
141
0.0
142
0.0
 63
   250
  0
ENDTAB
  0
TABLE
  2
LTYPE
  5
5
330
0
100
AcDbSymbolTable
 70
     2
  0
LTYPE
  5
14
330
5
100
AcDbSymbolTableRecord
100
AcDbLinetypeTableRecord
  2
ByBlock
 70
     0
  3

 72
    65
 73
     0
 40
0.0
  0
LTYPE
  5
15
330
5
100
AcDbSymbolTableRecord
100
AcDbLinetypeTableRecord
  2
ByLayer
 70
     0
  3

 72
    65
 73
     0
 40
0.0
  0
LTYPE
  5
16
330
5
100
AcDbSymbolTableRecord
100
AcDbLinetypeTableRecord
  2
Continuous
 70
     0
  3
Solid line
 72
    65
 73
     0
 40
0.0
  0
LTYPE
  5
3F
330
5
100
AcDbSymbolTableRecord
100
AcDbLinetypeTableRecord
  2
JWW_DASHED1
 70
     0
  3
-  --  --  --  --  --  --  --  -
 72
    65
 73
     2
 40
1.693333333333333
 49
0.8466666666666667
 74
     0
 49
-0.8466666666666667
 74
     0
  0
ENDTAB
  0
TABLE
  2
LAYER
  5
2
330
0
100
AcDbSymbolTable
 70
     3
  0
LAYER
  5
10
330
2
100
AcDbSymbolTableRecord
100
AcDbLayerTableRecord
  2
0
 70
     0
 62
     7
  6
Continuous
370
    -3
390
F
347
3E
  0
LAYER
  5
40
330
2
100
AcDbSymbolTableRecord
100
AcDbLayerTableRecord
  2
0-0
 70
     0
 62
     7
  6
Continuous
370
    -3
390
F
347
3E
  0
LAYER
  5
41
330
2
100
AcDbSymbolTableRecord
100
AcDbLayerTableRecord
  2
寸法
 70
     0
 62
     7
  6
Continuous
370
    -3
390
F
347
3E
  0
ENDTAB
  0
TABLE
  2
STYLE
  5
3
330
0
100
AcDbSymbolTable
 70
     1
  0
STYLE
  5
11
330
3
100
AcDbSymbolTableRecord
100
AcDbTextStyleTableRecord
  2
Standard
 70
     0
 40
0.0
 41
1.0
 50
0.0
 71
     0
 42
2.5
  3
txt
  4

  0
ENDTAB
  0
TABLE
  2
VIEW
  5
6
330
0
100
AcDbSymbolTable
 70
     0
  0
ENDTAB
  0
TABLE
  2
UCS
  5
7
330
0
100
AcDbSymbolTable
 70
     0
  0
ENDTAB
  0
TABLE
  2
APPID
  5
9
330
0
100
AcDbSymbolTable
 70
     1
  0
APPID
  5
12
330
9
100
AcDbSymbolTableRecord
100
AcDbRegAppTableRecord
  2
ACAD
 70
     0
  0
ENDTAB
  0
TABLE
  2
DIMSTYLE
  5
A
330
0
100
AcDbSymbolTable
 70
     1
100
AcDbDimStyleTable
  0
DIMSTYLE
105
27
330
A
100
AcDbSymbolTableRecord
100
AcDbDimStyleTableRecord
  2
ISO-25
 70
     0
 41
2.5
 42
0.625
 43
3.75
 44
1.25
 73
     0
 74
     0
 77
     1
 78
     8
140
2.5
141
2.5
143
0.03937007874016
147
0.625
171
     3
172
     1
178
     0
271
     2
272
     2
274
     3
278
    44
283
     0
284
     8
340
11
  0
ENDTAB
  0
TABLE
  2
BLOCK_RECORD
  5
1
330
0
100
AcDbSymbolTable
 70
     1
  0
BLOCK_RECORD
  5
1F
330
1
100
AcDbSymbolTableRecord
100
AcDbBlockTableRecord
  2
*Model_Space
340
22
 70
     0
280
     1
281
     0
  0
BLOCK_RECORD
  5
1B
330
1
100
AcDbSymbolTableRecord
100
AcDbBlockTableRecord
  2
*Paper_Space
340
1E
 70
     0
280
     1
281
     0
  0
BLOCK_RECORD
  5
23
330
1
100
AcDbSymbolTableRecord
100
AcDbBlockTableRecord
  2
*Paper_Space0
340
26
 70
     0
280
     1
281
     0
  0
ENDTAB
  0
ENDSEC
  0
SECTION
  2
BLOCKS
  0
BLOCK
  5
20
330
1F
100
AcDbEntity
  8
0
100
AcDbBlockBegin
  2
*Model_Space
 70
     0
 10
0.0
 20
0.0
 30
0.0
  3
*Model_Space
  1

  0
ENDBLK
  5
21
330
1F
100
AcDbEntity
  8
0
100
AcDbBlockEnd
  0
BLOCK
  5
1C
330
1B
100
AcDbEntity
 67
     1
  8
0
100
AcDbBlockBegin
  2
*Paper_Space
 70
     0
 10
0.0
 20
0.0
 30
0.0
  3
*Paper_Space
  1

  0
ENDBLK
  5
1D
330
1B
100
AcDbEntity
 67
     1
  8
0
100
AcDbBlockEnd
  0
BLOCK
  5
24
330
23
100
AcDbEntity
  8
0
100
AcDbBlockBegin
  2
*Paper_Space0
 70
     0
 10
0.0
 20
0.0
 30
0.0
  3
*Paper_Space0
  1

  0
ENDBLK
  5
25
330
23
100
AcDbEntity
  8
0
100
AcDbBlockEnd
  0
ENDSEC
  0
SECTION
  2
ENTITIES
  0
LINE
  5
42
330
1F
100
AcDbEntity
  8
0-0
  6
Continuous
 62
    92
370
    13
100
AcDbLine
 10
1646.146520329063
 20
-1066.857915973174
 30
0.0
 11
-1587.853479670935
 21
-1066.857915973174
 31
0.0
  0
LINE
  5
43
330
1F
100
AcDbEntity
  8
0-0
  6
Continuous
 62
    92
370
    13
100
AcDbLine
 10
1616.146520329063
 20
-1051.857915973174
 30
0.0
 11
-1557.853479670935
 21
-1051.857915973174
 31
0.0
  0
ARC
  5
44
330
1F
100
AcDbEntity
  8
0-0
  6
Continuous
 62
    92
370
    13
100
AcDbCircle
 10
-1529.353479670934
 20
-29.85791597317458
 30
0.0
 40
1.5
100
AcDbArc
 50
90.0
 51
180.0
  0
LINE
  5
45
330
1F
100
AcDbEntity
  8
0-0
  6
Continuous
 62
    92
370
    13
100
AcDbLine
 10
-1490.353479670935
 20
-28.35791597317424
 30
0.0
 11
-1529.353479670934
 21
-28.35791597317424
 31
0.0
  0
ARC
  5
46
330
1F
100
AcDbEntity
  8
0-0
  6
Continuous
 62
    92
370
    13
100
AcDbCircle
 10
-1490.353479670935
 20
-29.85791597317458
 30
0.0
 40
1.5
100
AcDbArc
 50
0.0
 51
90.00000000000001
  0
LINE
  5
47
330
1F
100
AcDbEntity
  8
0-0
  6
Continuous
 62
    92
370
    13
100
AcDbLine
 10
-1488.853479670935
 20
-148.8579159731738
 30
0.0
 11
-1488.853479670935
 21
-29.85791597317458
 31
0.0
  0
ARC
  5
48
330
1F
100
AcDbEntity
  8
0-0
  6
Continuous
 62
    92
370
    13
100
AcDbCircle
 10
-1490.353479670935
 20
-148.8579159731738
 30
0.0
 40
1.5
100
AcDbArc
 50
270.0
 51
0.0
  0
LINE
  5
49
330
1F
100
AcDbEntity
  8
0-0
  6
Continuous
 62
    92
370
    13
100
AcDbLine
 10
-1529.353479670934
 20
-150.3579159731758
 30
0.0
 11
-1490.353479670935
 21
-150.3579159731758
 31
0.0
  0
LINE
  5
4A
330
1F
100
AcDbEntity
  8
0-0
  6
Continuous
 62
    92
370
    13
100
AcDbLine
 10
-1530.853479670934
 20
-148.8579159731738
 30
0.0
 11
-1530.853479670934
 21
-29.85791597317458
 31
0.0
  0
ARC
  5
4B
330
1F
100
AcDbEntity
  8
0-0
  6
Continuous
 62
    92
370
    13
100
AcDbCircle
 10
-1529.353479670934
 20
-148.8579159731738
 30
0.0
 40
1.5
100
AcDbArc
 50
180.0
 51
270.0
  0
ARC
  5
4C
330
1F
100
AcDbEntity
  8
0-0
  6
Continuous
 62
     7
370
     9
100
AcDbCircle
 10
-1509.853479670935
 20
-118.9579159731737
 30
0.0
 40
15.0
100
AcDbArc
 50
180.0
 51
0.0
  0
ARC
  5
4D
330
1F
100
AcDbEntity
  8
0-0
  6
Continuous
 62
     7
370
     9
100
AcDbCircle
 10
-1509.853479670935
 20
-59.75791597317382
 30
0.0
 40
15.0
100
AcDbArc
 50
0.0
 51
180.0
  0
LINE
  5
4E
330
1F
100
AcDbEntity
  8
0-0
  6
Continuous
 62
     7
370
     9
100
AcDbLine
 10
-1494.853479670935
 20
-118.9579159731737
 30
0.0
 11
-1494.853479670935
 21
-59.75791597317382
 31
0.0
  0
LINE
  5
4F
330
1F
100
AcDbEntity
  8
0-0
  6
Continuous
 62
     7
370
     9
100
AcDbLine
 10
-1524.853479670935
 20
-59.75791597317382
 30
0.0
 11
-1524.853479670935
 21
-118.9579159731737
 31
0.0
  0
ARC
  5
50
330
1F
100
AcDbEntity
  8
0-0
  6
Continuous
 62
    92
370
    13
100
AcDbCircle
 10
-41.35347967093338
 20
-29.85791597317458
 30
0.0
 40
1.5
100
AcDbArc
 50
90.0
 51
180.0
  0
LINE
  5
51
330
1F
100
AcDbEntity
  8
0-0
  6
Continuous
 62
    92
370
    13
100
AcDbLine
 10
-2.353479670934746
 20
-28.35791597317424
 30
0.0
 11
-41.35347967093338
 21
-28.35791597317424
 31
0.0
  0
ARC
  5
52
330
1F
100
AcDbEntity
  8
0-0
  6
Continuous
 62
    92
370
    13
100
AcDbCircle
 10
-2.353479670934746
 20
-29.85791597317458
 30
0.0
 40
1.5
100
AcDbArc
 50
0.0
 51
90.00000000000001
  0
LINE
  5
53
330
1F
100
AcDbEntity
  8
0-0
  6
Continuous
 62
    92
370
    13
100
AcDbLine
 10
-0.853479670934405
 20
-148.8579159731738
 30
0.0
 11
-0.853479670934405
 21
-29.85791597317458
 31
0.0
  0
ARC
  5
54
330
1F
100
AcDbEntity
  8
0-0
  6
Continuous
 62
    92
370
    13
100
AcDbCircle
 10
-2.353479670934746
 20
-148.8579159731738
 30
0.0
 40
1.5
100
AcDbArc
 50
270.0
 51
0.0
  0
LINE
  5
55
330
1F
100
AcDbEntity
  8
0-0
  6
Continuous
 62
    92
370
    13
100
AcDbLine
 10
-41.35347967093338
 20
-150.3579159731758
 30
0.0
 11
-2.353479670934746
 21
-150.3579159731758
 31
0.0
  0
LINE
  5
56
330
1F
100
AcDbEntity
  8
0-0
  6
Continuous
 62
    92
370
    13
100
AcDbLine
 10
-42.85347967093372
 20
-148.8579159731738
 30
0.0
 11
-42.85347967093372
 21
-29.85791597317458
 31
0.0
  0
ARC
  5
57
330
1F
100
AcDbEntity
  8
0-0
  6
Continuous
 62
    92
370
    13
100
AcDbCircle
 10
-41.35347967093338
 20
-148.8579159731738
 30
0.0
 40
1.5
100
AcDbArc
 50
180.0
 51
270.0
  0
ARC
  5
58
330
1F
100
AcDbEntity
  8
0-0
  6
Continuous
 62
     7
370
     9
100
AcDbCircle
 10
-21.85347967093406
 20
-118.9579159731737
 30
0.0
 40
15.0
100
AcDbArc
 50
180.0
 51
0.0
  0
ARC
  5
59
330
1F
100
AcDbEntity
  8
0-0
  6
Continuous
 62
     7
370
     9
100
AcDbCircle
 10
-21.85347967093406
 20
-59.75791597317382
 30
0.0
 40
15.0
100
AcDbArc
 50
0.0
 51
180.0
  0
LINE
  5
5A
330
1F
100
AcDbEntity
  8
0-0
  6
Continuous
 62
     7
370
     9
100
AcDbLine
 10
-6.853479670934064
 20
-118.9579159731737
 30
0.0
 11
-6.853479670934064
 21
-59.75791597317382
 31
0.0
  0
LINE
  5
5B
330
1F
100
AcDbEntity
  8
0-0
  6
Continuous
 62
     7
370
     9
100
AcDbLine
 10
-36.85347967093406
 20
-59.75791597317382
 30
0.0
 11
-36.85347967093406
 21
-118.9579159731737
 31
0.0
  0
ARC
  5
5C
330
1F
100
AcDbEntity
  8
0-0
  6
Continuous
 62
    92
370
    13
100
AcDbCircle
 10
60.64652032906253
 20
-29.85791597317458
 30
0.0
 40
1.5
100
AcDbArc
 50
90.0
 51
180.0
  0
LINE
  5
5D
330
1F
100
AcDbEntity
  8
0-0
  6
Continuous
 62
    92
370
    13
100
AcDbLine
 10
99.64652032906116
 20
-28.35791597317424
 30
0.0
 11
60.64652032906253
 21
-28.35791597317424
 31
0.0
  0
ARC
  5
5E
330
1F
100
AcDbEntity
  8
0-0
  6
Continuous
 62
    92
370
    13
100
AcDbCircle
 10
99.64652032906116
 20
-29.85791597317458
 30
0.0
 40
1.5
100
AcDbArc
 50
0.0
 51
90.00000000000001
  0
LINE
  5
5F
330
1F
100
AcDbEntity
  8
0-0
  6
Continuous
 62
    92
370
    13
100
AcDbLine
 10
101.1465203290615
 20
-148.8579159731738
 30
0.0
 11
101.1465203290615
 21
-29.85791597317458
 31
0.0
  0
ARC
  5
60
330
1F
100
AcDbEntity
  8
0-0
  6
Continuous
 62
    92
370
    13
100
AcDbCircle
 10
99.64652032906116
 20
-148.8579159731738
 30
0.0
 40
1.5
100
AcDbArc
 50
270.0
 51
0.0
  0
LINE
  5
61
330
1F
100
AcDbEntity
  8
0-0
  6
Continuous
 62
    92
370
    13
100
AcDbLine
 10
60.64652032906253
 20
-150.3579159731758
 30
0.0
 11
99.64652032906116
 21
-150.3579159731758
 31
0.0
  0
LINE
  5
62
330
1F
100
AcDbEntity
  8
0-0
  6
Continuous
 62
    92
370
    13
100
AcDbLine
 10
59.14652032906218
 20
-148.8579159731738
 30
0.0
 11
59.14652032906218
 21
-29.85791597317458
 31
0.0
  0
ARC
  5
63
330
1F
100
AcDbEntity
  8
0-0
  6
Continuous
 62
    92
370
    13
100
AcDbCircle
 10
60.64652032906253
 20
-148.8579159731738
 30
0.0
 40
1.5
100
AcDbArc
 50
180.0
 51
270.0
  0
ARC
  5
64
330
1F
100
AcDbEntity
  8
0-0
  6
Continuous
 62
     7
370
     9
100
AcDbCircle
 10
80.14652032906184
 20
-118.9579159731737
 30
0.0
 40
15.0
100
AcDbArc
 50
180.0
 51
0.0
  0
ARC
  5
65
330
1F
100
AcDbEntity
  8
0-0
  6
Continuous
 62
     7
370
     9
100
AcDbCircle
 10
80.14652032906184
 20
-59.75791597317382
 30
0.0
 40
15.0
100
AcDbArc
 50
0.0
 51
180.0
  0
LINE
  5
66
330
1F
100
AcDbEntity
  8
0-0
  6
Continuous
 62
     7
370
     9
100
AcDbLine
 10
95.14652032906184
 20
-118.9579159731737
 30
0.0
 11
95.14652032906184
 21
-59.75791597317382
 31
0.0
  0
LINE
  5
67
330
1F
100
AcDbEntity
  8
0-0
  6
Continuous
 62
     7
370
     9
100
AcDbLine
 10
65.14652032906184
 20
-59.75791597317382
 30
0.0
 11
65.14652032906184
 21
-118.9579159731737
 31
0.0
  0
ARC
  5
68
330
1F
100
AcDbEntity
  8
0-0
  6
Continuous
 62
    92
370
    13
100
AcDbCircle
 10
1548.646520329066
 20
-29.85791597317458
 30
0.0
 40
1.5
100
AcDbArc
 50
90.0
 51
180.0
  0
LINE
  5
69
330
1F
100
AcDbEntity
  8
0-0
  6
Continuous
 62
    92
370
    13
100
AcDbLine
 10
1587.646520329066
 20
-28.35791597317424
 30
0.0
 11
1548.646520329066
 21
-28.35791597317424
 31
0.0
  0
ARC
  5
6A
330
1F
100
AcDbEntity
  8
0-0
  6
Continuous
 62
    92
370
    13
100
AcDbCircle
 10
1587.646520329066
 20
-29.85791597317458
 30
0.0
 40
1.5
100
AcDbArc
 50
0.0
 51
90.00000000000001
  0
LINE
  5
6B
330
1F
100
AcDbEntity
  8
0-0
  6
Continuous
 62
    92
370
    13
100
AcDbLine
 10
1589.146520329066
 20
-148.8579159731738
 30
0.0
 11
1589.146520329066
 21
-29.85791597317458
 31
0.0
  0
ARC
  5
6C
330
1F
100
AcDbEntity
  8
0-0
  6
Continuous
 62
    92
370
    13
100
AcDbCircle
 10
1587.646520329066
 20
-148.8579159731738
 30
0.0
 40
1.5
100
AcDbArc
 50
270.0
 51
0.0
  0
LINE
  5
6D
330
1F
100
AcDbEntity
  8
0-0
  6
Continuous
 62
    92
370
    13
100
AcDbLine
 10
1548.646520329066
 20
-150.3579159731758
 30
0.0
 11
1587.646520329066
 21
-150.3579159731758
 31
0.0
  0
LINE
  5
6E
330
1F
100
AcDbEntity
  8
0-0
  6
Continuous
 62
    92
370
    13
100
AcDbLine
 10
1547.146520329066
 20
-148.8579159731738
 30
0.0
 11
1547.146520329066
 21
-29.85791597317458
 31
0.0
  0
ARC
  5
6F
330
1F
100
AcDbEntity
  8
0-0
  6
Continuous
 62
    92
370
    13
100
AcDbCircle
 10
1548.646520329066
 20
-148.8579159731738
 30
0.0
 40
1.5
100
AcDbArc
 50
180.0
 51
270.0
  0
ARC
  5
70
330
1F
100
AcDbEntity
  8
0-0
  6
Continuous
 62
     7
370
     9
100
AcDbCircle
 10
1568.146520329066
 20
-118.9579159731737
 30
0.0
 40
15.0
100
AcDbArc
 50
180.0
 51
0.0
  0
ARC
  5
71
330
1F
100
AcDbEntity
  8
0-0
  6
Continuous
 62
     7
370
     9
100
AcDbCircle
 10
1568.146520329066
 20
-59.75791597317382
 30
0.0
 40
15.0
100
AcDbArc
 50
0.0
 51
180.0
  0
LINE
  5
72
330
1F
100
AcDbEntity
  8
0-0
  6
Continuous
 62
     7
370
     9
100
AcDbLine
 10
1583.146520329066
 20
-118.9579159731737
 30
0.0
 11
1583.146520329066
 21
-59.75791597317382
 31
0.0
  0
LINE
  5
73
330
1F
100
AcDbEntity
  8
0-0
  6
Continuous
 62
     7
370
     9
100
AcDbLine
 10
1553.146520329066
 20
-59.75791597317382
 30
0.0
 11
1553.146520329066
 21
-118.9579159731737
 31
0.0
  0
LINE
  5
74
330
1F
100
AcDbEntity
  8
0-0
  6
Continuous
 62
    92
370
    13
100
AcDbLine
 10
-1557.853479670935
 20
-1046.857915973175
 30
0.0
 11
29.14652032906389
 21
-1046.857915973175
 31
0.0
  0
LINE
  5
75
330
1F
100
AcDbEntity
  8
0-0
  6
Continuous
 62
    92
370
    13
100
AcDbLine
 10
1616.146520329063
 20
-1046.857915973175
 30
0.0
 11
29.14652032906389
 21
-1046.857915973175
 31
0.0
  0
LINE
  5
76
330
1F
100
AcDbEntity
  8
0-0
  6
JWW_DASHED1
 62
   120
370
     5
100
AcDbLine
 10
-1557.853479670935
 20
-1046.857915973175
 30
0.0
 11
-1560.853479670936
 21
-1046.857915973175
 31
0.0
  0
LINE
  5
77
330
1F
100
AcDbEntity
  8
0-0
  6
JWW_DASHED1
 62
   120
370
     5
100
AcDbLine
 10
1616.146520329063
 20
-1046.857915973175
 30
0.0
 11
1619.146520329064
 21
-1046.857915973175
 31
0.0
  0
LINE
  5
78
330
1F
100
AcDbEntity
  8
0-0
  6
Continuous
 62
    92
370
    13
100
AcDbLine
 10
-1587.853479670935
 20
1180.142084026826
 30
0.0
 11
1646.146520329063
 21
1180.142084026826
 31
0.0
  0
LINE
  5
79
330
1F
100
AcDbEntity
  8
0-0
  6
Continuous
 62
    92
370
    13
100
AcDbLine
 10
-1557.853479670935
 20
1144.142084026824
 30
0.0
 11
1616.146520329063
 21
1144.142084026824
 31
0.0
  0
LINE
  5
7A
330
1F
100
AcDbEntity
  8
0-0
  6
Continuous
 62
    92
370
    13
100
AcDbLine
 10
1616.146520329063
 20
-1066.857915973174
 30
0.0
 11
1616.146520329063
 21
1180.142084026826
 31
0.0
  0
LINE
  5
7B
330
1F
100
AcDbEntity
  8
0-0
  6
Continuous
 62
    92
370
    13
100
AcDbLine
 10
-1557.853479670935
 20
-1066.857915973174
 30
0.0
 11
-1557.853479670935
 21
1180.142084026826
 31
0.0
  0
LINE
  5
7C
330
1F
100
AcDbEntity
  8
0-0
  6
Continuous
 62
    92
370
    13
100
AcDbLine
 10
1646.146520329063
 20
-1066.857915973174
 30
0.0
 11
1646.146520329063
 21
1180.142084026826
 31
0.0
  0
LINE
  5
7D
330
1F
100
AcDbEntity
  8
0-0
  6
Continuous
 62
    92
370
    13
100
AcDbLine
 10
-1587.853479670935
 20
-1066.857915973174
 30
0.0
 11
-1587.853479670935
 21
1180.142084026826
 31
0.0
  0
LINE
  5
7E
330
1F
100
AcDbEntity
  8
0-0
  6
Continuous
 62
    92
370
    13
100
AcDbLine
 10
-780.8534796709362
 20
-1046.857915973175
 30
0.0
 11
-780.8534796709362
 21
1136.142084026825
 31
0.0
  0
LINE
  5
7F
330
1F
100
AcDbEntity
  8
0-0
  6
JWW_DASHED1
 62
   120
370
     5
100
AcDbLine
 10
-750.8534796709362
 20
-1046.857915973175
 30
0.0
 11
-750.8534796709362
 21
1136.142084026825
 31
0.0
  0
LINE
  5
80
330
1F
100
AcDbEntity
  8
0-0
  6
Continuous
 62
    92
370
    13
100
AcDbLine
 10
-1557.853479670935
 20
1136.142084026825
 30
0.0
 11
29.14652032906389
 21
1136.142084026825
 31
0.0
  0
LINE
  5
81
330
1F
100
AcDbEntity
  8
0-0
  6
Continuous
 62
    92
370
    13
100
AcDbLine
 10
29.14652032906389
 20
-1046.857915973175
 30
0.0
 11
29.14652032906389
 21
1136.142084026825
 31
0.0
  0
LINE
  5
82
330
1F
100
AcDbEntity
  8
0-0
  6
Continuous
 62
    92
370
    13
100
AcDbLine
 10
839.1465203290638
 20
-1046.857915973175
 30
0.0
 11
839.1465203290638
 21
1136.142084026825
 31
0.0
  0
LINE
  5
83
330
1F
100
AcDbEntity
  8
0-0
  6
JWW_DASHED1
 62
   120
370
     5
100
AcDbLine
 10
809.1465203290638
 20
-1046.857915973175
 30
0.0
 11
809.1465203290638
 21
1136.142084026825
 31
0.0
  0
LINE
  5
84
330
1F
100
AcDbEntity
  8
0-0
  6
Continuous
 62
    92
370
    13
100
AcDbLine
 10
1616.146520329063
 20
1136.142084026825
 30
0.0
 11
29.14652032906389
 21
1136.142084026825
 31
0.0
  0
LINE
  5
85
330
1F
100
AcDbEntity
  8
0-0
  6
JWW_DASHED1
 62
   120
370
     5
100
AcDbLine
 10
-1560.853479670936
 20
-1046.857915973175
 30
0.0
 11
-1560.853479670936
 21
1136.142084026825
 31
0.0
  0
LINE
  5
86
330
1F
100
AcDbEntity
  8
0-0
  6
JWW_DASHED1
 62
   120
370
     5
100
AcDbLine
 10
-1560.853479670936
 20
1136.142084026825
 30
0.0
 11
-1557.853479670935
 21
1136.142084026825
 31
0.0
  0
LINE
  5
87
330
1F
100
AcDbEntity
  8
0-0
  6
JWW_DASHED1
 62
   120
370
     5
100
AcDbLine
 10
1619.146520329064
 20
-1046.857915973175
 30
0.0
 11
1619.146520329064
 21
1136.142084026825
 31
0.0
  0
LINE
  5
88
330
1F
100
AcDbEntity
  8
0-0
  6
JWW_DASHED1
 62
   120
370
     5
100
AcDbLine
 10
1619.146520329064
 20
1136.142084026825
 30
0.0
 11
1616.146520329063
 21
1136.142084026825
 31
0.0
  0
LINE
  5
89
330
1F
100
AcDbEntity
  8
0-0
  6
Continuous
 62
     7
370
     9
100
AcDbLine
 10
1100.146520329065
 20
-1038.857915973175
 30
0.0
 11
1328.146520329064
 21
-1038.857915973175
 31
0.0
  0
LINE
  5
8A
330
1F
100
AcDbEntity
  8
0-0
  6
Continuous
 62
     7
370
     9
100
AcDbLine
 10
320.1465203290653
 20
-1038.857915973175
 30
0.0
 11
548.1465203290643
 21
-1038.857915973175
 31
0.0
  0
LINE
  5
8B
330
1F
100
AcDbEntity
  8
0-0
  6
Continuous
 62
     7
370
     9
100
AcDbLine
 10
-489.8534796709347
 20
-1038.857915973175
 30
0.0
 11
-261.8534796709358
 21
-1038.857915973175
 31
0.0
  0
LINE
  5
8C
330
1F
100
AcDbEntity
  8
0-0
  6
Continuous
 62
     7
370
     9
100
AcDbLine
 10
-1269.853479670935
 20
-1038.857915973175
 30
0.0
 11
-1041.853479670936
 21
-1038.857915973175
 31
0.0
  0
LINE
  5
8D
330
1F
100
AcDbEntity
  8
0-0
  6
Continuous
 62
    92
370
    13
100
AcDbLine
 10
-1041.853479670936
 20
1136.142084026826
 30
0.0
 11
-1041.853479670936
 21
-1046.857915973175
 31
0.0
  0
LINE
  5
8E
330
1F
100
AcDbEntity
  8
0-0
  6
Continuous
 62
    92
370
    13
100
AcDbLine
 10
-261.8534796709358
 20
1136.142084026826
 30
0.0
 11
-261.8534796709358
 21
-1046.857915973175
 31
0.0
  0
LINE
  5
8F
330
1F
100
AcDbEntity
  8
0-0
  6
Continuous
 62
    92
370
    13
100
AcDbLine
 10
548.1465203290643
 20
1136.142084026826
 30
0.0
 11
548.1465203290643
 21
-1046.857915973175
 31
0.0
  0
LINE
  5
90
330
1F
100
AcDbEntity
  8
0-0
  6
Continuous
 62
    92
370
    13
100
AcDbLine
 10
1100.146520329065
 20
1136.142084026826
 30
0.0
 11
1100.146520329065
 21
-1046.857915973175
 31
0.0
  0
LINE
  5
91
330
1F
100
AcDbEntity
  8
0-0
  6
Continuous
 62
    92
370
    13
100
AcDbLine
 10
320.1465203290653
 20
1136.142084026826
 30
0.0
 11
320.1465203290653
 21
-1046.857915973175
 31
0.0
  0
LINE
  5
92
330
1F
100
AcDbEntity
  8
0-0
  6
Continuous
 62
    92
370
    13
100
AcDbLine
 10
-489.8534796709347
 20
1136.142084026826
 30
0.0
 11
-489.8534796709347
 21
-1046.857915973175
 31
0.0
  0
LINE
  5
93
330
1F
100
AcDbEntity
  8
0-0
  6
Continuous
 62
    92
370
    13
100
AcDbLine
 10
-1269.853479670935
 20
1136.142084026826
 30
0.0
 11
-1269.853479670935
 21
-1046.857915973175
 31
0.0
  0
LINE
  5
94
330
1F
100
AcDbEntity
  8
0-0
  6
Continuous
 62
    92
370
    13
100
AcDbLine
 10
1328.146520329064
 20
1136.142084026826
 30
0.0
 11
1328.146520329064
 21
-1046.857915973175
 31
0.0
  0
LINE
  5
95
330
1F
100
AcDbEntity
  8
0-0
  6
Continuous
 62
     7
370
     9
100
AcDbLine
 10
1100.146520329065
 20
1128.142084026826
 30
0.0
 11
1328.146520329064
 21
1128.142084026826
 31
0.0
  0
LINE
  5
96
330
1F
100
AcDbEntity
  8
0-0
  6
Continuous
 62
     7
370
     9
100
AcDbLine
 10
320.1465203290653
 20
1128.142084026826
 30
0.0
 11
548.1465203290643
 21
1128.142084026826
 31
0.0
  0
LINE
  5
97
330
1F
100
AcDbEntity
  8
0-0
  6
Continuous
 62
     7
370
     9
100
AcDbLine
 10
-489.8534796709347
 20
1128.142084026826
 30
0.0
 11
-261.8534796709358
 21
1128.142084026826
 31
0.0
  0
LINE
  5
98
330
1F
100
AcDbEntity
  8
0-0
  6
Continuous
 62
     7
370
     9
100
AcDbLine
 10
-1269.853479670935
 20
1128.142084026825
 30
0.0
 11
-1041.853479670936
 21
1128.142084026825
 31
0.0
  0
LINE
  5
99
330
1F
100
AcDbEntity
  8
0-0
  6
JWW_DASHED1
 62
   120
370
     5
100
AcDbLine
 10
-1269.85347967095
 20
1121.18507289399
 30
0.0
 11
-1262.896468538102
 21
1128.142084026838
 31
0.0
  0
LINE
  5
9A
330
1F
100
AcDbEntity
  8
0-0
  6
JWW_DASHED1
 62
   120
370
     5
100
AcDbLine
 10
-1269.853479670952
 20
1107.042937271674
 30
0.0
 11
-1248.754332915786
 21
1128.14208402684
 31
0.0
  0
LINE
  5
9B
330
1F
100
AcDbEntity
  8
0-0
  6
JWW_DASHED1
 62
   120
370
     5
100
AcDbLine
 10
-1269.853479670953
 20
1092.900801649357
 30
0.0
 11
-1234.61219729347
 21
1128.142084026841
 31
0.0
  0
LINE
  5
9C
330
1F
100
AcDbEntity
  8
0-0
  6
JWW_DASHED1
 62
   120
370
     5
100
AcDbLine
 10
-1269.853479670956
 20
1078.75866602704
 30
0.0
 11
-1220.470061671154
 21
1128.142084026842
 31
0.0
  0
LINE
  5
9D
330
1F
100
AcDbEntity
  8
0-0
  6
JWW_DASHED1
 62
   120
370
     5
100
AcDbLine
 10
-1269.853479670943
 20
1064.616530404739
 30
0.0
 11
-1206.327926048854
 21
1128.142084026828
 31
0.0
  0
LINE
  5
9E
330
1F
100
AcDbEntity
  8
0-0
  6
JWW_DASHED1
 62
   120
370
     5
100
AcDbLine
 10
-1269.853479670945
 20
1050.474394782422
 30
0.0
 11
-1192.185790426538
 21
1128.142084026829
 31
0.0
  0
LINE
  5
9F
330
1F
100
AcDbEntity
  8
0-0
  6
JWW_DASHED1
 62
   120
370
     5
100
AcDbLine
 10
-1269.853479670934
 20
1036.332259160092
 30
0.0
 11
-1178.043654804202
 21
1128.142084026823
 31
0.0
  0
LINE
  5
A0
330
1F
100
AcDbEntity
  8
0-0
  6
JWW_DASHED1
 62
   120
370
     5
100
AcDbLine
 10
-1269.853479670938
 20
1022.190123537746
 30
0.0
 11
-1163.901519181856
 21
1128.142084026828
 31
0.0
  0
LINE
  5
A1
330
1F
100
AcDbEntity
  8
0-0
  6
JWW_DASHED1
 62
   120
370
     5
100
AcDbLine
 10
-1269.85347967094
 20
1008.047987915429
 30
0.0
 11
-1149.759383559538
 21
1128.14208402683
 31
0.0
  0
LINE
  5
A2
330
1F
100
AcDbEntity
  8
0-0
  6
JWW_DASHED1
 62
   120
370
     5
100
AcDbLine
 10
-1269.853479670942
 20
993.9058522931132
 30
0.0
 11
-1135.617247937222
 21
1128.142084026832
 31
0.0
  0
LINE
  5
A3
330
1F
100
AcDbEntity
  8
0-0
  6
JWW_DASHED1
 62
   120
370
     5
100
AcDbLine
 10
-1269.853479670943
 20
979.7637166707965
 30
0.0
 11
-1121.475112314906
 21
1128.142084026835
 31
0.0
  0
LINE
  5
A4
330
1F
100
AcDbEntity
  8
0-0
  6
JWW_DASHED1
 62
   120
370
     5
100
AcDbLine
 10
-1269.853479670947
 20
965.6215810484794
 30
0.0
 11
-1107.3329766926
 21
1128.142084026826
 31
0.0
  0
LINE
  5
A5
330
1F
100
AcDbEntity
  8
0-0
  6
JWW_DASHED1
 62
   120
370
     5
100
AcDbLine
 10
-1269.853479670948
 20
951.4794454261628
 30
0.0
 11
-1093.190841070284
 21
1128.142084026827
 31
0.0
  0
LINE
  5
A6
330
1F
100
AcDbEntity
  8
0-0
  6
JWW_DASHED1
 62
   120
370
     5
100
AcDbLine
 10
-1269.85347967095
 20
937.3373098038461
 30
0.0
 11
-1079.048705447967
 21
1128.142084026829
 31
0.0
  0
LINE
  5
A7
330
1F
100
AcDbEntity
  8
0-0
  6
JWW_DASHED1
 62
   120
370
     5
100
AcDbLine
 10
-1269.853479670953
 20
923.1951741815294
 30
0.0
 11
-1064.906569825652
 21
1128.14208402683
 31
0.0
  0
LINE
  5
A8
330
1F
100
AcDbEntity
  8
0-0
  6
JWW_DASHED1
 62
   120
370
     5
100
AcDbLine
 10
-1269.853479670955
 20
909.0530385592127
 30
0.0
 11
-1050.764434203337
 21
1128.142084026831
 31
0.0
  0
LINE
  5
A9
330
1F
100
AcDbEntity
  8
0-0
  6
JWW_DASHED1
 62
   120
370
     5
100
AcDbLine
 10
-1269.853479670943
 20
894.9109029369097
 30
0.0
 11
-1041.85347967093
 21
1122.910902936923
 31
0.0
  0
LINE
  5
AA
330
1F
100
AcDbEntity
  8
0-0
  6
JWW_DASHED1
 62
   120
370
     5
100
AcDbLine
 10
-1269.853479670945
 20
880.7687673145931
 30
0.0
 11
-1041.853479670932
 21
1108.768767314606
 31
0.0
  0
LINE
  5
AB
330
1F
100
AcDbEntity
  8
0-0
  6
JWW_DASHED1
 62
   120
370
     5
100
AcDbLine
 10
-1269.853479670931
 20
866.6266316922922
 30
0.0
 11
-1041.853479670934
 21
1094.626631692289
 31
0.0
  0
LINE
  5
AC
330
1F
100
AcDbEntity
  8
0-0
  6
JWW_DASHED1
 62
   120
370
     5
100
AcDbLine
 10
-1269.853479670934
 20
852.4844960699755
 30
0.0
 11
-1041.853479670938
 21
1080.484496069972
 31
0.0
  0
LINE
  5
AD
330
1F
100
AcDbEntity
  8
0-0
  6
JWW_DASHED1
 62
   120
370
     5
100
AcDbLine
 10
-1269.853479670936
 20
838.3423604476584
 30
0.0
 11
-1041.853479670939
 21
1066.342360447656
 31
0.0
  0
LINE
  5
AE
330
1F
100
AcDbEntity
  8
0-0
  6
JWW_DASHED1
 62
   120
370
     5
100
AcDbLine
 10
-1269.853479670936
 20
824.2002248253439
 30
0.0
 11
-1041.853479670941
 21
1052.20022482534
 31
0.0
  0
LINE
  5
AF
330
1F
100
AcDbEntity
  8
0-0
  6
JWW_DASHED1
 62
   120
370
     5
100
AcDbLine
 10
-1269.853479670939
 20
810.0580892030268
 30
0.0
 11
-1041.853479670943
 21
1038.058089203023
 31
0.0
  0
LINE
  5
B0
330
1F
100
AcDbEntity
  8
0-0
  6
JWW_DASHED1
 62
   120
370
     5
100
AcDbLine
 10
-1269.853479670942
 20
795.9159535807102
 30
0.0
 11
-1041.853479670945
 21
1023.915953580706
 31
0.0
  0
LINE
  5
B1
330
1F
100
AcDbEntity
  8
0-0
  6
JWW_DASHED1
 62
   120
370
     5
100
AcDbLine
 10
-1269.853479670943
 20
781.7738179583935
 30
0.0
 11
-1041.853479670948
 21
1009.773817958389
 31
0.0
  0
LINE
  5
B2
330
1F
100
AcDbEntity
  8
0-0
  6
JWW_DASHED1
 62
   120
370
     5
100
AcDbLine
 10
-1269.853479670945
 20
767.6316823360769
 30
0.0
 11
-1041.853479670934
 21
995.6316823360886
 31
0.0
  0
LINE
  5
B3
330
1F
100
AcDbEntity
  8
0-0
  6
JWW_DASHED1
 62
   120
370
     5
100
AcDbLine
 10
-1269.853479670947
 20
753.4895467137607
 30
0.0
 11
-1041.853479670936
 21
981.4895467137719
 31
0.0
  0
LINE
  5
B4
330
1F
100
AcDbEntity
  8
0-0
  6
JWW_DASHED1
 62
   120
370
     5
100
AcDbLine
 10
-1269.85347967095
 20
739.3474110914435
 30
0.0
 11
-1041.853479670938
 21
967.3474110914553
 31
0.0
  0
LINE
  5
B5
330
1F
100
AcDbEntity
  8
0-0
  6
JWW_DASHED1
 62
   120
370
     5
100
AcDbLine
 10
-1269.853479670952
 20
725.2052754691273
 30
0.0
 11
-1041.85347967094
 21
953.2052754691387
 31
0.0
  0
LINE
  5
B6
330
1F
100
AcDbEntity
  8
0-0
  6
JWW_DASHED1
 62
   120
370
     5
100
AcDbLine
 10
-1269.853479670956
 20
711.0631398467808
 30
0.0
 11
-1041.853479670944
 21
939.0631398467922
 31
0.0
  0
LINE
  5
B7
330
1F
100
AcDbEntity
  8
0-0
  6
JWW_DASHED1
 62
   120
370
     5
100
AcDbLine
 10
-1269.853479670932
 20
696.9210042244633
 30
0.0
 11
-1041.853479670935
 21
924.9210042244601
 31
0.0
  0
LINE
  5
B8
330
1F
100
AcDbEntity
  8
0-0
  6
JWW_DASHED1
 62
   120
370
     5
100
AcDbLine
 10
-1269.853479670934
 20
682.7788686021466
 30
0.0
 11
-1041.853479670937
 21
910.7788686021439
 31
0.0
  0
LINE
  5
B9
330
1F
100
AcDbEntity
  8
0-0
  6
JWW_DASHED1
 62
   120
370
     5
100
AcDbLine
 10
-1269.853479670936
 20
668.63673297983
 30
0.0
 11
-1041.853479670939
 21
896.6367329798268
 31
0.0
  0
LINE
  5
BA
330
1F
100
AcDbEntity
  8
0-0
  6
JWW_DASHED1
 62
   120
370
     5
100
AcDbLine
 10
-1269.853479670935
 20
654.4945973575168
 30
0.0
 11
-1041.853479670939
 21
882.4945973575119
 31
0.0
  0
LINE
  5
BB
330
1F
100
AcDbEntity
  8
0-0
  6
JWW_DASHED1
 62
   120
370
     5
100
AcDbLine
 10
-1269.853479670937
 20
640.3524617351997
 30
0.0
 11
-1041.853479670943
 21
868.3524617351948
 31
0.0
  0
LINE
  5
BC
330
1F
100
AcDbEntity
  8
0-0
  6
JWW_DASHED1
 62
   120
370
     5
100
AcDbLine
 10
-1269.85347967094
 20
626.2103261128825
 30
0.0
 11
-1041.853479670944
 21
854.2103261128785
 31
0.0
  0
LINE
  5
BD
330
1F
100
AcDbEntity
  8
0-0
  6
JWW_DASHED1
 62
   120
370
     5
100
AcDbLine
 10
-1269.853479670942
 20
612.0681904905659
 30
0.0
 11
-1041.853479670946
 21
840.0681904905615
 31
0.0
  0
LINE
  5
BE
330
1F
100
AcDbEntity
  8
0-0
  6
JWW_DASHED1
 62
   120
370
     5
100
AcDbLine
 10
-1269.853479670945
 20
597.9260548682488
 30
0.0
 11
-1041.853479670932
 21
825.926054868261
 31
0.0
  0
LINE
  5
BF
330
1F
100
AcDbEntity
  8
0-0
  6
JWW_DASHED1
 62
   120
370
     5
100
AcDbLine
 10
-1269.853479670947
 20
583.7839192459326
 30
0.0
 11
-1041.853479670935
 21
811.7839192459439
 31
0.0
  0
LINE
  5
C0
330
1F
100
AcDbEntity
  8
0-0
  6
JWW_DASHED1
 62
   120
370
     5
100
AcDbLine
 10
-1269.853479670948
 20
569.6417836236163
 30
0.0
 11
-1041.853479670938
 21
797.6417836236272
 31
0.0
  0
LINE
  5
C1
330
1F
100
AcDbEntity
  8
0-0
  6
JWW_DASHED1
 62
   120
370
     5
100
AcDbLine
 10
-1269.85347967095
 20
555.4996480012993
 30
0.0
 11
-1041.853479670939
 21
783.499648001311
 31
0.0
  0
LINE
  5
C2
330
1F
100
AcDbEntity
  8
0-0
  6
JWW_DASHED1
 62
   120
370
     5
100
AcDbLine
 10
-1269.853479670953
 20
541.3575123789822
 30
0.0
 11
-1041.853479670941
 21
769.357512378994
 31
0.0
  0
LINE
  5
C3
330
1F
100
AcDbEntity
  8
0-0
  6
JWW_DASHED1
 62
   120
370
     5
100
AcDbLine
 10
-1269.853479670943
 20
527.2153767566774
 30
0.0
 11
-1041.853479670931
 21
755.2153767566901
 31
0.0
  0
LINE
  5
C4
330
1F
100
AcDbEntity
  8
0-0
  6
JWW_DASHED1
 62
   120
370
     5
100
AcDbLine
 10
-1269.853479670946
 20
513.0732411343604
 30
0.0
 11
-1041.853479670932
 21
741.0732411343735
 31
0.0
  0
LINE
  5
C5
330
1F
100
AcDbEntity
  8
0-0
  6
JWW_DASHED1
 62
   120
370
     5
100
AcDbLine
 10
-1269.853479670933
 20
498.9311055120595
 30
0.0
 11
-1041.853479670936
 21
726.9311055120563
 31
0.0
  0
LINE
  5
C6
330
1F
100
AcDbEntity
  8
0-0
  6
JWW_DASHED1
 62
   120
370
     5
100
AcDbLine
 10
-1269.853479670935
 20
484.7889698897424
 30
0.0
 11
-1041.853479670938
 21
712.7889698897401
 31
0.0
  0
LINE
  5
C7
330
1F
100
AcDbEntity
  8
0-0
  6
JWW_DASHED1
 62
   120
370
     5
100
AcDbLine
 10
-1269.853479670937
 20
470.6468342674253
 30
0.0
 11
-1041.853479670939
 21
698.6468342674231
 31
0.0
  0
LINE
  5
C8
330
1F
100
AcDbEntity
  8
0-0
  6
JWW_DASHED1
 62
   120
370
     5
100
AcDbLine
 10
-1269.853479670935
 20
456.5046986451134
 30
0.0
 11
-1041.853479670939
 21
684.5046986451093
 31
0.0
  0
LINE
  5
C9
330
1F
100
AcDbEntity
  8
0-0
  6
JWW_DASHED1
 62
   120
370
     5
100
AcDbLine
 10
-1269.853479670937
 20
442.3625630227963
 30
0.0
 11
-1041.853479670941
 21
670.3625630227928
 31
0.0
  0
LINE
  5
CA
330
1F
100
AcDbEntity
  8
0-0
  6
JWW_DASHED1
 62
   120
370
     5
100
AcDbLine
 10
-1269.853479670939
 20
428.22042740048
 30
0.0
 11
-1041.853479670943
 21
656.2204274004761
 31
0.0
  0
LINE
  5
CB
330
1F
100
AcDbEntity
  8
0-0
  6
JWW_DASHED1
 62
   120
370
     5
100
AcDbLine
 10
-1269.853479670941
 20
414.0782917781638
 30
0.0
 11
-1041.853479670946
 21
642.0782917781589
 31
0.0
  0
LINE
  5
CC
330
1F
100
AcDbEntity
  8
0-0
  6
JWW_DASHED1
 62
   120
370
     5
100
AcDbLine
 10
-1269.853479670943
 20
399.9361561558467
 30
0.0
 11
-1041.853479670931
 21
627.9361561558585
 31
0.0
  0
LINE
  5
CD
330
1F
100
AcDbEntity
  8
0-0
  6
JWW_DASHED1
 62
   120
370
     5
100
AcDbLine
 10
-1269.85347967095
 20
385.7940205334712
 30
0.0
 11
-1041.853479670938
 21
613.794020533483
 31
0.0
  0
LINE
  5
CE
330
1F
100
AcDbEntity
  8
0-0
  6
JWW_DASHED1
 62
   120
370
     5
100
AcDbLine
 10
-1269.853479670952
 20
371.6518849111546
 30
0.0
 11
-1041.853479670941
 21
599.6518849111659
 31
0.0
  0
LINE
  5
CF
330
1F
100
AcDbEntity
  8
0-0
  6
JWW_DASHED1
 62
   120
370
     5
100
AcDbLine
 10
-1269.853479670943
 20
357.5097492888482
 30
0.0
 11
-1041.853479670931
 21
585.5097492888613
 31
0.0
  0
LINE
  5
D0
330
1F
100
AcDbEntity
  8
0-0
  6
JWW_DASHED1
 62
   120
370
     5
100
AcDbLine
 10
-1269.853479670946
 20
343.3676136665315
 30
0.0
 11
-1041.853479670933
 21
571.3676136665441
 31
0.0
  0
LINE
  5
D1
330
1F
100
AcDbEntity
  8
0-0
  6
JWW_DASHED1
 62
   120
370
     5
100
AcDbLine
 10
-1269.853479670933
 20
329.2254780442302
 30
0.0
 11
-1041.853479670936
 21
557.225478044227
 31
0.0
  0
LINE
  5
D2
330
1F
100
AcDbEntity
  8
0-0
  6
JWW_DASHED1
 62
   120
370
     5
100
AcDbLine
 10
-1269.853479670935
 20
315.0833424219131
 30
0.0
 11
-1041.853479670938
 21
543.0833424219109
 31
0.0
  0
LINE
  5
D3
330
1F
100
AcDbEntity
  8
0-0
  6
JWW_DASHED1
 62
   120
370
     5
100
AcDbLine
 10
-1269.853479670937
 20
300.9412067995964
 30
0.0
 11
-1041.853479670939
 21
528.9412067995942
 31
0.0
  0
LINE
  5
D4
330
1F
100
AcDbEntity
  8
0-0
  6
JWW_DASHED1
 62
   120
370
     5
100
AcDbLine
 10
-1269.853479670933
 20
286.7990711772862
 30
0.0
 11
-1041.853479670938
 21
514.7990711772818
 31
0.0
  0
LINE
  5
D5
330
1F
100
AcDbEntity
  8
0-0
  6
JWW_DASHED1
 62
   120
370
     5
100
AcDbLine
 10
-1269.853479670935
 20
272.6569355549691
 30
0.0
 11
-1041.853479670939
 21
500.6569355549651
 31
0.0
  0
LINE
  5
D6
330
1F
100
AcDbEntity
  8
0-0
  6
JWW_DASHED1
 62
   120
370
     5
100
AcDbLine
 10
-1269.853479670937
 20
258.5147999326529
 30
0.0
 11
-1041.853479670943
 21
486.514799932648
 31
0.0
  0
LINE
  5
D7
330
1F
100
AcDbEntity
  8
0-0
  6
JWW_DASHED1
 62
   120
370
     5
100
AcDbLine
 10
-1269.85347967094
 20
244.3726643103358
 30
0.0
 11
-1041.853479670944
 21
472.3726643103309
 31
0.0
  0
LINE
  5
D8
330
1F
100
AcDbEntity
  8
0-0
  6
JWW_DASHED1
 62
   120
370
     5
100
AcDbLine
 10
-1269.853479670942
 20
230.2305286880187
 30
0.0
 11
-1041.853479670947
 21
458.2305286880143
 31
0.0
  0
LINE
  5
D9
330
1F
100
AcDbEntity
  8
0-0
  6
JWW_DASHED1
 62
   120
370
     5
100
AcDbLine
 10
-1269.853479670945
 20
216.088393065702
 30
0.0
 11
-1041.853479670932
 21
444.0883930657142
 31
0.0
  0
LINE
  5
DA
330
1F
100
AcDbEntity
  8
0-0
  6
JWW_DASHED1
 62
   120
370
     5
100
AcDbLine
 10
-1269.853479670947
 20
201.9462574433858
 30
0.0
 11
-1041.853479670935
 21
429.9462574433971
 31
0.0
  0
LINE
  5
DB
330
1F
100
AcDbEntity
  8
0-0
  6
JWW_DASHED1
 62
   120
370
     5
100
AcDbLine
 10
-1269.853479670948
 20
187.8041218210691
 30
0.0
 11
-1041.853479670938
 21
415.8041218210805
 31
0.0
  0
LINE
  5
DC
330
1F
100
AcDbEntity
  8
0-0
  6
JWW_DASHED1
 62
   120
370
     5
100
AcDbLine
 10
-1269.85347967095
 20
173.6619861987525
 30
0.0
 11
-1041.853479670939
 21
401.6619861987634
 31
0.0
  0
LINE
  5
DD
330
1F
100
AcDbEntity
  8
0-0
  6
JWW_DASHED1
 62
   120
370
     5
100
AcDbLine
 10
-1269.853479670945
 20
159.5198505764439
 30
0.0
 11
-1041.853479670931
 21
387.5198505764574
 31
0.0
  0
LINE
  5
DE
330
1F
100
AcDbEntity
  8
0-0
  6
JWW_DASHED1
 62
   120
370
     5
100
AcDbLine
 10
-1269.853479670947
 20
145.3777149541268
 30
0.0
 11
-1041.853479670934
 21
373.3777149541403
 31
0.0
  0
LINE
  5
DF
330
1F
100
AcDbEntity
  8
0-0
  6
JWW_DASHED1
 62
   120
370
     5
100
AcDbLine
 10
-1269.853479670933
 20
131.2355793318264
 30
0.0
 11
-1041.853479670936
 21
359.2355793318237
 31
0.0
  0
LINE
  5
E0
330
1F
100
AcDbEntity
  8
0-0
  6
JWW_DASHED1
 62
   120
370
     5
100
AcDbLine
 10
-1269.853479670935
 20
117.0934437095102
 30
0.0
 11
-1041.853479670938
 21
345.0934437095066
 31
0.0
  0
LINE
  5
E1
330
1F
100
AcDbEntity
  8
0-0
  6
JWW_DASHED1
 62
   120
370
     5
100
AcDbLine
 10
-1269.853479670937
 20
102.9513080871931
 30
0.0
 11
-1041.85347967094
 21
330.9513080871903
 31
0.0
  0
LINE
  5
E2
330
1F
100
AcDbEntity
  8
0-0
  6
JWW_DASHED1
 62
   120
370
     5
100
AcDbLine
 10
-1269.85347967094
 20
88.80917246487599
 30
0.0
 11
-1041.853479670943
 21
316.8091724648733
 31
0.0
  0
LINE
  5
E3
330
1F
100
AcDbEntity
  8
0-0
  6
JWW_DASHED1
 62
   120
370
     5
100
AcDbLine
 10
-1269.853479670935
 20
74.66703684256657
 30
0.0
 11
-1041.853479670939
 21
302.6670368425625
 31
0.0
  0
LINE
  5
E4
330
1F
100
AcDbEntity
  8
0-0
  6
JWW_DASHED1
 62
   120
370
     5
100
AcDbLine
 10
-1269.853479670942
 20
60.52490122019108
 30
0.0
 11
-1041.853479670944
 21
288.5249012201875
 31
0.0
  0
LINE
  5
E5
330
1F
100
AcDbEntity
  8
0-0
  6
JWW_DASHED1
 62
   120
370
     5
100
AcDbLine
 10
-1269.853479670943
 20
46.382765597874
 30
0.0
 11
-1041.853479670931
 21
274.3827655978862
 31
0.0
  0
LINE
  5
E6
330
1F
100
AcDbEntity
  8
0-0
  6
JWW_DASHED1
 62
   120
370
     5
100
AcDbLine
 10
-1269.853479670945
 20
32.24062997555777
 30
0.0
 11
-1041.853479670934
 21
260.2406299755691
 31
0.0
  0
LINE
  5
E7
330
1F
100
AcDbEntity
  8
0-0
  6
JWW_DASHED1
 62
   120
370
     5
100
AcDbLine
 10
-1269.853479670948
 20
18.09849435324153
 30
0.0
 11
-1041.853479670936
 21
246.0984943532524
 31
0.0
  0
LINE
  5
E8
330
1F
100
AcDbEntity
  8
0-0
  6
JWW_DASHED1
 62
   120
370
     5
100
AcDbLine
 10
-1269.85347967095
 20
3.95635873092445
 30
0.0
 11
-1041.853479670939
 21
231.9563587309354
 31
0.0
  0
LINE
  5
E9
330
1F
100
AcDbEntity
  8
0-0
  6
JWW_DASHED1
 62
   120
370
     5
100
AcDbLine
 10
-1269.853479670945
 20
-10.18577689138539
 30
0.0
 11
-1041.853479670931
 21
217.8142231086281
 31
0.0
  0
LINE
  5
EA
330
1F
100
AcDbEntity
  8
0-0
  6
JWW_DASHED1
 62
   120
370
     5
100
AcDbLine
 10
-1269.853479670947
 20
-24.32791251370205
 30
0.0
 11
-1041.853479670934
 21
203.672087486311
 31
0.0
  0
LINE
  5
EB
330
1F
100
AcDbEntity
  8
0-0
  6
JWW_DASHED1
 62
   120
370
     5
100
AcDbLine
 10
-1269.853479670933
 20
-38.47004813600293
 30
0.0
 11
-1041.853479670936
 21
189.5299518639943
 31
0.0
  0
LINE
  5
EC
330
1F
100
AcDbEntity
  8
0-0
  6
JWW_DASHED1
 62
   120
370
     5
100
AcDbLine
 10
-1269.853479670936
 20
-52.61218375831959
 30
0.0
 11
-1041.853479670939
 21
175.3878162416773
 31
0.0
  0
LINE
  5
ED
330
1F
100
AcDbEntity
  8
0-0
  6
JWW_DASHED1
 62
   120
370
     5
100
AcDbLine
 10
-1269.853479670938
 20
-66.75431938063625
 30
0.0
 11
-1041.853479670941
 21
161.2456806193606
 31
0.0
  0
LINE
  5
EE
330
1F
100
AcDbEntity
  8
0-0
  6
JWW_DASHED1
 62
   120
370
     5
100
AcDbLine
 10
-1269.85347967094
 20
-80.8964550029529
 30
0.0
 11
-1041.853479670943
 21
147.1035449970439
 31
0.0
  0
LINE
  5
EF
330
1F
100
AcDbEntity
  8
0-0
  6
JWW_DASHED1
 62
   120
370
     5
100
AcDbLine
 10
-1269.853479670934
 20
-95.03859062526146
 30
0.0
 11
-1041.853479670938
 21
132.9614093747345
 31
0.0
  0
LINE
  5
F0
330
1F
100
AcDbEntity
  8
0-0
  6
JWW_DASHED1
 62
   120
370
     5
100
AcDbLine
 10
-1269.853479670935
 20
-109.1807262475777
 30
0.0
 11
-1041.85347967094
 21
118.8192737524183
 31
0.0
  0
LINE
  5
F1
330
1F
100
AcDbEntity
  8
0-0
  6
JWW_DASHED1
 62
   120
370
     5
100
AcDbLine
 10
-1269.853479670938
 20
-123.3228618698944
 30
0.0
 11
-1041.853479670943
 21
104.6771381301012
 31
0.0
  0
LINE
  5
F2
330
1F
100
AcDbEntity
  8
0-0
  6
JWW_DASHED1
 62
   120
370
     5
100
AcDbLine
 10
-1269.85347967094
 20
-137.464997492211
 30
0.0
 11
-1041.853479670944
 21
90.53500250778413
 31
0.0
  0
LINE
  5
F3
330
1F
100
AcDbEntity
  8
0-0
  6
JWW_DASHED1
 62
   120
370
     5
100
AcDbLine
 10
-1269.853479670942
 20
-151.6071331145281
 30
0.0
 11
-1041.853479670931
 21
76.39286688548367
 31
0.0
  0
LINE
  5
F4
330
1F
100
AcDbEntity
  8
0-0
  6
JWW_DASHED1
 62
   120
370
     5
100
AcDbLine
 10
-1269.853479670945
 20
-165.7492687368448
 30
0.0
 11
-1041.853479670932
 21
62.25073126316744
 31
0.0
  0
LINE
  5
F5
330
1F
100
AcDbEntity
  8
0-0
  6
JWW_DASHED1
 62
   120
370
     5
100
AcDbLine
 10
-1269.853479670947
 20
-179.8914043591618
 30
0.0
 11
-1041.853479670935
 21
48.10859564085035
 31
0.0
  0
LINE
  5
F6
330
1F
100
AcDbEntity
  8
0-0
  6
JWW_DASHED1
 62
   120
370
     5
100
AcDbLine
 10
-1269.853479670948
 20
-194.0335399814781
 30
0.0
 11
-1041.853479670938
 21
33.96646001853327
 31
0.0
  0
LINE
  5
F7
330
1F
100
AcDbEntity
  8
0-0
  6
JWW_DASHED1
 62
   120
370
     5
100
AcDbLine
 10
-1269.853479670945
 20
-208.1756756037883
 30
0.0
 11
-1041.853479670932
 21
19.82432439622428
 31
0.0
  0
LINE
  5
F8
330
1F
100
AcDbEntity
  8
0-0
  6
JWW_DASHED1
 62
   120
370
     5
100
AcDbLine
 10
-1269.853479670947
 20
-222.3178112261054
 30
0.0
 11
-1041.853479670934
 21
5.682188773907626
 31
0.0
  0
LINE
  5
F9
330
1F
100
AcDbEntity
  8
0-0
  6
JWW_DASHED1
 62
   120
370
     5
100
AcDbLine
 10
-1269.853479670934
 20
-236.4599468484067
 30
0.0
 11
-1041.853479670937
 21
-8.459946848409459
 31
0.0
  0
LINE
  5
FA
330
1F
100
AcDbEntity
  8
0-0
  6
JWW_DASHED1
 62
   120
370
     5
100
AcDbLine
 10
-1269.853479670936
 20
-250.6020824707234
 30
0.0
 11
-1041.853479670938
 21
-22.60208247072569
 31
0.0
  0
LINE
  5
FB
330
1F
100
AcDbEntity
  8
0-0
  6
JWW_DASHED1
 62
   120
370
     5
100
AcDbLine
 10
-1269.853479670933
 20
-264.7442180930895
 30
0.0
 11
-1041.853479670937
 21
-36.74421809309308
 31
0.0
  0
LINE
  5
FC
330
1F
100
AcDbEntity
  8
0-0
  6
JWW_DASHED1
 62
   120
370
     5
100
AcDbLine
 10
-1269.853479670935
 20
-278.8863537154066
 30
0.0
 11
-1041.853479670939
 21
-50.88635371540974
 31
0.0
  0
LINE
  5
FD
330
1F
100
AcDbEntity
  8
0-0
  6
JWW_DASHED1
 62
   120
370
     5
100
AcDbLine
 10
-1269.853479670937
 20
-293.0284893377228
 30
0.0
 11
-1041.853479670941
 21
-65.02848933772682
 31
0.0
  0
LINE
  5
FE
330
1F
100
AcDbEntity
  8
0-0
  6
JWW_DASHED1
 62
   120
370
     5
100
AcDbLine
 10
-1269.853479670939
 20
-307.170624960039
 30
0.0
 11
-1041.853479670944
 21
-79.17062496004391
 31
0.0
  0
LINE
  5
FF
330
1F
100
AcDbEntity
  8
0-0
  6
JWW_DASHED1
 62
   120
370
     5
100
AcDbLine
 10
-1269.853479670942
 20
-321.3127605823561
 30
0.0
 11
-1041.85347967093
 21
-93.31276058234437
 31
0.0
  0
LINE
  5
100
330
1F
100
AcDbEntity
  8
0-0
  6
JWW_DASHED1
 62
   120
370
     5
100
AcDbLine
 10
-1269.853479670943
 20
-335.4548962046728
 30
0.0
 11
-1041.853479670931
 21
-107.4548962046606
 31
0.0
  0
LINE
  5
101
330
1F
100
AcDbEntity
  8
0-0
  6
JWW_DASHED1
 62
   120
370
     5
100
AcDbLine
 10
-1269.853479670946
 20
-349.597031826989
 30
0.0
 11
-1041.853479670934
 21
-121.5970318269777
 31
0.0
  0
LINE
  5
102
330
1F
100
AcDbEntity
  8
0-0
  6
JWW_DASHED1
 62
   120
370
     5
100
AcDbLine
 10
-1269.853479670948
 20
-363.7391674493061
 30
0.0
 11
-1041.853479670937
 21
-135.7391674492943
 31
0.0
  0
LINE
  5
103
330
1F
100
AcDbEntity
  8
0-0
  6
JWW_DASHED1
 62
   120
370
     5
100
AcDbLine
 10
-1269.853479670945
 20
-377.8813030716177
 30
0.0
 11
-1041.853479670931
 21
-149.8813030716042
 31
0.0
  0
LINE
  5
104
330
1F
100
AcDbEntity
  8
0-0
  6
JWW_DASHED1
 62
   120
370
     5
100
AcDbLine
 10
-1269.853479670948
 20
-392.0234386939347
 30
0.0
 11
-1041.853479670934
 21
-164.0234386939213
 31
0.0
  0
LINE
  5
105
330
1F
100
AcDbEntity
  8
0-0
  6
JWW_DASHED1
 62
   120
370
     5
100
AcDbLine
 10
-1269.853479670935
 20
-406.1655743162356
 30
0.0
 11
-1041.853479670937
 21
-178.1655743162379
 31
0.0
  0
LINE
  5
106
330
1F
100
AcDbEntity
  8
0-0
  6
JWW_DASHED1
 62
   120
370
     5
100
AcDbLine
 10
-1269.853479670936
 20
-420.3077099385527
 30
0.0
 11
-1041.853479670939
 21
-192.307709938555
 31
0.0
  0
LINE
  5
107
330
1F
100
AcDbEntity
  8
0-0
  6
JWW_DASHED1
 62
   120
370
     5
100
AcDbLine
 10
-1269.853479670939
 20
-434.4498455608698
 30
0.0
 11
-1041.853479670941
 21
-206.4498455608721
 31
0.0
  0
LINE
  5
108
330
1F
100
AcDbEntity
  8
0-0
  6
JWW_DASHED1
 62
   120
370
     5
100
AcDbLine
 10
-1269.853479670942
 20
-448.5919811831865
 30
0.0
 11
-1041.853479670943
 21
-220.5919811831888
 31
0.0
  0
LINE
  5
109
330
1F
100
AcDbEntity
  8
0-0
  6
JWW_DASHED1
 62
   120
370
     5
100
AcDbLine
 10
-1269.853479670931
 20
-462.7341168054916
 30
0.0
 11
-1041.853479670936
 21
-234.734116805496
 31
0.0
  0
LINE
  5
10A
330
1F
100
AcDbEntity
  8
0-0
  6
JWW_DASHED1
 62
   120
370
     5
100
AcDbLine
 10
-1269.853479670935
 20
-476.8762524278083
 30
0.0
 11
-1041.853479670938
 21
-248.8762524278123
 31
0.0
  0
LINE
  5
10B
330
1F
100
AcDbEntity
  8
0-0
  6
JWW_DASHED1
 62
   120
370
     5
100
AcDbLine
 10
-1269.853479670936
 20
-491.0183880501253
 30
0.0
 11
-1041.85347967094
 21
-263.0183880501289
 31
0.0
  0
LINE
  5
10C
330
1F
100
AcDbEntity
  8
0-0
  6
JWW_DASHED1
 62
   120
370
     5
100
AcDbLine
 10
-1269.853479670938
 20
-505.1605236724416
 30
0.0
 11
-1041.853479670943
 21
-277.1605236724456
 31
0.0
  0
LINE
  5
10D
330
1F
100
AcDbEntity
  8
0-0
  6
JWW_DASHED1
 62
   120
370
     5
100
AcDbLine
 10
-1269.85347967094
 20
-519.3026592947579
 30
0.0
 11
-1041.853479670929
 21
-291.3026592947469
 31
0.0
  0
LINE
  5
10E
330
1F
100
AcDbEntity
  8
0-0
  6
JWW_DASHED1
 62
   120
370
     5
100
AcDbLine
 10
-1269.853479670942
 20
-533.4447949170749
 30
0.0
 11
-1041.853479670931
 21
-305.444794917064
 31
0.0
  0
LINE
  5
10F
330
1F
100
AcDbEntity
  8
0-0
  6
JWW_DASHED1
 62
   120
370
     5
100
AcDbLine
 10
-1269.853479670945
 20
-547.5869305393919
 30
0.0
 11
-1041.853479670934
 21
-319.5869305393807
 31
0.0
  0
LINE
  5
110
330
1F
100
AcDbEntity
  8
0-0
  6
JWW_DASHED1
 62
   120
370
     5
100
AcDbLine
 10
-1269.853479670947
 20
-561.7290661617086
 30
0.0
 11
-1041.853479670936
 21
-333.7290661616973
 31
0.0
  0
LINE
  5
111
330
1F
100
AcDbEntity
  8
0-0
  6
JWW_DASHED1
 62
   120
370
     5
100
AcDbLine
 10
-1269.853479670947
 20
-575.8712017840219
 30
0.0
 11
-1041.853479670932
 21
-347.8712017840088
 31
0.0
  0
LINE
  5
112
330
1F
100
AcDbEntity
  8
0-0
  6
JWW_DASHED1
 62
   120
370
     5
100
AcDbLine
 10
-1269.853479670948
 20
-590.0133374063389
 30
0.0
 11
-1041.853479670935
 21
-362.0133374063255
 31
0.0
  0
LINE
  5
113
330
1F
100
AcDbEntity
  8
0-0
  6
JWW_DASHED1
 62
   120
370
     5
100
AcDbLine
 10
-1269.853479670935
 20
-604.1554730286394
 30
0.0
 11
-1041.853479670938
 21
-376.1554730286426
 31
0.0
  0
LINE
  5
114
330
1F
100
AcDbEntity
  8
0-0
  6
JWW_DASHED1
 62
   120
370
     5
100
AcDbLine
 10
-1269.853479670936
 20
-618.2976086509565
 30
0.0
 11
-1041.85347967094
 21
-390.2976086509592
 31
0.0
  0
LINE
  5
115
330
1F
100
AcDbEntity
  8
0-0
  6
JWW_DASHED1
 62
   120
370
     5
100
AcDbLine
 10
-1269.853479670942
 20
-632.439744273303
 30
0.0
 11
-1041.853479670944
 21
-404.4397442733053
 31
0.0
  0
LINE
  5
116
330
1F
100
AcDbEntity
  8
0-0
  6
JWW_DASHED1
 62
   120
370
     5
100
AcDbLine
 10
-1269.853479670933
 20
-646.5818798956359
 30
0.0
 11
-1041.853479670938
 21
-418.5818798956403
 31
0.0
  0
LINE
  5
117
330
1F
100
AcDbEntity
  8
0-0
  6
JWW_DASHED1
 62
   120
370
     5
100
AcDbLine
 10
-1269.853479670935
 20
-660.7240155179525
 30
0.0
 11
-1041.853479670939
 21
-432.724015517957
 31
0.0
  0
LINE
  5
118
330
1F
100
AcDbEntity
  8
0-0
  6
JWW_DASHED1
 62
   120
370
     5
100
AcDbLine
 10
-1269.853479670936
 20
-674.8661511402692
 30
0.0
 11
-1041.853479670941
 21
-446.8661511402736
 31
0.0
  0
LINE
  5
119
330
1F
100
AcDbEntity
  8
0-0
  6
JWW_DASHED1
 62
   120
370
     5
100
AcDbLine
 10
-1269.853479670939
 20
-689.0082867625858
 30
0.0
 11
-1041.853479670928
 21
-461.0082867625749
 31
0.0
  0
LINE
  5
11A
330
1F
100
AcDbEntity
  8
0-0
  6
JWW_DASHED1
 62
   120
370
     5
100
AcDbLine
 10
-1269.853479670942
 20
-703.1504223849029
 30
0.0
 11
-1041.85347967093
 21
-475.1504223848912
 31
0.0
  0
LINE
  5
11B
330
1F
100
AcDbEntity
  8
0-0
  6
JWW_DASHED1
 62
   120
370
     5
100
AcDbLine
 10
-1269.853479670944
 20
-717.2925580072196
 30
0.0
 11
-1041.853479670932
 21
-489.2925580072074
 31
0.0
  0
LINE
  5
11C
330
1F
100
AcDbEntity
  8
0-0
  6
JWW_DASHED1
 62
   120
370
     5
100
AcDbLine
 10
-1269.853479670946
 20
-731.4346936295362
 30
0.0
 11
-1041.853479670934
 21
-503.4346936295245
 31
0.0
  0
LINE
  5
11D
330
1F
100
AcDbEntity
  8
0-0
  6
JWW_DASHED1
 62
   120
370
     5
100
AcDbLine
 10
-1269.853479670946
 20
-745.5768292518508
 30
0.0
 11
-1041.853479670932
 21
-517.5768292518377
 31
0.0
  0
LINE
  5
11E
330
1F
100
AcDbEntity
  8
0-0
  6
JWW_DASHED1
 62
   120
370
     5
100
AcDbLine
 10
-1269.853479670948
 20
-759.7189648741675
 30
0.0
 11
-1041.853479670936
 21
-531.7189648741548
 31
0.0
  0
LINE
  5
11F
330
1F
100
AcDbEntity
  8
0-0
  6
JWW_DASHED1
 62
   120
370
     5
100
AcDbLine
 10
-1269.853479670935
 20
-773.8611004964691
 30
0.0
 11
-1041.853479670938
 21
-545.8611004964711
 31
0.0
  0
LINE
  5
120
330
1F
100
AcDbEntity
  8
0-0
  6
JWW_DASHED1
 62
   120
370
     5
100
AcDbLine
 10
-1269.853479670937
 20
-788.0032361187858
 30
0.0
 11
-1041.85347967094
 21
-560.0032361187885
 31
0.0
  0
LINE
  5
121
330
1F
100
AcDbEntity
  8
0-0
  6
JWW_DASHED1
 62
   120
370
     5
100
AcDbLine
 10
-1269.85347967094
 20
-802.1453717411025
 30
0.0
 11
-1041.853479670942
 21
-574.1453717411048
 31
0.0
  0
LINE
  5
122
330
1F
100
AcDbEntity
  8
0-0
  6
JWW_DASHED1
 62
   120
370
     5
100
AcDbLine
 10
-1269.853479670942
 20
-816.2875073634191
 30
0.0
 11
-1041.853479670944
 21
-588.287507363421
 31
0.0
  0
LINE
  5
123
330
1F
100
AcDbEntity
  8
0-0
  6
JWW_DASHED1
 62
   120
370
     5
100
AcDbLine
 10
-1269.85347967093
 20
-830.4296429857213
 30
0.0
 11
-1041.853479670934
 21
-602.4296429857261
 31
0.0
  0
LINE
  5
124
330
1F
100
AcDbEntity
  8
0-0
  6
JWW_DASHED1
 62
   120
370
     5
100
AcDbLine
 10
-1269.853479670931
 20
-844.5717786080384
 30
0.0
 11
-1041.853479670937
 21
-616.5717786080428
 31
0.0
  0
LINE
  5
125
330
1F
100
AcDbEntity
  8
0-0
  6
JWW_DASHED1
 62
   120
370
     5
100
AcDbLine
 10
-1269.853479670935
 20
-858.713914230355
 30
0.0
 11
-1041.853479670938
 21
-630.7139142303595
 31
0.0
  0
LINE
  5
126
330
1F
100
AcDbEntity
  8
0-0
  6
JWW_DASHED1
 62
   120
370
     5
100
AcDbLine
 10
-1269.853479670936
 20
-872.8560498526722
 30
0.0
 11
-1041.85347967094
 21
-644.8560498526757
 31
0.0
  0
LINE
  5
127
330
1F
100
AcDbEntity
  8
0-0
  6
JWW_DASHED1
 62
   120
370
     5
100
AcDbLine
 10
-1269.853479670939
 20
-886.9981854749892
 30
0.0
 11
-1041.853479670927
 21
-658.998185474977
 31
0.0
  0
LINE
  5
128
330
1F
100
AcDbEntity
  8
0-0
  6
JWW_DASHED1
 62
   120
370
     5
100
AcDbLine
 10
-1269.853479670941
 20
-901.1403210973054
 30
0.0
 11
-1041.853479670929
 21
-673.1403210972937
 31
0.0
  0
LINE
  5
129
330
1F
100
AcDbEntity
  8
0-0
  6
JWW_DASHED1
 62
   120
370
     5
100
AcDbLine
 10
-1269.853479670942
 20
-915.2824567196217
 30
0.0
 11
-1041.853479670931
 21
-687.2824567196108
 31
0.0
  0
LINE
  5
12A
330
1F
100
AcDbEntity
  8
0-0
  6
JWW_DASHED1
 62
   120
370
     5
100
AcDbLine
 10
-1269.853479670945
 20
-929.4245923419387
 30
0.0
 11
-1041.853479670934
 21
-701.4245923419278
 31
0.0
  0
LINE
  5
12B
330
1F
100
AcDbEntity
  8
0-0
  6
JWW_DASHED1
 62
   120
370
     5
100
AcDbLine
 10
-1269.853479670947
 20
-943.5667279642546
 30
0.0
 11
-1041.853479670934
 21
-715.5667279642423
 31
0.0
  0
LINE
  5
12C
330
1F
100
AcDbEntity
  8
0-0
  6
JWW_DASHED1
 62
   120
370
     5
100
AcDbLine
 10
-1269.853479670948
 20
-957.7088635865712
 30
0.0
 11
-1041.853479670936
 21
-729.7088635865587
 31
0.0
  0
LINE
  5
12D
330
1F
100
AcDbEntity
  8
0-0
  6
JWW_DASHED1
 62
   120
370
     5
100
AcDbLine
 10
-1269.853479670935
 20
-971.8509992088725
 30
0.0
 11
-1041.853479670938
 21
-743.8509992088748
 31
0.0
  0
LINE
  5
12E
330
1F
100
AcDbEntity
  8
0-0
  6
JWW_DASHED1
 62
   120
370
     5
100
AcDbLine
 10
-1269.853479670938
 20
-985.9931348311896
 30
0.0
 11
-1041.85347967094
 21
-757.9931348311919
 31
0.0
  0
LINE
  5
12F
330
1F
100
AcDbEntity
  8
0-0
  6
JWW_DASHED1
 62
   120
370
     5
100
AcDbLine
 10
-1269.85347967094
 20
-1000.135270453506
 30
0.0
 11
-1041.853479670943
 21
-772.1352704535086
 31
0.0
  0
LINE
  5
130
330
1F
100
AcDbEntity
  8
0-0
  6
JWW_DASHED1
 62
   120
370
     5
100
AcDbLine
 10
-1269.853479670931
 20
-1014.277406075866
 30
0.0
 11
-1041.853479670936
 21
-786.2774060758709
 31
0.0
  0
LINE
  5
131
330
1F
100
AcDbEntity
  8
0-0
  6
JWW_DASHED1
 62
   120
370
     5
100
AcDbLine
 10
-1269.853479670933
 20
-1028.419541698183
 30
0.0
 11
-1041.853479670938
 21
-800.4195416981875
 31
0.0
  0
LINE
  5
132
330
1F
100
AcDbEntity
  8
0-0
  6
JWW_DASHED1
 62
   120
370
     5
100
AcDbLine
 10
-1266.149718323611
 20
-1038.857915973176
 30
0.0
 11
-1041.853479670939
 21
-814.5616773205038
 31
0.0
  0
LINE
  5
133
330
1F
100
AcDbEntity
  8
0-0
  6
JWW_DASHED1
 62
   120
370
     5
100
AcDbLine
 10
-1252.007582701296
 20
-1038.857915973174
 30
0.0
 11
-1041.853479670925
 21
-828.703812942805
 31
0.0
  0
LINE
  5
134
330
1F
100
AcDbEntity
  8
0-0
  6
JWW_DASHED1
 62
   120
370
     5
100
AcDbLine
 10
-1237.86544707898
 20
-1038.857915973173
 30
0.0
 11
-1041.853479670928
 21
-842.8459485651217
 31
0.0
  0
LINE
  5
135
330
1F
100
AcDbEntity
  8
0-0
  6
JWW_DASHED1
 62
   120
370
     5
100
AcDbLine
 10
-1223.723311456664
 20
-1038.857915973172
 30
0.0
 11
-1041.853479670931
 21
-856.988084187438
 31
0.0
  0
LINE
  5
136
330
1F
100
AcDbEntity
  8
0-0
  6
JWW_DASHED1
 62
   120
370
     5
100
AcDbLine
 10
-1209.581175834349
 20
-1038.857915973171
 30
0.0
 11
-1041.853479670932
 21
-871.1302198097551
 31
0.0
  0
LINE
  5
137
330
1F
100
AcDbEntity
  8
0-0
  6
JWW_DASHED1
 62
   120
370
     5
100
AcDbLine
 10
-1195.439040212033
 20
-1038.85791597317
 30
0.0
 11
-1041.853479670934
 21
-885.2723554320712
 31
0.0
  0
LINE
  5
138
330
1F
100
AcDbEntity
  8
0-0
  6
JWW_DASHED1
 62
   120
370
     5
100
AcDbLine
 10
-1181.296904589716
 20
-1038.857915973168
 30
0.0
 11
-1041.853479670936
 21
-899.4144910543871
 31
0.0
  0
LINE
  5
139
330
1F
100
AcDbEntity
  8
0-0
  6
JWW_DASHED1
 62
   120
370
     5
100
AcDbLine
 10
-1167.1547689674
 20
-1038.857915973167
 30
0.0
 11
-1041.853479670938
 21
-913.5566266767041
 31
0.0
  0
LINE
  5
13A
330
1F
100
AcDbEntity
  8
0-0
  6
JWW_DASHED1
 62
   120
370
     5
100
AcDbLine
 10
-1153.012633345092
 20
-1038.857915973173
 30
0.0
 11
-1041.853479670941
 21
-927.6987622990208
 31
0.0
  0
LINE
  5
13B
330
1F
100
AcDbEntity
  8
0-0
  6
JWW_DASHED1
 62
   120
370
     5
100
AcDbLine
 10
-1138.870497722776
 20
-1038.857915973171
 30
0.0
 11
-1041.853479670943
 21
-941.840897921338
 31
0.0
  0
LINE
  5
13C
330
1F
100
AcDbEntity
  8
0-0
  6
JWW_DASHED1
 62
   120
370
     5
100
AcDbLine
 10
-1124.728362100458
 20
-1038.857915973168
 30
0.0
 11
-1041.853479670945
 21
-955.983033543655
 31
0.0
  0
LINE
  5
13D
330
1F
100
AcDbEntity
  8
0-0
  6
JWW_DASHED1
 62
   120
370
     5
100
AcDbLine
 10
-1110.586226478157
 20
-1038.857915973182
 30
0.0
 11
-1041.853479670932
 21
-970.1251691659559
 31
0.0
  0
LINE
  5
13E
330
1F
100
AcDbEntity
  8
0-0
  6
JWW_DASHED1
 62
   120
370
     5
100
AcDbLine
 10
-1096.444090855841
 20
-1038.857915973179
 30
0.0
 11
-1041.853479670934
 21
-984.2673047882729
 31
0.0
  0
LINE
  5
13F
330
1F
100
AcDbEntity
  8
0-0
  6
JWW_DASHED1
 62
   120
370
     5
100
AcDbLine
 10
-1082.301955233525
 20
-1038.857915973177
 30
0.0
 11
-1041.853479670937
 21
-998.40944041059
 31
0.0
  0
LINE
  5
140
330
1F
100
AcDbEntity
  8
0-0
  6
JWW_DASHED1
 62
   120
370
     5
100
AcDbLine
 10
-1068.159819611207
 20
-1038.857915973175
 30
0.0
 11
-1041.853479670938
 21
-1012.551576032906
 31
0.0
  0
LINE
  5
141
330
1F
100
AcDbEntity
  8
0-0
  6
JWW_DASHED1
 62
   120
370
     5
100
AcDbLine
 10
-1054.017683988906
 20
-1038.857915973188
 30
0.0
 11
-1041.853479670925
 21
-1026.693711655207
 31
0.0
  0
LINE
  5
142
330
1F
100
AcDbEntity
  8
0-0
  6
JWW_DASHED1
 62
   120
370
     5
100
AcDbLine
 10
-489.8534796709501
 20
1121.18507289399
 30
0.0
 11
-482.8964685381015
 21
1128.142084026838
 31
0.0
  0
LINE
  5
143
330
1F
100
AcDbEntity
  8
0-0
  6
JWW_DASHED1
 62
   120
370
     5
100
AcDbLine
 10
-489.8534796709518
 20
1107.042937271674
 30
0.0
 11
-468.7543329157862
 21
1128.14208402684
 31
0.0
  0
LINE
  5
144
330
1F
100
AcDbEntity
  8
0-0
  6
JWW_DASHED1
 62
   120
370
     5
100
AcDbLine
 10
-489.8534796709535
 20
1092.900801649357
 30
0.0
 11
-454.6121972934699
 21
1128.142084026841
 31
0.0
  0
LINE
  5
145
330
1F
100
AcDbEntity
  8
0-0
  6
JWW_DASHED1
 62
   120
370
     5
100
AcDbLine
 10
-489.8534796709561
 20
1078.75866602704
 30
0.0
 11
-440.4700616711537
 21
1128.142084026842
 31
0.0
  0
LINE
  5
146
330
1F
100
AcDbEntity
  8
0-0
  6
JWW_DASHED1
 62
   120
370
     5
100
AcDbLine
 10
-489.8534796709433
 20
1064.616530404739
 30
0.0
 11
-426.3279260488537
 21
1128.142084026828
 31
0.0
  0
LINE
  5
147
330
1F
100
AcDbEntity
  8
0-0
  6
JWW_DASHED1
 62
   120
370
     5
100
AcDbLine
 10
-489.853479670945
 20
1050.474394782422
 30
0.0
 11
-412.1857904265383
 21
1128.142084026829
 31
0.0
  0
LINE
  5
148
330
1F
100
AcDbEntity
  8
0-0
  6
JWW_DASHED1
 62
   120
370
     5
100
AcDbLine
 10
-489.8534796709339
 20
1036.332259160092
 30
0.0
 11
-398.0436548042016
 21
1128.142084026823
 31
0.0
  0
LINE
  5
149
330
1F
100
AcDbEntity
  8
0-0
  6
JWW_DASHED1
 62
   120
370
     5
100
AcDbLine
 10
-489.8534796709382
 20
1022.190123537746
 30
0.0
 11
-383.9015191818555
 21
1128.142084026828
 31
0.0
  0
LINE
  5
14A
330
1F
100
AcDbEntity
  8
0-0
  6
JWW_DASHED1
 62
   120
370
     5
100
AcDbLine
 10
-489.8534796709399
 20
1008.047987915429
 30
0.0
 11
-369.7593835595384
 21
1128.14208402683
 31
0.0
  0
LINE
  5
14B
330
1F
100
AcDbEntity
  8
0-0
  6
JWW_DASHED1
 62
   120
370
     5
100
AcDbLine
 10
-489.8534796709416
 20
993.9058522931132
 30
0.0
 11
-355.6172479372222
 21
1128.142084026832
 31
0.0
  0
LINE
  5
14C
330
1F
100
AcDbEntity
  8
0-0
  6
JWW_DASHED1
 62
   120
370
     5
100
AcDbLine
 10
-489.8534796709433
 20
979.7637166707965
 30
0.0
 11
-341.475112314906
 21
1128.142084026835
 31
0.0
  0
LINE
  5
14D
330
1F
100
AcDbEntity
  8
0-0
  6
JWW_DASHED1
 62
   120
370
     5
100
AcDbLine
 10
-489.8534796709467
 20
965.6215810484794
 30
0.0
 11
-327.3329766926
 21
1128.142084026826
 31
0.0
  0
LINE
  5
14E
330
1F
100
AcDbEntity
  8
0-0
  6
JWW_DASHED1
 62
   120
370
     5
100
AcDbLine
 10
-489.8534796709484
 20
951.4794454261628
 30
0.0
 11
-313.1908410702837
 21
1128.142084026827
 31
0.0
  0
LINE
  5
14F
330
1F
100
AcDbEntity
  8
0-0
  6
JWW_DASHED1
 62
   120
370
     5
100
AcDbLine
 10
-489.8534796709501
 20
937.3373098038461
 30
0.0
 11
-299.0487054479675
 21
1128.142084026829
 31
0.0
  0
LINE
  5
150
330
1F
100
AcDbEntity
  8
0-0
  6
JWW_DASHED1
 62
   120
370
     5
100
AcDbLine
 10
-489.8534796709527
 20
923.1951741815294
 30
0.0
 11
-284.9065698256521
 21
1128.14208402683
 31
0.0
  0
LINE
  5
151
330
1F
100
AcDbEntity
  8
0-0
  6
JWW_DASHED1
 62
   120
370
     5
100
AcDbLine
 10
-489.8534796709552
 20
909.0530385592127
 30
0.0
 11
-270.7644342033367
 21
1128.142084026831
 31
0.0
  0
LINE
  5
152
330
1F
100
AcDbEntity
  8
0-0
  6
JWW_DASHED1
 62
   120
370
     5
100
AcDbLine
 10
-489.8534796709433
 20
894.9109029369097
 30
0.0
 11
-261.8534796709298
 21
1122.910902936923
 31
0.0
  0
LINE
  5
153
330
1F
100
AcDbEntity
  8
0-0
  6
JWW_DASHED1
 62
   120
370
     5
100
AcDbLine
 10
-489.853479670945
 20
880.7687673145931
 30
0.0
 11
-261.8534796709324
 21
1108.768767314606
 31
0.0
  0
LINE
  5
154
330
1F
100
AcDbEntity
  8
0-0
  6
JWW_DASHED1
 62
   120
370
     5
100
AcDbLine
 10
-489.8534796709313
 20
866.6266316922922
 30
0.0
 11
-261.8534796709341
 21
1094.626631692289
 31
0.0
  0
LINE
  5
155
330
1F
100
AcDbEntity
  8
0-0
  6
JWW_DASHED1
 62
   120
370
     5
100
AcDbLine
 10
-489.8534796709339
 20
852.4844960699755
 30
0.0
 11
-261.8534796709375
 21
1080.484496069972
 31
0.0
  0
LINE
  5
156
330
1F
100
AcDbEntity
  8
0-0
  6
JWW_DASHED1
 62
   120
370
     5
100
AcDbLine
 10
-489.8534796709365
 20
838.3423604476584
 30
0.0
 11
-261.8534796709392
 21
1066.342360447656
 31
0.0
  0
LINE
  5
157
330
1F
100
AcDbEntity
  8
0-0
  6
JWW_DASHED1
 62
   120
370
     5
100
AcDbLine
 10
-489.8534796709365
 20
824.2002248253439
 30
0.0
 11
-261.8534796709409
 21
1052.20022482534
 31
0.0
  0
LINE
  5
158
330
1F
100
AcDbEntity
  8
0-0
  6
JWW_DASHED1
 62
   120
370
     5
100
AcDbLine
 10
-489.853479670939
 20
810.0580892030268
 30
0.0
 11
-261.8534796709426
 21
1038.058089203023
 31
0.0
  0
LINE
  5
159
330
1F
100
AcDbEntity
  8
0-0
  6
JWW_DASHED1
 62
   120
370
     5
100
AcDbLine
 10
-489.8534796709416
 20
795.9159535807102
 30
0.0
 11
-261.8534796709451
 21
1023.915953580706
 31
0.0
  0
LINE
  5
15A
330
1F
100
AcDbEntity
  8
0-0
  6
JWW_DASHED1
 62
   120
370
     5
100
AcDbLine
 10
-489.8534796709433
 20
781.7738179583935
 30
0.0
 11
-261.8534796709477
 21
1009.773817958389
 31
0.0
  0
LINE
  5
15B
330
1F
100
AcDbEntity
  8
0-0
  6
JWW_DASHED1
 62
   120
370
     5
100
AcDbLine
 10
-489.853479670945
 20
767.6316823360769
 30
0.0
 11
-261.8534796709341
 21
995.6316823360886
 31
0.0
  0
LINE
  5
15C
330
1F
100
AcDbEntity
  8
0-0
  6
JWW_DASHED1
 62
   120
370
     5
100
AcDbLine
 10
-489.8534796709467
 20
753.4895467137607
 30
0.0
 11
-261.8534796709358
 21
981.4895467137719
 31
0.0
  0
LINE
  5
15D
330
1F
100
AcDbEntity
  8
0-0
  6
JWW_DASHED1
 62
   120
370
     5
100
AcDbLine
 10
-489.8534796709501
 20
739.3474110914435
 30
0.0
 11
-261.8534796709375
 21
967.3474110914553
 31
0.0
  0
LINE
  5
15E
330
1F
100
AcDbEntity
  8
0-0
  6
JWW_DASHED1
 62
   120
370
     5
100
AcDbLine
 10
-489.8534796709518
 20
725.2052754691273
 30
0.0
 11
-261.85347967094
 21
953.2052754691387
 31
0.0
  0
LINE
  5
15F
330
1F
100
AcDbEntity
  8
0-0
  6
JWW_DASHED1
 62
   120
370
     5
100
AcDbLine
 10
-489.8534796709561
 20
711.0631398467808
 30
0.0
 11
-261.8534796709443
 21
939.0631398467922
 31
0.0
  0
LINE
  5
160
330
1F
100
AcDbEntity
  8
0-0
  6
JWW_DASHED1
 62
   120
370
     5
100
AcDbLine
 10
-489.8534796709322
 20
696.9210042244633
 30
0.0
 11
-261.8534796709349
 21
924.9210042244601
 31
0.0
  0
LINE
  5
161
330
1F
100
AcDbEntity
  8
0-0
  6
JWW_DASHED1
 62
   120
370
     5
100
AcDbLine
 10
-489.8534796709339
 20
682.7788686021466
 30
0.0
 11
-261.8534796709366
 21
910.7788686021439
 31
0.0
  0
LINE
  5
162
330
1F
100
AcDbEntity
  8
0-0
  6
JWW_DASHED1
 62
   120
370
     5
100
AcDbLine
 10
-489.8534796709365
 20
668.63673297983
 30
0.0
 11
-261.8534796709392
 21
896.6367329798268
 31
0.0
  0
LINE
  5
163
330
1F
100
AcDbEntity
  8
0-0
  6
JWW_DASHED1
 62
   120
370
     5
100
AcDbLine
 10
-489.8534796709347
 20
654.4945973575168
 30
0.0
 11
-261.8534796709392
 21
882.4945973575119
 31
0.0
  0
LINE
  5
164
330
1F
100
AcDbEntity
  8
0-0
  6
JWW_DASHED1
 62
   120
370
     5
100
AcDbLine
 10
-489.8534796709373
 20
640.3524617351997
 30
0.0
 11
-261.8534796709426
 21
868.3524617351948
 31
0.0
  0
LINE
  5
165
330
1F
100
AcDbEntity
  8
0-0
  6
JWW_DASHED1
 62
   120
370
     5
100
AcDbLine
 10
-489.8534796709399
 20
626.2103261128825
 30
0.0
 11
-261.8534796709443
 21
854.2103261128785
 31
0.0
  0
LINE
  5
166
330
1F
100
AcDbEntity
  8
0-0
  6
JWW_DASHED1
 62
   120
370
     5
100
AcDbLine
 10
-489.8534796709416
 20
612.0681904905659
 30
0.0
 11
-261.853479670946
 21
840.0681904905615
 31
0.0
  0
LINE
  5
167
330
1F
100
AcDbEntity
  8
0-0
  6
JWW_DASHED1
 62
   120
370
     5
100
AcDbLine
 10
-489.853479670945
 20
597.9260548682488
 30
0.0
 11
-261.8534796709324
 21
825.926054868261
 31
0.0
  0
LINE
  5
168
330
1F
100
AcDbEntity
  8
0-0
  6
JWW_DASHED1
 62
   120
370
     5
100
AcDbLine
 10
-489.8534796709467
 20
583.7839192459326
 30
0.0
 11
-261.8534796709349
 21
811.7839192459439
 31
0.0
  0
LINE
  5
169
330
1F
100
AcDbEntity
  8
0-0
  6
JWW_DASHED1
 62
   120
370
     5
100
AcDbLine
 10
-489.8534796709484
 20
569.6417836236163
 30
0.0
 11
-261.8534796709375
 21
797.6417836236272
 31
0.0
  0
LINE
  5
16A
330
1F
100
AcDbEntity
  8
0-0
  6
JWW_DASHED1
 62
   120
370
     5
100
AcDbLine
 10
-489.8534796709501
 20
555.4996480012993
 30
0.0
 11
-261.8534796709392
 21
783.499648001311
 31
0.0
  0
LINE
  5
16B
330
1F
100
AcDbEntity
  8
0-0
  6
JWW_DASHED1
 62
   120
370
     5
100
AcDbLine
 10
-489.8534796709535
 20
541.3575123789822
 30
0.0
 11
-261.8534796709409
 21
769.357512378994
 31
0.0
  0
LINE
  5
16C
330
1F
100
AcDbEntity
  8
0-0
  6
JWW_DASHED1
 62
   120
370
     5
100
AcDbLine
 10
-489.8534796709433
 20
527.2153767566774
 30
0.0
 11
-261.8534796709307
 21
755.2153767566901
 31
0.0
  0
LINE
  5
16D
330
1F
100
AcDbEntity
  8
0-0
  6
JWW_DASHED1
 62
   120
370
     5
100
AcDbLine
 10
-489.8534796709458
 20
513.0732411343604
 30
0.0
 11
-261.8534796709324
 21
741.0732411343735
 31
0.0
  0
LINE
  5
16E
330
1F
100
AcDbEntity
  8
0-0
  6
JWW_DASHED1
 62
   120
370
     5
100
AcDbLine
 10
-489.853479670933
 20
498.9311055120595
 30
0.0
 11
-261.8534796709358
 21
726.9311055120563
 31
0.0
  0
LINE
  5
16F
330
1F
100
AcDbEntity
  8
0-0
  6
JWW_DASHED1
 62
   120
370
     5
100
AcDbLine
 10
-489.8534796709347
 20
484.7889698897424
 30
0.0
 11
-261.8534796709375
 21
712.7889698897401
 31
0.0
  0
LINE
  5
170
330
1F
100
AcDbEntity
  8
0-0
  6
JWW_DASHED1
 62
   120
370
     5
100
AcDbLine
 10
-489.8534796709373
 20
470.6468342674253
 30
0.0
 11
-261.8534796709392
 21
698.6468342674231
 31
0.0
  0
LINE
  5
171
330
1F
100
AcDbEntity
  8
0-0
  6
JWW_DASHED1
 62
   120
370
     5
100
AcDbLine
 10
-489.8534796709347
 20
456.5046986451134
 30
0.0
 11
-261.8534796709392
 21
684.5046986451093
 31
0.0
  0
LINE
  5
172
330
1F
100
AcDbEntity
  8
0-0
  6
JWW_DASHED1
 62
   120
370
     5
100
AcDbLine
 10
-489.8534796709373
 20
442.3625630227963
 30
0.0
 11
-261.8534796709409
 21
670.3625630227928
 31
0.0
  0
LINE
  5
173
330
1F
100
AcDbEntity
  8
0-0
  6
JWW_DASHED1
 62
   120
370
     5
100
AcDbLine
 10
-489.853479670939
 20
428.22042740048
 30
0.0
 11
-261.8534796709426
 21
656.2204274004761
 31
0.0
  0
LINE
  5
174
330
1F
100
AcDbEntity
  8
0-0
  6
JWW_DASHED1
 62
   120
370
     5
100
AcDbLine
 10
-489.8534796709407
 20
414.0782917781638
 30
0.0
 11
-261.853479670946
 21
642.0782917781589
 31
0.0
  0
LINE
  5
175
330
1F
100
AcDbEntity
  8
0-0
  6
JWW_DASHED1
 62
   120
370
     5
100
AcDbLine
 10
-489.8534796709433
 20
399.9361561558467
 30
0.0
 11
-261.8534796709315
 21
627.9361561558585
 31
0.0
  0
LINE
  5
176
330
1F
100
AcDbEntity
  8
0-0
  6
JWW_DASHED1
 62
   120
370
     5
100
AcDbLine
 10
-489.8534796709501
 20
385.7940205334712
 30
0.0
 11
-261.8534796709375
 21
613.794020533483
 31
0.0
  0
LINE
  5
177
330
1F
100
AcDbEntity
  8
0-0
  6
JWW_DASHED1
 62
   120
370
     5
100
AcDbLine
 10
-489.8534796709518
 20
371.6518849111546
 30
0.0
 11
-261.8534796709409
 21
599.6518849111659
 31
0.0
  0
LINE
  5
178
330
1F
100
AcDbEntity
  8
0-0
  6
JWW_DASHED1
 62
   120
370
     5
100
AcDbLine
 10
-489.8534796709433
 20
357.5097492888482
 30
0.0
 11
-261.8534796709307
 21
585.5097492888613
 31
0.0
  0
LINE
  5
179
330
1F
100
AcDbEntity
  8
0-0
  6
JWW_DASHED1
 62
   120
370
     5
100
AcDbLine
 10
-489.8534796709458
 20
343.3676136665315
 30
0.0
 11
-261.8534796709332
 21
571.3676136665441
 31
0.0
  0
LINE
  5
17A
330
1F
100
AcDbEntity
  8
0-0
  6
JWW_DASHED1
 62
   120
370
     5
100
AcDbLine
 10
-489.853479670933
 20
329.2254780442302
 30
0.0
 11
-261.8534796709358
 21
557.225478044227
 31
0.0
  0
LINE
  5
17B
330
1F
100
AcDbEntity
  8
0-0
  6
JWW_DASHED1
 62
   120
370
     5
100
AcDbLine
 10
-489.8534796709347
 20
315.0833424219131
 30
0.0
 11
-261.8534796709375
 21
543.0833424219109
 31
0.0
  0
LINE
  5
17C
330
1F
100
AcDbEntity
  8
0-0
  6
JWW_DASHED1
 62
   120
370
     5
100
AcDbLine
 10
-489.8534796709373
 20
300.9412067995964
 30
0.0
 11
-261.8534796709392
 21
528.9412067995942
 31
0.0
  0
LINE
  5
17D
330
1F
100
AcDbEntity
  8
0-0
  6
JWW_DASHED1
 62
   120
370
     5
100
AcDbLine
 10
-489.853479670933
 20
286.7990711772862
 30
0.0
 11
-261.8534796709375
 21
514.7990711772818
 31
0.0
  0
LINE
  5
17E
330
1F
100
AcDbEntity
  8
0-0
  6
JWW_DASHED1
 62
   120
370
     5
100
AcDbLine
 10
-489.8534796709356
 20
272.6569355549691
 30
0.0
 11
-261.8534796709392
 21
500.6569355549651
 31
0.0
  0
LINE
  5
17F
330
1F
100
AcDbEntity
  8
0-0
  6
JWW_DASHED1
 62
   120
370
     5
100
AcDbLine
 10
-489.8534796709373
 20
258.5147999326529
 30
0.0
 11
-261.8534796709426
 21
486.514799932648
 31
0.0
  0
LINE
  5
180
330
1F
100
AcDbEntity
  8
0-0
  6
JWW_DASHED1
 62
   120
370
     5
100
AcDbLine
 10
-489.8534796709399
 20
244.3726643103358
 30
0.0
 11
-261.8534796709443
 21
472.3726643103309
 31
0.0
  0
LINE
  5
181
330
1F
100
AcDbEntity
  8
0-0
  6
JWW_DASHED1
 62
   120
370
     5
100
AcDbLine
 10
-489.8534796709424
 20
230.2305286880187
 30
0.0
 11
-261.8534796709469
 21
458.2305286880143
 31
0.0
  0
LINE
  5
182
330
1F
100
AcDbEntity
  8
0-0
  6
JWW_DASHED1
 62
   120
370
     5
100
AcDbLine
 10
-489.853479670945
 20
216.088393065702
 30
0.0
 11
-261.8534796709324
 21
444.0883930657142
 31
0.0
  0
LINE
  5
183
330
1F
100
AcDbEntity
  8
0-0
  6
JWW_DASHED1
 62
   120
370
     5
100
AcDbLine
 10
-489.8534796709467
 20
201.9462574433858
 30
0.0
 11
-261.8534796709349
 21
429.9462574433971
 31
0.0
  0
LINE
  5
184
330
1F
100
AcDbEntity
  8
0-0
  6
JWW_DASHED1
 62
   120
370
     5
100
AcDbLine
 10
-489.8534796709484
 20
187.8041218210691
 30
0.0
 11
-261.8534796709375
 21
415.8041218210805
 31
0.0
  0
LINE
  5
185
330
1F
100
AcDbEntity
  8
0-0
  6
JWW_DASHED1
 62
   120
370
     5
100
AcDbLine
 10
-489.8534796709501
 20
173.6619861987525
 30
0.0
 11
-261.8534796709392
 21
401.6619861987634
 31
0.0
  0
LINE
  5
186
330
1F
100
AcDbEntity
  8
0-0
  6
JWW_DASHED1
 62
   120
370
     5
100
AcDbLine
 10
-489.853479670945
 20
159.5198505764439
 30
0.0
 11
-261.8534796709307
 21
387.5198505764574
 31
0.0
  0
LINE
  5
187
330
1F
100
AcDbEntity
  8
0-0
  6
JWW_DASHED1
 62
   120
370
     5
100
AcDbLine
 10
-489.8534796709467
 20
145.3777149541268
 30
0.0
 11
-261.8534796709341
 21
373.3777149541403
 31
0.0
  0
LINE
  5
188
330
1F
100
AcDbEntity
  8
0-0
  6
JWW_DASHED1
 62
   120
370
     5
100
AcDbLine
 10
-489.853479670933
 20
131.2355793318264
 30
0.0
 11
-261.8534796709358
 21
359.2355793318237
 31
0.0
  0
LINE
  5
189
330
1F
100
AcDbEntity
  8
0-0
  6
JWW_DASHED1
 62
   120
370
     5
100
AcDbLine
 10
-489.8534796709347
 20
117.0934437095102
 30
0.0
 11
-261.8534796709383
 21
345.0934437095066
 31
0.0
  0
LINE
  5
18A
330
1F
100
AcDbEntity
  8
0-0
  6
JWW_DASHED1
 62
   120
370
     5
100
AcDbLine
 10
-489.8534796709373
 20
102.9513080871931
 30
0.0
 11
-261.85347967094
 21
330.9513080871903
 31
0.0
  0
LINE
  5
18B
330
1F
100
AcDbEntity
  8
0-0
  6
JWW_DASHED1
 62
   120
370
     5
100
AcDbLine
 10
-489.8534796709399
 20
88.80917246487599
 30
0.0
 11
-261.8534796709426
 21
316.8091724648733
 31
0.0
  0
LINE
  5
18C
330
1F
100
AcDbEntity
  8
0-0
  6
JWW_DASHED1
 62
   120
370
     5
100
AcDbLine
 10
-489.8534796709347
 20
74.66703684256657
 30
0.0
 11
-261.8534796709392
 21
302.6670368425625
 31
0.0
  0
LINE
  5
18D
330
1F
100
AcDbEntity
  8
0-0
  6
JWW_DASHED1
 62
   120
370
     5
100
AcDbLine
 10
-489.8534796709416
 20
60.52490122019108
 30
0.0
 11
-261.8534796709443
 21
288.5249012201875
 31
0.0
  0
LINE
  5
18E
330
1F
100
AcDbEntity
  8
0-0
  6
JWW_DASHED1
 62
   120
370
     5
100
AcDbLine
 10
-489.8534796709433
 20
46.382765597874
 30
0.0
 11
-261.8534796709315
 21
274.3827655978862
 31
0.0
  0
LINE
  5
18F
330
1F
100
AcDbEntity
  8
0-0
  6
JWW_DASHED1
 62
   120
370
     5
100
AcDbLine
 10
-489.853479670945
 20
32.24062997555777
 30
0.0
 11
-261.8534796709341
 21
260.2406299755691
 31
0.0
  0
LINE
  5
190
330
1F
100
AcDbEntity
  8
0-0
  6
JWW_DASHED1
 62
   120
370
     5
100
AcDbLine
 10
-489.8534796709475
 20
18.09849435324153
 30
0.0
 11
-261.8534796709358
 21
246.0984943532524
 31
0.0
  0
LINE
  5
191
330
1F
100
AcDbEntity
  8
0-0
  6
JWW_DASHED1
 62
   120
370
     5
100
AcDbLine
 10
-489.8534796709501
 20
3.95635873092445
 30
0.0
 11
-261.8534796709392
 21
231.9563587309354
 31
0.0
  0
LINE
  5
192
330
1F
100
AcDbEntity
  8
0-0
  6
JWW_DASHED1
 62
   120
370
     5
100
AcDbLine
 10
-489.853479670945
 20
-10.18577689138539
 30
0.0
 11
-261.8534796709315
 21
217.8142231086281
 31
0.0
  0
LINE
  5
193
330
1F
100
AcDbEntity
  8
0-0
  6
JWW_DASHED1
 62
   120
370
     5
100
AcDbLine
 10
-489.8534796709467
 20
-24.32791251370205
 30
0.0
 11
-261.8534796709341
 21
203.672087486311
 31
0.0
  0
LINE
  5
194
330
1F
100
AcDbEntity
  8
0-0
  6
JWW_DASHED1
 62
   120
370
     5
100
AcDbLine
 10
-489.853479670933
 20
-38.47004813600293
 30
0.0
 11
-261.8534796709358
 21
189.5299518639943
 31
0.0
  0
LINE
  5
195
330
1F
100
AcDbEntity
  8
0-0
  6
JWW_DASHED1
 62
   120
370
     5
100
AcDbLine
 10
-489.8534796709365
 20
-52.61218375831959
 30
0.0
 11
-261.8534796709392
 21
175.3878162416773
 31
0.0
  0
LINE
  5
196
330
1F
100
AcDbEntity
  8
0-0
  6
JWW_DASHED1
 62
   120
370
     5
100
AcDbLine
 10
-489.8534796709382
 20
-66.75431938063625
 30
0.0
 11
-261.8534796709409
 21
161.2456806193606
 31
0.0
  0
LINE
  5
197
330
1F
100
AcDbEntity
  8
0-0
  6
JWW_DASHED1
 62
   120
370
     5
100
AcDbLine
 10
-489.8534796709399
 20
-80.8964550029529
 30
0.0
 11
-261.8534796709426
 21
147.1035449970439
 31
0.0
  0
LINE
  5
198
330
1F
100
AcDbEntity
  8
0-0
  6
JWW_DASHED1
 62
   120
370
     5
100
AcDbLine
 10
-489.8534796709339
 20
-95.03859062526146
 30
0.0
 11
-261.8534796709375
 21
132.9614093747345
 31
0.0
  0
LINE
  5
199
330
1F
100
AcDbEntity
  8
0-0
  6
JWW_DASHED1
 62
   120
370
     5
100
AcDbLine
 10
-489.8534796709356
 20
-109.1807262475777
 30
0.0
 11
-261.85347967094
 21
118.8192737524183
 31
0.0
  0
LINE
  5
19A
330
1F
100
AcDbEntity
  8
0-0
  6
JWW_DASHED1
 62
   120
370
     5
100
AcDbLine
 10
-489.8534796709382
 20
-123.3228618698944
 30
0.0
 11
-261.8534796709426
 21
104.6771381301012
 31
0.0
  0
LINE
  5
19B
330
1F
100
AcDbEntity
  8
0-0
  6
JWW_DASHED1
 62
   120
370
     5
100
AcDbLine
 10
-489.8534796709399
 20
-137.464997492211
 30
0.0
 11
-261.8534796709443
 21
90.53500250778413
 31
0.0
  0
LINE
  5
19C
330
1F
100
AcDbEntity
  8
0-0
  6
JWW_DASHED1
 62
   120
370
     5
100
AcDbLine
 10
-489.8534796709424
 20
-151.6071331145281
 30
0.0
 11
-261.8534796709307
 21
76.39286688548367
 31
0.0
  0
LINE
  5
19D
330
1F
100
AcDbEntity
  8
0-0
  6
JWW_DASHED1
 62
   120
370
     5
100
AcDbLine
 10
-489.853479670945
 20
-165.7492687368448
 30
0.0
 11
-261.8534796709324
 21
62.25073126316744
 31
0.0
  0
LINE
  5
19E
330
1F
100
AcDbEntity
  8
0-0
  6
JWW_DASHED1
 62
   120
370
     5
100
AcDbLine
 10
-489.8534796709467
 20
-179.8914043591618
 30
0.0
 11
-261.8534796709349
 21
48.10859564085035
 31
0.0
  0
LINE
  5
19F
330
1F
100
AcDbEntity
  8
0-0
  6
JWW_DASHED1
 62
   120
370
     5
100
AcDbLine
 10
-489.8534796709484
 20
-194.0335399814781
 30
0.0
 11
-261.8534796709375
 21
33.96646001853327
 31
0.0
  0
LINE
  5
1A0
330
1F
100
AcDbEntity
  8
0-0
  6
JWW_DASHED1
 62
   120
370
     5
100
AcDbLine
 10
-489.853479670945
 20
-208.1756756037883
 30
0.0
 11
-261.8534796709324
 21
19.82432439622428
 31
0.0
  0
LINE
  5
1A1
330
1F
100
AcDbEntity
  8
0-0
  6
JWW_DASHED1
 62
   120
370
     5
100
AcDbLine
 10
-489.8534796709467
 20
-222.3178112261054
 30
0.0
 11
-261.8534796709341
 21
5.682188773907626
 31
0.0
  0
LINE
  5
1A2
330
1F
100
AcDbEntity
  8
0-0
  6
JWW_DASHED1
 62
   120
370
     5
100
AcDbLine
 10
-489.8534796709339
 20
-236.4599468484067
 30
0.0
 11
-261.8534796709366
 21
-8.459946848409459
 31
0.0
  0
LINE
  5
1A3
330
1F
100
AcDbEntity
  8
0-0
  6
JWW_DASHED1
 62
   120
370
     5
100
AcDbLine
 10
-489.8534796709365
 20
-250.6020824707234
 30
0.0
 11
-261.8534796709383
 21
-22.60208247072569
 31
0.0
  0
LINE
  5
1A4
330
1F
100
AcDbEntity
  8
0-0
  6
JWW_DASHED1
 62
   120
370
     5
100
AcDbLine
 10
-489.853479670933
 20
-264.7442180930895
 30
0.0
 11
-261.8534796709366
 21
-36.74421809309308
 31
0.0
  0
LINE
  5
1A5
330
1F
100
AcDbEntity
  8
0-0
  6
JWW_DASHED1
 62
   120
370
     5
100
AcDbLine
 10
-489.8534796709356
 20
-278.8863537154066
 30
0.0
 11
-261.8534796709392
 21
-50.88635371540974
 31
0.0
  0
LINE
  5
1A6
330
1F
100
AcDbEntity
  8
0-0
  6
JWW_DASHED1
 62
   120
370
     5
100
AcDbLine
 10
-489.8534796709373
 20
-293.0284893377228
 30
0.0
 11
-261.8534796709409
 21
-65.02848933772682
 31
0.0
  0
LINE
  5
1A7
330
1F
100
AcDbEntity
  8
0-0
  6
JWW_DASHED1
 62
   120
370
     5
100
AcDbLine
 10
-489.853479670939
 20
-307.170624960039
 30
0.0
 11
-261.8534796709443
 21
-79.17062496004391
 31
0.0
  0
LINE
  5
1A8
330
1F
100
AcDbEntity
  8
0-0
  6
JWW_DASHED1
 62
   120
370
     5
100
AcDbLine
 10
-489.8534796709416
 20
-321.3127605823561
 30
0.0
 11
-261.8534796709298
 21
-93.31276058234437
 31
0.0
  0
LINE
  5
1A9
330
1F
100
AcDbEntity
  8
0-0
  6
JWW_DASHED1
 62
   120
370
     5
100
AcDbLine
 10
-489.8534796709433
 20
-335.4548962046728
 30
0.0
 11
-261.8534796709315
 21
-107.4548962046606
 31
0.0
  0
LINE
  5
1AA
330
1F
100
AcDbEntity
  8
0-0
  6
JWW_DASHED1
 62
   120
370
     5
100
AcDbLine
 10
-489.8534796709458
 20
-349.597031826989
 30
0.0
 11
-261.8534796709341
 21
-121.5970318269777
 31
0.0
  0
LINE
  5
1AB
330
1F
100
AcDbEntity
  8
0-0
  6
JWW_DASHED1
 62
   120
370
     5
100
AcDbLine
 10
-489.8534796709484
 20
-363.7391674493061
 30
0.0
 11
-261.8534796709366
 21
-135.7391674492943
 31
0.0
  0
LINE
  5
1AC
330
1F
100
AcDbEntity
  8
0-0
  6
JWW_DASHED1
 62
   120
370
     5
100
AcDbLine
 10
-489.853479670945
 20
-377.8813030716177
 30
0.0
 11
-261.8534796709315
 21
-149.8813030716042
 31
0.0
  0
LINE
  5
1AD
330
1F
100
AcDbEntity
  8
0-0
  6
JWW_DASHED1
 62
   120
370
     5
100
AcDbLine
 10
-489.8534796709475
 20
-392.0234386939347
 30
0.0
 11
-261.8534796709341
 21
-164.0234386939213
 31
0.0
  0
LINE
  5
1AE
330
1F
100
AcDbEntity
  8
0-0
  6
JWW_DASHED1
 62
   120
370
     5
100
AcDbLine
 10
-489.8534796709347
 20
-406.1655743162356
 30
0.0
 11
-261.8534796709366
 21
-178.1655743162379
 31
0.0
  0
LINE
  5
1AF
330
1F
100
AcDbEntity
  8
0-0
  6
JWW_DASHED1
 62
   120
370
     5
100
AcDbLine
 10
-489.8534796709365
 20
-420.3077099385527
 30
0.0
 11
-261.8534796709392
 21
-192.307709938555
 31
0.0
  0
LINE
  5
1B0
330
1F
100
AcDbEntity
  8
0-0
  6
JWW_DASHED1
 62
   120
370
     5
100
AcDbLine
 10
-489.853479670939
 20
-434.4498455608698
 30
0.0
 11
-261.8534796709409
 21
-206.4498455608721
 31
0.0
  0
LINE
  5
1B1
330
1F
100
AcDbEntity
  8
0-0
  6
JWW_DASHED1
 62
   120
370
     5
100
AcDbLine
 10
-489.8534796709416
 20
-448.5919811831865
 30
0.0
 11
-261.8534796709434
 21
-220.5919811831888
 31
0.0
  0
LINE
  5
1B2
330
1F
100
AcDbEntity
  8
0-0
  6
JWW_DASHED1
 62
   120
370
     5
100
AcDbLine
 10
-489.8534796709313
 20
-462.7341168054916
 30
0.0
 11
-261.8534796709358
 21
-234.734116805496
 31
0.0
  0
LINE
  5
1B3
330
1F
100
AcDbEntity
  8
0-0
  6
JWW_DASHED1
 62
   120
370
     5
100
AcDbLine
 10
-489.8534796709347
 20
-476.8762524278083
 30
0.0
 11
-261.8534796709383
 21
-248.8762524278123
 31
0.0
  0
LINE
  5
1B4
330
1F
100
AcDbEntity
  8
0-0
  6
JWW_DASHED1
 62
   120
370
     5
100
AcDbLine
 10
-489.8534796709365
 20
-491.0183880501253
 30
0.0
 11
-261.85347967094
 21
-263.0183880501289
 31
0.0
  0
LINE
  5
1B5
330
1F
100
AcDbEntity
  8
0-0
  6
JWW_DASHED1
 62
   120
370
     5
100
AcDbLine
 10
-489.8534796709382
 20
-505.1605236724416
 30
0.0
 11
-261.8534796709426
 21
-277.1605236724456
 31
0.0
  0
LINE
  5
1B6
330
1F
100
AcDbEntity
  8
0-0
  6
JWW_DASHED1
 62
   120
370
     5
100
AcDbLine
 10
-489.8534796709399
 20
-519.3026592947579
 30
0.0
 11
-261.8534796709289
 21
-291.3026592947469
 31
0.0
  0
LINE
  5
1B7
330
1F
100
AcDbEntity
  8
0-0
  6
JWW_DASHED1
 62
   120
370
     5
100
AcDbLine
 10
-489.8534796709424
 20
-533.4447949170749
 30
0.0
 11
-261.8534796709315
 21
-305.444794917064
 31
0.0
  0
LINE
  5
1B8
330
1F
100
AcDbEntity
  8
0-0
  6
JWW_DASHED1
 62
   120
370
     5
100
AcDbLine
 10
-489.853479670945
 20
-547.5869305393919
 30
0.0
 11
-261.8534796709341
 21
-319.5869305393807
 31
0.0
  0
LINE
  5
1B9
330
1F
100
AcDbEntity
  8
0-0
  6
JWW_DASHED1
 62
   120
370
     5
100
AcDbLine
 10
-489.8534796709467
 20
-561.7290661617086
 30
0.0
 11
-261.8534796709358
 21
-333.7290661616973
 31
0.0
  0
LINE
  5
1BA
330
1F
100
AcDbEntity
  8
0-0
  6
JWW_DASHED1
 62
   120
370
     5
100
AcDbLine
 10
-489.8534796709467
 20
-575.8712017840219
 30
0.0
 11
-261.8534796709324
 21
-347.8712017840088
 31
0.0
  0
LINE
  5
1BB
330
1F
100
AcDbEntity
  8
0-0
  6
JWW_DASHED1
 62
   120
370
     5
100
AcDbLine
 10
-489.8534796709484
 20
-590.0133374063389
 30
0.0
 11
-261.8534796709349
 21
-362.0133374063255
 31
0.0
  0
LINE
  5
1BC
330
1F
100
AcDbEntity
  8
0-0
  6
JWW_DASHED1
 62
   120
370
     5
100
AcDbLine
 10
-489.8534796709347
 20
-604.1554730286394
 30
0.0
 11
-261.8534796709375
 21
-376.1554730286426
 31
0.0
  0
LINE
  5
1BD
330
1F
100
AcDbEntity
  8
0-0
  6
JWW_DASHED1
 62
   120
370
     5
100
AcDbLine
 10
-489.8534796709365
 20
-618.2976086509565
 30
0.0
 11
-261.85347967094
 21
-390.2976086509592
 31
0.0
  0
LINE
  5
1BE
330
1F
100
AcDbEntity
  8
0-0
  6
JWW_DASHED1
 62
   120
370
     5
100
AcDbLine
 10
-489.8534796709416
 20
-632.439744273303
 30
0.0
 11
-261.8534796709443
 21
-404.4397442733053
 31
0.0
  0
LINE
  5
1BF
330
1F
100
AcDbEntity
  8
0-0
  6
JWW_DASHED1
 62
   120
370
     5
100
AcDbLine
 10
-489.853479670933
 20
-646.5818798956359
 30
0.0
 11
-261.8534796709375
 21
-418.5818798956403
 31
0.0
  0
LINE
  5
1C0
330
1F
100
AcDbEntity
  8
0-0
  6
JWW_DASHED1
 62
   120
370
     5
100
AcDbLine
 10
-489.8534796709347
 20
-660.7240155179525
 30
0.0
 11
-261.8534796709392
 21
-432.724015517957
 31
0.0
  0
LINE
  5
1C1
330
1F
100
AcDbEntity
  8
0-0
  6
JWW_DASHED1
 62
   120
370
     5
100
AcDbLine
 10
-489.8534796709365
 20
-674.8661511402692
 30
0.0
 11
-261.8534796709409
 21
-446.8661511402736
 31
0.0
  0
LINE
  5
1C2
330
1F
100
AcDbEntity
  8
0-0
  6
JWW_DASHED1
 62
   120
370
     5
100
AcDbLine
 10
-489.853479670939
 20
-689.0082867625858
 30
0.0
 11
-261.8534796709281
 21
-461.0082867625749
 31
0.0
  0
LINE
  5
1C3
330
1F
100
AcDbEntity
  8
0-0
  6
JWW_DASHED1
 62
   120
370
     5
100
AcDbLine
 10
-489.8534796709416
 20
-703.1504223849029
 30
0.0
 11
-261.8534796709298
 21
-475.1504223848912
 31
0.0
  0
LINE
  5
1C4
330
1F
100
AcDbEntity
  8
0-0
  6
JWW_DASHED1
 62
   120
370
     5
100
AcDbLine
 10
-489.8534796709441
 20
-717.2925580072196
 30
0.0
 11
-261.8534796709324
 21
-489.2925580072074
 31
0.0
  0
LINE
  5
1C5
330
1F
100
AcDbEntity
  8
0-0
  6
JWW_DASHED1
 62
   120
370
     5
100
AcDbLine
 10
-489.8534796709458
 20
-731.4346936295362
 30
0.0
 11
-261.8534796709341
 21
-503.4346936295245
 31
0.0
  0
LINE
  5
1C6
330
1F
100
AcDbEntity
  8
0-0
  6
JWW_DASHED1
 62
   120
370
     5
100
AcDbLine
 10
-489.8534796709458
 20
-745.5768292518508
 30
0.0
 11
-261.8534796709324
 21
-517.5768292518377
 31
0.0
  0
LINE
  5
1C7
330
1F
100
AcDbEntity
  8
0-0
  6
JWW_DASHED1
 62
   120
370
     5
100
AcDbLine
 10
-489.8534796709484
 20
-759.7189648741675
 30
0.0
 11
-261.8534796709358
 21
-531.7189648741548
 31
0.0
  0
LINE
  5
1C8
330
1F
100
AcDbEntity
  8
0-0
  6
JWW_DASHED1
 62
   120
370
     5
100
AcDbLine
 10
-489.8534796709356
 20
-773.8611004964691
 30
0.0
 11
-261.8534796709375
 21
-545.8611004964711
 31
0.0
  0
LINE
  5
1C9
330
1F
100
AcDbEntity
  8
0-0
  6
JWW_DASHED1
 62
   120
370
     5
100
AcDbLine
 10
-489.8534796709373
 20
-788.0032361187858
 30
0.0
 11
-261.85347967094
 21
-560.0032361187885
 31
0.0
  0
LINE
  5
1CA
330
1F
100
AcDbEntity
  8
0-0
  6
JWW_DASHED1
 62
   120
370
     5
100
AcDbLine
 10
-489.8534796709399
 20
-802.1453717411025
 30
0.0
 11
-261.8534796709417
 21
-574.1453717411048
 31
0.0
  0
LINE
  5
1CB
330
1F
100
AcDbEntity
  8
0-0
  6
JWW_DASHED1
 62
   120
370
     5
100
AcDbLine
 10
-489.8534796709416
 20
-816.2875073634191
 30
0.0
 11
-261.8534796709443
 21
-588.287507363421
 31
0.0
  0
LINE
  5
1CC
330
1F
100
AcDbEntity
  8
0-0
  6
JWW_DASHED1
 62
   120
370
     5
100
AcDbLine
 10
-489.8534796709296
 20
-830.4296429857213
 30
0.0
 11
-261.8534796709341
 21
-602.4296429857261
 31
0.0
  0
LINE
  5
1CD
330
1F
100
AcDbEntity
  8
0-0
  6
JWW_DASHED1
 62
   120
370
     5
100
AcDbLine
 10
-489.8534796709313
 20
-844.5717786080384
 30
0.0
 11
-261.8534796709366
 21
-616.5717786080428
 31
0.0
  0
LINE
  5
1CE
330
1F
100
AcDbEntity
  8
0-0
  6
JWW_DASHED1
 62
   120
370
     5
100
AcDbLine
 10
-489.8534796709347
 20
-858.713914230355
 30
0.0
 11
-261.8534796709383
 21
-630.7139142303595
 31
0.0
  0
LINE
  5
1CF
330
1F
100
AcDbEntity
  8
0-0
  6
JWW_DASHED1
 62
   120
370
     5
100
AcDbLine
 10
-489.8534796709365
 20
-872.8560498526722
 30
0.0
 11
-261.85347967094
 21
-644.8560498526757
 31
0.0
  0
LINE
  5
1D0
330
1F
100
AcDbEntity
  8
0-0
  6
JWW_DASHED1
 62
   120
370
     5
100
AcDbLine
 10
-489.853479670939
 20
-886.9981854749892
 30
0.0
 11
-261.8534796709272
 21
-658.998185474977
 31
0.0
  0
LINE
  5
1D1
330
1F
100
AcDbEntity
  8
0-0
  6
JWW_DASHED1
 62
   120
370
     5
100
AcDbLine
 10
-489.8534796709407
 20
-901.1403210973054
 30
0.0
 11
-261.8534796709289
 21
-673.1403210972937
 31
0.0
  0
LINE
  5
1D2
330
1F
100
AcDbEntity
  8
0-0
  6
JWW_DASHED1
 62
   120
370
     5
100
AcDbLine
 10
-489.8534796709424
 20
-915.2824567196217
 30
0.0
 11
-261.8534796709315
 21
-687.2824567196108
 31
0.0
  0
LINE
  5
1D3
330
1F
100
AcDbEntity
  8
0-0
  6
JWW_DASHED1
 62
   120
370
     5
100
AcDbLine
 10
-489.853479670945
 20
-929.4245923419387
 30
0.0
 11
-261.8534796709341
 21
-701.4245923419278
 31
0.0
  0
LINE
  5
1D4
330
1F
100
AcDbEntity
  8
0-0
  6
JWW_DASHED1
 62
   120
370
     5
100
AcDbLine
 10
-489.8534796709467
 20
-943.5667279642546
 30
0.0
 11
-261.8534796709341
 21
-715.5667279642423
 31
0.0
  0
LINE
  5
1D5
330
1F
100
AcDbEntity
  8
0-0
  6
JWW_DASHED1
 62
   120
370
     5
100
AcDbLine
 10
-489.8534796709484
 20
-957.7088635865712
 30
0.0
 11
-261.8534796709358
 21
-729.7088635865587
 31
0.0
  0
LINE
  5
1D6
330
1F
100
AcDbEntity
  8
0-0
  6
JWW_DASHED1
 62
   120
370
     5
100
AcDbLine
 10
-489.8534796709347
 20
-971.8509992088725
 30
0.0
 11
-261.8534796709375
 21
-743.8509992088748
 31
0.0
  0
LINE
  5
1D7
330
1F
100
AcDbEntity
  8
0-0
  6
JWW_DASHED1
 62
   120
370
     5
100
AcDbLine
 10
-489.8534796709382
 20
-985.9931348311896
 30
0.0
 11
-261.85347967094
 21
-757.9931348311919
 31
0.0
  0
LINE
  5
1D8
330
1F
100
AcDbEntity
  8
0-0
  6
JWW_DASHED1
 62
   120
370
     5
100
AcDbLine
 10
-489.8534796709399
 20
-1000.135270453506
 30
0.0
 11
-261.8534796709426
 21
-772.1352704535086
 31
0.0
  0
LINE
  5
1D9
330
1F
100
AcDbEntity
  8
0-0
  6
JWW_DASHED1
 62
   120
370
     5
100
AcDbLine
 10
-489.8534796709313
 20
-1014.277406075866
 30
0.0
 11
-261.8534796709358
 21
-786.2774060758709
 31
0.0
  0
LINE
  5
1DA
330
1F
100
AcDbEntity
  8
0-0
  6
JWW_DASHED1
 62
   120
370
     5
100
AcDbLine
 10
-489.853479670933
 20
-1028.419541698183
 30
0.0
 11
-261.8534796709375
 21
-800.4195416981875
 31
0.0
  0
LINE
  5
1DB
330
1F
100
AcDbEntity
  8
0-0
  6
JWW_DASHED1
 62
   120
370
     5
100
AcDbLine
 10
-486.1497183236111
 20
-1038.857915973176
 30
0.0
 11
-261.8534796709392
 21
-814.5616773205038
 31
0.0
  0
LINE
  5
1DC
330
1F
100
AcDbEntity
  8
0-0
  6
JWW_DASHED1
 62
   120
370
     5
100
AcDbLine
 10
-472.0075827012957
 20
-1038.857915973174
 30
0.0
 11
-261.8534796709255
 21
-828.703812942805
 31
0.0
  0
LINE
  5
1DD
330
1F
100
AcDbEntity
  8
0-0
  6
JWW_DASHED1
 62
   120
370
     5
100
AcDbLine
 10
-457.8654470789795
 20
-1038.857915973173
 30
0.0
 11
-261.8534796709281
 21
-842.8459485651217
 31
0.0
  0
LINE
  5
1DE
330
1F
100
AcDbEntity
  8
0-0
  6
JWW_DASHED1
 62
   120
370
     5
100
AcDbLine
 10
-443.7233114566641
 20
-1038.857915973172
 30
0.0
 11
-261.8534796709307
 21
-856.988084187438
 31
0.0
  0
LINE
  5
1DF
330
1F
100
AcDbEntity
  8
0-0
  6
JWW_DASHED1
 62
   120
370
     5
100
AcDbLine
 10
-429.5811758343487
 20
-1038.857915973171
 30
0.0
 11
-261.8534796709324
 21
-871.1302198097551
 31
0.0
  0
LINE
  5
1E0
330
1F
100
AcDbEntity
  8
0-0
  6
JWW_DASHED1
 62
   120
370
     5
100
AcDbLine
 10
-415.4390402120325
 20
-1038.85791597317
 30
0.0
 11
-261.8534796709341
 21
-885.2723554320712
 31
0.0
  0
LINE
  5
1E1
330
1F
100
AcDbEntity
  8
0-0
  6
JWW_DASHED1
 62
   120
370
     5
100
AcDbLine
 10
-401.2969045897162
 20
-1038.857915973168
 30
0.0
 11
-261.8534796709358
 21
-899.4144910543871
 31
0.0
  0
LINE
  5
1E2
330
1F
100
AcDbEntity
  8
0-0
  6
JWW_DASHED1
 62
   120
370
     5
100
AcDbLine
 10
-387.1547689674
 20
-1038.857915973167
 30
0.0
 11
-261.8534796709375
 21
-913.5566266767041
 31
0.0
  0
LINE
  5
1E3
330
1F
100
AcDbEntity
  8
0-0
  6
JWW_DASHED1
 62
   120
370
     5
100
AcDbLine
 10
-373.0126333450923
 20
-1038.857915973173
 30
0.0
 11
-261.8534796709409
 21
-927.6987622990208
 31
0.0
  0
LINE
  5
1E4
330
1F
100
AcDbEntity
  8
0-0
  6
JWW_DASHED1
 62
   120
370
     5
100
AcDbLine
 10
-358.8704977227761
 20
-1038.857915973171
 30
0.0
 11
-261.8534796709426
 21
-941.840897921338
 31
0.0
  0
LINE
  5
1E5
330
1F
100
AcDbEntity
  8
0-0
  6
JWW_DASHED1
 62
   120
370
     5
100
AcDbLine
 10
-344.7283621004581
 20
-1038.857915973168
 30
0.0
 11
-261.8534796709451
 21
-955.983033543655
 31
0.0
  0
LINE
  5
1E6
330
1F
100
AcDbEntity
  8
0-0
  6
JWW_DASHED1
 62
   120
370
     5
100
AcDbLine
 10
-330.5862264781572
 20
-1038.857915973182
 30
0.0
 11
-261.8534796709324
 21
-970.1251691659559
 31
0.0
  0
LINE
  5
1E7
330
1F
100
AcDbEntity
  8
0-0
  6
JWW_DASHED1
 62
   120
370
     5
100
AcDbLine
 10
-316.444090855841
 20
-1038.857915973179
 30
0.0
 11
-261.8534796709341
 21
-984.2673047882729
 31
0.0
  0
LINE
  5
1E8
330
1F
100
AcDbEntity
  8
0-0
  6
JWW_DASHED1
 62
   120
370
     5
100
AcDbLine
 10
-302.3019552335248
 20
-1038.857915973177
 30
0.0
 11
-261.8534796709366
 21
-998.40944041059
 31
0.0
  0
LINE
  5
1E9
330
1F
100
AcDbEntity
  8
0-0
  6
JWW_DASHED1
 62
   120
370
     5
100
AcDbLine
 10
-288.1598196112068
 20
-1038.857915973175
 30
0.0
 11
-261.8534796709383
 21
-1012.551576032906
 31
0.0
  0
LINE
  5
1EA
330
1F
100
AcDbEntity
  8
0-0
  6
JWW_DASHED1
 62
   120
370
     5
100
AcDbLine
 10
-274.017683988906
 20
-1038.857915973188
 30
0.0
 11
-261.8534796709247
 21
-1026.693711655207
 31
0.0
  0
LINE
  5
1EB
330
1F
100
AcDbEntity
  8
0-0
  6
JWW_DASHED1
 62
   120
370
     5
100
AcDbLine
 10
320.1465203290499
 20
1121.18507289399
 30
0.0
 11
327.1035314618985
 21
1128.142084026838
 31
0.0
  0
LINE
  5
1EC
330
1F
100
AcDbEntity
  8
0-0
  6
JWW_DASHED1
 62
   120
370
     5
100
AcDbLine
 10
320.1465203290482
 20
1107.042937271674
 30
0.0
 11
341.2456670842138
 21
1128.14208402684
 31
0.0
  0
LINE
  5
1ED
330
1F
100
AcDbEntity
  8
0-0
  6
JWW_DASHED1
 62
   120
370
     5
100
AcDbLine
 10
320.1465203290465
 20
1092.900801649357
 30
0.0
 11
355.3878027065301
 21
1128.142084026841
 31
0.0
  0
LINE
  5
1EE
330
1F
100
AcDbEntity
  8
0-0
  6
JWW_DASHED1
 62
   120
370
     5
100
AcDbLine
 10
320.1465203290439
 20
1078.75866602704
 30
0.0
 11
369.5299383288463
 21
1128.142084026842
 31
0.0
  0
LINE
  5
1EF
330
1F
100
AcDbEntity
  8
0-0
  6
JWW_DASHED1
 62
   120
370
     5
100
AcDbLine
 10
320.1465203290567
 20
1064.616530404739
 30
0.0
 11
383.6720739511463
 21
1128.142084026828
 31
0.0
  0
LINE
  5
1F0
330
1F
100
AcDbEntity
  8
0-0
  6
JWW_DASHED1
 62
   120
370
     5
100
AcDbLine
 10
320.146520329055
 20
1050.474394782422
 30
0.0
 11
397.8142095734617
 21
1128.142084026829
 31
0.0
  0
LINE
  5
1F1
330
1F
100
AcDbEntity
  8
0-0
  6
JWW_DASHED1
 62
   120
370
     5
100
AcDbLine
 10
320.1465203290661
 20
1036.332259160092
 30
0.0
 11
411.9563451957984
 21
1128.142084026823
 31
0.0
  0
LINE
  5
1F2
330
1F
100
AcDbEntity
  8
0-0
  6
JWW_DASHED1
 62
   120
370
     5
100
AcDbLine
 10
320.1465203290618
 20
1022.190123537746
 30
0.0
 11
426.0984808181445
 21
1128.142084026828
 31
0.0
  0
LINE
  5
1F3
330
1F
100
AcDbEntity
  8
0-0
  6
JWW_DASHED1
 62
   120
370
     5
100
AcDbLine
 10
320.1465203290601
 20
1008.047987915429
 30
0.0
 11
440.2406164404616
 21
1128.14208402683
 31
0.0
  0
LINE
  5
1F4
330
1F
100
AcDbEntity
  8
0-0
  6
JWW_DASHED1
 62
   120
370
     5
100
AcDbLine
 10
320.1465203290584
 20
993.9058522931132
 30
0.0
 11
454.3827520627778
 21
1128.142084026832
 31
0.0
  0
LINE
  5
1F5
330
1F
100
AcDbEntity
  8
0-0
  6
JWW_DASHED1
 62
   120
370
     5
100
AcDbLine
 10
320.1465203290567
 20
979.7637166707965
 30
0.0
 11
468.524887685094
 21
1128.142084026835
 31
0.0
  0
LINE
  5
1F6
330
1F
100
AcDbEntity
  8
0-0
  6
JWW_DASHED1
 62
   120
370
     5
100
AcDbLine
 10
320.1465203290533
 20
965.6215810484794
 30
0.0
 11
482.6670233074
 21
1128.142084026826
 31
0.0
  0
LINE
  5
1F7
330
1F
100
AcDbEntity
  8
0-0
  6
JWW_DASHED1
 62
   120
370
     5
100
AcDbLine
 10
320.1465203290516
 20
951.4794454261628
 30
0.0
 11
496.8091589297163
 21
1128.142084026827
 31
0.0
  0
LINE
  5
1F8
330
1F
100
AcDbEntity
  8
0-0
  6
JWW_DASHED1
 62
   120
370
     5
100
AcDbLine
 10
320.1465203290499
 20
937.3373098038461
 30
0.0
 11
510.9512945520325
 21
1128.142084026829
 31
0.0
  0
LINE
  5
1F9
330
1F
100
AcDbEntity
  8
0-0
  6
JWW_DASHED1
 62
   120
370
     5
100
AcDbLine
 10
320.1465203290473
 20
923.1951741815294
 30
0.0
 11
525.0934301743479
 21
1128.14208402683
 31
0.0
  0
LINE
  5
1FA
330
1F
100
AcDbEntity
  8
0-0
  6
JWW_DASHED1
 62
   120
370
     5
100
AcDbLine
 10
320.1465203290448
 20
909.0530385592127
 30
0.0
 11
539.2355657966632
 21
1128.142084026831
 31
0.0
  0
LINE
  5
1FB
330
1F
100
AcDbEntity
  8
0-0
  6
JWW_DASHED1
 62
   120
370
     5
100
AcDbLine
 10
320.1465203290567
 20
894.9109029369097
 30
0.0
 11
548.1465203290702
 21
1122.910902936923
 31
0.0
  0
LINE
  5
1FC
330
1F
100
AcDbEntity
  8
0-0
  6
JWW_DASHED1
 62
   120
370
     5
100
AcDbLine
 10
320.146520329055
 20
880.7687673145931
 30
0.0
 11
548.1465203290677
 21
1108.768767314606
 31
0.0
  0
LINE
  5
1FD
330
1F
100
AcDbEntity
  8
0-0
  6
JWW_DASHED1
 62
   120
370
     5
100
AcDbLine
 10
320.1465203290687
 20
866.6266316922922
 30
0.0
 11
548.1465203290659
 21
1094.626631692289
 31
0.0
  0
LINE
  5
1FE
330
1F
100
AcDbEntity
  8
0-0
  6
JWW_DASHED1
 62
   120
370
     5
100
AcDbLine
 10
320.1465203290661
 20
852.4844960699755
 30
0.0
 11
548.1465203290625
 21
1080.484496069972
 31
0.0
  0
LINE
  5
1FF
330
1F
100
AcDbEntity
  8
0-0
  6
JWW_DASHED1
 62
   120
370
     5
100
AcDbLine
 10
320.1465203290635
 20
838.3423604476584
 30
0.0
 11
548.1465203290609
 21
1066.342360447656
 31
0.0
  0
LINE
  5
200
330
1F
100
AcDbEntity
  8
0-0
  6
JWW_DASHED1
 62
   120
370
     5
100
AcDbLine
 10
320.1465203290635
 20
824.2002248253439
 30
0.0
 11
548.1465203290591
 21
1052.20022482534
 31
0.0
  0
LINE
  5
201
330
1F
100
AcDbEntity
  8
0-0
  6
JWW_DASHED1
 62
   120
370
     5
100
AcDbLine
 10
320.146520329061
 20
810.0580892030268
 30
0.0
 11
548.1465203290575
 21
1038.058089203023
 31
0.0
  0
LINE
  5
202
330
1F
100
AcDbEntity
  8
0-0
  6
JWW_DASHED1
 62
   120
370
     5
100
AcDbLine
 10
320.1465203290584
 20
795.9159535807102
 30
0.0
 11
548.1465203290549
 21
1023.915953580706
 31
0.0
  0
LINE
  5
203
330
1F
100
AcDbEntity
  8
0-0
  6
JWW_DASHED1
 62
   120
370
     5
100
AcDbLine
 10
320.1465203290567
 20
781.7738179583935
 30
0.0
 11
548.1465203290522
 21
1009.773817958389
 31
0.0
  0
LINE
  5
204
330
1F
100
AcDbEntity
  8
0-0
  6
JWW_DASHED1
 62
   120
370
     5
100
AcDbLine
 10
320.146520329055
 20
767.6316823360769
 30
0.0
 11
548.1465203290659
 21
995.6316823360886
 31
0.0
  0
LINE
  5
205
330
1F
100
AcDbEntity
  8
0-0
  6
JWW_DASHED1
 62
   120
370
     5
100
AcDbLine
 10
320.1465203290533
 20
753.4895467137607
 30
0.0
 11
548.1465203290643
 21
981.4895467137719
 31
0.0
  0
LINE
  5
206
330
1F
100
AcDbEntity
  8
0-0
  6
JWW_DASHED1
 62
   120
370
     5
100
AcDbLine
 10
320.1465203290499
 20
739.3474110914435
 30
0.0
 11
548.1465203290625
 21
967.3474110914553
 31
0.0
  0
LINE
  5
207
330
1F
100
AcDbEntity
  8
0-0
  6
JWW_DASHED1
 62
   120
370
     5
100
AcDbLine
 10
320.1465203290482
 20
725.2052754691273
 30
0.0
 11
548.14652032906
 21
953.2052754691387
 31
0.0
  0
LINE
  5
208
330
1F
100
AcDbEntity
  8
0-0
  6
JWW_DASHED1
 62
   120
370
     5
100
AcDbLine
 10
320.1465203290439
 20
711.0631398467808
 30
0.0
 11
548.1465203290556
 21
939.0631398467922
 31
0.0
  0
LINE
  5
209
330
1F
100
AcDbEntity
  8
0-0
  6
JWW_DASHED1
 62
   120
370
     5
100
AcDbLine
 10
320.1465203290678
 20
696.9210042244633
 30
0.0
 11
548.1465203290651
 21
924.9210042244601
 31
0.0
  0
LINE
  5
20A
330
1F
100
AcDbEntity
  8
0-0
  6
JWW_DASHED1
 62
   120
370
     5
100
AcDbLine
 10
320.1465203290661
 20
682.7788686021466
 30
0.0
 11
548.1465203290634
 21
910.7788686021439
 31
0.0
  0
LINE
  5
20B
330
1F
100
AcDbEntity
  8
0-0
  6
JWW_DASHED1
 62
   120
370
     5
100
AcDbLine
 10
320.1465203290635
 20
668.63673297983
 30
0.0
 11
548.1465203290609
 21
896.6367329798268
 31
0.0
  0
LINE
  5
20C
330
1F
100
AcDbEntity
  8
0-0
  6
JWW_DASHED1
 62
   120
370
     5
100
AcDbLine
 10
320.1465203290653
 20
654.4945973575168
 30
0.0
 11
548.1465203290609
 21
882.4945973575119
 31
0.0
  0
LINE
  5
20D
330
1F
100
AcDbEntity
  8
0-0
  6
JWW_DASHED1
 62
   120
370
     5
100
AcDbLine
 10
320.1465203290627
 20
640.3524617351997
 30
0.0
 11
548.1465203290575
 21
868.3524617351948
 31
0.0
  0
LINE
  5
20E
330
1F
100
AcDbEntity
  8
0-0
  6
JWW_DASHED1
 62
   120
370
     5
100
AcDbLine
 10
320.1465203290601
 20
626.2103261128825
 30
0.0
 11
548.1465203290556
 21
854.2103261128785
 31
0.0
  0
LINE
  5
20F
330
1F
100
AcDbEntity
  8
0-0
  6
JWW_DASHED1
 62
   120
370
     5
100
AcDbLine
 10
320.1465203290584
 20
612.0681904905659
 30
0.0
 11
548.146520329054
 21
840.0681904905615
 31
0.0
  0
LINE
  5
210
330
1F
100
AcDbEntity
  8
0-0
  6
JWW_DASHED1
 62
   120
370
     5
100
AcDbLine
 10
320.146520329055
 20
597.9260548682488
 30
0.0
 11
548.1465203290677
 21
825.926054868261
 31
0.0
  0
LINE
  5
211
330
1F
100
AcDbEntity
  8
0-0
  6
JWW_DASHED1
 62
   120
370
     5
100
AcDbLine
 10
320.1465203290533
 20
583.7839192459326
 30
0.0
 11
548.1465203290651
 21
811.7839192459439
 31
0.0
  0
LINE
  5
212
330
1F
100
AcDbEntity
  8
0-0
  6
JWW_DASHED1
 62
   120
370
     5
100
AcDbLine
 10
320.1465203290516
 20
569.6417836236163
 30
0.0
 11
548.1465203290625
 21
797.6417836236272
 31
0.0
  0
LINE
  5
213
330
1F
100
AcDbEntity
  8
0-0
  6
JWW_DASHED1
 62
   120
370
     5
100
AcDbLine
 10
320.1465203290499
 20
555.4996480012993
 30
0.0
 11
548.1465203290609
 21
783.499648001311
 31
0.0
  0
LINE
  5
214
330
1F
100
AcDbEntity
  8
0-0
  6
JWW_DASHED1
 62
   120
370
     5
100
AcDbLine
 10
320.1465203290465
 20
541.3575123789822
 30
0.0
 11
548.1465203290591
 21
769.357512378994
 31
0.0
  0
LINE
  5
215
330
1F
100
AcDbEntity
  8
0-0
  6
JWW_DASHED1
 62
   120
370
     5
100
AcDbLine
 10
320.1465203290567
 20
527.2153767566774
 30
0.0
 11
548.1465203290693
 21
755.2153767566901
 31
0.0
  0
LINE
  5
216
330
1F
100
AcDbEntity
  8
0-0
  6
JWW_DASHED1
 62
   120
370
     5
100
AcDbLine
 10
320.1465203290542
 20
513.0732411343604
 30
0.0
 11
548.1465203290677
 21
741.0732411343735
 31
0.0
  0
LINE
  5
217
330
1F
100
AcDbEntity
  8
0-0
  6
JWW_DASHED1
 62
   120
370
     5
100
AcDbLine
 10
320.146520329067
 20
498.9311055120595
 30
0.0
 11
548.1465203290643
 21
726.9311055120563
 31
0.0
  0
LINE
  5
218
330
1F
100
AcDbEntity
  8
0-0
  6
JWW_DASHED1
 62
   120
370
     5
100
AcDbLine
 10
320.1465203290653
 20
484.7889698897424
 30
0.0
 11
548.1465203290625
 21
712.7889698897401
 31
0.0
  0
LINE
  5
219
330
1F
100
AcDbEntity
  8
0-0
  6
JWW_DASHED1
 62
   120
370
     5
100
AcDbLine
 10
320.1465203290627
 20
470.6468342674253
 30
0.0
 11
548.1465203290609
 21
698.6468342674231
 31
0.0
  0
LINE
  5
21A
330
1F
100
AcDbEntity
  8
0-0
  6
JWW_DASHED1
 62
   120
370
     5
100
AcDbLine
 10
320.1465203290653
 20
456.5046986451134
 30
0.0
 11
548.1465203290609
 21
684.5046986451093
 31
0.0
  0
LINE
  5
21B
330
1F
100
AcDbEntity
  8
0-0
  6
JWW_DASHED1
 62
   120
370
     5
100
AcDbLine
 10
320.1465203290627
 20
442.3625630227963
 30
0.0
 11
548.1465203290591
 21
670.3625630227928
 31
0.0
  0
LINE
  5
21C
330
1F
100
AcDbEntity
  8
0-0
  6
JWW_DASHED1
 62
   120
370
     5
100
AcDbLine
 10
320.146520329061
 20
428.22042740048
 30
0.0
 11
548.1465203290575
 21
656.2204274004761
 31
0.0
  0
LINE
  5
21D
330
1F
100
AcDbEntity
  8
0-0
  6
JWW_DASHED1
 62
   120
370
     5
100
AcDbLine
 10
320.1465203290593
 20
414.0782917781638
 30
0.0
 11
548.146520329054
 21
642.0782917781589
 31
0.0
  0
LINE
  5
21E
330
1F
100
AcDbEntity
  8
0-0
  6
JWW_DASHED1
 62
   120
370
     5
100
AcDbLine
 10
320.1465203290567
 20
399.9361561558467
 30
0.0
 11
548.1465203290685
 21
627.9361561558585
 31
0.0
  0
LINE
  5
21F
330
1F
100
AcDbEntity
  8
0-0
  6
JWW_DASHED1
 62
   120
370
     5
100
AcDbLine
 10
320.1465203290499
 20
385.7940205334712
 30
0.0
 11
548.1465203290625
 21
613.794020533483
 31
0.0
  0
LINE
  5
220
330
1F
100
AcDbEntity
  8
0-0
  6
JWW_DASHED1
 62
   120
370
     5
100
AcDbLine
 10
320.1465203290482
 20
371.6518849111546
 30
0.0
 11
548.1465203290591
 21
599.6518849111659
 31
0.0
  0
LINE
  5
221
330
1F
100
AcDbEntity
  8
0-0
  6
JWW_DASHED1
 62
   120
370
     5
100
AcDbLine
 10
320.1465203290567
 20
357.5097492888482
 30
0.0
 11
548.1465203290693
 21
585.5097492888613
 31
0.0
  0
LINE
  5
222
330
1F
100
AcDbEntity
  8
0-0
  6
JWW_DASHED1
 62
   120
370
     5
100
AcDbLine
 10
320.1465203290542
 20
343.3676136665315
 30
0.0
 11
548.1465203290668
 21
571.3676136665441
 31
0.0
  0
LINE
  5
223
330
1F
100
AcDbEntity
  8
0-0
  6
JWW_DASHED1
 62
   120
370
     5
100
AcDbLine
 10
320.146520329067
 20
329.2254780442302
 30
0.0
 11
548.1465203290643
 21
557.225478044227
 31
0.0
  0
LINE
  5
224
330
1F
100
AcDbEntity
  8
0-0
  6
JWW_DASHED1
 62
   120
370
     5
100
AcDbLine
 10
320.1465203290653
 20
315.0833424219131
 30
0.0
 11
548.1465203290625
 21
543.0833424219109
 31
0.0
  0
LINE
  5
225
330
1F
100
AcDbEntity
  8
0-0
  6
JWW_DASHED1
 62
   120
370
     5
100
AcDbLine
 10
320.1465203290627
 20
300.9412067995964
 30
0.0
 11
548.1465203290609
 21
528.9412067995942
 31
0.0
  0
LINE
  5
226
330
1F
100
AcDbEntity
  8
0-0
  6
JWW_DASHED1
 62
   120
370
     5
100
AcDbLine
 10
320.146520329067
 20
286.7990711772862
 30
0.0
 11
548.1465203290625
 21
514.7990711772818
 31
0.0
  0
LINE
  5
227
330
1F
100
AcDbEntity
  8
0-0
  6
JWW_DASHED1
 62
   120
370
     5
100
AcDbLine
 10
320.1465203290644
 20
272.6569355549691
 30
0.0
 11
548.1465203290609
 21
500.6569355549651
 31
0.0
  0
LINE
  5
228
330
1F
100
AcDbEntity
  8
0-0
  6
JWW_DASHED1
 62
   120
370
     5
100
AcDbLine
 10
320.1465203290627
 20
258.5147999326529
 30
0.0
 11
548.1465203290575
 21
486.514799932648
 31
0.0
  0
LINE
  5
229
330
1F
100
AcDbEntity
  8
0-0
  6
JWW_DASHED1
 62
   120
370
     5
100
AcDbLine
 10
320.1465203290601
 20
244.3726643103358
 30
0.0
 11
548.1465203290556
 21
472.3726643103309
 31
0.0
  0
LINE
  5
22A
330
1F
100
AcDbEntity
  8
0-0
  6
JWW_DASHED1
 62
   120
370
     5
100
AcDbLine
 10
320.1465203290576
 20
230.2305286880187
 30
0.0
 11
548.1465203290531
 21
458.2305286880143
 31
0.0
  0
LINE
  5
22B
330
1F
100
AcDbEntity
  8
0-0
  6
JWW_DASHED1
 62
   120
370
     5
100
AcDbLine
 10
320.146520329055
 20
216.088393065702
 30
0.0
 11
548.1465203290677
 21
444.0883930657142
 31
0.0
  0
LINE
  5
22C
330
1F
100
AcDbEntity
  8
0-0
  6
JWW_DASHED1
 62
   120
370
     5
100
AcDbLine
 10
320.1465203290533
 20
201.9462574433858
 30
0.0
 11
548.1465203290651
 21
429.9462574433971
 31
0.0
  0
LINE
  5
22D
330
1F
100
AcDbEntity
  8
0-0
  6
JWW_DASHED1
 62
   120
370
     5
100
AcDbLine
 10
320.1465203290516
 20
187.8041218210691
 30
0.0
 11
548.1465203290625
 21
415.8041218210805
 31
0.0
  0
LINE
  5
22E
330
1F
100
AcDbEntity
  8
0-0
  6
JWW_DASHED1
 62
   120
370
     5
100
AcDbLine
 10
320.1465203290499
 20
173.6619861987525
 30
0.0
 11
548.1465203290609
 21
401.6619861987634
 31
0.0
  0
LINE
  5
22F
330
1F
100
AcDbEntity
  8
0-0
  6
JWW_DASHED1
 62
   120
370
     5
100
AcDbLine
 10
320.146520329055
 20
159.5198505764439
 30
0.0
 11
548.1465203290693
 21
387.5198505764574
 31
0.0
  0
LINE
  5
230
330
1F
100
AcDbEntity
  8
0-0
  6
JWW_DASHED1
 62
   120
370
     5
100
AcDbLine
 10
320.1465203290533
 20
145.3777149541268
 30
0.0
 11
548.1465203290659
 21
373.3777149541403
 31
0.0
  0
LINE
  5
231
330
1F
100
AcDbEntity
  8
0-0
  6
JWW_DASHED1
 62
   120
370
     5
100
AcDbLine
 10
320.146520329067
 20
131.2355793318264
 30
0.0
 11
548.1465203290643
 21
359.2355793318237
 31
0.0
  0
LINE
  5
232
330
1F
100
AcDbEntity
  8
0-0
  6
JWW_DASHED1
 62
   120
370
     5
100
AcDbLine
 10
320.1465203290653
 20
117.0934437095102
 30
0.0
 11
548.1465203290617
 21
345.0934437095066
 31
0.0
  0
LINE
  5
233
330
1F
100
AcDbEntity
  8
0-0
  6
JWW_DASHED1
 62
   120
370
     5
100
AcDbLine
 10
320.1465203290627
 20
102.9513080871931
 30
0.0
 11
548.14652032906
 21
330.9513080871903
 31
0.0
  0
LINE
  5
234
330
1F
100
AcDbEntity
  8
0-0
  6
JWW_DASHED1
 62
   120
370
     5
100
AcDbLine
 10
320.1465203290601
 20
88.80917246487599
 30
0.0
 11
548.1465203290575
 21
316.8091724648733
 31
0.0
  0
LINE
  5
235
330
1F
100
AcDbEntity
  8
0-0
  6
JWW_DASHED1
 62
   120
370
     5
100
AcDbLine
 10
320.1465203290653
 20
74.66703684256657
 30
0.0
 11
548.1465203290609
 21
302.6670368425625
 31
0.0
  0
LINE
  5
236
330
1F
100
AcDbEntity
  8
0-0
  6
JWW_DASHED1
 62
   120
370
     5
100
AcDbLine
 10
320.1465203290584
 20
60.52490122019108
 30
0.0
 11
548.1465203290556
 21
288.5249012201875
 31
0.0
  0
LINE
  5
237
330
1F
100
AcDbEntity
  8
0-0
  6
JWW_DASHED1
 62
   120
370
     5
100
AcDbLine
 10
320.1465203290567
 20
46.382765597874
 30
0.0
 11
548.1465203290685
 21
274.3827655978862
 31
0.0
  0
LINE
  5
238
330
1F
100
AcDbEntity
  8
0-0
  6
JWW_DASHED1
 62
   120
370
     5
100
AcDbLine
 10
320.146520329055
 20
32.24062997555777
 30
0.0
 11
548.1465203290659
 21
260.2406299755691
 31
0.0
  0
LINE
  5
239
330
1F
100
AcDbEntity
  8
0-0
  6
JWW_DASHED1
 62
   120
370
     5
100
AcDbLine
 10
320.1465203290525
 20
18.09849435324153
 30
0.0
 11
548.1465203290643
 21
246.0984943532524
 31
0.0
  0
LINE
  5
23A
330
1F
100
AcDbEntity
  8
0-0
  6
JWW_DASHED1
 62
   120
370
     5
100
AcDbLine
 10
320.1465203290499
 20
3.95635873092445
 30
0.0
 11
548.1465203290609
 21
231.9563587309354
 31
0.0
  0
LINE
  5
23B
330
1F
100
AcDbEntity
  8
0-0
  6
JWW_DASHED1
 62
   120
370
     5
100
AcDbLine
 10
320.146520329055
 20
-10.18577689138539
 30
0.0
 11
548.1465203290685
 21
217.8142231086281
 31
0.0
  0
LINE
  5
23C
330
1F
100
AcDbEntity
  8
0-0
  6
JWW_DASHED1
 62
   120
370
     5
100
AcDbLine
 10
320.1465203290533
 20
-24.32791251370205
 30
0.0
 11
548.1465203290659
 21
203.672087486311
 31
0.0
  0
LINE
  5
23D
330
1F
100
AcDbEntity
  8
0-0
  6
JWW_DASHED1
 62
   120
370
     5
100
AcDbLine
 10
320.146520329067
 20
-38.47004813600293
 30
0.0
 11
548.1465203290643
 21
189.5299518639943
 31
0.0
  0
LINE
  5
23E
330
1F
100
AcDbEntity
  8
0-0
  6
JWW_DASHED1
 62
   120
370
     5
100
AcDbLine
 10
320.1465203290635
 20
-52.61218375831959
 30
0.0
 11
548.1465203290609
 21
175.3878162416773
 31
0.0
  0
LINE
  5
23F
330
1F
100
AcDbEntity
  8
0-0
  6
JWW_DASHED1
 62
   120
370
     5
100
AcDbLine
 10
320.1465203290618
 20
-66.75431938063625
 30
0.0
 11
548.1465203290591
 21
161.2456806193606
 31
0.0
  0
LINE
  5
240
330
1F
100
AcDbEntity
  8
0-0
  6
JWW_DASHED1
 62
   120
370
     5
100
AcDbLine
 10
320.1465203290601
 20
-80.8964550029529
 30
0.0
 11
548.1465203290575
 21
147.1035449970439
 31
0.0
  0
LINE
  5
241
330
1F
100
AcDbEntity
  8
0-0
  6
JWW_DASHED1
 62
   120
370
     5
100
AcDbLine
 10
320.1465203290661
 20
-95.03859062526146
 30
0.0
 11
548.1465203290625
 21
132.9614093747345
 31
0.0
  0
LINE
  5
242
330
1F
100
AcDbEntity
  8
0-0
  6
JWW_DASHED1
 62
   120
370
     5
100
AcDbLine
 10
320.1465203290644
 20
-109.1807262475777
 30
0.0
 11
548.14652032906
 21
118.8192737524183
 31
0.0
  0
LINE
  5
243
330
1F
100
AcDbEntity
  8
0-0
  6
JWW_DASHED1
 62
   120
370
     5
100
AcDbLine
 10
320.1465203290618
 20
-123.3228618698944
 30
0.0
 11
548.1465203290575
 21
104.6771381301012
 31
0.0
  0
LINE
  5
244
330
1F
100
AcDbEntity
  8
0-0
  6
JWW_DASHED1
 62
   120
370
     5
100
AcDbLine
 10
320.1465203290601
 20
-137.464997492211
 30
0.0
 11
548.1465203290556
 21
90.53500250778413
 31
0.0
  0
LINE
  5
245
330
1F
100
AcDbEntity
  8
0-0
  6
JWW_DASHED1
 62
   120
370
     5
100
AcDbLine
 10
320.1465203290576
 20
-151.6071331145281
 30
0.0
 11
548.1465203290693
 21
76.39286688548367
 31
0.0
  0
LINE
  5
246
330
1F
100
AcDbEntity
  8
0-0
  6
JWW_DASHED1
 62
   120
370
     5
100
AcDbLine
 10
320.146520329055
 20
-165.7492687368448
 30
0.0
 11
548.1465203290677
 21
62.25073126316744
 31
0.0
  0
LINE
  5
247
330
1F
100
AcDbEntity
  8
0-0
  6
JWW_DASHED1
 62
   120
370
     5
100
AcDbLine
 10
320.1465203290533
 20
-179.8914043591618
 30
0.0
 11
548.1465203290651
 21
48.10859564085035
 31
0.0
  0
LINE
  5
248
330
1F
100
AcDbEntity
  8
0-0
  6
JWW_DASHED1
 62
   120
370
     5
100
AcDbLine
 10
320.1465203290516
 20
-194.0335399814781
 30
0.0
 11
548.1465203290625
 21
33.96646001853327
 31
0.0
  0
LINE
  5
249
330
1F
100
AcDbEntity
  8
0-0
  6
JWW_DASHED1
 62
   120
370
     5
100
AcDbLine
 10
320.146520329055
 20
-208.1756756037883
 30
0.0
 11
548.1465203290677
 21
19.82432439622428
 31
0.0
  0
LINE
  5
24A
330
1F
100
AcDbEntity
  8
0-0
  6
JWW_DASHED1
 62
   120
370
     5
100
AcDbLine
 10
320.1465203290533
 20
-222.3178112261054
 30
0.0
 11
548.1465203290659
 21
5.682188773907626
 31
0.0
  0
LINE
  5
24B
330
1F
100
AcDbEntity
  8
0-0
  6
JWW_DASHED1
 62
   120
370
     5
100
AcDbLine
 10
320.1465203290661
 20
-236.4599468484067
 30
0.0
 11
548.1465203290634
 21
-8.459946848409459
 31
0.0
  0
LINE
  5
24C
330
1F
100
AcDbEntity
  8
0-0
  6
JWW_DASHED1
 62
   120
370
     5
100
AcDbLine
 10
320.1465203290635
 20
-250.6020824707234
 30
0.0
 11
548.1465203290617
 21
-22.60208247072569
 31
0.0
  0
LINE
  5
24D
330
1F
100
AcDbEntity
  8
0-0
  6
JWW_DASHED1
 62
   120
370
     5
100
AcDbLine
 10
320.146520329067
 20
-264.7442180930895
 30
0.0
 11
548.1465203290634
 21
-36.74421809309308
 31
0.0
  0
LINE
  5
24E
330
1F
100
AcDbEntity
  8
0-0
  6
JWW_DASHED1
 62
   120
370
     5
100
AcDbLine
 10
320.1465203290644
 20
-278.8863537154066
 30
0.0
 11
548.1465203290609
 21
-50.88635371540974
 31
0.0
  0
LINE
  5
24F
330
1F
100
AcDbEntity
  8
0-0
  6
JWW_DASHED1
 62
   120
370
     5
100
AcDbLine
 10
320.1465203290627
 20
-293.0284893377228
 30
0.0
 11
548.1465203290591
 21
-65.02848933772682
 31
0.0
  0
LINE
  5
250
330
1F
100
AcDbEntity
  8
0-0
  6
JWW_DASHED1
 62
   120
370
     5
100
AcDbLine
 10
320.146520329061
 20
-307.170624960039
 30
0.0
 11
548.1465203290556
 21
-79.17062496004391
 31
0.0
  0
LINE
  5
251
330
1F
100
AcDbEntity
  8
0-0
  6
JWW_DASHED1
 62
   120
370
     5
100
AcDbLine
 10
320.1465203290584
 20
-321.3127605823561
 30
0.0
 11
548.1465203290702
 21
-93.31276058234437
 31
0.0
  0
LINE
  5
252
330
1F
100
AcDbEntity
  8
0-0
  6
JWW_DASHED1
 62
   120
370
     5
100
AcDbLine
 10
320.1465203290567
 20
-335.4548962046728
 30
0.0
 11
548.1465203290685
 21
-107.4548962046606
 31
0.0
  0
LINE
  5
253
330
1F
100
AcDbEntity
  8
0-0
  6
JWW_DASHED1
 62
   120
370
     5
100
AcDbLine
 10
320.1465203290542
 20
-349.597031826989
 30
0.0
 11
548.1465203290659
 21
-121.5970318269777
 31
0.0
  0
LINE
  5
254
330
1F
100
AcDbEntity
  8
0-0
  6
JWW_DASHED1
 62
   120
370
     5
100
AcDbLine
 10
320.1465203290516
 20
-363.7391674493061
 30
0.0
 11
548.1465203290634
 21
-135.7391674492943
 31
0.0
  0
LINE
  5
255
330
1F
100
AcDbEntity
  8
0-0
  6
JWW_DASHED1
 62
   120
370
     5
100
AcDbLine
 10
320.146520329055
 20
-377.8813030716177
 30
0.0
 11
548.1465203290685
 21
-149.8813030716042
 31
0.0
  0
LINE
  5
256
330
1F
100
AcDbEntity
  8
0-0
  6
JWW_DASHED1
 62
   120
370
     5
100
AcDbLine
 10
320.1465203290525
 20
-392.0234386939347
 30
0.0
 11
548.1465203290659
 21
-164.0234386939213
 31
0.0
  0
LINE
  5
257
330
1F
100
AcDbEntity
  8
0-0
  6
JWW_DASHED1
 62
   120
370
     5
100
AcDbLine
 10
320.1465203290653
 20
-406.1655743162356
 30
0.0
 11
548.1465203290634
 21
-178.1655743162379
 31
0.0
  0
LINE
  5
258
330
1F
100
AcDbEntity
  8
0-0
  6
JWW_DASHED1
 62
   120
370
     5
100
AcDbLine
 10
320.1465203290635
 20
-420.3077099385527
 30
0.0
 11
548.1465203290609
 21
-192.307709938555
 31
0.0
  0
LINE
  5
259
330
1F
100
AcDbEntity
  8
0-0
  6
JWW_DASHED1
 62
   120
370
     5
100
AcDbLine
 10
320.146520329061
 20
-434.4498455608698
 30
0.0
 11
548.1465203290591
 21
-206.4498455608721
 31
0.0
  0
LINE
  5
25A
330
1F
100
AcDbEntity
  8
0-0
  6
JWW_DASHED1
 62
   120
370
     5
100
AcDbLine
 10
320.1465203290584
 20
-448.5919811831865
 30
0.0
 11
548.1465203290566
 21
-220.5919811831888
 31
0.0
  0
LINE
  5
25B
330
1F
100
AcDbEntity
  8
0-0
  6
JWW_DASHED1
 62
   120
370
     5
100
AcDbLine
 10
320.1465203290687
 20
-462.7341168054916
 30
0.0
 11
548.1465203290643
 21
-234.734116805496
 31
0.0
  0
LINE
  5
25C
330
1F
100
AcDbEntity
  8
0-0
  6
JWW_DASHED1
 62
   120
370
     5
100
AcDbLine
 10
320.1465203290653
 20
-476.8762524278083
 30
0.0
 11
548.1465203290617
 21
-248.8762524278123
 31
0.0
  0
LINE
  5
25D
330
1F
100
AcDbEntity
  8
0-0
  6
JWW_DASHED1
 62
   120
370
     5
100
AcDbLine
 10
320.1465203290635
 20
-491.0183880501253
 30
0.0
 11
548.14652032906
 21
-263.0183880501289
 31
0.0
  0
LINE
  5
25E
330
1F
100
AcDbEntity
  8
0-0
  6
JWW_DASHED1
 62
   120
370
     5
100
AcDbLine
 10
320.1465203290618
 20
-505.1605236724416
 30
0.0
 11
548.1465203290575
 21
-277.1605236724456
 31
0.0
  0
LINE
  5
25F
330
1F
100
AcDbEntity
  8
0-0
  6
JWW_DASHED1
 62
   120
370
     5
100
AcDbLine
 10
320.1465203290601
 20
-519.3026592947579
 30
0.0
 11
548.1465203290711
 21
-291.3026592947469
 31
0.0
  0
LINE
  5
260
330
1F
100
AcDbEntity
  8
0-0
  6
JWW_DASHED1
 62
   120
370
     5
100
AcDbLine
 10
320.1465203290576
 20
-533.4447949170749
 30
0.0
 11
548.1465203290685
 21
-305.444794917064
 31
0.0
  0
LINE
  5
261
330
1F
100
AcDbEntity
  8
0-0
  6
JWW_DASHED1
 62
   120
370
     5
100
AcDbLine
 10
320.146520329055
 20
-547.5869305393919
 30
0.0
 11
548.1465203290659
 21
-319.5869305393807
 31
0.0
  0
LINE
  5
262
330
1F
100
AcDbEntity
  8
0-0
  6
JWW_DASHED1
 62
   120
370
     5
100
AcDbLine
 10
320.1465203290533
 20
-561.7290661617086
 30
0.0
 11
548.1465203290643
 21
-333.7290661616973
 31
0.0
  0
LINE
  5
263
330
1F
100
AcDbEntity
  8
0-0
  6
JWW_DASHED1
 62
   120
370
     5
100
AcDbLine
 10
320.1465203290533
 20
-575.8712017840219
 30
0.0
 11
548.1465203290677
 21
-347.8712017840088
 31
0.0
  0
LINE
  5
264
330
1F
100
AcDbEntity
  8
0-0
  6
JWW_DASHED1
 62
   120
370
     5
100
AcDbLine
 10
320.1465203290516
 20
-590.0133374063389
 30
0.0
 11
548.1465203290651
 21
-362.0133374063255
 31
0.0
  0
LINE
  5
265
330
1F
100
AcDbEntity
  8
0-0
  6
JWW_DASHED1
 62
   120
370
     5
100
AcDbLine
 10
320.1465203290653
 20
-604.1554730286394
 30
0.0
 11
548.1465203290625
 21
-376.1554730286426
 31
0.0
  0
LINE
  5
266
330
1F
100
AcDbEntity
  8
0-0
  6
JWW_DASHED1
 62
   120
370
     5
100
AcDbLine
 10
320.1465203290635
 20
-618.2976086509565
 30
0.0
 11
548.14652032906
 21
-390.2976086509592
 31
0.0
  0
LINE
  5
267
330
1F
100
AcDbEntity
  8
0-0
  6
JWW_DASHED1
 62
   120
370
     5
100
AcDbLine
 10
320.1465203290584
 20
-632.439744273303
 30
0.0
 11
548.1465203290556
 21
-404.4397442733053
 31
0.0
  0
LINE
  5
268
330
1F
100
AcDbEntity
  8
0-0
  6
JWW_DASHED1
 62
   120
370
     5
100
AcDbLine
 10
320.146520329067
 20
-646.5818798956359
 30
0.0
 11
548.1465203290625
 21
-418.5818798956403
 31
0.0
  0
LINE
  5
269
330
1F
100
AcDbEntity
  8
0-0
  6
JWW_DASHED1
 62
   120
370
     5
100
AcDbLine
 10
320.1465203290653
 20
-660.7240155179525
 30
0.0
 11
548.1465203290609
 21
-432.724015517957
 31
0.0
  0
LINE
  5
26A
330
1F
100
AcDbEntity
  8
0-0
  6
JWW_DASHED1
 62
   120
370
     5
100
AcDbLine
 10
320.1465203290635
 20
-674.8661511402692
 30
0.0
 11
548.1465203290591
 21
-446.8661511402736
 31
0.0
  0
LINE
  5
26B
330
1F
100
AcDbEntity
  8
0-0
  6
JWW_DASHED1
 62
   120
370
     5
100
AcDbLine
 10
320.146520329061
 20
-689.0082867625858
 30
0.0
 11
548.1465203290719
 21
-461.0082867625749
 31
0.0
  0
LINE
  5
26C
330
1F
100
AcDbEntity
  8
0-0
  6
JWW_DASHED1
 62
   120
370
     5
100
AcDbLine
 10
320.1465203290584
 20
-703.1504223849029
 30
0.0
 11
548.1465203290702
 21
-475.1504223848912
 31
0.0
  0
LINE
  5
26D
330
1F
100
AcDbEntity
  8
0-0
  6
JWW_DASHED1
 62
   120
370
     5
100
AcDbLine
 10
320.1465203290559
 20
-717.2925580072196
 30
0.0
 11
548.1465203290677
 21
-489.2925580072074
 31
0.0
  0
LINE
  5
26E
330
1F
100
AcDbEntity
  8
0-0
  6
JWW_DASHED1
 62
   120
370
     5
100
AcDbLine
 10
320.1465203290542
 20
-731.4346936295362
 30
0.0
 11
548.1465203290659
 21
-503.4346936295245
 31
0.0
  0
LINE
  5
26F
330
1F
100
AcDbEntity
  8
0-0
  6
JWW_DASHED1
 62
   120
370
     5
100
AcDbLine
 10
320.1465203290542
 20
-745.5768292518508
 30
0.0
 11
548.1465203290677
 21
-517.5768292518377
 31
0.0
  0
LINE
  5
270
330
1F
100
AcDbEntity
  8
0-0
  6
JWW_DASHED1
 62
   120
370
     5
100
AcDbLine
 10
320.1465203290516
 20
-759.7189648741675
 30
0.0
 11
548.1465203290643
 21
-531.7189648741548
 31
0.0
  0
LINE
  5
271
330
1F
100
AcDbEntity
  8
0-0
  6
JWW_DASHED1
 62
   120
370
     5
100
AcDbLine
 10
320.1465203290644
 20
-773.8611004964691
 30
0.0
 11
548.1465203290625
 21
-545.8611004964711
 31
0.0
  0
LINE
  5
272
330
1F
100
AcDbEntity
  8
0-0
  6
JWW_DASHED1
 62
   120
370
     5
100
AcDbLine
 10
320.1465203290627
 20
-788.0032361187858
 30
0.0
 11
548.14652032906
 21
-560.0032361187885
 31
0.0
  0
LINE
  5
273
330
1F
100
AcDbEntity
  8
0-0
  6
JWW_DASHED1
 62
   120
370
     5
100
AcDbLine
 10
320.1465203290601
 20
-802.1453717411025
 30
0.0
 11
548.1465203290583
 21
-574.1453717411048
 31
0.0
  0
LINE
  5
274
330
1F
100
AcDbEntity
  8
0-0
  6
JWW_DASHED1
 62
   120
370
     5
100
AcDbLine
 10
320.1465203290584
 20
-816.2875073634191
 30
0.0
 11
548.1465203290556
 21
-588.287507363421
 31
0.0
  0
LINE
  5
275
330
1F
100
AcDbEntity
  8
0-0
  6
JWW_DASHED1
 62
   120
370
     5
100
AcDbLine
 10
320.1465203290704
 20
-830.4296429857213
 30
0.0
 11
548.1465203290659
 21
-602.4296429857261
 31
0.0
  0
LINE
  5
276
330
1F
100
AcDbEntity
  8
0-0
  6
JWW_DASHED1
 62
   120
370
     5
100
AcDbLine
 10
320.1465203290687
 20
-844.5717786080384
 30
0.0
 11
548.1465203290634
 21
-616.5717786080428
 31
0.0
  0
LINE
  5
277
330
1F
100
AcDbEntity
  8
0-0
  6
JWW_DASHED1
 62
   120
370
     5
100
AcDbLine
 10
320.1465203290653
 20
-858.713914230355
 30
0.0
 11
548.1465203290617
 21
-630.7139142303595
 31
0.0
  0
LINE
  5
278
330
1F
100
AcDbEntity
  8
0-0
  6
JWW_DASHED1
 62
   120
370
     5
100
AcDbLine
 10
320.1465203290635
 20
-872.8560498526722
 30
0.0
 11
548.14652032906
 21
-644.8560498526757
 31
0.0
  0
LINE
  5
279
330
1F
100
AcDbEntity
  8
0-0
  6
JWW_DASHED1
 62
   120
370
     5
100
AcDbLine
 10
320.146520329061
 20
-886.9981854749892
 30
0.0
 11
548.1465203290727
 21
-658.998185474977
 31
0.0
  0
LINE
  5
27A
330
1F
100
AcDbEntity
  8
0-0
  6
JWW_DASHED1
 62
   120
370
     5
100
AcDbLine
 10
320.1465203290593
 20
-901.1403210973054
 30
0.0
 11
548.1465203290711
 21
-673.1403210972937
 31
0.0
  0
LINE
  5
27B
330
1F
100
AcDbEntity
  8
0-0
  6
JWW_DASHED1
 62
   120
370
     5
100
AcDbLine
 10
320.1465203290576
 20
-915.2824567196217
 30
0.0
 11
548.1465203290685
 21
-687.2824567196108
 31
0.0
  0
LINE
  5
27C
330
1F
100
AcDbEntity
  8
0-0
  6
JWW_DASHED1
 62
   120
370
     5
100
AcDbLine
 10
320.146520329055
 20
-929.4245923419387
 30
0.0
 11
548.1465203290659
 21
-701.4245923419278
 31
0.0
  0
LINE
  5
27D
330
1F
100
AcDbEntity
  8
0-0
  6
JWW_DASHED1
 62
   120
370
     5
100
AcDbLine
 10
320.1465203290533
 20
-943.5667279642546
 30
0.0
 11
548.1465203290659
 21
-715.5667279642423
 31
0.0
  0
LINE
  5
27E
330
1F
100
AcDbEntity
  8
0-0
  6
JWW_DASHED1
 62
   120
370
     5
100
AcDbLine
 10
320.1465203290516
 20
-957.7088635865712
 30
0.0
 11
548.1465203290643
 21
-729.7088635865587
 31
0.0
  0
LINE
  5
27F
330
1F
100
AcDbEntity
  8
0-0
  6
JWW_DASHED1
 62
   120
370
     5
100
AcDbLine
 10
320.1465203290653
 20
-971.8509992088725
 30
0.0
 11
548.1465203290625
 21
-743.8509992088748
 31
0.0
  0
LINE
  5
280
330
1F
100
AcDbEntity
  8
0-0
  6
JWW_DASHED1
 62
   120
370
     5
100
AcDbLine
 10
320.1465203290618
 20
-985.9931348311896
 30
0.0
 11
548.14652032906
 21
-757.9931348311919
 31
0.0
  0
LINE
  5
281
330
1F
100
AcDbEntity
  8
0-0
  6
JWW_DASHED1
 62
   120
370
     5
100
AcDbLine
 10
320.1465203290601
 20
-1000.135270453506
 30
0.0
 11
548.1465203290575
 21
-772.1352704535086
 31
0.0
  0
LINE
  5
282
330
1F
100
AcDbEntity
  8
0-0
  6
JWW_DASHED1
 62
   120
370
     5
100
AcDbLine
 10
320.1465203290687
 20
-1014.277406075866
 30
0.0
 11
548.1465203290643
 21
-786.2774060758709
 31
0.0
  0
LINE
  5
283
330
1F
100
AcDbEntity
  8
0-0
  6
JWW_DASHED1
 62
   120
370
     5
100
AcDbLine
 10
320.146520329067
 20
-1028.419541698183
 30
0.0
 11
548.1465203290625
 21
-800.4195416981875
 31
0.0
  0
LINE
  5
284
330
1F
100
AcDbEntity
  8
0-0
  6
JWW_DASHED1
 62
   120
370
     5
100
AcDbLine
 10
323.8502816763889
 20
-1038.857915973176
 30
0.0
 11
548.1465203290609
 21
-814.5616773205038
 31
0.0
  0
LINE
  5
285
330
1F
100
AcDbEntity
  8
0-0
  6
JWW_DASHED1
 62
   120
370
     5
100
AcDbLine
 10
337.9924172987043
 20
-1038.857915973174
 30
0.0
 11
548.1465203290745
 21
-828.703812942805
 31
0.0
  0
LINE
  5
286
330
1F
100
AcDbEntity
  8
0-0
  6
JWW_DASHED1
 62
   120
370
     5
100
AcDbLine
 10
352.1345529210205
 20
-1038.857915973173
 30
0.0
 11
548.1465203290719
 21
-842.8459485651217
 31
0.0
  0
LINE
  5
287
330
1F
100
AcDbEntity
  8
0-0
  6
JWW_DASHED1
 62
   120
370
     5
100
AcDbLine
 10
366.2766885433359
 20
-1038.857915973172
 30
0.0
 11
548.1465203290693
 21
-856.988084187438
 31
0.0
  0
LINE
  5
288
330
1F
100
AcDbEntity
  8
0-0
  6
JWW_DASHED1
 62
   120
370
     5
100
AcDbLine
 10
380.4188241656513
 20
-1038.857915973171
 30
0.0
 11
548.1465203290677
 21
-871.1302198097551
 31
0.0
  0
LINE
  5
289
330
1F
100
AcDbEntity
  8
0-0
  6
JWW_DASHED1
 62
   120
370
     5
100
AcDbLine
 10
394.5609597879675
 20
-1038.85791597317
 30
0.0
 11
548.1465203290659
 21
-885.2723554320712
 31
0.0
  0
LINE
  5
28A
330
1F
100
AcDbEntity
  8
0-0
  6
JWW_DASHED1
 62
   120
370
     5
100
AcDbLine
 10
408.7030954102838
 20
-1038.857915973168
 30
0.0
 11
548.1465203290643
 21
-899.4144910543871
 31
0.0
  0
LINE
  5
28B
330
1F
100
AcDbEntity
  8
0-0
  6
JWW_DASHED1
 62
   120
370
     5
100
AcDbLine
 10
422.8452310326
 20
-1038.857915973167
 30
0.0
 11
548.1465203290625
 21
-913.5566266767041
 31
0.0
  0
LINE
  5
28C
330
1F
100
AcDbEntity
  8
0-0
  6
JWW_DASHED1
 62
   120
370
     5
100
AcDbLine
 10
436.9873666549077
 20
-1038.857915973173
 30
0.0
 11
548.1465203290591
 21
-927.6987622990208
 31
0.0
  0
LINE
  5
28D
330
1F
100
AcDbEntity
  8
0-0
  6
JWW_DASHED1
 62
   120
370
     5
100
AcDbLine
 10
451.1295022772239
 20
-1038.857915973171
 30
0.0
 11
548.1465203290575
 21
-941.840897921338
 31
0.0
  0
LINE
  5
28E
330
1F
100
AcDbEntity
  8
0-0
  6
JWW_DASHED1
 62
   120
370
     5
100
AcDbLine
 10
465.2716378995419
 20
-1038.857915973168
 30
0.0
 11
548.1465203290549
 21
-955.983033543655
 31
0.0
  0
LINE
  5
28F
330
1F
100
AcDbEntity
  8
0-0
  6
JWW_DASHED1
 62
   120
370
     5
100
AcDbLine
 10
479.4137735218428
 20
-1038.857915973182
 30
0.0
 11
548.1465203290677
 21
-970.1251691659559
 31
0.0
  0
LINE
  5
290
330
1F
100
AcDbEntity
  8
0-0
  6
JWW_DASHED1
 62
   120
370
     5
100
AcDbLine
 10
493.555909144159
 20
-1038.857915973179
 30
0.0
 11
548.1465203290659
 21
-984.2673047882729
 31
0.0
  0
LINE
  5
291
330
1F
100
AcDbEntity
  8
0-0
  6
JWW_DASHED1
 62
   120
370
     5
100
AcDbLine
 10
507.6980447664752
 20
-1038.857915973177
 30
0.0
 11
548.1465203290634
 21
-998.40944041059
 31
0.0
  0
LINE
  5
292
330
1F
100
AcDbEntity
  8
0-0
  6
JWW_DASHED1
 62
   120
370
     5
100
AcDbLine
 10
521.8401803887932
 20
-1038.857915973175
 30
0.0
 11
548.1465203290617
 21
-1012.551576032906
 31
0.0
  0
LINE
  5
293
330
1F
100
AcDbEntity
  8
0-0
  6
JWW_DASHED1
 62
   120
370
     5
100
AcDbLine
 10
535.9823160110941
 20
-1038.857915973188
 30
0.0
 11
548.1465203290753
 21
-1026.693711655207
 31
0.0
  0
LINE
  5
294
330
1F
100
AcDbEntity
  8
0-0
  6
JWW_DASHED1
 62
   120
370
     5
100
AcDbLine
 10
1100.14652032905
 20
1121.18507289399
 30
0.0
 11
1107.103531461898
 21
1128.142084026838
 31
0.0
  0
LINE
  5
295
330
1F
100
AcDbEntity
  8
0-0
  6
JWW_DASHED1
 62
   120
370
     5
100
AcDbLine
 10
1100.146520329048
 20
1107.042937271674
 30
0.0
 11
1121.245667084214
 21
1128.14208402684
 31
0.0
  0
LINE
  5
296
330
1F
100
AcDbEntity
  8
0-0
  6
JWW_DASHED1
 62
   120
370
     5
100
AcDbLine
 10
1100.146520329047
 20
1092.900801649357
 30
0.0
 11
1135.38780270653
 21
1128.142084026841
 31
0.0
  0
LINE
  5
297
330
1F
100
AcDbEntity
  8
0-0
  6
JWW_DASHED1
 62
   120
370
     5
100
AcDbLine
 10
1100.146520329044
 20
1078.75866602704
 30
0.0
 11
1149.529938328846
 21
1128.142084026842
 31
0.0
  0
LINE
  5
298
330
1F
100
AcDbEntity
  8
0-0
  6
JWW_DASHED1
 62
   120
370
     5
100
AcDbLine
 10
1100.146520329057
 20
1064.616530404739
 30
0.0
 11
1163.672073951146
 21
1128.142084026828
 31
0.0
  0
LINE
  5
299
330
1F
100
AcDbEntity
  8
0-0
  6
JWW_DASHED1
 62
   120
370
     5
100
AcDbLine
 10
1100.146520329055
 20
1050.474394782422
 30
0.0
 11
1177.814209573462
 21
1128.142084026829
 31
0.0
  0
LINE
  5
29A
330
1F
100
AcDbEntity
  8
0-0
  6
JWW_DASHED1
 62
   120
370
     5
100
AcDbLine
 10
1100.146520329066
 20
1036.332259160092
 30
0.0
 11
1191.956345195798
 21
1128.142084026823
 31
0.0
  0
LINE
  5
29B
330
1F
100
AcDbEntity
  8
0-0
  6
JWW_DASHED1
 62
   120
370
     5
100
AcDbLine
 10
1100.146520329062
 20
1022.190123537746
 30
0.0
 11
1206.098480818144
 21
1128.142084026828
 31
0.0
  0
LINE
  5
29C
330
1F
100
AcDbEntity
  8
0-0
  6
JWW_DASHED1
 62
   120
370
     5
100
AcDbLine
 10
1100.14652032906
 20
1008.047987915429
 30
0.0
 11
1220.240616440462
 21
1128.14208402683
 31
0.0
  0
LINE
  5
29D
330
1F
100
AcDbEntity
  8
0-0
  6
JWW_DASHED1
 62
   120
370
     5
100
AcDbLine
 10
1100.146520329058
 20
993.9058522931132
 30
0.0
 11
1234.382752062778
 21
1128.142084026832
 31
0.0
  0
LINE
  5
29E
330
1F
100
AcDbEntity
  8
0-0
  6
JWW_DASHED1
 62
   120
370
     5
100
AcDbLine
 10
1100.146520329057
 20
979.7637166707965
 30
0.0
 11
1248.524887685094
 21
1128.142084026835
 31
0.0
  0
LINE
  5
29F
330
1F
100
AcDbEntity
  8
0-0
  6
JWW_DASHED1
 62
   120
370
     5
100
AcDbLine
 10
1100.146520329053
 20
965.6215810484794
 30
0.0
 11
1262.6670233074
 21
1128.142084026826
 31
0.0
  0
LINE
  5
2A0
330
1F
100
AcDbEntity
  8
0-0
  6
JWW_DASHED1
 62
   120
370
     5
100
AcDbLine
 10
1100.146520329052
 20
951.4794454261628
 30
0.0
 11
1276.809158929716
 21
1128.142084026827
 31
0.0
  0
LINE
  5
2A1
330
1F
100
AcDbEntity
  8
0-0
  6
JWW_DASHED1
 62
   120
370
     5
100
AcDbLine
 10
1100.14652032905
 20
937.3373098038461
 30
0.0
 11
1290.951294552033
 21
1128.142084026829
 31
0.0
  0
LINE
  5
2A2
330
1F
100
AcDbEntity
  8
0-0
  6
JWW_DASHED1
 62
   120
370
     5
100
AcDbLine
 10
1100.146520329047
 20
923.1951741815294
 30
0.0
 11
1305.093430174348
 21
1128.14208402683
 31
0.0
  0
LINE
  5
2A3
330
1F
100
AcDbEntity
  8
0-0
  6
JWW_DASHED1
 62
   120
370
     5
100
AcDbLine
 10
1100.146520329045
 20
909.0530385592127
 30
0.0
 11
1319.235565796663
 21
1128.142084026831
 31
0.0
  0
LINE
  5
2A4
330
1F
100
AcDbEntity
  8
0-0
  6
JWW_DASHED1
 62
   120
370
     5
100
AcDbLine
 10
1100.146520329057
 20
894.9109029369097
 30
0.0
 11
1328.14652032907
 21
1122.910902936923
 31
0.0
  0
LINE
  5
2A5
330
1F
100
AcDbEntity
  8
0-0
  6
JWW_DASHED1
 62
   120
370
     5
100
AcDbLine
 10
1100.146520329055
 20
880.7687673145931
 30
0.0
 11
1328.146520329068
 21
1108.768767314606
 31
0.0
  0
LINE
  5
2A6
330
1F
100
AcDbEntity
  8
0-0
  6
JWW_DASHED1
 62
   120
370
     5
100
AcDbLine
 10
1100.146520329069
 20
866.6266316922922
 30
0.0
 11
1328.146520329066
 21
1094.626631692289
 31
0.0
  0
LINE
  5
2A7
330
1F
100
AcDbEntity
  8
0-0
  6
JWW_DASHED1
 62
   120
370
     5
100
AcDbLine
 10
1100.146520329066
 20
852.4844960699755
 30
0.0
 11
1328.146520329062
 21
1080.484496069972
 31
0.0
  0
LINE
  5
2A8
330
1F
100
AcDbEntity
  8
0-0
  6
JWW_DASHED1
 62
   120
370
     5
100
AcDbLine
 10
1100.146520329064
 20
838.3423604476584
 30
0.0
 11
1328.146520329061
 21
1066.342360447656
 31
0.0
  0
LINE
  5
2A9
330
1F
100
AcDbEntity
  8
0-0
  6
JWW_DASHED1
 62
   120
370
     5
100
AcDbLine
 10
1100.146520329064
 20
824.2002248253439
 30
0.0
 11
1328.146520329059
 21
1052.20022482534
 31
0.0
  0
LINE
  5
2AA
330
1F
100
AcDbEntity
  8
0-0
  6
JWW_DASHED1
 62
   120
370
     5
100
AcDbLine
 10
1100.146520329061
 20
810.0580892030268
 30
0.0
 11
1328.146520329057
 21
1038.058089203023
 31
0.0
  0
LINE
  5
2AB
330
1F
100
AcDbEntity
  8
0-0
  6
JWW_DASHED1
 62
   120
370
     5
100
AcDbLine
 10
1100.146520329058
 20
795.9159535807102
 30
0.0
 11
1328.146520329055
 21
1023.915953580706
 31
0.0
  0
LINE
  5
2AC
330
1F
100
AcDbEntity
  8
0-0
  6
JWW_DASHED1
 62
   120
370
     5
100
AcDbLine
 10
1100.146520329057
 20
781.7738179583935
 30
0.0
 11
1328.146520329052
 21
1009.773817958389
 31
0.0
  0
LINE
  5
2AD
330
1F
100
AcDbEntity
  8
0-0
  6
JWW_DASHED1
 62
   120
370
     5
100
AcDbLine
 10
1100.146520329055
 20
767.6316823360769
 30
0.0
 11
1328.146520329066
 21
995.6316823360886
 31
0.0
  0
LINE
  5
2AE
330
1F
100
AcDbEntity
  8
0-0
  6
JWW_DASHED1
 62
   120
370
     5
100
AcDbLine
 10
1100.146520329053
 20
753.4895467137607
 30
0.0
 11
1328.146520329064
 21
981.4895467137719
 31
0.0
  0
LINE
  5
2AF
330
1F
100
AcDbEntity
  8
0-0
  6
JWW_DASHED1
 62
   120
370
     5
100
AcDbLine
 10
1100.14652032905
 20
739.3474110914435
 30
0.0
 11
1328.146520329062
 21
967.3474110914553
 31
0.0
  0
LINE
  5
2B0
330
1F
100
AcDbEntity
  8
0-0
  6
JWW_DASHED1
 62
   120
370
     5
100
AcDbLine
 10
1100.146520329048
 20
725.2052754691273
 30
0.0
 11
1328.14652032906
 21
953.2052754691387
 31
0.0
  0
LINE
  5
2B1
330
1F
100
AcDbEntity
  8
0-0
  6
JWW_DASHED1
 62
   120
370
     5
100
AcDbLine
 10
1100.146520329044
 20
711.0631398467808
 30
0.0
 11
1328.146520329056
 21
939.0631398467922
 31
0.0
  0
LINE
  5
2B2
330
1F
100
AcDbEntity
  8
0-0
  6
JWW_DASHED1
 62
   120
370
     5
100
AcDbLine
 10
1100.146520329068
 20
696.9210042244633
 30
0.0
 11
1328.146520329065
 21
924.9210042244601
 31
0.0
  0
LINE
  5
2B3
330
1F
100
AcDbEntity
  8
0-0
  6
JWW_DASHED1
 62
   120
370
     5
100
AcDbLine
 10
1100.146520329066
 20
682.7788686021466
 30
0.0
 11
1328.146520329063
 21
910.7788686021439
 31
0.0
  0
LINE
  5
2B4
330
1F
100
AcDbEntity
  8
0-0
  6
JWW_DASHED1
 62
   120
370
     5
100
AcDbLine
 10
1100.146520329064
 20
668.63673297983
 30
0.0
 11
1328.146520329061
 21
896.6367329798268
 31
0.0
  0
LINE
  5
2B5
330
1F
100
AcDbEntity
  8
0-0
  6
JWW_DASHED1
 62
   120
370
     5
100
AcDbLine
 10
1100.146520329065
 20
654.4945973575168
 30
0.0
 11
1328.146520329061
 21
882.4945973575119
 31
0.0
  0
LINE
  5
2B6
330
1F
100
AcDbEntity
  8
0-0
  6
JWW_DASHED1
 62
   120
370
     5
100
AcDbLine
 10
1100.146520329063
 20
640.3524617351997
 30
0.0
 11
1328.146520329057
 21
868.3524617351948
 31
0.0
  0
LINE
  5
2B7
330
1F
100
AcDbEntity
  8
0-0
  6
JWW_DASHED1
 62
   120
370
     5
100
AcDbLine
 10
1100.14652032906
 20
626.2103261128825
 30
0.0
 11
1328.146520329056
 21
854.2103261128785
 31
0.0
  0
LINE
  5
2B8
330
1F
100
AcDbEntity
  8
0-0
  6
JWW_DASHED1
 62
   120
370
     5
100
AcDbLine
 10
1100.146520329058
 20
612.0681904905659
 30
0.0
 11
1328.146520329054
 21
840.0681904905615
 31
0.0
  0
LINE
  5
2B9
330
1F
100
AcDbEntity
  8
0-0
  6
JWW_DASHED1
 62
   120
370
     5
100
AcDbLine
 10
1100.146520329055
 20
597.9260548682488
 30
0.0
 11
1328.146520329068
 21
825.926054868261
 31
0.0
  0
LINE
  5
2BA
330
1F
100
AcDbEntity
  8
0-0
  6
JWW_DASHED1
 62
   120
370
     5
100
AcDbLine
 10
1100.146520329053
 20
583.7839192459326
 30
0.0
 11
1328.146520329065
 21
811.7839192459439
 31
0.0
  0
LINE
  5
2BB
330
1F
100
AcDbEntity
  8
0-0
  6
JWW_DASHED1
 62
   120
370
     5
100
AcDbLine
 10
1100.146520329052
 20
569.6417836236163
 30
0.0
 11
1328.146520329062
 21
797.6417836236272
 31
0.0
  0
LINE
  5
2BC
330
1F
100
AcDbEntity
  8
0-0
  6
JWW_DASHED1
 62
   120
370
     5
100
AcDbLine
 10
1100.14652032905
 20
555.4996480012993
 30
0.0
 11
1328.146520329061
 21
783.499648001311
 31
0.0
  0
LINE
  5
2BD
330
1F
100
AcDbEntity
  8
0-0
  6
JWW_DASHED1
 62
   120
370
     5
100
AcDbLine
 10
1100.146520329047
 20
541.3575123789822
 30
0.0
 11
1328.146520329059
 21
769.357512378994
 31
0.0
  0
LINE
  5
2BE
330
1F
100
AcDbEntity
  8
0-0
  6
JWW_DASHED1
 62
   120
370
     5
100
AcDbLine
 10
1100.146520329057
 20
527.2153767566774
 30
0.0
 11
1328.146520329069
 21
755.2153767566901
 31
0.0
  0
LINE
  5
2BF
330
1F
100
AcDbEntity
  8
0-0
  6
JWW_DASHED1
 62
   120
370
     5
100
AcDbLine
 10
1100.146520329054
 20
513.0732411343604
 30
0.0
 11
1328.146520329068
 21
741.0732411343735
 31
0.0
  0
LINE
  5
2C0
330
1F
100
AcDbEntity
  8
0-0
  6
JWW_DASHED1
 62
   120
370
     5
100
AcDbLine
 10
1100.146520329067
 20
498.9311055120595
 30
0.0
 11
1328.146520329064
 21
726.9311055120563
 31
0.0
  0
LINE
  5
2C1
330
1F
100
AcDbEntity
  8
0-0
  6
JWW_DASHED1
 62
   120
370
     5
100
AcDbLine
 10
1100.146520329065
 20
484.7889698897424
 30
0.0
 11
1328.146520329062
 21
712.7889698897401
 31
0.0
  0
LINE
  5
2C2
330
1F
100
AcDbEntity
  8
0-0
  6
JWW_DASHED1
 62
   120
370
     5
100
AcDbLine
 10
1100.146520329063
 20
470.6468342674253
 30
0.0
 11
1328.146520329061
 21
698.6468342674231
 31
0.0
  0
LINE
  5
2C3
330
1F
100
AcDbEntity
  8
0-0
  6
JWW_DASHED1
 62
   120
370
     5
100
AcDbLine
 10
1100.146520329065
 20
456.5046986451134
 30
0.0
 11
1328.146520329061
 21
684.5046986451093
 31
0.0
  0
LINE
  5
2C4
330
1F
100
AcDbEntity
  8
0-0
  6
JWW_DASHED1
 62
   120
370
     5
100
AcDbLine
 10
1100.146520329063
 20
442.3625630227963
 30
0.0
 11
1328.146520329059
 21
670.3625630227928
 31
0.0
  0
LINE
  5
2C5
330
1F
100
AcDbEntity
  8
0-0
  6
JWW_DASHED1
 62
   120
370
     5
100
AcDbLine
 10
1100.146520329061
 20
428.22042740048
 30
0.0
 11
1328.146520329057
 21
656.2204274004761
 31
0.0
  0
LINE
  5
2C6
330
1F
100
AcDbEntity
  8
0-0
  6
JWW_DASHED1
 62
   120
370
     5
100
AcDbLine
 10
1100.146520329059
 20
414.0782917781638
 30
0.0
 11
1328.146520329054
 21
642.0782917781589
 31
0.0
  0
LINE
  5
2C7
330
1F
100
AcDbEntity
  8
0-0
  6
JWW_DASHED1
 62
   120
370
     5
100
AcDbLine
 10
1100.146520329057
 20
399.9361561558467
 30
0.0
 11
1328.146520329069
 21
627.9361561558585
 31
0.0
  0
LINE
  5
2C8
330
1F
100
AcDbEntity
  8
0-0
  6
JWW_DASHED1
 62
   120
370
     5
100
AcDbLine
 10
1100.14652032905
 20
385.7940205334712
 30
0.0
 11
1328.146520329062
 21
613.794020533483
 31
0.0
  0
LINE
  5
2C9
330
1F
100
AcDbEntity
  8
0-0
  6
JWW_DASHED1
 62
   120
370
     5
100
AcDbLine
 10
1100.146520329048
 20
371.6518849111546
 30
0.0
 11
1328.146520329059
 21
599.6518849111659
 31
0.0
  0
LINE
  5
2CA
330
1F
100
AcDbEntity
  8
0-0
  6
JWW_DASHED1
 62
   120
370
     5
100
AcDbLine
 10
1100.146520329057
 20
357.5097492888482
 30
0.0
 11
1328.146520329069
 21
585.5097492888613
 31
0.0
  0
LINE
  5
2CB
330
1F
100
AcDbEntity
  8
0-0
  6
JWW_DASHED1
 62
   120
370
     5
100
AcDbLine
 10
1100.146520329054
 20
343.3676136665315
 30
0.0
 11
1328.146520329067
 21
571.3676136665441
 31
0.0
  0
LINE
  5
2CC
330
1F
100
AcDbEntity
  8
0-0
  6
JWW_DASHED1
 62
   120
370
     5
100
AcDbLine
 10
1100.146520329067
 20
329.2254780442302
 30
0.0
 11
1328.146520329064
 21
557.225478044227
 31
0.0
  0
LINE
  5
2CD
330
1F
100
AcDbEntity
  8
0-0
  6
JWW_DASHED1
 62
   120
370
     5
100
AcDbLine
 10
1100.146520329065
 20
315.0833424219131
 30
0.0
 11
1328.146520329062
 21
543.0833424219109
 31
0.0
  0
LINE
  5
2CE
330
1F
100
AcDbEntity
  8
0-0
  6
JWW_DASHED1
 62
   120
370
     5
100
AcDbLine
 10
1100.146520329063
 20
300.9412067995964
 30
0.0
 11
1328.146520329061
 21
528.9412067995942
 31
0.0
  0
LINE
  5
2CF
330
1F
100
AcDbEntity
  8
0-0
  6
JWW_DASHED1
 62
   120
370
     5
100
AcDbLine
 10
1100.146520329067
 20
286.7990711772862
 30
0.0
 11
1328.146520329062
 21
514.7990711772818
 31
0.0
  0
LINE
  5
2D0
330
1F
100
AcDbEntity
  8
0-0
  6
JWW_DASHED1
 62
   120
370
     5
100
AcDbLine
 10
1100.146520329065
 20
272.6569355549691
 30
0.0
 11
1328.146520329061
 21
500.6569355549651
 31
0.0
  0
LINE
  5
2D1
330
1F
100
AcDbEntity
  8
0-0
  6
JWW_DASHED1
 62
   120
370
     5
100
AcDbLine
 10
1100.146520329063
 20
258.5147999326529
 30
0.0
 11
1328.146520329057
 21
486.514799932648
 31
0.0
  0
LINE
  5
2D2
330
1F
100
AcDbEntity
  8
0-0
  6
JWW_DASHED1
 62
   120
370
     5
100
AcDbLine
 10
1100.14652032906
 20
244.3726643103358
 30
0.0
 11
1328.146520329056
 21
472.3726643103309
 31
0.0
  0
LINE
  5
2D3
330
1F
100
AcDbEntity
  8
0-0
  6
JWW_DASHED1
 62
   120
370
     5
100
AcDbLine
 10
1100.146520329058
 20
230.2305286880187
 30
0.0
 11
1328.146520329053
 21
458.2305286880143
 31
0.0
  0
LINE
  5
2D4
330
1F
100
AcDbEntity
  8
0-0
  6
JWW_DASHED1
 62
   120
370
     5
100
AcDbLine
 10
1100.146520329055
 20
216.088393065702
 30
0.0
 11
1328.146520329068
 21
444.0883930657142
 31
0.0
  0
LINE
  5
2D5
330
1F
100
AcDbEntity
  8
0-0
  6
JWW_DASHED1
 62
   120
370
     5
100
AcDbLine
 10
1100.146520329053
 20
201.9462574433858
 30
0.0
 11
1328.146520329065
 21
429.9462574433971
 31
0.0
  0
LINE
  5
2D6
330
1F
100
AcDbEntity
  8
0-0
  6
JWW_DASHED1
 62
   120
370
     5
100
AcDbLine
 10
1100.146520329052
 20
187.8041218210691
 30
0.0
 11
1328.146520329062
 21
415.8041218210805
 31
0.0
  0
LINE
  5
2D7
330
1F
100
AcDbEntity
  8
0-0
  6
JWW_DASHED1
 62
   120
370
     5
100
AcDbLine
 10
1100.14652032905
 20
173.6619861987525
 30
0.0
 11
1328.146520329061
 21
401.6619861987634
 31
0.0
  0
LINE
  5
2D8
330
1F
100
AcDbEntity
  8
0-0
  6
JWW_DASHED1
 62
   120
370
     5
100
AcDbLine
 10
1100.146520329055
 20
159.5198505764439
 30
0.0
 11
1328.146520329069
 21
387.5198505764574
 31
0.0
  0
LINE
  5
2D9
330
1F
100
AcDbEntity
  8
0-0
  6
JWW_DASHED1
 62
   120
370
     5
100
AcDbLine
 10
1100.146520329053
 20
145.3777149541268
 30
0.0
 11
1328.146520329066
 21
373.3777149541403
 31
0.0
  0
LINE
  5
2DA
330
1F
100
AcDbEntity
  8
0-0
  6
JWW_DASHED1
 62
   120
370
     5
100
AcDbLine
 10
1100.146520329067
 20
131.2355793318264
 30
0.0
 11
1328.146520329064
 21
359.2355793318237
 31
0.0
  0
LINE
  5
2DB
330
1F
100
AcDbEntity
  8
0-0
  6
JWW_DASHED1
 62
   120
370
     5
100
AcDbLine
 10
1100.146520329065
 20
117.0934437095102
 30
0.0
 11
1328.146520329062
 21
345.0934437095066
 31
0.0
  0
LINE
  5
2DC
330
1F
100
AcDbEntity
  8
0-0
  6
JWW_DASHED1
 62
   120
370
     5
100
AcDbLine
 10
1100.146520329063
 20
102.9513080871931
 30
0.0
 11
1328.14652032906
 21
330.9513080871903
 31
0.0
  0
LINE
  5
2DD
330
1F
100
AcDbEntity
  8
0-0
  6
JWW_DASHED1
 62
   120
370
     5
100
AcDbLine
 10
1100.14652032906
 20
88.80917246487599
 30
0.0
 11
1328.146520329057
 21
316.8091724648733
 31
0.0
  0
LINE
  5
2DE
330
1F
100
AcDbEntity
  8
0-0
  6
JWW_DASHED1
 62
   120
370
     5
100
AcDbLine
 10
1100.146520329065
 20
74.66703684256657
 30
0.0
 11
1328.146520329061
 21
302.6670368425625
 31
0.0
  0
LINE
  5
2DF
330
1F
100
AcDbEntity
  8
0-0
  6
JWW_DASHED1
 62
   120
370
     5
100
AcDbLine
 10
1100.146520329058
 20
60.52490122019108
 30
0.0
 11
1328.146520329056
 21
288.5249012201875
 31
0.0
  0
LINE
  5
2E0
330
1F
100
AcDbEntity
  8
0-0
  6
JWW_DASHED1
 62
   120
370
     5
100
AcDbLine
 10
1100.146520329057
 20
46.382765597874
 30
0.0
 11
1328.146520329069
 21
274.3827655978862
 31
0.0
  0
LINE
  5
2E1
330
1F
100
AcDbEntity
  8
0-0
  6
JWW_DASHED1
 62
   120
370
     5
100
AcDbLine
 10
1100.146520329055
 20
32.24062997555777
 30
0.0
 11
1328.146520329066
 21
260.2406299755691
 31
0.0
  0
LINE
  5
2E2
330
1F
100
AcDbEntity
  8
0-0
  6
JWW_DASHED1
 62
   120
370
     5
100
AcDbLine
 10
1100.146520329052
 20
18.09849435324153
 30
0.0
 11
1328.146520329064
 21
246.0984943532524
 31
0.0
  0
LINE
  5
2E3
330
1F
100
AcDbEntity
  8
0-0
  6
JWW_DASHED1
 62
   120
370
     5
100
AcDbLine
 10
1100.14652032905
 20
3.95635873092445
 30
0.0
 11
1328.146520329061
 21
231.9563587309354
 31
0.0
  0
LINE
  5
2E4
330
1F
100
AcDbEntity
  8
0-0
  6
JWW_DASHED1
 62
   120
370
     5
100
AcDbLine
 10
1100.146520329055
 20
-10.18577689138539
 30
0.0
 11
1328.146520329069
 21
217.8142231086281
 31
0.0
  0
LINE
  5
2E5
330
1F
100
AcDbEntity
  8
0-0
  6
JWW_DASHED1
 62
   120
370
     5
100
AcDbLine
 10
1100.146520329053
 20
-24.32791251370205
 30
0.0
 11
1328.146520329066
 21
203.672087486311
 31
0.0
  0
LINE
  5
2E6
330
1F
100
AcDbEntity
  8
0-0
  6
JWW_DASHED1
 62
   120
370
     5
100
AcDbLine
 10
1100.146520329067
 20
-38.47004813600293
 30
0.0
 11
1328.146520329064
 21
189.5299518639943
 31
0.0
  0
LINE
  5
2E7
330
1F
100
AcDbEntity
  8
0-0
  6
JWW_DASHED1
 62
   120
370
     5
100
AcDbLine
 10
1100.146520329064
 20
-52.61218375831959
 30
0.0
 11
1328.146520329061
 21
175.3878162416773
 31
0.0
  0
LINE
  5
2E8
330
1F
100
AcDbEntity
  8
0-0
  6
JWW_DASHED1
 62
   120
370
     5
100
AcDbLine
 10
1100.146520329062
 20
-66.75431938063625
 30
0.0
 11
1328.146520329059
 21
161.2456806193606
 31
0.0
  0
LINE
  5
2E9
330
1F
100
AcDbEntity
  8
0-0
  6
JWW_DASHED1
 62
   120
370
     5
100
AcDbLine
 10
1100.14652032906
 20
-80.8964550029529
 30
0.0
 11
1328.146520329057
 21
147.1035449970439
 31
0.0
  0
LINE
  5
2EA
330
1F
100
AcDbEntity
  8
0-0
  6
JWW_DASHED1
 62
   120
370
     5
100
AcDbLine
 10
1100.146520329066
 20
-95.03859062526146
 30
0.0
 11
1328.146520329062
 21
132.9614093747345
 31
0.0
  0
LINE
  5
2EB
330
1F
100
AcDbEntity
  8
0-0
  6
JWW_DASHED1
 62
   120
370
     5
100
AcDbLine
 10
1100.146520329065
 20
-109.1807262475777
 30
0.0
 11
1328.14652032906
 21
118.8192737524183
 31
0.0
  0
LINE
  5
2EC
330
1F
100
AcDbEntity
  8
0-0
  6
JWW_DASHED1
 62
   120
370
     5
100
AcDbLine
 10
1100.146520329062
 20
-123.3228618698944
 30
0.0
 11
1328.146520329057
 21
104.6771381301012
 31
0.0
  0
LINE
  5
2ED
330
1F
100
AcDbEntity
  8
0-0
  6
JWW_DASHED1
 62
   120
370
     5
100
AcDbLine
 10
1100.14652032906
 20
-137.464997492211
 30
0.0
 11
1328.146520329056
 21
90.53500250778413
 31
0.0
  0
LINE
  5
2EE
330
1F
100
AcDbEntity
  8
0-0
  6
JWW_DASHED1
 62
   120
370
     5
100
AcDbLine
 10
1100.146520329058
 20
-151.6071331145281
 30
0.0
 11
1328.146520329069
 21
76.39286688548367
 31
0.0
  0
LINE
  5
2EF
330
1F
100
AcDbEntity
  8
0-0
  6
JWW_DASHED1
 62
   120
370
     5
100
AcDbLine
 10
1100.146520329055
 20
-165.7492687368448
 30
0.0
 11
1328.146520329068
 21
62.25073126316744
 31
0.0
  0
LINE
  5
2F0
330
1F
100
AcDbEntity
  8
0-0
  6
JWW_DASHED1
 62
   120
370
     5
100
AcDbLine
 10
1100.146520329053
 20
-179.8914043591618
 30
0.0
 11
1328.146520329065
 21
48.10859564085035
 31
0.0
  0
LINE
  5
2F1
330
1F
100
AcDbEntity
  8
0-0
  6
JWW_DASHED1
 62
   120
370
     5
100
AcDbLine
 10
1100.146520329052
 20
-194.0335399814781
 30
0.0
 11
1328.146520329062
 21
33.96646001853327
 31
0.0
  0
LINE
  5
2F2
330
1F
100
AcDbEntity
  8
0-0
  6
JWW_DASHED1
 62
   120
370
     5
100
AcDbLine
 10
1100.146520329055
 20
-208.1756756037883
 30
0.0
 11
1328.146520329068
 21
19.82432439622428
 31
0.0
  0
LINE
  5
2F3
330
1F
100
AcDbEntity
  8
0-0
  6
JWW_DASHED1
 62
   120
370
     5
100
AcDbLine
 10
1100.146520329053
 20
-222.3178112261054
 30
0.0
 11
1328.146520329066
 21
5.682188773907626
 31
0.0
  0
LINE
  5
2F4
330
1F
100
AcDbEntity
  8
0-0
  6
JWW_DASHED1
 62
   120
370
     5
100
AcDbLine
 10
1100.146520329066
 20
-236.4599468484067
 30
0.0
 11
1328.146520329063
 21
-8.459946848409459
 31
0.0
  0
LINE
  5
2F5
330
1F
100
AcDbEntity
  8
0-0
  6
JWW_DASHED1
 62
   120
370
     5
100
AcDbLine
 10
1100.146520329064
 20
-250.6020824707234
 30
0.0
 11
1328.146520329062
 21
-22.60208247072569
 31
0.0
  0
LINE
  5
2F6
330
1F
100
AcDbEntity
  8
0-0
  6
JWW_DASHED1
 62
   120
370
     5
100
AcDbLine
 10
1100.146520329067
 20
-264.7442180930895
 30
0.0
 11
1328.146520329063
 21
-36.74421809309308
 31
0.0
  0
LINE
  5
2F7
330
1F
100
AcDbEntity
  8
0-0
  6
JWW_DASHED1
 62
   120
370
     5
100
AcDbLine
 10
1100.146520329065
 20
-278.8863537154066
 30
0.0
 11
1328.146520329061
 21
-50.88635371540974
 31
0.0
  0
LINE
  5
2F8
330
1F
100
AcDbEntity
  8
0-0
  6
JWW_DASHED1
 62
   120
370
     5
100
AcDbLine
 10
1100.146520329063
 20
-293.0284893377228
 30
0.0
 11
1328.146520329059
 21
-65.02848933772682
 31
0.0
  0
LINE
  5
2F9
330
1F
100
AcDbEntity
  8
0-0
  6
JWW_DASHED1
 62
   120
370
     5
100
AcDbLine
 10
1100.146520329061
 20
-307.170624960039
 30
0.0
 11
1328.146520329056
 21
-79.17062496004391
 31
0.0
  0
LINE
  5
2FA
330
1F
100
AcDbEntity
  8
0-0
  6
JWW_DASHED1
 62
   120
370
     5
100
AcDbLine
 10
1100.146520329058
 20
-321.3127605823561
 30
0.0
 11
1328.14652032907
 21
-93.31276058234437
 31
0.0
  0
LINE
  5
2FB
330
1F
100
AcDbEntity
  8
0-0
  6
JWW_DASHED1
 62
   120
370
     5
100
AcDbLine
 10
1100.146520329057
 20
-335.4548962046728
 30
0.0
 11
1328.146520329069
 21
-107.4548962046606
 31
0.0
  0
LINE
  5
2FC
330
1F
100
AcDbEntity
  8
0-0
  6
JWW_DASHED1
 62
   120
370
     5
100
AcDbLine
 10
1100.146520329054
 20
-349.597031826989
 30
0.0
 11
1328.146520329066
 21
-121.5970318269777
 31
0.0
  0
LINE
  5
2FD
330
1F
100
AcDbEntity
  8
0-0
  6
JWW_DASHED1
 62
   120
370
     5
100
AcDbLine
 10
1100.146520329052
 20
-363.7391674493061
 30
0.0
 11
1328.146520329063
 21
-135.7391674492943
 31
0.0
  0
LINE
  5
2FE
330
1F
100
AcDbEntity
  8
0-0
  6
JWW_DASHED1
 62
   120
370
     5
100
AcDbLine
 10
1100.146520329055
 20
-377.8813030716177
 30
0.0
 11
1328.146520329069
 21
-149.8813030716042
 31
0.0
  0
LINE
  5
2FF
330
1F
100
AcDbEntity
  8
0-0
  6
JWW_DASHED1
 62
   120
370
     5
100
AcDbLine
 10
1100.146520329052
 20
-392.0234386939347
 30
0.0
 11
1328.146520329066
 21
-164.0234386939213
 31
0.0
  0
LINE
  5
300
330
1F
100
AcDbEntity
  8
0-0
  6
JWW_DASHED1
 62
   120
370
     5
100
AcDbLine
 10
1100.146520329065
 20
-406.1655743162356
 30
0.0
 11
1328.146520329063
 21
-178.1655743162379
 31
0.0
  0
LINE
  5
301
330
1F
100
AcDbEntity
  8
0-0
  6
JWW_DASHED1
 62
   120
370
     5
100
AcDbLine
 10
1100.146520329064
 20
-420.3077099385527
 30
0.0
 11
1328.146520329061
 21
-192.307709938555
 31
0.0
  0
LINE
  5
302
330
1F
100
AcDbEntity
  8
0-0
  6
JWW_DASHED1
 62
   120
370
     5
100
AcDbLine
 10
1100.146520329061
 20
-434.4498455608698
 30
0.0
 11
1328.146520329059
 21
-206.4498455608721
 31
0.0
  0
LINE
  5
303
330
1F
100
AcDbEntity
  8
0-0
  6
JWW_DASHED1
 62
   120
370
     5
100
AcDbLine
 10
1100.146520329058
 20
-448.5919811831865
 30
0.0
 11
1328.146520329057
 21
-220.5919811831888
 31
0.0
  0
LINE
  5
304
330
1F
100
AcDbEntity
  8
0-0
  6
JWW_DASHED1
 62
   120
370
     5
100
AcDbLine
 10
1100.146520329069
 20
-462.7341168054916
 30
0.0
 11
1328.146520329064
 21
-234.734116805496
 31
0.0
  0
LINE
  5
305
330
1F
100
AcDbEntity
  8
0-0
  6
JWW_DASHED1
 62
   120
370
     5
100
AcDbLine
 10
1100.146520329065
 20
-476.8762524278083
 30
0.0
 11
1328.146520329062
 21
-248.8762524278123
 31
0.0
  0
LINE
  5
306
330
1F
100
AcDbEntity
  8
0-0
  6
JWW_DASHED1
 62
   120
370
     5
100
AcDbLine
 10
1100.146520329064
 20
-491.0183880501253
 30
0.0
 11
1328.14652032906
 21
-263.0183880501289
 31
0.0
  0
LINE
  5
307
330
1F
100
AcDbEntity
  8
0-0
  6
JWW_DASHED1
 62
   120
370
     5
100
AcDbLine
 10
1100.146520329062
 20
-505.1605236724416
 30
0.0
 11
1328.146520329057
 21
-277.1605236724456
 31
0.0
  0
LINE
  5
308
330
1F
100
AcDbEntity
  8
0-0
  6
JWW_DASHED1
 62
   120
370
     5
100
AcDbLine
 10
1100.14652032906
 20
-519.3026592947579
 30
0.0
 11
1328.146520329071
 21
-291.3026592947469
 31
0.0
  0
LINE
  5
309
330
1F
100
AcDbEntity
  8
0-0
  6
JWW_DASHED1
 62
   120
370
     5
100
AcDbLine
 10
1100.146520329058
 20
-533.4447949170749
 30
0.0
 11
1328.146520329069
 21
-305.444794917064
 31
0.0
  0
LINE
  5
30A
330
1F
100
AcDbEntity
  8
0-0
  6
JWW_DASHED1
 62
   120
370
     5
100
AcDbLine
 10
1100.146520329055
 20
-547.5869305393919
 30
0.0
 11
1328.146520329066
 21
-319.5869305393807
 31
0.0
  0
LINE
  5
30B
330
1F
100
AcDbEntity
  8
0-0
  6
JWW_DASHED1
 62
   120
370
     5
100
AcDbLine
 10
1100.146520329053
 20
-561.7290661617086
 30
0.0
 11
1328.146520329064
 21
-333.7290661616973
 31
0.0
  0
LINE
  5
30C
330
1F
100
AcDbEntity
  8
0-0
  6
JWW_DASHED1
 62
   120
370
     5
100
AcDbLine
 10
1100.146520329053
 20
-575.8712017840219
 30
0.0
 11
1328.146520329068
 21
-347.8712017840088
 31
0.0
  0
LINE
  5
30D
330
1F
100
AcDbEntity
  8
0-0
  6
JWW_DASHED1
 62
   120
370
     5
100
AcDbLine
 10
1100.146520329052
 20
-590.0133374063389
 30
0.0
 11
1328.146520329065
 21
-362.0133374063255
 31
0.0
  0
LINE
  5
30E
330
1F
100
AcDbEntity
  8
0-0
  6
JWW_DASHED1
 62
   120
370
     5
100
AcDbLine
 10
1100.146520329065
 20
-604.1554730286394
 30
0.0
 11
1328.146520329062
 21
-376.1554730286426
 31
0.0
  0
LINE
  5
30F
330
1F
100
AcDbEntity
  8
0-0
  6
JWW_DASHED1
 62
   120
370
     5
100
AcDbLine
 10
1100.146520329064
 20
-618.2976086509565
 30
0.0
 11
1328.14652032906
 21
-390.2976086509592
 31
0.0
  0
LINE
  5
310
330
1F
100
AcDbEntity
  8
0-0
  6
JWW_DASHED1
 62
   120
370
     5
100
AcDbLine
 10
1100.146520329058
 20
-632.439744273303
 30
0.0
 11
1328.146520329056
 21
-404.4397442733053
 31
0.0
  0
LINE
  5
311
330
1F
100
AcDbEntity
  8
0-0
  6
JWW_DASHED1
 62
   120
370
     5
100
AcDbLine
 10
1100.146520329067
 20
-646.5818798956359
 30
0.0
 11
1328.146520329062
 21
-418.5818798956403
 31
0.0
  0
LINE
  5
312
330
1F
100
AcDbEntity
  8
0-0
  6
JWW_DASHED1
 62
   120
370
     5
100
AcDbLine
 10
1100.146520329065
 20
-660.7240155179525
 30
0.0
 11
1328.146520329061
 21
-432.724015517957
 31
0.0
  0
LINE
  5
313
330
1F
100
AcDbEntity
  8
0-0
  6
JWW_DASHED1
 62
   120
370
     5
100
AcDbLine
 10
1100.146520329064
 20
-674.8661511402692
 30
0.0
 11
1328.146520329059
 21
-446.8661511402736
 31
0.0
  0
LINE
  5
314
330
1F
100
AcDbEntity
  8
0-0
  6
JWW_DASHED1
 62
   120
370
     5
100
AcDbLine
 10
1100.146520329061
 20
-689.0082867625858
 30
0.0
 11
1328.146520329072
 21
-461.0082867625749
 31
0.0
  0
LINE
  5
315
330
1F
100
AcDbEntity
  8
0-0
  6
JWW_DASHED1
 62
   120
370
     5
100
AcDbLine
 10
1100.146520329058
 20
-703.1504223849029
 30
0.0
 11
1328.14652032907
 21
-475.1504223848912
 31
0.0
  0
LINE
  5
316
330
1F
100
AcDbEntity
  8
0-0
  6
JWW_DASHED1
 62
   120
370
     5
100
AcDbLine
 10
1100.146520329056
 20
-717.2925580072196
 30
0.0
 11
1328.146520329068
 21
-489.2925580072074
 31
0.0
  0
LINE
  5
317
330
1F
100
AcDbEntity
  8
0-0
  6
JWW_DASHED1
 62
   120
370
     5
100
AcDbLine
 10
1100.146520329054
 20
-731.4346936295362
 30
0.0
 11
1328.146520329066
 21
-503.4346936295245
 31
0.0
  0
LINE
  5
318
330
1F
100
AcDbEntity
  8
0-0
  6
JWW_DASHED1
 62
   120
370
     5
100
AcDbLine
 10
1100.146520329054
 20
-745.5768292518508
 30
0.0
 11
1328.146520329068
 21
-517.5768292518377
 31
0.0
  0
LINE
  5
319
330
1F
100
AcDbEntity
  8
0-0
  6
JWW_DASHED1
 62
   120
370
     5
100
AcDbLine
 10
1100.146520329052
 20
-759.7189648741675
 30
0.0
 11
1328.146520329064
 21
-531.7189648741548
 31
0.0
  0
LINE
  5
31A
330
1F
100
AcDbEntity
  8
0-0
  6
JWW_DASHED1
 62
   120
370
     5
100
AcDbLine
 10
1100.146520329065
 20
-773.8611004964691
 30
0.0
 11
1328.146520329062
 21
-545.8611004964711
 31
0.0
  0
LINE
  5
31B
330
1F
100
AcDbEntity
  8
0-0
  6
JWW_DASHED1
 62
   120
370
     5
100
AcDbLine
 10
1100.146520329063
 20
-788.0032361187858
 30
0.0
 11
1328.14652032906
 21
-560.0032361187885
 31
0.0
  0
LINE
  5
31C
330
1F
100
AcDbEntity
  8
0-0
  6
JWW_DASHED1
 62
   120
370
     5
100
AcDbLine
 10
1100.14652032906
 20
-802.1453717411025
 30
0.0
 11
1328.146520329058
 21
-574.1453717411048
 31
0.0
  0
LINE
  5
31D
330
1F
100
AcDbEntity
  8
0-0
  6
JWW_DASHED1
 62
   120
370
     5
100
AcDbLine
 10
1100.146520329058
 20
-816.2875073634191
 30
0.0
 11
1328.146520329056
 21
-588.287507363421
 31
0.0
  0
LINE
  5
31E
330
1F
100
AcDbEntity
  8
0-0
  6
JWW_DASHED1
 62
   120
370
     5
100
AcDbLine
 10
1100.14652032907
 20
-830.4296429857213
 30
0.0
 11
1328.146520329066
 21
-602.4296429857261
 31
0.0
  0
LINE
  5
31F
330
1F
100
AcDbEntity
  8
0-0
  6
JWW_DASHED1
 62
   120
370
     5
100
AcDbLine
 10
1100.146520329069
 20
-844.5717786080384
 30
0.0
 11
1328.146520329063
 21
-616.5717786080428
 31
0.0
  0
LINE
  5
320
330
1F
100
AcDbEntity
  8
0-0
  6
JWW_DASHED1
 62
   120
370
     5
100
AcDbLine
 10
1100.146520329065
 20
-858.713914230355
 30
0.0
 11
1328.146520329062
 21
-630.7139142303595
 31
0.0
  0
LINE
  5
321
330
1F
100
AcDbEntity
  8
0-0
  6
JWW_DASHED1
 62
   120
370
     5
100
AcDbLine
 10
1100.146520329064
 20
-872.8560498526722
 30
0.0
 11
1328.14652032906
 21
-644.8560498526757
 31
0.0
  0
LINE
  5
322
330
1F
100
AcDbEntity
  8
0-0
  6
JWW_DASHED1
 62
   120
370
     5
100
AcDbLine
 10
1100.146520329061
 20
-886.9981854749892
 30
0.0
 11
1328.146520329073
 21
-658.998185474977
 31
0.0
  0
LINE
  5
323
330
1F
100
AcDbEntity
  8
0-0
  6
JWW_DASHED1
 62
   120
370
     5
100
AcDbLine
 10
1100.146520329059
 20
-901.1403210973054
 30
0.0
 11
1328.146520329071
 21
-673.1403210972937
 31
0.0
  0
LINE
  5
324
330
1F
100
AcDbEntity
  8
0-0
  6
JWW_DASHED1
 62
   120
370
     5
100
AcDbLine
 10
1100.146520329058
 20
-915.2824567196217
 30
0.0
 11
1328.146520329069
 21
-687.2824567196108
 31
0.0
  0
LINE
  5
325
330
1F
100
AcDbEntity
  8
0-0
  6
JWW_DASHED1
 62
   120
370
     5
100
AcDbLine
 10
1100.146520329055
 20
-929.4245923419387
 30
0.0
 11
1328.146520329066
 21
-701.4245923419278
 31
0.0
  0
LINE
  5
326
330
1F
100
AcDbEntity
  8
0-0
  6
JWW_DASHED1
 62
   120
370
     5
100
AcDbLine
 10
1100.146520329053
 20
-943.5667279642546
 30
0.0
 11
1328.146520329066
 21
-715.5667279642423
 31
0.0
  0
LINE
  5
327
330
1F
100
AcDbEntity
  8
0-0
  6
JWW_DASHED1
 62
   120
370
     5
100
AcDbLine
 10
1100.146520329052
 20
-957.7088635865712
 30
0.0
 11
1328.146520329064
 21
-729.7088635865587
 31
0.0
  0
LINE
  5
328
330
1F
100
AcDbEntity
  8
0-0
  6
JWW_DASHED1
 62
   120
370
     5
100
AcDbLine
 10
1100.146520329065
 20
-971.8509992088725
 30
0.0
 11
1328.146520329062
 21
-743.8509992088748
 31
0.0
  0
LINE
  5
329
330
1F
100
AcDbEntity
  8
0-0
  6
JWW_DASHED1
 62
   120
370
     5
100
AcDbLine
 10
1100.146520329062
 20
-985.9931348311896
 30
0.0
 11
1328.14652032906
 21
-757.9931348311919
 31
0.0
  0
LINE
  5
32A
330
1F
100
AcDbEntity
  8
0-0
  6
JWW_DASHED1
 62
   120
370
     5
100
AcDbLine
 10
1100.14652032906
 20
-1000.135270453506
 30
0.0
 11
1328.146520329057
 21
-772.1352704535086
 31
0.0
  0
LINE
  5
32B
330
1F
100
AcDbEntity
  8
0-0
  6
JWW_DASHED1
 62
   120
370
     5
100
AcDbLine
 10
1100.146520329069
 20
-1014.277406075866
 30
0.0
 11
1328.146520329064
 21
-786.2774060758709
 31
0.0
  0
LINE
  5
32C
330
1F
100
AcDbEntity
  8
0-0
  6
JWW_DASHED1
 62
   120
370
     5
100
AcDbLine
 10
1100.146520329067
 20
-1028.419541698183
 30
0.0
 11
1328.146520329062
 21
-800.4195416981875
 31
0.0
  0
LINE
  5
32D
330
1F
100
AcDbEntity
  8
0-0
  6
JWW_DASHED1
 62
   120
370
     5
100
AcDbLine
 10
1103.850281676389
 20
-1038.857915973176
 30
0.0
 11
1328.146520329061
 21
-814.5616773205038
 31
0.0
  0
LINE
  5
32E
330
1F
100
AcDbEntity
  8
0-0
  6
JWW_DASHED1
 62
   120
370
     5
100
AcDbLine
 10
1117.992417298704
 20
-1038.857915973174
 30
0.0
 11
1328.146520329075
 21
-828.703812942805
 31
0.0
  0
LINE
  5
32F
330
1F
100
AcDbEntity
  8
0-0
  6
JWW_DASHED1
 62
   120
370
     5
100
AcDbLine
 10
1132.13455292102
 20
-1038.857915973173
 30
0.0
 11
1328.146520329072
 21
-842.8459485651217
 31
0.0
  0
LINE
  5
330
330
1F
100
AcDbEntity
  8
0-0
  6
JWW_DASHED1
 62
   120
370
     5
100
AcDbLine
 10
1146.276688543336
 20
-1038.857915973172
 30
0.0
 11
1328.146520329069
 21
-856.988084187438
 31
0.0
  0
LINE
  5
331
330
1F
100
AcDbEntity
  8
0-0
  6
JWW_DASHED1
 62
   120
370
     5
100
AcDbLine
 10
1160.418824165651
 20
-1038.857915973171
 30
0.0
 11
1328.146520329068
 21
-871.1302198097551
 31
0.0
  0
LINE
  5
332
330
1F
100
AcDbEntity
  8
0-0
  6
JWW_DASHED1
 62
   120
370
     5
100
AcDbLine
 10
1174.560959787967
 20
-1038.85791597317
 30
0.0
 11
1328.146520329066
 21
-885.2723554320712
 31
0.0
  0
LINE
  5
333
330
1F
100
AcDbEntity
  8
0-0
  6
JWW_DASHED1
 62
   120
370
     5
100
AcDbLine
 10
1188.703095410284
 20
-1038.857915973168
 30
0.0
 11
1328.146520329064
 21
-899.4144910543871
 31
0.0
  0
LINE
  5
334
330
1F
100
AcDbEntity
  8
0-0
  6
JWW_DASHED1
 62
   120
370
     5
100
AcDbLine
 10
1202.8452310326
 20
-1038.857915973167
 30
0.0
 11
1328.146520329062
 21
-913.5566266767041
 31
0.0
  0
LINE
  5
335
330
1F
100
AcDbEntity
  8
0-0
  6
JWW_DASHED1
 62
   120
370
     5
100
AcDbLine
 10
1216.987366654908
 20
-1038.857915973173
 30
0.0
 11
1328.146520329059
 21
-927.6987622990208
 31
0.0
  0
LINE
  5
336
330
1F
100
AcDbEntity
  8
0-0
  6
JWW_DASHED1
 62
   120
370
     5
100
AcDbLine
 10
1231.129502277224
 20
-1038.857915973171
 30
0.0
 11
1328.146520329057
 21
-941.840897921338
 31
0.0
  0
LINE
  5
337
330
1F
100
AcDbEntity
  8
0-0
  6
JWW_DASHED1
 62
   120
370
     5
100
AcDbLine
 10
1245.271637899542
 20
-1038.857915973168
 30
0.0
 11
1328.146520329055
 21
-955.983033543655
 31
0.0
  0
LINE
  5
338
330
1F
100
AcDbEntity
  8
0-0
  6
JWW_DASHED1
 62
   120
370
     5
100
AcDbLine
 10
1259.413773521843
 20
-1038.857915973182
 30
0.0
 11
1328.146520329068
 21
-970.1251691659559
 31
0.0
  0
LINE
  5
339
330
1F
100
AcDbEntity
  8
0-0
  6
JWW_DASHED1
 62
   120
370
     5
100
AcDbLine
 10
1273.555909144159
 20
-1038.857915973179
 30
0.0
 11
1328.146520329066
 21
-984.2673047882729
 31
0.0
  0
LINE
  5
33A
330
1F
100
AcDbEntity
  8
0-0
  6
JWW_DASHED1
 62
   120
370
     5
100
AcDbLine
 10
1287.698044766475
 20
-1038.857915973177
 30
0.0
 11
1328.146520329063
 21
-998.40944041059
 31
0.0
  0
LINE
  5
33B
330
1F
100
AcDbEntity
  8
0-0
  6
JWW_DASHED1
 62
   120
370
     5
100
AcDbLine
 10
1301.840180388793
 20
-1038.857915973175
 30
0.0
 11
1328.146520329062
 21
-1012.551576032906
 31
0.0
  0
LINE
  5
33C
330
1F
100
AcDbEntity
  8
0-0
  6
JWW_DASHED1
 62
   120
370
     5
100
AcDbLine
 10
1315.982316011094
 20
-1038.857915973188
 30
0.0
 11
1328.146520329075
 21
-1026.693711655207
 31
0.0
  0
LWPOLYLINE
  5
33D
330
1F
100
AcDbEntity
  8
寸法
  6
Continuous
 62
     7
370
     9
100
AcDbPolyline
 90
        4
 70
     1
 43
3.0
 10
-2036.353479670935
 20
-1066.857915973175
 42
0.4142135623731
 10
-2037.853479670935
 20
-1065.357915973175
 42
0.4142135623731
 10
-2039.353479670935
 20
-1066.857915973175
 42
0.4142135623731
 10
-2037.853479670935
 20
-1068.357915973175
 42
0.4142135623731
  0
LWPOLYLINE
  5
33E
330
1F
100
AcDbEntity
  8
寸法
  6
Continuous
 62
     7
370
     9
100
AcDbPolyline
 90
        4
 70
     1
 43
3.0
 10
-1836.353479670936
 20
-1046.857915973175
 42
0.4142135623731
 10
-1837.853479670936
 20
-1045.357915973175
 42
0.4142135623731
 10
-1839.353479670936
 20
-1046.857915973175
 42
0.4142135623731
 10
-1837.853479670936
 20
-1048.357915973175
 42
0.4142135623731
  0
LINE
  5
33F
330
1F
100
AcDbEntity
  8
寸法
  6
Continuous
 62
   120
370
     5
100
AcDbLine
 10
-2037.853479670935
 20
-1066.857915973175
 30
0.0
 11
-1637.853479670934
 21
-1066.857915973175
 31
0.0
  0
LINE
  5
340
330
1F
100
AcDbEntity
  8
寸法
  6
Continuous
 62
   120
370
     5
100
AcDbLine
 10
-1837.853479670936
 20
-1046.857915973175
 30
0.0
 11
-1637.853479670934
 21
-1046.857915973175
 31
0.0
  0
LINE
  5
341
330
1F
100
AcDbEntity
  8
寸法
  6
Continuous
 62
   120
370
     5
100
AcDbLine
 10
-1557.853479670935
 20
-1516.857915973176
 30
0.0
 11
-1557.853479670935
 21
-1116.857915973177
 31
0.0
  0
LINE
  5
342
330
1F
100
AcDbEntity
  8
寸法
  6
Continuous
 62
   120
370
     5
100
AcDbLine
 10
-1587.853479670935
 20
-1716.857915973175
 30
0.0
 11
-1587.853479670935
 21
-1116.857915973177
 31
0.0
  0
LINE
  5
343
330
1F
100
AcDbEntity
  8
寸法
  6
Continuous
 62
   120
370
     5
100
AcDbLine
 10
29.14652032906389
 20
-1316.857915973175
 30
0.0
 11
29.14652032906389
 21
-1116.857915973177
 31
0.0
  0
LINE
  5
344
330
1F
100
AcDbEntity
  8
寸法
  6
Continuous
 62
   120
370
     5
100
AcDbLine
 10
-780.8534796709362
 20
-1316.857915973175
 30
0.0
 11
-780.8534796709362
 21
-1116.857915973177
 31
0.0
  0
LINE
  5
345
330
1F
100
AcDbEntity
  8
寸法
  6
Continuous
 62
   120
370
     5
100
AcDbLine
 10
-780.8534796709362
 20
-1316.857915973175
 30
0.0
 11
839.1465203290638
 21
-1316.857915973175
 31
0.0
  0
LINE
  5
346
330
1F
100
AcDbEntity
  8
寸法
  6
Continuous
 62
   120
370
     5
100
AcDbLine
 10
-1557.853479670935
 20
-1516.857915973176
 30
0.0
 11
1616.146520329063
 21
-1516.857915973174
 31
0.0
  0
LINE
  5
347
330
1F
100
AcDbEntity
  8
寸法
  6
Continuous
 62
   120
370
     5
100
AcDbLine
 10
1616.146520329063
 20
-1516.857915973174
 30
0.0
 11
1616.146520329063
 21
-1116.857915973175
 31
0.0
  0
LINE
  5
348
330
1F
100
AcDbEntity
  8
寸法
  6
Continuous
 62
   120
370
     5
100
AcDbLine
 10
-1587.853479670935
 20
-1716.857915973175
 30
0.0
 11
1646.146520329063
 21
-1716.857915973174
 31
0.0
  0
LINE
  5
349
330
1F
100
AcDbEntity
  8
寸法
  6
Continuous
 62
   120
370
     5
100
AcDbLine
 10
1646.146520329063
 20
-1716.857915973174
 30
0.0
 11
1646.146520329063
 21
-1116.857915973175
 31
0.0
  0
LINE
  5
34A
330
1F
100
AcDbEntity
  8
寸法
  6
Continuous
 62
   120
370
     5
100
AcDbLine
 10
839.1465203290638
 20
-1316.857915973175
 30
0.0
 11
839.1465203290638
 21
-1116.857915973177
 31
0.0
  0
LWPOLYLINE
  5
34B
330
1F
100
AcDbEntity
  8
寸法
  6
Continuous
 62
     7
370
     9
100
AcDbPolyline
 90
        4
 70
     1
 43
3.0
 10
-1556.353479670935
 20
-1516.857915973176
 42
0.4142135623731
 10
-1557.853479670935
 20
-1515.357915973176
 42
0.4142135623731
 10
-1559.353479670935
 20
-1516.857915973176
 42
0.4142135623731
 10
-1557.853479670935
 20
-1518.357915973176
 42
0.4142135623731
  0
LWPOLYLINE
  5
34C
330
1F
100
AcDbEntity
  8
寸法
  6
Continuous
 62
     7
370
     9
100
AcDbPolyline
 90
        4
 70
     1
 43
3.0
 10
-1586.353479670935
 20
-1716.857915973175
 42
0.4142135623731
 10
-1587.853479670935
 20
-1715.357915973175
 42
0.4142135623731
 10
-1589.353479670935
 20
-1716.857915973175
 42
0.4142135623731
 10
-1587.853479670935
 20
-1718.357915973175
 42
0.4142135623731
  0
LWPOLYLINE
  5
34D
330
1F
100
AcDbEntity
  8
寸法
  6
Continuous
 62
     7
370
     9
100
AcDbPolyline
 90
        4
 70
     1
 43
3.0
 10
30.64652032906389
 20
-1316.857915973175
 42
0.4142135623731
 10
29.14652032906389
 20
-1315.357915973175
 42
0.4142135623731
 10
27.64652032906389
 20
-1316.857915973175
 42
0.4142135623731
 10
29.14652032906389
 20
-1318.357915973175
 42
0.4142135623731
  0
LWPOLYLINE
  5
34E
330
1F
100
AcDbEntity
  8
寸法
  6
Continuous
 62
     7
370
     9
100
AcDbPolyline
 90
        4
 70
     1
 43
3.0
 10
-779.353479670936
 20
-1316.857915973175
 42
0.4142135623731
 10
-780.8534796709362
 20
-1315.357915973175
 42
0.4142135623731
 10
-782.3534796709362
 20
-1316.857915973175
 42
0.4142135623731
 10
-780.8534796709362
 20
-1318.357915973175
 42
0.4142135623731
  0
LWPOLYLINE
  5
34F
330
1F
100
AcDbEntity
  8
寸法
  6
Continuous
 62
     7
370
     9
100
AcDbPolyline
 90
        4
 70
     1
 43
3.0
 10
1617.646520329063
 20
-1516.857915973174
 42
0.4142135623731
 10
1616.146520329063
 20
-1515.357915973175
 42
0.4142135623731
 10
1614.646520329063
 20
-1516.857915973174
 42
0.4142135623731
 10
1616.146520329063
 20
-1518.357915973174
 42
0.4142135623731
  0
LWPOLYLINE
  5
350
330
1F
100
AcDbEntity
  8
寸法
  6
Continuous
 62
     7
370
     9
100
AcDbPolyline
 90
        4
 70
     1
 43
3.0
 10
1647.646520329063
 20
-1716.857915973174
 42
0.4142135623731
 10
1646.146520329063
 20
-1715.357915973174
 42
0.4142135623731
 10
1644.646520329063
 20
-1716.857915973174
 42
0.4142135623731
 10
1646.146520329063
 20
-1718.357915973174
 42
0.4142135623731
  0
LWPOLYLINE
  5
351
330
1F
100
AcDbEntity
  8
寸法
  6
Continuous
 62
     7
370
     9
100
AcDbPolyline
 90
        4
 70
     1
 43
3.0
 10
840.6465203290638
 20
-1316.857915973175
 42
0.4142135623731
 10
839.1465203290638
 20
-1315.357915973175
 42
0.4142135623731
 10
837.6465203290637
 20
-1316.857915973175
 42
0.4142135623731
 10
839.1465203290638
 20
-1318.357915973175
 42
0.4142135623731
  0
LINE
  5
352
330
1F
100
AcDbEntity
  8
寸法
  6
Continuous
 62
   120
370
     5
100
AcDbLine
 10
-2037.853479670935
 20
1180.142084026826
 30
0.0
 11
-1637.853479670934
 21
1180.142084026826
 31
0.0
  0
LWPOLYLINE
  5
353
330
1F
100
AcDbEntity
  8
寸法
  6
Continuous
 62
     7
370
     9
100
AcDbPolyline
 90
        4
 70
     1
 43
3.0
 10
-2036.353479670935
 20
1180.142084026826
 42
0.4142135623731
 10
-2037.853479670935
 20
1181.642084026826
 42
0.4142135623731
 10
-2039.353479670935
 20
1180.142084026826
 42
0.4142135623731
 10
-2037.853479670935
 20
1178.642084026826
 42
0.4142135623731
  0
LINE
  5
354
330
1F
100
AcDbEntity
  8
寸法
  6
Continuous
 62
   120
370
     5
100
AcDbLine
 10
-2037.853479670935
 20
1180.142084026826
 30
0.0
 11
-2037.853479670935
 21
-1066.857915973175
 31
0.0
  0
LINE
  5
355
330
1F
100
AcDbEntity
  8
寸法
  6
Continuous
 62
   120
370
     5
100
AcDbLine
 10
-1837.853479670936
 20
1136.142084026825
 30
0.0
 11
-1637.853479670934
 21
1136.142084026825
 31
0.0
  0
LWPOLYLINE
  5
356
330
1F
100
AcDbEntity
  8
寸法
  6
Continuous
 62
     7
370
     9
100
AcDbPolyline
 90
        4
 70
     1
 43
3.0
 10
-1836.353479670936
 20
1136.142084026825
 42
0.4142135623731
 10
-1837.853479670936
 20
1137.642084026825
 42
0.4142135623731
 10
-1839.353479670936
 20
1136.142084026825
 42
0.4142135623731
 10
-1837.853479670936
 20
1134.642084026825
 42
0.4142135623731
  0
LINE
  5
357
330
1F
100
AcDbEntity
  8
寸法
  6
Continuous
 62
   120
370
     5
100
AcDbLine
 10
-1837.853479670936
 20
1136.142084026825
 30
0.0
 11
-1837.853479670936
 21
-1046.857915973175
 31
0.0
  0
MTEXT
  5
358
330
1F
100
AcDbEntity
  8
寸法
  6
Continuous
 62
     7
370
    70
100
AcDbMText
 10
-2052.853479670935
 20
-167.5329159731743
 30
0.0
 40
57.14999999999999
 41
412.5
 46
0.0
 71
     7
 72
     1
  1
{\fＭＳ ゴシック|b0|i0|c128|p49;枠外＝2,247}
 11
6.123031769111886E-17
 21
1.0
 31
0.0
 73
     1
 44
1.0
  0
MTEXT
  5
359
330
1F
100
AcDbEntity
  8
寸法
  6
Continuous
 62
     7
370
    70
100
AcDbMText
 10
-1852.853479670936
 20
-173.532915973174
 30
0.0
 40
57.14999999999999
 41
412.5
 46
0.0
 71
     7
 72
     1
  1
{\fＭＳ ゴシック|b0|i0|c128|p49;ＤＨ＝2,183}
 11
6.123031769111886E-17
 21
1.0
 31
0.0
 73
     1
 44
1.0
  0
MTEXT
  5
35A
330
1F
100
AcDbEntity
  8
寸法
  6
Continuous
 62
     7
370
   211
100
AcDbMText
 10
-544.6034796709362
 20
-1310.782915973175
 30
0.0
 40
57.14999999999998
 41
337.4999999999999
 46
0.0
 71
     7
 72
     1
  1
{\fＭＳ ゴシック|b0|i0|c128|p49;ＤＷ＝810}
 73
     1
 44
1.0
  0
MTEXT
  5
35B
330
1F
100
AcDbEntity
  8
寸法
  6
Continuous
 62
     7
370
   211
100
AcDbMText
 10
265.3965203290638
 20
-1310.782915973175
 30
0.0
 40
57.15000000000001
 41
337.5000000000001
 46
0.0
 71
     7
 72
     1
  1
{\fＭＳ ゴシック|b0|i0|c128|p49;ＤＷ＝810}
 73
     1
 44
1.0
  0
MTEXT
  5
35C
330
1F
100
AcDbEntity
  8
寸法
  6
Continuous
 62
     7
370
   211
100
AcDbMText
 10
-177.1034796709361
 20
-1510.782915973176
 30
0.0
 40
57.14999999999999
 41
412.5
 46
0.0
 71
     7
 72
     1
  1
{\fＭＳ ゴシック|b0|i0|c128|p49;枠内＝3,174}
 73
     1
 44
1.0
  0
MTEXT
  5
35D
330
1F
100
AcDbEntity
  8
寸法
  6
Continuous
 62
     7
370
   211
100
AcDbMText
 10
-177.1034796709361
 20
-1710.782915973175
 30
0.0
 40
57.14999999999999
 41
412.5
 46
0.0
 71
     7
 72
     1
  1
{\fＭＳ ゴシック|b0|i0|c128|p49;枠外＝3,234}
 73
     1
 44
1.0
  0
ENDSEC
  0
SECTION
  2
OBJECTS
  0
DICTIONARY
  5
C
330
0
100
AcDbDictionary
281
     1
  3
ACAD_GROUP
350
D
  3
ACAD_LAYOUT
350
1A
  3
ACAD_MATERIAL
350
3B
  3
ACAD_MLEADERSTYLE
350
35F
  3
ACAD_MLINESTYLE
350
17
  3
ACAD_PLOTSETTINGS
350
19
  3
ACAD_PLOTSTYLENAME
350
E
  3
ACAD_TABLESTYLE
350
35E
  3
ACAD_VISUALSTYLE
350
2A
  0
DICTIONARY
  5
D
102
{ACAD_REACTORS
330
C
102
}
330
C
100
AcDbDictionary
281
     1
  0
DICTIONARY
  5
1A
102
{ACAD_REACTORS
330
C
102
}
330
C
100
AcDbDictionary
281
     1
  3
Layout1
350
1E
  3
Layout2
350
26
  3
Model
350
22
  0
DICTIONARY
  5
3B
102
{ACAD_REACTORS
330
C
102
}
330
C
100
AcDbDictionary
281
     1
  3
ByBlock
350
3D
  3
ByLayer
350
3C
  3
Global
350
3E
  0
DICTIONARY
  5
35F
102
{ACAD_REACTORS
330
C
102
}
330
C
100
AcDbDictionary
281
     1
  0
DICTIONARY
  5
17
102
{ACAD_REACTORS
330
C
102
}
330
C
100
AcDbDictionary
281
     1
  3
Standard
350
18
  0
DICTIONARY
  5
19
102
{ACAD_REACTORS
330
C
102
}
330
C
100
AcDbDictionary
281
     1
  0
ACDBDICTIONARYWDFLT
  5
E
102
{ACAD_REACTORS
330
C
102
}
330
C
100
AcDbDictionary
281
     1
  3
Normal
350
F
100
AcDbDictionaryWithDefault
340
F
  0
DICTIONARY
  5
35E
102
{ACAD_REACTORS
330
C
102
}
330
C
100
AcDbDictionary
281
     1
  0
DICTIONARY
  5
2A
102
{ACAD_REACTORS
330
C
102
}
330
C
100
AcDbDictionary
281
     1
  3
2dWireframe
350
2F
  3
3D Hidden
350
31
  3
3dWireframe
350
30
  3
Basic
350
32
  3
Brighten
350
36
  3
ColorChange
350
3A
  3
Conceptual
350
34
  3
Dim
350
35
  3
Facepattern
350
39
  3
Flat
350
2B
  3
FlatWithEdges
350
2C
  3
Gouraud
350
2D
  3
GouraudWithEdges
350
2E
  3
Linepattern
350
38
  3
Realistic
350
33
  3
Thicken
350
37
  0
LAYOUT
  5
1E
102
{ACAD_REACTORS
330
1A
102
}
330
1A
100
AcDbPlotSettings
  1

  2
none_device
  4

  6

 40
0.0
 41
0.0
 42
0.0
 43
0.0
 44
0.0
 45
0.0
 46
0.0
 47
0.0
 48
0.0
 49
0.0
140
0.0
141
0.0
142
1.0
143
1.0
 70
   688
 72
     0
 73
     0
 74
     5
  7

 75
    16
 76
     0
 77
     5
 78
   300
147
1.0
148
0.0
149
0.0
100
AcDbLayout
  1
Layout1
 70
     1
 71
     1
 10
0.0
 20
0.0
 11
420.0
 21
297.0
 12
0.0
 22
0.0
 32
0.0
 14
1.000000000000000E+20
 24
1.000000000000000E+20
 34
1.000000000000000E+20
 15
-1.000000000000000E+20
 25
-1.000000000000000E+20
 35
-1.000000000000000E+20
146
0.0
 13
0.0
 23
0.0
 33
0.0
 16
1.0
 26
0.0
 36
0.0
 17
0.0
 27
1.0
 37
0.0
 76
     0
330
1B
  0
LAYOUT
  5
26
102
{ACAD_REACTORS
330
1A
102
}
330
1A
100
AcDbPlotSettings
  1

  2
none_device
  4

  6

 40
0.0
 41
0.0
 42
0.0
 43
0.0
 44
0.0
 45
0.0
 46
0.0
 47
0.0
 48
0.0
 49
0.0
140
0.0
141
0.0
142
1.0
143
1.0
 70
   688
 72
     0
 73
     0
 74
     5
  7

 75
    16
 76
     0
 77
     5
 78
   300
147
1.0
148
0.0
149
0.0
100
AcDbLayout
  1
Layout2
 70
     1
 71
     2
 10
0.0
 20
0.0
 11
0.0
 21
0.0
 12
0.0
 22
0.0
 32
0.0
 14
0.0
 24
0.0
 34
0.0
 15
0.0
 25
0.0
 35
0.0
146
0.0
 13
0.0
 23
0.0
 33
0.0
 16
1.0
 26
0.0
 36
0.0
 17
0.0
 27
1.0
 37
0.0
 76
     0
330
23
  0
LAYOUT
  5
22
102
{ACAD_REACTORS
330
1A
102
}
330
1A
100
AcDbPlotSettings
  1

  2
none_device
  4

  6

 40
0.0
 41
0.0
 42
0.0
 43
0.0
 44
0.0
 45
0.0
 46
0.0
 47
0.0
 48
0.0
 49
0.0
140
0.0
141
0.0
142
1.0
143
1.0
 70
  1712
 72
     0
 73
     0
 74
     0
  7

 75
     0
 76
     0
 77
     5
 78
   300
147
1.0
148
0.0
149
0.0
100
AcDbLayout
  1
Model
 70
     1
 71
     0
 10
-4455.0
 20
-3150.0
 11
4455.0
 21
3150.0
 12
0.0
 22
0.0
 32
0.0
 14
-4455.0
 24
-3150.0
 34
0.0
 15
4455.0
 25
3150.0
 35
0.0
146
0.0
 13
0.0
 23
0.0
 33
0.0
 16
1.0
 26
0.0
 36
0.0
 17
0.0
 27
1.0
 37
0.0
 76
     0
330
1F
331
29
  0
MATERIAL
  5
3D
102
{ACAD_REACTORS
330
3B
102
}
330
3B
100
AcDbMaterial
  1
ByBlock
 72
     1
 94
      127
  0
MATERIAL
  5
3C
102
{ACAD_REACTORS
330
3B
102
}
330
3B
100
AcDbMaterial
  1
ByLayer
 72
     1
 94
      127
  0
MATERIAL
  5
3E
102
{ACAD_REACTORS
330
3B
102
}
330
3B
100
AcDbMaterial
  1
Global
 72
     1
 94
      127
  0
MLINESTYLE
  5
18
102
{ACAD_REACTORS
330
17
102
}
330
17
100
AcDbMlineStyle
  2
Standard
 70
     0
  3

 62
   256
 51
90.0
 52
90.0
 71
     2
 49
0.5
 62
   256
  6
BYLAYER
 49
-0.5
 62
   256
  6
BYLAYER
  0
ACDBPLACEHOLDER
  5
F
102
{ACAD_REACTORS
330
E
102
}
330
E
  0
VISUALSTYLE
  5
2F
102
{ACAD_REACTORS
330
2A
102
}
330
2A
100
AcDbVisualStyle
  2
2dWireframe
 70
     4
177
     2
291
     0
 71
     0
176
     1
 72
     2
176
     1
 73
     0
176
     1
 90
        0
176
     1
 40
-0.6
176
     1
 41
-30.0
176
     1
 62
     5
 63
     7
421
 16777215
176
     1
 74
     1
176
     1
 91
        4
176
     1
 64
     7
176
     1
 65
   257
176
     1
 75
     1
176
     1
175
     1
176
     1
 42
1.0
176
     1
 92
        0
176
     1
 66
   257
176
     1
 43
1.0
176
     1
 76
     1
176
     1
 77
     6
176
     1
 78
     2
176
     1
 67
     7
176
     1
 79
     5
176
     1
170
     0
176
     1
171
     0
176
     1
290
     0
176
     1
 93
        1
176
     1
 44
0.0
176
     1
173
     0
176
     1
  0
VISUALSTYLE
  5
31
102
{ACAD_REACTORS
330
2A
102
}
330
2A
100
AcDbVisualStyle
  2
3D Hidden
 70
     6
177
     2
291
     0
 71
     1
176
     1
 72
     2
176
     1
 73
     2
176
     1
 90
        0
176
     1
 40
-0.6
176
     1
 41
-30.0
176
     1
 62
     5
 63
     7
421
 16777215
176
     1
 74
     2
176
     1
 91
        2
176
     1
 64
     7
176
     1
 65
   257
176
     1
 75
     2
176
     1
175
     1
176
     1
 42
40.0
176
     1
 92
        0
176
     1
 66
   257
176
     1
 43
1.0
176
     1
 76
     1
176
     1
 77
     6
176
     1
 78
     2
176
     1
 67
     7
176
     1
 79
     3
176
     1
170
     0
176
     1
171
     0
176
     1
290
     0
176
     1
 93
        1
176
     1
 44
0.0
176
     1
173
     0
176
     1
  0
VISUALSTYLE
  5
30
102
{ACAD_REACTORS
330
2A
102
}
330
2A
100
AcDbVisualStyle
  2
3dWireframe
 70
     5
177
     2
291
     0
 71
     0
176
     1
 72
     2
176
     1
 73
     0
176
     1
 90
        0
176
     1
 40
-0.6
176
     1
 41
-30.0
176
     1
 62
     5
 63
     7
421
 16777215
176
     1
 74
     1
176
     1
 91
        4
176
     1
 64
     7
176
     1
 65
   257
176
     1
 75
     1
176
     1
175
     1
176
     1
 42
1.0
176
     1
 92
        0
176
     1
 66
   257
176
     1
 43
1.0
176
     1
 76
     1
176
     1
 77
     6
176
     1
 78
     2
176
     1
 67
     7
176
     1
 79
     5
176
     1
170
     0
176
     1
171
     0
176
     1
290
     0
176
     1
 93
        1
176
     1
 44
0.0
176
     1
173
     0
176
     1
  0
VISUALSTYLE
  5
32
102
{ACAD_REACTORS
330
2A
102
}
330
2A
100
AcDbVisualStyle
  2
Basic
 70
     7
177
     2
291
     1
 71
     1
176
     1
 72
     0
176
     1
 73
     1
176
     1
 90
        0
176
     1
 40
-0.6
176
     1
 41
-30.0
176
     1
 62
     5
 63
     7
421
 16777215
176
     1
 74
     0
176
     1
 91
        4
176
     1
 64
     7
176
     1
 65
   257
176
     1
 75
     1
176
     1
175
     1
176
     1
 42
1.0
176
     1
 92
        8
176
     1
 66
     7
176
     1
 43
1.0
176
     1
 76
     1
176
     1
 77
     6
176
     1
 78
     2
176
     1
 67
     7
176
     1
 79
     5
176
     1
170
     0
176
     1
171
     0
176
     1
290
     0
176
     1
 93
        1
176
     1
 44
0.0
176
     1
173
     0
176
     1
  0
VISUALSTYLE
  5
36
102
{ACAD_REACTORS
330
2A
102
}
330
2A
100
AcDbVisualStyle
  2
Brighten
 70
    12
177
     2
291
     1
 71
     2
176
     1
 72
     2
176
     1
 73
     0
176
     1
 90
        0
176
     1
 40
-0.6
176
     1
 41
-30.0
176
     1
 62
     5
 63
     7
421
 16777215
176
     1
 74
     1
176
     1
 91
        4
176
     1
 64
     7
176
     1
 65
   257
176
     1
 75
     1
176
     1
175
     1
176
     1
 42
1.0
176
     1
 92
        8
176
     1
 66
     7
176
     1
 43
1.0
176
     1
 76
     1
176
     1
 77
     6
176
     1
 78
     2
176
     1
 67
     7
176
     1
 79
     5
176
     1
170
     0
176
     1
171
     0
176
     1
290
     0
176
     1
 93
        1
176
     1
 44
50.0
176
     1
173
     0
176
     1
  0
VISUALSTYLE
  5
3A
102
{ACAD_REACTORS
330
2A
102
}
330
2A
100
AcDbVisualStyle
  2
ColorChange
 70
    16
177
     2
291
     1
 71
     2
176
     1
 72
     2
176
     1
 73
     3
176
     1
 90
        0
176
     1
 40
-0.6
176
     1
 41
-30.0
176
     1
 62
     5
 63
     8
421
  8421504
176
     1
 74
     1
176
     1
 91
        4
176
     1
 64
     7
176
     1
 65
   257
176
     1
 75
     1
176
     1
175
     1
176
     1
 42
1.0
176
     1
 92
        8
176
     1
 66
     8
424
  8421504
176
     1
 43
1.0
176
     1
 76
     1
176
     1
 77
     6
176
     1
 78
     2
176
     1
 67
     7
176
     1
 79
     5
176
     1
170
     0
176
     1
171
     0
176
     1
290
     0
176
     1
 93
        1
176
     1
 44
0.0
176
     1
173
     0
176
     1
  0
VISUALSTYLE
  5
34
102
{ACAD_REACTORS
330
2A
102
}
330
2A
100
AcDbVisualStyle
  2
Conceptual
 70
     9
177
     2
291
     0
 71
     3
176
     1
 72
     2
176
     1
 73
     0
176
     1
 90
        0
176
     1
 40
-0.6
176
     1
 41
-30.0
176
     1
 62
     5
 63
     7
421
 16777215
176
     1
 74
     2
176
     1
 91
        2
176
     1
 64
     7
176
     1
 65
   257
176
     1
 75
     1
176
     1
175
     1
176
     1
 42
40.0
176
     1
 92
        8
176
     1
 66
     7
176
     1
 43
1.0
176
     1
 76
     1
176
     1
 77
     6
176
     1
 78
     2
176
     1
 67
     7
176
     1
 79
     3
176
     1
170
     0
176
     1
171
     0
176
     1
290
     0
176
     1
 93
        1
176
     1
 44
0.0
176
     1
173
     0
176
     1
  0
VISUALSTYLE
  5
35
102
{ACAD_REACTORS
330
2A
102
}
330
2A
100
AcDbVisualStyle
  2
Dim
 70
    11
177
     2
291
     1
 71
     2
176
     1
 72
     2
176
     1
 73
     0
176
     1
 90
        0
176
     1
 40
-0.6
176
     1
 41
-30.0
176
     1
 62
     5
 63
     7
421
 16777215
176
     1
 74
     1
176
     1
 91
        4
176
     1
 64
     7
176
     1
 65
   257
176
     1
 75
     1
176
     1
175
     1
176
     1
 42
1.0
176
     1
 92
        8
176
     1
 66
     7
176
     1
 43
1.0
176
     1
 76
     1
176
     1
 77
     6
176
     1
 78
     2
176
     1
 67
     7
176
     1
 79
     5
176
     1
170
     0
176
     1
171
     0
176
     1
290
     0
176
     1
 93
        1
176
     1
 44
-50.0
176
     1
173
     0
176
     1
  0
VISUALSTYLE
  5
39
102
{ACAD_REACTORS
330
2A
102
}
330
2A
100
AcDbVisualStyle
  2
Facepattern
 70
    15
177
     2
291
     1
 71
     2
176
     1
 72
     2
176
     1
 73
     0
176
     1
 90
        0
176
     1
 40
-0.6
176
     1
 41
-30.0
176
     1
 62
     5
 63
     7
421
 16777215
176
     1
 74
     1
176
     1
 91
        4
176
     1
 64
     7
176
     1
 65
   257
176
     1
 75
     1
176
     1
175
     1
176
     1
 42
1.0
176
     1
 92
        8
176
     1
 66
     7
176
     1
 43
1.0
176
     1
 76
     1
176
     1
 77
     6
176
     1
 78
     2
176
     1
 67
     7
176
     1
 79
     5
176
     1
170
     0
176
     1
171
     0
176
     1
290
     0
176
     1
 93
        1
176
     1
 44
0.0
176
     1
173
     0
176
     1
  0
VISUALSTYLE
  5
2B
102
{ACAD_REACTORS
330
2A
102
}
330
2A
100
AcDbVisualStyle
  2
Flat
 70
     0
177
     2
291
     1
 71
     2
176
     1
 72
     1
176
     1
 73
     1
176
     1
 90
        2
176
     1
 40
-0.6
176
     1
 41
30.0
176
     1
 62
     5
 63
     7
421
 16777215
176
     1
 74
     0
176
     1
 91
        4
176
     1
 64
     7
176
     1
 65
   257
176
     1
 75
     1
176
     1
175
     1
176
     1
 42
1.0
176
     1
 92
        8
176
     1
 66
     7
176
     1
 43
1.0
176
     1
 76
     1
176
     1
 77
     6
176
     1
 78
     2
176
     1
 67
     7
176
     1
 79
     5
176
     1
170
     0
176
     1
171
     0
176
     1
290
     0
176
     1
 93
       13
176
     1
 44
0.0
176
     1
173
     0
176
     1
  0
VISUALSTYLE
  5
2C
102
{ACAD_REACTORS
330
2A
102
}
330
2A
100
AcDbVisualStyle
  2
FlatWithEdges
 70
     1
177
     2
291
     1
 71
     2
176
     1
 72
     1
176
     1
 73
     1
176
     1
 90
        2
176
     1
 40
-0.6
176
     1
 41
30.0
176
     1
 62
     5
 63
     7
421
 16777215
176
     1
 74
     1
176
     1
 91
        4
176
     1
 64
     7
176
     1
 65
   257
176
     1
 75
     1
176
     1
175
     1
176
     1
 42
1.0
176
     1
 92
        0
176
     1
 66
   257
176
     1
 43
1.0
176
     1
 76
     1
176
     1
 77
     6
176
     1
 78
     2
176
     1
 67
     7
176
     1
 79
     5
176
     1
170
     0
176
     1
171
     0
176
     1
290
     0
176
     1
 93
       13
176
     1
 44
0.0
176
     1
173
     0
176
     1
  0
VISUALSTYLE
  5
2D
102
{ACAD_REACTORS
330
2A
102
}
330
2A
100
AcDbVisualStyle
  2
Gouraud
 70
     2
177
     2
291
     1
 71
     2
176
     1
 72
     2
176
     1
 73
     1
176
     1
 90
        2
176
     1
 40
-0.6
176
     1
 41
30.0
176
     1
 62
     5
 63
     7
421
 16777215
176
     1
 74
     0
176
     1
 91
        4
176
     1
 64
     7
176
     1
 65
   257
176
     1
 75
     1
176
     1
175
     1
176
     1
 42
1.0
176
     1
 92
        0
176
     1
 66
     7
176
     1
 43
1.0
176
     1
 76
     1
176
     1
 77
     6
176
     1
 78
     2
176
     1
 67
     7
176
     1
 79
     5
176
     1
170
     0
176
     1
171
     0
176
     1
290
     0
176
     1
 93
       13
176
     1
 44
0.0
176
     1
173
     0
176
     1
  0
VISUALSTYLE
  5
2E
102
{ACAD_REACTORS
330
2A
102
}
330
2A
100
AcDbVisualStyle
  2
GouraudWithEdges
 70
     3
177
     2
291
     1
 71
     2
176
     1
 72
     2
176
     1
 73
     1
176
     1
 90
        2
176
     1
 40
-0.6
176
     1
 41
30.0
176
     1
 62
     5
 63
     7
421
 16777215
176
     1
 74
     1
176
     1
 91
        4
176
     1
 64
     7
176
     1
 65
   257
176
     1
 75
     1
176
     1
175
     1
176
     1
 42
1.0
176
     1
 92
        0
176
     1
 66
   257
176
     1
 43
1.0
176
     1
 76
     1
176
     1
 77
     6
176
     1
 78
     2
176
     1
 67
     7
176
     1
 79
     5
176
     1
170
     0
176
     1
171
     0
176
     1
290
     0
176
     1
 93
       13
176
     1
 44
0.0
176
     1
173
     0
176
     1
  0
VISUALSTYLE
  5
38
102
{ACAD_REACTORS
330
2A
102
}
330
2A
100
AcDbVisualStyle
  2
Linepattern
 70
    14
177
     2
291
     1
 71
     2
176
     1
 72
     2
176
     1
 73
     0
176
     1
 90
        0
176
     1
 40
-0.6
176
     1
 41
-30.0
176
     1
 62
     5
 63
     7
421
 16777215
176
     1
 74
     1
176
     1
 91
        4
176
     1
 64
     7
176
     1
 65
   257
176
     1
 75
     7
176
     1
175
     7
176
     1
 42
1.0
176
     1
 92
        8
176
     1
 66
     7
176
     1
 43
1.0
176
     1
 76
     1
176
     1
 77
     6
176
     1
 78
     2
176
     1
 67
     7
176
     1
 79
     5
176
     1
170
     0
176
     1
171
     0
176
     1
290
     0
176
     1
 93
        1
176
     1
 44
0.0
176
     1
173
     0
176
     1
  0
VISUALSTYLE
  5
33
102
{ACAD_REACTORS
330
2A
102
}
330
2A
100
AcDbVisualStyle
  2
Realistic
 70
     8
177
     2
291
     0
 71
     2
176
     1
 72
     2
176
     1
 73
     0
176
     1
 90
        0
176
     1
 40
-0.6
176
     1
 41
-30.0
176
     1
 62
     5
 63
     7
421
 16777215
176
     1
 74
     1
176
     1
 91
        0
176
     1
 64
     7
176
     1
 65
   257
176
     1
 75
     1
176
     1
175
     1
176
     1
 42
1.0
176
     1
 92
        8
176
     1
 66
     8
424
  7895160
176
     1
 43
1.0
176
     1
 76
     1
176
     1
 77
     6
176
     1
 78
     2
176
     1
 67
     7
176
     1
 79
     5
176
     1
170
     0
176
     1
171
     0
176
     1
290
     0
176
     1
 93
       13
176
     1
 44
0.0
176
     1
173
     0
176
     1
  0
VISUALSTYLE
  5
37
102
{ACAD_REACTORS
330
2A
102
}
330
2A
100
AcDbVisualStyle
  2
Thicken
 70
    13
177
     2
291
     1
 71
     2
176
     1
 72
     2
176
     1
 73
     0
176
     1
 90
        0
176
     1
 40
-0.6
176
     1
 41
-30.0
176
     1
 62
     5
 63
     7
421
 16777215
176
     1
 74
     1
176
     1
 91
        4
176
     1
 64
     7
176
     1
 65
   257
176
     1
 75
     1
176
     1
175
     1
176
     1
 42
1.0
176
     1
 92
       12
176
     1
 66
     7
176
     1
 43
1.0
176
     1
 76
     1
176
     1
 77
     6
176
     1
 78
     2
176
     1
 67
     7
176
     1
 79
     5
176
     1
170
     0
176
     1
171
     0
176
     1
290
     0
176
     1
 93
        1
176
     1
 44
0.0
176
     1
173
     0
176
     1
  0
ENDSEC
  0
EOF
