  0
SECTION
  2
HEADER
  9
$ACADVER
  1
AC1024
  9
$ACADMAINTVER
 70
     6
  9
$DWGCODEPAGE
  3
ANSI_932
  9
$INSBASE
 10
0.0
 20
0.0
 30
0.0
  9
$EXTMIN
 10
-4455.0
 20
-3150.0
 30
0.0
  9
$EXTMAX
 10
4455.0
 20
3150.0
 30
0.0
  9
$LIMMIN
 10
-4455.0
 20
-3150.0
  9
$LIMMAX
 10
4455.0
 20
3150.0
  9
$ORTHOMODE
 70
     0
  9
$REGENMODE
 70
     1
  9
$FILLMODE
 70
     1
  9
$QTEXTMODE
 70
     0
  9
$MIRRTEXT
 70
     1
  9
$LTSCALE
 40
30.0
  9
$ATTMODE
 70
     1
  9
$TEXTSIZE
 40
2.5
  9
$TRACEWID
 40
1.0
  9
$TEXTSTYLE
  7
Standard
  9
$CLAYER
  8
0
  9
$CELTYPE
  6
ByLayer
  9
$CECOLOR
 62
   256
  9
$CELTSCALE
 40
1.0
  9
$DISPSILH
 70
     0
  9
$DIMSCALE
 40
1.0
  9
$DIMASZ
 40
2.5
  9
$DIMEXO
 40
0.625
  9
$DIMDLI
 40
3.75
  9
$DIMRND
 40
0.0
  9
$DIMDLE
 40
0.0
  9
$DIMEXE
 40
1.25
  9
$DIMTP
 40
0.0
  9
$DIMTM
 40
0.0
  9
$DIMTXT
 40
2.5
  9
$DIMCEN
 40
2.5
  9
$DIMTSZ
 40
0.0
  9
$DIMTOL
 70
     0
  9
$DIMLIM
 70
     0
  9
$DIMTIH
 70
     0
  9
$DIMTOH
 70
     0
  9
$DIMSE1
 70
     0
  9
$DIMSE2
 70
     0
  9
$DIMTAD
 70
     1
  9
$DIMZIN
 70
     8
  9
$DIMBLK
  1

  9
$DIMASO
 70
     1
  9
$DIMSHO
 70
     1
  9
$DIMPOST
  1

  9
$DIMAPOST
  1

  9
$DIMALT
 70
     0
  9
$DIMALTD
 70
     3
  9
$DIMALTF
 40
0.03937007874016
  9
$DIMLFAC
 40
1.0
  9
$DIMTOFL
 70
     1
  9
$DIMTVP
 40
0.0
  9
$DIMTIX
 70
     0
  9
$DIMSOXD
 70
     0
  9
$DIMSAH
 70
     0
  9
$DIMBLK1
  1

  9
$DIMBLK2
  1

  9
$DIMSTYLE
  2
ISO-25
  9
$DIMCLRD
 70
     0
  9
$DIMCLRE
 70
     0
  9
$DIMCLRT
 70
     0
  9
$DIMTFAC
 40
1.0
  9
$DIMGAP
 40
0.625
  9
$DIMJUST
 70
     0
  9
$DIMSD1
 70
     0
  9
$DIMSD2
 70
     0
  9
$DIMTOLJ
 70
     0
  9
$DIMTZIN
 70
     8
  9
$DIMALTZ
 70
     0
  9
$DIMALTTZ
 70
     0
  9
$DIMUPT
 70
     0
  9
$DIMDEC
 70
     2
  9
$DIMTDEC
 70
     2
  9
$DIMALTU
 70
     2
  9
$DIMALTTD
 70
     3
  9
$DIMTXSTY
  7
Standard
  9
$DIMAUNIT
 70
     0
  9
$DIMADEC
 70
     0
  9
$DIMALTRND
 40
0.0
  9
$DIMAZIN
 70
     0
  9
$DIMDSEP
 70
    44
  9
$DIMATFIT
 70
     3
  9
$DIMFRAC
 70
     0
  9
$DIMLDRBLK
  1

  9
$DIMLUNIT
 70
     2
  9
$DIMLWD
 70
    -2
  9
$DIMLWE
 70
    -2
  9
$DIMTMOVE
 70
     0
  9
$DIMFXL
 40
1.0
  9
$DIMFXLON
 70
     0
  9
$DIMJOGANG
 40
0.7853981633974483
  9
$DIMTFILL
 70
     0
  9
$DIMTFILLCLR
 70
     0
  9
$DIMARCSYM
 70
     0
  9
$DIMLTYPE
  6

  9
$DIMLTEX1
  6

  9
$DIMLTEX2
  6

  9
$DIMTXTDIRECTION
 70
     0
  9
$LUNITS
 70
     2
  9
$LUPREC
 70
     4
  9
$SKETCHINC
 40
1.0
  9
$FILLETRAD
 40
10.0
  9
$AUNITS
 70
     0
  9
$AUPREC
 70
     0
  9
$MENU
  1
.
  9
$ELEVATION
 40
0.0
  9
$PELEVATION
 40
0.0
  9
$THICKNESS
 40
0.0
  9
$LIMCHECK
 70
     0
  9
$CHAMFERA
 40
10.0
  9
$CHAMFERB
 40
10.0
  9
$CHAMFERC
 40
20.0
  9
$CHAMFERD
 40
0.0
  9
$SKPOLY
 70
     0
  9
$TDCREATE
 40
2457953.400761238
  9
$TDUCREATE
 40
2457953.025761238
  9
$TDUPDATE
 40
2457953.40076125
  9
$TDUUPDATE
 40
2457953.02576125
  9
$TDINDWG
 40
0.0000000116
  9
$TDUSRTIMER
 40
0.0000000116
  9
$USRTIMER
 70
     1
  9
$ANGBASE
 50
0.0
  9
$ANGDIR
 70
     0
  9
$PDMODE
 70
     0
  9
$PDSIZE
 40
0.0
  9
$PLINEWID
 40
0.0
  9
$SPLFRAME
 70
     0
  9
$SPLINETYPE
 70
     6
  9
$SPLINESEGS
 70
     8
  9
$HANDSEED
  5
528
  9
$SURFTAB1
 70
     6
  9
$SURFTAB2
 70
     6
  9
$SURFTYPE
 70
     6
  9
$SURFU
 70
     6
  9
$SURFV
 70
     6
  9
$UCSBASE
  2

  9
$UCSNAME
  2

  9
$UCSORG
 10
0.0
 20
0.0
 30
0.0
  9
$UCSXDIR
 10
1.0
 20
0.0
 30
0.0
  9
$UCSYDIR
 10
0.0
 20
1.0
 30
0.0
  9
$UCSORTHOREF
  2

  9
$UCSORTHOVIEW
 70
     0
  9
$UCSORGTOP
 10
0.0
 20
0.0
 30
0.0
  9
$UCSORGBOTTOM
 10
0.0
 20
0.0
 30
0.0
  9
$UCSORGLEFT
 10
0.0
 20
0.0
 30
0.0
  9
$UCSORGRIGHT
 10
0.0
 20
0.0
 30
0.0
  9
$UCSORGFRONT
 10
0.0
 20
0.0
 30
0.0
  9
$UCSORGBACK
 10
0.0
 20
0.0
 30
0.0
  9
$PUCSBASE
  2

  9
$PUCSNAME
  2

  9
$PUCSORG
 10
0.0
 20
0.0
 30
0.0
  9
$PUCSXDIR
 10
1.0
 20
0.0
 30
0.0
  9
$PUCSYDIR
 10
0.0
 20
1.0
 30
0.0
  9
$PUCSORTHOREF
  2

  9
$PUCSORTHOVIEW
 70
     0
  9
$PUCSORGTOP
 10
0.0
 20
0.0
 30
0.0
  9
$PUCSORGBOTTOM
 10
0.0
 20
0.0
 30
0.0
  9
$PUCSORGLEFT
 10
0.0
 20
0.0
 30
0.0
  9
$PUCSORGRIGHT
 10
0.0
 20
0.0
 30
0.0
  9
$PUCSORGFRONT
 10
0.0
 20
0.0
 30
0.0
  9
$PUCSORGBACK
 10
0.0
 20
0.0
 30
0.0
  9
$USERI1
 70
     0
  9
$USERI2
 70
     0
  9
$USERI3
 70
     0
  9
$USERI4
 70
     0
  9
$USERI5
 70
     0
  9
$USERR1
 40
0.0
  9
$USERR2
 40
0.0
  9
$USERR3
 40
0.0
  9
$USERR4
 40
0.0
  9
$USERR5
 40
0.0
  9
$WORLDVIEW
 70
     1
  9
$SHADEDGE
 70
     3
  9
$SHADEDIF
 70
    70
  9
$TILEMODE
 70
     1
  9
$MAXACTVP
 70
    64
  9
$PINSBASE
 10
0.0
 20
0.0
 30
0.0
  9
$PLIMCHECK
 70
     0
  9
$PEXTMIN
 10
1.000000000000000E+20
 20
1.000000000000000E+20
 30
1.000000000000000E+20
  9
$PEXTMAX
 10
-1.000000000000000E+20
 20
-1.000000000000000E+20
 30
-1.000000000000000E+20
  9
$PLIMMIN
 10
0.0
 20
0.0
  9
$PLIMMAX
 10
420.0
 20
297.0
  9
$UNITMODE
 70
     0
  9
$VISRETAIN
 70
     1
  9
$PLINEGEN
 70
     0
  9
$PSLTSCALE
 70
     1
  9
$TREEDEPTH
 70
  3020
  9
$CMLSTYLE
  2
Standard
  9
$CMLJUST
 70
     0
  9
$CMLSCALE
 40
20.0
  9
$PROXYGRAPHICS
 70
     1
  9
$MEASUREMENT
 70
     1
  9
$CELWEIGHT
370
    -1
  9
$ENDCAPS
280
     0
  9
$JOINSTYLE
280
     0
  9
$LWDISPLAY
290
     0
  9
$INSUNITS
 70
     4
  9
$HYPERLINKBASE
  1

  9
$STYLESHEET
  1

  9
$XEDIT
290
     1
  9
$CEPSNTYPE
380
     0
  9
$PSTYLEMODE
290
     1
  9
$FINGERPRINTGUID
  2
{64A2A934-F3DC-44D5-86C8-67A91D2AC8CC}
  9
$VERSIONGUID
  2
{FAEB1C32-E019-11D5-929B-00C0DF256EC4}
  9
$EXTNAMES
290
     1
  9
$PSVPSCALE
 40
0.0
  9
$OLESTARTUP
290
     0
  9
$SORTENTS
280
   127
  9
$INDEXCTL
280
     0
  9
$HIDETEXT
280
     1
  9
$XCLIPFRAME
280
     2
  9
$HALOGAP
280
     0
  9
$OBSCOLOR
 70
   257
  9
$OBSLTYPE
280
     0
  9
$INTERSECTIONDISPLAY
280
     0
  9
$INTERSECTIONCOLOR
 70
   257
  9
$DIMASSOC
280
     2
  9
$PROJECTNAME
  1

  9
$CAMERADISPLAY
290
     0
  9
$LENSLENGTH
 40
50.0
  9
$CAMERAHEIGHT
 40
0.0
  9
$STEPSPERSEC
 40
2.0
  9
$STEPSIZE
 40
6.0
  9
$3DDWFPREC
 40
2.0
  9
$PSOLWIDTH
 40
5.0
  9
$PSOLHEIGHT
 40
80.0
  9
$LOFTANG1
 40
1.570796326794897
  9
$LOFTANG2
 40
1.570796326794897
  9
$LOFTMAG1
 40
0.0
  9
$LOFTMAG2
 40
0.0
  9
$LOFTPARAM
 70
     7
  9
$LOFTNORMALS
280
     1
  9
$LATITUDE
 40
37.795
  9
$LONGITUDE
 40
-122.394
  9
$NORTHDIRECTION
 40
0.0
  9
$TIMEZONE
 70
 -8000
  9
$LIGHTGLYPHDISPLAY
280
     1
  9
$TILEMODELIGHTSYNCH
280
     1
  9
$SOLIDHIST
280
     1
  9
$SHOWHIST
280
     1
  9
$DWFFRAME
280
     2
  9
$DGNFRAME
280
     2
  9
$REALWORLDSCALE
290
     1
  9
$INTERFERECOLOR
 62
   256
  9
$CSHADOW
280
     0
  9
$SHADOWPLANELOCATION
 40
0.0
  0
ENDSEC
  0
SECTION
  2
CLASSES
  0
CLASS
  1
ACDBDICTIONARYWDFLT
  2
AcDbDictionaryWithDefault
  3
ObjectDBX Classes
 90
        0
 91
        4
280
     0
281
     0
  0
CLASS
  1
VISUALSTYLE
  2
AcDbVisualStyle
  3
ObjectDBX Classes
 90
     4095
 91
        4
280
     0
281
     0
  0
CLASS
  1
MATERIAL
  2
AcDbMaterial
  3
ObjectDBX Classes
 90
     1153
 91
        4
280
     0
281
     0
  0
ENDSEC
  0
SECTION
  2
TABLES
  0
TABLE
  2
VPORT
  5
8
330
0
100
AcDbSymbolTable
 70
     1
  0
VPORT
  5
29
330
8
100
AcDbSymbolTableRecord
100
AcDbViewportTableRecord
  2
*Active
 70
     0
 10
0.0
 20
0.0
 11
1.0
 21
1.0
 12
0.0
 22
0.0
 13
0.0
 23
0.0
 14
10.0
 24
10.0
 15
10.0
 25
10.0
 16
0.0
 26
0.0
 36
1.0
 17
0.0
 27
0.0
 37
0.0
 40
6930.000000000001
 41
1.414285714285714
 42
50.0
 43
0.0
 44
0.0
 50
0.0
 51
0.0
 71
     0
 72
 10000
 73
     1
 74
     3
 75
     0
 76
     0
 77
     0
 78
     0
281
     0
 65
     1
110
0.0
120
0.0
130
0.0
111
1.0
121
0.0
131
0.0
112
0.0
122
1.0
132
0.0
 79
     0
146
0.0
 60
     3
 61
     5
292
     1
282
     1
141
0.0
142
0.0
 63
   250
  0
ENDTAB
  0
TABLE
  2
LTYPE
  5
5
330
0
100
AcDbSymbolTable
 70
     2
  0
LTYPE
  5
14
330
5
100
AcDbSymbolTableRecord
100
AcDbLinetypeTableRecord
  2
ByBlock
 70
     0
  3

 72
    65
 73
     0
 40
0.0
  0
LTYPE
  5
15
330
5
100
AcDbSymbolTableRecord
100
AcDbLinetypeTableRecord
  2
ByLayer
 70
     0
  3

 72
    65
 73
     0
 40
0.0
  0
LTYPE
  5
16
330
5
100
AcDbSymbolTableRecord
100
AcDbLinetypeTableRecord
  2
Continuous
 70
     0
  3
Solid line
 72
    65
 73
     0
 40
0.0
  0
LTYPE
  5
3F
330
5
100
AcDbSymbolTableRecord
100
AcDbLinetypeTableRecord
  2
JWW_DASHED1
 70
     0
  3
-  --  --  --  --  --  --  --  -
 72
    65
 73
     2
 40
1.693333333333333
 49
0.8466666666666667
 74
     0
 49
-0.8466666666666667
 74
     0
  0
ENDTAB
  0
TABLE
  2
LAYER
  5
2
330
0
100
AcDbSymbolTable
 70
     3
  0
LAYER
  5
10
330
2
100
AcDbSymbolTableRecord
100
AcDbLayerTableRecord
  2
0
 70
     0
 62
     7
  6
Continuous
370
    -3
390
F
347
3E
  0
LAYER
  5
40
330
2
100
AcDbSymbolTableRecord
100
AcDbLayerTableRecord
  2
寸法
 70
     0
 62
     7
  6
Continuous
370
    -3
390
F
347
3E
  0
LAYER
  5
41
330
2
100
AcDbSymbolTableRecord
100
AcDbLayerTableRecord
  2
0-0
 70
     0
 62
     7
  6
Continuous
370
    -3
390
F
347
3E
  0
ENDTAB
  0
TABLE
  2
STYLE
  5
3
330
0
100
AcDbSymbolTable
 70
     1
  0
STYLE
  5
11
330
3
100
AcDbSymbolTableRecord
100
AcDbTextStyleTableRecord
  2
Standard
 70
     0
 40
0.0
 41
1.0
 50
0.0
 71
     0
 42
2.5
  3
txt
  4

  0
ENDTAB
  0
TABLE
  2
VIEW
  5
6
330
0
100
AcDbSymbolTable
 70
     0
  0
ENDTAB
  0
TABLE
  2
UCS
  5
7
330
0
100
AcDbSymbolTable
 70
     0
  0
ENDTAB
  0
TABLE
  2
APPID
  5
9
330
0
100
AcDbSymbolTable
 70
     1
  0
APPID
  5
12
330
9
100
AcDbSymbolTableRecord
100
AcDbRegAppTableRecord
  2
ACAD
 70
     0
  0
ENDTAB
  0
TABLE
  2
DIMSTYLE
  5
A
330
0
100
AcDbSymbolTable
 70
     1
100
AcDbDimStyleTable
  0
DIMSTYLE
105
27
330
A
100
AcDbSymbolTableRecord
100
AcDbDimStyleTableRecord
  2
ISO-25
 70
     0
 41
2.5
 42
0.625
 43
3.75
 44
1.25
 73
     0
 74
     0
 77
     1
 78
     8
140
2.5
141
2.5
143
0.03937007874016
147
0.625
171
     3
172
     1
178
     0
271
     2
272
     2
274
     3
278
    44
283
     0
284
     8
340
11
  0
ENDTAB
  0
TABLE
  2
BLOCK_RECORD
  5
1
330
0
100
AcDbSymbolTable
 70
     1
  0
BLOCK_RECORD
  5
1F
330
1
100
AcDbSymbolTableRecord
100
AcDbBlockTableRecord
  2
*Model_Space
340
22
 70
     0
280
     1
281
     0
  0
BLOCK_RECORD
  5
1B
330
1
100
AcDbSymbolTableRecord
100
AcDbBlockTableRecord
  2
*Paper_Space
340
1E
 70
     0
280
     1
281
     0
  0
BLOCK_RECORD
  5
23
330
1
100
AcDbSymbolTableRecord
100
AcDbBlockTableRecord
  2
*Paper_Space0
340
26
 70
     0
280
     1
281
     0
  0
ENDTAB
  0
ENDSEC
  0
SECTION
  2
BLOCKS
  0
BLOCK
  5
20
330
1F
100
AcDbEntity
  8
0
100
AcDbBlockBegin
  2
*Model_Space
 70
     0
 10
0.0
 20
0.0
 30
0.0
  3
*Model_Space
  1

  0
ENDBLK
  5
21
330
1F
100
AcDbEntity
  8
0
100
AcDbBlockEnd
  0
BLOCK
  5
1C
330
1B
100
AcDbEntity
 67
     1
  8
0
100
AcDbBlockBegin
  2
*Paper_Space
 70
     0
 10
0.0
 20
0.0
 30
0.0
  3
*Paper_Space
  1

  0
ENDBLK
  5
1D
330
1B
100
AcDbEntity
 67
     1
  8
0
100
AcDbBlockEnd
  0
BLOCK
  5
24
330
23
100
AcDbEntity
  8
0
100
AcDbBlockBegin
  2
*Paper_Space0
 70
     0
 10
0.0
 20
0.0
 30
0.0
  3
*Paper_Space0
  1

  0
ENDBLK
  5
25
330
23
100
AcDbEntity
  8
0
100
AcDbBlockEnd
  0
ENDSEC
  0
SECTION
  2
ENTITIES
  0
LWPOLYLINE
  5
42
330
1F
100
AcDbEntity
  8
寸法
  6
Continuous
 62
     7
370
     9
100
AcDbPolyline
 90
        4
 70
     1
 43
3.0
 10
-2047.102240630126
 20
-1367.380796437603
 42
0.4142135623731
 10
-2048.602240630126
 20
-1365.880796437603
 42
0.4142135623731
 10
-2050.102240630126
 20
-1367.380796437603
 42
0.4142135623731
 10
-2048.602240630126
 20
-1368.880796437603
 42
0.4142135623731
  0
LWPOLYLINE
  5
43
330
1F
100
AcDbEntity
  8
寸法
  6
Continuous
 62
     7
370
     9
100
AcDbPolyline
 90
        4
 70
     1
 43
3.0
 10
-1847.102240630127
 20
-1347.380796437602
 42
0.4142135623731
 10
-1848.602240630127
 20
-1345.880796437602
 42
0.4142135623731
 10
-1850.102240630127
 20
-1347.380796437602
 42
0.4142135623731
 10
-1848.602240630127
 20
-1348.880796437602
 42
0.4142135623731
  0
LINE
  5
44
330
1F
100
AcDbEntity
  8
寸法
  6
Continuous
 62
   120
370
     5
100
AcDbLine
 10
-2048.602240630126
 20
-1367.380796437603
 30
0.0
 11
-1648.602240630125
 21
-1367.380796437603
 31
0.0
  0
LINE
  5
45
330
1F
100
AcDbEntity
  8
寸法
  6
Continuous
 62
   120
370
     5
100
AcDbLine
 10
-1848.602240630127
 20
-1347.380796437602
 30
0.0
 11
-1648.602240630125
 21
-1347.380796437602
 31
0.0
  0
LINE
  5
46
330
1F
100
AcDbEntity
  8
寸法
  6
Continuous
 62
   120
370
     5
100
AcDbLine
 10
-1568.602240630127
 20
-1817.380796437604
 30
0.0
 11
-1568.602240630127
 21
-1417.380796437605
 31
0.0
  0
LINE
  5
47
330
1F
100
AcDbEntity
  8
寸法
  6
Continuous
 62
   120
370
     5
100
AcDbLine
 10
-1598.602240630127
 20
-2017.380796437602
 30
0.0
 11
-1598.602240630127
 21
-1417.380796437605
 31
0.0
  0
LINE
  5
48
330
1F
100
AcDbEntity
  8
寸法
  6
Continuous
 62
   120
370
     5
100
AcDbLine
 10
18.3977593698728
 20
-1617.380796437602
 30
0.0
 11
18.3977593698728
 21
-1417.380796437605
 31
0.0
  0
LINE
  5
49
330
1F
100
AcDbEntity
  8
寸法
  6
Continuous
 62
   120
370
     5
100
AcDbLine
 10
-791.6022406301272
 20
-1617.380796437602
 30
0.0
 11
-791.6022406301272
 21
-1417.380796437605
 31
0.0
  0
LINE
  5
4A
330
1F
100
AcDbEntity
  8
寸法
  6
Continuous
 62
   120
370
     5
100
AcDbLine
 10
-791.6022406301272
 20
-1617.380796437602
 30
0.0
 11
828.3977593698728
 21
-1617.380796437602
 31
0.0
  0
LINE
  5
4B
330
1F
100
AcDbEntity
  8
寸法
  6
Continuous
 62
   120
370
     5
100
AcDbLine
 10
-1568.602240630127
 20
-1817.380796437604
 30
0.0
 11
1605.397759369872
 21
-1817.380796437602
 31
0.0
  0
LINE
  5
4C
330
1F
100
AcDbEntity
  8
寸法
  6
Continuous
 62
   120
370
     5
100
AcDbLine
 10
1605.397759369872
 20
-1817.380796437602
 30
0.0
 11
1605.397759369872
 21
-1417.380796437602
 31
0.0
  0
LINE
  5
4D
330
1F
100
AcDbEntity
  8
寸法
  6
Continuous
 62
   120
370
     5
100
AcDbLine
 10
-1598.602240630127
 20
-2017.380796437602
 30
0.0
 11
1635.397759369872
 21
-2017.380796437601
 31
0.0
  0
LINE
  5
4E
330
1F
100
AcDbEntity
  8
寸法
  6
Continuous
 62
   120
370
     5
100
AcDbLine
 10
1635.397759369872
 20
-2017.380796437601
 30
0.0
 11
1635.397759369872
 21
-1417.380796437602
 31
0.0
  0
LINE
  5
4F
330
1F
100
AcDbEntity
  8
寸法
  6
Continuous
 62
   120
370
     5
100
AcDbLine
 10
828.3977593698728
 20
-1617.380796437602
 30
0.0
 11
828.3977593698728
 21
-1417.380796437605
 31
0.0
  0
LWPOLYLINE
  5
50
330
1F
100
AcDbEntity
  8
寸法
  6
Continuous
 62
     7
370
     9
100
AcDbPolyline
 90
        4
 70
     1
 43
3.0
 10
-1567.102240630127
 20
-1817.380796437604
 42
0.4142135623731
 10
-1568.602240630127
 20
-1815.880796437604
 42
0.4142135623731
 10
-1570.102240630127
 20
-1817.380796437604
 42
0.4142135623731
 10
-1568.602240630127
 20
-1818.880796437604
 42
0.4142135623731
  0
LWPOLYLINE
  5
51
330
1F
100
AcDbEntity
  8
寸法
  6
Continuous
 62
     7
370
     9
100
AcDbPolyline
 90
        4
 70
     1
 43
3.0
 10
-1597.102240630127
 20
-2017.380796437602
 42
0.4142135623731
 10
-1598.602240630127
 20
-2015.880796437603
 42
0.4142135623731
 10
-1600.102240630127
 20
-2017.380796437602
 42
0.4142135623731
 10
-1598.602240630127
 20
-2018.880796437602
 42
0.4142135623731
  0
LWPOLYLINE
  5
52
330
1F
100
AcDbEntity
  8
寸法
  6
Continuous
 62
     7
370
     9
100
AcDbPolyline
 90
        4
 70
     1
 43
3.0
 10
19.8977593698728
 20
-1617.380796437602
 42
0.4142135623731
 10
18.3977593698728
 20
-1615.880796437602
 42
0.4142135623731
 10
16.8977593698728
 20
-1617.380796437602
 42
0.4142135623731
 10
18.3977593698728
 20
-1618.880796437602
 42
0.4142135623731
  0
LWPOLYLINE
  5
53
330
1F
100
AcDbEntity
  8
寸法
  6
Continuous
 62
     7
370
     9
100
AcDbPolyline
 90
        4
 70
     1
 43
3.0
 10
-790.1022406301272
 20
-1617.380796437602
 42
0.4142135623731
 10
-791.6022406301272
 20
-1615.880796437602
 42
0.4142135623731
 10
-793.1022406301272
 20
-1617.380796437602
 42
0.4142135623731
 10
-791.6022406301272
 20
-1618.880796437602
 42
0.4142135623731
  0
LWPOLYLINE
  5
54
330
1F
100
AcDbEntity
  8
寸法
  6
Continuous
 62
     7
370
     9
100
AcDbPolyline
 90
        4
 70
     1
 43
3.0
 10
1606.897759369872
 20
-1817.380796437602
 42
0.4142135623731
 10
1605.397759369872
 20
-1815.880796437602
 42
0.4142135623731
 10
1603.897759369872
 20
-1817.380796437602
 42
0.4142135623731
 10
1605.397759369872
 20
-1818.880796437602
 42
0.4142135623731
  0
LWPOLYLINE
  5
55
330
1F
100
AcDbEntity
  8
寸法
  6
Continuous
 62
     7
370
     9
100
AcDbPolyline
 90
        4
 70
     1
 43
3.0
 10
1636.897759369872
 20
-2017.380796437601
 42
0.4142135623731
 10
1635.397759369872
 20
-2015.880796437602
 42
0.4142135623731
 10
1633.897759369872
 20
-2017.380796437601
 42
0.4142135623731
 10
1635.397759369872
 20
-2018.880796437601
 42
0.4142135623731
  0
LWPOLYLINE
  5
56
330
1F
100
AcDbEntity
  8
寸法
  6
Continuous
 62
     7
370
     9
100
AcDbPolyline
 90
        4
 70
     1
 43
3.0
 10
829.8977593698728
 20
-1617.380796437602
 42
0.4142135623731
 10
828.3977593698728
 20
-1615.880796437602
 42
0.4142135623731
 10
826.8977593698728
 20
-1617.380796437602
 42
0.4142135623731
 10
828.3977593698728
 20
-1618.880796437602
 42
0.4142135623731
  0
MTEXT
  5
57
330
1F
100
AcDbEntity
  8
寸法
  6
Continuous
 62
     7
370
   211
100
AcDbMText
 10
-555.3522406301272
 20
-1611.305796437602
 30
0.0
 40
57.15
 41
337.5
 46
0.0
 71
     7
 72
     1
  1
{\fＭＳ ゴシック|b0|i0|c128|p49;ＤＷ＝810}
 73
     1
 44
1.0
  0
MTEXT
  5
58
330
1F
100
AcDbEntity
  8
寸法
  6
Continuous
 62
     7
370
   211
100
AcDbMText
 10
254.6477593698728
 20
-1611.305796437602
 30
0.0
 40
57.15
 41
337.5
 46
0.0
 71
     7
 72
     1
  1
{\fＭＳ ゴシック|b0|i0|c128|p49;ＤＷ＝810}
 73
     1
 44
1.0
  0
MTEXT
  5
59
330
1F
100
AcDbEntity
  8
寸法
  6
Continuous
 62
     7
370
   211
100
AcDbMText
 10
-187.8522406301272
 20
-1811.305796437603
 30
0.0
 40
57.14999999999999
 41
412.5
 46
0.0
 71
     7
 72
     1
  1
{\fＭＳ ゴシック|b0|i0|c128|p49;枠内＝3,174}
 73
     1
 44
1.0
  0
MTEXT
  5
5A
330
1F
100
AcDbEntity
  8
寸法
  6
Continuous
 62
     7
370
   211
100
AcDbMText
 10
-187.8522406301272
 20
-2011.305796437602
 30
0.0
 40
57.14999999999999
 41
412.5
 46
0.0
 71
     7
 72
     1
  1
{\fＭＳ ゴシック|b0|i0|c128|p49;枠外＝3,234}
 73
     1
 44
1.0
  0
LINE
  5
5B
330
1F
100
AcDbEntity
  8
寸法
  6
Continuous
 62
   120
370
     5
100
AcDbLine
 10
-2048.602240630126
 20
879.6192035623983
 30
0.0
 11
-1648.602240630125
 21
879.6192035623983
 31
0.0
  0
LWPOLYLINE
  5
5C
330
1F
100
AcDbEntity
  8
寸法
  6
Continuous
 62
     7
370
     9
100
AcDbPolyline
 90
        4
 70
     1
 43
3.0
 10
-2047.102240630126
 20
879.6192035623983
 42
0.4142135623731
 10
-2048.602240630126
 20
881.1192035623983
 42
0.4142135623731
 10
-2050.102240630126
 20
879.6192035623983
 42
0.4142135623731
 10
-2048.602240630126
 20
878.1192035623983
 42
0.4142135623731
  0
LINE
  5
5D
330
1F
100
AcDbEntity
  8
寸法
  6
Continuous
 62
   120
370
     5
100
AcDbLine
 10
-2048.602240630126
 20
879.6192035623983
 30
0.0
 11
-2048.602240630126
 21
-1367.380796437603
 31
0.0
  0
LINE
  5
5E
330
1F
100
AcDbEntity
  8
寸法
  6
Continuous
 62
   120
370
     5
100
AcDbLine
 10
-1848.602240630127
 20
835.6192035623974
 30
0.0
 11
-1648.602240630125
 21
835.6192035623974
 31
0.0
  0
LWPOLYLINE
  5
5F
330
1F
100
AcDbEntity
  8
寸法
  6
Continuous
 62
     7
370
     9
100
AcDbPolyline
 90
        4
 70
     1
 43
3.0
 10
-1847.102240630127
 20
835.6192035623974
 42
0.4142135623731
 10
-1848.602240630127
 20
837.1192035623974
 42
0.4142135623731
 10
-1850.102240630127
 20
835.6192035623974
 42
0.4142135623731
 10
-1848.602240630127
 20
834.1192035623974
 42
0.4142135623731
  0
LINE
  5
60
330
1F
100
AcDbEntity
  8
寸法
  6
Continuous
 62
   120
370
     5
100
AcDbLine
 10
-1848.602240630127
 20
835.6192035623974
 30
0.0
 11
-1848.602240630127
 21
-1347.380796437602
 31
0.0
  0
MTEXT
  5
61
330
1F
100
AcDbEntity
  8
寸法
  6
Continuous
 62
     7
370
    70
100
AcDbMText
 10
-2063.602240630126
 20
-471.0557964376019
 30
0.0
 40
57.14999999999999
 41
412.5
 46
0.0
 71
     7
 72
     1
  1
{\fＭＳ ゴシック|b0|i0|c128|p49;枠外＝2,247}
 11
6.123031769111886E-17
 21
1.0
 31
0.0
 73
     1
 44
1.0
  0
MTEXT
  5
62
330
1F
100
AcDbEntity
  8
寸法
  6
Continuous
 62
     7
370
    70
100
AcDbMText
 10
-1863.602240630127
 20
-471.0557964376019
 30
0.0
 40
57.14999999999999
 41
412.5
 46
0.0
 71
     7
 72
     1
  1
{\fＭＳ ゴシック|b0|i0|c128|p49;ＤＨ＝2,183}
 11
6.123031769111886E-17
 21
1.0
 31
0.0
 73
     1
 44
1.0
  0
LINE
  5
63
330
1F
100
AcDbEntity
  8
0-0
  6
Continuous
 62
    92
370
    13
100
AcDbLine
 10
1635.397759369872
 20
-1367.380796437602
 30
0.0
 11
-1598.602240630127
 21
-1367.380796437602
 31
0.0
  0
LINE
  5
64
330
1F
100
AcDbEntity
  8
0-0
  6
Continuous
 62
    92
370
    13
100
AcDbLine
 10
1605.397759369872
 20
-1352.380796437602
 30
0.0
 11
-1568.602240630127
 21
-1352.380796437602
 31
0.0
  0
ARC
  5
65
330
1F
100
AcDbEntity
  8
0-0
  6
Continuous
 62
    92
370
    13
100
AcDbCircle
 10
-1540.102240630125
 20
-330.3807964376011
 30
0.0
 40
1.5
100
AcDbArc
 50
90.0
 51
180.0
  0
LINE
  5
66
330
1F
100
AcDbEntity
  8
0-0
  6
Continuous
 62
    92
370
    13
100
AcDbLine
 10
-1501.102240630127
 20
-328.8807964376016
 30
0.0
 11
-1540.102240630125
 21
-328.8807964376016
 31
0.0
  0
ARC
  5
67
330
1F
100
AcDbEntity
  8
0-0
  6
Continuous
 62
    92
370
    13
100
AcDbCircle
 10
-1501.102240630127
 20
-330.3807964376011
 30
0.0
 40
1.5
100
AcDbArc
 50
0.0
 51
90.00000000000001
  0
LINE
  5
68
330
1F
100
AcDbEntity
  8
0-0
  6
Continuous
 62
    92
370
    13
100
AcDbLine
 10
-1499.602240630126
 20
-449.3807964376012
 30
0.0
 11
-1499.602240630126
 21
-330.3807964376011
 31
0.0
  0
ARC
  5
69
330
1F
100
AcDbEntity
  8
0-0
  6
Continuous
 62
    92
370
    13
100
AcDbCircle
 10
-1501.102240630127
 20
-449.3807964376012
 30
0.0
 40
1.5
100
AcDbArc
 50
270.0
 51
0.0
  0
LINE
  5
6A
330
1F
100
AcDbEntity
  8
0-0
  6
Continuous
 62
    92
370
    13
100
AcDbLine
 10
-1540.102240630125
 20
-450.8807964376032
 30
0.0
 11
-1501.102240630127
 21
-450.8807964376032
 31
0.0
  0
LINE
  5
6B
330
1F
100
AcDbEntity
  8
0-0
  6
Continuous
 62
    92
370
    13
100
AcDbLine
 10
-1541.602240630125
 20
-449.3807964376012
 30
0.0
 11
-1541.602240630125
 21
-330.3807964376011
 31
0.0
  0
ARC
  5
6C
330
1F
100
AcDbEntity
  8
0-0
  6
Continuous
 62
    92
370
    13
100
AcDbCircle
 10
-1540.102240630125
 20
-449.3807964376012
 30
0.0
 40
1.5
100
AcDbArc
 50
180.0
 51
270.0
  0
ARC
  5
6D
330
1F
100
AcDbEntity
  8
0-0
  6
Continuous
 62
     7
370
     9
100
AcDbCircle
 10
-1520.602240630126
 20
-419.4807964376011
 30
0.0
 40
15.0
100
AcDbArc
 50
180.0
 51
0.0
  0
ARC
  5
6E
330
1F
100
AcDbEntity
  8
0-0
  6
Continuous
 62
     7
370
     9
100
AcDbCircle
 10
-1520.602240630126
 20
-360.2807964376012
 30
0.0
 40
15.0
100
AcDbArc
 50
0.0
 51
180.0
  0
LINE
  5
6F
330
1F
100
AcDbEntity
  8
0-0
  6
Continuous
 62
     7
370
     9
100
AcDbLine
 10
-1505.602240630126
 20
-419.4807964376011
 30
0.0
 11
-1505.602240630126
 21
-360.2807964376012
 31
0.0
  0
LINE
  5
70
330
1F
100
AcDbEntity
  8
0-0
  6
Continuous
 62
     7
370
     9
100
AcDbLine
 10
-1535.602240630126
 20
-360.2807964376012
 30
0.0
 11
-1535.602240630126
 21
-419.4807964376011
 31
0.0
  0
ARC
  5
71
330
1F
100
AcDbEntity
  8
0-0
  6
Continuous
 62
    92
370
    13
100
AcDbCircle
 10
-52.10224063012447
 20
-330.3807964376011
 30
0.0
 40
1.5
100
AcDbArc
 50
90.0
 51
180.0
  0
LINE
  5
72
330
1F
100
AcDbEntity
  8
0-0
  6
Continuous
 62
    92
370
    13
100
AcDbLine
 10
-13.10224063012583
 20
-328.8807964376016
 30
0.0
 11
-52.10224063012447
 21
-328.8807964376016
 31
0.0
  0
ARC
  5
73
330
1F
100
AcDbEntity
  8
0-0
  6
Continuous
 62
    92
370
    13
100
AcDbCircle
 10
-13.10224063012583
 20
-330.3807964376011
 30
0.0
 40
1.5
100
AcDbArc
 50
0.0
 51
90.00000000000001
  0
LINE
  5
74
330
1F
100
AcDbEntity
  8
0-0
  6
Continuous
 62
    92
370
    13
100
AcDbLine
 10
-11.60224063012549
 20
-449.3807964376012
 30
0.0
 11
-11.60224063012549
 21
-330.3807964376011
 31
0.0
  0
ARC
  5
75
330
1F
100
AcDbEntity
  8
0-0
  6
Continuous
 62
    92
370
    13
100
AcDbCircle
 10
-13.10224063012583
 20
-449.3807964376012
 30
0.0
 40
1.5
100
AcDbArc
 50
270.0
 51
0.0
  0
LINE
  5
76
330
1F
100
AcDbEntity
  8
0-0
  6
Continuous
 62
    92
370
    13
100
AcDbLine
 10
-52.10224063012447
 20
-450.8807964376032
 30
0.0
 11
-13.10224063012583
 21
-450.8807964376032
 31
0.0
  0
LINE
  5
77
330
1F
100
AcDbEntity
  8
0-0
  6
Continuous
 62
    92
370
    13
100
AcDbLine
 10
-53.60224063012481
 20
-449.3807964376012
 30
0.0
 11
-53.60224063012481
 21
-330.3807964376011
 31
0.0
  0
ARC
  5
78
330
1F
100
AcDbEntity
  8
0-0
  6
Continuous
 62
    92
370
    13
100
AcDbCircle
 10
-52.10224063012447
 20
-449.3807964376012
 30
0.0
 40
1.5
100
AcDbArc
 50
180.0
 51
270.0
  0
ARC
  5
79
330
1F
100
AcDbEntity
  8
0-0
  6
Continuous
 62
     7
370
     9
100
AcDbCircle
 10
-32.60224063012515
 20
-419.4807964376011
 30
0.0
 40
15.0
100
AcDbArc
 50
180.0
 51
0.0
  0
ARC
  5
7A
330
1F
100
AcDbEntity
  8
0-0
  6
Continuous
 62
     7
370
     9
100
AcDbCircle
 10
-32.60224063012515
 20
-360.2807964376012
 30
0.0
 40
15.0
100
AcDbArc
 50
0.0
 51
180.0
  0
LINE
  5
7B
330
1F
100
AcDbEntity
  8
0-0
  6
Continuous
 62
     7
370
     9
100
AcDbLine
 10
-17.60224063012515
 20
-419.4807964376011
 30
0.0
 11
-17.60224063012515
 21
-360.2807964376012
 31
0.0
  0
LINE
  5
7C
330
1F
100
AcDbEntity
  8
0-0
  6
Continuous
 62
     7
370
     9
100
AcDbLine
 10
-47.60224063012515
 20
-360.2807964376012
 30
0.0
 11
-47.60224063012515
 21
-419.4807964376011
 31
0.0
  0
ARC
  5
7D
330
1F
100
AcDbEntity
  8
0-0
  6
Continuous
 62
    92
370
    13
100
AcDbCircle
 10
49.89775936987144
 20
-330.3807964376011
 30
0.0
 40
1.5
100
AcDbArc
 50
90.0
 51
180.0
  0
LINE
  5
7E
330
1F
100
AcDbEntity
  8
0-0
  6
Continuous
 62
    92
370
    13
100
AcDbLine
 10
88.89775936987007
 20
-328.8807964376016
 30
0.0
 11
49.89775936987144
 21
-328.8807964376016
 31
0.0
  0
ARC
  5
7F
330
1F
100
AcDbEntity
  8
0-0
  6
Continuous
 62
    92
370
    13
100
AcDbCircle
 10
88.89775936987007
 20
-330.3807964376011
 30
0.0
 40
1.5
100
AcDbArc
 50
0.0
 51
90.00000000000001
  0
LINE
  5
80
330
1F
100
AcDbEntity
  8
0-0
  6
Continuous
 62
    92
370
    13
100
AcDbLine
 10
90.39775936987041
 20
-449.3807964376012
 30
0.0
 11
90.39775936987041
 21
-330.3807964376011
 31
0.0
  0
ARC
  5
81
330
1F
100
AcDbEntity
  8
0-0
  6
Continuous
 62
    92
370
    13
100
AcDbCircle
 10
88.89775936987007
 20
-449.3807964376012
 30
0.0
 40
1.5
100
AcDbArc
 50
270.0
 51
0.0
  0
LINE
  5
82
330
1F
100
AcDbEntity
  8
0-0
  6
Continuous
 62
    92
370
    13
100
AcDbLine
 10
49.89775936987144
 20
-450.8807964376032
 30
0.0
 11
88.89775936987007
 21
-450.8807964376032
 31
0.0
  0
LINE
  5
83
330
1F
100
AcDbEntity
  8
0-0
  6
Continuous
 62
    92
370
    13
100
AcDbLine
 10
48.3977593698711
 20
-449.3807964376012
 30
0.0
 11
48.3977593698711
 21
-330.3807964376011
 31
0.0
  0
ARC
  5
84
330
1F
100
AcDbEntity
  8
0-0
  6
Continuous
 62
    92
370
    13
100
AcDbCircle
 10
49.89775936987144
 20
-449.3807964376012
 30
0.0
 40
1.5
100
AcDbArc
 50
180.0
 51
270.0
  0
ARC
  5
85
330
1F
100
AcDbEntity
  8
0-0
  6
Continuous
 62
     7
370
     9
100
AcDbCircle
 10
69.39775936987076
 20
-419.4807964376011
 30
0.0
 40
15.0
100
AcDbArc
 50
180.0
 51
0.0
  0
ARC
  5
86
330
1F
100
AcDbEntity
  8
0-0
  6
Continuous
 62
     7
370
     9
100
AcDbCircle
 10
69.39775936987076
 20
-360.2807964376012
 30
0.0
 40
15.0
100
AcDbArc
 50
0.0
 51
180.0
  0
LINE
  5
87
330
1F
100
AcDbEntity
  8
0-0
  6
Continuous
 62
     7
370
     9
100
AcDbLine
 10
84.39775936987076
 20
-419.4807964376011
 30
0.0
 11
84.39775936987076
 21
-360.2807964376012
 31
0.0
  0
LINE
  5
88
330
1F
100
AcDbEntity
  8
0-0
  6
Continuous
 62
     7
370
     9
100
AcDbLine
 10
54.39775936987076
 20
-360.2807964376012
 30
0.0
 11
54.39775936987076
 21
-419.4807964376011
 31
0.0
  0
ARC
  5
89
330
1F
100
AcDbEntity
  8
0-0
  6
Continuous
 62
    92
370
    13
100
AcDbCircle
 10
1537.897759369875
 20
-330.3807964376011
 30
0.0
 40
1.5
100
AcDbArc
 50
90.0
 51
180.0
  0
LINE
  5
8A
330
1F
100
AcDbEntity
  8
0-0
  6
Continuous
 62
    92
370
    13
100
AcDbLine
 10
1576.897759369875
 20
-328.8807964376016
 30
0.0
 11
1537.897759369875
 21
-328.8807964376016
 31
0.0
  0
ARC
  5
8B
330
1F
100
AcDbEntity
  8
0-0
  6
Continuous
 62
    92
370
    13
100
AcDbCircle
 10
1576.897759369875
 20
-330.3807964376011
 30
0.0
 40
1.5
100
AcDbArc
 50
0.0
 51
90.00000000000001
  0
LINE
  5
8C
330
1F
100
AcDbEntity
  8
0-0
  6
Continuous
 62
    92
370
    13
100
AcDbLine
 10
1578.397759369875
 20
-449.3807964376012
 30
0.0
 11
1578.397759369875
 21
-330.3807964376011
 31
0.0
  0
ARC
  5
8D
330
1F
100
AcDbEntity
  8
0-0
  6
Continuous
 62
    92
370
    13
100
AcDbCircle
 10
1576.897759369875
 20
-449.3807964376012
 30
0.0
 40
1.5
100
AcDbArc
 50
270.0
 51
0.0
  0
LINE
  5
8E
330
1F
100
AcDbEntity
  8
0-0
  6
Continuous
 62
    92
370
    13
100
AcDbLine
 10
1537.897759369875
 20
-450.8807964376032
 30
0.0
 11
1576.897759369875
 21
-450.8807964376032
 31
0.0
  0
LINE
  5
8F
330
1F
100
AcDbEntity
  8
0-0
  6
Continuous
 62
    92
370
    13
100
AcDbLine
 10
1536.397759369875
 20
-449.3807964376012
 30
0.0
 11
1536.397759369875
 21
-330.3807964376011
 31
0.0
  0
ARC
  5
90
330
1F
100
AcDbEntity
  8
0-0
  6
Continuous
 62
    92
370
    13
100
AcDbCircle
 10
1537.897759369875
 20
-449.3807964376012
 30
0.0
 40
1.5
100
AcDbArc
 50
180.0
 51
270.0
  0
ARC
  5
91
330
1F
100
AcDbEntity
  8
0-0
  6
Continuous
 62
     7
370
     9
100
AcDbCircle
 10
1557.397759369875
 20
-419.4807964376011
 30
0.0
 40
15.0
100
AcDbArc
 50
180.0
 51
0.0
  0
ARC
  5
92
330
1F
100
AcDbEntity
  8
0-0
  6
Continuous
 62
     7
370
     9
100
AcDbCircle
 10
1557.397759369875
 20
-360.2807964376012
 30
0.0
 40
15.0
100
AcDbArc
 50
0.0
 51
180.0
  0
LINE
  5
93
330
1F
100
AcDbEntity
  8
0-0
  6
Continuous
 62
     7
370
     9
100
AcDbLine
 10
1572.397759369875
 20
-419.4807964376011
 30
0.0
 11
1572.397759369875
 21
-360.2807964376012
 31
0.0
  0
LINE
  5
94
330
1F
100
AcDbEntity
  8
0-0
  6
Continuous
 62
     7
370
     9
100
AcDbLine
 10
1542.397759369875
 20
-360.2807964376012
 30
0.0
 11
1542.397759369875
 21
-419.4807964376011
 31
0.0
  0
LINE
  5
95
330
1F
100
AcDbEntity
  8
0-0
  6
Continuous
 62
    92
370
    13
100
AcDbLine
 10
-1568.602240630127
 20
-1347.380796437602
 30
0.0
 11
18.3977593698728
 21
-1347.380796437602
 31
0.0
  0
LINE
  5
96
330
1F
100
AcDbEntity
  8
0-0
  6
Continuous
 62
    92
370
    13
100
AcDbLine
 10
1605.397759369872
 20
-1347.380796437602
 30
0.0
 11
18.3977593698728
 21
-1347.380796437602
 31
0.0
  0
LINE
  5
97
330
1F
100
AcDbEntity
  8
0-0
  6
JWW_DASHED1
 62
   120
370
     5
100
AcDbLine
 10
-1568.602240630127
 20
-1347.380796437602
 30
0.0
 11
-1571.602240630127
 21
-1347.380796437602
 31
0.0
  0
LINE
  5
98
330
1F
100
AcDbEntity
  8
0-0
  6
JWW_DASHED1
 62
   120
370
     5
100
AcDbLine
 10
1605.397759369872
 20
-1347.380796437602
 30
0.0
 11
1608.397759369873
 21
-1347.380796437602
 31
0.0
  0
LINE
  5
99
330
1F
100
AcDbEntity
  8
0-0
  6
Continuous
 62
     7
370
     9
100
AcDbLine
 10
-1453.102240630128
 20
-1197.380796437602
 30
0.0
 11
-1468.102240630128
 21
-1212.380796437602
 31
0.0
  0
LINE
  5
9A
330
1F
100
AcDbEntity
  8
0-0
  6
Continuous
 62
     7
370
     9
100
AcDbLine
 10
-880.1022406301269
 20
-1197.380796437602
 30
0.0
 11
-865.1022406301269
 21
-1212.380796437602
 31
0.0
  0
LINE
  5
9B
330
1F
100
AcDbEntity
  8
0-0
  6
Continuous
 62
     7
370
     9
100
AcDbLine
 10
-1468.102240630128
 20
-1212.380796437602
 30
0.0
 11
-865.1022406301269
 21
-1212.380796437602
 31
0.0
  0
LINE
  5
9C
330
1F
100
AcDbEntity
  8
0-0
  6
Continuous
 62
     7
370
     9
100
AcDbLine
 10
-1423.102240630128
 20
-1167.380796437602
 30
0.0
 11
-1438.102240630128
 21
-1182.380796437602
 31
0.0
  0
LINE
  5
9D
330
1F
100
AcDbEntity
  8
0-0
  6
Continuous
 62
     7
370
     9
100
AcDbLine
 10
-910.1022406301269
 20
-1167.380796437602
 30
0.0
 11
-895.1022406301269
 21
-1182.380796437602
 31
0.0
  0
LINE
  5
9E
330
1F
100
AcDbEntity
  8
0-0
  6
Continuous
 62
     7
370
     9
100
AcDbLine
 10
-1423.102240630128
 20
-1167.380796437602
 30
0.0
 11
-910.1022406301269
 21
-1167.380796437602
 31
0.0
  0
LINE
  5
9F
330
1F
100
AcDbEntity
  8
0-0
  6
Continuous
 62
    92
370
    13
100
AcDbLine
 10
-1453.102240630128
 20
-1197.380796437602
 30
0.0
 11
-880.1022406301269
 21
-1197.380796437602
 31
0.0
  0
LINE
  5
A0
330
1F
100
AcDbEntity
  8
0-0
  6
Continuous
 62
     7
370
     9
100
AcDbLine
 10
-673.1022406301275
 20
-1197.380796437602
 30
0.0
 11
-688.1022406301275
 21
-1212.380796437602
 31
0.0
  0
LINE
  5
A1
330
1F
100
AcDbEntity
  8
0-0
  6
Continuous
 62
     7
370
     9
100
AcDbLine
 10
-100.1022406301269
 20
-1197.380796437602
 30
0.0
 11
-85.10224063012686
 21
-1212.380796437602
 31
0.0
  0
LINE
  5
A2
330
1F
100
AcDbEntity
  8
0-0
  6
Continuous
 62
     7
370
     9
100
AcDbLine
 10
-688.1022406301275
 20
-1212.380796437602
 30
0.0
 11
-85.10224063012686
 21
-1212.380796437602
 31
0.0
  0
LINE
  5
A3
330
1F
100
AcDbEntity
  8
0-0
  6
Continuous
 62
     7
370
     9
100
AcDbLine
 10
-643.1022406301275
 20
-1167.380796437602
 30
0.0
 11
-658.1022406301275
 21
-1182.380796437602
 31
0.0
  0
LINE
  5
A4
330
1F
100
AcDbEntity
  8
0-0
  6
Continuous
 62
     7
370
     9
100
AcDbLine
 10
-130.1022406301269
 20
-1167.380796437602
 30
0.0
 11
-115.1022406301269
 21
-1182.380796437602
 31
0.0
  0
LINE
  5
A5
330
1F
100
AcDbEntity
  8
0-0
  6
Continuous
 62
     7
370
     9
100
AcDbLine
 10
-643.1022406301275
 20
-1167.380796437602
 30
0.0
 11
-130.1022406301269
 21
-1167.380796437602
 31
0.0
  0
LINE
  5
A6
330
1F
100
AcDbEntity
  8
0-0
  6
Continuous
 62
    92
370
    13
100
AcDbLine
 10
-673.1022406301275
 20
-1197.380796437602
 30
0.0
 11
-100.1022406301269
 21
-1197.380796437602
 31
0.0
  0
LINE
  5
A7
330
1F
100
AcDbEntity
  8
0-0
  6
Continuous
 62
     7
370
     9
100
AcDbLine
 10
136.8977593698725
 20
-1197.380796437602
 30
0.0
 11
121.8977593698725
 21
-1212.380796437602
 31
0.0
  0
LINE
  5
A8
330
1F
100
AcDbEntity
  8
0-0
  6
Continuous
 62
     7
370
     9
100
AcDbLine
 10
709.8977593698731
 20
-1197.380796437602
 30
0.0
 11
724.8977593698731
 21
-1212.380796437602
 31
0.0
  0
LINE
  5
A9
330
1F
100
AcDbEntity
  8
0-0
  6
Continuous
 62
     7
370
     9
100
AcDbLine
 10
121.8977593698725
 20
-1212.380796437602
 30
0.0
 11
724.8977593698731
 21
-1212.380796437602
 31
0.0
  0
LINE
  5
AA
330
1F
100
AcDbEntity
  8
0-0
  6
Continuous
 62
     7
370
     9
100
AcDbLine
 10
166.8977593698725
 20
-1167.380796437602
 30
0.0
 11
151.8977593698725
 21
-1182.380796437602
 31
0.0
  0
LINE
  5
AB
330
1F
100
AcDbEntity
  8
0-0
  6
Continuous
 62
     7
370
     9
100
AcDbLine
 10
679.8977593698731
 20
-1167.380796437602
 30
0.0
 11
694.8977593698731
 21
-1182.380796437602
 31
0.0
  0
LINE
  5
AC
330
1F
100
AcDbEntity
  8
0-0
  6
Continuous
 62
     7
370
     9
100
AcDbLine
 10
166.8977593698725
 20
-1167.380796437602
 30
0.0
 11
679.8977593698731
 21
-1167.380796437602
 31
0.0
  0
LINE
  5
AD
330
1F
100
AcDbEntity
  8
0-0
  6
Continuous
 62
    92
370
    13
100
AcDbLine
 10
136.8977593698725
 20
-1197.380796437602
 30
0.0
 11
709.8977593698731
 21
-1197.380796437602
 31
0.0
  0
LINE
  5
AE
330
1F
100
AcDbEntity
  8
0-0
  6
Continuous
 62
     7
370
     9
100
AcDbLine
 10
916.8977593698725
 20
-1197.380796437602
 30
0.0
 11
901.8977593698725
 21
-1212.380796437602
 31
0.0
  0
LINE
  5
AF
330
1F
100
AcDbEntity
  8
0-0
  6
Continuous
 62
     7
370
     9
100
AcDbLine
 10
1489.897759369873
 20
-1197.380796437602
 30
0.0
 11
1504.897759369873
 21
-1212.380796437602
 31
0.0
  0
LINE
  5
B0
330
1F
100
AcDbEntity
  8
0-0
  6
Continuous
 62
     7
370
     9
100
AcDbLine
 10
901.8977593698725
 20
-1212.380796437602
 30
0.0
 11
1504.897759369873
 21
-1212.380796437602
 31
0.0
  0
LINE
  5
B1
330
1F
100
AcDbEntity
  8
0-0
  6
Continuous
 62
     7
370
     9
100
AcDbLine
 10
946.8977593698725
 20
-1167.380796437602
 30
0.0
 11
931.8977593698725
 21
-1182.380796437602
 31
0.0
  0
LINE
  5
B2
330
1F
100
AcDbEntity
  8
0-0
  6
Continuous
 62
     7
370
     9
100
AcDbLine
 10
1459.897759369873
 20
-1167.380796437602
 30
0.0
 11
1474.897759369873
 21
-1182.380796437602
 31
0.0
  0
LINE
  5
B3
330
1F
100
AcDbEntity
  8
0-0
  6
Continuous
 62
     7
370
     9
100
AcDbLine
 10
946.8977593698725
 20
-1167.380796437602
 30
0.0
 11
1459.897759369873
 21
-1167.380796437602
 31
0.0
  0
LINE
  5
B4
330
1F
100
AcDbEntity
  8
0-0
  6
Continuous
 62
    92
370
    13
100
AcDbLine
 10
916.8977593698725
 20
-1197.380796437602
 30
0.0
 11
1489.897759369873
 21
-1197.380796437602
 31
0.0
  0
LINE
  5
B5
330
1F
100
AcDbEntity
  8
0-0
  6
Continuous
 62
    92
370
    13
100
AcDbLine
 10
-1598.602240630127
 20
879.6192035623983
 30
0.0
 11
1635.397759369872
 21
879.6192035623983
 31
0.0
  0
LINE
  5
B6
330
1F
100
AcDbEntity
  8
0-0
  6
Continuous
 62
    92
370
    13
100
AcDbLine
 10
-1568.602240630127
 20
843.6192035623969
 30
0.0
 11
1605.397759369872
 21
843.6192035623969
 31
0.0
  0
LINE
  5
B7
330
1F
100
AcDbEntity
  8
0-0
  6
Continuous
 62
    92
370
    13
100
AcDbLine
 10
1605.397759369872
 20
-1367.380796437602
 30
0.0
 11
1605.397759369872
 21
879.6192035623983
 31
0.0
  0
LINE
  5
B8
330
1F
100
AcDbEntity
  8
0-0
  6
Continuous
 62
    92
370
    13
100
AcDbLine
 10
-1568.602240630127
 20
-1367.380796437602
 30
0.0
 11
-1568.602240630127
 21
879.6192035623983
 31
0.0
  0
LINE
  5
B9
330
1F
100
AcDbEntity
  8
0-0
  6
Continuous
 62
    92
370
    13
100
AcDbLine
 10
1635.397759369872
 20
-1367.380796437602
 30
0.0
 11
1635.397759369872
 21
879.6192035623983
 31
0.0
  0
LINE
  5
BA
330
1F
100
AcDbEntity
  8
0-0
  6
Continuous
 62
    92
370
    13
100
AcDbLine
 10
-1598.602240630127
 20
-1367.380796437602
 30
0.0
 11
-1598.602240630127
 21
879.6192035623983
 31
0.0
  0
LINE
  5
BB
330
1F
100
AcDbEntity
  8
0-0
  6
Continuous
 62
    92
370
    13
100
AcDbLine
 10
-791.6022406301272
 20
-1347.380796437602
 30
0.0
 11
-791.6022406301272
 21
835.6192035623974
 31
0.0
  0
LINE
  5
BC
330
1F
100
AcDbEntity
  8
0-0
  6
JWW_DASHED1
 62
   120
370
     5
100
AcDbLine
 10
-761.6022406301272
 20
-1347.380796437602
 30
0.0
 11
-761.6022406301272
 21
835.6192035623974
 31
0.0
  0
LINE
  5
BD
330
1F
100
AcDbEntity
  8
0-0
  6
Continuous
 62
    92
370
    13
100
AcDbLine
 10
-1568.602240630127
 20
835.6192035623974
 30
0.0
 11
18.3977593698728
 21
835.6192035623974
 31
0.0
  0
LINE
  5
BE
330
1F
100
AcDbEntity
  8
0-0
  6
Continuous
 62
    92
370
    13
100
AcDbLine
 10
18.3977593698728
 20
-1347.380796437602
 30
0.0
 11
18.3977593698728
 21
835.6192035623974
 31
0.0
  0
LINE
  5
BF
330
1F
100
AcDbEntity
  8
0-0
  6
Continuous
 62
    92
370
    13
100
AcDbLine
 10
828.3977593698728
 20
-1347.380796437602
 30
0.0
 11
828.3977593698728
 21
835.6192035623974
 31
0.0
  0
LINE
  5
C0
330
1F
100
AcDbEntity
  8
0-0
  6
JWW_DASHED1
 62
   120
370
     5
100
AcDbLine
 10
798.3977593698728
 20
-1347.380796437602
 30
0.0
 11
798.3977593698728
 21
835.6192035623974
 31
0.0
  0
LINE
  5
C1
330
1F
100
AcDbEntity
  8
0-0
  6
Continuous
 62
    92
370
    13
100
AcDbLine
 10
1605.397759369872
 20
835.6192035623974
 30
0.0
 11
18.3977593698728
 21
835.6192035623974
 31
0.0
  0
LINE
  5
C2
330
1F
100
AcDbEntity
  8
0-0
  6
JWW_DASHED1
 62
   120
370
     5
100
AcDbLine
 10
-1571.602240630127
 20
-1347.380796437602
 30
0.0
 11
-1571.602240630127
 21
835.6192035623974
 31
0.0
  0
LINE
  5
C3
330
1F
100
AcDbEntity
  8
0-0
  6
JWW_DASHED1
 62
   120
370
     5
100
AcDbLine
 10
-1571.602240630127
 20
835.6192035623974
 30
0.0
 11
-1568.602240630127
 21
835.6192035623974
 31
0.0
  0
LINE
  5
C4
330
1F
100
AcDbEntity
  8
0-0
  6
JWW_DASHED1
 62
   120
370
     5
100
AcDbLine
 10
1608.397759369873
 20
-1347.380796437602
 30
0.0
 11
1608.397759369873
 21
835.6192035623974
 31
0.0
  0
LINE
  5
C5
330
1F
100
AcDbEntity
  8
0-0
  6
JWW_DASHED1
 62
   120
370
     5
100
AcDbLine
 10
1608.397759369873
 20
835.6192035623974
 30
0.0
 11
1605.397759369872
 21
835.6192035623974
 31
0.0
  0
LINE
  5
C6
330
1F
100
AcDbEntity
  8
0-0
  6
Continuous
 62
     7
370
     9
100
AcDbLine
 10
-1468.102240630128
 20
-1347.380796437602
 30
0.0
 11
-1468.102240630128
 21
835.6192035623974
 31
0.0
  0
LINE
  5
C7
330
1F
100
AcDbEntity
  8
0-0
  6
Continuous
 62
     7
370
     9
100
AcDbLine
 10
-865.1022406301269
 20
-1347.380796437602
 30
0.0
 11
-865.1022406301269
 21
835.6192035623974
 31
0.0
  0
LINE
  5
C8
330
1F
100
AcDbEntity
  8
0-0
  6
Continuous
 62
     7
370
     9
100
AcDbLine
 10
-1453.102240630128
 20
-474.3807964376023
 30
0.0
 11
-1468.102240630128
 21
-489.3807964376023
 31
0.0
  0
LINE
  5
C9
330
1F
100
AcDbEntity
  8
0-0
  6
Continuous
 62
     7
370
     9
100
AcDbLine
 10
-1468.102240630128
 20
-564.3807964376024
 30
0.0
 11
-1453.102240630128
 21
-579.3807964376024
 31
0.0
  0
LINE
  5
CA
330
1F
100
AcDbEntity
  8
0-0
  6
Continuous
 62
     7
370
     9
100
AcDbLine
 10
-880.1022406301269
 20
-474.3807964376023
 30
0.0
 11
-865.1022406301269
 21
-489.3807964376023
 31
0.0
  0
LINE
  5
CB
330
1F
100
AcDbEntity
  8
0-0
  6
Continuous
 62
     7
370
     9
100
AcDbLine
 10
-865.1022406301269
 20
-564.3807964376024
 30
0.0
 11
-880.1022406301269
 21
-579.3807964376024
 31
0.0
  0
LINE
  5
CC
330
1F
100
AcDbEntity
  8
0-0
  6
Continuous
 62
     7
370
     9
100
AcDbLine
 10
-1468.102240630128
 20
-489.3807964376023
 30
0.0
 11
-865.1022406301269
 21
-489.3807964376023
 31
0.0
  0
LINE
  5
CD
330
1F
100
AcDbEntity
  8
0-0
  6
Continuous
 62
     7
370
     9
100
AcDbLine
 10
-1468.102240630128
 20
-564.3807964376024
 30
0.0
 11
-865.1022406301269
 21
-564.3807964376024
 31
0.0
  0
LINE
  5
CE
330
1F
100
AcDbEntity
  8
0-0
  6
Continuous
 62
     7
370
     9
100
AcDbLine
 10
-1423.102240630128
 20
-1167.380796437602
 30
0.0
 11
-1423.102240630128
 21
-609.3807964376024
 31
0.0
  0
LINE
  5
CF
330
1F
100
AcDbEntity
  8
0-0
  6
Continuous
 62
     7
370
     9
100
AcDbLine
 10
-1438.102240630128
 20
-594.3807964376024
 30
0.0
 11
-1423.102240630128
 21
-609.3807964376024
 31
0.0
  0
LINE
  5
D0
330
1F
100
AcDbEntity
  8
0-0
  6
Continuous
 62
     7
370
     9
100
AcDbLine
 10
-895.1022406301269
 20
-594.3807964376024
 30
0.0
 11
-910.1022406301269
 21
-609.3807964376024
 31
0.0
  0
LINE
  5
D1
330
1F
100
AcDbEntity
  8
0-0
  6
Continuous
 62
     7
370
     9
100
AcDbLine
 10
-1423.102240630128
 20
-609.3807964376024
 30
0.0
 11
-910.1022406301269
 21
-609.3807964376024
 31
0.0
  0
LINE
  5
D2
330
1F
100
AcDbEntity
  8
0-0
  6
Continuous
 62
     7
370
     9
100
AcDbLine
 10
-910.1022406301269
 20
-1167.380796437602
 30
0.0
 11
-910.1022406301269
 21
-609.3807964376024
 31
0.0
  0
LINE
  5
D3
330
1F
100
AcDbEntity
  8
0-0
  6
Continuous
 62
     7
370
     9
100
AcDbLine
 10
-1453.102240630129
 20
640.6189360180892
 30
0.0
 11
-1468.102636539073
 21
655.6193319270302
 31
0.0
  0
LINE
  5
D4
330
1F
100
AcDbEntity
  8
0-0
  6
Continuous
 62
     7
370
     9
100
AcDbLine
 10
-880.1022406301269
 20
640.6189360180892
 30
0.0
 11
-865.1022406301269
 21
655.6189360180892
 31
0.0
  0
ARC
  5
D5
330
1F
100
AcDbEntity
  8
0-0
  6
Continuous
 62
     7
370
     9
100
AcDbCircle
 10
-1404.089578058715
 20
790.6189360180892
 30
0.0
 40
135.0
100
AcDbArc
 50
270.0
 51
298.3577011236671
  0
ARC
  5
D6
330
1F
100
AcDbEntity
  8
0-0
  6
Continuous
 62
     7
370
     9
100
AcDbCircle
 10
-929.1149032015392
 20
790.6189360180892
 30
0.0
 40
135.0
100
AcDbArc
 50
241.6422988763328
 51
270.0
  0
ARC
  5
D7
330
1F
100
AcDbEntity
  8
0-0
  6
Continuous
 62
     7
370
     9
100
AcDbCircle
 10
-1166.602240630127
 20
350.6192035623977
 30
0.0
 40
365.0
100
AcDbArc
 50
61.64229887633292
 51
118.3577011236671
  0
LINE
  5
D8
330
1F
100
AcDbEntity
  8
0-0
  6
Continuous
 62
     7
370
     9
100
AcDbLine
 10
-1468.102290118097
 20
655.6189855060531
 30
0.0
 11
-1404.089578058715
 21
655.6189855060531
 31
0.0
  0
LINE
  5
D9
330
1F
100
AcDbEntity
  8
0-0
  6
Continuous
 62
     7
370
     9
100
AcDbLine
 10
-865.1021911421611
 20
655.6189855060531
 30
0.0
 11
-929.1149032015392
 21
655.6189855060531
 31
0.0
  0
LINE
  5
DA
330
1F
100
AcDbEntity
  8
0-0
  6
Continuous
 62
    92
370
    13
100
AcDbLine
 10
-1453.102240630128
 20
-579.3807964376024
 30
0.0
 11
-880.1022406301269
 21
-579.3807964376024
 31
0.0
  0
LINE
  5
DB
330
1F
100
AcDbEntity
  8
0-0
  6
Continuous
 62
    92
370
    13
100
AcDbLine
 10
-1453.102240630128
 20
-1197.380796437602
 30
0.0
 11
-1453.102240630128
 21
-579.3807964376024
 31
0.0
  0
LINE
  5
DC
330
1F
100
AcDbEntity
  8
0-0
  6
Continuous
 62
    92
370
    13
100
AcDbLine
 10
-880.1022406301269
 20
-1197.380796437602
 30
0.0
 11
-880.1022406301269
 21
-579.3807964376024
 31
0.0
  0
LINE
  5
DD
330
1F
100
AcDbEntity
  8
0-0
  6
Continuous
 62
    92
370
    13
100
AcDbLine
 10
-880.1022406301269
 20
640.6189360180892
 30
0.0
 11
-929.1149032015392
 21
640.6189360180892
 31
0.0
  0
ARC
  5
DE
330
1F
100
AcDbEntity
  8
0-0
  6
Continuous
 62
    92
370
    13
100
AcDbCircle
 10
-929.1149032015392
 20
790.6189360180892
 30
0.0
 40
150.0
100
AcDbArc
 50
241.6422988763328
 51
270.0
  0
ARC
  5
DF
330
1F
100
AcDbEntity
  8
0-0
  6
Continuous
 62
    92
370
    13
100
AcDbCircle
 10
-1166.602240630127
 20
350.6192035623977
 30
0.0
 40
350.0
100
AcDbArc
 50
61.64229887633292
 51
118.3577011236671
  0
ARC
  5
E0
330
1F
100
AcDbEntity
  8
0-0
  6
Continuous
 62
    92
370
    13
100
AcDbCircle
 10
-1404.089578058715
 20
790.6189360180892
 30
0.0
 40
150.0
100
AcDbArc
 50
270.0
 51
298.3577011236671
  0
LINE
  5
E1
330
1F
100
AcDbEntity
  8
0-0
  6
Continuous
 62
    92
370
    13
100
AcDbLine
 10
-1453.102240630129
 20
640.6189360180892
 30
0.0
 11
-1404.089578058715
 21
640.6189360180892
 31
0.0
  0
LINE
  5
E2
330
1F
100
AcDbEntity
  8
0-0
  6
Continuous
 62
    92
370
    13
100
AcDbLine
 10
-1453.102240630128
 20
-474.3807964376023
 30
0.0
 11
-1453.102240630128
 21
640.6189360180892
 31
0.0
  0
LINE
  5
E3
330
1F
100
AcDbEntity
  8
0-0
  6
Continuous
 62
    92
370
    13
100
AcDbLine
 10
-1453.102240630128
 20
-474.3807964376023
 30
0.0
 11
-880.1022406301269
 21
-474.3807964376023
 31
0.0
  0
LINE
  5
E4
330
1F
100
AcDbEntity
  8
0-0
  6
Continuous
 62
    92
370
    13
100
AcDbLine
 10
-880.1022406301269
 20
-474.3807964376023
 30
0.0
 11
-880.1022406301269
 21
640.6189360180892
 31
0.0
  0
LINE
  5
E5
330
1F
100
AcDbEntity
  8
0-0
  6
Continuous
 62
     7
370
     9
100
AcDbLine
 10
-688.1022406301275
 20
-1347.380796437602
 30
0.0
 11
-688.1022406301275
 21
835.6192035623974
 31
0.0
  0
LINE
  5
E6
330
1F
100
AcDbEntity
  8
0-0
  6
Continuous
 62
     7
370
     9
100
AcDbLine
 10
-85.10224063012686
 20
-1347.380796437602
 30
0.0
 11
-85.10224063012686
 21
835.6192035623974
 31
0.0
  0
LINE
  5
E7
330
1F
100
AcDbEntity
  8
0-0
  6
Continuous
 62
     7
370
     9
100
AcDbLine
 10
-673.1022406301275
 20
-474.3807964376023
 30
0.0
 11
-688.1022406301275
 21
-489.3807964376023
 31
0.0
  0
LINE
  5
E8
330
1F
100
AcDbEntity
  8
0-0
  6
Continuous
 62
     7
370
     9
100
AcDbLine
 10
-688.1022406301275
 20
-564.3807964376024
 30
0.0
 11
-673.1022406301275
 21
-579.3807964376024
 31
0.0
  0
LINE
  5
E9
330
1F
100
AcDbEntity
  8
0-0
  6
Continuous
 62
     7
370
     9
100
AcDbLine
 10
-100.1022406301269
 20
-474.3807964376023
 30
0.0
 11
-85.10224063012686
 21
-489.3807964376023
 31
0.0
  0
LINE
  5
EA
330
1F
100
AcDbEntity
  8
0-0
  6
Continuous
 62
     7
370
     9
100
AcDbLine
 10
-85.10224063012686
 20
-564.3807964376024
 30
0.0
 11
-100.1022406301269
 21
-579.3807964376024
 31
0.0
  0
LINE
  5
EB
330
1F
100
AcDbEntity
  8
0-0
  6
Continuous
 62
     7
370
     9
100
AcDbLine
 10
-688.1022406301275
 20
-489.3807964376023
 30
0.0
 11
-85.10224063012686
 21
-489.3807964376023
 31
0.0
  0
LINE
  5
EC
330
1F
100
AcDbEntity
  8
0-0
  6
Continuous
 62
     7
370
     9
100
AcDbLine
 10
-688.1022406301275
 20
-564.3807964376024
 30
0.0
 11
-85.10224063012686
 21
-564.3807964376024
 31
0.0
  0
LINE
  5
ED
330
1F
100
AcDbEntity
  8
0-0
  6
Continuous
 62
     7
370
     9
100
AcDbLine
 10
-643.1022406301275
 20
-1167.380796437602
 30
0.0
 11
-643.1022406301275
 21
-609.3807964376024
 31
0.0
  0
LINE
  5
EE
330
1F
100
AcDbEntity
  8
0-0
  6
Continuous
 62
     7
370
     9
100
AcDbLine
 10
-658.1022406301275
 20
-594.3807964376024
 30
0.0
 11
-643.1022406301275
 21
-609.3807964376024
 31
0.0
  0
LINE
  5
EF
330
1F
100
AcDbEntity
  8
0-0
  6
Continuous
 62
     7
370
     9
100
AcDbLine
 10
-115.1022406301269
 20
-594.3807964376024
 30
0.0
 11
-130.1022406301269
 21
-609.3807964376024
 31
0.0
  0
LINE
  5
F0
330
1F
100
AcDbEntity
  8
0-0
  6
Continuous
 62
     7
370
     9
100
AcDbLine
 10
-643.1022406301275
 20
-609.3807964376024
 30
0.0
 11
-130.1022406301269
 21
-609.3807964376024
 31
0.0
  0
LINE
  5
F1
330
1F
100
AcDbEntity
  8
0-0
  6
Continuous
 62
     7
370
     9
100
AcDbLine
 10
-130.1022406301269
 20
-1167.380796437602
 30
0.0
 11
-130.1022406301269
 21
-609.3807964376024
 31
0.0
  0
LINE
  5
F2
330
1F
100
AcDbEntity
  8
0-0
  6
Continuous
 62
     7
370
     9
100
AcDbLine
 10
-673.1022406301292
 20
640.6189360180892
 30
0.0
 11
-688.1026365390733
 21
655.6193319270302
 31
0.0
  0
LINE
  5
F3
330
1F
100
AcDbEntity
  8
0-0
  6
Continuous
 62
     7
370
     9
100
AcDbLine
 10
-100.1022406301269
 20
640.6189360180892
 30
0.0
 11
-85.10224063012686
 21
655.6189360180892
 31
0.0
  0
ARC
  5
F4
330
1F
100
AcDbEntity
  8
0-0
  6
Continuous
 62
     7
370
     9
100
AcDbCircle
 10
-624.0895780587152
 20
790.6189360180892
 30
0.0
 40
135.0
100
AcDbArc
 50
270.0
 51
298.3577011236671
  0
ARC
  5
F5
330
1F
100
AcDbEntity
  8
0-0
  6
Continuous
 62
     7
370
     9
100
AcDbCircle
 10
-149.1149032015392
 20
790.6189360180892
 30
0.0
 40
135.0
100
AcDbArc
 50
241.6422988763328
 51
270.0
  0
ARC
  5
F6
330
1F
100
AcDbEntity
  8
0-0
  6
Continuous
 62
     7
370
     9
100
AcDbCircle
 10
-386.6022406301272
 20
350.6192035623977
 30
0.0
 40
365.0
100
AcDbArc
 50
61.64229887633292
 51
118.3577011236671
  0
LINE
  5
F7
330
1F
100
AcDbEntity
  8
0-0
  6
Continuous
 62
     7
370
     9
100
AcDbLine
 10
-688.1022901180967
 20
655.6189855060531
 30
0.0
 11
-624.0895780587152
 21
655.6189855060531
 31
0.0
  0
LINE
  5
F8
330
1F
100
AcDbEntity
  8
0-0
  6
Continuous
 62
     7
370
     9
100
AcDbLine
 10
-85.10219114216113
 20
655.6189855060531
 30
0.0
 11
-149.1149032015392
 21
655.6189855060531
 31
0.0
  0
LINE
  5
F9
330
1F
100
AcDbEntity
  8
0-0
  6
Continuous
 62
    92
370
    13
100
AcDbLine
 10
-673.1022406301275
 20
-579.3807964376024
 30
0.0
 11
-100.1022406301269
 21
-579.3807964376024
 31
0.0
  0
LINE
  5
FA
330
1F
100
AcDbEntity
  8
0-0
  6
Continuous
 62
    92
370
    13
100
AcDbLine
 10
-673.1022406301275
 20
-1197.380796437602
 30
0.0
 11
-673.1022406301275
 21
-579.3807964376024
 31
0.0
  0
LINE
  5
FB
330
1F
100
AcDbEntity
  8
0-0
  6
Continuous
 62
    92
370
    13
100
AcDbLine
 10
-100.1022406301269
 20
-1197.380796437602
 30
0.0
 11
-100.1022406301269
 21
-579.3807964376024
 31
0.0
  0
LINE
  5
FC
330
1F
100
AcDbEntity
  8
0-0
  6
Continuous
 62
    92
370
    13
100
AcDbLine
 10
-100.1022406301269
 20
640.6189360180892
 30
0.0
 11
-149.1149032015392
 21
640.6189360180892
 31
0.0
  0
ARC
  5
FD
330
1F
100
AcDbEntity
  8
0-0
  6
Continuous
 62
    92
370
    13
100
AcDbCircle
 10
-149.1149032015392
 20
790.6189360180892
 30
0.0
 40
150.0
100
AcDbArc
 50
241.6422988763328
 51
270.0
  0
ARC
  5
FE
330
1F
100
AcDbEntity
  8
0-0
  6
Continuous
 62
    92
370
    13
100
AcDbCircle
 10
-386.6022406301272
 20
350.6192035623977
 30
0.0
 40
350.0
100
AcDbArc
 50
61.64229887633292
 51
118.3577011236671
  0
ARC
  5
FF
330
1F
100
AcDbEntity
  8
0-0
  6
Continuous
 62
    92
370
    13
100
AcDbCircle
 10
-624.0895780587152
 20
790.6189360180892
 30
0.0
 40
150.0
100
AcDbArc
 50
270.0
 51
298.3577011236671
  0
LINE
  5
100
330
1F
100
AcDbEntity
  8
0-0
  6
Continuous
 62
    92
370
    13
100
AcDbLine
 10
-673.1022406301292
 20
640.6189360180892
 30
0.0
 11
-624.0895780587152
 21
640.6189360180892
 31
0.0
  0
LINE
  5
101
330
1F
100
AcDbEntity
  8
0-0
  6
Continuous
 62
    92
370
    13
100
AcDbLine
 10
-673.1022406301275
 20
-474.3807964376023
 30
0.0
 11
-673.1022406301275
 21
640.6189360180892
 31
0.0
  0
LINE
  5
102
330
1F
100
AcDbEntity
  8
0-0
  6
Continuous
 62
    92
370
    13
100
AcDbLine
 10
-673.1022406301275
 20
-474.3807964376023
 30
0.0
 11
-100.1022406301269
 21
-474.3807964376023
 31
0.0
  0
LINE
  5
103
330
1F
100
AcDbEntity
  8
0-0
  6
Continuous
 62
    92
370
    13
100
AcDbLine
 10
-100.1022406301269
 20
-474.3807964376023
 30
0.0
 11
-100.1022406301269
 21
640.6189360180892
 31
0.0
  0
LINE
  5
104
330
1F
100
AcDbEntity
  8
0-0
  6
Continuous
 62
     7
370
     9
100
AcDbLine
 10
121.8977593698725
 20
-1347.380796437602
 30
0.0
 11
121.8977593698725
 21
835.6192035623974
 31
0.0
  0
LINE
  5
105
330
1F
100
AcDbEntity
  8
0-0
  6
Continuous
 62
     7
370
     9
100
AcDbLine
 10
724.8977593698731
 20
-1347.380796437602
 30
0.0
 11
724.8977593698731
 21
835.6192035623974
 31
0.0
  0
LINE
  5
106
330
1F
100
AcDbEntity
  8
0-0
  6
Continuous
 62
     7
370
     9
100
AcDbLine
 10
136.8977593698725
 20
-474.3807964376023
 30
0.0
 11
121.8977593698725
 21
-489.3807964376023
 31
0.0
  0
LINE
  5
107
330
1F
100
AcDbEntity
  8
0-0
  6
Continuous
 62
     7
370
     9
100
AcDbLine
 10
121.8977593698725
 20
-564.3807964376024
 30
0.0
 11
136.8977593698725
 21
-579.3807964376024
 31
0.0
  0
LINE
  5
108
330
1F
100
AcDbEntity
  8
0-0
  6
Continuous
 62
     7
370
     9
100
AcDbLine
 10
709.8977593698731
 20
-474.3807964376023
 30
0.0
 11
724.8977593698731
 21
-489.3807964376023
 31
0.0
  0
LINE
  5
109
330
1F
100
AcDbEntity
  8
0-0
  6
Continuous
 62
     7
370
     9
100
AcDbLine
 10
724.8977593698731
 20
-564.3807964376024
 30
0.0
 11
709.8977593698731
 21
-579.3807964376024
 31
0.0
  0
LINE
  5
10A
330
1F
100
AcDbEntity
  8
0-0
  6
Continuous
 62
     7
370
     9
100
AcDbLine
 10
121.8977593698725
 20
-489.3807964376023
 30
0.0
 11
724.8977593698731
 21
-489.3807964376023
 31
0.0
  0
LINE
  5
10B
330
1F
100
AcDbEntity
  8
0-0
  6
Continuous
 62
     7
370
     9
100
AcDbLine
 10
121.8977593698725
 20
-564.3807964376024
 30
0.0
 11
724.8977593698731
 21
-564.3807964376024
 31
0.0
  0
LINE
  5
10C
330
1F
100
AcDbEntity
  8
0-0
  6
Continuous
 62
     7
370
     9
100
AcDbLine
 10
166.8977593698725
 20
-1167.380796437602
 30
0.0
 11
166.8977593698725
 21
-609.3807964376024
 31
0.0
  0
LINE
  5
10D
330
1F
100
AcDbEntity
  8
0-0
  6
Continuous
 62
     7
370
     9
100
AcDbLine
 10
151.8977593698725
 20
-594.3807964376024
 30
0.0
 11
166.8977593698725
 21
-609.3807964376024
 31
0.0
  0
LINE
  5
10E
330
1F
100
AcDbEntity
  8
0-0
  6
Continuous
 62
     7
370
     9
100
AcDbLine
 10
694.8977593698731
 20
-594.3807964376024
 30
0.0
 11
679.8977593698731
 21
-609.3807964376024
 31
0.0
  0
LINE
  5
10F
330
1F
100
AcDbEntity
  8
0-0
  6
Continuous
 62
     7
370
     9
100
AcDbLine
 10
166.8977593698725
 20
-609.3807964376024
 30
0.0
 11
679.8977593698731
 21
-609.3807964376024
 31
0.0
  0
LINE
  5
110
330
1F
100
AcDbEntity
  8
0-0
  6
Continuous
 62
     7
370
     9
100
AcDbLine
 10
679.8977593698731
 20
-1167.380796437602
 30
0.0
 11
679.8977593698731
 21
-609.3807964376024
 31
0.0
  0
LINE
  5
111
330
1F
100
AcDbEntity
  8
0-0
  6
Continuous
 62
     7
370
     9
100
AcDbLine
 10
136.8977593698708
 20
640.6189360180892
 30
0.0
 11
121.8973634609267
 21
655.6193319270302
 31
0.0
  0
LINE
  5
112
330
1F
100
AcDbEntity
  8
0-0
  6
Continuous
 62
     7
370
     9
100
AcDbLine
 10
709.8977593698731
 20
640.6189360180892
 30
0.0
 11
724.8977593698731
 21
655.6189360180892
 31
0.0
  0
ARC
  5
113
330
1F
100
AcDbEntity
  8
0-0
  6
Continuous
 62
     7
370
     9
100
AcDbCircle
 10
185.9104219412848
 20
790.6189360180892
 30
0.0
 40
135.0
100
AcDbArc
 50
270.0
 51
298.3577011236671
  0
ARC
  5
114
330
1F
100
AcDbEntity
  8
0-0
  6
Continuous
 62
     7
370
     9
100
AcDbCircle
 10
660.8850967984608
 20
790.6189360180892
 30
0.0
 40
135.0
100
AcDbArc
 50
241.6422988763328
 51
270.0
  0
ARC
  5
115
330
1F
100
AcDbEntity
  8
0-0
  6
Continuous
 62
     7
370
     9
100
AcDbCircle
 10
423.3977593698728
 20
350.6192035623977
 30
0.0
 40
365.0
100
AcDbArc
 50
61.64229887633292
 51
118.3577011236671
  0
LINE
  5
116
330
1F
100
AcDbEntity
  8
0-0
  6
Continuous
 62
     7
370
     9
100
AcDbLine
 10
121.8977098819033
 20
655.6189855060531
 30
0.0
 11
185.9104219412848
 21
655.6189855060531
 31
0.0
  0
LINE
  5
117
330
1F
100
AcDbEntity
  8
0-0
  6
Continuous
 62
     7
370
     9
100
AcDbLine
 10
724.8978088578389
 20
655.6189855060531
 30
0.0
 11
660.8850967984608
 21
655.6189855060531
 31
0.0
  0
LINE
  5
118
330
1F
100
AcDbEntity
  8
0-0
  6
Continuous
 62
    92
370
    13
100
AcDbLine
 10
136.8977593698725
 20
-579.3807964376024
 30
0.0
 11
709.8977593698731
 21
-579.3807964376024
 31
0.0
  0
LINE
  5
119
330
1F
100
AcDbEntity
  8
0-0
  6
Continuous
 62
    92
370
    13
100
AcDbLine
 10
136.8977593698725
 20
-1197.380796437602
 30
0.0
 11
136.8977593698725
 21
-579.3807964376024
 31
0.0
  0
LINE
  5
11A
330
1F
100
AcDbEntity
  8
0-0
  6
Continuous
 62
    92
370
    13
100
AcDbLine
 10
709.8977593698731
 20
-1197.380796437602
 30
0.0
 11
709.8977593698731
 21
-579.3807964376024
 31
0.0
  0
LINE
  5
11B
330
1F
100
AcDbEntity
  8
0-0
  6
Continuous
 62
    92
370
    13
100
AcDbLine
 10
709.8977593698731
 20
640.6189360180892
 30
0.0
 11
660.8850967984608
 21
640.6189360180892
 31
0.0
  0
ARC
  5
11C
330
1F
100
AcDbEntity
  8
0-0
  6
Continuous
 62
    92
370
    13
100
AcDbCircle
 10
660.8850967984608
 20
790.6189360180892
 30
0.0
 40
150.0
100
AcDbArc
 50
241.6422988763328
 51
270.0
  0
ARC
  5
11D
330
1F
100
AcDbEntity
  8
0-0
  6
Continuous
 62
    92
370
    13
100
AcDbCircle
 10
423.3977593698728
 20
350.6192035623977
 30
0.0
 40
350.0
100
AcDbArc
 50
61.64229887633292
 51
118.3577011236671
  0
ARC
  5
11E
330
1F
100
AcDbEntity
  8
0-0
  6
Continuous
 62
    92
370
    13
100
AcDbCircle
 10
185.9104219412848
 20
790.6189360180892
 30
0.0
 40
150.0
100
AcDbArc
 50
270.0
 51
298.3577011236671
  0
LINE
  5
11F
330
1F
100
AcDbEntity
  8
0-0
  6
Continuous
 62
    92
370
    13
100
AcDbLine
 10
136.8977593698708
 20
640.6189360180892
 30
0.0
 11
185.9104219412848
 21
640.6189360180892
 31
0.0
  0
LINE
  5
120
330
1F
100
AcDbEntity
  8
0-0
  6
Continuous
 62
    92
370
    13
100
AcDbLine
 10
136.8977593698725
 20
-474.3807964376023
 30
0.0
 11
136.8977593698725
 21
640.6189360180892
 31
0.0
  0
LINE
  5
121
330
1F
100
AcDbEntity
  8
0-0
  6
Continuous
 62
    92
370
    13
100
AcDbLine
 10
136.8977593698725
 20
-474.3807964376023
 30
0.0
 11
709.8977593698731
 21
-474.3807964376023
 31
0.0
  0
LINE
  5
122
330
1F
100
AcDbEntity
  8
0-0
  6
Continuous
 62
    92
370
    13
100
AcDbLine
 10
709.8977593698731
 20
-474.3807964376023
 30
0.0
 11
709.8977593698731
 21
640.6189360180892
 31
0.0
  0
LINE
  5
123
330
1F
100
AcDbEntity
  8
0-0
  6
Continuous
 62
     7
370
     9
100
AcDbLine
 10
901.8977593698725
 20
-1347.380796437602
 30
0.0
 11
901.8977593698725
 21
835.6192035623974
 31
0.0
  0
LINE
  5
124
330
1F
100
AcDbEntity
  8
0-0
  6
Continuous
 62
     7
370
     9
100
AcDbLine
 10
1504.897759369873
 20
-1347.380796437602
 30
0.0
 11
1504.897759369873
 21
835.6192035623974
 31
0.0
  0
LINE
  5
125
330
1F
100
AcDbEntity
  8
0-0
  6
Continuous
 62
     7
370
     9
100
AcDbLine
 10
916.8977593698725
 20
-474.3807964376023
 30
0.0
 11
901.8977593698725
 21
-489.3807964376023
 31
0.0
  0
LINE
  5
126
330
1F
100
AcDbEntity
  8
0-0
  6
Continuous
 62
     7
370
     9
100
AcDbLine
 10
901.8977593698725
 20
-564.3807964376024
 30
0.0
 11
916.8977593698725
 21
-579.3807964376024
 31
0.0
  0
LINE
  5
127
330
1F
100
AcDbEntity
  8
0-0
  6
Continuous
 62
     7
370
     9
100
AcDbLine
 10
1489.897759369873
 20
-474.3807964376023
 30
0.0
 11
1504.897759369873
 21
-489.3807964376023
 31
0.0
  0
LINE
  5
128
330
1F
100
AcDbEntity
  8
0-0
  6
Continuous
 62
     7
370
     9
100
AcDbLine
 10
1504.897759369873
 20
-564.3807964376024
 30
0.0
 11
1489.897759369873
 21
-579.3807964376024
 31
0.0
  0
LINE
  5
129
330
1F
100
AcDbEntity
  8
0-0
  6
Continuous
 62
     7
370
     9
100
AcDbLine
 10
901.8977593698725
 20
-489.3807964376023
 30
0.0
 11
1504.897759369873
 21
-489.3807964376023
 31
0.0
  0
LINE
  5
12A
330
1F
100
AcDbEntity
  8
0-0
  6
Continuous
 62
     7
370
     9
100
AcDbLine
 10
901.8977593698725
 20
-564.3807964376024
 30
0.0
 11
1504.897759369873
 21
-564.3807964376024
 31
0.0
  0
LINE
  5
12B
330
1F
100
AcDbEntity
  8
0-0
  6
Continuous
 62
     7
370
     9
100
AcDbLine
 10
946.8977593698725
 20
-1167.380796437602
 30
0.0
 11
946.8977593698725
 21
-609.3807964376024
 31
0.0
  0
LINE
  5
12C
330
1F
100
AcDbEntity
  8
0-0
  6
Continuous
 62
     7
370
     9
100
AcDbLine
 10
931.8977593698725
 20
-594.3807964376024
 30
0.0
 11
946.8977593698725
 21
-609.3807964376024
 31
0.0
  0
LINE
  5
12D
330
1F
100
AcDbEntity
  8
0-0
  6
Continuous
 62
     7
370
     9
100
AcDbLine
 10
1474.897759369873
 20
-594.3807964376024
 30
0.0
 11
1459.897759369873
 21
-609.3807964376024
 31
0.0
  0
LINE
  5
12E
330
1F
100
AcDbEntity
  8
0-0
  6
Continuous
 62
     7
370
     9
100
AcDbLine
 10
946.8977593698725
 20
-609.3807964376024
 30
0.0
 11
1459.897759369873
 21
-609.3807964376024
 31
0.0
  0
LINE
  5
12F
330
1F
100
AcDbEntity
  8
0-0
  6
Continuous
 62
     7
370
     9
100
AcDbLine
 10
1459.897759369873
 20
-1167.380796437602
 30
0.0
 11
1459.897759369873
 21
-609.3807964376024
 31
0.0
  0
LINE
  5
130
330
1F
100
AcDbEntity
  8
0-0
  6
Continuous
 62
     7
370
     9
100
AcDbLine
 10
916.8977593698708
 20
640.6189360180892
 30
0.0
 11
901.8973634609267
 21
655.6193319270302
 31
0.0
  0
LINE
  5
131
330
1F
100
AcDbEntity
  8
0-0
  6
Continuous
 62
     7
370
     9
100
AcDbLine
 10
1489.897759369873
 20
640.6189360180892
 30
0.0
 11
1504.897759369873
 21
655.6189360180892
 31
0.0
  0
ARC
  5
132
330
1F
100
AcDbEntity
  8
0-0
  6
Continuous
 62
     7
370
     9
100
AcDbCircle
 10
965.9104219412848
 20
790.6189360180892
 30
0.0
 40
135.0
100
AcDbArc
 50
270.0
 51
298.3577011236671
  0
ARC
  5
133
330
1F
100
AcDbEntity
  8
0-0
  6
Continuous
 62
     7
370
     9
100
AcDbCircle
 10
1440.885096798461
 20
790.6189360180892
 30
0.0
 40
135.0
100
AcDbArc
 50
241.6422988763328
 51
270.0
  0
ARC
  5
134
330
1F
100
AcDbEntity
  8
0-0
  6
Continuous
 62
     7
370
     9
100
AcDbCircle
 10
1203.397759369873
 20
350.6192035623977
 30
0.0
 40
365.0
100
AcDbArc
 50
61.64229887633292
 51
118.3577011236671
  0
LINE
  5
135
330
1F
100
AcDbEntity
  8
0-0
  6
Continuous
 62
     7
370
     9
100
AcDbLine
 10
901.8977098819033
 20
655.6189855060531
 30
0.0
 11
965.9104219412848
 21
655.6189855060531
 31
0.0
  0
LINE
  5
136
330
1F
100
AcDbEntity
  8
0-0
  6
Continuous
 62
     7
370
     9
100
AcDbLine
 10
1504.897808857839
 20
655.6189855060531
 30
0.0
 11
1440.885096798461
 21
655.6189855060531
 31
0.0
  0
LINE
  5
137
330
1F
100
AcDbEntity
  8
0-0
  6
Continuous
 62
    92
370
    13
100
AcDbLine
 10
916.8977593698725
 20
-579.3807964376024
 30
0.0
 11
1489.897759369873
 21
-579.3807964376024
 31
0.0
  0
LINE
  5
138
330
1F
100
AcDbEntity
  8
0-0
  6
Continuous
 62
    92
370
    13
100
AcDbLine
 10
916.8977593698725
 20
-1197.380796437602
 30
0.0
 11
916.8977593698725
 21
-579.3807964376024
 31
0.0
  0
LINE
  5
139
330
1F
100
AcDbEntity
  8
0-0
  6
Continuous
 62
    92
370
    13
100
AcDbLine
 10
1489.897759369873
 20
-1197.380796437602
 30
0.0
 11
1489.897759369873
 21
-579.3807964376024
 31
0.0
  0
LINE
  5
13A
330
1F
100
AcDbEntity
  8
0-0
  6
Continuous
 62
    92
370
    13
100
AcDbLine
 10
1489.897759369873
 20
640.6189360180892
 30
0.0
 11
1440.885096798461
 21
640.6189360180892
 31
0.0
  0
ARC
  5
13B
330
1F
100
AcDbEntity
  8
0-0
  6
Continuous
 62
    92
370
    13
100
AcDbCircle
 10
1440.885096798461
 20
790.6189360180892
 30
0.0
 40
150.0
100
AcDbArc
 50
241.6422988763328
 51
270.0
  0
ARC
  5
13C
330
1F
100
AcDbEntity
  8
0-0
  6
Continuous
 62
    92
370
    13
100
AcDbCircle
 10
1203.397759369873
 20
350.6192035623977
 30
0.0
 40
350.0
100
AcDbArc
 50
61.64229887633292
 51
118.3577011236671
  0
ARC
  5
13D
330
1F
100
AcDbEntity
  8
0-0
  6
Continuous
 62
    92
370
    13
100
AcDbCircle
 10
965.9104219412848
 20
790.6189360180892
 30
0.0
 40
150.0
100
AcDbArc
 50
270.0
 51
298.3577011236671
  0
LINE
  5
13E
330
1F
100
AcDbEntity
  8
0-0
  6
Continuous
 62
    92
370
    13
100
AcDbLine
 10
916.8977593698708
 20
640.6189360180892
 30
0.0
 11
965.9104219412848
 21
640.6189360180892
 31
0.0
  0
LINE
  5
13F
330
1F
100
AcDbEntity
  8
0-0
  6
Continuous
 62
    92
370
    13
100
AcDbLine
 10
916.8977593698725
 20
-474.3807964376023
 30
0.0
 11
916.8977593698725
 21
640.6189360180892
 31
0.0
  0
LINE
  5
140
330
1F
100
AcDbEntity
  8
0-0
  6
Continuous
 62
    92
370
    13
100
AcDbLine
 10
916.8977593698725
 20
-474.3807964376023
 30
0.0
 11
1489.897759369873
 21
-474.3807964376023
 31
0.0
  0
LINE
  5
141
330
1F
100
AcDbEntity
  8
0-0
  6
Continuous
 62
    92
370
    13
100
AcDbLine
 10
1489.897759369873
 20
-474.3807964376023
 30
0.0
 11
1489.897759369873
 21
640.6189360180892
 31
0.0
  0
LINE
  5
142
330
1F
100
AcDbEntity
  8
0-0
  6
JWW_DASHED1
 62
   120
370
     5
100
AcDbLine
 10
-1453.102240630128
 20
-473.3809447515459
 30
0.0
 11
-880.1022406301269
 21
-473.3809447515459
 31
0.0
  0
LINE
  5
143
330
1F
100
AcDbEntity
  8
0-0
  6
JWW_DASHED1
 62
   120
370
     5
100
AcDbLine
 10
-1453.102240630128
 20
-460.3809447504463
 30
0.0
 11
-880.1022406301269
 21
-460.3809447504463
 31
0.0
  0
LINE
  5
144
330
1F
100
AcDbEntity
  8
0-0
  6
JWW_DASHED1
 62
   120
370
     5
100
AcDbLine
 10
-1453.102240630128
 20
-459.3809447505461
 30
0.0
 11
-880.1022406301269
 21
-459.3809447505461
 31
0.0
  0
LINE
  5
145
330
1F
100
AcDbEntity
  8
0-0
  6
JWW_DASHED1
 62
   120
370
     5
100
AcDbLine
 10
-1453.102240630128
 20
-446.3809447494465
 30
0.0
 11
-880.1022406301269
 21
-446.3809447494465
 31
0.0
  0
LINE
  5
146
330
1F
100
AcDbEntity
  8
0-0
  6
JWW_DASHED1
 62
   120
370
     5
100
AcDbLine
 10
-1453.102240630128
 20
-445.3809447495463
 30
0.0
 11
-880.1022406301269
 21
-445.3809447495463
 31
0.0
  0
LINE
  5
147
330
1F
100
AcDbEntity
  8
0-0
  6
JWW_DASHED1
 62
   120
370
     5
100
AcDbLine
 10
-1453.102240630128
 20
-432.3809447484467
 30
0.0
 11
-880.1022406301269
 21
-432.3809447484467
 31
0.0
  0
LINE
  5
148
330
1F
100
AcDbEntity
  8
0-0
  6
JWW_DASHED1
 62
   120
370
     5
100
AcDbLine
 10
-1453.102240630128
 20
-431.3809447485465
 30
0.0
 11
-880.1022406301269
 21
-431.3809447485465
 31
0.0
  0
LINE
  5
149
330
1F
100
AcDbEntity
  8
0-0
  6
JWW_DASHED1
 62
   120
370
     5
100
AcDbLine
 10
-1453.102240630128
 20
-418.380944747447
 30
0.0
 11
-880.1022406301269
 21
-418.380944747447
 31
0.0
  0
LINE
  5
14A
330
1F
100
AcDbEntity
  8
0-0
  6
JWW_DASHED1
 62
   120
370
     5
100
AcDbLine
 10
-1453.102240630128
 20
-417.3809447475468
 30
0.0
 11
-880.1022406301269
 21
-417.3809447475468
 31
0.0
  0
LINE
  5
14B
330
1F
100
AcDbEntity
  8
0-0
  6
JWW_DASHED1
 62
   120
370
     5
100
AcDbLine
 10
-1453.102240630128
 20
-404.3809447464471
 30
0.0
 11
-880.1022406301269
 21
-404.3809447464471
 31
0.0
  0
LINE
  5
14C
330
1F
100
AcDbEntity
  8
0-0
  6
JWW_DASHED1
 62
   120
370
     5
100
AcDbLine
 10
-1453.102240630128
 20
-403.380944746547
 30
0.0
 11
-880.1022406301269
 21
-403.380944746547
 31
0.0
  0
LINE
  5
14D
330
1F
100
AcDbEntity
  8
0-0
  6
JWW_DASHED1
 62
   120
370
     5
100
AcDbLine
 10
-1453.102240630128
 20
-390.3809447454473
 30
0.0
 11
-880.1022406301269
 21
-390.3809447454473
 31
0.0
  0
LINE
  5
14E
330
1F
100
AcDbEntity
  8
0-0
  6
JWW_DASHED1
 62
   120
370
     5
100
AcDbLine
 10
-1453.102240630128
 20
-389.3809447455471
 30
0.0
 11
-880.1022406301269
 21
-389.3809447455471
 31
0.0
  0
LINE
  5
14F
330
1F
100
AcDbEntity
  8
0-0
  6
JWW_DASHED1
 62
   120
370
     5
100
AcDbLine
 10
-1453.102240630128
 20
-376.3809447444476
 30
0.0
 11
-880.1022406301269
 21
-376.3809447444476
 31
0.0
  0
LINE
  5
150
330
1F
100
AcDbEntity
  8
0-0
  6
JWW_DASHED1
 62
   120
370
     5
100
AcDbLine
 10
-1453.102240630128
 20
-375.3809447445474
 30
0.0
 11
-880.1022406301269
 21
-375.3809447445474
 31
0.0
  0
LINE
  5
151
330
1F
100
AcDbEntity
  8
0-0
  6
JWW_DASHED1
 62
   120
370
     5
100
AcDbLine
 10
-1453.102240630128
 20
-362.3809447434478
 30
0.0
 11
-880.1022406301269
 21
-362.3809447434478
 31
0.0
  0
LINE
  5
152
330
1F
100
AcDbEntity
  8
0-0
  6
JWW_DASHED1
 62
   120
370
     5
100
AcDbLine
 10
-1453.102240630128
 20
-361.3809447435476
 30
0.0
 11
-880.1022406301269
 21
-361.3809447435476
 31
0.0
  0
LINE
  5
153
330
1F
100
AcDbEntity
  8
0-0
  6
JWW_DASHED1
 62
   120
370
     5
100
AcDbLine
 10
-1453.102240630128
 20
-348.380944742448
 30
0.0
 11
-880.1022406301269
 21
-348.380944742448
 31
0.0
  0
LINE
  5
154
330
1F
100
AcDbEntity
  8
0-0
  6
JWW_DASHED1
 62
   120
370
     5
100
AcDbLine
 10
-1453.102240630128
 20
-347.3809447425478
 30
0.0
 11
-880.1022406301269
 21
-347.3809447425478
 31
0.0
  0
LINE
  5
155
330
1F
100
AcDbEntity
  8
0-0
  6
JWW_DASHED1
 62
   120
370
     5
100
AcDbLine
 10
-1453.102240630128
 20
-334.3809447414482
 30
0.0
 11
-880.1022406301269
 21
-334.3809447414482
 31
0.0
  0
LINE
  5
156
330
1F
100
AcDbEntity
  8
0-0
  6
JWW_DASHED1
 62
   120
370
     5
100
AcDbLine
 10
-1453.102240630128
 20
-333.380944741548
 30
0.0
 11
-880.1022406301269
 21
-333.380944741548
 31
0.0
  0
LINE
  5
157
330
1F
100
AcDbEntity
  8
0-0
  6
JWW_DASHED1
 62
   120
370
     5
100
AcDbLine
 10
-1453.102240630128
 20
-320.3809447404484
 30
0.0
 11
-880.1022406301269
 21
-320.3809447404484
 31
0.0
  0
LINE
  5
158
330
1F
100
AcDbEntity
  8
0-0
  6
JWW_DASHED1
 62
   120
370
     5
100
AcDbLine
 10
-1453.102240630128
 20
-319.3809447405482
 30
0.0
 11
-880.1022406301269
 21
-319.3809447405482
 31
0.0
  0
LINE
  5
159
330
1F
100
AcDbEntity
  8
0-0
  6
JWW_DASHED1
 62
   120
370
     5
100
AcDbLine
 10
-1453.102240630128
 20
-306.3809447394486
 30
0.0
 11
-880.1022406301269
 21
-306.3809447394486
 31
0.0
  0
LINE
  5
15A
330
1F
100
AcDbEntity
  8
0-0
  6
JWW_DASHED1
 62
   120
370
     5
100
AcDbLine
 10
-1453.102240630128
 20
-305.3809447395485
 30
0.0
 11
-880.1022406301269
 21
-305.3809447395485
 31
0.0
  0
LINE
  5
15B
330
1F
100
AcDbEntity
  8
0-0
  6
JWW_DASHED1
 62
   120
370
     5
100
AcDbLine
 10
-1453.102240630128
 20
-292.3809447384488
 30
0.0
 11
-880.1022406301269
 21
-292.3809447384488
 31
0.0
  0
LINE
  5
15C
330
1F
100
AcDbEntity
  8
0-0
  6
JWW_DASHED1
 62
   120
370
     5
100
AcDbLine
 10
-1453.102240630128
 20
-291.3809447385486
 30
0.0
 11
-880.1022406301269
 21
-291.3809447385486
 31
0.0
  0
LINE
  5
15D
330
1F
100
AcDbEntity
  8
0-0
  6
JWW_DASHED1
 62
   120
370
     5
100
AcDbLine
 10
-1453.102240630128
 20
-278.380944737449
 30
0.0
 11
-880.1022406301269
 21
-278.380944737449
 31
0.0
  0
LINE
  5
15E
330
1F
100
AcDbEntity
  8
0-0
  6
JWW_DASHED1
 62
   120
370
     5
100
AcDbLine
 10
-1453.102240630128
 20
-277.3809447375488
 30
0.0
 11
-880.1022406301269
 21
-277.3809447375488
 31
0.0
  0
LINE
  5
15F
330
1F
100
AcDbEntity
  8
0-0
  6
JWW_DASHED1
 62
   120
370
     5
100
AcDbLine
 10
-1453.102240630128
 20
-264.3809447364492
 30
0.0
 11
-880.1022406301269
 21
-264.3809447364492
 31
0.0
  0
LINE
  5
160
330
1F
100
AcDbEntity
  8
0-0
  6
JWW_DASHED1
 62
   120
370
     5
100
AcDbLine
 10
-1453.102240630128
 20
-263.3809447365491
 30
0.0
 11
-880.1022406301269
 21
-263.3809447365491
 31
0.0
  0
LINE
  5
161
330
1F
100
AcDbEntity
  8
0-0
  6
JWW_DASHED1
 62
   120
370
     5
100
AcDbLine
 10
-1453.102240630128
 20
-250.3809447354494
 30
0.0
 11
-880.1022406301269
 21
-250.3809447354494
 31
0.0
  0
LINE
  5
162
330
1F
100
AcDbEntity
  8
0-0
  6
JWW_DASHED1
 62
   120
370
     5
100
AcDbLine
 10
-1453.102240630128
 20
-249.3809447355493
 30
0.0
 11
-880.1022406301269
 21
-249.3809447355493
 31
0.0
  0
LINE
  5
163
330
1F
100
AcDbEntity
  8
0-0
  6
JWW_DASHED1
 62
   120
370
     5
100
AcDbLine
 10
-1453.102240630128
 20
-236.3809447344497
 30
0.0
 11
-880.1022406301269
 21
-236.3809447344497
 31
0.0
  0
LINE
  5
164
330
1F
100
AcDbEntity
  8
0-0
  6
JWW_DASHED1
 62
   120
370
     5
100
AcDbLine
 10
-1453.102240630128
 20
-235.3809447345495
 30
0.0
 11
-880.1022406301269
 21
-235.3809447345495
 31
0.0
  0
LINE
  5
165
330
1F
100
AcDbEntity
  8
0-0
  6
JWW_DASHED1
 62
   120
370
     5
100
AcDbLine
 10
-1453.102240630128
 20
-222.3809447334499
 30
0.0
 11
-880.1022406301269
 21
-222.3809447334499
 31
0.0
  0
LINE
  5
166
330
1F
100
AcDbEntity
  8
0-0
  6
JWW_DASHED1
 62
   120
370
     5
100
AcDbLine
 10
-1453.102240630128
 20
-221.3809447335497
 30
0.0
 11
-880.1022406301269
 21
-221.3809447335497
 31
0.0
  0
LINE
  5
167
330
1F
100
AcDbEntity
  8
0-0
  6
JWW_DASHED1
 62
   120
370
     5
100
AcDbLine
 10
-1453.102240630128
 20
-208.3809447324501
 30
0.0
 11
-880.1022406301269
 21
-208.3809447324501
 31
0.0
  0
LINE
  5
168
330
1F
100
AcDbEntity
  8
0-0
  6
JWW_DASHED1
 62
   120
370
     5
100
AcDbLine
 10
-1453.102240630128
 20
-207.3809447325499
 30
0.0
 11
-880.1022406301269
 21
-207.3809447325499
 31
0.0
  0
LINE
  5
169
330
1F
100
AcDbEntity
  8
0-0
  6
JWW_DASHED1
 62
   120
370
     5
100
AcDbLine
 10
-1453.102240630128
 20
-194.3809447314503
 30
0.0
 11
-880.1022406301269
 21
-194.3809447314503
 31
0.0
  0
LINE
  5
16A
330
1F
100
AcDbEntity
  8
0-0
  6
JWW_DASHED1
 62
   120
370
     5
100
AcDbLine
 10
-1453.102240630128
 20
-193.3809447315501
 30
0.0
 11
-880.1022406301269
 21
-193.3809447315501
 31
0.0
  0
LINE
  5
16B
330
1F
100
AcDbEntity
  8
0-0
  6
JWW_DASHED1
 62
   120
370
     5
100
AcDbLine
 10
-1453.102240630128
 20
-180.3809447304505
 30
0.0
 11
-880.1022406301269
 21
-180.3809447304505
 31
0.0
  0
LINE
  5
16C
330
1F
100
AcDbEntity
  8
0-0
  6
JWW_DASHED1
 62
   120
370
     5
100
AcDbLine
 10
-1453.102240630128
 20
-179.3809447305503
 30
0.0
 11
-880.1022406301269
 21
-179.3809447305503
 31
0.0
  0
LINE
  5
16D
330
1F
100
AcDbEntity
  8
0-0
  6
JWW_DASHED1
 62
   120
370
     5
100
AcDbLine
 10
-1453.102240630128
 20
-166.3809447294507
 30
0.0
 11
-880.1022406301269
 21
-166.3809447294507
 31
0.0
  0
LINE
  5
16E
330
1F
100
AcDbEntity
  8
0-0
  6
JWW_DASHED1
 62
   120
370
     5
100
AcDbLine
 10
-1453.102240630128
 20
-165.3809447295505
 30
0.0
 11
-880.1022406301269
 21
-165.3809447295505
 31
0.0
  0
LINE
  5
16F
330
1F
100
AcDbEntity
  8
0-0
  6
JWW_DASHED1
 62
   120
370
     5
100
AcDbLine
 10
-1453.102240630128
 20
-152.3809447284509
 30
0.0
 11
-880.1022406301269
 21
-152.3809447284509
 31
0.0
  0
LINE
  5
170
330
1F
100
AcDbEntity
  8
0-0
  6
JWW_DASHED1
 62
   120
370
     5
100
AcDbLine
 10
-1453.102240630128
 20
-151.3809447285507
 30
0.0
 11
-880.1022406301269
 21
-151.3809447285507
 31
0.0
  0
LINE
  5
171
330
1F
100
AcDbEntity
  8
0-0
  6
JWW_DASHED1
 62
   120
370
     5
100
AcDbLine
 10
-1453.102240630128
 20
-138.3809447274511
 30
0.0
 11
-880.1022406301269
 21
-138.3809447274511
 31
0.0
  0
LINE
  5
172
330
1F
100
AcDbEntity
  8
0-0
  6
JWW_DASHED1
 62
   120
370
     5
100
AcDbLine
 10
-1453.102240630128
 20
-137.3809447275509
 30
0.0
 11
-880.1022406301269
 21
-137.3809447275509
 31
0.0
  0
LINE
  5
173
330
1F
100
AcDbEntity
  8
0-0
  6
JWW_DASHED1
 62
   120
370
     5
100
AcDbLine
 10
-1453.102240630128
 20
-124.3809447264513
 30
0.0
 11
-880.1022406301269
 21
-124.3809447264513
 31
0.0
  0
LINE
  5
174
330
1F
100
AcDbEntity
  8
0-0
  6
JWW_DASHED1
 62
   120
370
     5
100
AcDbLine
 10
-1453.102240630128
 20
-123.3809447265511
 30
0.0
 11
-880.1022406301269
 21
-123.3809447265511
 31
0.0
  0
LINE
  5
175
330
1F
100
AcDbEntity
  8
0-0
  6
JWW_DASHED1
 62
   120
370
     5
100
AcDbLine
 10
-1453.102240630128
 20
-110.3809447254515
 30
0.0
 11
-880.1022406301269
 21
-110.3809447254515
 31
0.0
  0
LINE
  5
176
330
1F
100
AcDbEntity
  8
0-0
  6
JWW_DASHED1
 62
   120
370
     5
100
AcDbLine
 10
-1453.102240630128
 20
-109.3809447255514
 30
0.0
 11
-880.1022406301269
 21
-109.3809447255514
 31
0.0
  0
LINE
  5
177
330
1F
100
AcDbEntity
  8
0-0
  6
JWW_DASHED1
 62
   120
370
     5
100
AcDbLine
 10
-1453.102240630128
 20
-96.38094472445175
 30
0.0
 11
-880.1022406301269
 21
-96.38094472445175
 31
0.0
  0
LINE
  5
178
330
1F
100
AcDbEntity
  8
0-0
  6
JWW_DASHED1
 62
   120
370
     5
100
AcDbLine
 10
-1453.102240630128
 20
-95.38094472455157
 30
0.0
 11
-880.1022406301269
 21
-95.38094472455157
 31
0.0
  0
LINE
  5
179
330
1F
100
AcDbEntity
  8
0-0
  6
JWW_DASHED1
 62
   120
370
     5
100
AcDbLine
 10
-1453.102240630128
 20
-82.38094472345196
 30
0.0
 11
-880.1022406301269
 21
-82.38094472345196
 31
0.0
  0
LINE
  5
17A
330
1F
100
AcDbEntity
  8
0-0
  6
JWW_DASHED1
 62
   120
370
     5
100
AcDbLine
 10
-1453.102240630128
 20
-81.38094472355178
 30
0.0
 11
-880.1022406301269
 21
-81.38094472355178
 31
0.0
  0
LINE
  5
17B
330
1F
100
AcDbEntity
  8
0-0
  6
JWW_DASHED1
 62
   120
370
     5
100
AcDbLine
 10
-1453.102240630128
 20
-68.38094472245217
 30
0.0
 11
-880.1022406301269
 21
-68.38094472245217
 31
0.0
  0
LINE
  5
17C
330
1F
100
AcDbEntity
  8
0-0
  6
JWW_DASHED1
 62
   120
370
     5
100
AcDbLine
 10
-1453.102240630128
 20
-67.38094472255199
 30
0.0
 11
-880.1022406301269
 21
-67.38094472255199
 31
0.0
  0
LINE
  5
17D
330
1F
100
AcDbEntity
  8
0-0
  6
JWW_DASHED1
 62
   120
370
     5
100
AcDbLine
 10
-1453.102240630128
 20
-54.38094472145238
 30
0.0
 11
-880.1022406301269
 21
-54.38094472145238
 31
0.0
  0
LINE
  5
17E
330
1F
100
AcDbEntity
  8
0-0
  6
JWW_DASHED1
 62
   120
370
     5
100
AcDbLine
 10
-1453.102240630128
 20
-53.3809447215522
 30
0.0
 11
-880.1022406301269
 21
-53.3809447215522
 31
0.0
  0
LINE
  5
17F
330
1F
100
AcDbEntity
  8
0-0
  6
JWW_DASHED1
 62
   120
370
     5
100
AcDbLine
 10
-1453.102240630128
 20
-40.38094472045259
 30
0.0
 11
-880.1022406301269
 21
-40.38094472045259
 31
0.0
  0
LINE
  5
180
330
1F
100
AcDbEntity
  8
0-0
  6
JWW_DASHED1
 62
   120
370
     5
100
AcDbLine
 10
-1453.102240630128
 20
-39.38094472055241
 30
0.0
 11
-880.1022406301269
 21
-39.38094472055241
 31
0.0
  0
LINE
  5
181
330
1F
100
AcDbEntity
  8
0-0
  6
JWW_DASHED1
 62
   120
370
     5
100
AcDbLine
 10
-1453.102240630128
 20
-26.3809447194528
 30
0.0
 11
-880.1022406301269
 21
-26.3809447194528
 31
0.0
  0
LINE
  5
182
330
1F
100
AcDbEntity
  8
0-0
  6
JWW_DASHED1
 62
   120
370
     5
100
AcDbLine
 10
-1453.102240630128
 20
-25.38094471955262
 30
0.0
 11
-880.1022406301269
 21
-25.38094471955262
 31
0.0
  0
LINE
  5
183
330
1F
100
AcDbEntity
  8
0-0
  6
JWW_DASHED1
 62
   120
370
     5
100
AcDbLine
 10
-1453.102240630128
 20
-12.38094471845301
 30
0.0
 11
-880.1022406301269
 21
-12.38094471845301
 31
0.0
  0
LINE
  5
184
330
1F
100
AcDbEntity
  8
0-0
  6
JWW_DASHED1
 62
   120
370
     5
100
AcDbLine
 10
-1453.102240630128
 20
-11.38094471855283
 30
0.0
 11
-880.1022406301269
 21
-11.38094471855283
 31
0.0
  0
LINE
  5
185
330
1F
100
AcDbEntity
  8
0-0
  6
JWW_DASHED1
 62
   120
370
     5
100
AcDbLine
 10
-1453.102240630128
 20
1.619055282546782
 30
0.0
 11
-880.1022406301269
 21
1.619055282546782
 31
0.0
  0
LINE
  5
186
330
1F
100
AcDbEntity
  8
0-0
  6
JWW_DASHED1
 62
   120
370
     5
100
AcDbLine
 10
-1453.102240630128
 20
2.619055282446965
 30
0.0
 11
-880.1022406301269
 21
2.619055282446965
 31
0.0
  0
LINE
  5
187
330
1F
100
AcDbEntity
  8
0-0
  6
JWW_DASHED1
 62
   120
370
     5
100
AcDbLine
 10
-1453.102240630128
 20
15.61905528354657
 30
0.0
 11
-880.1022406301269
 21
15.61905528354657
 31
0.0
  0
LINE
  5
188
330
1F
100
AcDbEntity
  8
0-0
  6
JWW_DASHED1
 62
   120
370
     5
100
AcDbLine
 10
-1453.102240630128
 20
16.61905528344676
 30
0.0
 11
-880.1022406301269
 21
16.61905528344676
 31
0.0
  0
LINE
  5
189
330
1F
100
AcDbEntity
  8
0-0
  6
JWW_DASHED1
 62
   120
370
     5
100
AcDbLine
 10
-1453.102240630128
 20
29.61905528454636
 30
0.0
 11
-880.1022406301269
 21
29.61905528454636
 31
0.0
  0
LINE
  5
18A
330
1F
100
AcDbEntity
  8
0-0
  6
JWW_DASHED1
 62
   120
370
     5
100
AcDbLine
 10
-1453.102240630128
 20
30.61905528444655
 30
0.0
 11
-880.1022406301269
 21
30.61905528444655
 31
0.0
  0
LINE
  5
18B
330
1F
100
AcDbEntity
  8
0-0
  6
JWW_DASHED1
 62
   120
370
     5
100
AcDbLine
 10
-1453.102240630128
 20
43.61905528554615
 30
0.0
 11
-880.1022406301269
 21
43.61905528554615
 31
0.0
  0
LINE
  5
18C
330
1F
100
AcDbEntity
  8
0-0
  6
JWW_DASHED1
 62
   120
370
     5
100
AcDbLine
 10
-1453.102240630128
 20
44.61905528544634
 30
0.0
 11
-880.1022406301269
 21
44.61905528544634
 31
0.0
  0
LINE
  5
18D
330
1F
100
AcDbEntity
  8
0-0
  6
JWW_DASHED1
 62
   120
370
     5
100
AcDbLine
 10
-1453.102240630128
 20
57.61905528654594
 30
0.0
 11
-880.1022406301269
 21
57.61905528654594
 31
0.0
  0
LINE
  5
18E
330
1F
100
AcDbEntity
  8
0-0
  6
JWW_DASHED1
 62
   120
370
     5
100
AcDbLine
 10
-1453.102240630128
 20
58.61905528644613
 30
0.0
 11
-880.1022406301269
 21
58.61905528644613
 31
0.0
  0
LINE
  5
18F
330
1F
100
AcDbEntity
  8
0-0
  6
JWW_DASHED1
 62
   120
370
     5
100
AcDbLine
 10
-1453.102240630128
 20
71.61905528754573
 30
0.0
 11
-880.1022406301269
 21
71.61905528754573
 31
0.0
  0
LINE
  5
190
330
1F
100
AcDbEntity
  8
0-0
  6
JWW_DASHED1
 62
   120
370
     5
100
AcDbLine
 10
-1453.102240630128
 20
72.61905528744592
 30
0.0
 11
-880.1022406301269
 21
72.61905528744592
 31
0.0
  0
LINE
  5
191
330
1F
100
AcDbEntity
  8
0-0
  6
JWW_DASHED1
 62
   120
370
     5
100
AcDbLine
 10
-1453.102240630128
 20
85.61905528854552
 30
0.0
 11
-880.1022406301269
 21
85.61905528854552
 31
0.0
  0
LINE
  5
192
330
1F
100
AcDbEntity
  8
0-0
  6
JWW_DASHED1
 62
   120
370
     5
100
AcDbLine
 10
-1453.102240630128
 20
86.61905528844571
 30
0.0
 11
-880.1022406301269
 21
86.61905528844571
 31
0.0
  0
LINE
  5
193
330
1F
100
AcDbEntity
  8
0-0
  6
JWW_DASHED1
 62
   120
370
     5
100
AcDbLine
 10
-1453.102240630128
 20
99.61905528954532
 30
0.0
 11
-880.1022406301269
 21
99.61905528954532
 31
0.0
  0
LINE
  5
194
330
1F
100
AcDbEntity
  8
0-0
  6
JWW_DASHED1
 62
   120
370
     5
100
AcDbLine
 10
-1453.102240630128
 20
100.6190552894455
 30
0.0
 11
-880.1022406301269
 21
100.6190552894455
 31
0.0
  0
LINE
  5
195
330
1F
100
AcDbEntity
  8
0-0
  6
JWW_DASHED1
 62
   120
370
     5
100
AcDbLine
 10
-1453.102240630128
 20
113.6190552905451
 30
0.0
 11
-880.1022406301269
 21
113.6190552905451
 31
0.0
  0
LINE
  5
196
330
1F
100
AcDbEntity
  8
0-0
  6
JWW_DASHED1
 62
   120
370
     5
100
AcDbLine
 10
-1453.102240630128
 20
114.6190552904453
 30
0.0
 11
-880.1022406301269
 21
114.6190552904453
 31
0.0
  0
LINE
  5
197
330
1F
100
AcDbEntity
  8
0-0
  6
JWW_DASHED1
 62
   120
370
     5
100
AcDbLine
 10
-1453.102240630128
 20
127.6190552915449
 30
0.0
 11
-880.1022406301269
 21
127.6190552915449
 31
0.0
  0
LINE
  5
198
330
1F
100
AcDbEntity
  8
0-0
  6
JWW_DASHED1
 62
   120
370
     5
100
AcDbLine
 10
-1453.102240630128
 20
128.6190552914451
 30
0.0
 11
-880.1022406301269
 21
128.6190552914451
 31
0.0
  0
LINE
  5
199
330
1F
100
AcDbEntity
  8
0-0
  6
JWW_DASHED1
 62
   120
370
     5
100
AcDbLine
 10
-1453.102240630128
 20
141.6190552925447
 30
0.0
 11
-880.1022406301269
 21
141.6190552925447
 31
0.0
  0
LINE
  5
19A
330
1F
100
AcDbEntity
  8
0-0
  6
JWW_DASHED1
 62
   120
370
     5
100
AcDbLine
 10
-1453.102240630128
 20
142.6190552924449
 30
0.0
 11
-880.1022406301269
 21
142.6190552924449
 31
0.0
  0
LINE
  5
19B
330
1F
100
AcDbEntity
  8
0-0
  6
JWW_DASHED1
 62
   120
370
     5
100
AcDbLine
 10
-1453.102240630128
 20
155.6190552935445
 30
0.0
 11
-880.1022406301269
 21
155.6190552935445
 31
0.0
  0
LINE
  5
19C
330
1F
100
AcDbEntity
  8
0-0
  6
JWW_DASHED1
 62
   120
370
     5
100
AcDbLine
 10
-1453.102240630128
 20
156.6190552934447
 30
0.0
 11
-880.1022406301269
 21
156.6190552934447
 31
0.0
  0
LINE
  5
19D
330
1F
100
AcDbEntity
  8
0-0
  6
JWW_DASHED1
 62
   120
370
     5
100
AcDbLine
 10
-1453.102240630128
 20
169.6190552945443
 30
0.0
 11
-880.1022406301269
 21
169.6190552945443
 31
0.0
  0
LINE
  5
19E
330
1F
100
AcDbEntity
  8
0-0
  6
JWW_DASHED1
 62
   120
370
     5
100
AcDbLine
 10
-1453.102240630128
 20
170.6190552944445
 30
0.0
 11
-880.1022406301269
 21
170.6190552944445
 31
0.0
  0
LINE
  5
19F
330
1F
100
AcDbEntity
  8
0-0
  6
JWW_DASHED1
 62
   120
370
     5
100
AcDbLine
 10
-1453.102240630128
 20
183.6190552955441
 30
0.0
 11
-880.1022406301269
 21
183.6190552955441
 31
0.0
  0
LINE
  5
1A0
330
1F
100
AcDbEntity
  8
0-0
  6
JWW_DASHED1
 62
   120
370
     5
100
AcDbLine
 10
-1453.102240630128
 20
184.6190552954442
 30
0.0
 11
-880.1022406301269
 21
184.6190552954442
 31
0.0
  0
LINE
  5
1A1
330
1F
100
AcDbEntity
  8
0-0
  6
JWW_DASHED1
 62
   120
370
     5
100
AcDbLine
 10
-1453.102240630128
 20
197.6190552965438
 30
0.0
 11
-880.1022406301269
 21
197.6190552965438
 31
0.0
  0
LINE
  5
1A2
330
1F
100
AcDbEntity
  8
0-0
  6
JWW_DASHED1
 62
   120
370
     5
100
AcDbLine
 10
-1453.102240630128
 20
198.619055296444
 30
0.0
 11
-880.1022406301269
 21
198.619055296444
 31
0.0
  0
LINE
  5
1A3
330
1F
100
AcDbEntity
  8
0-0
  6
JWW_DASHED1
 62
   120
370
     5
100
AcDbLine
 10
-1453.102240630128
 20
211.6190552975436
 30
0.0
 11
-880.1022406301269
 21
211.6190552975436
 31
0.0
  0
LINE
  5
1A4
330
1F
100
AcDbEntity
  8
0-0
  6
JWW_DASHED1
 62
   120
370
     5
100
AcDbLine
 10
-1453.102240630128
 20
212.6190552974438
 30
0.0
 11
-880.1022406301269
 21
212.6190552974438
 31
0.0
  0
LINE
  5
1A5
330
1F
100
AcDbEntity
  8
0-0
  6
JWW_DASHED1
 62
   120
370
     5
100
AcDbLine
 10
-1453.102240630128
 20
225.6190552985434
 30
0.0
 11
-880.1022406301269
 21
225.6190552985434
 31
0.0
  0
LINE
  5
1A6
330
1F
100
AcDbEntity
  8
0-0
  6
JWW_DASHED1
 62
   120
370
     5
100
AcDbLine
 10
-1453.102240630128
 20
226.6190552984436
 30
0.0
 11
-880.1022406301269
 21
226.6190552984436
 31
0.0
  0
LINE
  5
1A7
330
1F
100
AcDbEntity
  8
0-0
  6
JWW_DASHED1
 62
   120
370
     5
100
AcDbLine
 10
-1453.102240630128
 20
239.6190552995432
 30
0.0
 11
-880.1022406301269
 21
239.6190552995432
 31
0.0
  0
LINE
  5
1A8
330
1F
100
AcDbEntity
  8
0-0
  6
JWW_DASHED1
 62
   120
370
     5
100
AcDbLine
 10
-1453.102240630128
 20
240.6190552994434
 30
0.0
 11
-880.1022406301269
 21
240.6190552994434
 31
0.0
  0
LINE
  5
1A9
330
1F
100
AcDbEntity
  8
0-0
  6
JWW_DASHED1
 62
   120
370
     5
100
AcDbLine
 10
-1453.102240630128
 20
253.619055300543
 30
0.0
 11
-880.1022406301269
 21
253.619055300543
 31
0.0
  0
LINE
  5
1AA
330
1F
100
AcDbEntity
  8
0-0
  6
JWW_DASHED1
 62
   120
370
     5
100
AcDbLine
 10
-1453.102240630128
 20
254.6190553004432
 30
0.0
 11
-880.1022406301269
 21
254.6190553004432
 31
0.0
  0
LINE
  5
1AB
330
1F
100
AcDbEntity
  8
0-0
  6
JWW_DASHED1
 62
   120
370
     5
100
AcDbLine
 10
-1453.102240630128
 20
267.6190553015428
 30
0.0
 11
-880.1022406301269
 21
267.6190553015428
 31
0.0
  0
LINE
  5
1AC
330
1F
100
AcDbEntity
  8
0-0
  6
JWW_DASHED1
 62
   120
370
     5
100
AcDbLine
 10
-1453.102240630128
 20
268.619055301443
 30
0.0
 11
-880.1022406301269
 21
268.619055301443
 31
0.0
  0
LINE
  5
1AD
330
1F
100
AcDbEntity
  8
0-0
  6
JWW_DASHED1
 62
   120
370
     5
100
AcDbLine
 10
-1453.102240630128
 20
281.6190553025426
 30
0.0
 11
-880.1022406301269
 21
281.6190553025426
 31
0.0
  0
LINE
  5
1AE
330
1F
100
AcDbEntity
  8
0-0
  6
JWW_DASHED1
 62
   120
370
     5
100
AcDbLine
 10
-1453.102240630128
 20
282.6190553024428
 30
0.0
 11
-880.1022406301269
 21
282.6190553024428
 31
0.0
  0
LINE
  5
1AF
330
1F
100
AcDbEntity
  8
0-0
  6
JWW_DASHED1
 62
   120
370
     5
100
AcDbLine
 10
-1453.102240630128
 20
295.6190553035424
 30
0.0
 11
-880.1022406301269
 21
295.6190553035424
 31
0.0
  0
LINE
  5
1B0
330
1F
100
AcDbEntity
  8
0-0
  6
JWW_DASHED1
 62
   120
370
     5
100
AcDbLine
 10
-1453.102240630128
 20
296.6190553034426
 30
0.0
 11
-880.1022406301269
 21
296.6190553034426
 31
0.0
  0
LINE
  5
1B1
330
1F
100
AcDbEntity
  8
0-0
  6
JWW_DASHED1
 62
   120
370
     5
100
AcDbLine
 10
-1453.102240630128
 20
309.6190553045421
 30
0.0
 11
-880.1022406301269
 21
309.6190553045421
 31
0.0
  0
LINE
  5
1B2
330
1F
100
AcDbEntity
  8
0-0
  6
JWW_DASHED1
 62
   120
370
     5
100
AcDbLine
 10
-1453.102240630128
 20
310.6190553044423
 30
0.0
 11
-880.1022406301269
 21
310.6190553044423
 31
0.0
  0
LINE
  5
1B3
330
1F
100
AcDbEntity
  8
0-0
  6
JWW_DASHED1
 62
   120
370
     5
100
AcDbLine
 10
-1453.102240630128
 20
323.619055305542
 30
0.0
 11
-880.1022406301269
 21
323.619055305542
 31
0.0
  0
LINE
  5
1B4
330
1F
100
AcDbEntity
  8
0-0
  6
JWW_DASHED1
 62
   120
370
     5
100
AcDbLine
 10
-1453.102240630128
 20
324.6190553054421
 30
0.0
 11
-880.1022406301269
 21
324.6190553054421
 31
0.0
  0
LINE
  5
1B5
330
1F
100
AcDbEntity
  8
0-0
  6
JWW_DASHED1
 62
   120
370
     5
100
AcDbLine
 10
-1453.102240630128
 20
337.6190553065418
 30
0.0
 11
-880.1022406301269
 21
337.6190553065418
 31
0.0
  0
LINE
  5
1B6
330
1F
100
AcDbEntity
  8
0-0
  6
JWW_DASHED1
 62
   120
370
     5
100
AcDbLine
 10
-1453.102240630128
 20
338.619055306442
 30
0.0
 11
-880.1022406301269
 21
338.619055306442
 31
0.0
  0
LINE
  5
1B7
330
1F
100
AcDbEntity
  8
0-0
  6
JWW_DASHED1
 62
   120
370
     5
100
AcDbLine
 10
-1453.102240630128
 20
351.6190553075415
 30
0.0
 11
-880.1022406301269
 21
351.6190553075415
 31
0.0
  0
LINE
  5
1B8
330
1F
100
AcDbEntity
  8
0-0
  6
JWW_DASHED1
 62
   120
370
     5
100
AcDbLine
 10
-1453.102240630128
 20
352.6190553074417
 30
0.0
 11
-880.1022406301269
 21
352.6190553074417
 31
0.0
  0
LINE
  5
1B9
330
1F
100
AcDbEntity
  8
0-0
  6
JWW_DASHED1
 62
   120
370
     5
100
AcDbLine
 10
-1453.102240630128
 20
365.6190553085413
 30
0.0
 11
-880.1022406301269
 21
365.6190553085413
 31
0.0
  0
LINE
  5
1BA
330
1F
100
AcDbEntity
  8
0-0
  6
JWW_DASHED1
 62
   120
370
     5
100
AcDbLine
 10
-1453.102240630128
 20
366.6190553084415
 30
0.0
 11
-880.1022406301269
 21
366.6190553084415
 31
0.0
  0
LINE
  5
1BB
330
1F
100
AcDbEntity
  8
0-0
  6
JWW_DASHED1
 62
   120
370
     5
100
AcDbLine
 10
-1453.102240630128
 20
379.6190553095411
 30
0.0
 11
-880.1022406301269
 21
379.6190553095411
 31
0.0
  0
LINE
  5
1BC
330
1F
100
AcDbEntity
  8
0-0
  6
JWW_DASHED1
 62
   120
370
     5
100
AcDbLine
 10
-1453.102240630128
 20
380.6190553094413
 30
0.0
 11
-880.1022406301269
 21
380.6190553094413
 31
0.0
  0
LINE
  5
1BD
330
1F
100
AcDbEntity
  8
0-0
  6
JWW_DASHED1
 62
   120
370
     5
100
AcDbLine
 10
-1453.102240630128
 20
393.6190553105409
 30
0.0
 11
-880.1022406301269
 21
393.6190553105409
 31
0.0
  0
LINE
  5
1BE
330
1F
100
AcDbEntity
  8
0-0
  6
JWW_DASHED1
 62
   120
370
     5
100
AcDbLine
 10
-1453.102240630128
 20
394.6190553104411
 30
0.0
 11
-880.1022406301269
 21
394.6190553104411
 31
0.0
  0
LINE
  5
1BF
330
1F
100
AcDbEntity
  8
0-0
  6
JWW_DASHED1
 62
   120
370
     5
100
AcDbLine
 10
-1453.102240630128
 20
407.6190553115407
 30
0.0
 11
-880.1022406301269
 21
407.6190553115407
 31
0.0
  0
LINE
  5
1C0
330
1F
100
AcDbEntity
  8
0-0
  6
JWW_DASHED1
 62
   120
370
     5
100
AcDbLine
 10
-1453.102240630128
 20
408.6190553114409
 30
0.0
 11
-880.1022406301269
 21
408.6190553114409
 31
0.0
  0
LINE
  5
1C1
330
1F
100
AcDbEntity
  8
0-0
  6
JWW_DASHED1
 62
   120
370
     5
100
AcDbLine
 10
-1453.102240630128
 20
421.6190553125405
 30
0.0
 11
-880.1022406301269
 21
421.6190553125405
 31
0.0
  0
LINE
  5
1C2
330
1F
100
AcDbEntity
  8
0-0
  6
JWW_DASHED1
 62
   120
370
     5
100
AcDbLine
 10
-1453.102240630128
 20
422.6190553124407
 30
0.0
 11
-880.1022406301269
 21
422.6190553124407
 31
0.0
  0
LINE
  5
1C3
330
1F
100
AcDbEntity
  8
0-0
  6
JWW_DASHED1
 62
   120
370
     5
100
AcDbLine
 10
-1453.102240630128
 20
435.6190553135403
 30
0.0
 11
-880.1022406301269
 21
435.6190553135403
 31
0.0
  0
LINE
  5
1C4
330
1F
100
AcDbEntity
  8
0-0
  6
JWW_DASHED1
 62
   120
370
     5
100
AcDbLine
 10
-1453.102240630128
 20
436.6190553134405
 30
0.0
 11
-880.1022406301269
 21
436.6190553134405
 31
0.0
  0
LINE
  5
1C5
330
1F
100
AcDbEntity
  8
0-0
  6
JWW_DASHED1
 62
   120
370
     5
100
AcDbLine
 10
-1453.102240630128
 20
449.6190553145401
 30
0.0
 11
-880.1022406301269
 21
449.6190553145401
 31
0.0
  0
LINE
  5
1C6
330
1F
100
AcDbEntity
  8
0-0
  6
JWW_DASHED1
 62
   120
370
     5
100
AcDbLine
 10
-1453.102240630128
 20
450.6190553144403
 30
0.0
 11
-880.1022406301269
 21
450.6190553144403
 31
0.0
  0
LINE
  5
1C7
330
1F
100
AcDbEntity
  8
0-0
  6
JWW_DASHED1
 62
   120
370
     5
100
AcDbLine
 10
-1453.102240630128
 20
463.6190553155399
 30
0.0
 11
-880.1022406301269
 21
463.6190553155399
 31
0.0
  0
LINE
  5
1C8
330
1F
100
AcDbEntity
  8
0-0
  6
JWW_DASHED1
 62
   120
370
     5
100
AcDbLine
 10
-1453.102240630128
 20
464.6190553154401
 30
0.0
 11
-880.1022406301269
 21
464.6190553154401
 31
0.0
  0
LINE
  5
1C9
330
1F
100
AcDbEntity
  8
0-0
  6
JWW_DASHED1
 62
   120
370
     5
100
AcDbLine
 10
-1453.102240630128
 20
477.6190553165396
 30
0.0
 11
-880.1022406301269
 21
477.6190553165396
 31
0.0
  0
LINE
  5
1CA
330
1F
100
AcDbEntity
  8
0-0
  6
JWW_DASHED1
 62
   120
370
     5
100
AcDbLine
 10
-1453.102240630128
 20
478.6190553164398
 30
0.0
 11
-880.1022406301269
 21
478.6190553164398
 31
0.0
  0
LINE
  5
1CB
330
1F
100
AcDbEntity
  8
0-0
  6
JWW_DASHED1
 62
   120
370
     5
100
AcDbLine
 10
-1453.102240630128
 20
491.6190553175394
 30
0.0
 11
-880.1022406301269
 21
491.6190553175394
 31
0.0
  0
LINE
  5
1CC
330
1F
100
AcDbEntity
  8
0-0
  6
JWW_DASHED1
 62
   120
370
     5
100
AcDbLine
 10
-1453.102240630128
 20
492.6190553174396
 30
0.0
 11
-880.1022406301269
 21
492.6190553174396
 31
0.0
  0
LINE
  5
1CD
330
1F
100
AcDbEntity
  8
0-0
  6
JWW_DASHED1
 62
   120
370
     5
100
AcDbLine
 10
-1453.102240630128
 20
505.6190553185393
 30
0.0
 11
-880.1022406301269
 21
505.6190553185393
 31
0.0
  0
LINE
  5
1CE
330
1F
100
AcDbEntity
  8
0-0
  6
JWW_DASHED1
 62
   120
370
     5
100
AcDbLine
 10
-1453.102240630128
 20
506.6190553184395
 30
0.0
 11
-880.1022406301269
 21
506.6190553184395
 31
0.0
  0
LINE
  5
1CF
330
1F
100
AcDbEntity
  8
0-0
  6
JWW_DASHED1
 62
   120
370
     5
100
AcDbLine
 10
-1453.102240630128
 20
519.619055319539
 30
0.0
 11
-880.1022406301269
 21
519.619055319539
 31
0.0
  0
LINE
  5
1D0
330
1F
100
AcDbEntity
  8
0-0
  6
JWW_DASHED1
 62
   120
370
     5
100
AcDbLine
 10
-1453.102240630128
 20
520.6190553194392
 30
0.0
 11
-880.1022406301269
 21
520.6190553194392
 31
0.0
  0
LINE
  5
1D1
330
1F
100
AcDbEntity
  8
0-0
  6
JWW_DASHED1
 62
   120
370
     5
100
AcDbLine
 10
-1453.102240630128
 20
533.6190553205388
 30
0.0
 11
-880.1022406301269
 21
533.6190553205388
 31
0.0
  0
LINE
  5
1D2
330
1F
100
AcDbEntity
  8
0-0
  6
JWW_DASHED1
 62
   120
370
     5
100
AcDbLine
 10
-1453.102240630128
 20
534.619055320439
 30
0.0
 11
-880.1022406301269
 21
534.619055320439
 31
0.0
  0
LINE
  5
1D3
330
1F
100
AcDbEntity
  8
0-0
  6
JWW_DASHED1
 62
   120
370
     5
100
AcDbLine
 10
-1453.102240630128
 20
547.6190553215386
 30
0.0
 11
-880.1022406301269
 21
547.6190553215386
 31
0.0
  0
LINE
  5
1D4
330
1F
100
AcDbEntity
  8
0-0
  6
JWW_DASHED1
 62
   120
370
     5
100
AcDbLine
 10
-1453.102240630128
 20
548.6190553214387
 30
0.0
 11
-880.1022406301269
 21
548.6190553214387
 31
0.0
  0
LINE
  5
1D5
330
1F
100
AcDbEntity
  8
0-0
  6
JWW_DASHED1
 62
   120
370
     5
100
AcDbLine
 10
-1453.102240630128
 20
561.6190553225384
 30
0.0
 11
-880.1022406301269
 21
561.6190553225384
 31
0.0
  0
LINE
  5
1D6
330
1F
100
AcDbEntity
  8
0-0
  6
JWW_DASHED1
 62
   120
370
     5
100
AcDbLine
 10
-1453.102240630128
 20
562.6190553224386
 30
0.0
 11
-880.1022406301269
 21
562.6190553224386
 31
0.0
  0
LINE
  5
1D7
330
1F
100
AcDbEntity
  8
0-0
  6
JWW_DASHED1
 62
   120
370
     5
100
AcDbLine
 10
-1453.102240630128
 20
575.6190553235382
 30
0.0
 11
-880.1022406301269
 21
575.6190553235382
 31
0.0
  0
LINE
  5
1D8
330
1F
100
AcDbEntity
  8
0-0
  6
JWW_DASHED1
 62
   120
370
     5
100
AcDbLine
 10
-1453.102240630128
 20
576.6190553234384
 30
0.0
 11
-880.1022406301269
 21
576.6190553234384
 31
0.0
  0
LINE
  5
1D9
330
1F
100
AcDbEntity
  8
0-0
  6
JWW_DASHED1
 62
   120
370
     5
100
AcDbLine
 10
-1453.102240630128
 20
589.619055324538
 30
0.0
 11
-880.1022406301269
 21
589.619055324538
 31
0.0
  0
LINE
  5
1DA
330
1F
100
AcDbEntity
  8
0-0
  6
JWW_DASHED1
 62
   120
370
     5
100
AcDbLine
 10
-1453.102240630128
 20
590.6190553244381
 30
0.0
 11
-880.1022406301269
 21
590.6190553244381
 31
0.0
  0
LINE
  5
1DB
330
1F
100
AcDbEntity
  8
0-0
  6
JWW_DASHED1
 62
   120
370
     5
100
AcDbLine
 10
-1453.102240630128
 20
603.6190553255378
 30
0.0
 11
-880.1022406301269
 21
603.6190553255378
 31
0.0
  0
LINE
  5
1DC
330
1F
100
AcDbEntity
  8
0-0
  6
JWW_DASHED1
 62
   120
370
     5
100
AcDbLine
 10
-1453.102240630128
 20
604.619055325438
 30
0.0
 11
-880.1022406301269
 21
604.619055325438
 31
0.0
  0
LINE
  5
1DD
330
1F
100
AcDbEntity
  8
0-0
  6
JWW_DASHED1
 62
   120
370
     5
100
AcDbLine
 10
-1453.102240630128
 20
617.6190553265376
 30
0.0
 11
-880.1022406301269
 21
617.6190553265376
 31
0.0
  0
LINE
  5
1DE
330
1F
100
AcDbEntity
  8
0-0
  6
JWW_DASHED1
 62
   120
370
     5
100
AcDbLine
 10
-1453.102240630128
 20
618.6190553264378
 30
0.0
 11
-880.1022406301269
 21
618.6190553264378
 31
0.0
  0
LINE
  5
1DF
330
1F
100
AcDbEntity
  8
0-0
  6
JWW_DASHED1
 62
   120
370
     5
100
AcDbLine
 10
-1453.102240630128
 20
631.6190553275374
 30
0.0
 11
-880.1022406301269
 21
631.6190553275374
 31
0.0
  0
LINE
  5
1E0
330
1F
100
AcDbEntity
  8
0-0
  6
JWW_DASHED1
 62
   120
370
     5
100
AcDbLine
 10
-1453.102240630128
 20
632.6190553274375
 30
0.0
 11
-880.1022406301269
 21
632.6190553274375
 31
0.0
  0
LINE
  5
1E1
330
1F
100
AcDbEntity
  8
0-0
  6
JWW_DASHED1
 62
   120
370
     5
100
AcDbLine
 10
-1365.683398868164
 20
645.6190553285371
 30
0.0
 11
-967.5210823920911
 21
645.6190553285371
 31
0.0
  0
LINE
  5
1E2
330
1F
100
AcDbEntity
  8
0-0
  6
JWW_DASHED1
 62
   120
370
     5
100
AcDbLine
 10
-1362.089168996804
 20
646.6190553284373
 30
0.0
 11
-971.115312263451
 21
646.6190553284373
 31
0.0
  0
LINE
  5
1E3
330
1F
100
AcDbEntity
  8
0-0
  6
JWW_DASHED1
 62
   120
370
     5
100
AcDbLine
 10
-1330.977091528548
 20
659.6190553295369
 30
0.0
 11
-1002.227389731707
 21
659.6190553295369
 31
0.0
  0
LINE
  5
1E4
330
1F
100
AcDbEntity
  8
0-0
  6
JWW_DASHED1
 62
   120
370
     5
100
AcDbLine
 10
-1329.083291538882
 20
660.6190553294371
 30
0.0
 11
-1004.121189721373
 21
660.6190553294371
 31
0.0
  0
LINE
  5
1E5
330
1F
100
AcDbEntity
  8
0-0
  6
JWW_DASHED1
 62
   120
370
     5
100
AcDbLine
 10
-1301.402447446563
 20
673.6190553305368
 30
0.0
 11
-1031.802033813693
 21
673.6190553305368
 31
0.0
  0
LINE
  5
1E6
330
1F
100
AcDbEntity
  8
0-0
  6
JWW_DASHED1
 62
   120
370
     5
100
AcDbLine
 10
-1298.980849378986
 20
674.6190553304369
 30
0.0
 11
-1034.223631881269
 21
674.6190553304369
 31
0.0
  0
LINE
  5
1E7
330
1F
100
AcDbEntity
  8
0-0
  6
JWW_DASHED1
 62
   120
370
     5
100
AcDbLine
 10
-1261.106737388619
 20
687.6190553315365
 30
0.0
 11
-1072.097743871637
 21
687.6190553315365
 31
0.0
  0
LINE
  5
1E8
330
1F
100
AcDbEntity
  8
0-0
  6
JWW_DASHED1
 62
   120
370
     5
100
AcDbLine
 10
-1257.465325566246
 20
688.6190553314367
 30
0.0
 11
-1075.73915569401
 21
688.6190553314367
 31
0.0
  0
LINE
  5
1E9
330
1F
100
AcDbEntity
  8
0-0
  6
JWW_DASHED1
 62
   120
370
     5
100
AcDbLine
 10
-886.1022221321955
 20
-474.3807964376023
 30
0.0
 11
-886.1022221321955
 21
640.6189360180892
 31
0.0
  0
LINE
  5
1EA
330
1F
100
AcDbEntity
  8
0-0
  6
JWW_DASHED1
 62
   120
370
     5
100
AcDbLine
 10
-887.1022221320957
 20
-474.3807964376023
 30
0.0
 11
-887.1022221320957
 21
640.6189360180892
 31
0.0
  0
LINE
  5
1EB
330
1F
100
AcDbEntity
  8
0-0
  6
JWW_DASHED1
 62
   120
370
     5
100
AcDbLine
 10
-900.1022221331957
 20
-474.3807964376023
 30
0.0
 11
-900.1022221331957
 21
640.6189360180892
 31
0.0
  0
LINE
  5
1EC
330
1F
100
AcDbEntity
  8
0-0
  6
JWW_DASHED1
 62
   120
370
     5
100
AcDbLine
 10
-901.1022221330954
 20
-474.3807964376023
 30
0.0
 11
-901.1022221330954
 21
640.6189360180892
 31
0.0
  0
LINE
  5
1ED
330
1F
100
AcDbEntity
  8
0-0
  6
JWW_DASHED1
 62
   120
370
     5
100
AcDbLine
 10
-914.1022221341955
 20
-474.3807964376023
 30
0.0
 11
-914.1022221341955
 21
640.6189360180892
 31
0.0
  0
LINE
  5
1EE
330
1F
100
AcDbEntity
  8
0-0
  6
JWW_DASHED1
 62
   120
370
     5
100
AcDbLine
 10
-915.1022221340957
 20
-474.3807964376023
 30
0.0
 11
-915.1022221340952
 21
640.6189360180892
 31
0.0
  0
LINE
  5
1EF
330
1F
100
AcDbEntity
  8
0-0
  6
JWW_DASHED1
 62
   120
370
     5
100
AcDbLine
 10
-928.1022221351957
 20
-474.3807964376023
 30
0.0
 11
-928.1022221351952
 21
640.6189360180892
 31
0.0
  0
LINE
  5
1F0
330
1F
100
AcDbEntity
  8
0-0
  6
JWW_DASHED1
 62
   120
370
     5
100
AcDbLine
 10
-929.1022221350954
 20
-474.3807964376023
 30
0.0
 11
-929.1022221350954
 21
640.6189360180892
 31
0.0
  0
LINE
  5
1F1
330
1F
100
AcDbEntity
  8
0-0
  6
JWW_DASHED1
 62
   120
370
     5
100
AcDbLine
 10
-942.1022221361955
 20
-474.3807964376023
 30
0.0
 11
-942.1022221361955
 21
641.1822285233015
 31
0.0
  0
LINE
  5
1F2
330
1F
100
AcDbEntity
  8
0-0
  6
JWW_DASHED1
 62
   120
370
     5
100
AcDbLine
 10
-943.1022221360956
 20
-474.3807964376023
 30
0.0
 11
-943.1022221360956
 21
641.2725101853343
 31
0.0
  0
LINE
  5
1F3
330
1F
100
AcDbEntity
  8
0-0
  6
JWW_DASHED1
 62
   120
370
     5
100
AcDbLine
 10
-956.1022221371957
 20
-474.3807964376023
 30
0.0
 11
-956.1022221371957
 21
643.0666245598682
 31
0.0
  0
LINE
  5
1F4
330
1F
100
AcDbEntity
  8
0-0
  6
JWW_DASHED1
 62
   120
370
     5
100
AcDbLine
 10
-957.1022221370954
 20
-474.3807964376023
 30
0.0
 11
-957.1022221370954
 21
643.2530309423041
 31
0.0
  0
LINE
  5
1F5
330
1F
100
AcDbEntity
  8
0-0
  6
JWW_DASHED1
 62
   120
370
     5
100
AcDbLine
 10
-970.1022221381954
 20
-474.3807964376023
 30
0.0
 11
-970.1022221381954
 21
646.3274266130597
 31
0.0
  0
LINE
  5
1F6
330
1F
100
AcDbEntity
  8
0-0
  6
JWW_DASHED1
 62
   120
370
     5
100
AcDbLine
 10
-971.1022221380956
 20
-474.3807964376023
 30
0.0
 11
-971.1022221380952
 21
646.6152379804394
 31
0.0
  0
LINE
  5
1F7
330
1F
100
AcDbEntity
  8
0-0
  6
JWW_DASHED1
 62
   120
370
     5
100
AcDbLine
 10
-984.1022221391956
 20
-474.3807964376023
 30
0.0
 11
-984.1022221391952
 21
651.0610815059031
 31
0.0
  0
LINE
  5
1F8
330
1F
100
AcDbEntity
  8
0-0
  6
JWW_DASHED1
 62
   120
370
     5
100
AcDbLine
 10
-985.1022221390954
 20
-474.3807964376023
 30
0.0
 11
-985.1022221390954
 21
651.4592431534206
 31
0.0
  0
LINE
  5
1F9
330
1F
100
AcDbEntity
  8
0-0
  6
JWW_DASHED1
 62
   120
370
     5
100
AcDbLine
 10
-998.1022221401954
 20
-474.3807964376023
 30
0.0
 11
-998.1022221401954
 21
657.4245298830633
 31
0.0
  0
LINE
  5
1FA
330
1F
100
AcDbEntity
  8
0-0
  6
JWW_DASHED1
 62
   120
370
     5
100
AcDbLine
 10
-999.1022221400956
 20
-474.3807964376023
 30
0.0
 11
-999.1022221400956
 21
657.9472540818629
 31
0.0
  0
LINE
  5
1FB
330
1F
100
AcDbEntity
  8
0-0
  6
JWW_DASHED1
 62
   120
370
     5
100
AcDbLine
 10
-1012.102222141195
 20
-474.3807964376023
 30
0.0
 11
-1012.102222141195
 21
664.6729319066221
 31
0.0
  0
LINE
  5
1FC
330
1F
100
AcDbEntity
  8
0-0
  6
JWW_DASHED1
 62
   120
370
     5
100
AcDbLine
 10
-1013.102222141095
 20
-474.3807964376023
 30
0.0
 11
-1013.102222141095
 21
665.1629116919289
 31
0.0
  0
LINE
  5
1FD
330
1F
100
AcDbEntity
  8
0-0
  6
JWW_DASHED1
 62
   120
370
     5
100
AcDbLine
 10
-1026.102222142195
 20
-474.3807964376023
 30
0.0
 11
-1026.102222142195
 21
671.1808120012543
 31
0.0
  0
LINE
  5
1FE
330
1F
100
AcDbEntity
  8
0-0
  6
JWW_DASHED1
 62
   120
370
     5
100
AcDbLine
 10
-1027.102222142095
 20
-474.3807964376023
 30
0.0
 11
-1027.102222142095
 21
671.617248481431
 31
0.0
  0
LINE
  5
1FF
330
1F
100
AcDbEntity
  8
0-0
  6
JWW_DASHED1
 62
   120
370
     5
100
AcDbLine
 10
-1040.102222143195
 20
-474.3807964376023
 30
0.0
 11
-1040.102222143195
 21
676.9591265304884
 31
0.0
  0
LINE
  5
200
330
1F
100
AcDbEntity
  8
0-0
  6
JWW_DASHED1
 62
   120
370
     5
100
AcDbLine
 10
-1041.102222143095
 20
-474.3807964376023
 30
0.0
 11
-1041.102222143095
 21
677.3449989317637
 31
0.0
  0
LINE
  5
201
330
1F
100
AcDbEntity
  8
0-0
  6
JWW_DASHED1
 62
   120
370
     5
100
AcDbLine
 10
-1054.102222144195
 20
-474.3807964376023
 30
0.0
 11
-1054.102222144195
 21
682.0460368765603
 31
0.0
  0
LINE
  5
202
330
1F
100
AcDbEntity
  8
0-0
  6
JWW_DASHED1
 62
   120
370
     5
100
AcDbLine
 10
-1055.102222144096
 20
-474.3807964376023
 30
0.0
 11
-1055.102222144096
 21
682.3837976311702
 31
0.0
  0
LINE
  5
203
330
1F
100
AcDbEntity
  8
0-0
  6
JWW_DASHED1
 62
   120
370
     5
100
AcDbLine
 10
-1068.102222145195
 20
-474.3807964376023
 30
0.0
 11
-1068.102222145195
 21
686.4729609605788
 31
0.0
  0
LINE
  5
204
330
1F
100
AcDbEntity
  8
0-0
  6
JWW_DASHED1
 62
   120
370
     5
100
AcDbLine
 10
-1069.102222145096
 20
-474.3807964376023
 30
0.0
 11
-1069.102222145096
 21
686.7646280373051
 31
0.0
  0
LINE
  5
205
330
1F
100
AcDbEntity
  8
0-0
  6
JWW_DASHED1
 62
   120
370
     5
100
AcDbLine
 10
-1082.102222146195
 20
-474.3807964376023
 30
0.0
 11
-1082.102222146195
 21
690.2657063799566
 31
0.0
  0
LINE
  5
206
330
1F
100
AcDbEntity
  8
0-0
  6
JWW_DASHED1
 62
   120
370
     5
100
AcDbLine
 10
-1083.102222146095
 20
-474.3807964376023
 30
0.0
 11
-1083.102222146095
 21
690.512932414746
 31
0.0
  0
LINE
  5
207
330
1F
100
AcDbEntity
  8
0-0
  6
JWW_DASHED1
 62
   120
370
     5
100
AcDbLine
 10
-1096.102222147195
 20
-474.3807964376023
 30
0.0
 11
-1096.102222147195
 21
693.4453218700733
 31
0.0
  0
LINE
  5
208
330
1F
100
AcDbEntity
  8
0-0
  6
JWW_DASHED1
 62
   120
370
     5
100
AcDbLine
 10
-1097.102222147096
 20
-474.3807964376023
 30
0.0
 11
-1097.102222147096
 21
693.6494462974374
 31
0.0
  0
LINE
  5
209
330
1F
100
AcDbEntity
  8
0-0
  6
JWW_DASHED1
 62
   120
370
     5
100
AcDbLine
 10
-1110.102222148196
 20
-474.3807964376023
 30
0.0
 11
-1110.102222148196
 21
696.0287400716666
 31
0.0
  0
LINE
  5
20A
330
1F
100
AcDbEntity
  8
0-0
  6
JWW_DASHED1
 62
   120
370
     5
100
AcDbLine
 10
-1111.102222148096
 20
-474.3807964376023
 30
0.0
 11
-1111.102222148096
 21
696.1908284804454
 31
0.0
  0
LINE
  5
20B
330
1F
100
AcDbEntity
  8
0-0
  6
JWW_DASHED1
 62
   120
370
     5
100
AcDbLine
 10
-1124.102222149195
 20
-474.3807964376023
 30
0.0
 11
-1124.102222149195
 21
698.0292616049487
 31
0.0
  0
LINE
  5
20C
330
1F
100
AcDbEntity
  8
0-0
  6
JWW_DASHED1
 62
   120
370
     5
100
AcDbLine
 10
-1125.102222149095
 20
-474.3807964376023
 30
0.0
 11
-1125.102222149095
 21
698.1501352304408
 31
0.0
  0
LINE
  5
20D
330
1F
100
AcDbEntity
  8
0-0
  6
JWW_DASHED1
 62
   120
370
     5
100
AcDbLine
 10
-1138.102222150195
 20
-474.3807964376023
 30
0.0
 11
-1138.102222150195
 21
699.4569150367138
 31
0.0
  0
LINE
  5
20E
330
1F
100
AcDbEntity
  8
0-0
  6
JWW_DASHED1
 62
   120
370
     5
100
AcDbLine
 10
-1139.102222150095
 20
-474.3807964376023
 30
0.0
 11
-1139.102222150095
 21
699.5371724083602
 31
0.0
  0
LINE
  5
20F
330
1F
100
AcDbEntity
  8
0-0
  6
JWW_DASHED1
 62
   120
370
     5
100
AcDbLine
 10
-1152.102222151195
 20
-474.3807964376023
 30
0.0
 11
-1152.102222151195
 21
700.3187166648754
 31
0.0
  0
LINE
  5
210
330
1F
100
AcDbEntity
  8
0-0
  6
JWW_DASHED1
 62
   120
370
     5
100
AcDbLine
 10
-1153.102222151095
 20
-474.3807964376023
 30
0.0
 11
-1153.102222151095
 21
700.358748797204
 31
0.0
  0
LINE
  5
211
330
1F
100
AcDbEntity
  8
0-0
  6
JWW_DASHED1
 62
   120
370
     5
100
AcDbLine
 10
-1166.102222152196
 20
-474.3807964376023
 30
0.0
 11
-1166.102222152196
 21
700.6188463929507
 31
0.0
  0
LINE
  5
212
330
1F
100
AcDbEntity
  8
0-0
  6
JWW_DASHED1
 62
   120
370
     5
100
AcDbLine
 10
-1167.102222152096
 20
-474.3807964376023
 30
0.0
 11
-1167.102222152096
 21
700.6188464457741
 31
0.0
  0
LINE
  5
213
330
1F
100
AcDbEntity
  8
0-0
  6
JWW_DASHED1
 62
   120
370
     5
100
AcDbLine
 10
-1180.102222153195
 20
-474.3807964376023
 30
0.0
 11
-1180.102222153195
 21
700.3587502237101
 31
0.0
  0
LINE
  5
214
330
1F
100
AcDbEntity
  8
0-0
  6
JWW_DASHED1
 62
   120
370
     5
100
AcDbLine
 10
-1181.102222153095
 20
-474.3807964376023
 30
0.0
 11
-1181.102222153095
 21
700.3187181972467
 31
0.0
  0
LINE
  5
215
330
1F
100
AcDbEntity
  8
0-0
  6
JWW_DASHED1
 62
   120
370
     5
100
AcDbLine
 10
-1194.102222154195
 20
-474.3807964376023
 30
0.0
 11
-1194.102222154195
 21
699.5371753210716
 31
0.0
  0
LINE
  5
216
330
1F
100
AcDbEntity
  8
0-0
  6
JWW_DASHED1
 62
   120
370
     5
100
AcDbLine
 10
-1195.102222154095
 20
-474.3807964376023
 30
0.0
 11
-1195.102222154095
 21
699.4569180559997
 31
0.0
  0
LINE
  5
217
330
1F
100
AcDbEntity
  8
0-0
  6
JWW_DASHED1
 62
   120
370
     5
100
AcDbLine
 10
-1208.102222155195
 20
-474.3807964376023
 30
0.0
 11
-1208.102222155195
 21
698.150139643491
 31
0.0
  0
LINE
  5
218
330
1F
100
AcDbEntity
  8
0-0
  6
JWW_DASHED1
 62
   120
370
     5
100
AcDbLine
 10
-1209.102222155095
 20
-474.3807964376023
 30
0.0
 11
-1209.102222155095
 21
698.0292661258832
 31
0.0
  0
LINE
  5
219
330
1F
100
AcDbEntity
  8
0-0
  6
JWW_DASHED1
 62
   120
370
     5
100
AcDbLine
 10
-1222.102222156195
 20
-474.3807964376023
 30
0.0
 11
-1222.102222156195
 21
696.1908344157168
 31
0.0
  0
LINE
  5
21A
330
1F
100
AcDbEntity
  8
0-0
  6
JWW_DASHED1
 62
   120
370
     5
100
AcDbLine
 10
-1223.102222156096
 20
-474.3807964376023
 30
0.0
 11
-1223.102222156096
 21
696.0287461166777
 31
0.0
  0
LINE
  5
21B
330
1F
100
AcDbEntity
  8
0-0
  6
JWW_DASHED1
 62
   120
370
     5
100
AcDbLine
 10
-1236.102222157195
 20
-474.3807964376023
 30
0.0
 11
-1236.102222157195
 21
693.6494537849435
 31
0.0
  0
LINE
  5
21C
330
1F
100
AcDbEntity
  8
0-0
  6
JWW_DASHED1
 62
   120
370
     5
100
AcDbLine
 10
-1237.102222157095
 20
-474.3807964376023
 30
0.0
 11
-1237.102222157095
 21
693.4453294698292
 31
0.0
  0
LINE
  5
21D
330
1F
100
AcDbEntity
  8
0-0
  6
JWW_DASHED1
 62
   120
370
     5
100
AcDbLine
 10
-1250.102222158195
 20
-474.3807964376023
 30
0.0
 11
-1250.102222158195
 21
690.5129414935586
 31
0.0
  0
LINE
  5
21E
330
1F
100
AcDbEntity
  8
0-0
  6
JWW_DASHED1
 62
   120
370
     5
100
AcDbLine
 10
-1251.102222158096
 20
-474.3807964376023
 30
0.0
 11
-1251.102222158096
 21
690.265715574184
 31
0.0
  0
LINE
  5
21F
330
1F
100
AcDbEntity
  8
0-0
  6
JWW_DASHED1
 62
   120
370
     5
100
AcDbLine
 10
-1264.102222159195
 20
-474.3807964376023
 30
0.0
 11
-1264.102222159195
 21
686.7646387564823
 31
0.0
  0
LINE
  5
220
330
1F
100
AcDbEntity
  8
0-0
  6
JWW_DASHED1
 62
   120
370
     5
100
AcDbLine
 10
-1265.102222159096
 20
-474.3807964376023
 30
0.0
 11
-1265.102222159096
 21
686.4729717990999
 31
0.0
  0
LINE
  5
221
330
1F
100
AcDbEntity
  8
0-0
  6
JWW_DASHED1
 62
   120
370
     5
100
AcDbLine
 10
-1278.102222160196
 20
-474.3807964376023
 30
0.0
 11
-1278.102222160196
 21
682.3838100513935
 31
0.0
  0
LINE
  5
222
330
1F
100
AcDbEntity
  8
0-0
  6
JWW_DASHED1
 62
   120
370
     5
100
AcDbLine
 10
-1279.102222160096
 20
-474.3807964376023
 30
0.0
 11
-1279.102222160096
 21
682.0460494209842
 31
0.0
  0
LINE
  5
223
330
1F
100
AcDbEntity
  8
0-0
  6
JWW_DASHED1
 62
   120
370
     5
100
AcDbLine
 10
-1292.102222161195
 20
-474.3807964376023
 30
0.0
 11
-1292.102222161195
 21
677.3450131270843
 31
0.0
  0
LINE
  5
224
330
1F
100
AcDbEntity
  8
0-0
  6
JWW_DASHED1
 62
   120
370
     5
100
AcDbLine
 10
-1293.102222161096
 20
-474.3807964376023
 30
0.0
 11
-1293.102222161096
 21
676.959140855794
 31
0.0
  0
LINE
  5
225
330
1F
100
AcDbEntity
  8
0-0
  6
JWW_DASHED1
 62
   120
370
     5
100
AcDbLine
 10
-1306.102222162196
 20
-474.3807964376023
 30
0.0
 11
-1306.102222162196
 21
671.6172645418342
 31
0.0
  0
LINE
  5
226
330
1F
100
AcDbEntity
  8
0-0
  6
JWW_DASHED1
 62
   120
370
     5
100
AcDbLine
 10
-1307.102222162096
 20
-474.3807964376023
 30
0.0
 11
-1307.102222162096
 21
671.180828198791
 31
0.0
  0
LINE
  5
227
330
1F
100
AcDbEntity
  8
0-0
  6
JWW_DASHED1
 62
   120
370
     5
100
AcDbLine
 10
-1320.102222163195
 20
-474.3807964376023
 30
0.0
 11
-1320.102222163195
 21
665.1629297267177
 31
0.0
  0
LINE
  5
228
330
1F
100
AcDbEntity
  8
0-0
  6
JWW_DASHED1
 62
   120
370
     5
100
AcDbLine
 10
-1321.102222163096
 20
-474.3807964376023
 30
0.0
 11
-1321.102222163096
 21
664.6729500872757
 31
0.0
  0
LINE
  5
229
330
1F
100
AcDbEntity
  8
0-0
  6
JWW_DASHED1
 62
   120
370
     5
100
AcDbLine
 10
-1334.102222164196
 20
-474.3807964376023
 30
0.0
 11
-1334.102222164196
 21
657.9472735769364
 31
0.0
  0
LINE
  5
22A
330
1F
100
AcDbEntity
  8
0-0
  6
JWW_DASHED1
 62
   120
370
     5
100
AcDbLine
 10
-1335.102222164096
 20
-474.3807964376023
 30
0.0
 11
-1335.102222164096
 21
657.4245490242524
 31
0.0
  0
LINE
  5
22B
330
1F
100
AcDbEntity
  8
0-0
  6
JWW_DASHED1
 62
   120
370
     5
100
AcDbLine
 10
-1348.102222165195
 20
-474.3807964376023
 30
0.0
 11
-1348.102222165195
 21
651.4592580217491
 31
0.0
  0
LINE
  5
22C
330
1F
100
AcDbEntity
  8
0-0
  6
JWW_DASHED1
 62
   120
370
     5
100
AcDbLine
 10
-1349.102222165096
 20
-474.3807964376023
 30
0.0
 11
-1349.102222165096
 21
651.0610960669496
 31
0.0
  0
LINE
  5
22D
330
1F
100
AcDbEntity
  8
0-0
  6
JWW_DASHED1
 62
   120
370
     5
100
AcDbLine
 10
-1362.102222166195
 20
-474.3807964376023
 30
0.0
 11
-1362.102222166195
 21
646.6152487557142
 31
0.0
  0
LINE
  5
22E
330
1F
100
AcDbEntity
  8
0-0
  6
JWW_DASHED1
 62
   120
370
     5
100
AcDbLine
 10
-1363.102222166095
 20
-474.3807964376023
 30
0.0
 11
-1363.102222166095
 21
646.3274371107386
 31
0.0
  0
LINE
  5
22F
330
1F
100
AcDbEntity
  8
0-0
  6
JWW_DASHED1
 62
   120
370
     5
100
AcDbLine
 10
-1376.102222167195
 20
-474.3807964376023
 30
0.0
 11
-1376.102222167195
 21
643.2530379608929
 31
0.0
  0
LINE
  5
230
330
1F
100
AcDbEntity
  8
0-0
  6
JWW_DASHED1
 62
   120
370
     5
100
AcDbLine
 10
-1377.102222167096
 20
-474.3807964376023
 30
0.0
 11
-1377.102222167096
 21
643.0666313191418
 31
0.0
  0
LINE
  5
231
330
1F
100
AcDbEntity
  8
0-0
  6
JWW_DASHED1
 62
   120
370
     5
100
AcDbLine
 10
-1390.102222168196
 20
-474.3807964376023
 30
0.0
 11
-1390.102222168196
 21
641.2725136465256
 31
0.0
  0
LINE
  5
232
330
1F
100
AcDbEntity
  8
0-0
  6
JWW_DASHED1
 62
   120
370
     5
100
AcDbLine
 10
-1391.102222168096
 20
-474.3807964376023
 30
0.0
 11
-1391.102222168096
 21
641.1822317350548
 31
0.0
  0
LINE
  5
233
330
1F
100
AcDbEntity
  8
0-0
  6
JWW_DASHED1
 62
   120
370
     5
100
AcDbLine
 10
-1404.102222169195
 20
-474.3807964376023
 30
0.0
 11
-1404.102222169195
 21
640.6189360180892
 31
0.0
  0
LINE
  5
234
330
1F
100
AcDbEntity
  8
0-0
  6
JWW_DASHED1
 62
   120
370
     5
100
AcDbLine
 10
-1405.102222169096
 20
-474.3807964376023
 30
0.0
 11
-1405.102222169096
 21
640.6189360180892
 31
0.0
  0
LINE
  5
235
330
1F
100
AcDbEntity
  8
0-0
  6
JWW_DASHED1
 62
   120
370
     5
100
AcDbLine
 10
-1418.102222170195
 20
-474.3807964376023
 30
0.0
 11
-1418.102222170195
 21
640.6189360180892
 31
0.0
  0
LINE
  5
236
330
1F
100
AcDbEntity
  8
0-0
  6
JWW_DASHED1
 62
   120
370
     5
100
AcDbLine
 10
-1419.102222170095
 20
-474.3807964376023
 30
0.0
 11
-1419.102222170095
 21
640.6189360180892
 31
0.0
  0
LINE
  5
237
330
1F
100
AcDbEntity
  8
0-0
  6
JWW_DASHED1
 62
   120
370
     5
100
AcDbLine
 10
-1432.102222171195
 20
-474.3807964376023
 30
0.0
 11
-1432.102222171195
 21
640.6189360180892
 31
0.0
  0
LINE
  5
238
330
1F
100
AcDbEntity
  8
0-0
  6
JWW_DASHED1
 62
   120
370
     5
100
AcDbLine
 10
-1433.102222171095
 20
-474.3807964376023
 30
0.0
 11
-1433.102222171095
 21
640.6189360180892
 31
0.0
  0
LINE
  5
239
330
1F
100
AcDbEntity
  8
0-0
  6
JWW_DASHED1
 62
   120
370
     5
100
AcDbLine
 10
-1446.102222172196
 20
-474.3807964376023
 30
0.0
 11
-1446.102222172196
 21
640.6189360180892
 31
0.0
  0
LINE
  5
23A
330
1F
100
AcDbEntity
  8
0-0
  6
JWW_DASHED1
 62
   120
370
     5
100
AcDbLine
 10
-1447.102222172096
 20
-474.3807964376023
 30
0.0
 11
-1447.102222172096
 21
640.6189360180892
 31
0.0
  0
LINE
  5
23B
330
1F
100
AcDbEntity
  8
0-0
  6
JWW_DASHED1
 62
   120
370
     5
100
AcDbLine
 10
-673.1022406301275
 20
-473.3809447515459
 30
0.0
 11
-100.1022406301269
 21
-473.3809447515459
 31
0.0
  0
LINE
  5
23C
330
1F
100
AcDbEntity
  8
0-0
  6
JWW_DASHED1
 62
   120
370
     5
100
AcDbLine
 10
-673.1022406301275
 20
-460.3809447504463
 30
0.0
 11
-100.1022406301269
 21
-460.3809447504463
 31
0.0
  0
LINE
  5
23D
330
1F
100
AcDbEntity
  8
0-0
  6
JWW_DASHED1
 62
   120
370
     5
100
AcDbLine
 10
-673.1022406301275
 20
-459.3809447505461
 30
0.0
 11
-100.1022406301269
 21
-459.3809447505461
 31
0.0
  0
LINE
  5
23E
330
1F
100
AcDbEntity
  8
0-0
  6
JWW_DASHED1
 62
   120
370
     5
100
AcDbLine
 10
-673.1022406301275
 20
-446.3809447494465
 30
0.0
 11
-100.1022406301269
 21
-446.3809447494465
 31
0.0
  0
LINE
  5
23F
330
1F
100
AcDbEntity
  8
0-0
  6
JWW_DASHED1
 62
   120
370
     5
100
AcDbLine
 10
-673.1022406301275
 20
-445.3809447495463
 30
0.0
 11
-100.1022406301269
 21
-445.3809447495463
 31
0.0
  0
LINE
  5
240
330
1F
100
AcDbEntity
  8
0-0
  6
JWW_DASHED1
 62
   120
370
     5
100
AcDbLine
 10
-673.1022406301275
 20
-432.3809447484467
 30
0.0
 11
-100.1022406301269
 21
-432.3809447484467
 31
0.0
  0
LINE
  5
241
330
1F
100
AcDbEntity
  8
0-0
  6
JWW_DASHED1
 62
   120
370
     5
100
AcDbLine
 10
-673.1022406301275
 20
-431.3809447485465
 30
0.0
 11
-100.1022406301269
 21
-431.3809447485465
 31
0.0
  0
LINE
  5
242
330
1F
100
AcDbEntity
  8
0-0
  6
JWW_DASHED1
 62
   120
370
     5
100
AcDbLine
 10
-673.1022406301275
 20
-418.380944747447
 30
0.0
 11
-100.1022406301269
 21
-418.380944747447
 31
0.0
  0
LINE
  5
243
330
1F
100
AcDbEntity
  8
0-0
  6
JWW_DASHED1
 62
   120
370
     5
100
AcDbLine
 10
-673.1022406301275
 20
-417.3809447475468
 30
0.0
 11
-100.1022406301269
 21
-417.3809447475468
 31
0.0
  0
LINE
  5
244
330
1F
100
AcDbEntity
  8
0-0
  6
JWW_DASHED1
 62
   120
370
     5
100
AcDbLine
 10
-673.1022406301275
 20
-404.3809447464471
 30
0.0
 11
-100.1022406301269
 21
-404.3809447464471
 31
0.0
  0
LINE
  5
245
330
1F
100
AcDbEntity
  8
0-0
  6
JWW_DASHED1
 62
   120
370
     5
100
AcDbLine
 10
-673.1022406301275
 20
-403.380944746547
 30
0.0
 11
-100.1022406301269
 21
-403.380944746547
 31
0.0
  0
LINE
  5
246
330
1F
100
AcDbEntity
  8
0-0
  6
JWW_DASHED1
 62
   120
370
     5
100
AcDbLine
 10
-673.1022406301275
 20
-390.3809447454473
 30
0.0
 11
-100.1022406301269
 21
-390.3809447454473
 31
0.0
  0
LINE
  5
247
330
1F
100
AcDbEntity
  8
0-0
  6
JWW_DASHED1
 62
   120
370
     5
100
AcDbLine
 10
-673.1022406301275
 20
-389.3809447455471
 30
0.0
 11
-100.1022406301269
 21
-389.3809447455471
 31
0.0
  0
LINE
  5
248
330
1F
100
AcDbEntity
  8
0-0
  6
JWW_DASHED1
 62
   120
370
     5
100
AcDbLine
 10
-673.1022406301275
 20
-376.3809447444476
 30
0.0
 11
-100.1022406301269
 21
-376.3809447444476
 31
0.0
  0
LINE
  5
249
330
1F
100
AcDbEntity
  8
0-0
  6
JWW_DASHED1
 62
   120
370
     5
100
AcDbLine
 10
-673.1022406301275
 20
-375.3809447445474
 30
0.0
 11
-100.1022406301269
 21
-375.3809447445474
 31
0.0
  0
LINE
  5
24A
330
1F
100
AcDbEntity
  8
0-0
  6
JWW_DASHED1
 62
   120
370
     5
100
AcDbLine
 10
-673.1022406301275
 20
-362.3809447434478
 30
0.0
 11
-100.1022406301269
 21
-362.3809447434478
 31
0.0
  0
LINE
  5
24B
330
1F
100
AcDbEntity
  8
0-0
  6
JWW_DASHED1
 62
   120
370
     5
100
AcDbLine
 10
-673.1022406301275
 20
-361.3809447435476
 30
0.0
 11
-100.1022406301269
 21
-361.3809447435476
 31
0.0
  0
LINE
  5
24C
330
1F
100
AcDbEntity
  8
0-0
  6
JWW_DASHED1
 62
   120
370
     5
100
AcDbLine
 10
-673.1022406301275
 20
-348.380944742448
 30
0.0
 11
-100.1022406301269
 21
-348.380944742448
 31
0.0
  0
LINE
  5
24D
330
1F
100
AcDbEntity
  8
0-0
  6
JWW_DASHED1
 62
   120
370
     5
100
AcDbLine
 10
-673.1022406301275
 20
-347.3809447425478
 30
0.0
 11
-100.1022406301269
 21
-347.3809447425478
 31
0.0
  0
LINE
  5
24E
330
1F
100
AcDbEntity
  8
0-0
  6
JWW_DASHED1
 62
   120
370
     5
100
AcDbLine
 10
-673.1022406301275
 20
-334.3809447414482
 30
0.0
 11
-100.1022406301269
 21
-334.3809447414482
 31
0.0
  0
LINE
  5
24F
330
1F
100
AcDbEntity
  8
0-0
  6
JWW_DASHED1
 62
   120
370
     5
100
AcDbLine
 10
-673.1022406301275
 20
-333.380944741548
 30
0.0
 11
-100.1022406301269
 21
-333.380944741548
 31
0.0
  0
LINE
  5
250
330
1F
100
AcDbEntity
  8
0-0
  6
JWW_DASHED1
 62
   120
370
     5
100
AcDbLine
 10
-673.1022406301275
 20
-320.3809447404484
 30
0.0
 11
-100.1022406301269
 21
-320.3809447404484
 31
0.0
  0
LINE
  5
251
330
1F
100
AcDbEntity
  8
0-0
  6
JWW_DASHED1
 62
   120
370
     5
100
AcDbLine
 10
-673.1022406301275
 20
-319.3809447405482
 30
0.0
 11
-100.1022406301269
 21
-319.3809447405482
 31
0.0
  0
LINE
  5
252
330
1F
100
AcDbEntity
  8
0-0
  6
JWW_DASHED1
 62
   120
370
     5
100
AcDbLine
 10
-673.1022406301275
 20
-306.3809447394486
 30
0.0
 11
-100.1022406301269
 21
-306.3809447394486
 31
0.0
  0
LINE
  5
253
330
1F
100
AcDbEntity
  8
0-0
  6
JWW_DASHED1
 62
   120
370
     5
100
AcDbLine
 10
-673.1022406301275
 20
-305.3809447395485
 30
0.0
 11
-100.1022406301269
 21
-305.3809447395485
 31
0.0
  0
LINE
  5
254
330
1F
100
AcDbEntity
  8
0-0
  6
JWW_DASHED1
 62
   120
370
     5
100
AcDbLine
 10
-673.1022406301275
 20
-292.3809447384488
 30
0.0
 11
-100.1022406301269
 21
-292.3809447384488
 31
0.0
  0
LINE
  5
255
330
1F
100
AcDbEntity
  8
0-0
  6
JWW_DASHED1
 62
   120
370
     5
100
AcDbLine
 10
-673.1022406301275
 20
-291.3809447385486
 30
0.0
 11
-100.1022406301269
 21
-291.3809447385486
 31
0.0
  0
LINE
  5
256
330
1F
100
AcDbEntity
  8
0-0
  6
JWW_DASHED1
 62
   120
370
     5
100
AcDbLine
 10
-673.1022406301275
 20
-278.380944737449
 30
0.0
 11
-100.1022406301269
 21
-278.380944737449
 31
0.0
  0
LINE
  5
257
330
1F
100
AcDbEntity
  8
0-0
  6
JWW_DASHED1
 62
   120
370
     5
100
AcDbLine
 10
-673.1022406301275
 20
-277.3809447375488
 30
0.0
 11
-100.1022406301269
 21
-277.3809447375488
 31
0.0
  0
LINE
  5
258
330
1F
100
AcDbEntity
  8
0-0
  6
JWW_DASHED1
 62
   120
370
     5
100
AcDbLine
 10
-673.1022406301275
 20
-264.3809447364492
 30
0.0
 11
-100.1022406301269
 21
-264.3809447364492
 31
0.0
  0
LINE
  5
259
330
1F
100
AcDbEntity
  8
0-0
  6
JWW_DASHED1
 62
   120
370
     5
100
AcDbLine
 10
-673.1022406301275
 20
-263.3809447365491
 30
0.0
 11
-100.1022406301269
 21
-263.3809447365491
 31
0.0
  0
LINE
  5
25A
330
1F
100
AcDbEntity
  8
0-0
  6
JWW_DASHED1
 62
   120
370
     5
100
AcDbLine
 10
-673.1022406301275
 20
-250.3809447354494
 30
0.0
 11
-100.1022406301269
 21
-250.3809447354494
 31
0.0
  0
LINE
  5
25B
330
1F
100
AcDbEntity
  8
0-0
  6
JWW_DASHED1
 62
   120
370
     5
100
AcDbLine
 10
-673.1022406301275
 20
-249.3809447355493
 30
0.0
 11
-100.1022406301269
 21
-249.3809447355493
 31
0.0
  0
LINE
  5
25C
330
1F
100
AcDbEntity
  8
0-0
  6
JWW_DASHED1
 62
   120
370
     5
100
AcDbLine
 10
-673.1022406301275
 20
-236.3809447344497
 30
0.0
 11
-100.1022406301269
 21
-236.3809447344497
 31
0.0
  0
LINE
  5
25D
330
1F
100
AcDbEntity
  8
0-0
  6
JWW_DASHED1
 62
   120
370
     5
100
AcDbLine
 10
-673.1022406301275
 20
-235.3809447345495
 30
0.0
 11
-100.1022406301269
 21
-235.3809447345495
 31
0.0
  0
LINE
  5
25E
330
1F
100
AcDbEntity
  8
0-0
  6
JWW_DASHED1
 62
   120
370
     5
100
AcDbLine
 10
-673.1022406301275
 20
-222.3809447334499
 30
0.0
 11
-100.1022406301269
 21
-222.3809447334499
 31
0.0
  0
LINE
  5
25F
330
1F
100
AcDbEntity
  8
0-0
  6
JWW_DASHED1
 62
   120
370
     5
100
AcDbLine
 10
-673.1022406301275
 20
-221.3809447335497
 30
0.0
 11
-100.1022406301269
 21
-221.3809447335497
 31
0.0
  0
LINE
  5
260
330
1F
100
AcDbEntity
  8
0-0
  6
JWW_DASHED1
 62
   120
370
     5
100
AcDbLine
 10
-673.1022406301275
 20
-208.3809447324501
 30
0.0
 11
-100.1022406301269
 21
-208.3809447324501
 31
0.0
  0
LINE
  5
261
330
1F
100
AcDbEntity
  8
0-0
  6
JWW_DASHED1
 62
   120
370
     5
100
AcDbLine
 10
-673.1022406301275
 20
-207.3809447325499
 30
0.0
 11
-100.1022406301269
 21
-207.3809447325499
 31
0.0
  0
LINE
  5
262
330
1F
100
AcDbEntity
  8
0-0
  6
JWW_DASHED1
 62
   120
370
     5
100
AcDbLine
 10
-673.1022406301275
 20
-194.3809447314503
 30
0.0
 11
-100.1022406301269
 21
-194.3809447314503
 31
0.0
  0
LINE
  5
263
330
1F
100
AcDbEntity
  8
0-0
  6
JWW_DASHED1
 62
   120
370
     5
100
AcDbLine
 10
-673.1022406301275
 20
-193.3809447315501
 30
0.0
 11
-100.1022406301269
 21
-193.3809447315501
 31
0.0
  0
LINE
  5
264
330
1F
100
AcDbEntity
  8
0-0
  6
JWW_DASHED1
 62
   120
370
     5
100
AcDbLine
 10
-673.1022406301275
 20
-180.3809447304505
 30
0.0
 11
-100.1022406301269
 21
-180.3809447304505
 31
0.0
  0
LINE
  5
265
330
1F
100
AcDbEntity
  8
0-0
  6
JWW_DASHED1
 62
   120
370
     5
100
AcDbLine
 10
-673.1022406301275
 20
-179.3809447305503
 30
0.0
 11
-100.1022406301269
 21
-179.3809447305503
 31
0.0
  0
LINE
  5
266
330
1F
100
AcDbEntity
  8
0-0
  6
JWW_DASHED1
 62
   120
370
     5
100
AcDbLine
 10
-673.1022406301275
 20
-166.3809447294507
 30
0.0
 11
-100.1022406301269
 21
-166.3809447294507
 31
0.0
  0
LINE
  5
267
330
1F
100
AcDbEntity
  8
0-0
  6
JWW_DASHED1
 62
   120
370
     5
100
AcDbLine
 10
-673.1022406301275
 20
-165.3809447295505
 30
0.0
 11
-100.1022406301269
 21
-165.3809447295505
 31
0.0
  0
LINE
  5
268
330
1F
100
AcDbEntity
  8
0-0
  6
JWW_DASHED1
 62
   120
370
     5
100
AcDbLine
 10
-673.1022406301275
 20
-152.3809447284509
 30
0.0
 11
-100.1022406301269
 21
-152.3809447284509
 31
0.0
  0
LINE
  5
269
330
1F
100
AcDbEntity
  8
0-0
  6
JWW_DASHED1
 62
   120
370
     5
100
AcDbLine
 10
-673.1022406301275
 20
-151.3809447285507
 30
0.0
 11
-100.1022406301269
 21
-151.3809447285507
 31
0.0
  0
LINE
  5
26A
330
1F
100
AcDbEntity
  8
0-0
  6
JWW_DASHED1
 62
   120
370
     5
100
AcDbLine
 10
-673.1022406301275
 20
-138.3809447274511
 30
0.0
 11
-100.1022406301269
 21
-138.3809447274511
 31
0.0
  0
LINE
  5
26B
330
1F
100
AcDbEntity
  8
0-0
  6
JWW_DASHED1
 62
   120
370
     5
100
AcDbLine
 10
-673.1022406301275
 20
-137.3809447275509
 30
0.0
 11
-100.1022406301269
 21
-137.3809447275509
 31
0.0
  0
LINE
  5
26C
330
1F
100
AcDbEntity
  8
0-0
  6
JWW_DASHED1
 62
   120
370
     5
100
AcDbLine
 10
-673.1022406301275
 20
-124.3809447264513
 30
0.0
 11
-100.1022406301269
 21
-124.3809447264513
 31
0.0
  0
LINE
  5
26D
330
1F
100
AcDbEntity
  8
0-0
  6
JWW_DASHED1
 62
   120
370
     5
100
AcDbLine
 10
-673.1022406301275
 20
-123.3809447265511
 30
0.0
 11
-100.1022406301269
 21
-123.3809447265511
 31
0.0
  0
LINE
  5
26E
330
1F
100
AcDbEntity
  8
0-0
  6
JWW_DASHED1
 62
   120
370
     5
100
AcDbLine
 10
-673.1022406301275
 20
-110.3809447254515
 30
0.0
 11
-100.1022406301269
 21
-110.3809447254515
 31
0.0
  0
LINE
  5
26F
330
1F
100
AcDbEntity
  8
0-0
  6
JWW_DASHED1
 62
   120
370
     5
100
AcDbLine
 10
-673.1022406301275
 20
-109.3809447255514
 30
0.0
 11
-100.1022406301269
 21
-109.3809447255514
 31
0.0
  0
LINE
  5
270
330
1F
100
AcDbEntity
  8
0-0
  6
JWW_DASHED1
 62
   120
370
     5
100
AcDbLine
 10
-673.1022406301275
 20
-96.38094472445175
 30
0.0
 11
-100.1022406301269
 21
-96.38094472445175
 31
0.0
  0
LINE
  5
271
330
1F
100
AcDbEntity
  8
0-0
  6
JWW_DASHED1
 62
   120
370
     5
100
AcDbLine
 10
-673.1022406301275
 20
-95.38094472455157
 30
0.0
 11
-100.1022406301269
 21
-95.38094472455157
 31
0.0
  0
LINE
  5
272
330
1F
100
AcDbEntity
  8
0-0
  6
JWW_DASHED1
 62
   120
370
     5
100
AcDbLine
 10
-673.1022406301275
 20
-82.38094472345196
 30
0.0
 11
-100.1022406301269
 21
-82.38094472345196
 31
0.0
  0
LINE
  5
273
330
1F
100
AcDbEntity
  8
0-0
  6
JWW_DASHED1
 62
   120
370
     5
100
AcDbLine
 10
-673.1022406301275
 20
-81.38094472355178
 30
0.0
 11
-100.1022406301269
 21
-81.38094472355178
 31
0.0
  0
LINE
  5
274
330
1F
100
AcDbEntity
  8
0-0
  6
JWW_DASHED1
 62
   120
370
     5
100
AcDbLine
 10
-673.1022406301275
 20
-68.38094472245217
 30
0.0
 11
-100.1022406301269
 21
-68.38094472245217
 31
0.0
  0
LINE
  5
275
330
1F
100
AcDbEntity
  8
0-0
  6
JWW_DASHED1
 62
   120
370
     5
100
AcDbLine
 10
-673.1022406301275
 20
-67.38094472255199
 30
0.0
 11
-100.1022406301269
 21
-67.38094472255199
 31
0.0
  0
LINE
  5
276
330
1F
100
AcDbEntity
  8
0-0
  6
JWW_DASHED1
 62
   120
370
     5
100
AcDbLine
 10
-673.1022406301275
 20
-54.38094472145238
 30
0.0
 11
-100.1022406301269
 21
-54.38094472145238
 31
0.0
  0
LINE
  5
277
330
1F
100
AcDbEntity
  8
0-0
  6
JWW_DASHED1
 62
   120
370
     5
100
AcDbLine
 10
-673.1022406301275
 20
-53.3809447215522
 30
0.0
 11
-100.1022406301269
 21
-53.3809447215522
 31
0.0
  0
LINE
  5
278
330
1F
100
AcDbEntity
  8
0-0
  6
JWW_DASHED1
 62
   120
370
     5
100
AcDbLine
 10
-673.1022406301275
 20
-40.38094472045259
 30
0.0
 11
-100.1022406301269
 21
-40.38094472045259
 31
0.0
  0
LINE
  5
279
330
1F
100
AcDbEntity
  8
0-0
  6
JWW_DASHED1
 62
   120
370
     5
100
AcDbLine
 10
-673.1022406301275
 20
-39.38094472055241
 30
0.0
 11
-100.1022406301269
 21
-39.38094472055241
 31
0.0
  0
LINE
  5
27A
330
1F
100
AcDbEntity
  8
0-0
  6
JWW_DASHED1
 62
   120
370
     5
100
AcDbLine
 10
-673.1022406301275
 20
-26.3809447194528
 30
0.0
 11
-100.1022406301269
 21
-26.3809447194528
 31
0.0
  0
LINE
  5
27B
330
1F
100
AcDbEntity
  8
0-0
  6
JWW_DASHED1
 62
   120
370
     5
100
AcDbLine
 10
-673.1022406301275
 20
-25.38094471955262
 30
0.0
 11
-100.1022406301269
 21
-25.38094471955262
 31
0.0
  0
LINE
  5
27C
330
1F
100
AcDbEntity
  8
0-0
  6
JWW_DASHED1
 62
   120
370
     5
100
AcDbLine
 10
-673.1022406301275
 20
-12.38094471845301
 30
0.0
 11
-100.1022406301269
 21
-12.38094471845301
 31
0.0
  0
LINE
  5
27D
330
1F
100
AcDbEntity
  8
0-0
  6
JWW_DASHED1
 62
   120
370
     5
100
AcDbLine
 10
-673.1022406301275
 20
-11.38094471855283
 30
0.0
 11
-100.1022406301269
 21
-11.38094471855283
 31
0.0
  0
LINE
  5
27E
330
1F
100
AcDbEntity
  8
0-0
  6
JWW_DASHED1
 62
   120
370
     5
100
AcDbLine
 10
-673.1022406301275
 20
1.619055282546782
 30
0.0
 11
-100.1022406301269
 21
1.619055282546782
 31
0.0
  0
LINE
  5
27F
330
1F
100
AcDbEntity
  8
0-0
  6
JWW_DASHED1
 62
   120
370
     5
100
AcDbLine
 10
-673.1022406301275
 20
2.619055282446965
 30
0.0
 11
-100.1022406301269
 21
2.619055282446965
 31
0.0
  0
LINE
  5
280
330
1F
100
AcDbEntity
  8
0-0
  6
JWW_DASHED1
 62
   120
370
     5
100
AcDbLine
 10
-673.1022406301275
 20
15.61905528354657
 30
0.0
 11
-100.1022406301269
 21
15.61905528354657
 31
0.0
  0
LINE
  5
281
330
1F
100
AcDbEntity
  8
0-0
  6
JWW_DASHED1
 62
   120
370
     5
100
AcDbLine
 10
-673.1022406301275
 20
16.61905528344676
 30
0.0
 11
-100.1022406301269
 21
16.61905528344676
 31
0.0
  0
LINE
  5
282
330
1F
100
AcDbEntity
  8
0-0
  6
JWW_DASHED1
 62
   120
370
     5
100
AcDbLine
 10
-673.1022406301275
 20
29.61905528454636
 30
0.0
 11
-100.1022406301269
 21
29.61905528454636
 31
0.0
  0
LINE
  5
283
330
1F
100
AcDbEntity
  8
0-0
  6
JWW_DASHED1
 62
   120
370
     5
100
AcDbLine
 10
-673.1022406301275
 20
30.61905528444655
 30
0.0
 11
-100.1022406301269
 21
30.61905528444655
 31
0.0
  0
LINE
  5
284
330
1F
100
AcDbEntity
  8
0-0
  6
JWW_DASHED1
 62
   120
370
     5
100
AcDbLine
 10
-673.1022406301275
 20
43.61905528554615
 30
0.0
 11
-100.1022406301269
 21
43.61905528554615
 31
0.0
  0
LINE
  5
285
330
1F
100
AcDbEntity
  8
0-0
  6
JWW_DASHED1
 62
   120
370
     5
100
AcDbLine
 10
-673.1022406301275
 20
44.61905528544634
 30
0.0
 11
-100.1022406301269
 21
44.61905528544634
 31
0.0
  0
LINE
  5
286
330
1F
100
AcDbEntity
  8
0-0
  6
JWW_DASHED1
 62
   120
370
     5
100
AcDbLine
 10
-673.1022406301275
 20
57.61905528654594
 30
0.0
 11
-100.1022406301269
 21
57.61905528654594
 31
0.0
  0
LINE
  5
287
330
1F
100
AcDbEntity
  8
0-0
  6
JWW_DASHED1
 62
   120
370
     5
100
AcDbLine
 10
-673.1022406301275
 20
58.61905528644613
 30
0.0
 11
-100.1022406301269
 21
58.61905528644613
 31
0.0
  0
LINE
  5
288
330
1F
100
AcDbEntity
  8
0-0
  6
JWW_DASHED1
 62
   120
370
     5
100
AcDbLine
 10
-673.1022406301275
 20
71.61905528754573
 30
0.0
 11
-100.1022406301269
 21
71.61905528754573
 31
0.0
  0
LINE
  5
289
330
1F
100
AcDbEntity
  8
0-0
  6
JWW_DASHED1
 62
   120
370
     5
100
AcDbLine
 10
-673.1022406301275
 20
72.61905528744592
 30
0.0
 11
-100.1022406301269
 21
72.61905528744592
 31
0.0
  0
LINE
  5
28A
330
1F
100
AcDbEntity
  8
0-0
  6
JWW_DASHED1
 62
   120
370
     5
100
AcDbLine
 10
-673.1022406301275
 20
85.61905528854552
 30
0.0
 11
-100.1022406301269
 21
85.61905528854552
 31
0.0
  0
LINE
  5
28B
330
1F
100
AcDbEntity
  8
0-0
  6
JWW_DASHED1
 62
   120
370
     5
100
AcDbLine
 10
-673.1022406301275
 20
86.61905528844571
 30
0.0
 11
-100.1022406301269
 21
86.61905528844571
 31
0.0
  0
LINE
  5
28C
330
1F
100
AcDbEntity
  8
0-0
  6
JWW_DASHED1
 62
   120
370
     5
100
AcDbLine
 10
-673.1022406301275
 20
99.61905528954532
 30
0.0
 11
-100.1022406301269
 21
99.61905528954532
 31
0.0
  0
LINE
  5
28D
330
1F
100
AcDbEntity
  8
0-0
  6
JWW_DASHED1
 62
   120
370
     5
100
AcDbLine
 10
-673.1022406301275
 20
100.6190552894455
 30
0.0
 11
-100.1022406301269
 21
100.6190552894455
 31
0.0
  0
LINE
  5
28E
330
1F
100
AcDbEntity
  8
0-0
  6
JWW_DASHED1
 62
   120
370
     5
100
AcDbLine
 10
-673.1022406301275
 20
113.6190552905451
 30
0.0
 11
-100.1022406301269
 21
113.6190552905451
 31
0.0
  0
LINE
  5
28F
330
1F
100
AcDbEntity
  8
0-0
  6
JWW_DASHED1
 62
   120
370
     5
100
AcDbLine
 10
-673.1022406301275
 20
114.6190552904453
 30
0.0
 11
-100.1022406301269
 21
114.6190552904453
 31
0.0
  0
LINE
  5
290
330
1F
100
AcDbEntity
  8
0-0
  6
JWW_DASHED1
 62
   120
370
     5
100
AcDbLine
 10
-673.1022406301275
 20
127.6190552915449
 30
0.0
 11
-100.1022406301269
 21
127.6190552915449
 31
0.0
  0
LINE
  5
291
330
1F
100
AcDbEntity
  8
0-0
  6
JWW_DASHED1
 62
   120
370
     5
100
AcDbLine
 10
-673.1022406301275
 20
128.6190552914451
 30
0.0
 11
-100.1022406301269
 21
128.6190552914451
 31
0.0
  0
LINE
  5
292
330
1F
100
AcDbEntity
  8
0-0
  6
JWW_DASHED1
 62
   120
370
     5
100
AcDbLine
 10
-673.1022406301275
 20
141.6190552925447
 30
0.0
 11
-100.1022406301269
 21
141.6190552925447
 31
0.0
  0
LINE
  5
293
330
1F
100
AcDbEntity
  8
0-0
  6
JWW_DASHED1
 62
   120
370
     5
100
AcDbLine
 10
-673.1022406301275
 20
142.6190552924449
 30
0.0
 11
-100.1022406301269
 21
142.6190552924449
 31
0.0
  0
LINE
  5
294
330
1F
100
AcDbEntity
  8
0-0
  6
JWW_DASHED1
 62
   120
370
     5
100
AcDbLine
 10
-673.1022406301275
 20
155.6190552935445
 30
0.0
 11
-100.1022406301269
 21
155.6190552935445
 31
0.0
  0
LINE
  5
295
330
1F
100
AcDbEntity
  8
0-0
  6
JWW_DASHED1
 62
   120
370
     5
100
AcDbLine
 10
-673.1022406301275
 20
156.6190552934447
 30
0.0
 11
-100.1022406301269
 21
156.6190552934447
 31
0.0
  0
LINE
  5
296
330
1F
100
AcDbEntity
  8
0-0
  6
JWW_DASHED1
 62
   120
370
     5
100
AcDbLine
 10
-673.1022406301275
 20
169.6190552945443
 30
0.0
 11
-100.1022406301269
 21
169.6190552945443
 31
0.0
  0
LINE
  5
297
330
1F
100
AcDbEntity
  8
0-0
  6
JWW_DASHED1
 62
   120
370
     5
100
AcDbLine
 10
-673.1022406301275
 20
170.6190552944445
 30
0.0
 11
-100.1022406301269
 21
170.6190552944445
 31
0.0
  0
LINE
  5
298
330
1F
100
AcDbEntity
  8
0-0
  6
JWW_DASHED1
 62
   120
370
     5
100
AcDbLine
 10
-673.1022406301275
 20
183.6190552955441
 30
0.0
 11
-100.1022406301269
 21
183.6190552955441
 31
0.0
  0
LINE
  5
299
330
1F
100
AcDbEntity
  8
0-0
  6
JWW_DASHED1
 62
   120
370
     5
100
AcDbLine
 10
-673.1022406301275
 20
184.6190552954442
 30
0.0
 11
-100.1022406301269
 21
184.6190552954442
 31
0.0
  0
LINE
  5
29A
330
1F
100
AcDbEntity
  8
0-0
  6
JWW_DASHED1
 62
   120
370
     5
100
AcDbLine
 10
-673.1022406301275
 20
197.6190552965438
 30
0.0
 11
-100.1022406301269
 21
197.6190552965438
 31
0.0
  0
LINE
  5
29B
330
1F
100
AcDbEntity
  8
0-0
  6
JWW_DASHED1
 62
   120
370
     5
100
AcDbLine
 10
-673.1022406301275
 20
198.619055296444
 30
0.0
 11
-100.1022406301269
 21
198.619055296444
 31
0.0
  0
LINE
  5
29C
330
1F
100
AcDbEntity
  8
0-0
  6
JWW_DASHED1
 62
   120
370
     5
100
AcDbLine
 10
-673.1022406301275
 20
211.6190552975436
 30
0.0
 11
-100.1022406301269
 21
211.6190552975436
 31
0.0
  0
LINE
  5
29D
330
1F
100
AcDbEntity
  8
0-0
  6
JWW_DASHED1
 62
   120
370
     5
100
AcDbLine
 10
-673.1022406301275
 20
212.6190552974438
 30
0.0
 11
-100.1022406301269
 21
212.6190552974438
 31
0.0
  0
LINE
  5
29E
330
1F
100
AcDbEntity
  8
0-0
  6
JWW_DASHED1
 62
   120
370
     5
100
AcDbLine
 10
-673.1022406301275
 20
225.6190552985434
 30
0.0
 11
-100.1022406301269
 21
225.6190552985434
 31
0.0
  0
LINE
  5
29F
330
1F
100
AcDbEntity
  8
0-0
  6
JWW_DASHED1
 62
   120
370
     5
100
AcDbLine
 10
-673.1022406301275
 20
226.6190552984436
 30
0.0
 11
-100.1022406301269
 21
226.6190552984436
 31
0.0
  0
LINE
  5
2A0
330
1F
100
AcDbEntity
  8
0-0
  6
JWW_DASHED1
 62
   120
370
     5
100
AcDbLine
 10
-673.1022406301275
 20
239.6190552995432
 30
0.0
 11
-100.1022406301269
 21
239.6190552995432
 31
0.0
  0
LINE
  5
2A1
330
1F
100
AcDbEntity
  8
0-0
  6
JWW_DASHED1
 62
   120
370
     5
100
AcDbLine
 10
-673.1022406301275
 20
240.6190552994434
 30
0.0
 11
-100.1022406301269
 21
240.6190552994434
 31
0.0
  0
LINE
  5
2A2
330
1F
100
AcDbEntity
  8
0-0
  6
JWW_DASHED1
 62
   120
370
     5
100
AcDbLine
 10
-673.1022406301275
 20
253.619055300543
 30
0.0
 11
-100.1022406301269
 21
253.619055300543
 31
0.0
  0
LINE
  5
2A3
330
1F
100
AcDbEntity
  8
0-0
  6
JWW_DASHED1
 62
   120
370
     5
100
AcDbLine
 10
-673.1022406301275
 20
254.6190553004432
 30
0.0
 11
-100.1022406301269
 21
254.6190553004432
 31
0.0
  0
LINE
  5
2A4
330
1F
100
AcDbEntity
  8
0-0
  6
JWW_DASHED1
 62
   120
370
     5
100
AcDbLine
 10
-673.1022406301275
 20
267.6190553015428
 30
0.0
 11
-100.1022406301269
 21
267.6190553015428
 31
0.0
  0
LINE
  5
2A5
330
1F
100
AcDbEntity
  8
0-0
  6
JWW_DASHED1
 62
   120
370
     5
100
AcDbLine
 10
-673.1022406301275
 20
268.619055301443
 30
0.0
 11
-100.1022406301269
 21
268.619055301443
 31
0.0
  0
LINE
  5
2A6
330
1F
100
AcDbEntity
  8
0-0
  6
JWW_DASHED1
 62
   120
370
     5
100
AcDbLine
 10
-673.1022406301275
 20
281.6190553025426
 30
0.0
 11
-100.1022406301269
 21
281.6190553025426
 31
0.0
  0
LINE
  5
2A7
330
1F
100
AcDbEntity
  8
0-0
  6
JWW_DASHED1
 62
   120
370
     5
100
AcDbLine
 10
-673.1022406301275
 20
282.6190553024428
 30
0.0
 11
-100.1022406301269
 21
282.6190553024428
 31
0.0
  0
LINE
  5
2A8
330
1F
100
AcDbEntity
  8
0-0
  6
JWW_DASHED1
 62
   120
370
     5
100
AcDbLine
 10
-673.1022406301275
 20
295.6190553035424
 30
0.0
 11
-100.1022406301269
 21
295.6190553035424
 31
0.0
  0
LINE
  5
2A9
330
1F
100
AcDbEntity
  8
0-0
  6
JWW_DASHED1
 62
   120
370
     5
100
AcDbLine
 10
-673.1022406301275
 20
296.6190553034426
 30
0.0
 11
-100.1022406301269
 21
296.6190553034426
 31
0.0
  0
LINE
  5
2AA
330
1F
100
AcDbEntity
  8
0-0
  6
JWW_DASHED1
 62
   120
370
     5
100
AcDbLine
 10
-673.1022406301275
 20
309.6190553045421
 30
0.0
 11
-100.1022406301269
 21
309.6190553045421
 31
0.0
  0
LINE
  5
2AB
330
1F
100
AcDbEntity
  8
0-0
  6
JWW_DASHED1
 62
   120
370
     5
100
AcDbLine
 10
-673.1022406301275
 20
310.6190553044423
 30
0.0
 11
-100.1022406301269
 21
310.6190553044423
 31
0.0
  0
LINE
  5
2AC
330
1F
100
AcDbEntity
  8
0-0
  6
JWW_DASHED1
 62
   120
370
     5
100
AcDbLine
 10
-673.1022406301275
 20
323.619055305542
 30
0.0
 11
-100.1022406301269
 21
323.619055305542
 31
0.0
  0
LINE
  5
2AD
330
1F
100
AcDbEntity
  8
0-0
  6
JWW_DASHED1
 62
   120
370
     5
100
AcDbLine
 10
-673.1022406301275
 20
324.6190553054421
 30
0.0
 11
-100.1022406301269
 21
324.6190553054421
 31
0.0
  0
LINE
  5
2AE
330
1F
100
AcDbEntity
  8
0-0
  6
JWW_DASHED1
 62
   120
370
     5
100
AcDbLine
 10
-673.1022406301275
 20
337.6190553065418
 30
0.0
 11
-100.1022406301269
 21
337.6190553065418
 31
0.0
  0
LINE
  5
2AF
330
1F
100
AcDbEntity
  8
0-0
  6
JWW_DASHED1
 62
   120
370
     5
100
AcDbLine
 10
-673.1022406301275
 20
338.619055306442
 30
0.0
 11
-100.1022406301269
 21
338.619055306442
 31
0.0
  0
LINE
  5
2B0
330
1F
100
AcDbEntity
  8
0-0
  6
JWW_DASHED1
 62
   120
370
     5
100
AcDbLine
 10
-673.1022406301275
 20
351.6190553075415
 30
0.0
 11
-100.1022406301269
 21
351.6190553075415
 31
0.0
  0
LINE
  5
2B1
330
1F
100
AcDbEntity
  8
0-0
  6
JWW_DASHED1
 62
   120
370
     5
100
AcDbLine
 10
-673.1022406301275
 20
352.6190553074417
 30
0.0
 11
-100.1022406301269
 21
352.6190553074417
 31
0.0
  0
LINE
  5
2B2
330
1F
100
AcDbEntity
  8
0-0
  6
JWW_DASHED1
 62
   120
370
     5
100
AcDbLine
 10
-673.1022406301275
 20
365.6190553085413
 30
0.0
 11
-100.1022406301269
 21
365.6190553085413
 31
0.0
  0
LINE
  5
2B3
330
1F
100
AcDbEntity
  8
0-0
  6
JWW_DASHED1
 62
   120
370
     5
100
AcDbLine
 10
-673.1022406301275
 20
366.6190553084415
 30
0.0
 11
-100.1022406301269
 21
366.6190553084415
 31
0.0
  0
LINE
  5
2B4
330
1F
100
AcDbEntity
  8
0-0
  6
JWW_DASHED1
 62
   120
370
     5
100
AcDbLine
 10
-673.1022406301275
 20
379.6190553095411
 30
0.0
 11
-100.1022406301269
 21
379.6190553095411
 31
0.0
  0
LINE
  5
2B5
330
1F
100
AcDbEntity
  8
0-0
  6
JWW_DASHED1
 62
   120
370
     5
100
AcDbLine
 10
-673.1022406301275
 20
380.6190553094413
 30
0.0
 11
-100.1022406301269
 21
380.6190553094413
 31
0.0
  0
LINE
  5
2B6
330
1F
100
AcDbEntity
  8
0-0
  6
JWW_DASHED1
 62
   120
370
     5
100
AcDbLine
 10
-673.1022406301275
 20
393.6190553105409
 30
0.0
 11
-100.1022406301269
 21
393.6190553105409
 31
0.0
  0
LINE
  5
2B7
330
1F
100
AcDbEntity
  8
0-0
  6
JWW_DASHED1
 62
   120
370
     5
100
AcDbLine
 10
-673.1022406301275
 20
394.6190553104411
 30
0.0
 11
-100.1022406301269
 21
394.6190553104411
 31
0.0
  0
LINE
  5
2B8
330
1F
100
AcDbEntity
  8
0-0
  6
JWW_DASHED1
 62
   120
370
     5
100
AcDbLine
 10
-673.1022406301275
 20
407.6190553115407
 30
0.0
 11
-100.1022406301269
 21
407.6190553115407
 31
0.0
  0
LINE
  5
2B9
330
1F
100
AcDbEntity
  8
0-0
  6
JWW_DASHED1
 62
   120
370
     5
100
AcDbLine
 10
-673.1022406301275
 20
408.6190553114409
 30
0.0
 11
-100.1022406301269
 21
408.6190553114409
 31
0.0
  0
LINE
  5
2BA
330
1F
100
AcDbEntity
  8
0-0
  6
JWW_DASHED1
 62
   120
370
     5
100
AcDbLine
 10
-673.1022406301275
 20
421.6190553125405
 30
0.0
 11
-100.1022406301269
 21
421.6190553125405
 31
0.0
  0
LINE
  5
2BB
330
1F
100
AcDbEntity
  8
0-0
  6
JWW_DASHED1
 62
   120
370
     5
100
AcDbLine
 10
-673.1022406301275
 20
422.6190553124407
 30
0.0
 11
-100.1022406301269
 21
422.6190553124407
 31
0.0
  0
LINE
  5
2BC
330
1F
100
AcDbEntity
  8
0-0
  6
JWW_DASHED1
 62
   120
370
     5
100
AcDbLine
 10
-673.1022406301275
 20
435.6190553135403
 30
0.0
 11
-100.1022406301269
 21
435.6190553135403
 31
0.0
  0
LINE
  5
2BD
330
1F
100
AcDbEntity
  8
0-0
  6
JWW_DASHED1
 62
   120
370
     5
100
AcDbLine
 10
-673.1022406301275
 20
436.6190553134405
 30
0.0
 11
-100.1022406301269
 21
436.6190553134405
 31
0.0
  0
LINE
  5
2BE
330
1F
100
AcDbEntity
  8
0-0
  6
JWW_DASHED1
 62
   120
370
     5
100
AcDbLine
 10
-673.1022406301275
 20
449.6190553145401
 30
0.0
 11
-100.1022406301269
 21
449.6190553145401
 31
0.0
  0
LINE
  5
2BF
330
1F
100
AcDbEntity
  8
0-0
  6
JWW_DASHED1
 62
   120
370
     5
100
AcDbLine
 10
-673.1022406301275
 20
450.6190553144403
 30
0.0
 11
-100.1022406301269
 21
450.6190553144403
 31
0.0
  0
LINE
  5
2C0
330
1F
100
AcDbEntity
  8
0-0
  6
JWW_DASHED1
 62
   120
370
     5
100
AcDbLine
 10
-673.1022406301275
 20
463.6190553155399
 30
0.0
 11
-100.1022406301269
 21
463.6190553155399
 31
0.0
  0
LINE
  5
2C1
330
1F
100
AcDbEntity
  8
0-0
  6
JWW_DASHED1
 62
   120
370
     5
100
AcDbLine
 10
-673.1022406301275
 20
464.6190553154401
 30
0.0
 11
-100.1022406301269
 21
464.6190553154401
 31
0.0
  0
LINE
  5
2C2
330
1F
100
AcDbEntity
  8
0-0
  6
JWW_DASHED1
 62
   120
370
     5
100
AcDbLine
 10
-673.1022406301275
 20
477.6190553165396
 30
0.0
 11
-100.1022406301269
 21
477.6190553165396
 31
0.0
  0
LINE
  5
2C3
330
1F
100
AcDbEntity
  8
0-0
  6
JWW_DASHED1
 62
   120
370
     5
100
AcDbLine
 10
-673.1022406301275
 20
478.6190553164398
 30
0.0
 11
-100.1022406301269
 21
478.6190553164398
 31
0.0
  0
LINE
  5
2C4
330
1F
100
AcDbEntity
  8
0-0
  6
JWW_DASHED1
 62
   120
370
     5
100
AcDbLine
 10
-673.1022406301275
 20
491.6190553175394
 30
0.0
 11
-100.1022406301269
 21
491.6190553175394
 31
0.0
  0
LINE
  5
2C5
330
1F
100
AcDbEntity
  8
0-0
  6
JWW_DASHED1
 62
   120
370
     5
100
AcDbLine
 10
-673.1022406301275
 20
492.6190553174396
 30
0.0
 11
-100.1022406301269
 21
492.6190553174396
 31
0.0
  0
LINE
  5
2C6
330
1F
100
AcDbEntity
  8
0-0
  6
JWW_DASHED1
 62
   120
370
     5
100
AcDbLine
 10
-673.1022406301275
 20
505.6190553185393
 30
0.0
 11
-100.1022406301269
 21
505.6190553185393
 31
0.0
  0
LINE
  5
2C7
330
1F
100
AcDbEntity
  8
0-0
  6
JWW_DASHED1
 62
   120
370
     5
100
AcDbLine
 10
-673.1022406301275
 20
506.6190553184395
 30
0.0
 11
-100.1022406301269
 21
506.6190553184395
 31
0.0
  0
LINE
  5
2C8
330
1F
100
AcDbEntity
  8
0-0
  6
JWW_DASHED1
 62
   120
370
     5
100
AcDbLine
 10
-673.1022406301275
 20
519.619055319539
 30
0.0
 11
-100.1022406301269
 21
519.619055319539
 31
0.0
  0
LINE
  5
2C9
330
1F
100
AcDbEntity
  8
0-0
  6
JWW_DASHED1
 62
   120
370
     5
100
AcDbLine
 10
-673.1022406301275
 20
520.6190553194392
 30
0.0
 11
-100.1022406301269
 21
520.6190553194392
 31
0.0
  0
LINE
  5
2CA
330
1F
100
AcDbEntity
  8
0-0
  6
JWW_DASHED1
 62
   120
370
     5
100
AcDbLine
 10
-673.1022406301275
 20
533.6190553205388
 30
0.0
 11
-100.1022406301269
 21
533.6190553205388
 31
0.0
  0
LINE
  5
2CB
330
1F
100
AcDbEntity
  8
0-0
  6
JWW_DASHED1
 62
   120
370
     5
100
AcDbLine
 10
-673.1022406301275
 20
534.619055320439
 30
0.0
 11
-100.1022406301269
 21
534.619055320439
 31
0.0
  0
LINE
  5
2CC
330
1F
100
AcDbEntity
  8
0-0
  6
JWW_DASHED1
 62
   120
370
     5
100
AcDbLine
 10
-673.1022406301275
 20
547.6190553215386
 30
0.0
 11
-100.1022406301269
 21
547.6190553215386
 31
0.0
  0
LINE
  5
2CD
330
1F
100
AcDbEntity
  8
0-0
  6
JWW_DASHED1
 62
   120
370
     5
100
AcDbLine
 10
-673.1022406301275
 20
548.6190553214387
 30
0.0
 11
-100.1022406301269
 21
548.6190553214387
 31
0.0
  0
LINE
  5
2CE
330
1F
100
AcDbEntity
  8
0-0
  6
JWW_DASHED1
 62
   120
370
     5
100
AcDbLine
 10
-673.1022406301275
 20
561.6190553225384
 30
0.0
 11
-100.1022406301269
 21
561.6190553225384
 31
0.0
  0
LINE
  5
2CF
330
1F
100
AcDbEntity
  8
0-0
  6
JWW_DASHED1
 62
   120
370
     5
100
AcDbLine
 10
-673.1022406301275
 20
562.6190553224386
 30
0.0
 11
-100.1022406301269
 21
562.6190553224386
 31
0.0
  0
LINE
  5
2D0
330
1F
100
AcDbEntity
  8
0-0
  6
JWW_DASHED1
 62
   120
370
     5
100
AcDbLine
 10
-673.1022406301275
 20
575.6190553235382
 30
0.0
 11
-100.1022406301269
 21
575.6190553235382
 31
0.0
  0
LINE
  5
2D1
330
1F
100
AcDbEntity
  8
0-0
  6
JWW_DASHED1
 62
   120
370
     5
100
AcDbLine
 10
-673.1022406301275
 20
576.6190553234384
 30
0.0
 11
-100.1022406301269
 21
576.6190553234384
 31
0.0
  0
LINE
  5
2D2
330
1F
100
AcDbEntity
  8
0-0
  6
JWW_DASHED1
 62
   120
370
     5
100
AcDbLine
 10
-673.1022406301275
 20
589.619055324538
 30
0.0
 11
-100.1022406301269
 21
589.619055324538
 31
0.0
  0
LINE
  5
2D3
330
1F
100
AcDbEntity
  8
0-0
  6
JWW_DASHED1
 62
   120
370
     5
100
AcDbLine
 10
-673.1022406301275
 20
590.6190553244381
 30
0.0
 11
-100.1022406301269
 21
590.6190553244381
 31
0.0
  0
LINE
  5
2D4
330
1F
100
AcDbEntity
  8
0-0
  6
JWW_DASHED1
 62
   120
370
     5
100
AcDbLine
 10
-673.1022406301275
 20
603.6190553255378
 30
0.0
 11
-100.1022406301269
 21
603.6190553255378
 31
0.0
  0
LINE
  5
2D5
330
1F
100
AcDbEntity
  8
0-0
  6
JWW_DASHED1
 62
   120
370
     5
100
AcDbLine
 10
-673.1022406301275
 20
604.619055325438
 30
0.0
 11
-100.1022406301269
 21
604.619055325438
 31
0.0
  0
LINE
  5
2D6
330
1F
100
AcDbEntity
  8
0-0
  6
JWW_DASHED1
 62
   120
370
     5
100
AcDbLine
 10
-673.1022406301275
 20
617.6190553265376
 30
0.0
 11
-100.1022406301269
 21
617.6190553265376
 31
0.0
  0
LINE
  5
2D7
330
1F
100
AcDbEntity
  8
0-0
  6
JWW_DASHED1
 62
   120
370
     5
100
AcDbLine
 10
-673.1022406301275
 20
618.6190553264378
 30
0.0
 11
-100.1022406301269
 21
618.6190553264378
 31
0.0
  0
LINE
  5
2D8
330
1F
100
AcDbEntity
  8
0-0
  6
JWW_DASHED1
 62
   120
370
     5
100
AcDbLine
 10
-673.1022406301275
 20
631.6190553275374
 30
0.0
 11
-100.1022406301269
 21
631.6190553275374
 31
0.0
  0
LINE
  5
2D9
330
1F
100
AcDbEntity
  8
0-0
  6
JWW_DASHED1
 62
   120
370
     5
100
AcDbLine
 10
-673.1022406301275
 20
632.6190553274375
 30
0.0
 11
-100.1022406301269
 21
632.6190553274375
 31
0.0
  0
LINE
  5
2DA
330
1F
100
AcDbEntity
  8
0-0
  6
JWW_DASHED1
 62
   120
370
     5
100
AcDbLine
 10
-585.6833988681642
 20
645.6190553285371
 30
0.0
 11
-187.5210823920911
 21
645.6190553285371
 31
0.0
  0
LINE
  5
2DB
330
1F
100
AcDbEntity
  8
0-0
  6
JWW_DASHED1
 62
   120
370
     5
100
AcDbLine
 10
-582.0891689968043
 20
646.6190553284373
 30
0.0
 11
-191.1153122634509
 21
646.6190553284373
 31
0.0
  0
LINE
  5
2DC
330
1F
100
AcDbEntity
  8
0-0
  6
JWW_DASHED1
 62
   120
370
     5
100
AcDbLine
 10
-550.9770915285485
 20
659.6190553295369
 30
0.0
 11
-222.2273897317068
 21
659.6190553295369
 31
0.0
  0
LINE
  5
2DD
330
1F
100
AcDbEntity
  8
0-0
  6
JWW_DASHED1
 62
   120
370
     5
100
AcDbLine
 10
-549.0832915388823
 20
660.6190553294371
 30
0.0
 11
-224.1211897213729
 21
660.6190553294371
 31
0.0
  0
LINE
  5
2DE
330
1F
100
AcDbEntity
  8
0-0
  6
JWW_DASHED1
 62
   120
370
     5
100
AcDbLine
 10
-521.4024474465627
 20
673.6190553305368
 30
0.0
 11
-251.8020338136925
 21
673.6190553305368
 31
0.0
  0
LINE
  5
2DF
330
1F
100
AcDbEntity
  8
0-0
  6
JWW_DASHED1
 62
   120
370
     5
100
AcDbLine
 10
-518.9808493789865
 20
674.6190553304369
 30
0.0
 11
-254.2236318812688
 21
674.6190553304369
 31
0.0
  0
LINE
  5
2E0
330
1F
100
AcDbEntity
  8
0-0
  6
JWW_DASHED1
 62
   120
370
     5
100
AcDbLine
 10
-481.1067373886185
 20
687.6190553315365
 30
0.0
 11
-292.0977438716368
 21
687.6190553315365
 31
0.0
  0
LINE
  5
2E1
330
1F
100
AcDbEntity
  8
0-0
  6
JWW_DASHED1
 62
   120
370
     5
100
AcDbLine
 10
-477.4653255662456
 20
688.6190553314367
 30
0.0
 11
-295.7391556940097
 21
688.6190553314367
 31
0.0
  0
LINE
  5
2E2
330
1F
100
AcDbEntity
  8
0-0
  6
JWW_DASHED1
 62
   120
370
     5
100
AcDbLine
 10
-106.1022221321954
 20
-474.3807964376023
 30
0.0
 11
-106.1022221321954
 21
640.6189360180892
 31
0.0
  0
LINE
  5
2E3
330
1F
100
AcDbEntity
  8
0-0
  6
JWW_DASHED1
 62
   120
370
     5
100
AcDbLine
 10
-107.1022221320956
 20
-474.3807964376023
 30
0.0
 11
-107.1022221320956
 21
640.6189360180892
 31
0.0
  0
LINE
  5
2E4
330
1F
100
AcDbEntity
  8
0-0
  6
JWW_DASHED1
 62
   120
370
     5
100
AcDbLine
 10
-120.1022221331957
 20
-474.3807964376023
 30
0.0
 11
-120.1022221331957
 21
640.6189360180892
 31
0.0
  0
LINE
  5
2E5
330
1F
100
AcDbEntity
  8
0-0
  6
JWW_DASHED1
 62
   120
370
     5
100
AcDbLine
 10
-121.1022221330954
 20
-474.3807964376023
 30
0.0
 11
-121.1022221330954
 21
640.6189360180892
 31
0.0
  0
LINE
  5
2E6
330
1F
100
AcDbEntity
  8
0-0
  6
JWW_DASHED1
 62
   120
370
     5
100
AcDbLine
 10
-134.1022221341954
 20
-474.3807964376023
 30
0.0
 11
-134.1022221341954
 21
640.6189360180892
 31
0.0
  0
LINE
  5
2E7
330
1F
100
AcDbEntity
  8
0-0
  6
JWW_DASHED1
 62
   120
370
     5
100
AcDbLine
 10
-135.1022221340956
 20
-474.3807964376023
 30
0.0
 11
-135.1022221340952
 21
640.6189360180892
 31
0.0
  0
LINE
  5
2E8
330
1F
100
AcDbEntity
  8
0-0
  6
JWW_DASHED1
 62
   120
370
     5
100
AcDbLine
 10
-148.1022221351957
 20
-474.3807964376023
 30
0.0
 11
-148.1022221351952
 21
640.6189360180892
 31
0.0
  0
LINE
  5
2E9
330
1F
100
AcDbEntity
  8
0-0
  6
JWW_DASHED1
 62
   120
370
     5
100
AcDbLine
 10
-149.1022221350954
 20
-474.3807964376023
 30
0.0
 11
-149.1022221350954
 21
640.6189360180892
 31
0.0
  0
LINE
  5
2EA
330
1F
100
AcDbEntity
  8
0-0
  6
JWW_DASHED1
 62
   120
370
     5
100
AcDbLine
 10
-162.1022221361955
 20
-474.3807964376023
 30
0.0
 11
-162.1022221361955
 21
641.1822285233015
 31
0.0
  0
LINE
  5
2EB
330
1F
100
AcDbEntity
  8
0-0
  6
JWW_DASHED1
 62
   120
370
     5
100
AcDbLine
 10
-163.1022221360956
 20
-474.3807964376023
 30
0.0
 11
-163.1022221360956
 21
641.2725101853343
 31
0.0
  0
LINE
  5
2EC
330
1F
100
AcDbEntity
  8
0-0
  6
JWW_DASHED1
 62
   120
370
     5
100
AcDbLine
 10
-176.1022221371957
 20
-474.3807964376023
 30
0.0
 11
-176.1022221371957
 21
643.0666245598682
 31
0.0
  0
LINE
  5
2ED
330
1F
100
AcDbEntity
  8
0-0
  6
JWW_DASHED1
 62
   120
370
     5
100
AcDbLine
 10
-177.1022221370954
 20
-474.3807964376023
 30
0.0
 11
-177.1022221370954
 21
643.2530309423041
 31
0.0
  0
LINE
  5
2EE
330
1F
100
AcDbEntity
  8
0-0
  6
JWW_DASHED1
 62
   120
370
     5
100
AcDbLine
 10
-190.1022221381955
 20
-474.3807964376023
 30
0.0
 11
-190.1022221381955
 21
646.3274266130597
 31
0.0
  0
LINE
  5
2EF
330
1F
100
AcDbEntity
  8
0-0
  6
JWW_DASHED1
 62
   120
370
     5
100
AcDbLine
 10
-191.1022221380956
 20
-474.3807964376023
 30
0.0
 11
-191.1022221380952
 21
646.6152379804394
 31
0.0
  0
LINE
  5
2F0
330
1F
100
AcDbEntity
  8
0-0
  6
JWW_DASHED1
 62
   120
370
     5
100
AcDbLine
 10
-204.1022221391957
 20
-474.3807964376023
 30
0.0
 11
-204.1022221391952
 21
651.0610815059031
 31
0.0
  0
LINE
  5
2F1
330
1F
100
AcDbEntity
  8
0-0
  6
JWW_DASHED1
 62
   120
370
     5
100
AcDbLine
 10
-205.1022221390954
 20
-474.3807964376023
 30
0.0
 11
-205.1022221390954
 21
651.4592431534206
 31
0.0
  0
LINE
  5
2F2
330
1F
100
AcDbEntity
  8
0-0
  6
JWW_DASHED1
 62
   120
370
     5
100
AcDbLine
 10
-218.1022221401955
 20
-474.3807964376023
 30
0.0
 11
-218.1022221401955
 21
657.4245298830633
 31
0.0
  0
LINE
  5
2F3
330
1F
100
AcDbEntity
  8
0-0
  6
JWW_DASHED1
 62
   120
370
     5
100
AcDbLine
 10
-219.1022221400956
 20
-474.3807964376023
 30
0.0
 11
-219.1022221400956
 21
657.9472540818629
 31
0.0
  0
LINE
  5
2F4
330
1F
100
AcDbEntity
  8
0-0
  6
JWW_DASHED1
 62
   120
370
     5
100
AcDbLine
 10
-232.1022221411953
 20
-474.3807964376023
 30
0.0
 11
-232.1022221411953
 21
664.6729319066221
 31
0.0
  0
LINE
  5
2F5
330
1F
100
AcDbEntity
  8
0-0
  6
JWW_DASHED1
 62
   120
370
     5
100
AcDbLine
 10
-233.1022221410954
 20
-474.3807964376023
 30
0.0
 11
-233.1022221410954
 21
665.1629116919289
 31
0.0
  0
LINE
  5
2F6
330
1F
100
AcDbEntity
  8
0-0
  6
JWW_DASHED1
 62
   120
370
     5
100
AcDbLine
 10
-246.102222142195
 20
-474.3807964376023
 30
0.0
 11
-246.102222142195
 21
671.1808120012543
 31
0.0
  0
LINE
  5
2F7
330
1F
100
AcDbEntity
  8
0-0
  6
JWW_DASHED1
 62
   120
370
     5
100
AcDbLine
 10
-247.1022221420952
 20
-474.3807964376023
 30
0.0
 11
-247.1022221420952
 21
671.617248481431
 31
0.0
  0
LINE
  5
2F8
330
1F
100
AcDbEntity
  8
0-0
  6
JWW_DASHED1
 62
   120
370
     5
100
AcDbLine
 10
-260.1022221431953
 20
-474.3807964376023
 30
0.0
 11
-260.1022221431953
 21
676.9591265304884
 31
0.0
  0
LINE
  5
2F9
330
1F
100
AcDbEntity
  8
0-0
  6
JWW_DASHED1
 62
   120
370
     5
100
AcDbLine
 10
-261.1022221430954
 20
-474.3807964376023
 30
0.0
 11
-261.1022221430954
 21
677.3449989317637
 31
0.0
  0
LINE
  5
2FA
330
1F
100
AcDbEntity
  8
0-0
  6
JWW_DASHED1
 62
   120
370
     5
100
AcDbLine
 10
-274.1022221441955
 20
-474.3807964376023
 30
0.0
 11
-274.1022221441955
 21
682.0460368765603
 31
0.0
  0
LINE
  5
2FB
330
1F
100
AcDbEntity
  8
0-0
  6
JWW_DASHED1
 62
   120
370
     5
100
AcDbLine
 10
-275.1022221440957
 20
-474.3807964376023
 30
0.0
 11
-275.1022221440957
 21
682.3837976311702
 31
0.0
  0
LINE
  5
2FC
330
1F
100
AcDbEntity
  8
0-0
  6
JWW_DASHED1
 62
   120
370
     5
100
AcDbLine
 10
-288.1022221451952
 20
-474.3807964376023
 30
0.0
 11
-288.1022221451952
 21
686.4729609605788
 31
0.0
  0
LINE
  5
2FD
330
1F
100
AcDbEntity
  8
0-0
  6
JWW_DASHED1
 62
   120
370
     5
100
AcDbLine
 10
-289.1022221450954
 20
-474.3807964376023
 30
0.0
 11
-289.1022221450954
 21
686.7646280373051
 31
0.0
  0
LINE
  5
2FE
330
1F
100
AcDbEntity
  8
0-0
  6
JWW_DASHED1
 62
   120
370
     5
100
AcDbLine
 10
-302.1022221461951
 20
-474.3807964376023
 30
0.0
 11
-302.1022221461951
 21
690.2657063799566
 31
0.0
  0
LINE
  5
2FF
330
1F
100
AcDbEntity
  8
0-0
  6
JWW_DASHED1
 62
   120
370
     5
100
AcDbLine
 10
-303.1022221460952
 20
-474.3807964376023
 30
0.0
 11
-303.1022221460952
 21
690.512932414746
 31
0.0
  0
LINE
  5
300
330
1F
100
AcDbEntity
  8
0-0
  6
JWW_DASHED1
 62
   120
370
     5
100
AcDbLine
 10
-316.1022221471953
 20
-474.3807964376023
 30
0.0
 11
-316.1022221471953
 21
693.4453218700733
 31
0.0
  0
LINE
  5
301
330
1F
100
AcDbEntity
  8
0-0
  6
JWW_DASHED1
 62
   120
370
     5
100
AcDbLine
 10
-317.1022221470955
 20
-474.3807964376023
 30
0.0
 11
-317.1022221470955
 21
693.6494462974374
 31
0.0
  0
LINE
  5
302
330
1F
100
AcDbEntity
  8
0-0
  6
JWW_DASHED1
 62
   120
370
     5
100
AcDbLine
 10
-330.1022221481955
 20
-474.3807964376023
 30
0.0
 11
-330.1022221481955
 21
696.0287400716666
 31
0.0
  0
LINE
  5
303
330
1F
100
AcDbEntity
  8
0-0
  6
JWW_DASHED1
 62
   120
370
     5
100
AcDbLine
 10
-331.1022221480957
 20
-474.3807964376023
 30
0.0
 11
-331.1022221480957
 21
696.1908284804454
 31
0.0
  0
LINE
  5
304
330
1F
100
AcDbEntity
  8
0-0
  6
JWW_DASHED1
 62
   120
370
     5
100
AcDbLine
 10
-344.1022221491953
 20
-474.3807964376023
 30
0.0
 11
-344.1022221491953
 21
698.0292616049487
 31
0.0
  0
LINE
  5
305
330
1F
100
AcDbEntity
  8
0-0
  6
JWW_DASHED1
 62
   120
370
     5
100
AcDbLine
 10
-345.1022221490955
 20
-474.3807964376023
 30
0.0
 11
-345.1022221490955
 21
698.1501352304408
 31
0.0
  0
LINE
  5
306
330
1F
100
AcDbEntity
  8
0-0
  6
JWW_DASHED1
 62
   120
370
     5
100
AcDbLine
 10
-358.1022221501951
 20
-474.3807964376023
 30
0.0
 11
-358.1022221501951
 21
699.4569150367138
 31
0.0
  0
LINE
  5
307
330
1F
100
AcDbEntity
  8
0-0
  6
JWW_DASHED1
 62
   120
370
     5
100
AcDbLine
 10
-359.1022221500953
 20
-474.3807964376023
 30
0.0
 11
-359.1022221500953
 21
699.5371724083602
 31
0.0
  0
LINE
  5
308
330
1F
100
AcDbEntity
  8
0-0
  6
JWW_DASHED1
 62
   120
370
     5
100
AcDbLine
 10
-372.1022221511953
 20
-474.3807964376023
 30
0.0
 11
-372.1022221511953
 21
700.3187166648754
 31
0.0
  0
LINE
  5
309
330
1F
100
AcDbEntity
  8
0-0
  6
JWW_DASHED1
 62
   120
370
     5
100
AcDbLine
 10
-373.1022221510955
 20
-474.3807964376023
 30
0.0
 11
-373.1022221510955
 21
700.358748797204
 31
0.0
  0
LINE
  5
30A
330
1F
100
AcDbEntity
  8
0-0
  6
JWW_DASHED1
 62
   120
370
     5
100
AcDbLine
 10
-386.1022221521955
 20
-474.3807964376023
 30
0.0
 11
-386.1022221521955
 21
700.6188463929507
 31
0.0
  0
LINE
  5
30B
330
1F
100
AcDbEntity
  8
0-0
  6
JWW_DASHED1
 62
   120
370
     5
100
AcDbLine
 10
-387.1022221520957
 20
-474.3807964376023
 30
0.0
 11
-387.1022221520957
 21
700.6188464457741
 31
0.0
  0
LINE
  5
30C
330
1F
100
AcDbEntity
  8
0-0
  6
JWW_DASHED1
 62
   120
370
     5
100
AcDbLine
 10
-400.1022221531953
 20
-474.3807964376023
 30
0.0
 11
-400.1022221531953
 21
700.3587502237101
 31
0.0
  0
LINE
  5
30D
330
1F
100
AcDbEntity
  8
0-0
  6
JWW_DASHED1
 62
   120
370
     5
100
AcDbLine
 10
-401.1022221530955
 20
-474.3807964376023
 30
0.0
 11
-401.1022221530955
 21
700.3187181972467
 31
0.0
  0
LINE
  5
30E
330
1F
100
AcDbEntity
  8
0-0
  6
JWW_DASHED1
 62
   120
370
     5
100
AcDbLine
 10
-414.1022221541951
 20
-474.3807964376023
 30
0.0
 11
-414.1022221541951
 21
699.5371753210716
 31
0.0
  0
LINE
  5
30F
330
1F
100
AcDbEntity
  8
0-0
  6
JWW_DASHED1
 62
   120
370
     5
100
AcDbLine
 10
-415.1022221540953
 20
-474.3807964376023
 30
0.0
 11
-415.1022221540953
 21
699.4569180559997
 31
0.0
  0
LINE
  5
310
330
1F
100
AcDbEntity
  8
0-0
  6
JWW_DASHED1
 62
   120
370
     5
100
AcDbLine
 10
-428.1022221551953
 20
-474.3807964376023
 30
0.0
 11
-428.1022221551953
 21
698.150139643491
 31
0.0
  0
LINE
  5
311
330
1F
100
AcDbEntity
  8
0-0
  6
JWW_DASHED1
 62
   120
370
     5
100
AcDbLine
 10
-429.1022221550955
 20
-474.3807964376023
 30
0.0
 11
-429.1022221550955
 21
698.0292661258832
 31
0.0
  0
LINE
  5
312
330
1F
100
AcDbEntity
  8
0-0
  6
JWW_DASHED1
 62
   120
370
     5
100
AcDbLine
 10
-442.1022221561955
 20
-474.3807964376023
 30
0.0
 11
-442.1022221561955
 21
696.1908344157168
 31
0.0
  0
LINE
  5
313
330
1F
100
AcDbEntity
  8
0-0
  6
JWW_DASHED1
 62
   120
370
     5
100
AcDbLine
 10
-443.1022221560957
 20
-474.3807964376023
 30
0.0
 11
-443.1022221560957
 21
696.0287461166777
 31
0.0
  0
LINE
  5
314
330
1F
100
AcDbEntity
  8
0-0
  6
JWW_DASHED1
 62
   120
370
     5
100
AcDbLine
 10
-456.1022221571953
 20
-474.3807964376023
 30
0.0
 11
-456.1022221571953
 21
693.6494537849435
 31
0.0
  0
LINE
  5
315
330
1F
100
AcDbEntity
  8
0-0
  6
JWW_DASHED1
 62
   120
370
     5
100
AcDbLine
 10
-457.1022221570955
 20
-474.3807964376023
 30
0.0
 11
-457.1022221570955
 21
693.4453294698292
 31
0.0
  0
LINE
  5
316
330
1F
100
AcDbEntity
  8
0-0
  6
JWW_DASHED1
 62
   120
370
     5
100
AcDbLine
 10
-470.1022221581956
 20
-474.3807964376023
 30
0.0
 11
-470.1022221581956
 21
690.5129414935586
 31
0.0
  0
LINE
  5
317
330
1F
100
AcDbEntity
  8
0-0
  6
JWW_DASHED1
 62
   120
370
     5
100
AcDbLine
 10
-471.1022221580957
 20
-474.3807964376023
 30
0.0
 11
-471.1022221580957
 21
690.265715574184
 31
0.0
  0
LINE
  5
318
330
1F
100
AcDbEntity
  8
0-0
  6
JWW_DASHED1
 62
   120
370
     5
100
AcDbLine
 10
-484.1022221591953
 20
-474.3807964376023
 30
0.0
 11
-484.1022221591953
 21
686.7646387564823
 31
0.0
  0
LINE
  5
319
330
1F
100
AcDbEntity
  8
0-0
  6
JWW_DASHED1
 62
   120
370
     5
100
AcDbLine
 10
-485.1022221590955
 20
-474.3807964376023
 30
0.0
 11
-485.1022221590955
 21
686.4729717990999
 31
0.0
  0
LINE
  5
31A
330
1F
100
AcDbEntity
  8
0-0
  6
JWW_DASHED1
 62
   120
370
     5
100
AcDbLine
 10
-498.1022221601955
 20
-474.3807964376023
 30
0.0
 11
-498.1022221601955
 21
682.3838100513935
 31
0.0
  0
LINE
  5
31B
330
1F
100
AcDbEntity
  8
0-0
  6
JWW_DASHED1
 62
   120
370
     5
100
AcDbLine
 10
-499.1022221600957
 20
-474.3807964376023
 30
0.0
 11
-499.1022221600957
 21
682.0460494209842
 31
0.0
  0
LINE
  5
31C
330
1F
100
AcDbEntity
  8
0-0
  6
JWW_DASHED1
 62
   120
370
     5
100
AcDbLine
 10
-512.1022221611953
 20
-474.3807964376023
 30
0.0
 11
-512.1022221611953
 21
677.3450131270843
 31
0.0
  0
LINE
  5
31D
330
1F
100
AcDbEntity
  8
0-0
  6
JWW_DASHED1
 62
   120
370
     5
100
AcDbLine
 10
-513.1022221610955
 20
-474.3807964376023
 30
0.0
 11
-513.1022221610955
 21
676.959140855794
 31
0.0
  0
LINE
  5
31E
330
1F
100
AcDbEntity
  8
0-0
  6
JWW_DASHED1
 62
   120
370
     5
100
AcDbLine
 10
-526.1022221621955
 20
-474.3807964376023
 30
0.0
 11
-526.1022221621955
 21
671.6172645418342
 31
0.0
  0
LINE
  5
31F
330
1F
100
AcDbEntity
  8
0-0
  6
JWW_DASHED1
 62
   120
370
     5
100
AcDbLine
 10
-527.1022221620957
 20
-474.3807964376023
 30
0.0
 11
-527.1022221620957
 21
671.180828198791
 31
0.0
  0
LINE
  5
320
330
1F
100
AcDbEntity
  8
0-0
  6
JWW_DASHED1
 62
   120
370
     5
100
AcDbLine
 10
-540.1022221631954
 20
-474.3807964376023
 30
0.0
 11
-540.1022221631954
 21
665.1629297267177
 31
0.0
  0
LINE
  5
321
330
1F
100
AcDbEntity
  8
0-0
  6
JWW_DASHED1
 62
   120
370
     5
100
AcDbLine
 10
-541.1022221630956
 20
-474.3807964376023
 30
0.0
 11
-541.1022221630956
 21
664.6729500872757
 31
0.0
  0
LINE
  5
322
330
1F
100
AcDbEntity
  8
0-0
  6
JWW_DASHED1
 62
   120
370
     5
100
AcDbLine
 10
-554.1022221641956
 20
-474.3807964376023
 30
0.0
 11
-554.1022221641956
 21
657.9472735769364
 31
0.0
  0
LINE
  5
323
330
1F
100
AcDbEntity
  8
0-0
  6
JWW_DASHED1
 62
   120
370
     5
100
AcDbLine
 10
-555.1022221640958
 20
-474.3807964376023
 30
0.0
 11
-555.1022221640958
 21
657.4245490242524
 31
0.0
  0
LINE
  5
324
330
1F
100
AcDbEntity
  8
0-0
  6
JWW_DASHED1
 62
   120
370
     5
100
AcDbLine
 10
-568.1022221651954
 20
-474.3807964376023
 30
0.0
 11
-568.1022221651954
 21
651.4592580217491
 31
0.0
  0
LINE
  5
325
330
1F
100
AcDbEntity
  8
0-0
  6
JWW_DASHED1
 62
   120
370
     5
100
AcDbLine
 10
-569.1022221650956
 20
-474.3807964376023
 30
0.0
 11
-569.1022221650956
 21
651.0610960669496
 31
0.0
  0
LINE
  5
326
330
1F
100
AcDbEntity
  8
0-0
  6
JWW_DASHED1
 62
   120
370
     5
100
AcDbLine
 10
-582.1022221661951
 20
-474.3807964376023
 30
0.0
 11
-582.1022221661951
 21
646.6152487557142
 31
0.0
  0
LINE
  5
327
330
1F
100
AcDbEntity
  8
0-0
  6
JWW_DASHED1
 62
   120
370
     5
100
AcDbLine
 10
-583.1022221660953
 20
-474.3807964376023
 30
0.0
 11
-583.1022221660953
 21
646.3274371107386
 31
0.0
  0
LINE
  5
328
330
1F
100
AcDbEntity
  8
0-0
  6
JWW_DASHED1
 62
   120
370
     5
100
AcDbLine
 10
-596.1022221671954
 20
-474.3807964376023
 30
0.0
 11
-596.1022221671954
 21
643.2530379608929
 31
0.0
  0
LINE
  5
329
330
1F
100
AcDbEntity
  8
0-0
  6
JWW_DASHED1
 62
   120
370
     5
100
AcDbLine
 10
-597.1022221670955
 20
-474.3807964376023
 30
0.0
 11
-597.1022221670955
 21
643.0666313191418
 31
0.0
  0
LINE
  5
32A
330
1F
100
AcDbEntity
  8
0-0
  6
JWW_DASHED1
 62
   120
370
     5
100
AcDbLine
 10
-610.1022221681956
 20
-474.3807964376023
 30
0.0
 11
-610.1022221681956
 21
641.2725136465256
 31
0.0
  0
LINE
  5
32B
330
1F
100
AcDbEntity
  8
0-0
  6
JWW_DASHED1
 62
   120
370
     5
100
AcDbLine
 10
-611.1022221680958
 20
-474.3807964376023
 30
0.0
 11
-611.1022221680958
 21
641.1822317350548
 31
0.0
  0
LINE
  5
32C
330
1F
100
AcDbEntity
  8
0-0
  6
JWW_DASHED1
 62
   120
370
     5
100
AcDbLine
 10
-624.1022221691953
 20
-474.3807964376023
 30
0.0
 11
-624.1022221691953
 21
640.6189360180892
 31
0.0
  0
LINE
  5
32D
330
1F
100
AcDbEntity
  8
0-0
  6
JWW_DASHED1
 62
   120
370
     5
100
AcDbLine
 10
-625.1022221690955
 20
-474.3807964376023
 30
0.0
 11
-625.1022221690955
 21
640.6189360180892
 31
0.0
  0
LINE
  5
32E
330
1F
100
AcDbEntity
  8
0-0
  6
JWW_DASHED1
 62
   120
370
     5
100
AcDbLine
 10
-638.1022221701951
 20
-474.3807964376023
 30
0.0
 11
-638.1022221701951
 21
640.6189360180892
 31
0.0
  0
LINE
  5
32F
330
1F
100
AcDbEntity
  8
0-0
  6
JWW_DASHED1
 62
   120
370
     5
100
AcDbLine
 10
-639.1022221700953
 20
-474.3807964376023
 30
0.0
 11
-639.1022221700953
 21
640.6189360180892
 31
0.0
  0
LINE
  5
330
330
1F
100
AcDbEntity
  8
0-0
  6
JWW_DASHED1
 62
   120
370
     5
100
AcDbLine
 10
-652.1022221711953
 20
-474.3807964376023
 30
0.0
 11
-652.1022221711953
 21
640.6189360180892
 31
0.0
  0
LINE
  5
331
330
1F
100
AcDbEntity
  8
0-0
  6
JWW_DASHED1
 62
   120
370
     5
100
AcDbLine
 10
-653.1022221710955
 20
-474.3807964376023
 30
0.0
 11
-653.1022221710955
 21
640.6189360180892
 31
0.0
  0
LINE
  5
332
330
1F
100
AcDbEntity
  8
0-0
  6
JWW_DASHED1
 62
   120
370
     5
100
AcDbLine
 10
-666.1022221721955
 20
-474.3807964376023
 30
0.0
 11
-666.1022221721955
 21
640.6189360180892
 31
0.0
  0
LINE
  5
333
330
1F
100
AcDbEntity
  8
0-0
  6
JWW_DASHED1
 62
   120
370
     5
100
AcDbLine
 10
-667.1022221720957
 20
-474.3807964376023
 30
0.0
 11
-667.1022221720957
 21
640.6189360180892
 31
0.0
  0
LINE
  5
334
330
1F
100
AcDbEntity
  8
0-0
  6
JWW_DASHED1
 62
   120
370
     5
100
AcDbLine
 10
136.8977593698725
 20
-473.3809447515459
 30
0.0
 11
709.8977593698731
 21
-473.3809447515459
 31
0.0
  0
LINE
  5
335
330
1F
100
AcDbEntity
  8
0-0
  6
JWW_DASHED1
 62
   120
370
     5
100
AcDbLine
 10
136.8977593698725
 20
-460.3809447504463
 30
0.0
 11
709.8977593698731
 21
-460.3809447504463
 31
0.0
  0
LINE
  5
336
330
1F
100
AcDbEntity
  8
0-0
  6
JWW_DASHED1
 62
   120
370
     5
100
AcDbLine
 10
136.8977593698725
 20
-459.3809447505461
 30
0.0
 11
709.8977593698731
 21
-459.3809447505461
 31
0.0
  0
LINE
  5
337
330
1F
100
AcDbEntity
  8
0-0
  6
JWW_DASHED1
 62
   120
370
     5
100
AcDbLine
 10
136.8977593698725
 20
-446.3809447494465
 30
0.0
 11
709.8977593698731
 21
-446.3809447494465
 31
0.0
  0
LINE
  5
338
330
1F
100
AcDbEntity
  8
0-0
  6
JWW_DASHED1
 62
   120
370
     5
100
AcDbLine
 10
136.8977593698725
 20
-445.3809447495463
 30
0.0
 11
709.8977593698731
 21
-445.3809447495463
 31
0.0
  0
LINE
  5
339
330
1F
100
AcDbEntity
  8
0-0
  6
JWW_DASHED1
 62
   120
370
     5
100
AcDbLine
 10
136.8977593698725
 20
-432.3809447484467
 30
0.0
 11
709.8977593698731
 21
-432.3809447484467
 31
0.0
  0
LINE
  5
33A
330
1F
100
AcDbEntity
  8
0-0
  6
JWW_DASHED1
 62
   120
370
     5
100
AcDbLine
 10
136.8977593698725
 20
-431.3809447485465
 30
0.0
 11
709.8977593698731
 21
-431.3809447485465
 31
0.0
  0
LINE
  5
33B
330
1F
100
AcDbEntity
  8
0-0
  6
JWW_DASHED1
 62
   120
370
     5
100
AcDbLine
 10
136.8977593698725
 20
-418.380944747447
 30
0.0
 11
709.8977593698731
 21
-418.380944747447
 31
0.0
  0
LINE
  5
33C
330
1F
100
AcDbEntity
  8
0-0
  6
JWW_DASHED1
 62
   120
370
     5
100
AcDbLine
 10
136.8977593698725
 20
-417.3809447475468
 30
0.0
 11
709.8977593698731
 21
-417.3809447475468
 31
0.0
  0
LINE
  5
33D
330
1F
100
AcDbEntity
  8
0-0
  6
JWW_DASHED1
 62
   120
370
     5
100
AcDbLine
 10
136.8977593698725
 20
-404.3809447464471
 30
0.0
 11
709.8977593698731
 21
-404.3809447464471
 31
0.0
  0
LINE
  5
33E
330
1F
100
AcDbEntity
  8
0-0
  6
JWW_DASHED1
 62
   120
370
     5
100
AcDbLine
 10
136.8977593698725
 20
-403.380944746547
 30
0.0
 11
709.8977593698731
 21
-403.380944746547
 31
0.0
  0
LINE
  5
33F
330
1F
100
AcDbEntity
  8
0-0
  6
JWW_DASHED1
 62
   120
370
     5
100
AcDbLine
 10
136.8977593698725
 20
-390.3809447454473
 30
0.0
 11
709.8977593698731
 21
-390.3809447454473
 31
0.0
  0
LINE
  5
340
330
1F
100
AcDbEntity
  8
0-0
  6
JWW_DASHED1
 62
   120
370
     5
100
AcDbLine
 10
136.8977593698725
 20
-389.3809447455471
 30
0.0
 11
709.8977593698731
 21
-389.3809447455471
 31
0.0
  0
LINE
  5
341
330
1F
100
AcDbEntity
  8
0-0
  6
JWW_DASHED1
 62
   120
370
     5
100
AcDbLine
 10
136.8977593698725
 20
-376.3809447444476
 30
0.0
 11
709.8977593698731
 21
-376.3809447444476
 31
0.0
  0
LINE
  5
342
330
1F
100
AcDbEntity
  8
0-0
  6
JWW_DASHED1
 62
   120
370
     5
100
AcDbLine
 10
136.8977593698725
 20
-375.3809447445474
 30
0.0
 11
709.8977593698731
 21
-375.3809447445474
 31
0.0
  0
LINE
  5
343
330
1F
100
AcDbEntity
  8
0-0
  6
JWW_DASHED1
 62
   120
370
     5
100
AcDbLine
 10
136.8977593698725
 20
-362.3809447434478
 30
0.0
 11
709.8977593698731
 21
-362.3809447434478
 31
0.0
  0
LINE
  5
344
330
1F
100
AcDbEntity
  8
0-0
  6
JWW_DASHED1
 62
   120
370
     5
100
AcDbLine
 10
136.8977593698725
 20
-361.3809447435476
 30
0.0
 11
709.8977593698731
 21
-361.3809447435476
 31
0.0
  0
LINE
  5
345
330
1F
100
AcDbEntity
  8
0-0
  6
JWW_DASHED1
 62
   120
370
     5
100
AcDbLine
 10
136.8977593698725
 20
-348.380944742448
 30
0.0
 11
709.8977593698731
 21
-348.380944742448
 31
0.0
  0
LINE
  5
346
330
1F
100
AcDbEntity
  8
0-0
  6
JWW_DASHED1
 62
   120
370
     5
100
AcDbLine
 10
136.8977593698725
 20
-347.3809447425478
 30
0.0
 11
709.8977593698731
 21
-347.3809447425478
 31
0.0
  0
LINE
  5
347
330
1F
100
AcDbEntity
  8
0-0
  6
JWW_DASHED1
 62
   120
370
     5
100
AcDbLine
 10
136.8977593698725
 20
-334.3809447414482
 30
0.0
 11
709.8977593698731
 21
-334.3809447414482
 31
0.0
  0
LINE
  5
348
330
1F
100
AcDbEntity
  8
0-0
  6
JWW_DASHED1
 62
   120
370
     5
100
AcDbLine
 10
136.8977593698725
 20
-333.380944741548
 30
0.0
 11
709.8977593698731
 21
-333.380944741548
 31
0.0
  0
LINE
  5
349
330
1F
100
AcDbEntity
  8
0-0
  6
JWW_DASHED1
 62
   120
370
     5
100
AcDbLine
 10
136.8977593698725
 20
-320.3809447404484
 30
0.0
 11
709.8977593698731
 21
-320.3809447404484
 31
0.0
  0
LINE
  5
34A
330
1F
100
AcDbEntity
  8
0-0
  6
JWW_DASHED1
 62
   120
370
     5
100
AcDbLine
 10
136.8977593698725
 20
-319.3809447405482
 30
0.0
 11
709.8977593698731
 21
-319.3809447405482
 31
0.0
  0
LINE
  5
34B
330
1F
100
AcDbEntity
  8
0-0
  6
JWW_DASHED1
 62
   120
370
     5
100
AcDbLine
 10
136.8977593698725
 20
-306.3809447394486
 30
0.0
 11
709.8977593698731
 21
-306.3809447394486
 31
0.0
  0
LINE
  5
34C
330
1F
100
AcDbEntity
  8
0-0
  6
JWW_DASHED1
 62
   120
370
     5
100
AcDbLine
 10
136.8977593698725
 20
-305.3809447395485
 30
0.0
 11
709.8977593698731
 21
-305.3809447395485
 31
0.0
  0
LINE
  5
34D
330
1F
100
AcDbEntity
  8
0-0
  6
JWW_DASHED1
 62
   120
370
     5
100
AcDbLine
 10
136.8977593698725
 20
-292.3809447384488
 30
0.0
 11
709.8977593698731
 21
-292.3809447384488
 31
0.0
  0
LINE
  5
34E
330
1F
100
AcDbEntity
  8
0-0
  6
JWW_DASHED1
 62
   120
370
     5
100
AcDbLine
 10
136.8977593698725
 20
-291.3809447385486
 30
0.0
 11
709.8977593698731
 21
-291.3809447385486
 31
0.0
  0
LINE
  5
34F
330
1F
100
AcDbEntity
  8
0-0
  6
JWW_DASHED1
 62
   120
370
     5
100
AcDbLine
 10
136.8977593698725
 20
-278.380944737449
 30
0.0
 11
709.8977593698731
 21
-278.380944737449
 31
0.0
  0
LINE
  5
350
330
1F
100
AcDbEntity
  8
0-0
  6
JWW_DASHED1
 62
   120
370
     5
100
AcDbLine
 10
136.8977593698725
 20
-277.3809447375488
 30
0.0
 11
709.8977593698731
 21
-277.3809447375488
 31
0.0
  0
LINE
  5
351
330
1F
100
AcDbEntity
  8
0-0
  6
JWW_DASHED1
 62
   120
370
     5
100
AcDbLine
 10
136.8977593698725
 20
-264.3809447364492
 30
0.0
 11
709.8977593698731
 21
-264.3809447364492
 31
0.0
  0
LINE
  5
352
330
1F
100
AcDbEntity
  8
0-0
  6
JWW_DASHED1
 62
   120
370
     5
100
AcDbLine
 10
136.8977593698725
 20
-263.3809447365491
 30
0.0
 11
709.8977593698731
 21
-263.3809447365491
 31
0.0
  0
LINE
  5
353
330
1F
100
AcDbEntity
  8
0-0
  6
JWW_DASHED1
 62
   120
370
     5
100
AcDbLine
 10
136.8977593698725
 20
-250.3809447354494
 30
0.0
 11
709.8977593698731
 21
-250.3809447354494
 31
0.0
  0
LINE
  5
354
330
1F
100
AcDbEntity
  8
0-0
  6
JWW_DASHED1
 62
   120
370
     5
100
AcDbLine
 10
136.8977593698725
 20
-249.3809447355493
 30
0.0
 11
709.8977593698731
 21
-249.3809447355493
 31
0.0
  0
LINE
  5
355
330
1F
100
AcDbEntity
  8
0-0
  6
JWW_DASHED1
 62
   120
370
     5
100
AcDbLine
 10
136.8977593698725
 20
-236.3809447344497
 30
0.0
 11
709.8977593698731
 21
-236.3809447344497
 31
0.0
  0
LINE
  5
356
330
1F
100
AcDbEntity
  8
0-0
  6
JWW_DASHED1
 62
   120
370
     5
100
AcDbLine
 10
136.8977593698725
 20
-235.3809447345495
 30
0.0
 11
709.8977593698731
 21
-235.3809447345495
 31
0.0
  0
LINE
  5
357
330
1F
100
AcDbEntity
  8
0-0
  6
JWW_DASHED1
 62
   120
370
     5
100
AcDbLine
 10
136.8977593698725
 20
-222.3809447334499
 30
0.0
 11
709.8977593698731
 21
-222.3809447334499
 31
0.0
  0
LINE
  5
358
330
1F
100
AcDbEntity
  8
0-0
  6
JWW_DASHED1
 62
   120
370
     5
100
AcDbLine
 10
136.8977593698725
 20
-221.3809447335497
 30
0.0
 11
709.8977593698731
 21
-221.3809447335497
 31
0.0
  0
LINE
  5
359
330
1F
100
AcDbEntity
  8
0-0
  6
JWW_DASHED1
 62
   120
370
     5
100
AcDbLine
 10
136.8977593698725
 20
-208.3809447324501
 30
0.0
 11
709.8977593698731
 21
-208.3809447324501
 31
0.0
  0
LINE
  5
35A
330
1F
100
AcDbEntity
  8
0-0
  6
JWW_DASHED1
 62
   120
370
     5
100
AcDbLine
 10
136.8977593698725
 20
-207.3809447325499
 30
0.0
 11
709.8977593698731
 21
-207.3809447325499
 31
0.0
  0
LINE
  5
35B
330
1F
100
AcDbEntity
  8
0-0
  6
JWW_DASHED1
 62
   120
370
     5
100
AcDbLine
 10
136.8977593698725
 20
-194.3809447314503
 30
0.0
 11
709.8977593698731
 21
-194.3809447314503
 31
0.0
  0
LINE
  5
35C
330
1F
100
AcDbEntity
  8
0-0
  6
JWW_DASHED1
 62
   120
370
     5
100
AcDbLine
 10
136.8977593698725
 20
-193.3809447315501
 30
0.0
 11
709.8977593698731
 21
-193.3809447315501
 31
0.0
  0
LINE
  5
35D
330
1F
100
AcDbEntity
  8
0-0
  6
JWW_DASHED1
 62
   120
370
     5
100
AcDbLine
 10
136.8977593698725
 20
-180.3809447304505
 30
0.0
 11
709.8977593698731
 21
-180.3809447304505
 31
0.0
  0
LINE
  5
35E
330
1F
100
AcDbEntity
  8
0-0
  6
JWW_DASHED1
 62
   120
370
     5
100
AcDbLine
 10
136.8977593698725
 20
-179.3809447305503
 30
0.0
 11
709.8977593698731
 21
-179.3809447305503
 31
0.0
  0
LINE
  5
35F
330
1F
100
AcDbEntity
  8
0-0
  6
JWW_DASHED1
 62
   120
370
     5
100
AcDbLine
 10
136.8977593698725
 20
-166.3809447294507
 30
0.0
 11
709.8977593698731
 21
-166.3809447294507
 31
0.0
  0
LINE
  5
360
330
1F
100
AcDbEntity
  8
0-0
  6
JWW_DASHED1
 62
   120
370
     5
100
AcDbLine
 10
136.8977593698725
 20
-165.3809447295505
 30
0.0
 11
709.8977593698731
 21
-165.3809447295505
 31
0.0
  0
LINE
  5
361
330
1F
100
AcDbEntity
  8
0-0
  6
JWW_DASHED1
 62
   120
370
     5
100
AcDbLine
 10
136.8977593698725
 20
-152.3809447284509
 30
0.0
 11
709.8977593698731
 21
-152.3809447284509
 31
0.0
  0
LINE
  5
362
330
1F
100
AcDbEntity
  8
0-0
  6
JWW_DASHED1
 62
   120
370
     5
100
AcDbLine
 10
136.8977593698725
 20
-151.3809447285507
 30
0.0
 11
709.8977593698731
 21
-151.3809447285507
 31
0.0
  0
LINE
  5
363
330
1F
100
AcDbEntity
  8
0-0
  6
JWW_DASHED1
 62
   120
370
     5
100
AcDbLine
 10
136.8977593698725
 20
-138.3809447274511
 30
0.0
 11
709.8977593698731
 21
-138.3809447274511
 31
0.0
  0
LINE
  5
364
330
1F
100
AcDbEntity
  8
0-0
  6
JWW_DASHED1
 62
   120
370
     5
100
AcDbLine
 10
136.8977593698725
 20
-137.3809447275509
 30
0.0
 11
709.8977593698731
 21
-137.3809447275509
 31
0.0
  0
LINE
  5
365
330
1F
100
AcDbEntity
  8
0-0
  6
JWW_DASHED1
 62
   120
370
     5
100
AcDbLine
 10
136.8977593698725
 20
-124.3809447264513
 30
0.0
 11
709.8977593698731
 21
-124.3809447264513
 31
0.0
  0
LINE
  5
366
330
1F
100
AcDbEntity
  8
0-0
  6
JWW_DASHED1
 62
   120
370
     5
100
AcDbLine
 10
136.8977593698725
 20
-123.3809447265511
 30
0.0
 11
709.8977593698731
 21
-123.3809447265511
 31
0.0
  0
LINE
  5
367
330
1F
100
AcDbEntity
  8
0-0
  6
JWW_DASHED1
 62
   120
370
     5
100
AcDbLine
 10
136.8977593698725
 20
-110.3809447254515
 30
0.0
 11
709.8977593698731
 21
-110.3809447254515
 31
0.0
  0
LINE
  5
368
330
1F
100
AcDbEntity
  8
0-0
  6
JWW_DASHED1
 62
   120
370
     5
100
AcDbLine
 10
136.8977593698725
 20
-109.3809447255514
 30
0.0
 11
709.8977593698731
 21
-109.3809447255514
 31
0.0
  0
LINE
  5
369
330
1F
100
AcDbEntity
  8
0-0
  6
JWW_DASHED1
 62
   120
370
     5
100
AcDbLine
 10
136.8977593698725
 20
-96.38094472445175
 30
0.0
 11
709.8977593698731
 21
-96.38094472445175
 31
0.0
  0
LINE
  5
36A
330
1F
100
AcDbEntity
  8
0-0
  6
JWW_DASHED1
 62
   120
370
     5
100
AcDbLine
 10
136.8977593698725
 20
-95.38094472455157
 30
0.0
 11
709.8977593698731
 21
-95.38094472455157
 31
0.0
  0
LINE
  5
36B
330
1F
100
AcDbEntity
  8
0-0
  6
JWW_DASHED1
 62
   120
370
     5
100
AcDbLine
 10
136.8977593698725
 20
-82.38094472345196
 30
0.0
 11
709.8977593698731
 21
-82.38094472345196
 31
0.0
  0
LINE
  5
36C
330
1F
100
AcDbEntity
  8
0-0
  6
JWW_DASHED1
 62
   120
370
     5
100
AcDbLine
 10
136.8977593698725
 20
-81.38094472355178
 30
0.0
 11
709.8977593698731
 21
-81.38094472355178
 31
0.0
  0
LINE
  5
36D
330
1F
100
AcDbEntity
  8
0-0
  6
JWW_DASHED1
 62
   120
370
     5
100
AcDbLine
 10
136.8977593698725
 20
-68.38094472245217
 30
0.0
 11
709.8977593698731
 21
-68.38094472245217
 31
0.0
  0
LINE
  5
36E
330
1F
100
AcDbEntity
  8
0-0
  6
JWW_DASHED1
 62
   120
370
     5
100
AcDbLine
 10
136.8977593698725
 20
-67.38094472255199
 30
0.0
 11
709.8977593698731
 21
-67.38094472255199
 31
0.0
  0
LINE
  5
36F
330
1F
100
AcDbEntity
  8
0-0
  6
JWW_DASHED1
 62
   120
370
     5
100
AcDbLine
 10
136.8977593698725
 20
-54.38094472145238
 30
0.0
 11
709.8977593698731
 21
-54.38094472145238
 31
0.0
  0
LINE
  5
370
330
1F
100
AcDbEntity
  8
0-0
  6
JWW_DASHED1
 62
   120
370
     5
100
AcDbLine
 10
136.8977593698725
 20
-53.3809447215522
 30
0.0
 11
709.8977593698731
 21
-53.3809447215522
 31
0.0
  0
LINE
  5
371
330
1F
100
AcDbEntity
  8
0-0
  6
JWW_DASHED1
 62
   120
370
     5
100
AcDbLine
 10
136.8977593698725
 20
-40.38094472045259
 30
0.0
 11
709.8977593698731
 21
-40.38094472045259
 31
0.0
  0
LINE
  5
372
330
1F
100
AcDbEntity
  8
0-0
  6
JWW_DASHED1
 62
   120
370
     5
100
AcDbLine
 10
136.8977593698725
 20
-39.38094472055241
 30
0.0
 11
709.8977593698731
 21
-39.38094472055241
 31
0.0
  0
LINE
  5
373
330
1F
100
AcDbEntity
  8
0-0
  6
JWW_DASHED1
 62
   120
370
     5
100
AcDbLine
 10
136.8977593698725
 20
-26.3809447194528
 30
0.0
 11
709.8977593698731
 21
-26.3809447194528
 31
0.0
  0
LINE
  5
374
330
1F
100
AcDbEntity
  8
0-0
  6
JWW_DASHED1
 62
   120
370
     5
100
AcDbLine
 10
136.8977593698725
 20
-25.38094471955262
 30
0.0
 11
709.8977593698731
 21
-25.38094471955262
 31
0.0
  0
LINE
  5
375
330
1F
100
AcDbEntity
  8
0-0
  6
JWW_DASHED1
 62
   120
370
     5
100
AcDbLine
 10
136.8977593698725
 20
-12.38094471845301
 30
0.0
 11
709.8977593698731
 21
-12.38094471845301
 31
0.0
  0
LINE
  5
376
330
1F
100
AcDbEntity
  8
0-0
  6
JWW_DASHED1
 62
   120
370
     5
100
AcDbLine
 10
136.8977593698725
 20
-11.38094471855283
 30
0.0
 11
709.8977593698731
 21
-11.38094471855283
 31
0.0
  0
LINE
  5
377
330
1F
100
AcDbEntity
  8
0-0
  6
JWW_DASHED1
 62
   120
370
     5
100
AcDbLine
 10
136.8977593698725
 20
1.619055282546782
 30
0.0
 11
709.8977593698731
 21
1.619055282546782
 31
0.0
  0
LINE
  5
378
330
1F
100
AcDbEntity
  8
0-0
  6
JWW_DASHED1
 62
   120
370
     5
100
AcDbLine
 10
136.8977593698725
 20
2.619055282446965
 30
0.0
 11
709.8977593698731
 21
2.619055282446965
 31
0.0
  0
LINE
  5
379
330
1F
100
AcDbEntity
  8
0-0
  6
JWW_DASHED1
 62
   120
370
     5
100
AcDbLine
 10
136.8977593698725
 20
15.61905528354657
 30
0.0
 11
709.8977593698731
 21
15.61905528354657
 31
0.0
  0
LINE
  5
37A
330
1F
100
AcDbEntity
  8
0-0
  6
JWW_DASHED1
 62
   120
370
     5
100
AcDbLine
 10
136.8977593698725
 20
16.61905528344676
 30
0.0
 11
709.8977593698731
 21
16.61905528344676
 31
0.0
  0
LINE
  5
37B
330
1F
100
AcDbEntity
  8
0-0
  6
JWW_DASHED1
 62
   120
370
     5
100
AcDbLine
 10
136.8977593698725
 20
29.61905528454636
 30
0.0
 11
709.8977593698731
 21
29.61905528454636
 31
0.0
  0
LINE
  5
37C
330
1F
100
AcDbEntity
  8
0-0
  6
JWW_DASHED1
 62
   120
370
     5
100
AcDbLine
 10
136.8977593698725
 20
30.61905528444655
 30
0.0
 11
709.8977593698731
 21
30.61905528444655
 31
0.0
  0
LINE
  5
37D
330
1F
100
AcDbEntity
  8
0-0
  6
JWW_DASHED1
 62
   120
370
     5
100
AcDbLine
 10
136.8977593698725
 20
43.61905528554615
 30
0.0
 11
709.8977593698731
 21
43.61905528554615
 31
0.0
  0
LINE
  5
37E
330
1F
100
AcDbEntity
  8
0-0
  6
JWW_DASHED1
 62
   120
370
     5
100
AcDbLine
 10
136.8977593698725
 20
44.61905528544634
 30
0.0
 11
709.8977593698731
 21
44.61905528544634
 31
0.0
  0
LINE
  5
37F
330
1F
100
AcDbEntity
  8
0-0
  6
JWW_DASHED1
 62
   120
370
     5
100
AcDbLine
 10
136.8977593698725
 20
57.61905528654594
 30
0.0
 11
709.8977593698731
 21
57.61905528654594
 31
0.0
  0
LINE
  5
380
330
1F
100
AcDbEntity
  8
0-0
  6
JWW_DASHED1
 62
   120
370
     5
100
AcDbLine
 10
136.8977593698725
 20
58.61905528644613
 30
0.0
 11
709.8977593698731
 21
58.61905528644613
 31
0.0
  0
LINE
  5
381
330
1F
100
AcDbEntity
  8
0-0
  6
JWW_DASHED1
 62
   120
370
     5
100
AcDbLine
 10
136.8977593698725
 20
71.61905528754573
 30
0.0
 11
709.8977593698731
 21
71.61905528754573
 31
0.0
  0
LINE
  5
382
330
1F
100
AcDbEntity
  8
0-0
  6
JWW_DASHED1
 62
   120
370
     5
100
AcDbLine
 10
136.8977593698725
 20
72.61905528744592
 30
0.0
 11
709.8977593698731
 21
72.61905528744592
 31
0.0
  0
LINE
  5
383
330
1F
100
AcDbEntity
  8
0-0
  6
JWW_DASHED1
 62
   120
370
     5
100
AcDbLine
 10
136.8977593698725
 20
85.61905528854552
 30
0.0
 11
709.8977593698731
 21
85.61905528854552
 31
0.0
  0
LINE
  5
384
330
1F
100
AcDbEntity
  8
0-0
  6
JWW_DASHED1
 62
   120
370
     5
100
AcDbLine
 10
136.8977593698725
 20
86.61905528844571
 30
0.0
 11
709.8977593698731
 21
86.61905528844571
 31
0.0
  0
LINE
  5
385
330
1F
100
AcDbEntity
  8
0-0
  6
JWW_DASHED1
 62
   120
370
     5
100
AcDbLine
 10
136.8977593698725
 20
99.61905528954532
 30
0.0
 11
709.8977593698731
 21
99.61905528954532
 31
0.0
  0
LINE
  5
386
330
1F
100
AcDbEntity
  8
0-0
  6
JWW_DASHED1
 62
   120
370
     5
100
AcDbLine
 10
136.8977593698725
 20
100.6190552894455
 30
0.0
 11
709.8977593698731
 21
100.6190552894455
 31
0.0
  0
LINE
  5
387
330
1F
100
AcDbEntity
  8
0-0
  6
JWW_DASHED1
 62
   120
370
     5
100
AcDbLine
 10
136.8977593698725
 20
113.6190552905451
 30
0.0
 11
709.8977593698731
 21
113.6190552905451
 31
0.0
  0
LINE
  5
388
330
1F
100
AcDbEntity
  8
0-0
  6
JWW_DASHED1
 62
   120
370
     5
100
AcDbLine
 10
136.8977593698725
 20
114.6190552904453
 30
0.0
 11
709.8977593698731
 21
114.6190552904453
 31
0.0
  0
LINE
  5
389
330
1F
100
AcDbEntity
  8
0-0
  6
JWW_DASHED1
 62
   120
370
     5
100
AcDbLine
 10
136.8977593698725
 20
127.6190552915449
 30
0.0
 11
709.8977593698731
 21
127.6190552915449
 31
0.0
  0
LINE
  5
38A
330
1F
100
AcDbEntity
  8
0-0
  6
JWW_DASHED1
 62
   120
370
     5
100
AcDbLine
 10
136.8977593698725
 20
128.6190552914451
 30
0.0
 11
709.8977593698731
 21
128.6190552914451
 31
0.0
  0
LINE
  5
38B
330
1F
100
AcDbEntity
  8
0-0
  6
JWW_DASHED1
 62
   120
370
     5
100
AcDbLine
 10
136.8977593698725
 20
141.6190552925447
 30
0.0
 11
709.8977593698731
 21
141.6190552925447
 31
0.0
  0
LINE
  5
38C
330
1F
100
AcDbEntity
  8
0-0
  6
JWW_DASHED1
 62
   120
370
     5
100
AcDbLine
 10
136.8977593698725
 20
142.6190552924449
 30
0.0
 11
709.8977593698731
 21
142.6190552924449
 31
0.0
  0
LINE
  5
38D
330
1F
100
AcDbEntity
  8
0-0
  6
JWW_DASHED1
 62
   120
370
     5
100
AcDbLine
 10
136.8977593698725
 20
155.6190552935445
 30
0.0
 11
709.8977593698731
 21
155.6190552935445
 31
0.0
  0
LINE
  5
38E
330
1F
100
AcDbEntity
  8
0-0
  6
JWW_DASHED1
 62
   120
370
     5
100
AcDbLine
 10
136.8977593698725
 20
156.6190552934447
 30
0.0
 11
709.8977593698731
 21
156.6190552934447
 31
0.0
  0
LINE
  5
38F
330
1F
100
AcDbEntity
  8
0-0
  6
JWW_DASHED1
 62
   120
370
     5
100
AcDbLine
 10
136.8977593698725
 20
169.6190552945443
 30
0.0
 11
709.8977593698731
 21
169.6190552945443
 31
0.0
  0
LINE
  5
390
330
1F
100
AcDbEntity
  8
0-0
  6
JWW_DASHED1
 62
   120
370
     5
100
AcDbLine
 10
136.8977593698725
 20
170.6190552944445
 30
0.0
 11
709.8977593698731
 21
170.6190552944445
 31
0.0
  0
LINE
  5
391
330
1F
100
AcDbEntity
  8
0-0
  6
JWW_DASHED1
 62
   120
370
     5
100
AcDbLine
 10
136.8977593698725
 20
183.6190552955441
 30
0.0
 11
709.8977593698731
 21
183.6190552955441
 31
0.0
  0
LINE
  5
392
330
1F
100
AcDbEntity
  8
0-0
  6
JWW_DASHED1
 62
   120
370
     5
100
AcDbLine
 10
136.8977593698725
 20
184.6190552954442
 30
0.0
 11
709.8977593698731
 21
184.6190552954442
 31
0.0
  0
LINE
  5
393
330
1F
100
AcDbEntity
  8
0-0
  6
JWW_DASHED1
 62
   120
370
     5
100
AcDbLine
 10
136.8977593698725
 20
197.6190552965438
 30
0.0
 11
709.8977593698731
 21
197.6190552965438
 31
0.0
  0
LINE
  5
394
330
1F
100
AcDbEntity
  8
0-0
  6
JWW_DASHED1
 62
   120
370
     5
100
AcDbLine
 10
136.8977593698725
 20
198.619055296444
 30
0.0
 11
709.8977593698731
 21
198.619055296444
 31
0.0
  0
LINE
  5
395
330
1F
100
AcDbEntity
  8
0-0
  6
JWW_DASHED1
 62
   120
370
     5
100
AcDbLine
 10
136.8977593698725
 20
211.6190552975436
 30
0.0
 11
709.8977593698731
 21
211.6190552975436
 31
0.0
  0
LINE
  5
396
330
1F
100
AcDbEntity
  8
0-0
  6
JWW_DASHED1
 62
   120
370
     5
100
AcDbLine
 10
136.8977593698725
 20
212.6190552974438
 30
0.0
 11
709.8977593698731
 21
212.6190552974438
 31
0.0
  0
LINE
  5
397
330
1F
100
AcDbEntity
  8
0-0
  6
JWW_DASHED1
 62
   120
370
     5
100
AcDbLine
 10
136.8977593698725
 20
225.6190552985434
 30
0.0
 11
709.8977593698731
 21
225.6190552985434
 31
0.0
  0
LINE
  5
398
330
1F
100
AcDbEntity
  8
0-0
  6
JWW_DASHED1
 62
   120
370
     5
100
AcDbLine
 10
136.8977593698725
 20
226.6190552984436
 30
0.0
 11
709.8977593698731
 21
226.6190552984436
 31
0.0
  0
LINE
  5
399
330
1F
100
AcDbEntity
  8
0-0
  6
JWW_DASHED1
 62
   120
370
     5
100
AcDbLine
 10
136.8977593698725
 20
239.6190552995432
 30
0.0
 11
709.8977593698731
 21
239.6190552995432
 31
0.0
  0
LINE
  5
39A
330
1F
100
AcDbEntity
  8
0-0
  6
JWW_DASHED1
 62
   120
370
     5
100
AcDbLine
 10
136.8977593698725
 20
240.6190552994434
 30
0.0
 11
709.8977593698731
 21
240.6190552994434
 31
0.0
  0
LINE
  5
39B
330
1F
100
AcDbEntity
  8
0-0
  6
JWW_DASHED1
 62
   120
370
     5
100
AcDbLine
 10
136.8977593698725
 20
253.619055300543
 30
0.0
 11
709.8977593698731
 21
253.619055300543
 31
0.0
  0
LINE
  5
39C
330
1F
100
AcDbEntity
  8
0-0
  6
JWW_DASHED1
 62
   120
370
     5
100
AcDbLine
 10
136.8977593698725
 20
254.6190553004432
 30
0.0
 11
709.8977593698731
 21
254.6190553004432
 31
0.0
  0
LINE
  5
39D
330
1F
100
AcDbEntity
  8
0-0
  6
JWW_DASHED1
 62
   120
370
     5
100
AcDbLine
 10
136.8977593698725
 20
267.6190553015428
 30
0.0
 11
709.8977593698731
 21
267.6190553015428
 31
0.0
  0
LINE
  5
39E
330
1F
100
AcDbEntity
  8
0-0
  6
JWW_DASHED1
 62
   120
370
     5
100
AcDbLine
 10
136.8977593698725
 20
268.619055301443
 30
0.0
 11
709.8977593698731
 21
268.619055301443
 31
0.0
  0
LINE
  5
39F
330
1F
100
AcDbEntity
  8
0-0
  6
JWW_DASHED1
 62
   120
370
     5
100
AcDbLine
 10
136.8977593698725
 20
281.6190553025426
 30
0.0
 11
709.8977593698731
 21
281.6190553025426
 31
0.0
  0
LINE
  5
3A0
330
1F
100
AcDbEntity
  8
0-0
  6
JWW_DASHED1
 62
   120
370
     5
100
AcDbLine
 10
136.8977593698725
 20
282.6190553024428
 30
0.0
 11
709.8977593698731
 21
282.6190553024428
 31
0.0
  0
LINE
  5
3A1
330
1F
100
AcDbEntity
  8
0-0
  6
JWW_DASHED1
 62
   120
370
     5
100
AcDbLine
 10
136.8977593698725
 20
295.6190553035424
 30
0.0
 11
709.8977593698731
 21
295.6190553035424
 31
0.0
  0
LINE
  5
3A2
330
1F
100
AcDbEntity
  8
0-0
  6
JWW_DASHED1
 62
   120
370
     5
100
AcDbLine
 10
136.8977593698725
 20
296.6190553034426
 30
0.0
 11
709.8977593698731
 21
296.6190553034426
 31
0.0
  0
LINE
  5
3A3
330
1F
100
AcDbEntity
  8
0-0
  6
JWW_DASHED1
 62
   120
370
     5
100
AcDbLine
 10
136.8977593698725
 20
309.6190553045421
 30
0.0
 11
709.8977593698731
 21
309.6190553045421
 31
0.0
  0
LINE
  5
3A4
330
1F
100
AcDbEntity
  8
0-0
  6
JWW_DASHED1
 62
   120
370
     5
100
AcDbLine
 10
136.8977593698725
 20
310.6190553044423
 30
0.0
 11
709.8977593698731
 21
310.6190553044423
 31
0.0
  0
LINE
  5
3A5
330
1F
100
AcDbEntity
  8
0-0
  6
JWW_DASHED1
 62
   120
370
     5
100
AcDbLine
 10
136.8977593698725
 20
323.619055305542
 30
0.0
 11
709.8977593698731
 21
323.619055305542
 31
0.0
  0
LINE
  5
3A6
330
1F
100
AcDbEntity
  8
0-0
  6
JWW_DASHED1
 62
   120
370
     5
100
AcDbLine
 10
136.8977593698725
 20
324.6190553054421
 30
0.0
 11
709.8977593698731
 21
324.6190553054421
 31
0.0
  0
LINE
  5
3A7
330
1F
100
AcDbEntity
  8
0-0
  6
JWW_DASHED1
 62
   120
370
     5
100
AcDbLine
 10
136.8977593698725
 20
337.6190553065418
 30
0.0
 11
709.8977593698731
 21
337.6190553065418
 31
0.0
  0
LINE
  5
3A8
330
1F
100
AcDbEntity
  8
0-0
  6
JWW_DASHED1
 62
   120
370
     5
100
AcDbLine
 10
136.8977593698725
 20
338.619055306442
 30
0.0
 11
709.8977593698731
 21
338.619055306442
 31
0.0
  0
LINE
  5
3A9
330
1F
100
AcDbEntity
  8
0-0
  6
JWW_DASHED1
 62
   120
370
     5
100
AcDbLine
 10
136.8977593698725
 20
351.6190553075415
 30
0.0
 11
709.8977593698731
 21
351.6190553075415
 31
0.0
  0
LINE
  5
3AA
330
1F
100
AcDbEntity
  8
0-0
  6
JWW_DASHED1
 62
   120
370
     5
100
AcDbLine
 10
136.8977593698725
 20
352.6190553074417
 30
0.0
 11
709.8977593698731
 21
352.6190553074417
 31
0.0
  0
LINE
  5
3AB
330
1F
100
AcDbEntity
  8
0-0
  6
JWW_DASHED1
 62
   120
370
     5
100
AcDbLine
 10
136.8977593698725
 20
365.6190553085413
 30
0.0
 11
709.8977593698731
 21
365.6190553085413
 31
0.0
  0
LINE
  5
3AC
330
1F
100
AcDbEntity
  8
0-0
  6
JWW_DASHED1
 62
   120
370
     5
100
AcDbLine
 10
136.8977593698725
 20
366.6190553084415
 30
0.0
 11
709.8977593698731
 21
366.6190553084415
 31
0.0
  0
LINE
  5
3AD
330
1F
100
AcDbEntity
  8
0-0
  6
JWW_DASHED1
 62
   120
370
     5
100
AcDbLine
 10
136.8977593698725
 20
379.6190553095411
 30
0.0
 11
709.8977593698731
 21
379.6190553095411
 31
0.0
  0
LINE
  5
3AE
330
1F
100
AcDbEntity
  8
0-0
  6
JWW_DASHED1
 62
   120
370
     5
100
AcDbLine
 10
136.8977593698725
 20
380.6190553094413
 30
0.0
 11
709.8977593698731
 21
380.6190553094413
 31
0.0
  0
LINE
  5
3AF
330
1F
100
AcDbEntity
  8
0-0
  6
JWW_DASHED1
 62
   120
370
     5
100
AcDbLine
 10
136.8977593698725
 20
393.6190553105409
 30
0.0
 11
709.8977593698731
 21
393.6190553105409
 31
0.0
  0
LINE
  5
3B0
330
1F
100
AcDbEntity
  8
0-0
  6
JWW_DASHED1
 62
   120
370
     5
100
AcDbLine
 10
136.8977593698725
 20
394.6190553104411
 30
0.0
 11
709.8977593698731
 21
394.6190553104411
 31
0.0
  0
LINE
  5
3B1
330
1F
100
AcDbEntity
  8
0-0
  6
JWW_DASHED1
 62
   120
370
     5
100
AcDbLine
 10
136.8977593698725
 20
407.6190553115407
 30
0.0
 11
709.8977593698731
 21
407.6190553115407
 31
0.0
  0
LINE
  5
3B2
330
1F
100
AcDbEntity
  8
0-0
  6
JWW_DASHED1
 62
   120
370
     5
100
AcDbLine
 10
136.8977593698725
 20
408.6190553114409
 30
0.0
 11
709.8977593698731
 21
408.6190553114409
 31
0.0
  0
LINE
  5
3B3
330
1F
100
AcDbEntity
  8
0-0
  6
JWW_DASHED1
 62
   120
370
     5
100
AcDbLine
 10
136.8977593698725
 20
421.6190553125405
 30
0.0
 11
709.8977593698731
 21
421.6190553125405
 31
0.0
  0
LINE
  5
3B4
330
1F
100
AcDbEntity
  8
0-0
  6
JWW_DASHED1
 62
   120
370
     5
100
AcDbLine
 10
136.8977593698725
 20
422.6190553124407
 30
0.0
 11
709.8977593698731
 21
422.6190553124407
 31
0.0
  0
LINE
  5
3B5
330
1F
100
AcDbEntity
  8
0-0
  6
JWW_DASHED1
 62
   120
370
     5
100
AcDbLine
 10
136.8977593698725
 20
435.6190553135403
 30
0.0
 11
709.8977593698731
 21
435.6190553135403
 31
0.0
  0
LINE
  5
3B6
330
1F
100
AcDbEntity
  8
0-0
  6
JWW_DASHED1
 62
   120
370
     5
100
AcDbLine
 10
136.8977593698725
 20
436.6190553134405
 30
0.0
 11
709.8977593698731
 21
436.6190553134405
 31
0.0
  0
LINE
  5
3B7
330
1F
100
AcDbEntity
  8
0-0
  6
JWW_DASHED1
 62
   120
370
     5
100
AcDbLine
 10
136.8977593698725
 20
449.6190553145401
 30
0.0
 11
709.8977593698731
 21
449.6190553145401
 31
0.0
  0
LINE
  5
3B8
330
1F
100
AcDbEntity
  8
0-0
  6
JWW_DASHED1
 62
   120
370
     5
100
AcDbLine
 10
136.8977593698725
 20
450.6190553144403
 30
0.0
 11
709.8977593698731
 21
450.6190553144403
 31
0.0
  0
LINE
  5
3B9
330
1F
100
AcDbEntity
  8
0-0
  6
JWW_DASHED1
 62
   120
370
     5
100
AcDbLine
 10
136.8977593698725
 20
463.6190553155399
 30
0.0
 11
709.8977593698731
 21
463.6190553155399
 31
0.0
  0
LINE
  5
3BA
330
1F
100
AcDbEntity
  8
0-0
  6
JWW_DASHED1
 62
   120
370
     5
100
AcDbLine
 10
136.8977593698725
 20
464.6190553154401
 30
0.0
 11
709.8977593698731
 21
464.6190553154401
 31
0.0
  0
LINE
  5
3BB
330
1F
100
AcDbEntity
  8
0-0
  6
JWW_DASHED1
 62
   120
370
     5
100
AcDbLine
 10
136.8977593698725
 20
477.6190553165396
 30
0.0
 11
709.8977593698731
 21
477.6190553165396
 31
0.0
  0
LINE
  5
3BC
330
1F
100
AcDbEntity
  8
0-0
  6
JWW_DASHED1
 62
   120
370
     5
100
AcDbLine
 10
136.8977593698725
 20
478.6190553164398
 30
0.0
 11
709.8977593698731
 21
478.6190553164398
 31
0.0
  0
LINE
  5
3BD
330
1F
100
AcDbEntity
  8
0-0
  6
JWW_DASHED1
 62
   120
370
     5
100
AcDbLine
 10
136.8977593698725
 20
491.6190553175394
 30
0.0
 11
709.8977593698731
 21
491.6190553175394
 31
0.0
  0
LINE
  5
3BE
330
1F
100
AcDbEntity
  8
0-0
  6
JWW_DASHED1
 62
   120
370
     5
100
AcDbLine
 10
136.8977593698725
 20
492.6190553174396
 30
0.0
 11
709.8977593698731
 21
492.6190553174396
 31
0.0
  0
LINE
  5
3BF
330
1F
100
AcDbEntity
  8
0-0
  6
JWW_DASHED1
 62
   120
370
     5
100
AcDbLine
 10
136.8977593698725
 20
505.6190553185393
 30
0.0
 11
709.8977593698731
 21
505.6190553185393
 31
0.0
  0
LINE
  5
3C0
330
1F
100
AcDbEntity
  8
0-0
  6
JWW_DASHED1
 62
   120
370
     5
100
AcDbLine
 10
136.8977593698725
 20
506.6190553184395
 30
0.0
 11
709.8977593698731
 21
506.6190553184395
 31
0.0
  0
LINE
  5
3C1
330
1F
100
AcDbEntity
  8
0-0
  6
JWW_DASHED1
 62
   120
370
     5
100
AcDbLine
 10
136.8977593698725
 20
519.619055319539
 30
0.0
 11
709.8977593698731
 21
519.619055319539
 31
0.0
  0
LINE
  5
3C2
330
1F
100
AcDbEntity
  8
0-0
  6
JWW_DASHED1
 62
   120
370
     5
100
AcDbLine
 10
136.8977593698725
 20
520.6190553194392
 30
0.0
 11
709.8977593698731
 21
520.6190553194392
 31
0.0
  0
LINE
  5
3C3
330
1F
100
AcDbEntity
  8
0-0
  6
JWW_DASHED1
 62
   120
370
     5
100
AcDbLine
 10
136.8977593698725
 20
533.6190553205388
 30
0.0
 11
709.8977593698731
 21
533.6190553205388
 31
0.0
  0
LINE
  5
3C4
330
1F
100
AcDbEntity
  8
0-0
  6
JWW_DASHED1
 62
   120
370
     5
100
AcDbLine
 10
136.8977593698725
 20
534.619055320439
 30
0.0
 11
709.8977593698731
 21
534.619055320439
 31
0.0
  0
LINE
  5
3C5
330
1F
100
AcDbEntity
  8
0-0
  6
JWW_DASHED1
 62
   120
370
     5
100
AcDbLine
 10
136.8977593698725
 20
547.6190553215386
 30
0.0
 11
709.8977593698731
 21
547.6190553215386
 31
0.0
  0
LINE
  5
3C6
330
1F
100
AcDbEntity
  8
0-0
  6
JWW_DASHED1
 62
   120
370
     5
100
AcDbLine
 10
136.8977593698725
 20
548.6190553214387
 30
0.0
 11
709.8977593698731
 21
548.6190553214387
 31
0.0
  0
LINE
  5
3C7
330
1F
100
AcDbEntity
  8
0-0
  6
JWW_DASHED1
 62
   120
370
     5
100
AcDbLine
 10
136.8977593698725
 20
561.6190553225384
 30
0.0
 11
709.8977593698731
 21
561.6190553225384
 31
0.0
  0
LINE
  5
3C8
330
1F
100
AcDbEntity
  8
0-0
  6
JWW_DASHED1
 62
   120
370
     5
100
AcDbLine
 10
136.8977593698725
 20
562.6190553224386
 30
0.0
 11
709.8977593698731
 21
562.6190553224386
 31
0.0
  0
LINE
  5
3C9
330
1F
100
AcDbEntity
  8
0-0
  6
JWW_DASHED1
 62
   120
370
     5
100
AcDbLine
 10
136.8977593698725
 20
575.6190553235382
 30
0.0
 11
709.8977593698731
 21
575.6190553235382
 31
0.0
  0
LINE
  5
3CA
330
1F
100
AcDbEntity
  8
0-0
  6
JWW_DASHED1
 62
   120
370
     5
100
AcDbLine
 10
136.8977593698725
 20
576.6190553234384
 30
0.0
 11
709.8977593698731
 21
576.6190553234384
 31
0.0
  0
LINE
  5
3CB
330
1F
100
AcDbEntity
  8
0-0
  6
JWW_DASHED1
 62
   120
370
     5
100
AcDbLine
 10
136.8977593698725
 20
589.619055324538
 30
0.0
 11
709.8977593698731
 21
589.619055324538
 31
0.0
  0
LINE
  5
3CC
330
1F
100
AcDbEntity
  8
0-0
  6
JWW_DASHED1
 62
   120
370
     5
100
AcDbLine
 10
136.8977593698725
 20
590.6190553244381
 30
0.0
 11
709.8977593698731
 21
590.6190553244381
 31
0.0
  0
LINE
  5
3CD
330
1F
100
AcDbEntity
  8
0-0
  6
JWW_DASHED1
 62
   120
370
     5
100
AcDbLine
 10
136.8977593698725
 20
603.6190553255378
 30
0.0
 11
709.8977593698731
 21
603.6190553255378
 31
0.0
  0
LINE
  5
3CE
330
1F
100
AcDbEntity
  8
0-0
  6
JWW_DASHED1
 62
   120
370
     5
100
AcDbLine
 10
136.8977593698725
 20
604.619055325438
 30
0.0
 11
709.8977593698731
 21
604.619055325438
 31
0.0
  0
LINE
  5
3CF
330
1F
100
AcDbEntity
  8
0-0
  6
JWW_DASHED1
 62
   120
370
     5
100
AcDbLine
 10
136.8977593698725
 20
617.6190553265376
 30
0.0
 11
709.8977593698731
 21
617.6190553265376
 31
0.0
  0
LINE
  5
3D0
330
1F
100
AcDbEntity
  8
0-0
  6
JWW_DASHED1
 62
   120
370
     5
100
AcDbLine
 10
136.8977593698725
 20
618.6190553264378
 30
0.0
 11
709.8977593698731
 21
618.6190553264378
 31
0.0
  0
LINE
  5
3D1
330
1F
100
AcDbEntity
  8
0-0
  6
JWW_DASHED1
 62
   120
370
     5
100
AcDbLine
 10
136.8977593698725
 20
631.6190553275374
 30
0.0
 11
709.8977593698731
 21
631.6190553275374
 31
0.0
  0
LINE
  5
3D2
330
1F
100
AcDbEntity
  8
0-0
  6
JWW_DASHED1
 62
   120
370
     5
100
AcDbLine
 10
136.8977593698725
 20
632.6190553274375
 30
0.0
 11
709.8977593698731
 21
632.6190553274375
 31
0.0
  0
LINE
  5
3D3
330
1F
100
AcDbEntity
  8
0-0
  6
JWW_DASHED1
 62
   120
370
     5
100
AcDbLine
 10
224.3166011318363
 20
645.6190553285371
 30
0.0
 11
622.4789176079094
 21
645.6190553285371
 31
0.0
  0
LINE
  5
3D4
330
1F
100
AcDbEntity
  8
0-0
  6
JWW_DASHED1
 62
   120
370
     5
100
AcDbLine
 10
227.9108310031961
 20
646.6190553284373
 30
0.0
 11
618.8846877365495
 21
646.6190553284373
 31
0.0
  0
LINE
  5
3D5
330
1F
100
AcDbEntity
  8
0-0
  6
JWW_DASHED1
 62
   120
370
     5
100
AcDbLine
 10
259.022908471452
 20
659.6190553295369
 30
0.0
 11
587.7726102682927
 21
659.6190553295369
 31
0.0
  0
LINE
  5
3D6
330
1F
100
AcDbEntity
  8
0-0
  6
JWW_DASHED1
 62
   120
370
     5
100
AcDbLine
 10
260.9167084611181
 20
660.6190553294371
 30
0.0
 11
585.8788102786266
 21
660.6190553294371
 31
0.0
  0
LINE
  5
3D7
330
1F
100
AcDbEntity
  8
0-0
  6
JWW_DASHED1
 62
   120
370
     5
100
AcDbLine
 10
288.5975525534377
 20
673.6190553305368
 30
0.0
 11
558.197966186307
 21
673.6190553305368
 31
0.0
  0
LINE
  5
3D8
330
1F
100
AcDbEntity
  8
0-0
  6
JWW_DASHED1
 62
   120
370
     5
100
AcDbLine
 10
291.019150621014
 20
674.6190553304369
 30
0.0
 11
555.7763681187307
 21
674.6190553304369
 31
0.0
  0
LINE
  5
3D9
330
1F
100
AcDbEntity
  8
0-0
  6
JWW_DASHED1
 62
   120
370
     5
100
AcDbLine
 10
328.8932626113819
 20
687.6190553315365
 30
0.0
 11
517.9022561283628
 21
687.6190553315365
 31
0.0
  0
LINE
  5
3DA
330
1F
100
AcDbEntity
  8
0-0
  6
JWW_DASHED1
 62
   120
370
     5
100
AcDbLine
 10
332.5346744337548
 20
688.6190553314367
 30
0.0
 11
514.2608443059898
 21
688.6190553314367
 31
0.0
  0
LINE
  5
3DB
330
1F
100
AcDbEntity
  8
0-0
  6
JWW_DASHED1
 62
   120
370
     5
100
AcDbLine
 10
703.8977778678045
 20
-474.3807964376023
 30
0.0
 11
703.8977778678045
 21
640.6189360180892
 31
0.0
  0
LINE
  5
3DC
330
1F
100
AcDbEntity
  8
0-0
  6
JWW_DASHED1
 62
   120
370
     5
100
AcDbLine
 10
702.8977778679043
 20
-474.3807964376023
 30
0.0
 11
702.8977778679043
 21
640.6189360180892
 31
0.0
  0
LINE
  5
3DD
330
1F
100
AcDbEntity
  8
0-0
  6
JWW_DASHED1
 62
   120
370
     5
100
AcDbLine
 10
689.8977778668043
 20
-474.3807964376023
 30
0.0
 11
689.8977778668043
 21
640.6189360180892
 31
0.0
  0
LINE
  5
3DE
330
1F
100
AcDbEntity
  8
0-0
  6
JWW_DASHED1
 62
   120
370
     5
100
AcDbLine
 10
688.8977778669041
 20
-474.3807964376023
 30
0.0
 11
688.897777866905
 21
640.6189360180892
 31
0.0
  0
LINE
  5
3DF
330
1F
100
AcDbEntity
  8
0-0
  6
JWW_DASHED1
 62
   120
370
     5
100
AcDbLine
 10
675.8977778658041
 20
-474.3807964376023
 30
0.0
 11
675.897777865805
 21
640.6189360180892
 31
0.0
  0
LINE
  5
3E0
330
1F
100
AcDbEntity
  8
0-0
  6
JWW_DASHED1
 62
   120
370
     5
100
AcDbLine
 10
674.8977778659048
 20
-474.3807964376023
 30
0.0
 11
674.8977778659048
 21
640.6189360180892
 31
0.0
  0
LINE
  5
3E1
330
1F
100
AcDbEntity
  8
0-0
  6
JWW_DASHED1
 62
   120
370
     5
100
AcDbLine
 10
661.8977778648048
 20
-474.3807964376023
 30
0.0
 11
661.8977778648048
 21
640.6189360180892
 31
0.0
  0
LINE
  5
3E2
330
1F
100
AcDbEntity
  8
0-0
  6
JWW_DASHED1
 62
   120
370
     5
100
AcDbLine
 10
660.8977778649046
 20
-474.3807964376023
 30
0.0
 11
660.8977778649046
 21
640.6189360180892
 31
0.0
  0
LINE
  5
3E3
330
1F
100
AcDbEntity
  8
0-0
  6
JWW_DASHED1
 62
   120
370
     5
100
AcDbLine
 10
647.8977778638045
 20
-474.3807964376023
 30
0.0
 11
647.8977778638045
 21
641.1822285233015
 31
0.0
  0
LINE
  5
3E4
330
1F
100
AcDbEntity
  8
0-0
  6
JWW_DASHED1
 62
   120
370
     5
100
AcDbLine
 10
646.8977778639044
 20
-474.3807964376023
 30
0.0
 11
646.8977778639044
 21
641.2725101853343
 31
0.0
  0
LINE
  5
3E5
330
1F
100
AcDbEntity
  8
0-0
  6
JWW_DASHED1
 62
   120
370
     5
100
AcDbLine
 10
633.8977778628043
 20
-474.3807964376023
 30
0.0
 11
633.8977778628043
 21
643.0666245598682
 31
0.0
  0
LINE
  5
3E6
330
1F
100
AcDbEntity
  8
0-0
  6
JWW_DASHED1
 62
   120
370
     5
100
AcDbLine
 10
632.8977778629041
 20
-474.3807964376023
 30
0.0
 11
632.8977778629041
 21
643.2530309423041
 31
0.0
  0
LINE
  5
3E7
330
1F
100
AcDbEntity
  8
0-0
  6
JWW_DASHED1
 62
   120
370
     5
100
AcDbLine
 10
619.8977778618041
 20
-474.3807964376023
 30
0.0
 11
619.8977778618041
 21
646.3274266130597
 31
0.0
  0
LINE
  5
3E8
330
1F
100
AcDbEntity
  8
0-0
  6
JWW_DASHED1
 62
   120
370
     5
100
AcDbLine
 10
618.8977778619048
 20
-474.3807964376023
 30
0.0
 11
618.8977778619048
 21
646.6152379804394
 31
0.0
  0
LINE
  5
3E9
330
1F
100
AcDbEntity
  8
0-0
  6
JWW_DASHED1
 62
   120
370
     5
100
AcDbLine
 10
605.8977778608039
 20
-474.3807964376023
 30
0.0
 11
605.8977778608048
 21
651.0610815059031
 31
0.0
  0
LINE
  5
3EA
330
1F
100
AcDbEntity
  8
0-0
  6
JWW_DASHED1
 62
   120
370
     5
100
AcDbLine
 10
604.8977778609046
 20
-474.3807964376023
 30
0.0
 11
604.8977778609046
 21
651.4592431534206
 31
0.0
  0
LINE
  5
3EB
330
1F
100
AcDbEntity
  8
0-0
  6
JWW_DASHED1
 62
   120
370
     5
100
AcDbLine
 10
591.8977778598046
 20
-474.3807964376023
 30
0.0
 11
591.8977778598046
 21
657.4245298830633
 31
0.0
  0
LINE
  5
3EC
330
1F
100
AcDbEntity
  8
0-0
  6
JWW_DASHED1
 62
   120
370
     5
100
AcDbLine
 10
590.8977778599044
 20
-474.3807964376023
 30
0.0
 11
590.8977778599044
 21
657.9472540818629
 31
0.0
  0
LINE
  5
3ED
330
1F
100
AcDbEntity
  8
0-0
  6
JWW_DASHED1
 62
   120
370
     5
100
AcDbLine
 10
577.8977778588044
 20
-474.3807964376023
 30
0.0
 11
577.8977778588044
 21
664.6729319066221
 31
0.0
  0
LINE
  5
3EE
330
1F
100
AcDbEntity
  8
0-0
  6
JWW_DASHED1
 62
   120
370
     5
100
AcDbLine
 10
576.8977778589042
 20
-474.3807964376023
 30
0.0
 11
576.8977778589042
 21
665.1629116919289
 31
0.0
  0
LINE
  5
3EF
330
1F
100
AcDbEntity
  8
0-0
  6
JWW_DASHED1
 62
   120
370
     5
100
AcDbLine
 10
563.897777857805
 20
-474.3807964376023
 30
0.0
 11
563.897777857805
 21
671.1808120012543
 31
0.0
  0
LINE
  5
3F0
330
1F
100
AcDbEntity
  8
0-0
  6
JWW_DASHED1
 62
   120
370
     5
100
AcDbLine
 10
562.8977778579048
 20
-474.3807964376023
 30
0.0
 11
562.8977778579048
 21
671.617248481431
 31
0.0
  0
LINE
  5
3F1
330
1F
100
AcDbEntity
  8
0-0
  6
JWW_DASHED1
 62
   120
370
     5
100
AcDbLine
 10
549.8977778568047
 20
-474.3807964376023
 30
0.0
 11
549.8977778568047
 21
676.9591265304884
 31
0.0
  0
LINE
  5
3F2
330
1F
100
AcDbEntity
  8
0-0
  6
JWW_DASHED1
 62
   120
370
     5
100
AcDbLine
 10
548.8977778569046
 20
-474.3807964376023
 30
0.0
 11
548.8977778569046
 21
677.3449989317637
 31
0.0
  0
LINE
  5
3F3
330
1F
100
AcDbEntity
  8
0-0
  6
JWW_DASHED1
 62
   120
370
     5
100
AcDbLine
 10
535.8977778558045
 20
-474.3807964376023
 30
0.0
 11
535.8977778558045
 21
682.0460368765603
 31
0.0
  0
LINE
  5
3F4
330
1F
100
AcDbEntity
  8
0-0
  6
JWW_DASHED1
 62
   120
370
     5
100
AcDbLine
 10
534.8977778559043
 20
-474.3807964376023
 30
0.0
 11
534.8977778559043
 21
682.3837976311702
 31
0.0
  0
LINE
  5
3F5
330
1F
100
AcDbEntity
  8
0-0
  6
JWW_DASHED1
 62
   120
370
     5
100
AcDbLine
 10
521.8977778548043
 20
-474.3807964376023
 30
0.0
 11
521.8977778548043
 21
686.4729609605788
 31
0.0
  0
LINE
  5
3F6
330
1F
100
AcDbEntity
  8
0-0
  6
JWW_DASHED1
 62
   120
370
     5
100
AcDbLine
 10
520.8977778549041
 20
-474.3807964376023
 30
0.0
 11
520.8977778549041
 21
686.7646280373051
 31
0.0
  0
LINE
  5
3F7
330
1F
100
AcDbEntity
  8
0-0
  6
JWW_DASHED1
 62
   120
370
     5
100
AcDbLine
 10
507.8977778538049
 20
-474.3807964376023
 30
0.0
 11
507.8977778538049
 21
690.2657063799566
 31
0.0
  0
LINE
  5
3F8
330
1F
100
AcDbEntity
  8
0-0
  6
JWW_DASHED1
 62
   120
370
     5
100
AcDbLine
 10
506.8977778539048
 20
-474.3807964376023
 30
0.0
 11
506.8977778539048
 21
690.512932414746
 31
0.0
  0
LINE
  5
3F9
330
1F
100
AcDbEntity
  8
0-0
  6
JWW_DASHED1
 62
   120
370
     5
100
AcDbLine
 10
493.8977778528047
 20
-474.3807964376023
 30
0.0
 11
493.8977778528047
 21
693.4453218700733
 31
0.0
  0
LINE
  5
3FA
330
1F
100
AcDbEntity
  8
0-0
  6
JWW_DASHED1
 62
   120
370
     5
100
AcDbLine
 10
492.8977778529045
 20
-474.3807964376023
 30
0.0
 11
492.8977778529045
 21
693.6494462974374
 31
0.0
  0
LINE
  5
3FB
330
1F
100
AcDbEntity
  8
0-0
  6
JWW_DASHED1
 62
   120
370
     5
100
AcDbLine
 10
479.8977778518045
 20
-474.3807964376023
 30
0.0
 11
479.8977778518045
 21
696.0287400716666
 31
0.0
  0
LINE
  5
3FC
330
1F
100
AcDbEntity
  8
0-0
  6
JWW_DASHED1
 62
   120
370
     5
100
AcDbLine
 10
478.8977778519043
 20
-474.3807964376023
 30
0.0
 11
478.8977778519043
 21
696.1908284804454
 31
0.0
  0
LINE
  5
3FD
330
1F
100
AcDbEntity
  8
0-0
  6
JWW_DASHED1
 62
   120
370
     5
100
AcDbLine
 10
465.8977778508043
 20
-474.3807964376023
 30
0.0
 11
465.8977778508043
 21
698.0292616049487
 31
0.0
  0
LINE
  5
3FE
330
1F
100
AcDbEntity
  8
0-0
  6
JWW_DASHED1
 62
   120
370
     5
100
AcDbLine
 10
464.8977778509041
 20
-474.3807964376023
 30
0.0
 11
464.8977778509041
 21
698.1501352304408
 31
0.0
  0
LINE
  5
3FF
330
1F
100
AcDbEntity
  8
0-0
  6
JWW_DASHED1
 62
   120
370
     5
100
AcDbLine
 10
451.8977778498049
 20
-474.3807964376023
 30
0.0
 11
451.8977778498049
 21
699.4569150367138
 31
0.0
  0
LINE
  5
400
330
1F
100
AcDbEntity
  8
0-0
  6
JWW_DASHED1
 62
   120
370
     5
100
AcDbLine
 10
450.8977778499047
 20
-474.3807964376023
 30
0.0
 11
450.8977778499047
 21
699.5371724083602
 31
0.0
  0
LINE
  5
401
330
1F
100
AcDbEntity
  8
0-0
  6
JWW_DASHED1
 62
   120
370
     5
100
AcDbLine
 10
437.8977778488047
 20
-474.3807964376023
 30
0.0
 11
437.8977778488047
 21
700.3187166648754
 31
0.0
  0
LINE
  5
402
330
1F
100
AcDbEntity
  8
0-0
  6
JWW_DASHED1
 62
   120
370
     5
100
AcDbLine
 10
436.8977778489045
 20
-474.3807964376023
 30
0.0
 11
436.8977778489045
 21
700.358748797204
 31
0.0
  0
LINE
  5
403
330
1F
100
AcDbEntity
  8
0-0
  6
JWW_DASHED1
 62
   120
370
     5
100
AcDbLine
 10
423.8977778478045
 20
-474.3807964376023
 30
0.0
 11
423.8977778478045
 21
700.6188463929507
 31
0.0
  0
LINE
  5
404
330
1F
100
AcDbEntity
  8
0-0
  6
JWW_DASHED1
 62
   120
370
     5
100
AcDbLine
 10
422.8977778479043
 20
-474.3807964376023
 30
0.0
 11
422.8977778479043
 21
700.6188464457741
 31
0.0
  0
LINE
  5
405
330
1F
100
AcDbEntity
  8
0-0
  6
JWW_DASHED1
 62
   120
370
     5
100
AcDbLine
 10
409.8977778468043
 20
-474.3807964376023
 30
0.0
 11
409.8977778468043
 21
700.3587502237101
 31
0.0
  0
LINE
  5
406
330
1F
100
AcDbEntity
  8
0-0
  6
JWW_DASHED1
 62
   120
370
     5
100
AcDbLine
 10
408.8977778469041
 20
-474.3807964376023
 30
0.0
 11
408.8977778469041
 21
700.3187181972467
 31
0.0
  0
LINE
  5
407
330
1F
100
AcDbEntity
  8
0-0
  6
JWW_DASHED1
 62
   120
370
     5
100
AcDbLine
 10
395.8977778458049
 20
-474.3807964376023
 30
0.0
 11
395.8977778458049
 21
699.5371753210716
 31
0.0
  0
LINE
  5
408
330
1F
100
AcDbEntity
  8
0-0
  6
JWW_DASHED1
 62
   120
370
     5
100
AcDbLine
 10
394.8977778459047
 20
-474.3807964376023
 30
0.0
 11
394.8977778459047
 21
699.4569180559997
 31
0.0
  0
LINE
  5
409
330
1F
100
AcDbEntity
  8
0-0
  6
JWW_DASHED1
 62
   120
370
     5
100
AcDbLine
 10
381.8977778448047
 20
-474.3807964376023
 30
0.0
 11
381.8977778448047
 21
698.150139643491
 31
0.0
  0
LINE
  5
40A
330
1F
100
AcDbEntity
  8
0-0
  6
JWW_DASHED1
 62
   120
370
     5
100
AcDbLine
 10
380.8977778449045
 20
-474.3807964376023
 30
0.0
 11
380.8977778449045
 21
698.0292661258832
 31
0.0
  0
LINE
  5
40B
330
1F
100
AcDbEntity
  8
0-0
  6
JWW_DASHED1
 62
   120
370
     5
100
AcDbLine
 10
367.8977778438045
 20
-474.3807964376023
 30
0.0
 11
367.8977778438045
 21
696.1908344157168
 31
0.0
  0
LINE
  5
40C
330
1F
100
AcDbEntity
  8
0-0
  6
JWW_DASHED1
 62
   120
370
     5
100
AcDbLine
 10
366.8977778439043
 20
-474.3807964376023
 30
0.0
 11
366.8977778439043
 21
696.0287461166777
 31
0.0
  0
LINE
  5
40D
330
1F
100
AcDbEntity
  8
0-0
  6
JWW_DASHED1
 62
   120
370
     5
100
AcDbLine
 10
353.8977778428051
 20
-474.3807964376023
 30
0.0
 11
353.8977778428051
 21
693.6494537849435
 31
0.0
  0
LINE
  5
40E
330
1F
100
AcDbEntity
  8
0-0
  6
JWW_DASHED1
 62
   120
370
     5
100
AcDbLine
 10
352.8977778429049
 20
-474.3807964376023
 30
0.0
 11
352.8977778429049
 21
693.4453294698292
 31
0.0
  0
LINE
  5
40F
330
1F
100
AcDbEntity
  8
0-0
  6
JWW_DASHED1
 62
   120
370
     5
100
AcDbLine
 10
339.8977778418049
 20
-474.3807964376023
 30
0.0
 11
339.8977778418049
 21
690.5129414935586
 31
0.0
  0
LINE
  5
410
330
1F
100
AcDbEntity
  8
0-0
  6
JWW_DASHED1
 62
   120
370
     5
100
AcDbLine
 10
338.8977778419047
 20
-474.3807964376023
 30
0.0
 11
338.8977778419047
 21
690.265715574184
 31
0.0
  0
LINE
  5
411
330
1F
100
AcDbEntity
  8
0-0
  6
JWW_DASHED1
 62
   120
370
     5
100
AcDbLine
 10
325.8977778408047
 20
-474.3807964376023
 30
0.0
 11
325.8977778408047
 21
686.7646387564823
 31
0.0
  0
LINE
  5
412
330
1F
100
AcDbEntity
  8
0-0
  6
JWW_DASHED1
 62
   120
370
     5
100
AcDbLine
 10
324.8977778409045
 20
-474.3807964376023
 30
0.0
 11
324.8977778409045
 21
686.4729717990999
 31
0.0
  0
LINE
  5
413
330
1F
100
AcDbEntity
  8
0-0
  6
JWW_DASHED1
 62
   120
370
     5
100
AcDbLine
 10
311.8977778398045
 20
-474.3807964376023
 30
0.0
 11
311.8977778398045
 21
682.3838100513935
 31
0.0
  0
LINE
  5
414
330
1F
100
AcDbEntity
  8
0-0
  6
JWW_DASHED1
 62
   120
370
     5
100
AcDbLine
 10
310.8977778399043
 20
-474.3807964376023
 30
0.0
 11
310.8977778399043
 21
682.0460494209842
 31
0.0
  0
LINE
  5
415
330
1F
100
AcDbEntity
  8
0-0
  6
JWW_DASHED1
 62
   120
370
     5
100
AcDbLine
 10
297.8977778388042
 20
-474.3807964376023
 30
0.0
 11
297.8977778388042
 21
677.3450131270843
 31
0.0
  0
LINE
  5
416
330
1F
100
AcDbEntity
  8
0-0
  6
JWW_DASHED1
 62
   120
370
     5
100
AcDbLine
 10
296.8977778389041
 20
-474.3807964376023
 30
0.0
 11
296.8977778389041
 21
676.959140855794
 31
0.0
  0
LINE
  5
417
330
1F
100
AcDbEntity
  8
0-0
  6
JWW_DASHED1
 62
   120
370
     5
100
AcDbLine
 10
283.8977778378049
 20
-474.3807964376023
 30
0.0
 11
283.8977778378049
 21
671.6172645418342
 31
0.0
  0
LINE
  5
418
330
1F
100
AcDbEntity
  8
0-0
  6
JWW_DASHED1
 62
   120
370
     5
100
AcDbLine
 10
282.8977778379047
 20
-474.3807964376023
 30
0.0
 11
282.8977778379047
 21
671.180828198791
 31
0.0
  0
LINE
  5
419
330
1F
100
AcDbEntity
  8
0-0
  6
JWW_DASHED1
 62
   120
370
     5
100
AcDbLine
 10
269.8977778368047
 20
-474.3807964376023
 30
0.0
 11
269.8977778368047
 21
665.1629297267177
 31
0.0
  0
LINE
  5
41A
330
1F
100
AcDbEntity
  8
0-0
  6
JWW_DASHED1
 62
   120
370
     5
100
AcDbLine
 10
268.8977778369045
 20
-474.3807964376023
 30
0.0
 11
268.8977778369045
 21
664.6729500872757
 31
0.0
  0
LINE
  5
41B
330
1F
100
AcDbEntity
  8
0-0
  6
JWW_DASHED1
 62
   120
370
     5
100
AcDbLine
 10
255.8977778358044
 20
-474.3807964376023
 30
0.0
 11
255.8977778358044
 21
657.9472735769364
 31
0.0
  0
LINE
  5
41C
330
1F
100
AcDbEntity
  8
0-0
  6
JWW_DASHED1
 62
   120
370
     5
100
AcDbLine
 10
254.8977778359043
 20
-474.3807964376023
 30
0.0
 11
254.8977778359043
 21
657.4245490242524
 31
0.0
  0
LINE
  5
41D
330
1F
100
AcDbEntity
  8
0-0
  6
JWW_DASHED1
 62
   120
370
     5
100
AcDbLine
 10
241.8977778348051
 20
-474.3807964376023
 30
0.0
 11
241.8977778348051
 21
651.4592580217491
 31
0.0
  0
LINE
  5
41E
330
1F
100
AcDbEntity
  8
0-0
  6
JWW_DASHED1
 62
   120
370
     5
100
AcDbLine
 10
240.8977778349049
 20
-474.3807964376023
 30
0.0
 11
240.8977778349049
 21
651.0610960669496
 31
0.0
  0
LINE
  5
41F
330
1F
100
AcDbEntity
  8
0-0
  6
JWW_DASHED1
 62
   120
370
     5
100
AcDbLine
 10
227.8977778338049
 20
-474.3807964376023
 30
0.0
 11
227.8977778338049
 21
646.6152487557142
 31
0.0
  0
LINE
  5
420
330
1F
100
AcDbEntity
  8
0-0
  6
JWW_DASHED1
 62
   120
370
     5
100
AcDbLine
 10
226.8977778339047
 20
-474.3807964376023
 30
0.0
 11
226.8977778339047
 21
646.3274371107386
 31
0.0
  0
LINE
  5
421
330
1F
100
AcDbEntity
  8
0-0
  6
JWW_DASHED1
 62
   120
370
     5
100
AcDbLine
 10
213.8977778328046
 20
-474.3807964376023
 30
0.0
 11
213.8977778328046
 21
643.2530379608929
 31
0.0
  0
LINE
  5
422
330
1F
100
AcDbEntity
  8
0-0
  6
JWW_DASHED1
 62
   120
370
     5
100
AcDbLine
 10
212.8977778329045
 20
-474.3807964376023
 30
0.0
 11
212.8977778329045
 21
643.0666313191418
 31
0.0
  0
LINE
  5
423
330
1F
100
AcDbEntity
  8
0-0
  6
JWW_DASHED1
 62
   120
370
     5
100
AcDbLine
 10
199.8977778318044
 20
-474.3807964376023
 30
0.0
 11
199.8977778318044
 21
641.2725136465256
 31
0.0
  0
LINE
  5
424
330
1F
100
AcDbEntity
  8
0-0
  6
JWW_DASHED1
 62
   120
370
     5
100
AcDbLine
 10
198.8977778319042
 20
-474.3807964376023
 30
0.0
 11
198.8977778319042
 21
641.1822317350548
 31
0.0
  0
LINE
  5
425
330
1F
100
AcDbEntity
  8
0-0
  6
JWW_DASHED1
 62
   120
370
     5
100
AcDbLine
 10
185.8977778308042
 20
-474.3807964376023
 30
0.0
 11
185.8977778308042
 21
640.6189360180892
 31
0.0
  0
LINE
  5
426
330
1F
100
AcDbEntity
  8
0-0
  6
JWW_DASHED1
 62
   120
370
     5
100
AcDbLine
 10
184.897777830904
 20
-474.3807964376023
 30
0.0
 11
184.897777830904
 21
640.6189360180892
 31
0.0
  0
LINE
  5
427
330
1F
100
AcDbEntity
  8
0-0
  6
JWW_DASHED1
 62
   120
370
     5
100
AcDbLine
 10
171.8977778298049
 20
-474.3807964376023
 30
0.0
 11
171.8977778298049
 21
640.6189360180892
 31
0.0
  0
LINE
  5
428
330
1F
100
AcDbEntity
  8
0-0
  6
JWW_DASHED1
 62
   120
370
     5
100
AcDbLine
 10
170.8977778299047
 20
-474.3807964376023
 30
0.0
 11
170.8977778299047
 21
640.6189360180892
 31
0.0
  0
LINE
  5
429
330
1F
100
AcDbEntity
  8
0-0
  6
JWW_DASHED1
 62
   120
370
     5
100
AcDbLine
 10
157.8977778288046
 20
-474.3807964376023
 30
0.0
 11
157.8977778288046
 21
640.6189360180892
 31
0.0
  0
LINE
  5
42A
330
1F
100
AcDbEntity
  8
0-0
  6
JWW_DASHED1
 62
   120
370
     5
100
AcDbLine
 10
156.8977778289045
 20
-474.3807964376023
 30
0.0
 11
156.8977778289045
 21
640.6189360180892
 31
0.0
  0
LINE
  5
42B
330
1F
100
AcDbEntity
  8
0-0
  6
JWW_DASHED1
 62
   120
370
     5
100
AcDbLine
 10
143.8977778278044
 20
-474.3807964376023
 30
0.0
 11
143.8977778278044
 21
640.6189360180892
 31
0.0
  0
LINE
  5
42C
330
1F
100
AcDbEntity
  8
0-0
  6
JWW_DASHED1
 62
   120
370
     5
100
AcDbLine
 10
142.8977778279042
 20
-474.3807964376023
 30
0.0
 11
142.8977778279042
 21
640.6189360180892
 31
0.0
  0
LINE
  5
42D
330
1F
100
AcDbEntity
  8
0-0
  6
JWW_DASHED1
 62
   120
370
     5
100
AcDbLine
 10
916.8977593698725
 20
-473.3809447515459
 30
0.0
 11
1489.897759369873
 21
-473.3809447515459
 31
0.0
  0
LINE
  5
42E
330
1F
100
AcDbEntity
  8
0-0
  6
JWW_DASHED1
 62
   120
370
     5
100
AcDbLine
 10
916.8977593698725
 20
-460.3809447504463
 30
0.0
 11
1489.897759369873
 21
-460.3809447504463
 31
0.0
  0
LINE
  5
42F
330
1F
100
AcDbEntity
  8
0-0
  6
JWW_DASHED1
 62
   120
370
     5
100
AcDbLine
 10
916.8977593698725
 20
-459.3809447505461
 30
0.0
 11
1489.897759369873
 21
-459.3809447505461
 31
0.0
  0
LINE
  5
430
330
1F
100
AcDbEntity
  8
0-0
  6
JWW_DASHED1
 62
   120
370
     5
100
AcDbLine
 10
916.8977593698725
 20
-446.3809447494465
 30
0.0
 11
1489.897759369873
 21
-446.3809447494465
 31
0.0
  0
LINE
  5
431
330
1F
100
AcDbEntity
  8
0-0
  6
JWW_DASHED1
 62
   120
370
     5
100
AcDbLine
 10
916.8977593698725
 20
-445.3809447495463
 30
0.0
 11
1489.897759369873
 21
-445.3809447495463
 31
0.0
  0
LINE
  5
432
330
1F
100
AcDbEntity
  8
0-0
  6
JWW_DASHED1
 62
   120
370
     5
100
AcDbLine
 10
916.8977593698725
 20
-432.3809447484467
 30
0.0
 11
1489.897759369873
 21
-432.3809447484467
 31
0.0
  0
LINE
  5
433
330
1F
100
AcDbEntity
  8
0-0
  6
JWW_DASHED1
 62
   120
370
     5
100
AcDbLine
 10
916.8977593698725
 20
-431.3809447485465
 30
0.0
 11
1489.897759369873
 21
-431.3809447485465
 31
0.0
  0
LINE
  5
434
330
1F
100
AcDbEntity
  8
0-0
  6
JWW_DASHED1
 62
   120
370
     5
100
AcDbLine
 10
916.8977593698725
 20
-418.380944747447
 30
0.0
 11
1489.897759369873
 21
-418.380944747447
 31
0.0
  0
LINE
  5
435
330
1F
100
AcDbEntity
  8
0-0
  6
JWW_DASHED1
 62
   120
370
     5
100
AcDbLine
 10
916.8977593698725
 20
-417.3809447475468
 30
0.0
 11
1489.897759369873
 21
-417.3809447475468
 31
0.0
  0
LINE
  5
436
330
1F
100
AcDbEntity
  8
0-0
  6
JWW_DASHED1
 62
   120
370
     5
100
AcDbLine
 10
916.8977593698725
 20
-404.3809447464471
 30
0.0
 11
1489.897759369873
 21
-404.3809447464471
 31
0.0
  0
LINE
  5
437
330
1F
100
AcDbEntity
  8
0-0
  6
JWW_DASHED1
 62
   120
370
     5
100
AcDbLine
 10
916.8977593698725
 20
-403.380944746547
 30
0.0
 11
1489.897759369873
 21
-403.380944746547
 31
0.0
  0
LINE
  5
438
330
1F
100
AcDbEntity
  8
0-0
  6
JWW_DASHED1
 62
   120
370
     5
100
AcDbLine
 10
916.8977593698725
 20
-390.3809447454473
 30
0.0
 11
1489.897759369873
 21
-390.3809447454473
 31
0.0
  0
LINE
  5
439
330
1F
100
AcDbEntity
  8
0-0
  6
JWW_DASHED1
 62
   120
370
     5
100
AcDbLine
 10
916.8977593698725
 20
-389.3809447455471
 30
0.0
 11
1489.897759369873
 21
-389.3809447455471
 31
0.0
  0
LINE
  5
43A
330
1F
100
AcDbEntity
  8
0-0
  6
JWW_DASHED1
 62
   120
370
     5
100
AcDbLine
 10
916.8977593698725
 20
-376.3809447444476
 30
0.0
 11
1489.897759369873
 21
-376.3809447444476
 31
0.0
  0
LINE
  5
43B
330
1F
100
AcDbEntity
  8
0-0
  6
JWW_DASHED1
 62
   120
370
     5
100
AcDbLine
 10
916.8977593698725
 20
-375.3809447445474
 30
0.0
 11
1489.897759369873
 21
-375.3809447445474
 31
0.0
  0
LINE
  5
43C
330
1F
100
AcDbEntity
  8
0-0
  6
JWW_DASHED1
 62
   120
370
     5
100
AcDbLine
 10
916.8977593698725
 20
-362.3809447434478
 30
0.0
 11
1489.897759369873
 21
-362.3809447434478
 31
0.0
  0
LINE
  5
43D
330
1F
100
AcDbEntity
  8
0-0
  6
JWW_DASHED1
 62
   120
370
     5
100
AcDbLine
 10
916.8977593698725
 20
-361.3809447435476
 30
0.0
 11
1489.897759369873
 21
-361.3809447435476
 31
0.0
  0
LINE
  5
43E
330
1F
100
AcDbEntity
  8
0-0
  6
JWW_DASHED1
 62
   120
370
     5
100
AcDbLine
 10
916.8977593698725
 20
-348.380944742448
 30
0.0
 11
1489.897759369873
 21
-348.380944742448
 31
0.0
  0
LINE
  5
43F
330
1F
100
AcDbEntity
  8
0-0
  6
JWW_DASHED1
 62
   120
370
     5
100
AcDbLine
 10
916.8977593698725
 20
-347.3809447425478
 30
0.0
 11
1489.897759369873
 21
-347.3809447425478
 31
0.0
  0
LINE
  5
440
330
1F
100
AcDbEntity
  8
0-0
  6
JWW_DASHED1
 62
   120
370
     5
100
AcDbLine
 10
916.8977593698725
 20
-334.3809447414482
 30
0.0
 11
1489.897759369873
 21
-334.3809447414482
 31
0.0
  0
LINE
  5
441
330
1F
100
AcDbEntity
  8
0-0
  6
JWW_DASHED1
 62
   120
370
     5
100
AcDbLine
 10
916.8977593698725
 20
-333.380944741548
 30
0.0
 11
1489.897759369873
 21
-333.380944741548
 31
0.0
  0
LINE
  5
442
330
1F
100
AcDbEntity
  8
0-0
  6
JWW_DASHED1
 62
   120
370
     5
100
AcDbLine
 10
916.8977593698725
 20
-320.3809447404484
 30
0.0
 11
1489.897759369873
 21
-320.3809447404484
 31
0.0
  0
LINE
  5
443
330
1F
100
AcDbEntity
  8
0-0
  6
JWW_DASHED1
 62
   120
370
     5
100
AcDbLine
 10
916.8977593698725
 20
-319.3809447405482
 30
0.0
 11
1489.897759369873
 21
-319.3809447405482
 31
0.0
  0
LINE
  5
444
330
1F
100
AcDbEntity
  8
0-0
  6
JWW_DASHED1
 62
   120
370
     5
100
AcDbLine
 10
916.8977593698725
 20
-306.3809447394486
 30
0.0
 11
1489.897759369873
 21
-306.3809447394486
 31
0.0
  0
LINE
  5
445
330
1F
100
AcDbEntity
  8
0-0
  6
JWW_DASHED1
 62
   120
370
     5
100
AcDbLine
 10
916.8977593698725
 20
-305.3809447395485
 30
0.0
 11
1489.897759369873
 21
-305.3809447395485
 31
0.0
  0
LINE
  5
446
330
1F
100
AcDbEntity
  8
0-0
  6
JWW_DASHED1
 62
   120
370
     5
100
AcDbLine
 10
916.8977593698725
 20
-292.3809447384488
 30
0.0
 11
1489.897759369873
 21
-292.3809447384488
 31
0.0
  0
LINE
  5
447
330
1F
100
AcDbEntity
  8
0-0
  6
JWW_DASHED1
 62
   120
370
     5
100
AcDbLine
 10
916.8977593698725
 20
-291.3809447385486
 30
0.0
 11
1489.897759369873
 21
-291.3809447385486
 31
0.0
  0
LINE
  5
448
330
1F
100
AcDbEntity
  8
0-0
  6
JWW_DASHED1
 62
   120
370
     5
100
AcDbLine
 10
916.8977593698725
 20
-278.380944737449
 30
0.0
 11
1489.897759369873
 21
-278.380944737449
 31
0.0
  0
LINE
  5
449
330
1F
100
AcDbEntity
  8
0-0
  6
JWW_DASHED1
 62
   120
370
     5
100
AcDbLine
 10
916.8977593698725
 20
-277.3809447375488
 30
0.0
 11
1489.897759369873
 21
-277.3809447375488
 31
0.0
  0
LINE
  5
44A
330
1F
100
AcDbEntity
  8
0-0
  6
JWW_DASHED1
 62
   120
370
     5
100
AcDbLine
 10
916.8977593698725
 20
-264.3809447364492
 30
0.0
 11
1489.897759369873
 21
-264.3809447364492
 31
0.0
  0
LINE
  5
44B
330
1F
100
AcDbEntity
  8
0-0
  6
JWW_DASHED1
 62
   120
370
     5
100
AcDbLine
 10
916.8977593698725
 20
-263.3809447365491
 30
0.0
 11
1489.897759369873
 21
-263.3809447365491
 31
0.0
  0
LINE
  5
44C
330
1F
100
AcDbEntity
  8
0-0
  6
JWW_DASHED1
 62
   120
370
     5
100
AcDbLine
 10
916.8977593698725
 20
-250.3809447354494
 30
0.0
 11
1489.897759369873
 21
-250.3809447354494
 31
0.0
  0
LINE
  5
44D
330
1F
100
AcDbEntity
  8
0-0
  6
JWW_DASHED1
 62
   120
370
     5
100
AcDbLine
 10
916.8977593698725
 20
-249.3809447355493
 30
0.0
 11
1489.897759369873
 21
-249.3809447355493
 31
0.0
  0
LINE
  5
44E
330
1F
100
AcDbEntity
  8
0-0
  6
JWW_DASHED1
 62
   120
370
     5
100
AcDbLine
 10
916.8977593698725
 20
-236.3809447344497
 30
0.0
 11
1489.897759369873
 21
-236.3809447344497
 31
0.0
  0
LINE
  5
44F
330
1F
100
AcDbEntity
  8
0-0
  6
JWW_DASHED1
 62
   120
370
     5
100
AcDbLine
 10
916.8977593698725
 20
-235.3809447345495
 30
0.0
 11
1489.897759369873
 21
-235.3809447345495
 31
0.0
  0
LINE
  5
450
330
1F
100
AcDbEntity
  8
0-0
  6
JWW_DASHED1
 62
   120
370
     5
100
AcDbLine
 10
916.8977593698725
 20
-222.3809447334499
 30
0.0
 11
1489.897759369873
 21
-222.3809447334499
 31
0.0
  0
LINE
  5
451
330
1F
100
AcDbEntity
  8
0-0
  6
JWW_DASHED1
 62
   120
370
     5
100
AcDbLine
 10
916.8977593698725
 20
-221.3809447335497
 30
0.0
 11
1489.897759369873
 21
-221.3809447335497
 31
0.0
  0
LINE
  5
452
330
1F
100
AcDbEntity
  8
0-0
  6
JWW_DASHED1
 62
   120
370
     5
100
AcDbLine
 10
916.8977593698725
 20
-208.3809447324501
 30
0.0
 11
1489.897759369873
 21
-208.3809447324501
 31
0.0
  0
LINE
  5
453
330
1F
100
AcDbEntity
  8
0-0
  6
JWW_DASHED1
 62
   120
370
     5
100
AcDbLine
 10
916.8977593698725
 20
-207.3809447325499
 30
0.0
 11
1489.897759369873
 21
-207.3809447325499
 31
0.0
  0
LINE
  5
454
330
1F
100
AcDbEntity
  8
0-0
  6
JWW_DASHED1
 62
   120
370
     5
100
AcDbLine
 10
916.8977593698725
 20
-194.3809447314503
 30
0.0
 11
1489.897759369873
 21
-194.3809447314503
 31
0.0
  0
LINE
  5
455
330
1F
100
AcDbEntity
  8
0-0
  6
JWW_DASHED1
 62
   120
370
     5
100
AcDbLine
 10
916.8977593698725
 20
-193.3809447315501
 30
0.0
 11
1489.897759369873
 21
-193.3809447315501
 31
0.0
  0
LINE
  5
456
330
1F
100
AcDbEntity
  8
0-0
  6
JWW_DASHED1
 62
   120
370
     5
100
AcDbLine
 10
916.8977593698725
 20
-180.3809447304505
 30
0.0
 11
1489.897759369873
 21
-180.3809447304505
 31
0.0
  0
LINE
  5
457
330
1F
100
AcDbEntity
  8
0-0
  6
JWW_DASHED1
 62
   120
370
     5
100
AcDbLine
 10
916.8977593698725
 20
-179.3809447305503
 30
0.0
 11
1489.897759369873
 21
-179.3809447305503
 31
0.0
  0
LINE
  5
458
330
1F
100
AcDbEntity
  8
0-0
  6
JWW_DASHED1
 62
   120
370
     5
100
AcDbLine
 10
916.8977593698725
 20
-166.3809447294507
 30
0.0
 11
1489.897759369873
 21
-166.3809447294507
 31
0.0
  0
LINE
  5
459
330
1F
100
AcDbEntity
  8
0-0
  6
JWW_DASHED1
 62
   120
370
     5
100
AcDbLine
 10
916.8977593698725
 20
-165.3809447295505
 30
0.0
 11
1489.897759369873
 21
-165.3809447295505
 31
0.0
  0
LINE
  5
45A
330
1F
100
AcDbEntity
  8
0-0
  6
JWW_DASHED1
 62
   120
370
     5
100
AcDbLine
 10
916.8977593698725
 20
-152.3809447284509
 30
0.0
 11
1489.897759369873
 21
-152.3809447284509
 31
0.0
  0
LINE
  5
45B
330
1F
100
AcDbEntity
  8
0-0
  6
JWW_DASHED1
 62
   120
370
     5
100
AcDbLine
 10
916.8977593698725
 20
-151.3809447285507
 30
0.0
 11
1489.897759369873
 21
-151.3809447285507
 31
0.0
  0
LINE
  5
45C
330
1F
100
AcDbEntity
  8
0-0
  6
JWW_DASHED1
 62
   120
370
     5
100
AcDbLine
 10
916.8977593698725
 20
-138.3809447274511
 30
0.0
 11
1489.897759369873
 21
-138.3809447274511
 31
0.0
  0
LINE
  5
45D
330
1F
100
AcDbEntity
  8
0-0
  6
JWW_DASHED1
 62
   120
370
     5
100
AcDbLine
 10
916.8977593698725
 20
-137.3809447275509
 30
0.0
 11
1489.897759369873
 21
-137.3809447275509
 31
0.0
  0
LINE
  5
45E
330
1F
100
AcDbEntity
  8
0-0
  6
JWW_DASHED1
 62
   120
370
     5
100
AcDbLine
 10
916.8977593698725
 20
-124.3809447264513
 30
0.0
 11
1489.897759369873
 21
-124.3809447264513
 31
0.0
  0
LINE
  5
45F
330
1F
100
AcDbEntity
  8
0-0
  6
JWW_DASHED1
 62
   120
370
     5
100
AcDbLine
 10
916.8977593698725
 20
-123.3809447265511
 30
0.0
 11
1489.897759369873
 21
-123.3809447265511
 31
0.0
  0
LINE
  5
460
330
1F
100
AcDbEntity
  8
0-0
  6
JWW_DASHED1
 62
   120
370
     5
100
AcDbLine
 10
916.8977593698725
 20
-110.3809447254515
 30
0.0
 11
1489.897759369873
 21
-110.3809447254515
 31
0.0
  0
LINE
  5
461
330
1F
100
AcDbEntity
  8
0-0
  6
JWW_DASHED1
 62
   120
370
     5
100
AcDbLine
 10
916.8977593698725
 20
-109.3809447255514
 30
0.0
 11
1489.897759369873
 21
-109.3809447255514
 31
0.0
  0
LINE
  5
462
330
1F
100
AcDbEntity
  8
0-0
  6
JWW_DASHED1
 62
   120
370
     5
100
AcDbLine
 10
916.8977593698725
 20
-96.38094472445175
 30
0.0
 11
1489.897759369873
 21
-96.38094472445175
 31
0.0
  0
LINE
  5
463
330
1F
100
AcDbEntity
  8
0-0
  6
JWW_DASHED1
 62
   120
370
     5
100
AcDbLine
 10
916.8977593698725
 20
-95.38094472455157
 30
0.0
 11
1489.897759369873
 21
-95.38094472455157
 31
0.0
  0
LINE
  5
464
330
1F
100
AcDbEntity
  8
0-0
  6
JWW_DASHED1
 62
   120
370
     5
100
AcDbLine
 10
916.8977593698725
 20
-82.38094472345196
 30
0.0
 11
1489.897759369873
 21
-82.38094472345196
 31
0.0
  0
LINE
  5
465
330
1F
100
AcDbEntity
  8
0-0
  6
JWW_DASHED1
 62
   120
370
     5
100
AcDbLine
 10
916.8977593698725
 20
-81.38094472355178
 30
0.0
 11
1489.897759369873
 21
-81.38094472355178
 31
0.0
  0
LINE
  5
466
330
1F
100
AcDbEntity
  8
0-0
  6
JWW_DASHED1
 62
   120
370
     5
100
AcDbLine
 10
916.8977593698725
 20
-68.38094472245217
 30
0.0
 11
1489.897759369873
 21
-68.38094472245217
 31
0.0
  0
LINE
  5
467
330
1F
100
AcDbEntity
  8
0-0
  6
JWW_DASHED1
 62
   120
370
     5
100
AcDbLine
 10
916.8977593698725
 20
-67.38094472255199
 30
0.0
 11
1489.897759369873
 21
-67.38094472255199
 31
0.0
  0
LINE
  5
468
330
1F
100
AcDbEntity
  8
0-0
  6
JWW_DASHED1
 62
   120
370
     5
100
AcDbLine
 10
916.8977593698725
 20
-54.38094472145238
 30
0.0
 11
1489.897759369873
 21
-54.38094472145238
 31
0.0
  0
LINE
  5
469
330
1F
100
AcDbEntity
  8
0-0
  6
JWW_DASHED1
 62
   120
370
     5
100
AcDbLine
 10
916.8977593698725
 20
-53.3809447215522
 30
0.0
 11
1489.897759369873
 21
-53.3809447215522
 31
0.0
  0
LINE
  5
46A
330
1F
100
AcDbEntity
  8
0-0
  6
JWW_DASHED1
 62
   120
370
     5
100
AcDbLine
 10
916.8977593698725
 20
-40.38094472045259
 30
0.0
 11
1489.897759369873
 21
-40.38094472045259
 31
0.0
  0
LINE
  5
46B
330
1F
100
AcDbEntity
  8
0-0
  6
JWW_DASHED1
 62
   120
370
     5
100
AcDbLine
 10
916.8977593698725
 20
-39.38094472055241
 30
0.0
 11
1489.897759369873
 21
-39.38094472055241
 31
0.0
  0
LINE
  5
46C
330
1F
100
AcDbEntity
  8
0-0
  6
JWW_DASHED1
 62
   120
370
     5
100
AcDbLine
 10
916.8977593698725
 20
-26.3809447194528
 30
0.0
 11
1489.897759369873
 21
-26.3809447194528
 31
0.0
  0
LINE
  5
46D
330
1F
100
AcDbEntity
  8
0-0
  6
JWW_DASHED1
 62
   120
370
     5
100
AcDbLine
 10
916.8977593698725
 20
-25.38094471955262
 30
0.0
 11
1489.897759369873
 21
-25.38094471955262
 31
0.0
  0
LINE
  5
46E
330
1F
100
AcDbEntity
  8
0-0
  6
JWW_DASHED1
 62
   120
370
     5
100
AcDbLine
 10
916.8977593698725
 20
-12.38094471845301
 30
0.0
 11
1489.897759369873
 21
-12.38094471845301
 31
0.0
  0
LINE
  5
46F
330
1F
100
AcDbEntity
  8
0-0
  6
JWW_DASHED1
 62
   120
370
     5
100
AcDbLine
 10
916.8977593698725
 20
-11.38094471855283
 30
0.0
 11
1489.897759369873
 21
-11.38094471855283
 31
0.0
  0
LINE
  5
470
330
1F
100
AcDbEntity
  8
0-0
  6
JWW_DASHED1
 62
   120
370
     5
100
AcDbLine
 10
916.8977593698725
 20
1.619055282546782
 30
0.0
 11
1489.897759369873
 21
1.619055282546782
 31
0.0
  0
LINE
  5
471
330
1F
100
AcDbEntity
  8
0-0
  6
JWW_DASHED1
 62
   120
370
     5
100
AcDbLine
 10
916.8977593698725
 20
2.619055282446965
 30
0.0
 11
1489.897759369873
 21
2.619055282446965
 31
0.0
  0
LINE
  5
472
330
1F
100
AcDbEntity
  8
0-0
  6
JWW_DASHED1
 62
   120
370
     5
100
AcDbLine
 10
916.8977593698725
 20
15.61905528354657
 30
0.0
 11
1489.897759369873
 21
15.61905528354657
 31
0.0
  0
LINE
  5
473
330
1F
100
AcDbEntity
  8
0-0
  6
JWW_DASHED1
 62
   120
370
     5
100
AcDbLine
 10
916.8977593698725
 20
16.61905528344676
 30
0.0
 11
1489.897759369873
 21
16.61905528344676
 31
0.0
  0
LINE
  5
474
330
1F
100
AcDbEntity
  8
0-0
  6
JWW_DASHED1
 62
   120
370
     5
100
AcDbLine
 10
916.8977593698725
 20
29.61905528454636
 30
0.0
 11
1489.897759369873
 21
29.61905528454636
 31
0.0
  0
LINE
  5
475
330
1F
100
AcDbEntity
  8
0-0
  6
JWW_DASHED1
 62
   120
370
     5
100
AcDbLine
 10
916.8977593698725
 20
30.61905528444655
 30
0.0
 11
1489.897759369873
 21
30.61905528444655
 31
0.0
  0
LINE
  5
476
330
1F
100
AcDbEntity
  8
0-0
  6
JWW_DASHED1
 62
   120
370
     5
100
AcDbLine
 10
916.8977593698725
 20
43.61905528554615
 30
0.0
 11
1489.897759369873
 21
43.61905528554615
 31
0.0
  0
LINE
  5
477
330
1F
100
AcDbEntity
  8
0-0
  6
JWW_DASHED1
 62
   120
370
     5
100
AcDbLine
 10
916.8977593698725
 20
44.61905528544634
 30
0.0
 11
1489.897759369873
 21
44.61905528544634
 31
0.0
  0
LINE
  5
478
330
1F
100
AcDbEntity
  8
0-0
  6
JWW_DASHED1
 62
   120
370
     5
100
AcDbLine
 10
916.8977593698725
 20
57.61905528654594
 30
0.0
 11
1489.897759369873
 21
57.61905528654594
 31
0.0
  0
LINE
  5
479
330
1F
100
AcDbEntity
  8
0-0
  6
JWW_DASHED1
 62
   120
370
     5
100
AcDbLine
 10
916.8977593698725
 20
58.61905528644613
 30
0.0
 11
1489.897759369873
 21
58.61905528644613
 31
0.0
  0
LINE
  5
47A
330
1F
100
AcDbEntity
  8
0-0
  6
JWW_DASHED1
 62
   120
370
     5
100
AcDbLine
 10
916.8977593698725
 20
71.61905528754573
 30
0.0
 11
1489.897759369873
 21
71.61905528754573
 31
0.0
  0
LINE
  5
47B
330
1F
100
AcDbEntity
  8
0-0
  6
JWW_DASHED1
 62
   120
370
     5
100
AcDbLine
 10
916.8977593698725
 20
72.61905528744592
 30
0.0
 11
1489.897759369873
 21
72.61905528744592
 31
0.0
  0
LINE
  5
47C
330
1F
100
AcDbEntity
  8
0-0
  6
JWW_DASHED1
 62
   120
370
     5
100
AcDbLine
 10
916.8977593698725
 20
85.61905528854552
 30
0.0
 11
1489.897759369873
 21
85.61905528854552
 31
0.0
  0
LINE
  5
47D
330
1F
100
AcDbEntity
  8
0-0
  6
JWW_DASHED1
 62
   120
370
     5
100
AcDbLine
 10
916.8977593698725
 20
86.61905528844571
 30
0.0
 11
1489.897759369873
 21
86.61905528844571
 31
0.0
  0
LINE
  5
47E
330
1F
100
AcDbEntity
  8
0-0
  6
JWW_DASHED1
 62
   120
370
     5
100
AcDbLine
 10
916.8977593698725
 20
99.61905528954532
 30
0.0
 11
1489.897759369873
 21
99.61905528954532
 31
0.0
  0
LINE
  5
47F
330
1F
100
AcDbEntity
  8
0-0
  6
JWW_DASHED1
 62
   120
370
     5
100
AcDbLine
 10
916.8977593698725
 20
100.6190552894455
 30
0.0
 11
1489.897759369873
 21
100.6190552894455
 31
0.0
  0
LINE
  5
480
330
1F
100
AcDbEntity
  8
0-0
  6
JWW_DASHED1
 62
   120
370
     5
100
AcDbLine
 10
916.8977593698725
 20
113.6190552905451
 30
0.0
 11
1489.897759369873
 21
113.6190552905451
 31
0.0
  0
LINE
  5
481
330
1F
100
AcDbEntity
  8
0-0
  6
JWW_DASHED1
 62
   120
370
     5
100
AcDbLine
 10
916.8977593698725
 20
114.6190552904453
 30
0.0
 11
1489.897759369873
 21
114.6190552904453
 31
0.0
  0
LINE
  5
482
330
1F
100
AcDbEntity
  8
0-0
  6
JWW_DASHED1
 62
   120
370
     5
100
AcDbLine
 10
916.8977593698725
 20
127.6190552915449
 30
0.0
 11
1489.897759369873
 21
127.6190552915449
 31
0.0
  0
LINE
  5
483
330
1F
100
AcDbEntity
  8
0-0
  6
JWW_DASHED1
 62
   120
370
     5
100
AcDbLine
 10
916.8977593698725
 20
128.6190552914451
 30
0.0
 11
1489.897759369873
 21
128.6190552914451
 31
0.0
  0
LINE
  5
484
330
1F
100
AcDbEntity
  8
0-0
  6
JWW_DASHED1
 62
   120
370
     5
100
AcDbLine
 10
916.8977593698725
 20
141.6190552925447
 30
0.0
 11
1489.897759369873
 21
141.6190552925447
 31
0.0
  0
LINE
  5
485
330
1F
100
AcDbEntity
  8
0-0
  6
JWW_DASHED1
 62
   120
370
     5
100
AcDbLine
 10
916.8977593698725
 20
142.6190552924449
 30
0.0
 11
1489.897759369873
 21
142.6190552924449
 31
0.0
  0
LINE
  5
486
330
1F
100
AcDbEntity
  8
0-0
  6
JWW_DASHED1
 62
   120
370
     5
100
AcDbLine
 10
916.8977593698725
 20
155.6190552935445
 30
0.0
 11
1489.897759369873
 21
155.6190552935445
 31
0.0
  0
LINE
  5
487
330
1F
100
AcDbEntity
  8
0-0
  6
JWW_DASHED1
 62
   120
370
     5
100
AcDbLine
 10
916.8977593698725
 20
156.6190552934447
 30
0.0
 11
1489.897759369873
 21
156.6190552934447
 31
0.0
  0
LINE
  5
488
330
1F
100
AcDbEntity
  8
0-0
  6
JWW_DASHED1
 62
   120
370
     5
100
AcDbLine
 10
916.8977593698725
 20
169.6190552945443
 30
0.0
 11
1489.897759369873
 21
169.6190552945443
 31
0.0
  0
LINE
  5
489
330
1F
100
AcDbEntity
  8
0-0
  6
JWW_DASHED1
 62
   120
370
     5
100
AcDbLine
 10
916.8977593698725
 20
170.6190552944445
 30
0.0
 11
1489.897759369873
 21
170.6190552944445
 31
0.0
  0
LINE
  5
48A
330
1F
100
AcDbEntity
  8
0-0
  6
JWW_DASHED1
 62
   120
370
     5
100
AcDbLine
 10
916.8977593698725
 20
183.6190552955441
 30
0.0
 11
1489.897759369873
 21
183.6190552955441
 31
0.0
  0
LINE
  5
48B
330
1F
100
AcDbEntity
  8
0-0
  6
JWW_DASHED1
 62
   120
370
     5
100
AcDbLine
 10
916.8977593698725
 20
184.6190552954442
 30
0.0
 11
1489.897759369873
 21
184.6190552954442
 31
0.0
  0
LINE
  5
48C
330
1F
100
AcDbEntity
  8
0-0
  6
JWW_DASHED1
 62
   120
370
     5
100
AcDbLine
 10
916.8977593698725
 20
197.6190552965438
 30
0.0
 11
1489.897759369873
 21
197.6190552965438
 31
0.0
  0
LINE
  5
48D
330
1F
100
AcDbEntity
  8
0-0
  6
JWW_DASHED1
 62
   120
370
     5
100
AcDbLine
 10
916.8977593698725
 20
198.619055296444
 30
0.0
 11
1489.897759369873
 21
198.619055296444
 31
0.0
  0
LINE
  5
48E
330
1F
100
AcDbEntity
  8
0-0
  6
JWW_DASHED1
 62
   120
370
     5
100
AcDbLine
 10
916.8977593698725
 20
211.6190552975436
 30
0.0
 11
1489.897759369873
 21
211.6190552975436
 31
0.0
  0
LINE
  5
48F
330
1F
100
AcDbEntity
  8
0-0
  6
JWW_DASHED1
 62
   120
370
     5
100
AcDbLine
 10
916.8977593698725
 20
212.6190552974438
 30
0.0
 11
1489.897759369873
 21
212.6190552974438
 31
0.0
  0
LINE
  5
490
330
1F
100
AcDbEntity
  8
0-0
  6
JWW_DASHED1
 62
   120
370
     5
100
AcDbLine
 10
916.8977593698725
 20
225.6190552985434
 30
0.0
 11
1489.897759369873
 21
225.6190552985434
 31
0.0
  0
LINE
  5
491
330
1F
100
AcDbEntity
  8
0-0
  6
JWW_DASHED1
 62
   120
370
     5
100
AcDbLine
 10
916.8977593698725
 20
226.6190552984436
 30
0.0
 11
1489.897759369873
 21
226.6190552984436
 31
0.0
  0
LINE
  5
492
330
1F
100
AcDbEntity
  8
0-0
  6
JWW_DASHED1
 62
   120
370
     5
100
AcDbLine
 10
916.8977593698725
 20
239.6190552995432
 30
0.0
 11
1489.897759369873
 21
239.6190552995432
 31
0.0
  0
LINE
  5
493
330
1F
100
AcDbEntity
  8
0-0
  6
JWW_DASHED1
 62
   120
370
     5
100
AcDbLine
 10
916.8977593698725
 20
240.6190552994434
 30
0.0
 11
1489.897759369873
 21
240.6190552994434
 31
0.0
  0
LINE
  5
494
330
1F
100
AcDbEntity
  8
0-0
  6
JWW_DASHED1
 62
   120
370
     5
100
AcDbLine
 10
916.8977593698725
 20
253.619055300543
 30
0.0
 11
1489.897759369873
 21
253.619055300543
 31
0.0
  0
LINE
  5
495
330
1F
100
AcDbEntity
  8
0-0
  6
JWW_DASHED1
 62
   120
370
     5
100
AcDbLine
 10
916.8977593698725
 20
254.6190553004432
 30
0.0
 11
1489.897759369873
 21
254.6190553004432
 31
0.0
  0
LINE
  5
496
330
1F
100
AcDbEntity
  8
0-0
  6
JWW_DASHED1
 62
   120
370
     5
100
AcDbLine
 10
916.8977593698725
 20
267.6190553015428
 30
0.0
 11
1489.897759369873
 21
267.6190553015428
 31
0.0
  0
LINE
  5
497
330
1F
100
AcDbEntity
  8
0-0
  6
JWW_DASHED1
 62
   120
370
     5
100
AcDbLine
 10
916.8977593698725
 20
268.619055301443
 30
0.0
 11
1489.897759369873
 21
268.619055301443
 31
0.0
  0
LINE
  5
498
330
1F
100
AcDbEntity
  8
0-0
  6
JWW_DASHED1
 62
   120
370
     5
100
AcDbLine
 10
916.8977593698725
 20
281.6190553025426
 30
0.0
 11
1489.897759369873
 21
281.6190553025426
 31
0.0
  0
LINE
  5
499
330
1F
100
AcDbEntity
  8
0-0
  6
JWW_DASHED1
 62
   120
370
     5
100
AcDbLine
 10
916.8977593698725
 20
282.6190553024428
 30
0.0
 11
1489.897759369873
 21
282.6190553024428
 31
0.0
  0
LINE
  5
49A
330
1F
100
AcDbEntity
  8
0-0
  6
JWW_DASHED1
 62
   120
370
     5
100
AcDbLine
 10
916.8977593698725
 20
295.6190553035424
 30
0.0
 11
1489.897759369873
 21
295.6190553035424
 31
0.0
  0
LINE
  5
49B
330
1F
100
AcDbEntity
  8
0-0
  6
JWW_DASHED1
 62
   120
370
     5
100
AcDbLine
 10
916.8977593698725
 20
296.6190553034426
 30
0.0
 11
1489.897759369873
 21
296.6190553034426
 31
0.0
  0
LINE
  5
49C
330
1F
100
AcDbEntity
  8
0-0
  6
JWW_DASHED1
 62
   120
370
     5
100
AcDbLine
 10
916.8977593698725
 20
309.6190553045421
 30
0.0
 11
1489.897759369873
 21
309.6190553045421
 31
0.0
  0
LINE
  5
49D
330
1F
100
AcDbEntity
  8
0-0
  6
JWW_DASHED1
 62
   120
370
     5
100
AcDbLine
 10
916.8977593698725
 20
310.6190553044423
 30
0.0
 11
1489.897759369873
 21
310.6190553044423
 31
0.0
  0
LINE
  5
49E
330
1F
100
AcDbEntity
  8
0-0
  6
JWW_DASHED1
 62
   120
370
     5
100
AcDbLine
 10
916.8977593698725
 20
323.619055305542
 30
0.0
 11
1489.897759369873
 21
323.619055305542
 31
0.0
  0
LINE
  5
49F
330
1F
100
AcDbEntity
  8
0-0
  6
JWW_DASHED1
 62
   120
370
     5
100
AcDbLine
 10
916.8977593698725
 20
324.6190553054421
 30
0.0
 11
1489.897759369873
 21
324.6190553054421
 31
0.0
  0
LINE
  5
4A0
330
1F
100
AcDbEntity
  8
0-0
  6
JWW_DASHED1
 62
   120
370
     5
100
AcDbLine
 10
916.8977593698725
 20
337.6190553065418
 30
0.0
 11
1489.897759369873
 21
337.6190553065418
 31
0.0
  0
LINE
  5
4A1
330
1F
100
AcDbEntity
  8
0-0
  6
JWW_DASHED1
 62
   120
370
     5
100
AcDbLine
 10
916.8977593698725
 20
338.619055306442
 30
0.0
 11
1489.897759369873
 21
338.619055306442
 31
0.0
  0
LINE
  5
4A2
330
1F
100
AcDbEntity
  8
0-0
  6
JWW_DASHED1
 62
   120
370
     5
100
AcDbLine
 10
916.8977593698725
 20
351.6190553075415
 30
0.0
 11
1489.897759369873
 21
351.6190553075415
 31
0.0
  0
LINE
  5
4A3
330
1F
100
AcDbEntity
  8
0-0
  6
JWW_DASHED1
 62
   120
370
     5
100
AcDbLine
 10
916.8977593698725
 20
352.6190553074417
 30
0.0
 11
1489.897759369873
 21
352.6190553074417
 31
0.0
  0
LINE
  5
4A4
330
1F
100
AcDbEntity
  8
0-0
  6
JWW_DASHED1
 62
   120
370
     5
100
AcDbLine
 10
916.8977593698725
 20
365.6190553085413
 30
0.0
 11
1489.897759369873
 21
365.6190553085413
 31
0.0
  0
LINE
  5
4A5
330
1F
100
AcDbEntity
  8
0-0
  6
JWW_DASHED1
 62
   120
370
     5
100
AcDbLine
 10
916.8977593698725
 20
366.6190553084415
 30
0.0
 11
1489.897759369873
 21
366.6190553084415
 31
0.0
  0
LINE
  5
4A6
330
1F
100
AcDbEntity
  8
0-0
  6
JWW_DASHED1
 62
   120
370
     5
100
AcDbLine
 10
916.8977593698725
 20
379.6190553095411
 30
0.0
 11
1489.897759369873
 21
379.6190553095411
 31
0.0
  0
LINE
  5
4A7
330
1F
100
AcDbEntity
  8
0-0
  6
JWW_DASHED1
 62
   120
370
     5
100
AcDbLine
 10
916.8977593698725
 20
380.6190553094413
 30
0.0
 11
1489.897759369873
 21
380.6190553094413
 31
0.0
  0
LINE
  5
4A8
330
1F
100
AcDbEntity
  8
0-0
  6
JWW_DASHED1
 62
   120
370
     5
100
AcDbLine
 10
916.8977593698725
 20
393.6190553105409
 30
0.0
 11
1489.897759369873
 21
393.6190553105409
 31
0.0
  0
LINE
  5
4A9
330
1F
100
AcDbEntity
  8
0-0
  6
JWW_DASHED1
 62
   120
370
     5
100
AcDbLine
 10
916.8977593698725
 20
394.6190553104411
 30
0.0
 11
1489.897759369873
 21
394.6190553104411
 31
0.0
  0
LINE
  5
4AA
330
1F
100
AcDbEntity
  8
0-0
  6
JWW_DASHED1
 62
   120
370
     5
100
AcDbLine
 10
916.8977593698725
 20
407.6190553115407
 30
0.0
 11
1489.897759369873
 21
407.6190553115407
 31
0.0
  0
LINE
  5
4AB
330
1F
100
AcDbEntity
  8
0-0
  6
JWW_DASHED1
 62
   120
370
     5
100
AcDbLine
 10
916.8977593698725
 20
408.6190553114409
 30
0.0
 11
1489.897759369873
 21
408.6190553114409
 31
0.0
  0
LINE
  5
4AC
330
1F
100
AcDbEntity
  8
0-0
  6
JWW_DASHED1
 62
   120
370
     5
100
AcDbLine
 10
916.8977593698725
 20
421.6190553125405
 30
0.0
 11
1489.897759369873
 21
421.6190553125405
 31
0.0
  0
LINE
  5
4AD
330
1F
100
AcDbEntity
  8
0-0
  6
JWW_DASHED1
 62
   120
370
     5
100
AcDbLine
 10
916.8977593698725
 20
422.6190553124407
 30
0.0
 11
1489.897759369873
 21
422.6190553124407
 31
0.0
  0
LINE
  5
4AE
330
1F
100
AcDbEntity
  8
0-0
  6
JWW_DASHED1
 62
   120
370
     5
100
AcDbLine
 10
916.8977593698725
 20
435.6190553135403
 30
0.0
 11
1489.897759369873
 21
435.6190553135403
 31
0.0
  0
LINE
  5
4AF
330
1F
100
AcDbEntity
  8
0-0
  6
JWW_DASHED1
 62
   120
370
     5
100
AcDbLine
 10
916.8977593698725
 20
436.6190553134405
 30
0.0
 11
1489.897759369873
 21
436.6190553134405
 31
0.0
  0
LINE
  5
4B0
330
1F
100
AcDbEntity
  8
0-0
  6
JWW_DASHED1
 62
   120
370
     5
100
AcDbLine
 10
916.8977593698725
 20
449.6190553145401
 30
0.0
 11
1489.897759369873
 21
449.6190553145401
 31
0.0
  0
LINE
  5
4B1
330
1F
100
AcDbEntity
  8
0-0
  6
JWW_DASHED1
 62
   120
370
     5
100
AcDbLine
 10
916.8977593698725
 20
450.6190553144403
 30
0.0
 11
1489.897759369873
 21
450.6190553144403
 31
0.0
  0
LINE
  5
4B2
330
1F
100
AcDbEntity
  8
0-0
  6
JWW_DASHED1
 62
   120
370
     5
100
AcDbLine
 10
916.8977593698725
 20
463.6190553155399
 30
0.0
 11
1489.897759369873
 21
463.6190553155399
 31
0.0
  0
LINE
  5
4B3
330
1F
100
AcDbEntity
  8
0-0
  6
JWW_DASHED1
 62
   120
370
     5
100
AcDbLine
 10
916.8977593698725
 20
464.6190553154401
 30
0.0
 11
1489.897759369873
 21
464.6190553154401
 31
0.0
  0
LINE
  5
4B4
330
1F
100
AcDbEntity
  8
0-0
  6
JWW_DASHED1
 62
   120
370
     5
100
AcDbLine
 10
916.8977593698725
 20
477.6190553165396
 30
0.0
 11
1489.897759369873
 21
477.6190553165396
 31
0.0
  0
LINE
  5
4B5
330
1F
100
AcDbEntity
  8
0-0
  6
JWW_DASHED1
 62
   120
370
     5
100
AcDbLine
 10
916.8977593698725
 20
478.6190553164398
 30
0.0
 11
1489.897759369873
 21
478.6190553164398
 31
0.0
  0
LINE
  5
4B6
330
1F
100
AcDbEntity
  8
0-0
  6
JWW_DASHED1
 62
   120
370
     5
100
AcDbLine
 10
916.8977593698725
 20
491.6190553175394
 30
0.0
 11
1489.897759369873
 21
491.6190553175394
 31
0.0
  0
LINE
  5
4B7
330
1F
100
AcDbEntity
  8
0-0
  6
JWW_DASHED1
 62
   120
370
     5
100
AcDbLine
 10
916.8977593698725
 20
492.6190553174396
 30
0.0
 11
1489.897759369873
 21
492.6190553174396
 31
0.0
  0
LINE
  5
4B8
330
1F
100
AcDbEntity
  8
0-0
  6
JWW_DASHED1
 62
   120
370
     5
100
AcDbLine
 10
916.8977593698725
 20
505.6190553185393
 30
0.0
 11
1489.897759369873
 21
505.6190553185393
 31
0.0
  0
LINE
  5
4B9
330
1F
100
AcDbEntity
  8
0-0
  6
JWW_DASHED1
 62
   120
370
     5
100
AcDbLine
 10
916.8977593698725
 20
506.6190553184395
 30
0.0
 11
1489.897759369873
 21
506.6190553184395
 31
0.0
  0
LINE
  5
4BA
330
1F
100
AcDbEntity
  8
0-0
  6
JWW_DASHED1
 62
   120
370
     5
100
AcDbLine
 10
916.8977593698725
 20
519.619055319539
 30
0.0
 11
1489.897759369873
 21
519.619055319539
 31
0.0
  0
LINE
  5
4BB
330
1F
100
AcDbEntity
  8
0-0
  6
JWW_DASHED1
 62
   120
370
     5
100
AcDbLine
 10
916.8977593698725
 20
520.6190553194392
 30
0.0
 11
1489.897759369873
 21
520.6190553194392
 31
0.0
  0
LINE
  5
4BC
330
1F
100
AcDbEntity
  8
0-0
  6
JWW_DASHED1
 62
   120
370
     5
100
AcDbLine
 10
916.8977593698725
 20
533.6190553205388
 30
0.0
 11
1489.897759369873
 21
533.6190553205388
 31
0.0
  0
LINE
  5
4BD
330
1F
100
AcDbEntity
  8
0-0
  6
JWW_DASHED1
 62
   120
370
     5
100
AcDbLine
 10
916.8977593698725
 20
534.619055320439
 30
0.0
 11
1489.897759369873
 21
534.619055320439
 31
0.0
  0
LINE
  5
4BE
330
1F
100
AcDbEntity
  8
0-0
  6
JWW_DASHED1
 62
   120
370
     5
100
AcDbLine
 10
916.8977593698725
 20
547.6190553215386
 30
0.0
 11
1489.897759369873
 21
547.6190553215386
 31
0.0
  0
LINE
  5
4BF
330
1F
100
AcDbEntity
  8
0-0
  6
JWW_DASHED1
 62
   120
370
     5
100
AcDbLine
 10
916.8977593698725
 20
548.6190553214387
 30
0.0
 11
1489.897759369873
 21
548.6190553214387
 31
0.0
  0
LINE
  5
4C0
330
1F
100
AcDbEntity
  8
0-0
  6
JWW_DASHED1
 62
   120
370
     5
100
AcDbLine
 10
916.8977593698725
 20
561.6190553225384
 30
0.0
 11
1489.897759369873
 21
561.6190553225384
 31
0.0
  0
LINE
  5
4C1
330
1F
100
AcDbEntity
  8
0-0
  6
JWW_DASHED1
 62
   120
370
     5
100
AcDbLine
 10
916.8977593698725
 20
562.6190553224386
 30
0.0
 11
1489.897759369873
 21
562.6190553224386
 31
0.0
  0
LINE
  5
4C2
330
1F
100
AcDbEntity
  8
0-0
  6
JWW_DASHED1
 62
   120
370
     5
100
AcDbLine
 10
916.8977593698725
 20
575.6190553235382
 30
0.0
 11
1489.897759369873
 21
575.6190553235382
 31
0.0
  0
LINE
  5
4C3
330
1F
100
AcDbEntity
  8
0-0
  6
JWW_DASHED1
 62
   120
370
     5
100
AcDbLine
 10
916.8977593698725
 20
576.6190553234384
 30
0.0
 11
1489.897759369873
 21
576.6190553234384
 31
0.0
  0
LINE
  5
4C4
330
1F
100
AcDbEntity
  8
0-0
  6
JWW_DASHED1
 62
   120
370
     5
100
AcDbLine
 10
916.8977593698725
 20
589.619055324538
 30
0.0
 11
1489.897759369873
 21
589.619055324538
 31
0.0
  0
LINE
  5
4C5
330
1F
100
AcDbEntity
  8
0-0
  6
JWW_DASHED1
 62
   120
370
     5
100
AcDbLine
 10
916.8977593698725
 20
590.6190553244381
 30
0.0
 11
1489.897759369873
 21
590.6190553244381
 31
0.0
  0
LINE
  5
4C6
330
1F
100
AcDbEntity
  8
0-0
  6
JWW_DASHED1
 62
   120
370
     5
100
AcDbLine
 10
916.8977593698725
 20
603.6190553255378
 30
0.0
 11
1489.897759369873
 21
603.6190553255378
 31
0.0
  0
LINE
  5
4C7
330
1F
100
AcDbEntity
  8
0-0
  6
JWW_DASHED1
 62
   120
370
     5
100
AcDbLine
 10
916.8977593698725
 20
604.619055325438
 30
0.0
 11
1489.897759369873
 21
604.619055325438
 31
0.0
  0
LINE
  5
4C8
330
1F
100
AcDbEntity
  8
0-0
  6
JWW_DASHED1
 62
   120
370
     5
100
AcDbLine
 10
916.8977593698725
 20
617.6190553265376
 30
0.0
 11
1489.897759369873
 21
617.6190553265376
 31
0.0
  0
LINE
  5
4C9
330
1F
100
AcDbEntity
  8
0-0
  6
JWW_DASHED1
 62
   120
370
     5
100
AcDbLine
 10
916.8977593698725
 20
618.6190553264378
 30
0.0
 11
1489.897759369873
 21
618.6190553264378
 31
0.0
  0
LINE
  5
4CA
330
1F
100
AcDbEntity
  8
0-0
  6
JWW_DASHED1
 62
   120
370
     5
100
AcDbLine
 10
916.8977593698725
 20
631.6190553275374
 30
0.0
 11
1489.897759369873
 21
631.6190553275374
 31
0.0
  0
LINE
  5
4CB
330
1F
100
AcDbEntity
  8
0-0
  6
JWW_DASHED1
 62
   120
370
     5
100
AcDbLine
 10
916.8977593698725
 20
632.6190553274375
 30
0.0
 11
1489.897759369873
 21
632.6190553274375
 31
0.0
  0
LINE
  5
4CC
330
1F
100
AcDbEntity
  8
0-0
  6
JWW_DASHED1
 62
   120
370
     5
100
AcDbLine
 10
1004.316601131836
 20
645.6190553285371
 30
0.0
 11
1402.478917607909
 21
645.6190553285371
 31
0.0
  0
LINE
  5
4CD
330
1F
100
AcDbEntity
  8
0-0
  6
JWW_DASHED1
 62
   120
370
     5
100
AcDbLine
 10
1007.910831003196
 20
646.6190553284373
 30
0.0
 11
1398.884687736549
 21
646.6190553284373
 31
0.0
  0
LINE
  5
4CE
330
1F
100
AcDbEntity
  8
0-0
  6
JWW_DASHED1
 62
   120
370
     5
100
AcDbLine
 10
1039.022908471452
 20
659.6190553295369
 30
0.0
 11
1367.772610268293
 21
659.6190553295369
 31
0.0
  0
LINE
  5
4CF
330
1F
100
AcDbEntity
  8
0-0
  6
JWW_DASHED1
 62
   120
370
     5
100
AcDbLine
 10
1040.916708461118
 20
660.6190553294371
 30
0.0
 11
1365.878810278627
 21
660.6190553294371
 31
0.0
  0
LINE
  5
4D0
330
1F
100
AcDbEntity
  8
0-0
  6
JWW_DASHED1
 62
   120
370
     5
100
AcDbLine
 10
1068.597552553438
 20
673.6190553305368
 30
0.0
 11
1338.197966186307
 21
673.6190553305368
 31
0.0
  0
LINE
  5
4D1
330
1F
100
AcDbEntity
  8
0-0
  6
JWW_DASHED1
 62
   120
370
     5
100
AcDbLine
 10
1071.019150621014
 20
674.6190553304369
 30
0.0
 11
1335.776368118731
 21
674.6190553304369
 31
0.0
  0
LINE
  5
4D2
330
1F
100
AcDbEntity
  8
0-0
  6
JWW_DASHED1
 62
   120
370
     5
100
AcDbLine
 10
1108.893262611382
 20
687.6190553315365
 30
0.0
 11
1297.902256128363
 21
687.6190553315365
 31
0.0
  0
LINE
  5
4D3
330
1F
100
AcDbEntity
  8
0-0
  6
JWW_DASHED1
 62
   120
370
     5
100
AcDbLine
 10
1112.534674433755
 20
688.6190553314367
 30
0.0
 11
1294.26084430599
 21
688.6190553314367
 31
0.0
  0
LINE
  5
4D4
330
1F
100
AcDbEntity
  8
0-0
  6
JWW_DASHED1
 62
   120
370
     5
100
AcDbLine
 10
1483.897777867805
 20
-474.3807964376023
 30
0.0
 11
1483.897777867805
 21
640.6189360180892
 31
0.0
  0
LINE
  5
4D5
330
1F
100
AcDbEntity
  8
0-0
  6
JWW_DASHED1
 62
   120
370
     5
100
AcDbLine
 10
1482.897777867904
 20
-474.3807964376023
 30
0.0
 11
1482.897777867904
 21
640.6189360180892
 31
0.0
  0
LINE
  5
4D6
330
1F
100
AcDbEntity
  8
0-0
  6
JWW_DASHED1
 62
   120
370
     5
100
AcDbLine
 10
1469.897777866804
 20
-474.3807964376023
 30
0.0
 11
1469.897777866804
 21
640.6189360180892
 31
0.0
  0
LINE
  5
4D7
330
1F
100
AcDbEntity
  8
0-0
  6
JWW_DASHED1
 62
   120
370
     5
100
AcDbLine
 10
1468.897777866904
 20
-474.3807964376023
 30
0.0
 11
1468.897777866905
 21
640.6189360180892
 31
0.0
  0
LINE
  5
4D8
330
1F
100
AcDbEntity
  8
0-0
  6
JWW_DASHED1
 62
   120
370
     5
100
AcDbLine
 10
1455.897777865804
 20
-474.3807964376023
 30
0.0
 11
1455.897777865805
 21
640.6189360180892
 31
0.0
  0
LINE
  5
4D9
330
1F
100
AcDbEntity
  8
0-0
  6
JWW_DASHED1
 62
   120
370
     5
100
AcDbLine
 10
1454.897777865905
 20
-474.3807964376023
 30
0.0
 11
1454.897777865905
 21
640.6189360180892
 31
0.0
  0
LINE
  5
4DA
330
1F
100
AcDbEntity
  8
0-0
  6
JWW_DASHED1
 62
   120
370
     5
100
AcDbLine
 10
1441.897777864805
 20
-474.3807964376023
 30
0.0
 11
1441.897777864805
 21
640.6189360180892
 31
0.0
  0
LINE
  5
4DB
330
1F
100
AcDbEntity
  8
0-0
  6
JWW_DASHED1
 62
   120
370
     5
100
AcDbLine
 10
1440.897777864905
 20
-474.3807964376023
 30
0.0
 11
1440.897777864905
 21
640.6189360180892
 31
0.0
  0
LINE
  5
4DC
330
1F
100
AcDbEntity
  8
0-0
  6
JWW_DASHED1
 62
   120
370
     5
100
AcDbLine
 10
1427.897777863805
 20
-474.3807964376023
 30
0.0
 11
1427.897777863805
 21
641.1822285233015
 31
0.0
  0
LINE
  5
4DD
330
1F
100
AcDbEntity
  8
0-0
  6
JWW_DASHED1
 62
   120
370
     5
100
AcDbLine
 10
1426.897777863904
 20
-474.3807964376023
 30
0.0
 11
1426.897777863904
 21
641.2725101853343
 31
0.0
  0
LINE
  5
4DE
330
1F
100
AcDbEntity
  8
0-0
  6
JWW_DASHED1
 62
   120
370
     5
100
AcDbLine
 10
1413.897777862804
 20
-474.3807964376023
 30
0.0
 11
1413.897777862804
 21
643.0666245598682
 31
0.0
  0
LINE
  5
4DF
330
1F
100
AcDbEntity
  8
0-0
  6
JWW_DASHED1
 62
   120
370
     5
100
AcDbLine
 10
1412.897777862904
 20
-474.3807964376023
 30
0.0
 11
1412.897777862904
 21
643.2530309423041
 31
0.0
  0
LINE
  5
4E0
330
1F
100
AcDbEntity
  8
0-0
  6
JWW_DASHED1
 62
   120
370
     5
100
AcDbLine
 10
1399.897777861804
 20
-474.3807964376023
 30
0.0
 11
1399.897777861804
 21
646.3274266130597
 31
0.0
  0
LINE
  5
4E1
330
1F
100
AcDbEntity
  8
0-0
  6
JWW_DASHED1
 62
   120
370
     5
100
AcDbLine
 10
1398.897777861905
 20
-474.3807964376023
 30
0.0
 11
1398.897777861905
 21
646.6152379804394
 31
0.0
  0
LINE
  5
4E2
330
1F
100
AcDbEntity
  8
0-0
  6
JWW_DASHED1
 62
   120
370
     5
100
AcDbLine
 10
1385.897777860804
 20
-474.3807964376023
 30
0.0
 11
1385.897777860805
 21
651.0610815059031
 31
0.0
  0
LINE
  5
4E3
330
1F
100
AcDbEntity
  8
0-0
  6
JWW_DASHED1
 62
   120
370
     5
100
AcDbLine
 10
1384.897777860905
 20
-474.3807964376023
 30
0.0
 11
1384.897777860905
 21
651.4592431534206
 31
0.0
  0
LINE
  5
4E4
330
1F
100
AcDbEntity
  8
0-0
  6
JWW_DASHED1
 62
   120
370
     5
100
AcDbLine
 10
1371.897777859805
 20
-474.3807964376023
 30
0.0
 11
1371.897777859805
 21
657.4245298830633
 31
0.0
  0
LINE
  5
4E5
330
1F
100
AcDbEntity
  8
0-0
  6
JWW_DASHED1
 62
   120
370
     5
100
AcDbLine
 10
1370.897777859904
 20
-474.3807964376023
 30
0.0
 11
1370.897777859904
 21
657.9472540818629
 31
0.0
  0
LINE
  5
4E6
330
1F
100
AcDbEntity
  8
0-0
  6
JWW_DASHED1
 62
   120
370
     5
100
AcDbLine
 10
1357.897777858804
 20
-474.3807964376023
 30
0.0
 11
1357.897777858804
 21
664.6729319066221
 31
0.0
  0
LINE
  5
4E7
330
1F
100
AcDbEntity
  8
0-0
  6
JWW_DASHED1
 62
   120
370
     5
100
AcDbLine
 10
1356.897777858904
 20
-474.3807964376023
 30
0.0
 11
1356.897777858904
 21
665.1629116919289
 31
0.0
  0
LINE
  5
4E8
330
1F
100
AcDbEntity
  8
0-0
  6
JWW_DASHED1
 62
   120
370
     5
100
AcDbLine
 10
1343.897777857805
 20
-474.3807964376023
 30
0.0
 11
1343.897777857805
 21
671.1808120012543
 31
0.0
  0
LINE
  5
4E9
330
1F
100
AcDbEntity
  8
0-0
  6
JWW_DASHED1
 62
   120
370
     5
100
AcDbLine
 10
1342.897777857905
 20
-474.3807964376023
 30
0.0
 11
1342.897777857905
 21
671.617248481431
 31
0.0
  0
LINE
  5
4EA
330
1F
100
AcDbEntity
  8
0-0
  6
JWW_DASHED1
 62
   120
370
     5
100
AcDbLine
 10
1329.897777856805
 20
-474.3807964376023
 30
0.0
 11
1329.897777856805
 21
676.9591265304884
 31
0.0
  0
LINE
  5
4EB
330
1F
100
AcDbEntity
  8
0-0
  6
JWW_DASHED1
 62
   120
370
     5
100
AcDbLine
 10
1328.897777856905
 20
-474.3807964376023
 30
0.0
 11
1328.897777856905
 21
677.3449989317637
 31
0.0
  0
LINE
  5
4EC
330
1F
100
AcDbEntity
  8
0-0
  6
JWW_DASHED1
 62
   120
370
     5
100
AcDbLine
 10
1315.897777855805
 20
-474.3807964376023
 30
0.0
 11
1315.897777855805
 21
682.0460368765603
 31
0.0
  0
LINE
  5
4ED
330
1F
100
AcDbEntity
  8
0-0
  6
JWW_DASHED1
 62
   120
370
     5
100
AcDbLine
 10
1314.897777855904
 20
-474.3807964376023
 30
0.0
 11
1314.897777855904
 21
682.3837976311702
 31
0.0
  0
LINE
  5
4EE
330
1F
100
AcDbEntity
  8
0-0
  6
JWW_DASHED1
 62
   120
370
     5
100
AcDbLine
 10
1301.897777854804
 20
-474.3807964376023
 30
0.0
 11
1301.897777854804
 21
686.4729609605788
 31
0.0
  0
LINE
  5
4EF
330
1F
100
AcDbEntity
  8
0-0
  6
JWW_DASHED1
 62
   120
370
     5
100
AcDbLine
 10
1300.897777854904
 20
-474.3807964376023
 30
0.0
 11
1300.897777854904
 21
686.7646280373051
 31
0.0
  0
LINE
  5
4F0
330
1F
100
AcDbEntity
  8
0-0
  6
JWW_DASHED1
 62
   120
370
     5
100
AcDbLine
 10
1287.897777853805
 20
-474.3807964376023
 30
0.0
 11
1287.897777853805
 21
690.2657063799566
 31
0.0
  0
LINE
  5
4F1
330
1F
100
AcDbEntity
  8
0-0
  6
JWW_DASHED1
 62
   120
370
     5
100
AcDbLine
 10
1286.897777853905
 20
-474.3807964376023
 30
0.0
 11
1286.897777853905
 21
690.512932414746
 31
0.0
  0
LINE
  5
4F2
330
1F
100
AcDbEntity
  8
0-0
  6
JWW_DASHED1
 62
   120
370
     5
100
AcDbLine
 10
1273.897777852805
 20
-474.3807964376023
 30
0.0
 11
1273.897777852805
 21
693.4453218700733
 31
0.0
  0
LINE
  5
4F3
330
1F
100
AcDbEntity
  8
0-0
  6
JWW_DASHED1
 62
   120
370
     5
100
AcDbLine
 10
1272.897777852904
 20
-474.3807964376023
 30
0.0
 11
1272.897777852904
 21
693.6494462974374
 31
0.0
  0
LINE
  5
4F4
330
1F
100
AcDbEntity
  8
0-0
  6
JWW_DASHED1
 62
   120
370
     5
100
AcDbLine
 10
1259.897777851804
 20
-474.3807964376023
 30
0.0
 11
1259.897777851804
 21
696.0287400716666
 31
0.0
  0
LINE
  5
4F5
330
1F
100
AcDbEntity
  8
0-0
  6
JWW_DASHED1
 62
   120
370
     5
100
AcDbLine
 10
1258.897777851904
 20
-474.3807964376023
 30
0.0
 11
1258.897777851904
 21
696.1908284804454
 31
0.0
  0
LINE
  5
4F6
330
1F
100
AcDbEntity
  8
0-0
  6
JWW_DASHED1
 62
   120
370
     5
100
AcDbLine
 10
1245.897777850804
 20
-474.3807964376023
 30
0.0
 11
1245.897777850804
 21
698.0292616049487
 31
0.0
  0
LINE
  5
4F7
330
1F
100
AcDbEntity
  8
0-0
  6
JWW_DASHED1
 62
   120
370
     5
100
AcDbLine
 10
1244.897777850904
 20
-474.3807964376023
 30
0.0
 11
1244.897777850904
 21
698.1501352304408
 31
0.0
  0
LINE
  5
4F8
330
1F
100
AcDbEntity
  8
0-0
  6
JWW_DASHED1
 62
   120
370
     5
100
AcDbLine
 10
1231.897777849805
 20
-474.3807964376023
 30
0.0
 11
1231.897777849805
 21
699.4569150367138
 31
0.0
  0
LINE
  5
4F9
330
1F
100
AcDbEntity
  8
0-0
  6
JWW_DASHED1
 62
   120
370
     5
100
AcDbLine
 10
1230.897777849905
 20
-474.3807964376023
 30
0.0
 11
1230.897777849905
 21
699.5371724083602
 31
0.0
  0
LINE
  5
4FA
330
1F
100
AcDbEntity
  8
0-0
  6
JWW_DASHED1
 62
   120
370
     5
100
AcDbLine
 10
1217.897777848805
 20
-474.3807964376023
 30
0.0
 11
1217.897777848805
 21
700.3187166648754
 31
0.0
  0
LINE
  5
4FB
330
1F
100
AcDbEntity
  8
0-0
  6
JWW_DASHED1
 62
   120
370
     5
100
AcDbLine
 10
1216.897777848905
 20
-474.3807964376023
 30
0.0
 11
1216.897777848905
 21
700.358748797204
 31
0.0
  0
LINE
  5
4FC
330
1F
100
AcDbEntity
  8
0-0
  6
JWW_DASHED1
 62
   120
370
     5
100
AcDbLine
 10
1203.897777847804
 20
-474.3807964376023
 30
0.0
 11
1203.897777847804
 21
700.6188463929507
 31
0.0
  0
LINE
  5
4FD
330
1F
100
AcDbEntity
  8
0-0
  6
JWW_DASHED1
 62
   120
370
     5
100
AcDbLine
 10
1202.897777847904
 20
-474.3807964376023
 30
0.0
 11
1202.897777847904
 21
700.6188464457741
 31
0.0
  0
LINE
  5
4FE
330
1F
100
AcDbEntity
  8
0-0
  6
JWW_DASHED1
 62
   120
370
     5
100
AcDbLine
 10
1189.897777846804
 20
-474.3807964376023
 30
0.0
 11
1189.897777846804
 21
700.3587502237101
 31
0.0
  0
LINE
  5
4FF
330
1F
100
AcDbEntity
  8
0-0
  6
JWW_DASHED1
 62
   120
370
     5
100
AcDbLine
 10
1188.897777846904
 20
-474.3807964376023
 30
0.0
 11
1188.897777846904
 21
700.3187181972467
 31
0.0
  0
LINE
  5
500
330
1F
100
AcDbEntity
  8
0-0
  6
JWW_DASHED1
 62
   120
370
     5
100
AcDbLine
 10
1175.897777845805
 20
-474.3807964376023
 30
0.0
 11
1175.897777845805
 21
699.5371753210716
 31
0.0
  0
LINE
  5
501
330
1F
100
AcDbEntity
  8
0-0
  6
JWW_DASHED1
 62
   120
370
     5
100
AcDbLine
 10
1174.897777845905
 20
-474.3807964376023
 30
0.0
 11
1174.897777845905
 21
699.4569180559997
 31
0.0
  0
LINE
  5
502
330
1F
100
AcDbEntity
  8
0-0
  6
JWW_DASHED1
 62
   120
370
     5
100
AcDbLine
 10
1161.897777844805
 20
-474.3807964376023
 30
0.0
 11
1161.897777844805
 21
698.150139643491
 31
0.0
  0
LINE
  5
503
330
1F
100
AcDbEntity
  8
0-0
  6
JWW_DASHED1
 62
   120
370
     5
100
AcDbLine
 10
1160.897777844905
 20
-474.3807964376023
 30
0.0
 11
1160.897777844905
 21
698.0292661258832
 31
0.0
  0
LINE
  5
504
330
1F
100
AcDbEntity
  8
0-0
  6
JWW_DASHED1
 62
   120
370
     5
100
AcDbLine
 10
1147.897777843805
 20
-474.3807964376023
 30
0.0
 11
1147.897777843805
 21
696.1908344157168
 31
0.0
  0
LINE
  5
505
330
1F
100
AcDbEntity
  8
0-0
  6
JWW_DASHED1
 62
   120
370
     5
100
AcDbLine
 10
1146.897777843904
 20
-474.3807964376023
 30
0.0
 11
1146.897777843904
 21
696.0287461166777
 31
0.0
  0
LINE
  5
506
330
1F
100
AcDbEntity
  8
0-0
  6
JWW_DASHED1
 62
   120
370
     5
100
AcDbLine
 10
1133.897777842805
 20
-474.3807964376023
 30
0.0
 11
1133.897777842805
 21
693.6494537849435
 31
0.0
  0
LINE
  5
507
330
1F
100
AcDbEntity
  8
0-0
  6
JWW_DASHED1
 62
   120
370
     5
100
AcDbLine
 10
1132.897777842905
 20
-474.3807964376023
 30
0.0
 11
1132.897777842905
 21
693.4453294698292
 31
0.0
  0
LINE
  5
508
330
1F
100
AcDbEntity
  8
0-0
  6
JWW_DASHED1
 62
   120
370
     5
100
AcDbLine
 10
1119.897777841805
 20
-474.3807964376023
 30
0.0
 11
1119.897777841805
 21
690.5129414935586
 31
0.0
  0
LINE
  5
509
330
1F
100
AcDbEntity
  8
0-0
  6
JWW_DASHED1
 62
   120
370
     5
100
AcDbLine
 10
1118.897777841905
 20
-474.3807964376023
 30
0.0
 11
1118.897777841905
 21
690.265715574184
 31
0.0
  0
LINE
  5
50A
330
1F
100
AcDbEntity
  8
0-0
  6
JWW_DASHED1
 62
   120
370
     5
100
AcDbLine
 10
1105.897777840805
 20
-474.3807964376023
 30
0.0
 11
1105.897777840805
 21
686.7646387564823
 31
0.0
  0
LINE
  5
50B
330
1F
100
AcDbEntity
  8
0-0
  6
JWW_DASHED1
 62
   120
370
     5
100
AcDbLine
 10
1104.897777840904
 20
-474.3807964376023
 30
0.0
 11
1104.897777840904
 21
686.4729717990999
 31
0.0
  0
LINE
  5
50C
330
1F
100
AcDbEntity
  8
0-0
  6
JWW_DASHED1
 62
   120
370
     5
100
AcDbLine
 10
1091.897777839804
 20
-474.3807964376023
 30
0.0
 11
1091.897777839804
 21
682.3838100513935
 31
0.0
  0
LINE
  5
50D
330
1F
100
AcDbEntity
  8
0-0
  6
JWW_DASHED1
 62
   120
370
     5
100
AcDbLine
 10
1090.897777839904
 20
-474.3807964376023
 30
0.0
 11
1090.897777839904
 21
682.0460494209842
 31
0.0
  0
LINE
  5
50E
330
1F
100
AcDbEntity
  8
0-0
  6
JWW_DASHED1
 62
   120
370
     5
100
AcDbLine
 10
1077.897777838804
 20
-474.3807964376023
 30
0.0
 11
1077.897777838804
 21
677.3450131270843
 31
0.0
  0
LINE
  5
50F
330
1F
100
AcDbEntity
  8
0-0
  6
JWW_DASHED1
 62
   120
370
     5
100
AcDbLine
 10
1076.897777838904
 20
-474.3807964376023
 30
0.0
 11
1076.897777838904
 21
676.959140855794
 31
0.0
  0
LINE
  5
510
330
1F
100
AcDbEntity
  8
0-0
  6
JWW_DASHED1
 62
   120
370
     5
100
AcDbLine
 10
1063.897777837805
 20
-474.3807964376023
 30
0.0
 11
1063.897777837805
 21
671.6172645418342
 31
0.0
  0
LINE
  5
511
330
1F
100
AcDbEntity
  8
0-0
  6
JWW_DASHED1
 62
   120
370
     5
100
AcDbLine
 10
1062.897777837905
 20
-474.3807964376023
 30
0.0
 11
1062.897777837905
 21
671.180828198791
 31
0.0
  0
LINE
  5
512
330
1F
100
AcDbEntity
  8
0-0
  6
JWW_DASHED1
 62
   120
370
     5
100
AcDbLine
 10
1049.897777836805
 20
-474.3807964376023
 30
0.0
 11
1049.897777836805
 21
665.1629297267177
 31
0.0
  0
LINE
  5
513
330
1F
100
AcDbEntity
  8
0-0
  6
JWW_DASHED1
 62
   120
370
     5
100
AcDbLine
 10
1048.897777836904
 20
-474.3807964376023
 30
0.0
 11
1048.897777836904
 21
664.6729500872757
 31
0.0
  0
LINE
  5
514
330
1F
100
AcDbEntity
  8
0-0
  6
JWW_DASHED1
 62
   120
370
     5
100
AcDbLine
 10
1035.897777835804
 20
-474.3807964376023
 30
0.0
 11
1035.897777835804
 21
657.9472735769364
 31
0.0
  0
LINE
  5
515
330
1F
100
AcDbEntity
  8
0-0
  6
JWW_DASHED1
 62
   120
370
     5
100
AcDbLine
 10
1034.897777835904
 20
-474.3807964376023
 30
0.0
 11
1034.897777835904
 21
657.4245490242524
 31
0.0
  0
LINE
  5
516
330
1F
100
AcDbEntity
  8
0-0
  6
JWW_DASHED1
 62
   120
370
     5
100
AcDbLine
 10
1021.897777834805
 20
-474.3807964376023
 30
0.0
 11
1021.897777834805
 21
651.4592580217491
 31
0.0
  0
LINE
  5
517
330
1F
100
AcDbEntity
  8
0-0
  6
JWW_DASHED1
 62
   120
370
     5
100
AcDbLine
 10
1020.897777834905
 20
-474.3807964376023
 30
0.0
 11
1020.897777834905
 21
651.0610960669496
 31
0.0
  0
LINE
  5
518
330
1F
100
AcDbEntity
  8
0-0
  6
JWW_DASHED1
 62
   120
370
     5
100
AcDbLine
 10
1007.897777833805
 20
-474.3807964376023
 30
0.0
 11
1007.897777833805
 21
646.6152487557142
 31
0.0
  0
LINE
  5
519
330
1F
100
AcDbEntity
  8
0-0
  6
JWW_DASHED1
 62
   120
370
     5
100
AcDbLine
 10
1006.897777833905
 20
-474.3807964376023
 30
0.0
 11
1006.897777833905
 21
646.3274371107386
 31
0.0
  0
LINE
  5
51A
330
1F
100
AcDbEntity
  8
0-0
  6
JWW_DASHED1
 62
   120
370
     5
100
AcDbLine
 10
993.8977778328046
 20
-474.3807964376023
 30
0.0
 11
993.8977778328046
 21
643.2530379608929
 31
0.0
  0
LINE
  5
51B
330
1F
100
AcDbEntity
  8
0-0
  6
JWW_DASHED1
 62
   120
370
     5
100
AcDbLine
 10
992.8977778329045
 20
-474.3807964376023
 30
0.0
 11
992.8977778329045
 21
643.0666313191418
 31
0.0
  0
LINE
  5
51C
330
1F
100
AcDbEntity
  8
0-0
  6
JWW_DASHED1
 62
   120
370
     5
100
AcDbLine
 10
979.8977778318044
 20
-474.3807964376023
 30
0.0
 11
979.8977778318044
 21
641.2725136465256
 31
0.0
  0
LINE
  5
51D
330
1F
100
AcDbEntity
  8
0-0
  6
JWW_DASHED1
 62
   120
370
     5
100
AcDbLine
 10
978.8977778319042
 20
-474.3807964376023
 30
0.0
 11
978.8977778319042
 21
641.1822317350548
 31
0.0
  0
LINE
  5
51E
330
1F
100
AcDbEntity
  8
0-0
  6
JWW_DASHED1
 62
   120
370
     5
100
AcDbLine
 10
965.8977778308042
 20
-474.3807964376023
 30
0.0
 11
965.8977778308042
 21
640.6189360180892
 31
0.0
  0
LINE
  5
51F
330
1F
100
AcDbEntity
  8
0-0
  6
JWW_DASHED1
 62
   120
370
     5
100
AcDbLine
 10
964.897777830904
 20
-474.3807964376023
 30
0.0
 11
964.897777830904
 21
640.6189360180892
 31
0.0
  0
LINE
  5
520
330
1F
100
AcDbEntity
  8
0-0
  6
JWW_DASHED1
 62
   120
370
     5
100
AcDbLine
 10
951.8977778298049
 20
-474.3807964376023
 30
0.0
 11
951.8977778298049
 21
640.6189360180892
 31
0.0
  0
LINE
  5
521
330
1F
100
AcDbEntity
  8
0-0
  6
JWW_DASHED1
 62
   120
370
     5
100
AcDbLine
 10
950.8977778299047
 20
-474.3807964376023
 30
0.0
 11
950.8977778299047
 21
640.6189360180892
 31
0.0
  0
LINE
  5
522
330
1F
100
AcDbEntity
  8
0-0
  6
JWW_DASHED1
 62
   120
370
     5
100
AcDbLine
 10
937.8977778288047
 20
-474.3807964376023
 30
0.0
 11
937.8977778288047
 21
640.6189360180892
 31
0.0
  0
LINE
  5
523
330
1F
100
AcDbEntity
  8
0-0
  6
JWW_DASHED1
 62
   120
370
     5
100
AcDbLine
 10
936.8977778289045
 20
-474.3807964376023
 30
0.0
 11
936.8977778289045
 21
640.6189360180892
 31
0.0
  0
LINE
  5
524
330
1F
100
AcDbEntity
  8
0-0
  6
JWW_DASHED1
 62
   120
370
     5
100
AcDbLine
 10
923.8977778278045
 20
-474.3807964376023
 30
0.0
 11
923.8977778278045
 21
640.6189360180892
 31
0.0
  0
LINE
  5
525
330
1F
100
AcDbEntity
  8
0-0
  6
JWW_DASHED1
 62
   120
370
     5
100
AcDbLine
 10
922.8977778279043
 20
-474.3807964376023
 30
0.0
 11
922.8977778279043
 21
640.6189360180892
 31
0.0
  0
ENDSEC
  0
SECTION
  2
OBJECTS
  0
DICTIONARY
  5
C
330
0
100
AcDbDictionary
281
     1
  3
ACAD_GROUP
350
D
  3
ACAD_LAYOUT
350
1A
  3
ACAD_MATERIAL
350
3B
  3
ACAD_MLEADERSTYLE
350
527
  3
ACAD_MLINESTYLE
350
17
  3
ACAD_PLOTSETTINGS
350
19
  3
ACAD_PLOTSTYLENAME
350
E
  3
ACAD_TABLESTYLE
350
526
  3
ACAD_VISUALSTYLE
350
2A
  0
DICTIONARY
  5
D
102
{ACAD_REACTORS
330
C
102
}
330
C
100
AcDbDictionary
281
     1
  0
DICTIONARY
  5
1A
102
{ACAD_REACTORS
330
C
102
}
330
C
100
AcDbDictionary
281
     1
  3
Layout1
350
1E
  3
Layout2
350
26
  3
Model
350
22
  0
DICTIONARY
  5
3B
102
{ACAD_REACTORS
330
C
102
}
330
C
100
AcDbDictionary
281
     1
  3
ByBlock
350
3D
  3
ByLayer
350
3C
  3
Global
350
3E
  0
DICTIONARY
  5
527
102
{ACAD_REACTORS
330
C
102
}
330
C
100
AcDbDictionary
281
     1
  0
DICTIONARY
  5
17
102
{ACAD_REACTORS
330
C
102
}
330
C
100
AcDbDictionary
281
     1
  3
Standard
350
18
  0
DICTIONARY
  5
19
102
{ACAD_REACTORS
330
C
102
}
330
C
100
AcDbDictionary
281
     1
  0
ACDBDICTIONARYWDFLT
  5
E
102
{ACAD_REACTORS
330
C
102
}
330
C
100
AcDbDictionary
281
     1
  3
Normal
350
F
100
AcDbDictionaryWithDefault
340
F
  0
DICTIONARY
  5
526
102
{ACAD_REACTORS
330
C
102
}
330
C
100
AcDbDictionary
281
     1
  0
DICTIONARY
  5
2A
102
{ACAD_REACTORS
330
C
102
}
330
C
100
AcDbDictionary
281
     1
  3
2dWireframe
350
2F
  3
3D Hidden
350
31
  3
3dWireframe
350
30
  3
Basic
350
32
  3
Brighten
350
36
  3
ColorChange
350
3A
  3
Conceptual
350
34
  3
Dim
350
35
  3
Facepattern
350
39
  3
Flat
350
2B
  3
FlatWithEdges
350
2C
  3
Gouraud
350
2D
  3
GouraudWithEdges
350
2E
  3
Linepattern
350
38
  3
Realistic
350
33
  3
Thicken
350
37
  0
LAYOUT
  5
1E
102
{ACAD_REACTORS
330
1A
102
}
330
1A
100
AcDbPlotSettings
  1

  2
none_device
  4

  6

 40
0.0
 41
0.0
 42
0.0
 43
0.0
 44
0.0
 45
0.0
 46
0.0
 47
0.0
 48
0.0
 49
0.0
140
0.0
141
0.0
142
1.0
143
1.0
 70
   688
 72
     0
 73
     0
 74
     5
  7

 75
    16
 76
     0
 77
     5
 78
   300
147
1.0
148
0.0
149
0.0
100
AcDbLayout
  1
Layout1
 70
     1
 71
     1
 10
0.0
 20
0.0
 11
420.0
 21
297.0
 12
0.0
 22
0.0
 32
0.0
 14
1.000000000000000E+20
 24
1.000000000000000E+20
 34
1.000000000000000E+20
 15
-1.000000000000000E+20
 25
-1.000000000000000E+20
 35
-1.000000000000000E+20
146
0.0
 13
0.0
 23
0.0
 33
0.0
 16
1.0
 26
0.0
 36
0.0
 17
0.0
 27
1.0
 37
0.0
 76
     0
330
1B
  0
LAYOUT
  5
26
102
{ACAD_REACTORS
330
1A
102
}
330
1A
100
AcDbPlotSettings
  1

  2
none_device
  4

  6

 40
0.0
 41
0.0
 42
0.0
 43
0.0
 44
0.0
 45
0.0
 46
0.0
 47
0.0
 48
0.0
 49
0.0
140
0.0
141
0.0
142
1.0
143
1.0
 70
   688
 72
     0
 73
     0
 74
     5
  7

 75
    16
 76
     0
 77
     5
 78
   300
147
1.0
148
0.0
149
0.0
100
AcDbLayout
  1
Layout2
 70
     1
 71
     2
 10
0.0
 20
0.0
 11
0.0
 21
0.0
 12
0.0
 22
0.0
 32
0.0
 14
0.0
 24
0.0
 34
0.0
 15
0.0
 25
0.0
 35
0.0
146
0.0
 13
0.0
 23
0.0
 33
0.0
 16
1.0
 26
0.0
 36
0.0
 17
0.0
 27
1.0
 37
0.0
 76
     0
330
23
  0
LAYOUT
  5
22
102
{ACAD_REACTORS
330
1A
102
}
330
1A
100
AcDbPlotSettings
  1

  2
none_device
  4

  6

 40
0.0
 41
0.0
 42
0.0
 43
0.0
 44
0.0
 45
0.0
 46
0.0
 47
0.0
 48
0.0
 49
0.0
140
0.0
141
0.0
142
1.0
143
1.0
 70
  1712
 72
     0
 73
     0
 74
     0
  7

 75
     0
 76
     0
 77
     5
 78
   300
147
1.0
148
0.0
149
0.0
100
AcDbLayout
  1
Model
 70
     1
 71
     0
 10
-4455.0
 20
-3150.0
 11
4455.0
 21
3150.0
 12
0.0
 22
0.0
 32
0.0
 14
-4455.0
 24
-3150.0
 34
0.0
 15
4455.0
 25
3150.0
 35
0.0
146
0.0
 13
0.0
 23
0.0
 33
0.0
 16
1.0
 26
0.0
 36
0.0
 17
0.0
 27
1.0
 37
0.0
 76
     0
330
1F
331
29
  0
MATERIAL
  5
3D
102
{ACAD_REACTORS
330
3B
102
}
330
3B
100
AcDbMaterial
  1
ByBlock
 72
     1
 94
      127
  0
MATERIAL
  5
3C
102
{ACAD_REACTORS
330
3B
102
}
330
3B
100
AcDbMaterial
  1
ByLayer
 72
     1
 94
      127
  0
MATERIAL
  5
3E
102
{ACAD_REACTORS
330
3B
102
}
330
3B
100
AcDbMaterial
  1
Global
 72
     1
 94
      127
  0
MLINESTYLE
  5
18
102
{ACAD_REACTORS
330
17
102
}
330
17
100
AcDbMlineStyle
  2
Standard
 70
     0
  3

 62
   256
 51
90.0
 52
90.0
 71
     2
 49
0.5
 62
   256
  6
BYLAYER
 49
-0.5
 62
   256
  6
BYLAYER
  0
ACDBPLACEHOLDER
  5
F
102
{ACAD_REACTORS
330
E
102
}
330
E
  0
VISUALSTYLE
  5
2F
102
{ACAD_REACTORS
330
2A
102
}
330
2A
100
AcDbVisualStyle
  2
2dWireframe
 70
     4
177
     2
291
     0
 71
     0
176
     1
 72
     2
176
     1
 73
     0
176
     1
 90
        0
176
     1
 40
-0.6
176
     1
 41
-30.0
176
     1
 62
     5
 63
     7
421
 16777215
176
     1
 74
     1
176
     1
 91
        4
176
     1
 64
     7
176
     1
 65
   257
176
     1
 75
     1
176
     1
175
     1
176
     1
 42
1.0
176
     1
 92
        0
176
     1
 66
   257
176
     1
 43
1.0
176
     1
 76
     1
176
     1
 77
     6
176
     1
 78
     2
176
     1
 67
     7
176
     1
 79
     5
176
     1
170
     0
176
     1
171
     0
176
     1
290
     0
176
     1
 93
        1
176
     1
 44
0.0
176
     1
173
     0
176
     1
  0
VISUALSTYLE
  5
31
102
{ACAD_REACTORS
330
2A
102
}
330
2A
100
AcDbVisualStyle
  2
3D Hidden
 70
     6
177
     2
291
     0
 71
     1
176
     1
 72
     2
176
     1
 73
     2
176
     1
 90
        0
176
     1
 40
-0.6
176
     1
 41
-30.0
176
     1
 62
     5
 63
     7
421
 16777215
176
     1
 74
     2
176
     1
 91
        2
176
     1
 64
     7
176
     1
 65
   257
176
     1
 75
     2
176
     1
175
     1
176
     1
 42
40.0
176
     1
 92
        0
176
     1
 66
   257
176
     1
 43
1.0
176
     1
 76
     1
176
     1
 77
     6
176
     1
 78
     2
176
     1
 67
     7
176
     1
 79
     3
176
     1
170
     0
176
     1
171
     0
176
     1
290
     0
176
     1
 93
        1
176
     1
 44
0.0
176
     1
173
     0
176
     1
  0
VISUALSTYLE
  5
30
102
{ACAD_REACTORS
330
2A
102
}
330
2A
100
AcDbVisualStyle
  2
3dWireframe
 70
     5
177
     2
291
     0
 71
     0
176
     1
 72
     2
176
     1
 73
     0
176
     1
 90
        0
176
     1
 40
-0.6
176
     1
 41
-30.0
176
     1
 62
     5
 63
     7
421
 16777215
176
     1
 74
     1
176
     1
 91
        4
176
     1
 64
     7
176
     1
 65
   257
176
     1
 75
     1
176
     1
175
     1
176
     1
 42
1.0
176
     1
 92
        0
176
     1
 66
   257
176
     1
 43
1.0
176
     1
 76
     1
176
     1
 77
     6
176
     1
 78
     2
176
     1
 67
     7
176
     1
 79
     5
176
     1
170
     0
176
     1
171
     0
176
     1
290
     0
176
     1
 93
        1
176
     1
 44
0.0
176
     1
173
     0
176
     1
  0
VISUALSTYLE
  5
32
102
{ACAD_REACTORS
330
2A
102
}
330
2A
100
AcDbVisualStyle
  2
Basic
 70
     7
177
     2
291
     1
 71
     1
176
     1
 72
     0
176
     1
 73
     1
176
     1
 90
        0
176
     1
 40
-0.6
176
     1
 41
-30.0
176
     1
 62
     5
 63
     7
421
 16777215
176
     1
 74
     0
176
     1
 91
        4
176
     1
 64
     7
176
     1
 65
   257
176
     1
 75
     1
176
     1
175
     1
176
     1
 42
1.0
176
     1
 92
        8
176
     1
 66
     7
176
     1
 43
1.0
176
     1
 76
     1
176
     1
 77
     6
176
     1
 78
     2
176
     1
 67
     7
176
     1
 79
     5
176
     1
170
     0
176
     1
171
     0
176
     1
290
     0
176
     1
 93
        1
176
     1
 44
0.0
176
     1
173
     0
176
     1
  0
VISUALSTYLE
  5
36
102
{ACAD_REACTORS
330
2A
102
}
330
2A
100
AcDbVisualStyle
  2
Brighten
 70
    12
177
     2
291
     1
 71
     2
176
     1
 72
     2
176
     1
 73
     0
176
     1
 90
        0
176
     1
 40
-0.6
176
     1
 41
-30.0
176
     1
 62
     5
 63
     7
421
 16777215
176
     1
 74
     1
176
     1
 91
        4
176
     1
 64
     7
176
     1
 65
   257
176
     1
 75
     1
176
     1
175
     1
176
     1
 42
1.0
176
     1
 92
        8
176
     1
 66
     7
176
     1
 43
1.0
176
     1
 76
     1
176
     1
 77
     6
176
     1
 78
     2
176
     1
 67
     7
176
     1
 79
     5
176
     1
170
     0
176
     1
171
     0
176
     1
290
     0
176
     1
 93
        1
176
     1
 44
50.0
176
     1
173
     0
176
     1
  0
VISUALSTYLE
  5
3A
102
{ACAD_REACTORS
330
2A
102
}
330
2A
100
AcDbVisualStyle
  2
ColorChange
 70
    16
177
     2
291
     1
 71
     2
176
     1
 72
     2
176
     1
 73
     3
176
     1
 90
        0
176
     1
 40
-0.6
176
     1
 41
-30.0
176
     1
 62
     5
 63
     8
421
  8421504
176
     1
 74
     1
176
     1
 91
        4
176
     1
 64
     7
176
     1
 65
   257
176
     1
 75
     1
176
     1
175
     1
176
     1
 42
1.0
176
     1
 92
        8
176
     1
 66
     8
424
  8421504
176
     1
 43
1.0
176
     1
 76
     1
176
     1
 77
     6
176
     1
 78
     2
176
     1
 67
     7
176
     1
 79
     5
176
     1
170
     0
176
     1
171
     0
176
     1
290
     0
176
     1
 93
        1
176
     1
 44
0.0
176
     1
173
     0
176
     1
  0
VISUALSTYLE
  5
34
102
{ACAD_REACTORS
330
2A
102
}
330
2A
100
AcDbVisualStyle
  2
Conceptual
 70
     9
177
     2
291
     0
 71
     3
176
     1
 72
     2
176
     1
 73
     0
176
     1
 90
        0
176
     1
 40
-0.6
176
     1
 41
-30.0
176
     1
 62
     5
 63
     7
421
 16777215
176
     1
 74
     2
176
     1
 91
        2
176
     1
 64
     7
176
     1
 65
   257
176
     1
 75
     1
176
     1
175
     1
176
     1
 42
40.0
176
     1
 92
        8
176
     1
 66
     7
176
     1
 43
1.0
176
     1
 76
     1
176
     1
 77
     6
176
     1
 78
     2
176
     1
 67
     7
176
     1
 79
     3
176
     1
170
     0
176
     1
171
     0
176
     1
290
     0
176
     1
 93
        1
176
     1
 44
0.0
176
     1
173
     0
176
     1
  0
VISUALSTYLE
  5
35
102
{ACAD_REACTORS
330
2A
102
}
330
2A
100
AcDbVisualStyle
  2
Dim
 70
    11
177
     2
291
     1
 71
     2
176
     1
 72
     2
176
     1
 73
     0
176
     1
 90
        0
176
     1
 40
-0.6
176
     1
 41
-30.0
176
     1
 62
     5
 63
     7
421
 16777215
176
     1
 74
     1
176
     1
 91
        4
176
     1
 64
     7
176
     1
 65
   257
176
     1
 75
     1
176
     1
175
     1
176
     1
 42
1.0
176
     1
 92
        8
176
     1
 66
     7
176
     1
 43
1.0
176
     1
 76
     1
176
     1
 77
     6
176
     1
 78
     2
176
     1
 67
     7
176
     1
 79
     5
176
     1
170
     0
176
     1
171
     0
176
     1
290
     0
176
     1
 93
        1
176
     1
 44
-50.0
176
     1
173
     0
176
     1
  0
VISUALSTYLE
  5
39
102
{ACAD_REACTORS
330
2A
102
}
330
2A
100
AcDbVisualStyle
  2
Facepattern
 70
    15
177
     2
291
     1
 71
     2
176
     1
 72
     2
176
     1
 73
     0
176
     1
 90
        0
176
     1
 40
-0.6
176
     1
 41
-30.0
176
     1
 62
     5
 63
     7
421
 16777215
176
     1
 74
     1
176
     1
 91
        4
176
     1
 64
     7
176
     1
 65
   257
176
     1
 75
     1
176
     1
175
     1
176
     1
 42
1.0
176
     1
 92
        8
176
     1
 66
     7
176
     1
 43
1.0
176
     1
 76
     1
176
     1
 77
     6
176
     1
 78
     2
176
     1
 67
     7
176
     1
 79
     5
176
     1
170
     0
176
     1
171
     0
176
     1
290
     0
176
     1
 93
        1
176
     1
 44
0.0
176
     1
173
     0
176
     1
  0
VISUALSTYLE
  5
2B
102
{ACAD_REACTORS
330
2A
102
}
330
2A
100
AcDbVisualStyle
  2
Flat
 70
     0
177
     2
291
     1
 71
     2
176
     1
 72
     1
176
     1
 73
     1
176
     1
 90
        2
176
     1
 40
-0.6
176
     1
 41
30.0
176
     1
 62
     5
 63
     7
421
 16777215
176
     1
 74
     0
176
     1
 91
        4
176
     1
 64
     7
176
     1
 65
   257
176
     1
 75
     1
176
     1
175
     1
176
     1
 42
1.0
176
     1
 92
        8
176
     1
 66
     7
176
     1
 43
1.0
176
     1
 76
     1
176
     1
 77
     6
176
     1
 78
     2
176
     1
 67
     7
176
     1
 79
     5
176
     1
170
     0
176
     1
171
     0
176
     1
290
     0
176
     1
 93
       13
176
     1
 44
0.0
176
     1
173
     0
176
     1
  0
VISUALSTYLE
  5
2C
102
{ACAD_REACTORS
330
2A
102
}
330
2A
100
AcDbVisualStyle
  2
FlatWithEdges
 70
     1
177
     2
291
     1
 71
     2
176
     1
 72
     1
176
     1
 73
     1
176
     1
 90
        2
176
     1
 40
-0.6
176
     1
 41
30.0
176
     1
 62
     5
 63
     7
421
 16777215
176
     1
 74
     1
176
     1
 91
        4
176
     1
 64
     7
176
     1
 65
   257
176
     1
 75
     1
176
     1
175
     1
176
     1
 42
1.0
176
     1
 92
        0
176
     1
 66
   257
176
     1
 43
1.0
176
     1
 76
     1
176
     1
 77
     6
176
     1
 78
     2
176
     1
 67
     7
176
     1
 79
     5
176
     1
170
     0
176
     1
171
     0
176
     1
290
     0
176
     1
 93
       13
176
     1
 44
0.0
176
     1
173
     0
176
     1
  0
VISUALSTYLE
  5
2D
102
{ACAD_REACTORS
330
2A
102
}
330
2A
100
AcDbVisualStyle
  2
Gouraud
 70
     2
177
     2
291
     1
 71
     2
176
     1
 72
     2
176
     1
 73
     1
176
     1
 90
        2
176
     1
 40
-0.6
176
     1
 41
30.0
176
     1
 62
     5
 63
     7
421
 16777215
176
     1
 74
     0
176
     1
 91
        4
176
     1
 64
     7
176
     1
 65
   257
176
     1
 75
     1
176
     1
175
     1
176
     1
 42
1.0
176
     1
 92
        0
176
     1
 66
     7
176
     1
 43
1.0
176
     1
 76
     1
176
     1
 77
     6
176
     1
 78
     2
176
     1
 67
     7
176
     1
 79
     5
176
     1
170
     0
176
     1
171
     0
176
     1
290
     0
176
     1
 93
       13
176
     1
 44
0.0
176
     1
173
     0
176
     1
  0
VISUALSTYLE
  5
2E
102
{ACAD_REACTORS
330
2A
102
}
330
2A
100
AcDbVisualStyle
  2
GouraudWithEdges
 70
     3
177
     2
291
     1
 71
     2
176
     1
 72
     2
176
     1
 73
     1
176
     1
 90
        2
176
     1
 40
-0.6
176
     1
 41
30.0
176
     1
 62
     5
 63
     7
421
 16777215
176
     1
 74
     1
176
     1
 91
        4
176
     1
 64
     7
176
     1
 65
   257
176
     1
 75
     1
176
     1
175
     1
176
     1
 42
1.0
176
     1
 92
        0
176
     1
 66
   257
176
     1
 43
1.0
176
     1
 76
     1
176
     1
 77
     6
176
     1
 78
     2
176
     1
 67
     7
176
     1
 79
     5
176
     1
170
     0
176
     1
171
     0
176
     1
290
     0
176
     1
 93
       13
176
     1
 44
0.0
176
     1
173
     0
176
     1
  0
VISUALSTYLE
  5
38
102
{ACAD_REACTORS
330
2A
102
}
330
2A
100
AcDbVisualStyle
  2
Linepattern
 70
    14
177
     2
291
     1
 71
     2
176
     1
 72
     2
176
     1
 73
     0
176
     1
 90
        0
176
     1
 40
-0.6
176
     1
 41
-30.0
176
     1
 62
     5
 63
     7
421
 16777215
176
     1
 74
     1
176
     1
 91
        4
176
     1
 64
     7
176
     1
 65
   257
176
     1
 75
     7
176
     1
175
     7
176
     1
 42
1.0
176
     1
 92
        8
176
     1
 66
     7
176
     1
 43
1.0
176
     1
 76
     1
176
     1
 77
     6
176
     1
 78
     2
176
     1
 67
     7
176
     1
 79
     5
176
     1
170
     0
176
     1
171
     0
176
     1
290
     0
176
     1
 93
        1
176
     1
 44
0.0
176
     1
173
     0
176
     1
  0
VISUALSTYLE
  5
33
102
{ACAD_REACTORS
330
2A
102
}
330
2A
100
AcDbVisualStyle
  2
Realistic
 70
     8
177
     2
291
     0
 71
     2
176
     1
 72
     2
176
     1
 73
     0
176
     1
 90
        0
176
     1
 40
-0.6
176
     1
 41
-30.0
176
     1
 62
     5
 63
     7
421
 16777215
176
     1
 74
     1
176
     1
 91
        0
176
     1
 64
     7
176
     1
 65
   257
176
     1
 75
     1
176
     1
175
     1
176
     1
 42
1.0
176
     1
 92
        8
176
     1
 66
     8
424
  7895160
176
     1
 43
1.0
176
     1
 76
     1
176
     1
 77
     6
176
     1
 78
     2
176
     1
 67
     7
176
     1
 79
     5
176
     1
170
     0
176
     1
171
     0
176
     1
290
     0
176
     1
 93
       13
176
     1
 44
0.0
176
     1
173
     0
176
     1
  0
VISUALSTYLE
  5
37
102
{ACAD_REACTORS
330
2A
102
}
330
2A
100
AcDbVisualStyle
  2
Thicken
 70
    13
177
     2
291
     1
 71
     2
176
     1
 72
     2
176
     1
 73
     0
176
     1
 90
        0
176
     1
 40
-0.6
176
     1
 41
-30.0
176
     1
 62
     5
 63
     7
421
 16777215
176
     1
 74
     1
176
     1
 91
        4
176
     1
 64
     7
176
     1
 65
   257
176
     1
 75
     1
176
     1
175
     1
176
     1
 42
1.0
176
     1
 92
       12
176
     1
 66
     7
176
     1
 43
1.0
176
     1
 76
     1
176
     1
 77
     6
176
     1
 78
     2
176
     1
 67
     7
176
     1
 79
     5
176
     1
170
     0
176
     1
171
     0
176
     1
290
     0
176
     1
 93
        1
176
     1
 44
0.0
176
     1
173
     0
176
     1
  0
ENDSEC
  0
EOF
