  0
SECTION
  2
HEADER
  9
$ACADVER
  1
AC1024
  9
$ACADMAINTVER
 70
     6
  9
$DWGCODEPAGE
  3
ANSI_932
  9
$INSBASE
 10
0.0
 20
0.0
 30
0.0
  9
$EXTMIN
 10
-4455.0
 20
-3150.0
 30
0.0
  9
$EXTMAX
 10
4455.0
 20
3150.0
 30
0.0
  9
$LIMMIN
 10
-4455.0
 20
-3150.0
  9
$LIMMAX
 10
4455.0
 20
3150.0
  9
$ORTHOMODE
 70
     0
  9
$REGENMODE
 70
     1
  9
$FILLMODE
 70
     1
  9
$QTEXTMODE
 70
     0
  9
$MIRRTEXT
 70
     1
  9
$LTSCALE
 40
30.0
  9
$ATTMODE
 70
     1
  9
$TEXTSIZE
 40
2.5
  9
$TRACEWID
 40
1.0
  9
$TEXTSTYLE
  7
Standard
  9
$CLAYER
  8
0
  9
$CELTYPE
  6
ByLayer
  9
$CECOLOR
 62
   256
  9
$CELTSCALE
 40
1.0
  9
$DISPSILH
 70
     0
  9
$DIMSCALE
 40
1.0
  9
$DIMASZ
 40
2.5
  9
$DIMEXO
 40
0.625
  9
$DIMDLI
 40
3.75
  9
$DIMRND
 40
0.0
  9
$DIMDLE
 40
0.0
  9
$DIMEXE
 40
1.25
  9
$DIMTP
 40
0.0
  9
$DIMTM
 40
0.0
  9
$DIMTXT
 40
2.5
  9
$DIMCEN
 40
2.5
  9
$DIMTSZ
 40
0.0
  9
$DIMTOL
 70
     0
  9
$DIMLIM
 70
     0
  9
$DIMTIH
 70
     0
  9
$DIMTOH
 70
     0
  9
$DIMSE1
 70
     0
  9
$DIMSE2
 70
     0
  9
$DIMTAD
 70
     1
  9
$DIMZIN
 70
     8
  9
$DIMBLK
  1

  9
$DIMASO
 70
     1
  9
$DIMSHO
 70
     1
  9
$DIMPOST
  1

  9
$DIMAPOST
  1

  9
$DIMALT
 70
     0
  9
$DIMALTD
 70
     3
  9
$DIMALTF
 40
0.03937007874016
  9
$DIMLFAC
 40
1.0
  9
$DIMTOFL
 70
     1
  9
$DIMTVP
 40
0.0
  9
$DIMTIX
 70
     0
  9
$DIMSOXD
 70
     0
  9
$DIMSAH
 70
     0
  9
$DIMBLK1
  1

  9
$DIMBLK2
  1

  9
$DIMSTYLE
  2
ISO-25
  9
$DIMCLRD
 70
     0
  9
$DIMCLRE
 70
     0
  9
$DIMCLRT
 70
     0
  9
$DIMTFAC
 40
1.0
  9
$DIMGAP
 40
0.625
  9
$DIMJUST
 70
     0
  9
$DIMSD1
 70
     0
  9
$DIMSD2
 70
     0
  9
$DIMTOLJ
 70
     0
  9
$DIMTZIN
 70
     8
  9
$DIMALTZ
 70
     0
  9
$DIMALTTZ
 70
     0
  9
$DIMUPT
 70
     0
  9
$DIMDEC
 70
     2
  9
$DIMTDEC
 70
     2
  9
$DIMALTU
 70
     2
  9
$DIMALTTD
 70
     3
  9
$DIMTXSTY
  7
Standard
  9
$DIMAUNIT
 70
     0
  9
$DIMADEC
 70
     0
  9
$DIMALTRND
 40
0.0
  9
$DIMAZIN
 70
     0
  9
$DIMDSEP
 70
    44
  9
$DIMATFIT
 70
     3
  9
$DIMFRAC
 70
     0
  9
$DIMLDRBLK
  1

  9
$DIMLUNIT
 70
     2
  9
$DIMLWD
 70
    -2
  9
$DIMLWE
 70
    -2
  9
$DIMTMOVE
 70
     0
  9
$DIMFXL
 40
1.0
  9
$DIMFXLON
 70
     0
  9
$DIMJOGANG
 40
0.7853981633974483
  9
$DIMTFILL
 70
     0
  9
$DIMTFILLCLR
 70
     0
  9
$DIMARCSYM
 70
     0
  9
$DIMLTYPE
  6

  9
$DIMLTEX1
  6

  9
$DIMLTEX2
  6

  9
$DIMTXTDIRECTION
 70
     0
  9
$LUNITS
 70
     2
  9
$LUPREC
 70
     4
  9
$SKETCHINC
 40
1.0
  9
$FILLETRAD
 40
10.0
  9
$AUNITS
 70
     0
  9
$AUPREC
 70
     0
  9
$MENU
  1
.
  9
$ELEVATION
 40
0.0
  9
$PELEVATION
 40
0.0
  9
$THICKNESS
 40
0.0
  9
$LIMCHECK
 70
     0
  9
$CHAMFERA
 40
10.0
  9
$CHAMFERB
 40
10.0
  9
$CHAMFERC
 40
20.0
  9
$CHAMFERD
 40
0.0
  9
$SKPOLY
 70
     0
  9
$TDCREATE
 40
2457953.400746956
  9
$TDUCREATE
 40
2457953.025746956
  9
$TDUPDATE
 40
2457953.400746968
  9
$TDUUPDATE
 40
2457953.025746968
  9
$TDINDWG
 40
0.0000000116
  9
$TDUSRTIMER
 40
0.0000000116
  9
$USRTIMER
 70
     1
  9
$ANGBASE
 50
0.0
  9
$ANGDIR
 70
     0
  9
$PDMODE
 70
     0
  9
$PDSIZE
 40
0.0
  9
$PLINEWID
 40
0.0
  9
$SPLFRAME
 70
     0
  9
$SPLINETYPE
 70
     6
  9
$SPLINESEGS
 70
     8
  9
$HANDSEED
  5
4A8
  9
$SURFTAB1
 70
     6
  9
$SURFTAB2
 70
     6
  9
$SURFTYPE
 70
     6
  9
$SURFU
 70
     6
  9
$SURFV
 70
     6
  9
$UCSBASE
  2

  9
$UCSNAME
  2

  9
$UCSORG
 10
0.0
 20
0.0
 30
0.0
  9
$UCSXDIR
 10
1.0
 20
0.0
 30
0.0
  9
$UCSYDIR
 10
0.0
 20
1.0
 30
0.0
  9
$UCSORTHOREF
  2

  9
$UCSORTHOVIEW
 70
     0
  9
$UCSORGTOP
 10
0.0
 20
0.0
 30
0.0
  9
$UCSORGBOTTOM
 10
0.0
 20
0.0
 30
0.0
  9
$UCSORGLEFT
 10
0.0
 20
0.0
 30
0.0
  9
$UCSORGRIGHT
 10
0.0
 20
0.0
 30
0.0
  9
$UCSORGFRONT
 10
0.0
 20
0.0
 30
0.0
  9
$UCSORGBACK
 10
0.0
 20
0.0
 30
0.0
  9
$PUCSBASE
  2

  9
$PUCSNAME
  2

  9
$PUCSORG
 10
0.0
 20
0.0
 30
0.0
  9
$PUCSXDIR
 10
1.0
 20
0.0
 30
0.0
  9
$PUCSYDIR
 10
0.0
 20
1.0
 30
0.0
  9
$PUCSORTHOREF
  2

  9
$PUCSORTHOVIEW
 70
     0
  9
$PUCSORGTOP
 10
0.0
 20
0.0
 30
0.0
  9
$PUCSORGBOTTOM
 10
0.0
 20
0.0
 30
0.0
  9
$PUCSORGLEFT
 10
0.0
 20
0.0
 30
0.0
  9
$PUCSORGRIGHT
 10
0.0
 20
0.0
 30
0.0
  9
$PUCSORGFRONT
 10
0.0
 20
0.0
 30
0.0
  9
$PUCSORGBACK
 10
0.0
 20
0.0
 30
0.0
  9
$USERI1
 70
     0
  9
$USERI2
 70
     0
  9
$USERI3
 70
     0
  9
$USERI4
 70
     0
  9
$USERI5
 70
     0
  9
$USERR1
 40
0.0
  9
$USERR2
 40
0.0
  9
$USERR3
 40
0.0
  9
$USERR4
 40
0.0
  9
$USERR5
 40
0.0
  9
$WORLDVIEW
 70
     1
  9
$SHADEDGE
 70
     3
  9
$SHADEDIF
 70
    70
  9
$TILEMODE
 70
     1
  9
$MAXACTVP
 70
    64
  9
$PINSBASE
 10
0.0
 20
0.0
 30
0.0
  9
$PLIMCHECK
 70
     0
  9
$PEXTMIN
 10
1.000000000000000E+20
 20
1.000000000000000E+20
 30
1.000000000000000E+20
  9
$PEXTMAX
 10
-1.000000000000000E+20
 20
-1.000000000000000E+20
 30
-1.000000000000000E+20
  9
$PLIMMIN
 10
0.0
 20
0.0
  9
$PLIMMAX
 10
420.0
 20
297.0
  9
$UNITMODE
 70
     0
  9
$VISRETAIN
 70
     1
  9
$PLINEGEN
 70
     0
  9
$PSLTSCALE
 70
     1
  9
$TREEDEPTH
 70
  3020
  9
$CMLSTYLE
  2
Standard
  9
$CMLJUST
 70
     0
  9
$CMLSCALE
 40
20.0
  9
$PROXYGRAPHICS
 70
     1
  9
$MEASUREMENT
 70
     1
  9
$CELWEIGHT
370
    -1
  9
$ENDCAPS
280
     0
  9
$JOINSTYLE
280
     0
  9
$LWDISPLAY
290
     0
  9
$INSUNITS
 70
     4
  9
$HYPERLINKBASE
  1

  9
$STYLESHEET
  1

  9
$XEDIT
290
     1
  9
$CEPSNTYPE
380
     0
  9
$PSTYLEMODE
290
     1
  9
$FINGERPRINTGUID
  2
{0D268EB0-D9C1-4E39-9EB0-896172AB08A0}
  9
$VERSIONGUID
  2
{FAEB1C32-E019-11D5-929B-00C0DF256EC4}
  9
$EXTNAMES
290
     1
  9
$PSVPSCALE
 40
0.0
  9
$OLESTARTUP
290
     0
  9
$SORTENTS
280
   127
  9
$INDEXCTL
280
     0
  9
$HIDETEXT
280
     1
  9
$XCLIPFRAME
280
     2
  9
$HALOGAP
280
     0
  9
$OBSCOLOR
 70
   257
  9
$OBSLTYPE
280
     0
  9
$INTERSECTIONDISPLAY
280
     0
  9
$INTERSECTIONCOLOR
 70
   257
  9
$DIMASSOC
280
     2
  9
$PROJECTNAME
  1

  9
$CAMERADISPLAY
290
     0
  9
$LENSLENGTH
 40
50.0
  9
$CAMERAHEIGHT
 40
0.0
  9
$STEPSPERSEC
 40
2.0
  9
$STEPSIZE
 40
6.0
  9
$3DDWFPREC
 40
2.0
  9
$PSOLWIDTH
 40
5.0
  9
$PSOLHEIGHT
 40
80.0
  9
$LOFTANG1
 40
1.570796326794897
  9
$LOFTANG2
 40
1.570796326794897
  9
$LOFTMAG1
 40
0.0
  9
$LOFTMAG2
 40
0.0
  9
$LOFTPARAM
 70
     7
  9
$LOFTNORMALS
280
     1
  9
$LATITUDE
 40
37.795
  9
$LONGITUDE
 40
-122.394
  9
$NORTHDIRECTION
 40
0.0
  9
$TIMEZONE
 70
 -8000
  9
$LIGHTGLYPHDISPLAY
280
     1
  9
$TILEMODELIGHTSYNCH
280
     1
  9
$SOLIDHIST
280
     1
  9
$SHOWHIST
280
     1
  9
$DWFFRAME
280
     2
  9
$DGNFRAME
280
     2
  9
$REALWORLDSCALE
290
     1
  9
$INTERFERECOLOR
 62
   256
  9
$CSHADOW
280
     0
  9
$SHADOWPLANELOCATION
 40
0.0
  0
ENDSEC
  0
SECTION
  2
CLASSES
  0
CLASS
  1
ACDBDICTIONARYWDFLT
  2
AcDbDictionaryWithDefault
  3
ObjectDBX Classes
 90
        0
 91
        4
280
     0
281
     0
  0
CLASS
  1
VISUALSTYLE
  2
AcDbVisualStyle
  3
ObjectDBX Classes
 90
     4095
 91
        4
280
     0
281
     0
  0
CLASS
  1
MATERIAL
  2
AcDbMaterial
  3
ObjectDBX Classes
 90
     1153
 91
        4
280
     0
281
     0
  0
ENDSEC
  0
SECTION
  2
TABLES
  0
TABLE
  2
VPORT
  5
8
330
0
100
AcDbSymbolTable
 70
     1
  0
VPORT
  5
29
330
8
100
AcDbSymbolTableRecord
100
AcDbViewportTableRecord
  2
*Active
 70
     0
 10
0.0
 20
0.0
 11
1.0
 21
1.0
 12
0.0
 22
0.0
 13
0.0
 23
0.0
 14
10.0
 24
10.0
 15
10.0
 25
10.0
 16
0.0
 26
0.0
 36
1.0
 17
0.0
 27
0.0
 37
0.0
 40
6930.000000000001
 41
1.414285714285714
 42
50.0
 43
0.0
 44
0.0
 50
0.0
 51
0.0
 71
     0
 72
 10000
 73
     1
 74
     3
 75
     0
 76
     0
 77
     0
 78
     0
281
     0
 65
     1
110
0.0
120
0.0
130
0.0
111
1.0
121
0.0
131
0.0
112
0.0
122
1.0
132
0.0
 79
     0
146
0.0
 60
     3
 61
     5
292
     1
282
     1
141
0.0
142
0.0
 63
   250
  0
ENDTAB
  0
TABLE
  2
LTYPE
  5
5
330
0
100
AcDbSymbolTable
 70
     2
  0
LTYPE
  5
14
330
5
100
AcDbSymbolTableRecord
100
AcDbLinetypeTableRecord
  2
ByBlock
 70
     0
  3

 72
    65
 73
     0
 40
0.0
  0
LTYPE
  5
15
330
5
100
AcDbSymbolTableRecord
100
AcDbLinetypeTableRecord
  2
ByLayer
 70
     0
  3

 72
    65
 73
     0
 40
0.0
  0
LTYPE
  5
16
330
5
100
AcDbSymbolTableRecord
100
AcDbLinetypeTableRecord
  2
Continuous
 70
     0
  3
Solid line
 72
    65
 73
     0
 40
0.0
  0
LTYPE
  5
3F
330
5
100
AcDbSymbolTableRecord
100
AcDbLinetypeTableRecord
  2
JWW_DASHED1
 70
     0
  3
-  --  --  --  --  --  --  --  -
 72
    65
 73
     2
 40
1.693333333333333
 49
0.8466666666666667
 74
     0
 49
-0.8466666666666667
 74
     0
  0
ENDTAB
  0
TABLE
  2
LAYER
  5
2
330
0
100
AcDbSymbolTable
 70
     3
  0
LAYER
  5
10
330
2
100
AcDbSymbolTableRecord
100
AcDbLayerTableRecord
  2
0
 70
     0
 62
     7
  6
Continuous
370
    -3
390
F
347
3E
  0
LAYER
  5
40
330
2
100
AcDbSymbolTableRecord
100
AcDbLayerTableRecord
  2
0-0
 70
     0
 62
     7
  6
Continuous
370
    -3
390
F
347
3E
  0
LAYER
  5
41
330
2
100
AcDbSymbolTableRecord
100
AcDbLayerTableRecord
  2
寸法
 70
     0
 62
     7
  6
Continuous
370
    -3
390
F
347
3E
  0
ENDTAB
  0
TABLE
  2
STYLE
  5
3
330
0
100
AcDbSymbolTable
 70
     1
  0
STYLE
  5
11
330
3
100
AcDbSymbolTableRecord
100
AcDbTextStyleTableRecord
  2
Standard
 70
     0
 40
0.0
 41
1.0
 50
0.0
 71
     0
 42
2.5
  3
txt
  4

  0
ENDTAB
  0
TABLE
  2
VIEW
  5
6
330
0
100
AcDbSymbolTable
 70
     0
  0
ENDTAB
  0
TABLE
  2
UCS
  5
7
330
0
100
AcDbSymbolTable
 70
     0
  0
ENDTAB
  0
TABLE
  2
APPID
  5
9
330
0
100
AcDbSymbolTable
 70
     1
  0
APPID
  5
12
330
9
100
AcDbSymbolTableRecord
100
AcDbRegAppTableRecord
  2
ACAD
 70
     0
  0
ENDTAB
  0
TABLE
  2
DIMSTYLE
  5
A
330
0
100
AcDbSymbolTable
 70
     1
100
AcDbDimStyleTable
  0
DIMSTYLE
105
27
330
A
100
AcDbSymbolTableRecord
100
AcDbDimStyleTableRecord
  2
ISO-25
 70
     0
 41
2.5
 42
0.625
 43
3.75
 44
1.25
 73
     0
 74
     0
 77
     1
 78
     8
140
2.5
141
2.5
143
0.03937007874016
147
0.625
171
     3
172
     1
178
     0
271
     2
272
     2
274
     3
278
    44
283
     0
284
     8
340
11
  0
ENDTAB
  0
TABLE
  2
BLOCK_RECORD
  5
1
330
0
100
AcDbSymbolTable
 70
     1
  0
BLOCK_RECORD
  5
1F
330
1
100
AcDbSymbolTableRecord
100
AcDbBlockTableRecord
  2
*Model_Space
340
22
 70
     0
280
     1
281
     0
  0
BLOCK_RECORD
  5
1B
330
1
100
AcDbSymbolTableRecord
100
AcDbBlockTableRecord
  2
*Paper_Space
340
1E
 70
     0
280
     1
281
     0
  0
BLOCK_RECORD
  5
23
330
1
100
AcDbSymbolTableRecord
100
AcDbBlockTableRecord
  2
*Paper_Space0
340
26
 70
     0
280
     1
281
     0
  0
ENDTAB
  0
ENDSEC
  0
SECTION
  2
BLOCKS
  0
BLOCK
  5
20
330
1F
100
AcDbEntity
  8
0
100
AcDbBlockBegin
  2
*Model_Space
 70
     0
 10
0.0
 20
0.0
 30
0.0
  3
*Model_Space
  1

  0
ENDBLK
  5
21
330
1F
100
AcDbEntity
  8
0
100
AcDbBlockEnd
  0
BLOCK
  5
1C
330
1B
100
AcDbEntity
 67
     1
  8
0
100
AcDbBlockBegin
  2
*Paper_Space
 70
     0
 10
0.0
 20
0.0
 30
0.0
  3
*Paper_Space
  1

  0
ENDBLK
  5
1D
330
1B
100
AcDbEntity
 67
     1
  8
0
100
AcDbBlockEnd
  0
BLOCK
  5
24
330
23
100
AcDbEntity
  8
0
100
AcDbBlockBegin
  2
*Paper_Space0
 70
     0
 10
0.0
 20
0.0
 30
0.0
  3
*Paper_Space0
  1

  0
ENDBLK
  5
25
330
23
100
AcDbEntity
  8
0
100
AcDbBlockEnd
  0
ENDSEC
  0
SECTION
  2
ENTITIES
  0
ARC
  5
42
330
1F
100
AcDbEntity
  8
0-0
  6
Continuous
 62
    92
370
    13
100
AcDbCircle
 10
-1538.144673198304
 20
-48.66767114828363
 30
0.0
 40
1.5
100
AcDbArc
 50
90.0
 51
180.0
  0
LINE
  5
43
330
1F
100
AcDbEntity
  8
0-0
  6
Continuous
 62
    92
370
    13
100
AcDbLine
 10
-1499.144673198306
 20
-47.16767114828329
 30
0.0
 11
-1538.144673198304
 21
-47.16767114828329
 31
0.0
  0
ARC
  5
44
330
1F
100
AcDbEntity
  8
0-0
  6
Continuous
 62
    92
370
    13
100
AcDbCircle
 10
-1499.144673198306
 20
-48.66767114828363
 30
0.0
 40
1.5
100
AcDbArc
 50
0.0
 51
90.00000000000001
  0
LINE
  5
45
330
1F
100
AcDbEntity
  8
0-0
  6
Continuous
 62
    92
370
    13
100
AcDbLine
 10
-1497.644673198306
 20
-167.6676711482828
 30
0.0
 11
-1497.644673198306
 21
-48.66767114828363
 31
0.0
  0
ARC
  5
46
330
1F
100
AcDbEntity
  8
0-0
  6
Continuous
 62
    92
370
    13
100
AcDbCircle
 10
-1499.144673198306
 20
-167.6676711482828
 30
0.0
 40
1.5
100
AcDbArc
 50
270.0
 51
0.0
  0
LINE
  5
47
330
1F
100
AcDbEntity
  8
0-0
  6
Continuous
 62
    92
370
    13
100
AcDbLine
 10
-1538.144673198304
 20
-169.1676711482849
 30
0.0
 11
-1499.144673198306
 21
-169.1676711482849
 31
0.0
  0
LINE
  5
48
330
1F
100
AcDbEntity
  8
0-0
  6
Continuous
 62
    92
370
    13
100
AcDbLine
 10
-1539.644673198305
 20
-167.6676711482828
 30
0.0
 11
-1539.644673198305
 21
-48.66767114828363
 31
0.0
  0
ARC
  5
49
330
1F
100
AcDbEntity
  8
0-0
  6
Continuous
 62
    92
370
    13
100
AcDbCircle
 10
-1538.144673198304
 20
-167.6676711482828
 30
0.0
 40
1.5
100
AcDbArc
 50
180.0
 51
270.0
  0
ARC
  5
4A
330
1F
100
AcDbEntity
  8
0-0
  6
Continuous
 62
     7
370
     9
100
AcDbCircle
 10
-1518.644673198305
 20
-137.7676711482827
 30
0.0
 40
15.0
100
AcDbArc
 50
180.0
 51
0.0
  0
ARC
  5
4B
330
1F
100
AcDbEntity
  8
0-0
  6
Continuous
 62
     7
370
     9
100
AcDbCircle
 10
-1518.644673198305
 20
-78.56767114828287
 30
0.0
 40
15.0
100
AcDbArc
 50
0.0
 51
180.0
  0
LINE
  5
4C
330
1F
100
AcDbEntity
  8
0-0
  6
Continuous
 62
     7
370
     9
100
AcDbLine
 10
-1503.644673198305
 20
-137.7676711482827
 30
0.0
 11
-1503.644673198305
 21
-78.56767114828287
 31
0.0
  0
LINE
  5
4D
330
1F
100
AcDbEntity
  8
0-0
  6
Continuous
 62
     7
370
     9
100
AcDbLine
 10
-1533.644673198305
 20
-78.56767114828287
 30
0.0
 11
-1533.644673198305
 21
-137.7676711482827
 31
0.0
  0
LINE
  5
4E
330
1F
100
AcDbEntity
  8
0-0
  6
JWW_DASHED1
 62
   120
370
     5
100
AcDbLine
 10
-1566.644673198306
 20
-1065.667671148284
 30
0.0
 11
-1569.644673198306
 21
-1065.667671148284
 31
0.0
  0
LINE
  5
4F
330
1F
100
AcDbEntity
  8
0-0
  6
JWW_DASHED1
 62
   120
370
     5
100
AcDbLine
 10
-1459.644673198297
 20
-908.4495828232914
 30
0.0
 11
-1452.426584873316
 21
-915.6676711482731
 31
0.0
  0
LINE
  5
50
330
1F
100
AcDbEntity
  8
0-0
  6
JWW_DASHED1
 62
   120
370
     5
100
AcDbLine
 10
-1459.644673198304
 20
-898.5500878880682
 30
0.0
 11
-1442.527089938092
 21
-915.6676711482817
 31
0.0
  0
LINE
  5
51
330
1F
100
AcDbEntity
  8
0-0
  6
JWW_DASHED1
 62
   120
370
     5
100
AcDbLine
 10
-1459.644673198296
 20
-888.6505929528605
 30
0.0
 11
-1432.627595002884
 21
-915.6676711482727
 31
0.0
  0
LINE
  5
52
330
1F
100
AcDbEntity
  8
0-0
  6
JWW_DASHED1
 62
   120
370
     5
100
AcDbLine
 10
-1459.6446731983
 20
-878.7510980176944
 30
0.0
 11
-1422.728100067719
 21
-915.6676711482766
 31
0.0
  0
LINE
  5
53
330
1F
100
AcDbEntity
  8
0-0
  6
JWW_DASHED1
 62
   120
370
     5
100
AcDbLine
 10
-1459.644673198291
 20
-868.8516030824866
 30
0.0
 11
-1412.828605132509
 21
-915.6676711482685
 31
0.0
  0
LINE
  5
54
330
1F
100
AcDbEntity
  8
0-0
  6
JWW_DASHED1
 62
   120
370
     5
100
AcDbLine
 10
-1459.644673198298
 20
-858.9521081472634
 30
0.0
 11
-1402.929110197285
 21
-915.6676711482766
 31
0.0
  0
LINE
  5
55
330
1F
100
AcDbEntity
  8
0-0
  6
JWW_DASHED1
 62
   120
370
     5
100
AcDbLine
 10
-1459.644673198302
 20
-849.0526132120978
 30
0.0
 11
-1393.029615262121
 21
-915.6676711482795
 31
0.0
  0
LINE
  5
56
330
1F
100
AcDbEntity
  8
0-0
  6
JWW_DASHED1
 62
   120
370
     5
100
AcDbLine
 10
-1459.644673198294
 20
-839.1531182768895
 30
0.0
 11
-1383.130120326912
 21
-915.6676711482714
 31
0.0
  0
LINE
  5
57
330
1F
100
AcDbEntity
  8
0-0
  6
JWW_DASHED1
 62
   120
370
     5
100
AcDbLine
 10
-1459.644673198301
 20
-829.2536233416663
 30
0.0
 11
-1373.230625391688
 21
-915.6676711482792
 31
0.0
  0
LINE
  5
58
330
1F
100
AcDbEntity
  8
0-0
  6
JWW_DASHED1
 62
   120
370
     5
100
AcDbLine
 10
-1459.644673198304
 20
-819.3541284065008
 30
0.0
 11
-1363.331130456525
 21
-915.6676711482804
 31
0.0
  0
LINE
  5
59
330
1F
100
AcDbEntity
  8
0-0
  6
JWW_DASHED1
 62
   120
370
     5
100
AcDbLine
 10
-1459.644673198296
 20
-809.4546334712925
 30
0.0
 11
-1353.431635521314
 21
-915.6676711482748
 31
0.0
  0
LINE
  5
5A
330
1F
100
AcDbEntity
  8
0-0
  6
JWW_DASHED1
 62
   120
370
     5
100
AcDbLine
 10
-1459.644673198298
 20
-799.555138536129
 30
0.0
 11
-1343.53214058615
 21
-915.6676711482778
 31
0.0
  0
LINE
  5
5B
330
1F
100
AcDbEntity
  8
0-0
  6
JWW_DASHED1
 62
   120
370
     5
100
AcDbLine
 10
-1459.644673198308
 20
-789.6556436009037
 30
0.0
 11
-1333.632645650928
 21
-915.6676711482821
 31
0.0
  0
LINE
  5
5C
330
1F
100
AcDbEntity
  8
0-0
  6
JWW_DASHED1
 62
   120
370
     5
100
AcDbLine
 10
-1459.644673198299
 20
-779.7561486656955
 30
0.0
 11
-1323.733150715717
 21
-915.6676711482778
 31
0.0
  0
LINE
  5
5D
330
1F
100
AcDbEntity
  8
0-0
  6
JWW_DASHED1
 62
   120
370
     5
100
AcDbLine
 10
-1459.644673198301
 20
-769.8566537305319
 30
0.0
 11
-1313.833655780552
 21
-915.6676711482812
 31
0.0
  0
LINE
  5
5E
330
1F
100
AcDbEntity
  8
0-0
  6
JWW_DASHED1
 62
   120
370
     5
100
AcDbLine
 10
-1459.644673198309
 20
-759.9571587953075
 30
0.0
 11
-1303.934160845332
 21
-915.6676711482851
 31
0.0
  0
LINE
  5
5F
330
1F
100
AcDbEntity
  8
0-0
  6
JWW_DASHED1
 62
   120
370
     5
100
AcDbLine
 10
-1459.644673198302
 20
-750.0576638600984
 30
0.0
 11
-1294.034665910119
 21
-915.6676711482804
 31
0.0
  0
LINE
  5
60
330
1F
100
AcDbEntity
  8
0-0
  6
JWW_DASHED1
 62
   120
370
     5
100
AcDbLine
 10
-1459.644673198303
 20
-740.1581689249349
 30
0.0
 11
-1284.135170974954
 21
-915.6676711482842
 31
0.0
  0
LINE
  5
61
330
1F
100
AcDbEntity
  8
0-0
  6
JWW_DASHED1
 62
   120
370
     5
100
AcDbLine
 10
-1459.644673198296
 20
-730.2586739897258
 30
0.0
 11
-1274.235676039746
 21
-915.6676711482761
 31
0.0
  0
LINE
  5
62
330
1F
100
AcDbEntity
  8
0-0
  6
JWW_DASHED1
 62
   120
370
     5
100
AcDbLine
 10
-1459.644673198304
 20
-720.3591790545022
 30
0.0
 11
-1264.336181104522
 21
-915.6676711482838
 31
0.0
  0
LINE
  5
63
330
1F
100
AcDbEntity
  8
0-0
  6
JWW_DASHED1
 62
   120
370
     5
100
AcDbLine
 10
-1459.644673198304
 20
-710.4596841193392
 30
0.0
 11
-1254.436686169358
 21
-915.6676711482868
 31
0.0
  0
LINE
  5
64
330
1F
100
AcDbEntity
  8
0-0
  6
JWW_DASHED1
 62
   120
370
     5
100
AcDbLine
 10
-1459.644673198299
 20
-700.5601891841287
 30
0.0
 11
-1244.537191234148
 21
-915.6676711482792
 31
0.0
  0
LINE
  5
65
330
1F
100
AcDbEntity
  8
0-0
  6
JWW_DASHED1
 62
   120
370
     5
100
AcDbLine
 10
-1459.644673198306
 20
-690.6606942489052
 30
0.0
 11
-1234.63769629893
 21
-915.6676711482808
 31
0.0
  0
LINE
  5
66
330
1F
100
AcDbEntity
  8
0-0
  6
JWW_DASHED1
 62
   120
370
     5
100
AcDbLine
 10
-1459.644673198294
 20
-680.7611993137552
 30
0.0
 11
-1224.738201363774
 21
-915.6676711482748
 31
0.0
  0
LINE
  5
67
330
1F
100
AcDbEntity
  8
0-0
  6
JWW_DASHED1
 62
   120
370
     5
100
AcDbLine
 10
-1459.644673198299
 20
-670.8617043785339
 30
0.0
 11
-1214.83870642855
 21
-915.6676711482826
 31
0.0
  0
LINE
  5
68
330
1F
100
AcDbEntity
  8
0-0
  6
JWW_DASHED1
 62
   120
370
     5
100
AcDbLine
 10
-1459.644673198309
 20
-660.9622094433081
 30
0.0
 11
-1204.939211493333
 21
-915.6676711482834
 31
0.0
  0
LINE
  5
69
330
1F
100
AcDbEntity
  8
0-0
  6
JWW_DASHED1
 62
   120
370
     5
100
AcDbLine
 10
-1459.644673198296
 20
-651.0627145081587
 30
0.0
 11
-1195.039716558177
 21
-915.6676711482778
 31
0.0
  0
LINE
  5
6A
330
1F
100
AcDbEntity
  8
0-0
  6
JWW_DASHED1
 62
   120
370
     5
100
AcDbLine
 10
-1459.644673198301
 20
-641.1632195729372
 30
0.0
 11
-1185.140221622953
 21
-915.6676711482855
 31
0.0
  0
LINE
  5
6B
330
1F
100
AcDbEntity
  8
0-0
  6
JWW_DASHED1
 62
   120
370
     5
100
AcDbLine
 10
-1459.644673198311
 20
-631.2637246377107
 30
0.0
 11
-1175.240726687737
 21
-915.6676711482855
 31
0.0
  0
LINE
  5
6C
330
1F
100
AcDbEntity
  8
0-0
  6
JWW_DASHED1
 62
   120
370
     5
100
AcDbLine
 10
-1459.644673198299
 20
-621.3642297025616
 30
0.0
 11
-1165.341231752579
 21
-915.6676711482804
 31
0.0
  0
LINE
  5
6D
330
1F
100
AcDbEntity
  8
0-0
  6
JWW_DASHED1
 62
   120
370
     5
100
AcDbLine
 10
-1459.644673198304
 20
-611.4647347673401
 30
0.0
 11
-1155.441736817356
 21
-915.667671148288
 31
0.0
  0
LINE
  5
6E
330
1F
100
AcDbEntity
  8
0-0
  6
JWW_DASHED1
 62
   120
370
     5
100
AcDbLine
 10
-1459.644673198309
 20
-601.5652398321729
 30
0.0
 11
-1145.542241882199
 21
-915.6676711482834
 31
0.0
  0
LINE
  5
6F
330
1F
100
AcDbEntity
  8
0-0
  6
JWW_DASHED1
 62
   120
370
     5
100
AcDbLine
 10
-1459.644673198301
 20
-591.6657448969654
 30
0.0
 11
-1135.642746946982
 21
-915.6676711482838
 31
0.0
  0
LINE
  5
70
330
1F
100
AcDbEntity
  8
0-0
  6
JWW_DASHED1
 62
   120
370
     5
100
AcDbLine
 10
-1459.644673198293
 20
-581.7662499617563
 30
0.0
 11
-1125.743252011775
 21
-915.6676711482748
 31
0.0
  0
LINE
  5
71
330
1F
100
AcDbEntity
  8
0-0
  6
JWW_DASHED1
 62
   120
370
     5
100
AcDbLine
 10
-1459.644673198312
 20
-571.8667550265758
 30
0.0
 11
-1115.843757076602
 21
-915.667671148286
 31
0.0
  0
LINE
  5
72
330
1F
100
AcDbEntity
  8
0-0
  6
JWW_DASHED1
 62
   120
370
     5
100
AcDbLine
 10
-1459.644673198303
 20
-561.9672600913684
 30
0.0
 11
-1105.944262141385
 21
-915.6676711482868
 31
0.0
  0
LINE
  5
73
330
1F
100
AcDbEntity
  8
0-0
  6
JWW_DASHED1
 62
   120
370
     5
100
AcDbLine
 10
-1459.644673198296
 20
-552.0677651561593
 30
0.0
 11
-1096.044767206176
 21
-915.6676711482787
 31
0.0
  0
LINE
  5
74
330
1F
100
AcDbEntity
  8
0-0
  6
JWW_DASHED1
 62
   120
370
     5
100
AcDbLine
 10
-1459.644673198299
 20
-542.1682702209945
 30
0.0
 11
-1086.145272271011
 21
-915.6676711482817
 31
0.0
  0
LINE
  5
75
330
1F
100
AcDbEntity
  8
0-0
  6
JWW_DASHED1
 62
   120
370
     5
100
AcDbLine
 10
-1459.644673198306
 20
-532.2687752857713
 30
0.0
 11
-1076.245777335796
 21
-915.6676711482804
 31
0.0
  0
LINE
  5
76
330
1F
100
AcDbEntity
  8
0-0
  6
JWW_DASHED1
 62
   120
370
     5
100
AcDbLine
 10
-1459.644673198297
 20
-522.3692803505627
 30
0.0
 11
-1066.346282400578
 21
-915.6676711482821
 31
0.0
  0
LINE
  5
77
330
1F
100
AcDbEntity
  8
0-0
  6
JWW_DASHED1
 62
   120
370
     5
100
AcDbLine
 10
-1459.644673198297
 20
-512.4697854154012
 30
0.0
 11
-1056.446787465413
 21
-915.6676711482855
 31
0.0
  0
LINE
  5
78
330
1F
100
AcDbEntity
  8
0-0
  6
JWW_DASHED1
 62
   120
370
     5
100
AcDbLine
 10
-1459.644673198309
 20
-502.5702904801734
 30
0.0
 11
-1046.547292530201
 21
-915.6676711482817
 31
0.0
  0
LINE
  5
79
330
1F
100
AcDbEntity
  8
0-0
  6
JWW_DASHED1
 62
   120
370
     5
100
AcDbLine
 10
-1459.644673198301
 20
-492.6707955449656
 30
0.0
 11
-1036.647797594981
 21
-915.6676711482851
 31
0.0
  0
LINE
  5
7A
330
1F
100
AcDbEntity
  8
0-0
  6
JWW_DASHED1
 62
   120
370
     5
100
AcDbLine
 10
-1459.644673198301
 20
-482.7713006098043
 30
0.0
 11
-1026.748302659817
 21
-915.667671148288
 31
0.0
  0
LINE
  5
7B
330
1F
100
AcDbEntity
  8
0-0
  6
JWW_DASHED1
 62
   120
370
     5
100
AcDbLine
 10
-1459.644673198311
 20
-472.8718056745772
 30
0.0
 11
-1016.848807724604
 21
-915.6676711482842
 31
0.0
  0
LINE
  5
7C
330
1F
100
AcDbEntity
  8
0-0
  6
JWW_DASHED1
 62
   120
370
     5
100
AcDbLine
 10
-1459.644673198302
 20
-462.9723107393686
 30
0.0
 11
-1006.949312789384
 21
-915.6676711482876
 31
0.0
  0
LINE
  5
7D
330
1F
100
AcDbEntity
  8
0-0
  6
JWW_DASHED1
 62
   120
370
     5
100
AcDbLine
 10
-1459.644673198302
 20
-453.0728158042076
 30
0.0
 11
-997.0498178542186
 21
-915.667671148291
 31
0.0
  0
LINE
  5
7E
330
1F
100
AcDbEntity
  8
0-0
  6
JWW_DASHED1
 62
   120
370
     5
100
AcDbLine
 10
-1459.644673198297
 20
-443.1733208689956
 30
0.0
 11
-987.15032291901
 21
-915.6676711482834
 31
0.0
  0
LINE
  5
7F
330
1F
100
AcDbEntity
  8
0-0
  6
JWW_DASHED1
 62
   120
370
     5
100
AcDbLine
 10
-1459.644673198304
 20
-433.2738259337724
 30
0.0
 11
-977.2508279837859
 21
-915.667671148291
 31
0.0
  0
LINE
  5
80
330
1F
100
AcDbEntity
  8
0-0
  6
JWW_DASHED1
 62
   120
370
     5
100
AcDbLine
 10
-1459.644673198292
 20
-423.3743309986233
 30
0.0
 11
-967.3513330486361
 21
-915.6676711482787
 31
0.0
  0
LINE
  5
81
330
1F
100
AcDbEntity
  8
0-0
  6
JWW_DASHED1
 62
   120
370
     5
100
AcDbLine
 10
-1459.644673198296
 20
-413.4748360634028
 30
0.0
 11
-957.4518381134129
 21
-915.6676711482863
 31
0.0
  0
LINE
  5
82
330
1F
100
AcDbEntity
  8
0-0
  6
JWW_DASHED1
 62
   120
370
     5
100
AcDbLine
 10
-1459.644673198303
 20
-403.5753411282337
 30
0.0
 11
-947.5523431782477
 21
-915.6676711482897
 31
0.0
  0
LINE
  5
83
330
1F
100
AcDbEntity
  8
0-0
  6
JWW_DASHED1
 62
   120
370
     5
100
AcDbLine
 10
-1459.644673198296
 20
-393.6758461930254
 30
0.0
 11
-937.6528482430399
 21
-915.6676711482812
 31
0.0
  0
LINE
  5
84
330
1F
100
AcDbEntity
  8
0-0
  6
JWW_DASHED1
 62
   120
370
     5
100
AcDbLine
 10
-1459.644673198299
 20
-383.7763512578057
 30
0.0
 11
-927.753353307815
 21
-915.6676711482897
 31
0.0
  0
LINE
  5
85
330
1F
100
AcDbEntity
  8
0-0
  6
JWW_DASHED1
 62
   120
370
     5
100
AcDbLine
 10
-1459.644673198306
 20
-373.8768563226367
 30
0.0
 11
-917.8538583726498
 21
-915.6676711482924
 31
0.0
  0
LINE
  5
86
330
1F
100
AcDbEntity
  8
0-0
  6
JWW_DASHED1
 62
   120
370
     5
100
AcDbLine
 10
-1459.644673198297
 20
-363.9773613874293
 30
0.0
 11
-907.9543634374411
 21
-915.6676711482851
 31
0.0
  0
LINE
  5
87
330
1F
100
AcDbEntity
  8
0-0
  6
Continuous
 62
    92
370
    13
100
AcDbLine
 10
1637.355326801693
 20
-1085.667671148283
 30
0.0
 11
-1596.644673198306
 21
-1085.667671148283
 31
0.0
  0
LINE
  5
88
330
1F
100
AcDbEntity
  8
0-0
  6
Continuous
 62
    92
370
    13
100
AcDbLine
 10
1607.355326801693
 20
-1070.667671148283
 30
0.0
 11
-1566.644673198306
 21
-1070.667671148283
 31
0.0
  0
ARC
  5
89
330
1F
100
AcDbEntity
  8
0-0
  6
Continuous
 62
    92
370
    13
100
AcDbCircle
 10
-50.14467319830374
 20
-48.66767114828363
 30
0.0
 40
1.5
100
AcDbArc
 50
90.0
 51
180.0
  0
LINE
  5
8A
330
1F
100
AcDbEntity
  8
0-0
  6
Continuous
 62
    92
370
    13
100
AcDbLine
 10
-11.1446731983051
 20
-47.16767114828329
 30
0.0
 11
-50.14467319830374
 21
-47.16767114828329
 31
0.0
  0
ARC
  5
8B
330
1F
100
AcDbEntity
  8
0-0
  6
Continuous
 62
    92
370
    13
100
AcDbCircle
 10
-11.1446731983051
 20
-48.66767114828363
 30
0.0
 40
1.5
100
AcDbArc
 50
0.0
 51
90.00000000000001
  0
LINE
  5
8C
330
1F
100
AcDbEntity
  8
0-0
  6
Continuous
 62
    92
370
    13
100
AcDbLine
 10
-9.644673198304758
 20
-167.6676711482828
 30
0.0
 11
-9.644673198304758
 21
-48.66767114828363
 31
0.0
  0
ARC
  5
8D
330
1F
100
AcDbEntity
  8
0-0
  6
Continuous
 62
    92
370
    13
100
AcDbCircle
 10
-11.1446731983051
 20
-167.6676711482828
 30
0.0
 40
1.5
100
AcDbArc
 50
270.0
 51
0.0
  0
LINE
  5
8E
330
1F
100
AcDbEntity
  8
0-0
  6
Continuous
 62
    92
370
    13
100
AcDbLine
 10
-50.14467319830374
 20
-169.1676711482849
 30
0.0
 11
-11.1446731983051
 21
-169.1676711482849
 31
0.0
  0
LINE
  5
8F
330
1F
100
AcDbEntity
  8
0-0
  6
Continuous
 62
    92
370
    13
100
AcDbLine
 10
-51.64467319830408
 20
-167.6676711482828
 30
0.0
 11
-51.64467319830408
 21
-48.66767114828363
 31
0.0
  0
ARC
  5
90
330
1F
100
AcDbEntity
  8
0-0
  6
Continuous
 62
    92
370
    13
100
AcDbCircle
 10
-50.14467319830374
 20
-167.6676711482828
 30
0.0
 40
1.5
100
AcDbArc
 50
180.0
 51
270.0
  0
ARC
  5
91
330
1F
100
AcDbEntity
  8
0-0
  6
Continuous
 62
     7
370
     9
100
AcDbCircle
 10
-30.64467319830442
 20
-137.7676711482827
 30
0.0
 40
15.0
100
AcDbArc
 50
180.0
 51
0.0
  0
ARC
  5
92
330
1F
100
AcDbEntity
  8
0-0
  6
Continuous
 62
     7
370
     9
100
AcDbCircle
 10
-30.64467319830442
 20
-78.56767114828287
 30
0.0
 40
15.0
100
AcDbArc
 50
0.0
 51
180.0
  0
LINE
  5
93
330
1F
100
AcDbEntity
  8
0-0
  6
Continuous
 62
     7
370
     9
100
AcDbLine
 10
-15.64467319830442
 20
-137.7676711482827
 30
0.0
 11
-15.64467319830442
 21
-78.56767114828287
 31
0.0
  0
LINE
  5
94
330
1F
100
AcDbEntity
  8
0-0
  6
Continuous
 62
     7
370
     9
100
AcDbLine
 10
-45.64467319830442
 20
-78.56767114828287
 30
0.0
 11
-45.64467319830442
 21
-137.7676711482827
 31
0.0
  0
ARC
  5
95
330
1F
100
AcDbEntity
  8
0-0
  6
Continuous
 62
    92
370
    13
100
AcDbCircle
 10
51.85532680169217
 20
-48.66767114828363
 30
0.0
 40
1.5
100
AcDbArc
 50
90.0
 51
180.0
  0
LINE
  5
96
330
1F
100
AcDbEntity
  8
0-0
  6
Continuous
 62
    92
370
    13
100
AcDbLine
 10
90.85532680169081
 20
-47.16767114828329
 30
0.0
 11
51.85532680169217
 21
-47.16767114828329
 31
0.0
  0
ARC
  5
97
330
1F
100
AcDbEntity
  8
0-0
  6
Continuous
 62
    92
370
    13
100
AcDbCircle
 10
90.85532680169081
 20
-48.66767114828363
 30
0.0
 40
1.5
100
AcDbArc
 50
0.0
 51
90.00000000000001
  0
LINE
  5
98
330
1F
100
AcDbEntity
  8
0-0
  6
Continuous
 62
    92
370
    13
100
AcDbLine
 10
92.35532680169115
 20
-167.6676711482828
 30
0.0
 11
92.35532680169115
 21
-48.66767114828363
 31
0.0
  0
ARC
  5
99
330
1F
100
AcDbEntity
  8
0-0
  6
Continuous
 62
    92
370
    13
100
AcDbCircle
 10
90.85532680169081
 20
-167.6676711482828
 30
0.0
 40
1.5
100
AcDbArc
 50
270.0
 51
0.0
  0
LINE
  5
9A
330
1F
100
AcDbEntity
  8
0-0
  6
Continuous
 62
    92
370
    13
100
AcDbLine
 10
51.85532680169217
 20
-169.1676711482849
 30
0.0
 11
90.85532680169081
 21
-169.1676711482849
 31
0.0
  0
LINE
  5
9B
330
1F
100
AcDbEntity
  8
0-0
  6
Continuous
 62
    92
370
    13
100
AcDbLine
 10
50.35532680169183
 20
-167.6676711482828
 30
0.0
 11
50.35532680169183
 21
-48.66767114828363
 31
0.0
  0
ARC
  5
9C
330
1F
100
AcDbEntity
  8
0-0
  6
Continuous
 62
    92
370
    13
100
AcDbCircle
 10
51.85532680169217
 20
-167.6676711482828
 30
0.0
 40
1.5
100
AcDbArc
 50
180.0
 51
270.0
  0
ARC
  5
9D
330
1F
100
AcDbEntity
  8
0-0
  6
Continuous
 62
     7
370
     9
100
AcDbCircle
 10
71.35532680169149
 20
-137.7676711482827
 30
0.0
 40
15.0
100
AcDbArc
 50
180.0
 51
0.0
  0
ARC
  5
9E
330
1F
100
AcDbEntity
  8
0-0
  6
Continuous
 62
     7
370
     9
100
AcDbCircle
 10
71.35532680169149
 20
-78.56767114828287
 30
0.0
 40
15.0
100
AcDbArc
 50
0.0
 51
180.0
  0
LINE
  5
9F
330
1F
100
AcDbEntity
  8
0-0
  6
Continuous
 62
     7
370
     9
100
AcDbLine
 10
86.35532680169149
 20
-137.7676711482827
 30
0.0
 11
86.35532680169149
 21
-78.56767114828287
 31
0.0
  0
LINE
  5
A0
330
1F
100
AcDbEntity
  8
0-0
  6
Continuous
 62
     7
370
     9
100
AcDbLine
 10
56.35532680169149
 20
-78.56767114828287
 30
0.0
 11
56.35532680169149
 21
-137.7676711482827
 31
0.0
  0
ARC
  5
A1
330
1F
100
AcDbEntity
  8
0-0
  6
Continuous
 62
    92
370
    13
100
AcDbCircle
 10
1539.855326801695
 20
-48.66767114828363
 30
0.0
 40
1.5
100
AcDbArc
 50
90.0
 51
180.0
  0
LINE
  5
A2
330
1F
100
AcDbEntity
  8
0-0
  6
Continuous
 62
    92
370
    13
100
AcDbLine
 10
1578.855326801696
 20
-47.16767114828329
 30
0.0
 11
1539.855326801695
 21
-47.16767114828329
 31
0.0
  0
ARC
  5
A3
330
1F
100
AcDbEntity
  8
0-0
  6
Continuous
 62
    92
370
    13
100
AcDbCircle
 10
1578.855326801696
 20
-48.66767114828363
 30
0.0
 40
1.5
100
AcDbArc
 50
0.0
 51
90.00000000000001
  0
LINE
  5
A4
330
1F
100
AcDbEntity
  8
0-0
  6
Continuous
 62
    92
370
    13
100
AcDbLine
 10
1580.355326801695
 20
-167.6676711482828
 30
0.0
 11
1580.355326801695
 21
-48.66767114828363
 31
0.0
  0
ARC
  5
A5
330
1F
100
AcDbEntity
  8
0-0
  6
Continuous
 62
    92
370
    13
100
AcDbCircle
 10
1578.855326801696
 20
-167.6676711482828
 30
0.0
 40
1.5
100
AcDbArc
 50
270.0
 51
0.0
  0
LINE
  5
A6
330
1F
100
AcDbEntity
  8
0-0
  6
Continuous
 62
    92
370
    13
100
AcDbLine
 10
1539.855326801695
 20
-169.1676711482849
 30
0.0
 11
1578.855326801696
 21
-169.1676711482849
 31
0.0
  0
LINE
  5
A7
330
1F
100
AcDbEntity
  8
0-0
  6
Continuous
 62
    92
370
    13
100
AcDbLine
 10
1538.355326801696
 20
-167.6676711482828
 30
0.0
 11
1538.355326801696
 21
-48.66767114828363
 31
0.0
  0
ARC
  5
A8
330
1F
100
AcDbEntity
  8
0-0
  6
Continuous
 62
    92
370
    13
100
AcDbCircle
 10
1539.855326801695
 20
-167.6676711482828
 30
0.0
 40
1.5
100
AcDbArc
 50
180.0
 51
270.0
  0
ARC
  5
A9
330
1F
100
AcDbEntity
  8
0-0
  6
Continuous
 62
     7
370
     9
100
AcDbCircle
 10
1559.355326801696
 20
-137.7676711482827
 30
0.0
 40
15.0
100
AcDbArc
 50
180.0
 51
0.0
  0
ARC
  5
AA
330
1F
100
AcDbEntity
  8
0-0
  6
Continuous
 62
     7
370
     9
100
AcDbCircle
 10
1559.355326801696
 20
-78.56767114828287
 30
0.0
 40
15.0
100
AcDbArc
 50
0.0
 51
180.0
  0
LINE
  5
AB
330
1F
100
AcDbEntity
  8
0-0
  6
Continuous
 62
     7
370
     9
100
AcDbLine
 10
1574.355326801696
 20
-137.7676711482827
 30
0.0
 11
1574.355326801696
 21
-78.56767114828287
 31
0.0
  0
LINE
  5
AC
330
1F
100
AcDbEntity
  8
0-0
  6
Continuous
 62
     7
370
     9
100
AcDbLine
 10
1544.355326801696
 20
-78.56767114828287
 30
0.0
 11
1544.355326801696
 21
-137.7676711482827
 31
0.0
  0
LINE
  5
AD
330
1F
100
AcDbEntity
  8
0-0
  6
Continuous
 62
    92
370
    13
100
AcDbLine
 10
-1566.644673198306
 20
-1065.667671148284
 30
0.0
 11
20.35532680169354
 21
-1065.667671148284
 31
0.0
  0
LINE
  5
AE
330
1F
100
AcDbEntity
  8
0-0
  6
Continuous
 62
    92
370
    13
100
AcDbLine
 10
1607.355326801693
 20
-1065.667671148284
 30
0.0
 11
20.35532680169354
 21
-1065.667671148284
 31
0.0
  0
LINE
  5
AF
330
1F
100
AcDbEntity
  8
0-0
  6
JWW_DASHED1
 62
   120
370
     5
100
AcDbLine
 10
1607.355326801693
 20
-1065.667671148284
 30
0.0
 11
1610.355326801694
 21
-1065.667671148284
 31
0.0
  0
LINE
  5
B0
330
1F
100
AcDbEntity
  8
0-0
  6
Continuous
 62
    92
370
    13
100
AcDbLine
 10
-1596.644673198306
 20
1161.332328851717
 30
0.0
 11
1637.355326801693
 21
1161.332328851717
 31
0.0
  0
LINE
  5
B1
330
1F
100
AcDbEntity
  8
0-0
  6
Continuous
 62
    92
370
    13
100
AcDbLine
 10
-1566.644673198306
 20
1125.332328851715
 30
0.0
 11
1607.355326801693
 21
1125.332328851715
 31
0.0
  0
LINE
  5
B2
330
1F
100
AcDbEntity
  8
0-0
  6
Continuous
 62
    92
370
    13
100
AcDbLine
 10
1607.355326801693
 20
-1085.667671148283
 30
0.0
 11
1607.355326801693
 21
1161.332328851717
 31
0.0
  0
LINE
  5
B3
330
1F
100
AcDbEntity
  8
0-0
  6
Continuous
 62
    92
370
    13
100
AcDbLine
 10
-1566.644673198306
 20
-1085.667671148283
 30
0.0
 11
-1566.644673198306
 21
1161.332328851717
 31
0.0
  0
LINE
  5
B4
330
1F
100
AcDbEntity
  8
0-0
  6
Continuous
 62
    92
370
    13
100
AcDbLine
 10
1637.355326801693
 20
-1085.667671148283
 30
0.0
 11
1637.355326801693
 21
1161.332328851717
 31
0.0
  0
LINE
  5
B5
330
1F
100
AcDbEntity
  8
0-0
  6
Continuous
 62
    92
370
    13
100
AcDbLine
 10
-1596.644673198306
 20
-1085.667671148283
 30
0.0
 11
-1596.644673198306
 21
1161.332328851717
 31
0.0
  0
LINE
  5
B6
330
1F
100
AcDbEntity
  8
0-0
  6
Continuous
 62
    92
370
    13
100
AcDbLine
 10
-789.6446731983065
 20
-1065.667671148284
 30
0.0
 11
-789.6446731983065
 21
1117.332328851716
 31
0.0
  0
LINE
  5
B7
330
1F
100
AcDbEntity
  8
0-0
  6
JWW_DASHED1
 62
   120
370
     5
100
AcDbLine
 10
-759.6446731983065
 20
-1065.667671148284
 30
0.0
 11
-759.6446731983065
 21
1117.332328851716
 31
0.0
  0
LINE
  5
B8
330
1F
100
AcDbEntity
  8
0-0
  6
Continuous
 62
    92
370
    13
100
AcDbLine
 10
-1566.644673198306
 20
1117.332328851716
 30
0.0
 11
20.35532680169354
 21
1117.332328851716
 31
0.0
  0
LINE
  5
B9
330
1F
100
AcDbEntity
  8
0-0
  6
Continuous
 62
    92
370
    13
100
AcDbLine
 10
20.35532680169354
 20
-1065.667671148284
 30
0.0
 11
20.35532680169354
 21
1117.332328851716
 31
0.0
  0
LINE
  5
BA
330
1F
100
AcDbEntity
  8
0-0
  6
Continuous
 62
    92
370
    13
100
AcDbLine
 10
830.3553268016935
 20
-1065.667671148284
 30
0.0
 11
830.3553268016935
 21
1117.332328851716
 31
0.0
  0
LINE
  5
BB
330
1F
100
AcDbEntity
  8
0-0
  6
JWW_DASHED1
 62
   120
370
     5
100
AcDbLine
 10
800.3553268016935
 20
-1065.667671148284
 30
0.0
 11
800.3553268016935
 21
1117.332328851716
 31
0.0
  0
LINE
  5
BC
330
1F
100
AcDbEntity
  8
0-0
  6
Continuous
 62
    92
370
    13
100
AcDbLine
 10
1607.355326801693
 20
1117.332328851716
 30
0.0
 11
20.35532680169354
 21
1117.332328851716
 31
0.0
  0
LINE
  5
BD
330
1F
100
AcDbEntity
  8
0-0
  6
JWW_DASHED1
 62
   120
370
     5
100
AcDbLine
 10
-1569.644673198306
 20
-1065.667671148284
 30
0.0
 11
-1569.644673198306
 21
1117.332328851716
 31
0.0
  0
LINE
  5
BE
330
1F
100
AcDbEntity
  8
0-0
  6
JWW_DASHED1
 62
   120
370
     5
100
AcDbLine
 10
-1569.644673198306
 20
1117.332328851716
 30
0.0
 11
-1566.644673198306
 21
1117.332328851716
 31
0.0
  0
LINE
  5
BF
330
1F
100
AcDbEntity
  8
0-0
  6
JWW_DASHED1
 62
   120
370
     5
100
AcDbLine
 10
1610.355326801694
 20
-1065.667671148284
 30
0.0
 11
1610.355326801694
 21
1117.332328851716
 31
0.0
  0
LINE
  5
C0
330
1F
100
AcDbEntity
  8
0-0
  6
JWW_DASHED1
 62
   120
370
     5
100
AcDbLine
 10
1610.355326801694
 20
1117.332328851716
 30
0.0
 11
1607.355326801693
 21
1117.332328851716
 31
0.0
  0
LINE
  5
C1
330
1F
100
AcDbEntity
  8
0-0
  6
Continuous
 62
    92
370
    13
100
AcDbLine
 10
-1459.644673198308
 20
-915.6676711482841
 30
0.0
 11
-869.6446731983053
 21
-915.6676711482841
 31
0.0
  0
LINE
  5
C2
330
1F
100
AcDbEntity
  8
0-0
  6
Continuous
 62
    92
370
    13
100
AcDbLine
 10
-679.6446731983076
 20
-915.6676711482841
 30
0.0
 11
-89.64467319830533
 21
-915.6676711482841
 31
0.0
  0
LINE
  5
C3
330
1F
100
AcDbEntity
  8
0-0
  6
Continuous
 62
    92
370
    13
100
AcDbLine
 10
130.3553268016924
 20
-915.6676711482841
 30
0.0
 11
720.3553268016947
 21
-915.6676711482841
 31
0.0
  0
LINE
  5
C4
330
1F
100
AcDbEntity
  8
0-0
  6
Continuous
 62
    92
370
    13
100
AcDbLine
 10
910.3553268016924
 20
-915.6676711482841
 30
0.0
 11
1500.355326801695
 21
-915.6676711482841
 31
0.0
  0
LINE
  5
C5
330
1F
100
AcDbEntity
  8
0-0
  6
Continuous
 62
    92
370
    13
100
AcDbLine
 10
-1459.644673198308
 20
982.3323288517149
 30
0.0
 11
-869.6446731983053
 21
982.3323288517149
 31
0.0
  0
LINE
  5
C6
330
1F
100
AcDbEntity
  8
0-0
  6
Continuous
 62
    92
370
    13
100
AcDbLine
 10
-679.6446731983076
 20
982.3323288517149
 30
0.0
 11
-89.64467319830533
 21
982.3323288517149
 31
0.0
  0
LINE
  5
C7
330
1F
100
AcDbEntity
  8
0-0
  6
Continuous
 62
    92
370
    13
100
AcDbLine
 10
130.3553268016924
 20
982.3323288517149
 30
0.0
 11
720.3553268016947
 21
982.3323288517149
 31
0.0
  0
LINE
  5
C8
330
1F
100
AcDbEntity
  8
0-0
  6
Continuous
 62
    92
370
    13
100
AcDbLine
 10
910.3553268016924
 20
982.3323288517149
 30
0.0
 11
1500.355326801695
 21
982.3323288517149
 31
0.0
  0
LINE
  5
C9
330
1F
100
AcDbEntity
  8
0-0
  6
Continuous
 62
    92
370
    13
100
AcDbLine
 10
1500.355326801695
 20
-1065.667671148284
 30
0.0
 11
1500.355326801695
 21
1117.332328851716
 31
0.0
  0
LINE
  5
CA
330
1F
100
AcDbEntity
  8
0-0
  6
Continuous
 62
    92
370
    13
100
AcDbLine
 10
-869.6446731983053
 20
-1065.667671148284
 30
0.0
 11
-869.6446731983053
 21
1117.332328851716
 31
0.0
  0
LINE
  5
CB
330
1F
100
AcDbEntity
  8
0-0
  6
Continuous
 62
    92
370
    13
100
AcDbLine
 10
-1459.644673198308
 20
-1065.667671148284
 30
0.0
 11
-1459.644673198308
 21
1117.332328851716
 31
0.0
  0
LINE
  5
CC
330
1F
100
AcDbEntity
  8
0-0
  6
Continuous
 62
    92
370
    13
100
AcDbLine
 10
-89.64467319830533
 20
-1065.667671148284
 30
0.0
 11
-89.64467319830533
 21
1117.332328851716
 31
0.0
  0
LINE
  5
CD
330
1F
100
AcDbEntity
  8
0-0
  6
Continuous
 62
    92
370
    13
100
AcDbLine
 10
-679.6446731983076
 20
-1065.667671148284
 30
0.0
 11
-679.6446731983076
 21
1117.332328851716
 31
0.0
  0
LINE
  5
CE
330
1F
100
AcDbEntity
  8
0-0
  6
Continuous
 62
    92
370
    13
100
AcDbLine
 10
720.3553268016947
 20
-1065.667671148284
 30
0.0
 11
720.3553268016947
 21
1117.332328851716
 31
0.0
  0
LINE
  5
CF
330
1F
100
AcDbEntity
  8
0-0
  6
Continuous
 62
    92
370
    13
100
AcDbLine
 10
130.3553268016924
 20
-1065.667671148284
 30
0.0
 11
130.3553268016924
 21
1117.332328851716
 31
0.0
  0
LINE
  5
D0
330
1F
100
AcDbEntity
  8
0-0
  6
Continuous
 62
    92
370
    13
100
AcDbLine
 10
910.3553268016924
 20
-1065.667671148284
 30
0.0
 11
910.3553268016924
 21
1117.332328851716
 31
0.0
  0
LINE
  5
D1
330
1F
100
AcDbEntity
  8
0-0
  6
JWW_DASHED1
 62
   120
370
     5
100
AcDbLine
 10
-1459.644673198301
 20
-354.0778664522091
 30
0.0
 11
-898.0548685022171
 21
-915.6676711482928
 31
0.0
  0
LINE
  5
D2
330
1F
100
AcDbEntity
  8
0-0
  6
JWW_DASHED1
 62
   120
370
     5
100
AcDbLine
 10
-1459.644673198309
 20
-344.1783715170396
 30
0.0
 11
-888.1553735670673
 21
-915.6676711482808
 31
0.0
  0
LINE
  5
D3
330
1F
100
AcDbEntity
  8
0-0
  6
JWW_DASHED1
 62
   120
370
     5
100
AcDbLine
 10
-1459.6446731983
 20
-334.2788765818318
 30
0.0
 11
-878.2558786318441
 21
-915.6676711482876
 31
0.0
  0
LINE
  5
D4
330
1F
100
AcDbEntity
  8
0-0
  6
JWW_DASHED1
 62
   120
370
     5
100
AcDbLine
 10
-1459.644673198302
 20
-324.3793816466129
 30
0.0
 11
-869.6446731983173
 21
-914.3793816465985
 31
0.0
  0
LINE
  5
D5
330
1F
100
AcDbEntity
  8
0-0
  6
JWW_DASHED1
 62
   120
370
     5
100
AcDbLine
 10
-1459.644673198311
 20
-314.4798867114426
 30
0.0
 11
-869.6446731983036
 21
-904.4798867114496
 31
0.0
  0
LINE
  5
D6
330
1F
100
AcDbEntity
  8
0-0
  6
JWW_DASHED1
 62
   120
370
     5
100
AcDbLine
 10
-1459.644673198302
 20
-304.5803917762348
 30
0.0
 11
-869.6446731983121
 21
-894.5803917762255
 31
0.0
  0
LINE
  5
D7
330
1F
100
AcDbEntity
  8
0-0
  6
JWW_DASHED1
 62
   120
370
     5
100
AcDbLine
 10
-1459.644673198294
 20
-294.6808968410265
 30
0.0
 11
-869.6446731983036
 21
-884.6808968410173
 31
0.0
  0
LINE
  5
D8
330
1F
100
AcDbEntity
  8
0-0
  6
JWW_DASHED1
 62
   120
370
     5
100
AcDbLine
 10
-1459.644673198314
 20
-284.7814019058455
 30
0.0
 11
-869.644673198307
 21
-874.7814019058525
 31
0.0
  0
LINE
  5
D9
330
1F
100
AcDbEntity
  8
0-0
  6
JWW_DASHED1
 62
   120
370
     5
100
AcDbLine
 10
-1459.644673198305
 20
-274.8819069706377
 30
0.0
 11
-869.6446731983139
 21
-864.8819069706285
 31
0.0
  0
LINE
  5
DA
330
1F
100
AcDbEntity
  8
0-0
  6
JWW_DASHED1
 62
   120
370
     5
100
AcDbLine
 10
-1459.644673198297
 20
-264.9824120354294
 30
0.0
 11
-869.644673198307
 21
-854.9824120354202
 31
0.0
  0
LINE
  5
DB
330
1F
100
AcDbEntity
  8
0-0
  6
JWW_DASHED1
 62
   120
370
     5
100
AcDbLine
 10
-1459.644673198301
 20
-255.0829171002643
 30
0.0
 11
-869.6446731983087
 21
-845.0829171002555
 31
0.0
  0
LINE
  5
DC
330
1F
100
AcDbEntity
  8
0-0
  6
JWW_DASHED1
 62
   120
370
     5
100
AcDbLine
 10
-1459.644673198308
 20
-245.1834221650407
 30
0.0
 11
-869.6446731983002
 21
-835.1834221650477
 31
0.0
  0
LINE
  5
DD
330
1F
100
AcDbEntity
  8
0-0
  6
JWW_DASHED1
 62
   120
370
     5
100
AcDbLine
 10
-1459.644673198299
 20
-235.2839272298333
 30
0.0
 11
-869.6446731983087
 21
-825.2839272298228
 31
0.0
  0
LINE
  5
DE
330
1F
100
AcDbEntity
  8
0-0
  6
JWW_DASHED1
 62
   120
370
     5
100
AcDbLine
 10
-1459.644673198297
 20
-225.3844322946732
 30
0.0
 11
-869.6446731983104
 21
-815.3844322946593
 31
0.0
  0
LINE
  5
DF
330
1F
100
AcDbEntity
  8
0-0
  6
JWW_DASHED1
 62
   120
370
     5
100
AcDbLine
 10
-1459.64467319831
 20
-215.4849373594436
 30
0.0
 11
-869.6446731983036
 21
-805.4849373594506
 31
0.0
  0
LINE
  5
E0
330
1F
100
AcDbEntity
  8
0-0
  6
JWW_DASHED1
 62
   120
370
     5
100
AcDbLine
 10
-1459.644673198302
 20
-205.5854424242362
 30
0.0
 11
-869.6446731983104
 21
-795.5854424242266
 31
0.0
  0
LINE
  5
E1
330
1F
100
AcDbEntity
  8
0-0
  6
JWW_DASHED1
 62
   120
370
     5
100
AcDbLine
 10
-1459.644673198299
 20
-195.6859474890766
 30
0.0
 11
-869.6446731983139
 21
-785.6859474890622
 31
0.0
  0
LINE
  5
E2
330
1F
100
AcDbEntity
  8
0-0
  6
JWW_DASHED1
 62
   120
370
     5
100
AcDbLine
 10
-1459.644673198313
 20
-185.7864525538466
 30
0.0
 11
-869.6446731983053
 21
-775.7864525538536
 31
0.0
  0
LINE
  5
E3
330
1F
100
AcDbEntity
  8
0-0
  6
JWW_DASHED1
 62
   120
370
     5
100
AcDbLine
 10
-1459.644673198304
 20
-175.8869576186392
 30
0.0
 11
-869.6446731983139
 21
-765.8869576186295
 31
0.0
  0
LINE
  5
E4
330
1F
100
AcDbEntity
  8
0-0
  6
JWW_DASHED1
 62
   120
370
     5
100
AcDbLine
 10
-1459.644673198302
 20
-165.9874626834795
 30
0.0
 11
-869.6446731983156
 21
-755.9874626834652
 31
0.0
  0
LINE
  5
E5
330
1F
100
AcDbEntity
  8
0-0
  6
JWW_DASHED1
 62
   120
370
     5
100
AcDbLine
 10
-1459.644673198299
 20
-156.0879677482653
 30
0.0
 11
-869.6446731983087
 21
-746.0879677482565
 31
0.0
  0
LINE
  5
E6
330
1F
100
AcDbEntity
  8
0-0
  6
JWW_DASHED1
 62
   120
370
     5
100
AcDbLine
 10
-1459.644673198302
 20
-146.1884728131005
 30
0.0
 11
-869.6446731983121
 21
-736.1884728130908
 31
0.0
  0
LINE
  5
E7
330
1F
100
AcDbEntity
  8
0-0
  6
JWW_DASHED1
 62
   120
370
     5
100
AcDbLine
 10
-1459.644673198294
 20
-136.2889778778927
 30
0.0
 11
-869.6446731983036
 21
-726.2889778778834
 31
0.0
  0
LINE
  5
E8
330
1F
100
AcDbEntity
  8
0-0
  6
JWW_DASHED1
 62
   120
370
     5
100
AcDbLine
 10
-1459.644673198295
 20
-126.3894829426755
 30
0.0
 11
-869.6446731983087
 21
-716.3894829426612
 31
0.0
  0
LINE
  5
E9
330
1F
100
AcDbEntity
  8
0-0
  6
JWW_DASHED1
 62
   120
370
     5
100
AcDbLine
 10
-1459.644673198305
 20
-116.4899880075035
 30
0.0
 11
-869.6446731983139
 21
-706.4899880074947
 31
0.0
  0
LINE
  5
EA
330
1F
100
AcDbEntity
  8
0-0
  6
JWW_DASHED1
 62
   120
370
     5
100
AcDbLine
 10
-1459.644673198296
 20
-106.5904930722957
 30
0.0
 11
-869.6446731983053
 21
-696.5904930722864
 31
0.0
  0
LINE
  5
EB
330
1F
100
AcDbEntity
  8
0-0
  6
JWW_DASHED1
 62
   120
370
     5
100
AcDbLine
 10
-1459.644673198297
 20
-96.69099813707845
 30
0.0
 11
-869.6446731983121
 21
-686.6909981370641
 31
0.0
  0
LINE
  5
EC
330
1F
100
AcDbEntity
  8
0-0
  6
JWW_DASHED1
 62
   120
370
     5
100
AcDbLine
 10
-1459.644673198308
 20
-86.79150320190644
 30
0.0
 11
-869.644673198301
 21
-676.791503201913
 31
0.0
  0
LINE
  5
ED
330
1F
100
AcDbEntity
  8
0-0
  6
JWW_DASHED1
 62
   120
370
     5
100
AcDbLine
 10
-1459.644673198299
 20
-76.89200826669861
 30
0.0
 11
-869.6446731983078
 21
-666.8920082666898
 31
0.0
  0
LINE
  5
EE
330
1F
100
AcDbEntity
  8
0-0
  6
JWW_DASHED1
 62
   120
370
     5
100
AcDbLine
 10
-1459.644673198299
 20
-66.99251333148183
 30
0.0
 11
-869.6446731983139
 21
-656.9925133314675
 31
0.0
  0
LINE
  5
EF
330
1F
100
AcDbEntity
  8
0-0
  6
JWW_DASHED1
 62
   120
370
     5
100
AcDbLine
 10
-1459.644673198309
 20
-57.09301839630982
 30
0.0
 11
-869.6446731983036
 21
-647.093018396316
 31
0.0
  0
LINE
  5
F0
330
1F
100
AcDbEntity
  8
0-0
  6
JWW_DASHED1
 62
   120
370
     5
100
AcDbLine
 10
-1459.644673198302
 20
-47.19352346110156
 30
0.0
 11
-869.6446731983112
 21
-637.1935234610924
 31
0.0
  0
LINE
  5
F1
330
1F
100
AcDbEntity
  8
0-0
  6
JWW_DASHED1
 62
   120
370
     5
100
AcDbLine
 10
-1459.644673198302
 20
-37.29402852588564
 30
0.0
 11
-869.6446731983165
 21
-627.2940285258704
 31
0.0
  0
LINE
  5
F2
330
1F
100
AcDbEntity
  8
0-0
  6
JWW_DASHED1
 62
   120
370
     5
100
AcDbLine
 10
-1459.644673198313
 20
-27.39453359071234
 30
0.0
 11
-869.6446731983062
 21
-617.3945335907189
 31
0.0
  0
LINE
  5
F3
330
1F
100
AcDbEntity
  8
0-0
  6
JWW_DASHED1
 62
   120
370
     5
100
AcDbLine
 10
-1459.644673198304
 20
-17.49503865550452
 30
0.0
 11
-869.6446731983139
 21
-607.4950386554949
 31
0.0
  0
LINE
  5
F4
330
1F
100
AcDbEntity
  8
0-0
  6
JWW_DASHED1
 62
   120
370
     5
100
AcDbLine
 10
-1459.644673198296
 20
-7.595543720296689
 30
0.0
 11
-869.6446731983053
 21
-597.5955437202874
 31
0.0
  0
LINE
  5
F5
330
1F
100
AcDbEntity
  8
0-0
  6
JWW_DASHED1
 62
   120
370
     5
100
AcDbLine
 10
-1459.6446731983
 20
2.303951214868931
 30
0.0
 11
-869.6446731983087
 21
-587.6960487851218
 31
0.0
  0
LINE
  5
F6
330
1F
100
AcDbEntity
  8
0-0
  6
JWW_DASHED1
 62
   120
370
     5
100
AcDbLine
 10
-1459.644673198307
 20
12.20344615009253
 30
0.0
 11
-869.6446731983156
 21
-577.7965538498986
 31
0.0
  0
LINE
  5
F7
330
1F
100
AcDbEntity
  8
0-0
  6
JWW_DASHED1
 62
   120
370
     5
100
AcDbLine
 10
-1459.644673198298
 20
22.10294108530036
 30
0.0
 11
-869.644673198307
 21
-567.8970589146904
 31
0.0
  0
LINE
  5
F8
330
1F
100
AcDbEntity
  8
0-0
  6
JWW_DASHED1
 62
   120
370
     5
100
AcDbLine
 10
-1459.644673198302
 20
32.00243602046555
 30
0.0
 11
-869.6446731983112
 21
-557.9975639795248
 31
0.0
  0
LINE
  5
F9
330
1F
100
AcDbEntity
  8
0-0
  6
JWW_DASHED1
 62
   120
370
     5
100
AcDbLine
 10
-1459.644673198309
 20
41.90193095568958
 30
0.0
 11
-869.6446731983019
 21
-548.0980690443174
 31
0.0
  0
LINE
  5
FA
330
1F
100
AcDbEntity
  8
0-0
  6
JWW_DASHED1
 62
   120
370
     5
100
AcDbLine
 10
-1459.644673198301
 20
51.80142589089741
 30
0.0
 11
-869.6446731983104
 21
-538.1985741090933
 31
0.0
  0
LINE
  5
FB
330
1F
100
AcDbEntity
  8
0-0
  6
JWW_DASHED1
 62
   120
370
     5
100
AcDbLine
 10
-1459.644673198296
 20
61.70092082605407
 30
0.0
 11
-869.6446731983104
 21
-528.2990791739315
 31
0.0
  0
LINE
  5
FC
330
1F
100
AcDbEntity
  8
0-0
  6
JWW_DASHED1
 62
   120
370
     5
100
AcDbLine
 10
-1459.644673198312
 20
71.60041576128663
 30
0.0
 11
-869.6446731983053
 21
-518.3995842387203
 31
0.0
  0
LINE
  5
FD
330
1F
100
AcDbEntity
  8
0-0
  6
JWW_DASHED1
 62
   120
370
     5
100
AcDbLine
 10
-1459.644673198303
 20
81.49991069649445
 30
0.0
 11
-869.6446731983121
 21
-508.5000893034963
 31
0.0
  0
LINE
  5
FE
330
1F
100
AcDbEntity
  8
0-0
  6
JWW_DASHED1
 62
   120
370
     5
100
AcDbLine
 10
-1459.644673198297
 20
91.3994056316507
 30
0.0
 11
-869.6446731983121
 21
-498.600594368335
 31
0.0
  0
LINE
  5
FF
330
1F
100
AcDbEntity
  8
0-0
  6
JWW_DASHED1
 62
   120
370
     5
100
AcDbLine
 10
-1459.644673198314
 20
101.2989005668837
 30
0.0
 11
-869.6446731983078
 21
-488.7010994331233
 31
0.0
  0
LINE
  5
100
330
1F
100
AcDbEntity
  8
0-0
  6
JWW_DASHED1
 62
   120
370
     5
100
AcDbLine
 10
-1459.644673198306
 20
111.1983955020915
 30
0.0
 11
-869.6446731983146
 21
-478.8016044978997
 31
0.0
  0
LINE
  5
101
330
1F
100
AcDbEntity
  8
0-0
  6
JWW_DASHED1
 62
   120
370
     5
100
AcDbLine
 10
-1459.644673198301
 20
121.0978904372477
 30
0.0
 11
-869.6446731983146
 21
-468.9021095627379
 31
0.0
  0
LINE
  5
102
330
1F
100
AcDbEntity
  8
0-0
  6
JWW_DASHED1
 62
   120
370
     5
100
AcDbLine
 10
-1459.644673198301
 20
130.9973853724649
 30
0.0
 11
-869.6446731983104
 21
-459.0026146275262
 31
0.0
  0
LINE
  5
103
330
1F
100
AcDbEntity
  8
0-0
  6
JWW_DASHED1
 62
   120
370
     5
100
AcDbLine
 10
-1459.644673198309
 20
140.8968803076885
 30
0.0
 11
-869.6446731983019
 21
-449.1031196923184
 31
0.0
  0
LINE
  5
104
330
1F
100
AcDbEntity
  8
0-0
  6
JWW_DASHED1
 62
   120
370
     5
100
AcDbLine
 10
-1459.644673198296
 20
150.7963752428375
 30
0.0
 11
-869.6446731983053
 21
-439.2036247571528
 31
0.0
  0
LINE
  5
105
330
1F
100
AcDbEntity
  8
0-0
  6
JWW_DASHED1
 62
   120
370
     5
100
AcDbLine
 10
-1459.644673198294
 20
160.6958701780526
 30
0.0
 11
-869.6446731983078
 21
-429.3041298219339
 31
0.0
  0
LINE
  5
106
330
1F
100
AcDbEntity
  8
0-0
  6
JWW_DASHED1
 62
   120
370
     5
100
AcDbLine
 10
-1459.644673198307
 20
170.5953651132268
 30
0.0
 11
-869.6446731983156
 21
-419.4046348867644
 31
0.0
  0
LINE
  5
107
330
1F
100
AcDbEntity
  8
0-0
  6
JWW_DASHED1
 62
   120
370
     5
100
AcDbLine
 10
-1459.644673198298
 20
180.4948600484346
 30
0.0
 11
-869.6446731983078
 21
-409.5051399515557
 31
0.0
  0
LINE
  5
108
330
1F
100
AcDbEntity
  8
0-0
  6
JWW_DASHED1
 62
   120
370
     5
100
AcDbLine
 10
-1459.644673198297
 20
190.3943549836497
 30
0.0
 11
-869.6446731983104
 21
-399.6056450163368
 31
0.0
  0
LINE
  5
109
330
1F
100
AcDbEntity
  8
0-0
  6
JWW_DASHED1
 62
   120
370
     5
100
AcDbLine
 10
-1459.644673198309
 20
200.2938499188238
 30
0.0
 11
-869.6446731983028
 21
-389.7061500811827
 31
0.0
  0
LINE
  5
10A
330
1F
100
AcDbEntity
  8
0-0
  6
JWW_DASHED1
 62
   120
370
     5
100
AcDbLine
 10
-1459.644673198301
 20
210.1933448540316
 30
0.0
 11
-869.6446731983096
 21
-379.8066551459596
 31
0.0
  0
LINE
  5
10B
330
1F
100
AcDbEntity
  8
0-0
  6
JWW_DASHED1
 62
   120
370
     5
100
AcDbLine
 10
-1459.644673198299
 20
220.0928397892459
 30
0.0
 11
-869.6446731983131
 21
-369.9071602107398
 31
0.0
  0
LINE
  5
10C
330
1F
100
AcDbEntity
  8
0-0
  6
JWW_DASHED1
 62
   120
370
     5
100
AcDbLine
 10
-1459.644673198311
 20
229.9923347244204
 30
0.0
 11
-869.6446731983053
 21
-360.0076652755857
 31
0.0
  0
LINE
  5
10D
330
1F
100
AcDbEntity
  8
0-0
  6
JWW_DASHED1
 62
   120
370
     5
100
AcDbLine
 10
-1459.644673198303
 20
239.8918296596287
 30
0.0
 11
-869.6446731983121
 21
-350.1081703403625
 31
0.0
  0
LINE
  5
10E
330
1F
100
AcDbEntity
  8
0-0
  6
JWW_DASHED1
 62
   120
370
     5
100
AcDbLine
 10
-1459.644673198295
 20
249.7913245948365
 30
0.0
 11
-869.6446731983036
 21
-340.2086754051547
 31
0.0
  0
LINE
  5
10F
330
1F
100
AcDbEntity
  8
0-0
  6
JWW_DASHED1
 62
   120
370
     5
100
AcDbLine
 10
-1459.644673198314
 20
259.6908195300175
 30
0.0
 11
-869.644673198307
 21
-330.3091804699895
 31
0.0
  0
LINE
  5
110
330
1F
100
AcDbEntity
  8
0-0
  6
JWW_DASHED1
 62
   120
370
     5
100
AcDbLine
 10
-1459.644673198306
 20
269.5903144652253
 30
0.0
 11
-869.6446731983146
 21
-320.4096855347655
 31
0.0
  0
LINE
  5
111
330
1F
100
AcDbEntity
  8
0-0
  6
JWW_DASHED1
 62
   120
370
     5
100
AcDbLine
 10
-1459.644673198297
 20
279.4898094004336
 30
0.0
 11
-869.644673198307
 21
-310.5101905995572
 31
0.0
  0
LINE
  5
112
330
1F
100
AcDbEntity
  8
0-0
  6
JWW_DASHED1
 62
   120
370
     5
100
AcDbLine
 10
-1459.644673198301
 20
289.3893043355988
 30
0.0
 11
-869.6446731983104
 21
-300.6106956643924
 31
0.0
  0
LINE
  5
113
330
1F
100
AcDbEntity
  8
0-0
  6
JWW_DASHED1
 62
   120
370
     5
100
AcDbLine
 10
-1459.644673198309
 20
299.2887992708228
 30
0.0
 11
-869.6446731983173
 21
-290.7112007291684
 31
0.0
  0
LINE
  5
114
330
1F
100
AcDbEntity
  8
0-0
  6
JWW_DASHED1
 62
   120
370
     5
100
AcDbLine
 10
-1459.6446731983
 20
309.1882942060306
 30
0.0
 11
-869.6446731983096
 21
-280.8117057939597
 31
0.0
  0
LINE
  5
115
330
1F
100
AcDbEntity
  8
0-0
  6
JWW_DASHED1
 62
   120
370
     5
100
AcDbLine
 10
-1459.644673198293
 20
319.0877891411856
 30
0.0
 11
-869.644673198307
 21
-270.9122108588005
 31
0.0
  0
LINE
  5
116
330
1F
100
AcDbEntity
  8
0-0
  6
JWW_DASHED1
 62
   120
370
     5
100
AcDbLine
 10
-1459.644673198311
 20
328.9872840764198
 30
0.0
 11
-869.6446731983044
 21
-261.0127159235867
 31
0.0
  0
LINE
  5
117
330
1F
100
AcDbEntity
  8
0-0
  6
JWW_DASHED1
 62
   120
370
     5
100
AcDbLine
 10
-1459.644673198302
 20
338.8867790116277
 30
0.0
 11
-869.6446731983112
 21
-251.1132209883635
 31
0.0
  0
LINE
  5
118
330
1F
100
AcDbEntity
  8
0-0
  6
JWW_DASHED1
 62
   120
370
     5
100
AcDbLine
 10
-1459.644673198296
 20
348.7862739467822
 30
0.0
 11
-869.6446731983096
 21
-241.2137260532035
 31
0.0
  0
LINE
  5
119
330
1F
100
AcDbEntity
  8
0-0
  6
JWW_DASHED1
 62
   120
370
     5
100
AcDbLine
 10
-1459.644673198314
 20
358.6857688820169
 30
0.0
 11
-869.644673198307
 21
-231.3142311179897
 31
0.0
  0
LINE
  5
11A
330
1F
100
AcDbEntity
  8
0-0
  6
JWW_DASHED1
 62
   120
370
     5
100
AcDbLine
 10
-1459.644673198305
 20
368.5852638172247
 30
0.0
 11
-869.6446731983139
 21
-221.4147361827665
 31
0.0
  0
LINE
  5
11B
330
1F
100
AcDbEntity
  8
0-0
  6
JWW_DASHED1
 62
   120
370
     5
100
AcDbLine
 10
-1459.644673198297
 20
378.4847587523784
 30
0.0
 11
-869.6446731983121
 21
-211.5152412476073
 31
0.0
  0
LINE
  5
11C
330
1F
100
AcDbEntity
  8
0-0
  6
JWW_DASHED1
 62
   120
370
     5
100
AcDbLine
 10
-1459.644673198316
 20
388.3842536876135
 30
0.0
 11
-869.6446731983096
 21
-201.6157463123926
 31
0.0
  0
LINE
  5
11D
330
1F
100
AcDbEntity
  8
0-0
  6
JWW_DASHED1
 62
   120
370
     5
100
AcDbLine
 10
-1459.644673198308
 20
398.2837486228217
 30
0.0
 11
-869.6446731983165
 21
-191.7162513771694
 31
0.0
  0
LINE
  5
11E
330
1F
100
AcDbEntity
  8
0-0
  6
JWW_DASHED1
 62
   120
370
     5
100
AcDbLine
 10
-1459.6446731983
 20
408.1832435579754
 30
0.0
 11
-869.6446731983139
 21
-181.8167564420106
 31
0.0
  0
LINE
  5
11F
330
1F
100
AcDbEntity
  8
0-0
  6
JWW_DASHED1
 62
   120
370
     5
100
AcDbLine
 10
-1459.644673198302
 20
418.0827384931944
 30
0.0
 11
-869.6446731983112
 21
-171.9172615067964
 31
0.0
  0
LINE
  5
120
330
1F
100
AcDbEntity
  8
0-0
  6
JWW_DASHED1
 62
   120
370
     5
100
AcDbLine
 10
-1459.64467319831
 20
427.9822334284188
 30
0.0
 11
-869.6446731983036
 21
-162.0177665715882
 31
0.0
  0
LINE
  5
121
330
1F
100
AcDbEntity
  8
0-0
  6
JWW_DASHED1
 62
   120
370
     5
100
AcDbLine
 10
-1459.644673198297
 20
437.8817283635678
 30
0.0
 11
-869.644673198307
 21
-152.1182716364234
 31
0.0
  0
LINE
  5
122
330
1F
100
AcDbEntity
  8
0-0
  6
JWW_DASHED1
 62
   120
370
     5
100
AcDbLine
 10
-1459.644673198294
 20
447.7812232987803
 30
0.0
 11
-869.644673198307
 21
-142.2187767012058
 31
0.0
  0
LINE
  5
123
330
1F
100
AcDbEntity
  8
0-0
  6
JWW_DASHED1
 62
   120
370
     5
100
AcDbLine
 10
-1459.64467319831
 20
457.6807182339855
 30
0.0
 11
-869.644673198319
 21
-132.3192817660048
 31
0.0
  0
LINE
  5
124
330
1F
100
AcDbEntity
  8
0-0
  6
JWW_DASHED1
 62
   120
370
     5
100
AcDbLine
 10
-1459.644673198301
 20
467.5802131691648
 30
0.0
 11
-869.6446731983087
 21
-122.4197868308264
 31
0.0
  0
LINE
  5
125
330
1F
100
AcDbEntity
  8
0-0
  6
JWW_DASHED1
 62
   120
370
     5
100
AcDbLine
 10
-1459.644673198296
 20
477.4797081043773
 30
0.0
 11
-869.6446731983104
 21
-112.5202918956087
 31
0.0
  0
LINE
  5
126
330
1F
100
AcDbEntity
  8
0-0
  6
JWW_DASHED1
 62
   120
370
     5
100
AcDbLine
 10
-1459.644673198311
 20
487.3792030395537
 30
0.0
 11
-869.6446731983036
 21
-102.6207969604529
 31
0.0
  0
LINE
  5
127
330
1F
100
AcDbEntity
  8
0-0
  6
JWW_DASHED1
 62
   120
370
     5
100
AcDbLine
 10
-1459.644673198302
 20
497.2786979747619
 30
0.0
 11
-869.6446731983121
 21
-92.7213020252293
 31
0.0
  0
LINE
  5
128
330
1F
100
AcDbEntity
  8
0-0
  6
JWW_DASHED1
 62
   120
370
     5
100
AcDbLine
 10
-1459.644673198297
 20
507.1781929099731
 30
0.0
 11
-869.6446731983121
 21
-82.82180709001167
 31
0.0
  0
LINE
  5
129
330
1F
100
AcDbEntity
  8
0-0
  6
JWW_DASHED1
 62
   120
370
     5
100
AcDbLine
 10
-1459.644673198313
 20
517.0776878451502
 30
0.0
 11
-869.644673198307
 21
-72.92231215485586
 31
0.0
  0
LINE
  5
12A
330
1F
100
AcDbEntity
  8
0-0
  6
JWW_DASHED1
 62
   120
370
     5
100
AcDbLine
 10
-1459.644673198306
 20
526.9771827803589
 30
0.0
 11
-869.6446731983139
 21
-63.02281721963183
 31
0.0
  0
LINE
  5
12B
330
1F
100
AcDbEntity
  8
0-0
  6
JWW_DASHED1
 62
   120
370
     5
100
AcDbLine
 10
-1459.644673198296
 20
536.8766777155668
 30
0.0
 11
-869.6446731983053
 21
-53.12332228442443
 31
0.0
  0
LINE
  5
12C
330
1F
100
AcDbEntity
  8
0-0
  6
JWW_DASHED1
 62
   120
370
     5
100
AcDbLine
 10
-1459.644673198315
 20
546.7761726507473
 30
0.0
 11
-869.6446731983087
 21
-43.22382734925881
 31
0.0
  0
LINE
  5
12D
330
1F
100
AcDbEntity
  8
0-0
  6
JWW_DASHED1
 62
   120
370
     5
100
AcDbLine
 10
-1459.644673198308
 20
556.6756675859556
 30
0.0
 11
-869.6446731983173
 21
-33.32433241403479
 31
0.0
  0
LINE
  5
12E
330
1F
100
AcDbEntity
  8
0-0
  6
JWW_DASHED1
 62
   120
370
     5
100
AcDbLine
 10
-1459.644673198299
 20
566.5751625211634
 30
0.0
 11
-869.6446731983078
 21
-23.42483747882738
 31
0.0
  0
LINE
  5
12F
330
1F
100
AcDbEntity
  8
0-0
  6
JWW_DASHED1
 62
   120
370
     5
100
AcDbLine
 10
-1459.644673198302
 20
576.4746574563286
 30
0.0
 11
-869.6446731983104
 21
-13.52534254366262
 31
0.0
  0
LINE
  5
130
330
1F
100
AcDbEntity
  8
0-0
  6
JWW_DASHED1
 62
   120
370
     5
100
AcDbLine
 10
-1459.64467319831
 20
586.3741523915526
 30
0.0
 11
-869.6446731983036
 21
-3.625847608453512
 31
0.0
  0
LINE
  5
131
330
1F
100
AcDbEntity
  8
0-0
  6
JWW_DASHED1
 62
   120
370
     5
100
AcDbLine
 10
-1459.644673198301
 20
596.2736473267604
 30
0.0
 11
-869.6446731983104
 21
6.273647326769662
 31
0.0
  0
LINE
  5
132
330
1F
100
AcDbEntity
  8
0-0
  6
JWW_DASHED1
 62
   120
370
     5
100
AcDbLine
 10
-1459.644673198292
 20
606.1731422619129
 30
0.0
 11
-869.644673198307
 21
16.17314226192718
 31
0.0
  0
LINE
  5
133
330
1F
100
AcDbEntity
  8
0-0
  6
JWW_DASHED1
 62
   120
370
     5
100
AcDbLine
 10
-1459.644673198312
 20
616.0726371971488
 30
0.0
 11
-869.6446731983053
 21
26.07263719714268
 31
0.0
  0
LINE
  5
134
330
1F
100
AcDbEntity
  8
0-0
  6
JWW_DASHED1
 62
   120
370
     5
100
AcDbLine
 10
-1459.644673198304
 20
625.9721321323575
 30
0.0
 11
-869.6446731983139
 21
35.97213213236671
 31
0.0
  0
LINE
  5
135
330
1F
100
AcDbEntity
  8
0-0
  6
JWW_DASHED1
 62
   120
370
     5
100
AcDbLine
 10
-1459.644673198294
 20
635.871627067509
 30
0.0
 11
-869.6446731983087
 21
45.87162706752423
 31
0.0
  0
LINE
  5
136
330
1F
100
AcDbEntity
  8
0-0
  6
JWW_DASHED1
 62
   120
370
     5
100
AcDbLine
 10
-1459.644673198314
 20
645.7711220027459
 30
0.0
 11
-869.6446731983087
 21
55.77112200273973
 31
0.0
  0
LINE
  5
137
330
1F
100
AcDbEntity
  8
0-0
  6
JWW_DASHED1
 62
   120
370
     5
100
AcDbLine
 10
-1459.644673198307
 20
655.6706169379554
 30
0.0
 11
-869.6446731983156
 21
65.67061693796376
 31
0.0
  0
LINE
  5
138
330
1F
100
AcDbEntity
  8
0-0
  6
JWW_DASHED1
 62
   120
370
     5
100
AcDbLine
 10
-1459.644673198296
 20
665.570111873106
 30
0.0
 11
-869.6446731983104
 21
75.57011187312042
 31
0.0
  0
LINE
  5
139
330
1F
100
AcDbEntity
  8
0-0
  6
JWW_DASHED1
 62
   120
370
     5
100
AcDbLine
 10
-1459.644673198317
 20
675.4696068083429
 30
0.0
 11
-869.6446731983104
 21
85.46960680833678
 31
0.0
  0
LINE
  5
13A
330
1F
100
AcDbEntity
  8
0-0
  6
JWW_DASHED1
 62
   120
370
     5
100
AcDbLine
 10
-1459.644673198309
 20
685.3691017435524
 30
0.0
 11
-869.644673198319
 21
95.3691017435608
 31
0.0
  0
LINE
  5
13B
330
1F
100
AcDbEntity
  8
0-0
  6
JWW_DASHED1
 62
   120
370
     5
100
AcDbLine
 10
-1459.644673198299
 20
695.2685966787031
 30
0.0
 11
-869.6446731983131
 21
105.2685966787175
 31
0.0
  0
LINE
  5
13C
330
1F
100
AcDbEntity
  8
0-0
  6
JWW_DASHED1
 62
   120
370
     5
100
AcDbLine
 10
-1459.644673198304
 20
705.1680916139246
 30
0.0
 11
-869.6446731983139
 21
115.1680916139343
 31
0.0
  0
LINE
  5
13D
330
1F
100
AcDbEntity
  8
0-0
  6
JWW_DASHED1
 62
   120
370
     5
100
AcDbLine
 10
-1459.644673198312
 20
715.0675865491486
 30
0.0
 11
-869.6446731983053
 21
125.0675865491425
 31
0.0
  0
LINE
  5
13E
330
1F
100
AcDbEntity
  8
0-0
  6
JWW_DASHED1
 62
   120
370
     5
100
AcDbLine
 10
-1459.644673198299
 20
724.9670814842984
 30
0.0
 11
-869.6446731983087
 21
134.9670814843073
 31
0.0
  0
LINE
  5
13F
330
1F
100
AcDbEntity
  8
0-0
  6
JWW_DASHED1
 62
   120
370
     5
100
AcDbLine
 10
-1459.644673198292
 20
734.866576419508
 30
0.0
 11
-869.644673198307
 21
144.8665764195219
 31
0.0
  0
LINE
  5
140
330
1F
100
AcDbEntity
  8
0-0
  6
JWW_DASHED1
 62
   120
370
     5
100
AcDbLine
 10
-1459.644673198314
 20
744.7660713547448
 30
0.0
 11
-869.6446731983078
 21
154.7660713547396
 31
0.0
  0
LINE
  5
141
330
1F
100
AcDbEntity
  8
0-0
  6
JWW_DASHED1
 62
   120
370
     5
100
AcDbLine
 10
-1459.644673198302
 20
754.6655662898946
 30
0.0
 11
-869.6446731983104
 21
164.6655662899043
 31
0.0
  0
LINE
  5
142
330
1F
100
AcDbEntity
  8
0-0
  6
JWW_DASHED1
 62
   120
370
     5
100
AcDbLine
 10
-1459.644673198295
 20
764.5650612251051
 30
0.0
 11
-869.6446731983096
 21
174.565061225119
 31
0.0
  0
LINE
  5
143
330
1F
100
AcDbEntity
  8
0-0
  6
JWW_DASHED1
 62
   120
370
     5
100
AcDbLine
 10
-1459.644673198312
 20
774.464556160283
 30
0.0
 11
-869.6446731983053
 21
184.4645561602765
 31
0.0
  0
LINE
  5
144
330
1F
100
AcDbEntity
  8
0-0
  6
JWW_DASHED1
 62
   120
370
     5
100
AcDbLine
 10
-1459.644673198304
 20
784.3640510954917
 30
0.0
 11
-869.6446731983139
 21
194.3640510955014
 31
0.0
  0
LINE
  5
145
330
1F
100
AcDbEntity
  8
0-0
  6
JWW_DASHED1
 62
   120
370
     5
100
AcDbLine
 10
-1459.644673198297
 20
794.2635460307013
 30
0.0
 11
-869.6446731983121
 21
204.263546030716
 31
0.0
  0
LINE
  5
146
330
1F
100
AcDbEntity
  8
0-0
  6
JWW_DASHED1
 62
   120
370
     5
100
AcDbLine
 10
-1459.644673198314
 20
804.1630409658801
 30
0.0
 11
-869.6446731983078
 21
214.1630409658735
 31
0.0
  0
LINE
  5
147
330
1F
100
AcDbEntity
  8
0-0
  6
JWW_DASHED1
 62
   120
370
     5
100
AcDbLine
 10
-1459.644673198307
 20
814.0625359010887
 30
0.0
 11
-869.6446731983156
 21
224.0625359010984
 31
0.0
  0
LINE
  5
148
330
1F
100
AcDbEntity
  8
0-0
  6
JWW_DASHED1
 62
   120
370
     5
100
AcDbLine
 10
-1459.644673198298
 20
823.9620308362975
 30
0.0
 11
-869.644673198307
 21
233.9620308363058
 31
0.0
  0
LINE
  5
149
330
1F
100
AcDbEntity
  8
0-0
  6
JWW_DASHED1
 62
   120
370
     5
100
AcDbLine
 10
-1459.644673198317
 20
833.8615257714771
 30
0.0
 11
-869.6446731983104
 21
243.8615257714714
 31
0.0
  0
LINE
  5
14A
330
1F
100
AcDbEntity
  8
0-0
  6
JWW_DASHED1
 62
   120
370
     5
100
AcDbLine
 10
-1459.644673198309
 20
843.7610207066849
 30
0.0
 11
-869.644673198319
 21
253.7610207066955
 31
0.0
  0
LINE
  5
14B
330
1F
100
AcDbEntity
  8
0-0
  6
JWW_DASHED1
 62
   120
370
     5
100
AcDbLine
 10
-1459.644673198301
 20
853.6605156418944
 30
0.0
 11
-869.6446731983104
 21
263.6605156419029
 31
0.0
  0
LINE
  5
14C
330
1F
100
AcDbEntity
  8
0-0
  6
JWW_DASHED1
 62
   120
370
     5
100
AcDbLine
 10
-1459.644673198304
 20
863.5600105770588
 30
0.0
 11
-869.6446731983131
 21
273.5600105770676
 31
0.0
  0
LINE
  5
14D
330
1F
100
AcDbEntity
  8
0-0
  6
JWW_DASHED1
 62
   120
370
     5
100
AcDbLine
 10
-1459.644673198311
 20
873.459505512282
 30
0.0
 11
-869.6446731983053
 21
283.4595055122767
 31
0.0
  0
LINE
  5
14E
330
1F
100
AcDbEntity
  8
0-0
  6
JWW_DASHED1
 62
   120
370
     5
100
AcDbLine
 10
-1459.644673198303
 20
883.3590004474916
 30
0.0
 11
-869.6446731983121
 21
293.3590004475003
 31
0.0
  0
LINE
  5
14F
330
1F
100
AcDbEntity
  8
0-0
  6
JWW_DASHED1
 62
   120
370
     5
100
AcDbLine
 10
-1459.644673198291
 20
893.2584953826405
 30
0.0
 11
-869.6446731983053
 21
303.2584953826553
 31
0.0
  0
LINE
  5
150
330
1F
100
AcDbEntity
  8
0-0
  6
JWW_DASHED1
 62
   120
370
     5
100
AcDbLine
 10
-1459.644673198314
 20
903.157990317879
 30
0.0
 11
-869.644673198307
 21
313.1579903178725
 31
0.0
  0
LINE
  5
151
330
1F
100
AcDbEntity
  8
0-0
  6
JWW_DASHED1
 62
   120
370
     5
100
AcDbLine
 10
-1459.644673198306
 20
913.0574852530877
 30
0.0
 11
-869.6446731983156
 21
323.0574852530974
 31
0.0
  0
LINE
  5
152
330
1F
100
AcDbEntity
  8
0-0
  6
JWW_DASHED1
 62
   120
370
     5
100
AcDbLine
 10
-1459.644673198293
 20
922.9569801882376
 30
0.0
 11
-869.6446731983078
 21
332.9569801882515
 31
0.0
  0
LINE
  5
153
330
1F
100
AcDbEntity
  8
0-0
  6
JWW_DASHED1
 62
   120
370
     5
100
AcDbLine
 10
-1459.644673198316
 20
932.8564751234761
 30
0.0
 11
-869.6446731983096
 21
342.8564751234695
 31
0.0
  0
LINE
  5
154
330
1F
100
AcDbEntity
  8
0-0
  6
JWW_DASHED1
 62
   120
370
     5
100
AcDbLine
 10
-1459.644673198309
 20
942.7559700586847
 30
0.0
 11
-869.6446731983173
 21
352.7559700586944
 31
0.0
  0
LINE
  5
155
330
1F
100
AcDbEntity
  8
0-0
  6
JWW_DASHED1
 62
   120
370
     5
100
AcDbLine
 10
-1459.644673198296
 20
952.6554649938346
 30
0.0
 11
-869.6446731983096
 21
362.6554649938481
 31
0.0
  0
LINE
  5
156
330
1F
100
AcDbEntity
  8
0-0
  6
JWW_DASHED1
 62
   120
370
     5
100
AcDbLine
 10
-1459.644673198303
 20
962.5549599290578
 30
0.0
 11
-869.6446731983121
 21
372.5549599290674
 31
0.0
  0
LINE
  5
157
330
1F
100
AcDbEntity
  8
0-0
  6
JWW_DASHED1
 62
   120
370
     5
100
AcDbLine
 10
-1459.64467319831
 20
972.4544548642809
 30
0.0
 11
-869.6446731983207
 21
382.4544548642915
 31
0.0
  0
LINE
  5
158
330
1F
100
AcDbEntity
  8
0-0
  6
JWW_DASHED1
 62
   120
370
     5
100
AcDbLine
 10
-1459.623052250593
 20
982.3323288517252
 30
0.0
 11
-869.644673198307
 21
392.3539497994404
 31
0.0
  0
LINE
  5
159
330
1F
100
AcDbEntity
  8
0-0
  6
JWW_DASHED1
 62
   120
370
     5
100
AcDbLine
 10
-1449.723557315368
 20
982.3323288517174
 30
0.0
 11
-869.6446731983156
 21
402.2534447346645
 31
0.0
  0
LINE
  5
15A
330
1F
100
AcDbEntity
  8
0-0
  6
JWW_DASHED1
 62
   120
370
     5
100
AcDbLine
 10
-1439.824062380144
 20
982.3323288517106
 30
0.0
 11
-869.644673198307
 21
412.1529396698719
 31
0.0
  0
LINE
  5
15B
330
1F
100
AcDbEntity
  8
0-0
  6
JWW_DASHED1
 62
   120
370
     5
100
AcDbLine
 10
-1429.924567444995
 20
982.3323288517225
 30
0.0
 11
-869.6446731983104
 21
422.0524346050375
 31
0.0
  0
LINE
  5
15C
330
1F
100
AcDbEntity
  8
0-0
  6
JWW_DASHED1
 62
   120
370
     5
100
AcDbLine
 10
-1420.025072509787
 20
982.3323288517303
 30
0.0
 11
-869.6446731983062
 21
431.95192954025
 31
0.0
  0
LINE
  5
15D
330
1F
100
AcDbEntity
  8
0-0
  6
JWW_DASHED1
 62
   120
370
     5
100
AcDbLine
 10
-1410.125577574547
 20
982.3323288517072
 30
0.0
 11
-869.6446731983087
 21
441.8514244754689
 31
0.0
  0
LINE
  5
15E
330
1F
100
AcDbEntity
  8
0-0
  6
JWW_DASHED1
 62
   120
370
     5
100
AcDbLine
 10
-1400.226082639398
 20
982.3323288517191
 30
0.0
 11
-869.6446731983121
 21
451.7509194106345
 31
0.0
  0
LINE
  5
15F
330
1F
100
AcDbEntity
  8
0-0
  6
JWW_DASHED1
 62
   120
370
     5
100
AcDbLine
 10
-1390.326587704189
 20
982.3323288517269
 30
0.0
 11
-869.6446731983087
 21
461.6504143458471
 31
0.0
  0
LINE
  5
160
330
1F
100
AcDbEntity
  8
0-0
  6
JWW_DASHED1
 62
   120
370
     5
100
AcDbLine
 10
-1380.42709276901
 20
982.3323288517098
 30
0.0
 11
-869.644673198307
 21
471.5499092810072
 31
0.0
  0
LINE
  5
161
330
1F
100
AcDbEntity
  8
0-0
  6
JWW_DASHED1
 62
   120
370
     5
100
AcDbLine
 10
-1370.527597833799
 20
982.3323288517157
 30
0.0
 11
-869.6446731983146
 21
481.4494042162307
 31
0.0
  0
LINE
  5
162
330
1F
100
AcDbEntity
  8
0-0
  6
JWW_DASHED1
 62
   120
370
     5
100
AcDbLine
 10
-1360.628102898591
 20
982.3323288517242
 30
0.0
 11
-869.6446731983104
 21
491.3488991514437
 31
0.0
  0
LINE
  5
163
330
1F
100
AcDbEntity
  8
0-0
  6
JWW_DASHED1
 62
   120
370
     5
100
AcDbLine
 10
-1350.728607963413
 20
982.3323288517081
 30
0.0
 11
-869.6446731983096
 21
501.2483940866042
 31
0.0
  0
LINE
  5
164
330
1F
100
AcDbEntity
  8
0-0
  6
JWW_DASHED1
 62
   120
370
     5
100
AcDbLine
 10
-1340.829113028202
 20
982.3323288517132
 30
0.0
 11
-869.6446731983165
 21
511.1478890218274
 31
0.0
  0
LINE
  5
165
330
1F
100
AcDbEntity
  8
0-0
  6
JWW_DASHED1
 62
   120
370
     5
100
AcDbLine
 10
-1330.929618092994
 20
982.3323288517208
 30
0.0
 11
-869.6446731983087
 21
521.0473839570365
 31
0.0
  0
LINE
  5
166
330
1F
100
AcDbEntity
  8
0-0
  6
JWW_DASHED1
 62
   120
370
     5
100
AcDbLine
 10
-1321.030123157816
 20
982.3323288517055
 30
0.0
 11
-869.6446731983121
 21
530.9468788922013
 31
0.0
  0
LINE
  5
167
330
1F
100
AcDbEntity
  8
0-0
  6
JWW_DASHED1
 62
   120
370
     5
100
AcDbLine
 10
-1311.130628222605
 20
982.3323288517106
 30
0.0
 11
-869.6446731983199
 21
540.8463738274253
 31
0.0
  0
LINE
  5
168
330
1F
100
AcDbEntity
  8
0-0
  6
JWW_DASHED1
 62
   120
370
     5
100
AcDbLine
 10
-1301.231133287396
 20
982.3323288517174
 30
0.0
 11
-869.6446731983121
 21
550.7458687626336
 31
0.0
  0
LINE
  5
169
330
1F
100
AcDbEntity
  8
0-0
  6
JWW_DASHED1
 62
   120
370
     5
100
AcDbLine
 10
-1291.331638352231
 20
982.3323288517149
 30
0.0
 11
-869.6446731983146
 21
560.6453636977983
 31
0.0
  0
LINE
  5
16A
330
1F
100
AcDbEntity
  8
0-0
  6
JWW_DASHED1
 62
   120
370
     5
100
AcDbLine
 10
-1281.432143417011
 20
982.3323288517115
 30
0.0
 11
-869.6446731983062
 21
570.5448586330057
 31
0.0
  0
LINE
  5
16B
330
1F
100
AcDbEntity
  8
0-0
  6
JWW_DASHED1
 62
   120
370
     5
100
AcDbLine
 10
-1271.532648481799
 20
982.3323288517149
 30
0.0
 11
-869.6446731983139
 21
580.4443535682306
 31
0.0
  0
LINE
  5
16C
330
1F
100
AcDbEntity
  8
0-0
  6
JWW_DASHED1
 62
   120
370
     5
100
AcDbLine
 10
-1261.633153546649
 20
982.3323288517269
 30
0.0
 11
-869.6446731983044
 21
590.3438485033826
 31
0.0
  0
LINE
  5
16D
330
1F
100
AcDbEntity
  8
0-0
  6
JWW_DASHED1
 62
   120
370
     5
100
AcDbLine
 10
-1251.733658611416
 20
982.3323288517098
 30
0.0
 11
-869.6446731983087
 21
600.2433434386028
 31
0.0
  0
LINE
  5
16E
330
1F
100
AcDbEntity
  8
0-0
  6
JWW_DASHED1
 62
   120
370
     5
100
AcDbLine
 10
-1241.834163676201
 20
982.3323288517123
 30
0.0
 11
-869.6446731983173
 21
610.1428383738277
 31
0.0
  0
LINE
  5
16F
330
1F
100
AcDbEntity
  8
0-0
  6
JWW_DASHED1
 62
   120
370
     5
100
AcDbLine
 10
-1231.934668741051
 20
982.3323288517242
 30
0.0
 11
-869.644673198307
 21
620.0423333089792
 31
0.0
  0
LINE
  5
170
330
1F
100
AcDbEntity
  8
0-0
  6
JWW_DASHED1
 62
   120
370
     5
100
AcDbLine
 10
-1222.035173805819
 20
982.3323288517072
 30
0.0
 11
-869.6446731983112
 21
629.9418282441998
 31
0.0
  0
LINE
  5
171
330
1F
100
AcDbEntity
  8
0-0
  6
JWW_DASHED1
 62
   120
370
     5
100
AcDbLine
 10
-1212.135678870604
 20
982.3323288517089
 30
0.0
 11
-869.6446731983181
 21
639.8413231794234
 31
0.0
  0
LINE
  5
172
330
1F
100
AcDbEntity
  8
0-0
  6
JWW_DASHED1
 62
   120
370
     5
100
AcDbLine
 10
-1202.236183935454
 20
982.3323288517208
 30
0.0
 11
-869.6446731983087
 21
649.7408181145762
 31
0.0
  0
LINE
  5
173
330
1F
100
AcDbEntity
  8
0-0
  6
JWW_DASHED1
 62
   120
370
     5
100
AcDbLine
 10
-1192.33668900023
 20
982.3323288517132
 30
0.0
 11
-869.6446731983139
 21
659.6403130497972
 31
0.0
  0
LINE
  5
174
330
1F
100
AcDbEntity
  8
0-0
  6
JWW_DASHED1
 62
   120
370
     5
100
AcDbLine
 10
-1182.437194065006
 20
982.3323288517055
 30
0.0
 11
-869.6446731983215
 21
669.5398079850208
 31
0.0
  0
LINE
  5
175
330
1F
100
AcDbEntity
  8
0-0
  6
JWW_DASHED1
 62
   120
370
     5
100
AcDbLine
 10
-1172.537699129856
 20
982.3323288517174
 30
0.0
 11
-869.6446731983087
 21
679.4393029201703
 31
0.0
  0
LINE
  5
176
330
1F
100
AcDbEntity
  8
0-0
  6
JWW_DASHED1
 62
   120
370
     5
100
AcDbLine
 10
-1162.638204194649
 20
982.332328851726
 30
0.0
 11
-869.6446731983036
 21
689.3387978553807
 31
0.0
  0
LINE
  5
177
330
1F
100
AcDbEntity
  8
0-0
  6
JWW_DASHED1
 62
   120
370
     5
100
AcDbLine
 10
-1152.738709259417
 20
982.3323288517106
 30
0.0
 11
-869.6446731983078
 21
699.2382927906017
 31
0.0
  0
LINE
  5
178
330
1F
100
AcDbEntity
  8
0-0
  6
JWW_DASHED1
 62
   120
370
     5
100
AcDbLine
 10
-1142.839214324259
 20
982.3323288517149
 30
0.0
 11
-869.6446731983121
 21
709.1377877257678
 31
0.0
  0
LINE
  5
179
330
1F
100
AcDbEntity
  8
0-0
  6
JWW_DASHED1
 62
   120
370
     5
100
AcDbLine
 10
-1132.939719389051
 20
982.3323288517234
 30
0.0
 11
-869.6446731983053
 21
719.0372826609773
 31
0.0
  0
LINE
  5
17A
330
1F
100
AcDbEntity
  8
0-0
  6
JWW_DASHED1
 62
   120
370
     5
100
AcDbLine
 10
-1123.040224453879
 20
982.3323288517132
 30
0.0
 11
-869.6446731983062
 21
728.9367775961404
 31
0.0
  0
LINE
  5
17B
330
1F
100
AcDbEntity
  8
0-0
  6
JWW_DASHED1
 62
   120
370
     5
100
AcDbLine
 10
-1113.140729518661
 20
982.3323288517123
 30
0.0
 11
-869.6446731983139
 21
738.8362725313643
 31
0.0
  0
LINE
  5
17C
330
1F
100
AcDbEntity
  8
0-0
  6
JWW_DASHED1
 62
   120
370
     5
100
AcDbLine
 10
-1103.241234583454
 20
982.33232885172
 30
0.0
 11
-869.644673198307
 21
748.7357674665739
 31
0.0
  0
LINE
  5
17D
330
1F
100
AcDbEntity
  8
0-0
  6
JWW_DASHED1
 62
   120
370
     5
100
AcDbLine
 10
-1093.341739648282
 20
982.3323288517106
 30
0.0
 11
-869.6446731983087
 21
758.6352624017375
 31
0.0
  0
LINE
  5
17E
330
1F
100
AcDbEntity
  8
0-0
  6
JWW_DASHED1
 62
   120
370
     5
100
AcDbLine
 10
-1083.442244713064
 20
982.3323288517089
 30
0.0
 11
-869.6446731983156
 21
768.5347573369606
 31
0.0
  0
LINE
  5
17F
330
1F
100
AcDbEntity
  8
0-0
  6
JWW_DASHED1
 62
   120
370
     5
100
AcDbLine
 10
-1073.542749777856
 20
982.3323288517174
 30
0.0
 11
-869.6446731983096
 21
778.434252272171
 31
0.0
  0
LINE
  5
180
330
1F
100
AcDbEntity
  8
0-0
  6
JWW_DASHED1
 62
   120
370
     5
100
AcDbLine
 10
-1063.643254842685
 20
982.3323288517081
 30
0.0
 11
-869.6446731983112
 21
788.3337472073345
 31
0.0
  0
LINE
  5
181
330
1F
100
AcDbEntity
  8
0-0
  6
JWW_DASHED1
 62
   120
370
     5
100
AcDbLine
 10
-1053.743759907466
 20
982.3323288517055
 30
0.0
 11
-869.644673198319
 21
798.2332421425576
 31
0.0
  0
LINE
  5
182
330
1F
100
AcDbEntity
  8
0-0
  6
JWW_DASHED1
 62
   120
370
     5
100
AcDbLine
 10
-1043.844264972258
 20
982.3323288517132
 30
0.0
 11
-869.6446731983104
 21
808.1327370777659
 31
0.0
  0
LINE
  5
183
330
1F
100
AcDbEntity
  8
0-0
  6
JWW_DASHED1
 62
   120
370
     5
100
AcDbLine
 10
-1033.944770037092
 20
982.3323288517101
 30
0.0
 11
-869.6446731983139
 21
818.0322320129314
 31
0.0
  0
LINE
  5
184
330
1F
100
AcDbEntity
  8
0-0
  6
JWW_DASHED1
 62
   120
370
     5
100
AcDbLine
 10
-1024.045275101869
 20
982.3323288517025
 30
0.0
 11
-869.6446731983207
 21
827.9317269481546
 31
0.0
  0
LINE
  5
185
330
1F
100
AcDbEntity
  8
0-0
  6
JWW_DASHED1
 62
   120
370
     5
100
AcDbLine
 10
-1014.145780166661
 20
982.332328851711
 30
0.0
 11
-869.6446731983131
 21
837.8312218833634
 31
0.0
  0
LINE
  5
186
330
1F
100
AcDbEntity
  8
0-0
  6
JWW_DASHED1
 62
   120
370
     5
100
AcDbLine
 10
-1004.246285231495
 20
982.3323288517076
 30
0.0
 11
-869.6446731983165
 21
847.7307168185285
 31
0.0
  0
LINE
  5
187
330
1F
100
AcDbEntity
  8
0-0
  6
JWW_DASHED1
 62
   120
370
     5
100
AcDbLine
 10
-994.3467902962834
 20
982.332328851712
 30
0.0
 11
-869.6446731983078
 21
857.6302117537364
 31
0.0
  0
LINE
  5
188
330
1F
100
AcDbEntity
  8
0-0
  6
JWW_DASHED1
 62
   120
370
     5
100
AcDbLine
 10
-984.447295361062
 20
982.3323288517072
 30
0.0
 11
-869.6446731983156
 21
867.5297066889605
 31
0.0
  0
LINE
  5
189
330
1F
100
AcDbEntity
  8
0-0
  6
JWW_DASHED1
 62
   120
370
     5
100
AcDbLine
 10
-974.5478004259138
 20
982.33232885172
 30
0.0
 11
-869.6446731983036
 21
877.4292016241099
 31
0.0
  0
LINE
  5
18A
330
1F
100
AcDbEntity
  8
0-0
  6
JWW_DASHED1
 62
   120
370
     5
100
AcDbLine
 10
-964.6483054906872
 20
982.3323288517098
 30
0.0
 11
-869.6446731983104
 21
887.3286965593334
 31
0.0
  0
LINE
  5
18B
330
1F
100
AcDbEntity
  8
0-0
  6
JWW_DASHED1
 62
   120
370
     5
100
AcDbLine
 10
-954.7488105554658
 20
982.3323288517047
 30
0.0
 11
-869.6446731983181
 21
897.2281914945574
 31
0.0
  0
LINE
  5
18C
330
1F
100
AcDbEntity
  8
0-0
  6
JWW_DASHED1
 62
   120
370
     5
100
AcDbLine
 10
-944.8493156203159
 20
982.3323288517174
 30
0.0
 11
-869.6446731983062
 21
907.1276864297068
 31
0.0
  0
LINE
  5
18D
330
1F
100
AcDbEntity
  8
0-0
  6
JWW_DASHED1
 62
   120
370
     5
100
AcDbLine
 10
-934.949820685091
 20
982.3323288517081
 30
0.0
 11
-869.6446731983131
 21
917.0271813649305
 31
0.0
  0
LINE
  5
18E
330
1F
100
AcDbEntity
  8
0-0
  6
JWW_DASHED1
 62
   120
370
     5
100
AcDbLine
 10
-925.0503257498679
 20
982.3323288517017
 30
0.0
 11
-869.6446731983207
 21
926.9266763001536
 31
0.0
  0
LINE
  5
18F
330
1F
100
AcDbEntity
  8
0-0
  6
JWW_DASHED1
 62
   120
370
     5
100
AcDbLine
 10
-915.150830814718
 20
982.3323288517136
 30
0.0
 11
-869.6446731983087
 21
936.826171235304
 31
0.0
  0
LINE
  5
190
330
1F
100
AcDbEntity
  8
0-0
  6
JWW_DASHED1
 62
   120
370
     5
100
AcDbLine
 10
-905.251335879494
 20
982.3323288517059
 30
0.0
 11
-869.6446731983156
 21
946.7256661705276
 31
0.0
  0
LINE
  5
191
330
1F
100
AcDbEntity
  8
0-0
  6
JWW_DASHED1
 62
   120
370
     5
100
AcDbLine
 10
-895.3518409443288
 20
982.3323288517025
 30
0.0
 11
-869.644673198319
 21
956.6251611056923
 31
0.0
  0
LINE
  5
192
330
1F
100
AcDbEntity
  8
0-0
  6
JWW_DASHED1
 62
   120
370
     5
100
AcDbLine
 10
-885.4523460091209
 20
982.332328851711
 30
0.0
 11
-869.6446731983104
 21
966.5246560409005
 31
0.0
  0
LINE
  5
193
330
1F
100
AcDbEntity
  8
0-0
  6
JWW_DASHED1
 62
   120
370
     5
100
AcDbLine
 10
-875.5528510739123
 20
982.3323288517183
 30
0.0
 11
-869.6446731983019
 21
976.4241509761088
 31
0.0
  0
LINE
  5
194
330
1F
100
AcDbEntity
  8
0-0
  6
JWW_DASHED1
 62
   120
370
     5
100
AcDbLine
 10
-679.6446731982974
 20
-908.4495828232915
 30
0.0
 11
-672.4265848733157
 21
-915.6676711482734
 31
0.0
  0
LINE
  5
195
330
1F
100
AcDbEntity
  8
0-0
  6
JWW_DASHED1
 62
   120
370
     5
100
AcDbLine
 10
-679.6446731983042
 20
-898.5500878880683
 30
0.0
 11
-662.5270899380916
 21
-915.6676711482819
 31
0.0
  0
LINE
  5
196
330
1F
100
AcDbEntity
  8
0-0
  6
JWW_DASHED1
 62
   120
370
     5
100
AcDbLine
 10
-679.6446731982957
 20
-888.6505929528605
 30
0.0
 11
-652.6275950028838
 21
-915.6676711482729
 31
0.0
  0
LINE
  5
197
330
1F
100
AcDbEntity
  8
0-0
  6
JWW_DASHED1
 62
   120
370
     5
100
AcDbLine
 10
-679.6446731982999
 20
-878.7510980176946
 30
0.0
 11
-642.7281000677186
 21
-915.6676711482768
 31
0.0
  0
LINE
  5
198
330
1F
100
AcDbEntity
  8
0-0
  6
JWW_DASHED1
 62
   120
370
     5
100
AcDbLine
 10
-679.6446731982915
 20
-868.8516030824868
 30
0.0
 11
-632.8286051325091
 21
-915.6676711482687
 31
0.0
  0
LINE
  5
199
330
1F
100
AcDbEntity
  8
0-0
  6
JWW_DASHED1
 62
   120
370
     5
100
AcDbLine
 10
-679.6446731982983
 20
-858.9521081472636
 30
0.0
 11
-622.9291101972851
 21
-915.6676711482768
 31
0.0
  0
LINE
  5
19A
330
1F
100
AcDbEntity
  8
0-0
  6
JWW_DASHED1
 62
   120
370
     5
100
AcDbLine
 10
-679.6446731983025
 20
-849.052613212098
 30
0.0
 11
-613.0296152621207
 21
-915.6676711482797
 31
0.0
  0
LINE
  5
19B
330
1F
100
AcDbEntity
  8
0-0
  6
JWW_DASHED1
 62
   120
370
     5
100
AcDbLine
 10
-679.644673198294
 20
-839.1531182768896
 30
0.0
 11
-603.130120326912
 21
-915.6676711482717
 31
0.0
  0
LINE
  5
19C
330
1F
100
AcDbEntity
  8
0-0
  6
JWW_DASHED1
 62
   120
370
     5
100
AcDbLine
 10
-679.6446731983008
 20
-829.2536233416664
 30
0.0
 11
-593.230625391688
 21
-915.6676711482792
 31
0.0
  0
LINE
  5
19D
330
1F
100
AcDbEntity
  8
0-0
  6
JWW_DASHED1
 62
   120
370
     5
100
AcDbLine
 10
-679.6446731983042
 20
-819.354128406501
 30
0.0
 11
-583.3311304565245
 21
-915.6676711482806
 31
0.0
  0
LINE
  5
19E
330
1F
100
AcDbEntity
  8
0-0
  6
JWW_DASHED1
 62
   120
370
     5
100
AcDbLine
 10
-679.6446731982965
 20
-809.4546334712927
 30
0.0
 11
-573.4316355213141
 21
-915.6676711482751
 31
0.0
  0
LINE
  5
19F
330
1F
100
AcDbEntity
  8
0-0
  6
JWW_DASHED1
 62
   120
370
     5
100
AcDbLine
 10
-679.6446731982983
 20
-799.5551385361292
 30
0.0
 11
-563.5321405861498
 21
-915.667671148278
 31
0.0
  0
LINE
  5
1A0
330
1F
100
AcDbEntity
  8
0-0
  6
JWW_DASHED1
 62
   120
370
     5
100
AcDbLine
 10
-679.6446731983076
 20
-789.6556436009039
 30
0.0
 11
-553.6326456509283
 21
-915.6676711482824
 31
0.0
  0
LINE
  5
1A1
330
1F
100
AcDbEntity
  8
0-0
  6
JWW_DASHED1
 62
   120
370
     5
100
AcDbLine
 10
-679.6446731982991
 20
-779.7561486656955
 30
0.0
 11
-543.7331507157171
 21
-915.667671148278
 31
0.0
  0
LINE
  5
1A2
330
1F
100
AcDbEntity
  8
0-0
  6
JWW_DASHED1
 62
   120
370
     5
100
AcDbLine
 10
-679.6446731983008
 20
-769.856653730532
 30
0.0
 11
-533.8336557805519
 21
-915.6676711482814
 31
0.0
  0
LINE
  5
1A3
330
1F
100
AcDbEntity
  8
0-0
  6
JWW_DASHED1
 62
   120
370
     5
100
AcDbLine
 10
-679.6446731983093
 20
-759.9571587953077
 30
0.0
 11
-523.9341608453321
 21
-915.6676711482853
 31
0.0
  0
LINE
  5
1A4
330
1F
100
AcDbEntity
  8
0-0
  6
JWW_DASHED1
 62
   120
370
     5
100
AcDbLine
 10
-679.6446731983017
 20
-750.0576638600986
 30
0.0
 11
-514.0346659101192
 21
-915.6676711482806
 31
0.0
  0
LINE
  5
1A5
330
1F
100
AcDbEntity
  8
0-0
  6
JWW_DASHED1
 62
   120
370
     5
100
AcDbLine
 10
-679.6446731983033
 20
-740.1581689249351
 30
0.0
 11
-504.135170974954
 21
-915.6676711482843
 31
0.0
  0
LINE
  5
1A6
330
1F
100
AcDbEntity
  8
0-0
  6
JWW_DASHED1
 62
   120
370
     5
100
AcDbLine
 10
-679.6446731982957
 20
-730.258673989726
 30
0.0
 11
-494.2356760397462
 21
-915.6676711482763
 31
0.0
  0
LINE
  5
1A7
330
1F
100
AcDbEntity
  8
0-0
  6
JWW_DASHED1
 62
   120
370
     5
100
AcDbLine
 10
-679.6446731983042
 20
-720.3591790545024
 30
0.0
 11
-484.3361811045222
 21
-915.6676711482841
 31
0.0
  0
LINE
  5
1A8
330
1F
100
AcDbEntity
  8
0-0
  6
JWW_DASHED1
 62
   120
370
     5
100
AcDbLine
 10
-679.6446731983042
 20
-710.4596841193394
 30
0.0
 11
-474.4366861693578
 21
-915.667671148287
 31
0.0
  0
LINE
  5
1A9
330
1F
100
AcDbEntity
  8
0-0
  6
JWW_DASHED1
 62
   120
370
     5
100
AcDbLine
 10
-679.6446731982991
 20
-700.560189184129
 30
0.0
 11
-464.5371912341483
 21
-915.6676711482792
 31
0.0
  0
LINE
  5
1AA
330
1F
100
AcDbEntity
  8
0-0
  6
JWW_DASHED1
 62
   120
370
     5
100
AcDbLine
 10
-679.6446731983059
 20
-690.6606942489053
 30
0.0
 11
-454.6376962989302
 21
-915.6676711482809
 31
0.0
  0
LINE
  5
1AB
330
1F
100
AcDbEntity
  8
0-0
  6
JWW_DASHED1
 62
   120
370
     5
100
AcDbLine
 10
-679.644673198294
 20
-680.7611993137555
 30
0.0
 11
-444.7382013637744
 21
-915.6676711482751
 31
0.0
  0
LINE
  5
1AC
330
1F
100
AcDbEntity
  8
0-0
  6
JWW_DASHED1
 62
   120
370
     5
100
AcDbLine
 10
-679.6446731982991
 20
-670.861704378534
 30
0.0
 11
-434.8387064285504
 21
-915.6676711482826
 31
0.0
  0
LINE
  5
1AD
330
1F
100
AcDbEntity
  8
0-0
  6
JWW_DASHED1
 62
   120
370
     5
100
AcDbLine
 10
-679.6446731983093
 20
-660.9622094433083
 30
0.0
 11
-424.9392114933332
 21
-915.6676711482836
 31
0.0
  0
LINE
  5
1AE
330
1F
100
AcDbEntity
  8
0-0
  6
JWW_DASHED1
 62
   120
370
     5
100
AcDbLine
 10
-679.6446731982957
 20
-651.0627145081589
 30
0.0
 11
-415.0397165581774
 21
-915.667671148278
 31
0.0
  0
LINE
  5
1AF
330
1F
100
AcDbEntity
  8
0-0
  6
JWW_DASHED1
 62
   120
370
     5
100
AcDbLine
 10
-679.6446731983008
 20
-641.1632195729375
 30
0.0
 11
-405.1402216229525
 21
-915.6676711482858
 31
0.0
  0
LINE
  5
1B0
330
1F
100
AcDbEntity
  8
0-0
  6
JWW_DASHED1
 62
   120
370
     5
100
AcDbLine
 10
-679.644673198311
 20
-631.2637246377109
 30
0.0
 11
-395.240726687737
 21
-915.6676711482858
 31
0.0
  0
LINE
  5
1B1
330
1F
100
AcDbEntity
  8
0-0
  6
JWW_DASHED1
 62
   120
370
     5
100
AcDbLine
 10
-679.6446731982991
 20
-621.3642297025618
 30
0.0
 11
-385.3412317525795
 21
-915.6676711482806
 31
0.0
  0
LINE
  5
1B2
330
1F
100
AcDbEntity
  8
0-0
  6
JWW_DASHED1
 62
   120
370
     5
100
AcDbLine
 10
-679.6446731983042
 20
-611.4647347673404
 30
0.0
 11
-375.4417368173563
 21
-915.6676711482883
 31
0.0
  0
LINE
  5
1B3
330
1F
100
AcDbEntity
  8
0-0
  6
JWW_DASHED1
 62
   120
370
     5
100
AcDbLine
 10
-679.6446731983093
 20
-601.565239832173
 30
0.0
 11
-365.5422418821988
 21
-915.6676711482836
 31
0.0
  0
LINE
  5
1B4
330
1F
100
AcDbEntity
  8
0-0
  6
JWW_DASHED1
 62
   120
370
     5
100
AcDbLine
 10
-679.6446731983008
 20
-591.6657448969656
 30
0.0
 11
-355.6427469469824
 21
-915.6676711482841
 31
0.0
  0
LINE
  5
1B5
330
1F
100
AcDbEntity
  8
0-0
  6
JWW_DASHED1
 62
   120
370
     5
100
AcDbLine
 10
-679.644673198293
 20
-581.7662499617566
 30
0.0
 11
-345.7432520117746
 21
-915.6676711482751
 31
0.0
  0
LINE
  5
1B6
330
1F
100
AcDbEntity
  8
0-0
  6
JWW_DASHED1
 62
   120
370
     5
100
AcDbLine
 10
-679.6446731983119
 20
-571.866755026576
 30
0.0
 11
-335.8437570766017
 21
-915.667671148286
 31
0.0
  0
LINE
  5
1B7
330
1F
100
AcDbEntity
  8
0-0
  6
JWW_DASHED1
 62
   120
370
     5
100
AcDbLine
 10
-679.6446731983033
 20
-561.9672600913686
 30
0.0
 11
-325.9442621413845
 21
-915.667671148287
 31
0.0
  0
LINE
  5
1B8
330
1F
100
AcDbEntity
  8
0-0
  6
JWW_DASHED1
 62
   120
370
     5
100
AcDbLine
 10
-679.6446731982957
 20
-552.0677651561595
 30
0.0
 11
-316.0447672061758
 21
-915.6676711482789
 31
0.0
  0
LINE
  5
1B9
330
1F
100
AcDbEntity
  8
0-0
  6
JWW_DASHED1
 62
   120
370
     5
100
AcDbLine
 10
-679.6446731982991
 20
-542.1682702209947
 30
0.0
 11
-306.1452722710115
 21
-915.6676711482819
 31
0.0
  0
LINE
  5
1BA
330
1F
100
AcDbEntity
  8
0-0
  6
JWW_DASHED1
 62
   120
370
     5
100
AcDbLine
 10
-679.6446731983059
 20
-532.2687752857715
 30
0.0
 11
-296.245777335796
 21
-915.6676711482806
 31
0.0
  0
LINE
  5
1BB
330
1F
100
AcDbEntity
  8
0-0
  6
JWW_DASHED1
 62
   120
370
     5
100
AcDbLine
 10
-679.6446731982974
 20
-522.3692803505629
 30
0.0
 11
-286.3462824005779
 21
-915.6676711482824
 31
0.0
  0
LINE
  5
1BC
330
1F
100
AcDbEntity
  8
0-0
  6
JWW_DASHED1
 62
   120
370
     5
100
AcDbLine
 10
-679.6446731982974
 20
-512.4697854154015
 30
0.0
 11
-276.4467874654127
 21
-915.6676711482858
 31
0.0
  0
LINE
  5
1BD
330
1F
100
AcDbEntity
  8
0-0
  6
JWW_DASHED1
 62
   120
370
     5
100
AcDbLine
 10
-679.6446731983093
 20
-502.5702904801736
 30
0.0
 11
-266.5472925302007
 21
-915.6676711482819
 31
0.0
  0
LINE
  5
1BE
330
1F
100
AcDbEntity
  8
0-0
  6
JWW_DASHED1
 62
   120
370
     5
100
AcDbLine
 10
-679.6446731983008
 20
-492.6707955449658
 30
0.0
 11
-256.6477975949809
 21
-915.6676711482853
 31
0.0
  0
LINE
  5
1BF
330
1F
100
AcDbEntity
  8
0-0
  6
JWW_DASHED1
 62
   120
370
     5
100
AcDbLine
 10
-679.6446731983008
 20
-482.7713006098045
 30
0.0
 11
-246.7483026598165
 21
-915.6676711482883
 31
0.0
  0
LINE
  5
1C0
330
1F
100
AcDbEntity
  8
0-0
  6
JWW_DASHED1
 62
   120
370
     5
100
AcDbLine
 10
-679.644673198311
 20
-472.8718056745774
 30
0.0
 11
-236.8488077246036
 21
-915.6676711482843
 31
0.0
  0
LINE
  5
1C1
330
1F
100
AcDbEntity
  8
0-0
  6
JWW_DASHED1
 62
   120
370
     5
100
AcDbLine
 10
-679.6446731983025
 20
-462.9723107393688
 30
0.0
 11
-226.9493127893838
 21
-915.6676711482877
 31
0.0
  0
LINE
  5
1C2
330
1F
100
AcDbEntity
  8
0-0
  6
JWW_DASHED1
 62
   120
370
     5
100
AcDbLine
 10
-679.6446731983025
 20
-453.0728158042078
 30
0.0
 11
-217.0498178542186
 21
-915.6676711482911
 31
0.0
  0
LINE
  5
1C3
330
1F
100
AcDbEntity
  8
0-0
  6
JWW_DASHED1
 62
   120
370
     5
100
AcDbLine
 10
-679.6446731982974
 20
-443.1733208689956
 30
0.0
 11
-207.15032291901
 21
-915.6676711482836
 31
0.0
  0
LINE
  5
1C4
330
1F
100
AcDbEntity
  8
0-0
  6
JWW_DASHED1
 62
   120
370
     5
100
AcDbLine
 10
-679.6446731983042
 20
-433.2738259337724
 30
0.0
 11
-197.2508279837859
 21
-915.6676711482911
 31
0.0
  0
LINE
  5
1C5
330
1F
100
AcDbEntity
  8
0-0
  6
JWW_DASHED1
 62
   120
370
     5
100
AcDbLine
 10
-679.6446731982923
 20
-423.3743309986233
 30
0.0
 11
-187.3513330486361
 21
-915.6676711482789
 31
0.0
  0
LINE
  5
1C6
330
1F
100
AcDbEntity
  8
0-0
  6
JWW_DASHED1
 62
   120
370
     5
100
AcDbLine
 10
-679.6446731982957
 20
-413.4748360634028
 30
0.0
 11
-177.4518381134129
 21
-915.6676711482866
 31
0.0
  0
LINE
  5
1C7
330
1F
100
AcDbEntity
  8
0-0
  6
JWW_DASHED1
 62
   120
370
     5
100
AcDbLine
 10
-679.6446731983033
 20
-403.5753411282342
 30
0.0
 11
-167.5523431782477
 21
-915.66767114829
 31
0.0
  0
LINE
  5
1C8
330
1F
100
AcDbEntity
  8
0-0
  6
JWW_DASHED1
 62
   120
370
     5
100
AcDbLine
 10
-679.6446731982957
 20
-393.6758461930254
 30
0.0
 11
-157.6528482430399
 21
-915.6676711482814
 31
0.0
  0
LINE
  5
1C9
330
1F
100
AcDbEntity
  8
0-0
  6
JWW_DASHED1
 62
   120
370
     5
100
AcDbLine
 10
-679.6446731982991
 20
-383.7763512578057
 30
0.0
 11
-147.753353307815
 21
-915.66767114829
 31
0.0
  0
LINE
  5
1CA
330
1F
100
AcDbEntity
  8
0-0
  6
JWW_DASHED1
 62
   120
370
     5
100
AcDbLine
 10
-679.6446731983059
 20
-373.8768563226371
 30
0.0
 11
-137.8538583726498
 21
-915.6676711482926
 31
0.0
  0
LINE
  5
1CB
330
1F
100
AcDbEntity
  8
0-0
  6
JWW_DASHED1
 62
   120
370
     5
100
AcDbLine
 10
-679.6446731982974
 20
-363.9773613874293
 30
0.0
 11
-127.9543634374411
 21
-915.6676711482853
 31
0.0
  0
LINE
  5
1CC
330
1F
100
AcDbEntity
  8
0-0
  6
JWW_DASHED1
 62
   120
370
     5
100
AcDbLine
 10
-679.6446731983008
 20
-354.0778664522095
 30
0.0
 11
-118.0548685022171
 21
-915.6676711482928
 31
0.0
  0
LINE
  5
1CD
330
1F
100
AcDbEntity
  8
0-0
  6
JWW_DASHED1
 62
   120
370
     5
100
AcDbLine
 10
-679.6446731983085
 20
-344.1783715170401
 30
0.0
 11
-108.1553735670673
 21
-915.6676711482809
 31
0.0
  0
LINE
  5
1CE
330
1F
100
AcDbEntity
  8
0-0
  6
JWW_DASHED1
 62
   120
370
     5
100
AcDbLine
 10
-679.6446731982999
 20
-334.2788765818323
 30
0.0
 11
-98.2558786318441
 21
-915.6676711482877
 31
0.0
  0
LINE
  5
1CF
330
1F
100
AcDbEntity
  8
0-0
  6
JWW_DASHED1
 62
   120
370
     5
100
AcDbLine
 10
-679.6446731983025
 20
-324.3793816466133
 30
0.0
 11
-89.64467319831726
 21
-914.3793816465987
 31
0.0
  0
LINE
  5
1D0
330
1F
100
AcDbEntity
  8
0-0
  6
JWW_DASHED1
 62
   120
370
     5
100
AcDbLine
 10
-679.644673198311
 20
-314.479886711443
 30
0.0
 11
-89.64467319830362
 21
-904.4798867114498
 31
0.0
  0
LINE
  5
1D1
330
1F
100
AcDbEntity
  8
0-0
  6
JWW_DASHED1
 62
   120
370
     5
100
AcDbLine
 10
-679.6446731983025
 20
-304.5803917762352
 30
0.0
 11
-89.64467319831215
 21
-894.5803917762257
 31
0.0
  0
LINE
  5
1D2
330
1F
100
AcDbEntity
  8
0-0
  6
JWW_DASHED1
 62
   120
370
     5
100
AcDbLine
 10
-679.644673198294
 20
-294.6808968410265
 30
0.0
 11
-89.64467319830362
 21
-884.6808968410173
 31
0.0
  0
LINE
  5
1D3
330
1F
100
AcDbEntity
  8
0-0
  6
JWW_DASHED1
 62
   120
370
     5
100
AcDbLine
 10
-679.6446731983135
 20
-284.781401905846
 30
0.0
 11
-89.64467319830703
 21
-874.7814019058527
 31
0.0
  0
LINE
  5
1D4
330
1F
100
AcDbEntity
  8
0-0
  6
JWW_DASHED1
 62
   120
370
     5
100
AcDbLine
 10
-679.6446731983051
 20
-274.8819069706382
 30
0.0
 11
-89.64467319831385
 21
-864.8819069706287
 31
0.0
  0
LINE
  5
1D5
330
1F
100
AcDbEntity
  8
0-0
  6
JWW_DASHED1
 62
   120
370
     5
100
AcDbLine
 10
-679.6446731982974
 20
-264.9824120354294
 30
0.0
 11
-89.64467319830703
 21
-854.9824120354205
 31
0.0
  0
LINE
  5
1D6
330
1F
100
AcDbEntity
  8
0-0
  6
JWW_DASHED1
 62
   120
370
     5
100
AcDbLine
 10
-679.6446731983008
 20
-255.0829171002643
 30
0.0
 11
-89.64467319830874
 21
-845.0829171002557
 31
0.0
  0
LINE
  5
1D7
330
1F
100
AcDbEntity
  8
0-0
  6
JWW_DASHED1
 62
   120
370
     5
100
AcDbLine
 10
-679.6446731983076
 20
-245.1834221650411
 30
0.0
 11
-89.64467319830021
 21
-835.1834221650479
 31
0.0
  0
LINE
  5
1D8
330
1F
100
AcDbEntity
  8
0-0
  6
JWW_DASHED1
 62
   120
370
     5
100
AcDbLine
 10
-679.6446731982991
 20
-235.2839272298333
 30
0.0
 11
-89.64467319830874
 21
-825.283927229823
 31
0.0
  0
LINE
  5
1D9
330
1F
100
AcDbEntity
  8
0-0
  6
JWW_DASHED1
 62
   120
370
     5
100
AcDbLine
 10
-679.6446731982974
 20
-225.3844322946732
 30
0.0
 11
-89.64467319831044
 21
-815.3844322946595
 31
0.0
  0
LINE
  5
1DA
330
1F
100
AcDbEntity
  8
0-0
  6
JWW_DASHED1
 62
   120
370
     5
100
AcDbLine
 10
-679.6446731983101
 20
-215.484937359444
 30
0.0
 11
-89.64467319830362
 21
-805.4849373594508
 31
0.0
  0
LINE
  5
1DB
330
1F
100
AcDbEntity
  8
0-0
  6
JWW_DASHED1
 62
   120
370
     5
100
AcDbLine
 10
-679.6446731983017
 20
-205.5854424242362
 30
0.0
 11
-89.64467319831044
 21
-795.5854424242268
 31
0.0
  0
LINE
  5
1DC
330
1F
100
AcDbEntity
  8
0-0
  6
JWW_DASHED1
 62
   120
370
     5
100
AcDbLine
 10
-679.6446731982991
 20
-195.685947489077
 30
0.0
 11
-89.64467319831385
 21
-785.6859474890624
 31
0.0
  0
LINE
  5
1DD
330
1F
100
AcDbEntity
  8
0-0
  6
JWW_DASHED1
 62
   120
370
     5
100
AcDbLine
 10
-679.6446731983127
 20
-185.786452553847
 30
0.0
 11
-89.64467319830533
 21
-775.7864525538538
 31
0.0
  0
LINE
  5
1DE
330
1F
100
AcDbEntity
  8
0-0
  6
JWW_DASHED1
 62
   120
370
     5
100
AcDbLine
 10
-679.6446731983042
 20
-175.8869576186392
 30
0.0
 11
-89.64467319831385
 21
-765.8869576186297
 31
0.0
  0
LINE
  5
1DF
330
1F
100
AcDbEntity
  8
0-0
  6
JWW_DASHED1
 62
   120
370
     5
100
AcDbLine
 10
-679.6446731983017
 20
-165.9874626834799
 30
0.0
 11
-89.64467319831556
 21
-755.9874626834654
 31
0.0
  0
LINE
  5
1E0
330
1F
100
AcDbEntity
  8
0-0
  6
JWW_DASHED1
 62
   120
370
     5
100
AcDbLine
 10
-679.6446731982991
 20
-156.0879677482653
 30
0.0
 11
-89.64467319830874
 21
-746.0879677482567
 31
0.0
  0
LINE
  5
1E1
330
1F
100
AcDbEntity
  8
0-0
  6
JWW_DASHED1
 62
   120
370
     5
100
AcDbLine
 10
-679.6446731983025
 20
-146.188472813101
 30
0.0
 11
-89.64467319831215
 21
-736.188472813091
 31
0.0
  0
LINE
  5
1E2
330
1F
100
AcDbEntity
  8
0-0
  6
JWW_DASHED1
 62
   120
370
     5
100
AcDbLine
 10
-679.644673198294
 20
-136.2889778778931
 30
0.0
 11
-89.64467319830362
 21
-726.2889778778837
 31
0.0
  0
LINE
  5
1E3
330
1F
100
AcDbEntity
  8
0-0
  6
JWW_DASHED1
 62
   120
370
     5
100
AcDbLine
 10
-679.6446731982949
 20
-126.3894829426759
 30
0.0
 11
-89.64467319830874
 21
-716.3894829426614
 31
0.0
  0
LINE
  5
1E4
330
1F
100
AcDbEntity
  8
0-0
  6
JWW_DASHED1
 62
   120
370
     5
100
AcDbLine
 10
-679.6446731983051
 20
-116.4899880075039
 30
0.0
 11
-89.64467319831385
 21
-706.4899880074948
 31
0.0
  0
LINE
  5
1E5
330
1F
100
AcDbEntity
  8
0-0
  6
JWW_DASHED1
 62
   120
370
     5
100
AcDbLine
 10
-679.6446731982965
 20
-106.5904930722961
 30
0.0
 11
-89.64467319830533
 21
-696.5904930722867
 31
0.0
  0
LINE
  5
1E6
330
1F
100
AcDbEntity
  8
0-0
  6
JWW_DASHED1
 62
   120
370
     5
100
AcDbLine
 10
-679.6446731982974
 20
-96.69099813707888
 30
0.0
 11
-89.64467319831215
 21
-686.6909981370643
 31
0.0
  0
LINE
  5
1E7
330
1F
100
AcDbEntity
  8
0-0
  6
JWW_DASHED1
 62
   120
370
     5
100
AcDbLine
 10
-679.6446731983076
 20
-86.79150320190686
 30
0.0
 11
-89.64467319830106
 21
-676.7915032019132
 31
0.0
  0
LINE
  5
1E8
330
1F
100
AcDbEntity
  8
0-0
  6
JWW_DASHED1
 62
   120
370
     5
100
AcDbLine
 10
-679.6446731982991
 20
-76.89200826669904
 30
0.0
 11
-89.64467319830788
 21
-666.89200826669
 31
0.0
  0
LINE
  5
1E9
330
1F
100
AcDbEntity
  8
0-0
  6
JWW_DASHED1
 62
   120
370
     5
100
AcDbLine
 10
-679.6446731982991
 20
-66.99251333148183
 30
0.0
 11
-89.64467319831385
 21
-656.9925133314676
 31
0.0
  0
LINE
  5
1EA
330
1F
100
AcDbEntity
  8
0-0
  6
JWW_DASHED1
 62
   120
370
     5
100
AcDbLine
 10
-679.6446731983093
 20
-57.09301839630982
 30
0.0
 11
-89.64467319830362
 21
-647.0930183963161
 31
0.0
  0
LINE
  5
1EB
330
1F
100
AcDbEntity
  8
0-0
  6
JWW_DASHED1
 62
   120
370
     5
100
AcDbLine
 10
-679.6446731983017
 20
-47.19352346110199
 30
0.0
 11
-89.6446731983113
 21
-637.1935234610926
 31
0.0
  0
LINE
  5
1EC
330
1F
100
AcDbEntity
  8
0-0
  6
JWW_DASHED1
 62
   120
370
     5
100
AcDbLine
 10
-679.6446731983017
 20
-37.29402852588564
 30
0.0
 11
-89.64467319831641
 21
-627.2940285258707
 31
0.0
  0
LINE
  5
1ED
330
1F
100
AcDbEntity
  8
0-0
  6
JWW_DASHED1
 62
   120
370
     5
100
AcDbLine
 10
-679.6446731983127
 20
-27.39453359071277
 30
0.0
 11
-89.64467319830618
 21
-617.3945335907191
 31
0.0
  0
LINE
  5
1EE
330
1F
100
AcDbEntity
  8
0-0
  6
JWW_DASHED1
 62
   120
370
     5
100
AcDbLine
 10
-679.6446731983042
 20
-17.49503865550494
 30
0.0
 11
-89.64467319831385
 21
-607.495038655495
 31
0.0
  0
LINE
  5
1EF
330
1F
100
AcDbEntity
  8
0-0
  6
JWW_DASHED1
 62
   120
370
     5
100
AcDbLine
 10
-679.6446731982957
 20
-7.595543720297115
 30
0.0
 11
-89.64467319830533
 21
-597.5955437202877
 31
0.0
  0
LINE
  5
1F0
330
1F
100
AcDbEntity
  8
0-0
  6
JWW_DASHED1
 62
   120
370
     5
100
AcDbLine
 10
-679.6446731982999
 20
2.303951214868931
 30
0.0
 11
-89.64467319830874
 21
-587.696048785122
 31
0.0
  0
LINE
  5
1F1
330
1F
100
AcDbEntity
  8
0-0
  6
JWW_DASHED1
 62
   120
370
     5
100
AcDbLine
 10
-679.6446731983067
 20
12.20344615009211
 30
0.0
 11
-89.64467319831556
 21
-577.7965538498988
 31
0.0
  0
LINE
  5
1F2
330
1F
100
AcDbEntity
  8
0-0
  6
JWW_DASHED1
 62
   120
370
     5
100
AcDbLine
 10
-679.6446731982983
 20
22.10294108529993
 30
0.0
 11
-89.64467319830703
 21
-567.8970589146907
 31
0.0
  0
LINE
  5
1F3
330
1F
100
AcDbEntity
  8
0-0
  6
JWW_DASHED1
 62
   120
370
     5
100
AcDbLine
 10
-679.6446731983017
 20
32.00243602046513
 30
0.0
 11
-89.6446731983113
 21
-557.997563979525
 31
0.0
  0
LINE
  5
1F4
330
1F
100
AcDbEntity
  8
0-0
  6
JWW_DASHED1
 62
   120
370
     5
100
AcDbLine
 10
-679.6446731983093
 20
41.90193095568915
 30
0.0
 11
-89.64467319830192
 21
-548.0980690443176
 31
0.0
  0
LINE
  5
1F5
330
1F
100
AcDbEntity
  8
0-0
  6
JWW_DASHED1
 62
   120
370
     5
100
AcDbLine
 10
-679.6446731983008
 20
51.80142589089698
 30
0.0
 11
-89.64467319831044
 21
-538.1985741090936
 31
0.0
  0
LINE
  5
1F6
330
1F
100
AcDbEntity
  8
0-0
  6
JWW_DASHED1
 62
   120
370
     5
100
AcDbLine
 10
-679.6446731982957
 20
61.70092082605365
 30
0.0
 11
-89.64467319831044
 21
-528.2990791739318
 31
0.0
  0
LINE
  5
1F7
330
1F
100
AcDbEntity
  8
0-0
  6
JWW_DASHED1
 62
   120
370
     5
100
AcDbLine
 10
-679.6446731983119
 20
71.6004157612862
 30
0.0
 11
-89.64467319830533
 21
-518.3995842387205
 31
0.0
  0
LINE
  5
1F8
330
1F
100
AcDbEntity
  8
0-0
  6
JWW_DASHED1
 62
   120
370
     5
100
AcDbLine
 10
-679.6446731983033
 20
81.49991069649403
 30
0.0
 11
-89.64467319831215
 21
-508.5000893034965
 31
0.0
  0
LINE
  5
1F9
330
1F
100
AcDbEntity
  8
0-0
  6
JWW_DASHED1
 62
   120
370
     5
100
AcDbLine
 10
-679.6446731982974
 20
91.3994056316507
 30
0.0
 11
-89.64467319831215
 21
-498.6005943683352
 31
0.0
  0
LINE
  5
1FA
330
1F
100
AcDbEntity
  8
0-0
  6
JWW_DASHED1
 62
   120
370
     5
100
AcDbLine
 10
-679.6446731983144
 20
101.2989005668832
 30
0.0
 11
-89.64467319830788
 21
-488.7010994331235
 31
0.0
  0
LINE
  5
1FB
330
1F
100
AcDbEntity
  8
0-0
  6
JWW_DASHED1
 62
   120
370
     5
100
AcDbLine
 10
-679.6446731983059
 20
111.1983955020911
 30
0.0
 11
-89.6446731983147
 21
-478.8016044978999
 31
0.0
  0
LINE
  5
1FC
330
1F
100
AcDbEntity
  8
0-0
  6
JWW_DASHED1
 62
   120
370
     5
100
AcDbLine
 10
-679.6446731983008
 20
121.0978904372477
 30
0.0
 11
-89.6446731983147
 21
-468.9021095627381
 31
0.0
  0
LINE
  5
1FD
330
1F
100
AcDbEntity
  8
0-0
  6
JWW_DASHED1
 62
   120
370
     5
100
AcDbLine
 10
-679.6446731983008
 20
130.9973853724649
 30
0.0
 11
-89.64467319831044
 21
-459.0026146275264
 31
0.0
  0
LINE
  5
1FE
330
1F
100
AcDbEntity
  8
0-0
  6
JWW_DASHED1
 62
   120
370
     5
100
AcDbLine
 10
-679.6446731983085
 20
140.8968803076881
 30
0.0
 11
-89.64467319830192
 21
-449.1031196923186
 31
0.0
  0
LINE
  5
1FF
330
1F
100
AcDbEntity
  8
0-0
  6
JWW_DASHED1
 62
   120
370
     5
100
AcDbLine
 10
-679.6446731982957
 20
150.7963752428371
 30
0.0
 11
-89.64467319830533
 21
-439.2036247571532
 31
0.0
  0
LINE
  5
200
330
1F
100
AcDbEntity
  8
0-0
  6
JWW_DASHED1
 62
   120
370
     5
100
AcDbLine
 10
-679.644673198294
 20
160.6958701780526
 30
0.0
 11
-89.64467319830788
 21
-429.3041298219343
 31
0.0
  0
LINE
  5
201
330
1F
100
AcDbEntity
  8
0-0
  6
JWW_DASHED1
 62
   120
370
     5
100
AcDbLine
 10
-679.6446731983067
 20
170.5953651132263
 30
0.0
 11
-89.64467319831556
 21
-419.4046348867648
 31
0.0
  0
LINE
  5
202
330
1F
100
AcDbEntity
  8
0-0
  6
JWW_DASHED1
 62
   120
370
     5
100
AcDbLine
 10
-679.6446731982983
 20
180.4948600484342
 30
0.0
 11
-89.64467319830788
 21
-409.5051399515562
 31
0.0
  0
LINE
  5
203
330
1F
100
AcDbEntity
  8
0-0
  6
JWW_DASHED1
 62
   120
370
     5
100
AcDbLine
 10
-679.6446731982974
 20
190.3943549836497
 30
0.0
 11
-89.64467319831044
 21
-399.6056450163372
 31
0.0
  0
LINE
  5
204
330
1F
100
AcDbEntity
  8
0-0
  6
JWW_DASHED1
 62
   120
370
     5
100
AcDbLine
 10
-679.6446731983093
 20
200.2938499188234
 30
0.0
 11
-89.64467319830277
 21
-389.7061500811832
 31
0.0
  0
LINE
  5
205
330
1F
100
AcDbEntity
  8
0-0
  6
JWW_DASHED1
 62
   120
370
     5
100
AcDbLine
 10
-679.6446731983008
 20
210.1933448540312
 30
0.0
 11
-89.64467319830959
 21
-379.80665514596
 31
0.0
  0
LINE
  5
206
330
1F
100
AcDbEntity
  8
0-0
  6
JWW_DASHED1
 62
   120
370
     5
100
AcDbLine
 10
-679.6446731982991
 20
220.0928397892459
 30
0.0
 11
-89.644673198313
 21
-369.9071602107402
 31
0.0
  0
LINE
  5
207
330
1F
100
AcDbEntity
  8
0-0
  6
JWW_DASHED1
 62
   120
370
     5
100
AcDbLine
 10
-679.644673198311
 20
229.9923347244204
 30
0.0
 11
-89.64467319830533
 21
-360.0076652755861
 31
0.0
  0
LINE
  5
208
330
1F
100
AcDbEntity
  8
0-0
  6
JWW_DASHED1
 62
   120
370
     5
100
AcDbLine
 10
-679.6446731983033
 20
239.8918296596283
 30
0.0
 11
-89.64467319831215
 21
-350.1081703403629
 31
0.0
  0
LINE
  5
209
330
1F
100
AcDbEntity
  8
0-0
  6
JWW_DASHED1
 62
   120
370
     5
100
AcDbLine
 10
-679.6446731982949
 20
249.7913245948361
 30
0.0
 11
-89.64467319830362
 21
-340.2086754051551
 31
0.0
  0
LINE
  5
20A
330
1F
100
AcDbEntity
  8
0-0
  6
JWW_DASHED1
 62
   120
370
     5
100
AcDbLine
 10
-679.6446731983144
 20
259.6908195300175
 30
0.0
 11
-89.64467319830703
 21
-330.3091804699899
 31
0.0
  0
LINE
  5
20B
330
1F
100
AcDbEntity
  8
0-0
  6
JWW_DASHED1
 62
   120
370
     5
100
AcDbLine
 10
-679.6446731983059
 20
269.5903144652253
 30
0.0
 11
-89.6446731983147
 21
-320.4096855347659
 31
0.0
  0
LINE
  5
20C
330
1F
100
AcDbEntity
  8
0-0
  6
JWW_DASHED1
 62
   120
370
     5
100
AcDbLine
 10
-679.6446731982974
 20
279.4898094004332
 30
0.0
 11
-89.64467319830703
 21
-310.5101905995572
 31
0.0
  0
LINE
  5
20D
330
1F
100
AcDbEntity
  8
0-0
  6
JWW_DASHED1
 62
   120
370
     5
100
AcDbLine
 10
-679.6446731983008
 20
289.3893043355984
 30
0.0
 11
-89.64467319831044
 21
-300.6106956643929
 31
0.0
  0
LINE
  5
20E
330
1F
100
AcDbEntity
  8
0-0
  6
JWW_DASHED1
 62
   120
370
     5
100
AcDbLine
 10
-679.6446731983085
 20
299.2887992708223
 30
0.0
 11
-89.64467319831726
 21
-290.7112007291688
 31
0.0
  0
LINE
  5
20F
330
1F
100
AcDbEntity
  8
0-0
  6
JWW_DASHED1
 62
   120
370
     5
100
AcDbLine
 10
-679.6446731982999
 20
309.1882942060302
 30
0.0
 11
-89.64467319830959
 21
-280.8117057939602
 31
0.0
  0
LINE
  5
210
330
1F
100
AcDbEntity
  8
0-0
  6
JWW_DASHED1
 62
   120
370
     5
100
AcDbLine
 10
-679.644673198293
 20
319.0877891411851
 30
0.0
 11
-89.64467319830703
 21
-270.9122108588009
 31
0.0
  0
LINE
  5
211
330
1F
100
AcDbEntity
  8
0-0
  6
JWW_DASHED1
 62
   120
370
     5
100
AcDbLine
 10
-679.644673198311
 20
328.9872840764194
 30
0.0
 11
-89.64467319830447
 21
-261.0127159235872
 31
0.0
  0
LINE
  5
212
330
1F
100
AcDbEntity
  8
0-0
  6
JWW_DASHED1
 62
   120
370
     5
100
AcDbLine
 10
-679.6446731983025
 20
338.8867790116273
 30
0.0
 11
-89.6446731983113
 21
-251.113220988364
 31
0.0
  0
LINE
  5
213
330
1F
100
AcDbEntity
  8
0-0
  6
JWW_DASHED1
 62
   120
370
     5
100
AcDbLine
 10
-679.6446731982957
 20
348.7862739467822
 30
0.0
 11
-89.64467319830959
 21
-241.2137260532039
 31
0.0
  0
LINE
  5
214
330
1F
100
AcDbEntity
  8
0-0
  6
JWW_DASHED1
 62
   120
370
     5
100
AcDbLine
 10
-679.6446731983135
 20
358.6857688820164
 30
0.0
 11
-89.64467319830703
 21
-231.3142311179901
 31
0.0
  0
LINE
  5
215
330
1F
100
AcDbEntity
  8
0-0
  6
JWW_DASHED1
 62
   120
370
     5
100
AcDbLine
 10
-679.6446731983051
 20
368.5852638172242
 30
0.0
 11
-89.64467319831385
 21
-221.4147361827669
 31
0.0
  0
LINE
  5
216
330
1F
100
AcDbEntity
  8
0-0
  6
JWW_DASHED1
 62
   120
370
     5
100
AcDbLine
 10
-679.6446731982974
 20
378.4847587523784
 30
0.0
 11
-89.64467319831215
 21
-211.5152412476077
 31
0.0
  0
LINE
  5
217
330
1F
100
AcDbEntity
  8
0-0
  6
JWW_DASHED1
 62
   120
370
     5
100
AcDbLine
 10
-679.6446731983161
 20
388.3842536876135
 30
0.0
 11
-89.64467319830959
 21
-201.615746312393
 31
0.0
  0
LINE
  5
218
330
1F
100
AcDbEntity
  8
0-0
  6
JWW_DASHED1
 62
   120
370
     5
100
AcDbLine
 10
-679.6446731983076
 20
398.2837486228213
 30
0.0
 11
-89.64467319831641
 21
-191.7162513771699
 31
0.0
  0
LINE
  5
219
330
1F
100
AcDbEntity
  8
0-0
  6
JWW_DASHED1
 62
   120
370
     5
100
AcDbLine
 10
-679.6446731982999
 20
408.1832435579754
 30
0.0
 11
-89.64467319831385
 21
-181.8167564420106
 31
0.0
  0
LINE
  5
21A
330
1F
100
AcDbEntity
  8
0-0
  6
JWW_DASHED1
 62
   120
370
     5
100
AcDbLine
 10
-679.6446731983025
 20
418.0827384931944
 30
0.0
 11
-89.6446731983113
 21
-171.9172615067968
 31
0.0
  0
LINE
  5
21B
330
1F
100
AcDbEntity
  8
0-0
  6
JWW_DASHED1
 62
   120
370
     5
100
AcDbLine
 10
-679.6446731983101
 20
427.9822334284183
 30
0.0
 11
-89.64467319830362
 21
-162.0177665715882
 31
0.0
  0
LINE
  5
21C
330
1F
100
AcDbEntity
  8
0-0
  6
JWW_DASHED1
 62
   120
370
     5
100
AcDbLine
 10
-679.6446731982974
 20
437.8817283635674
 30
0.0
 11
-89.64467319830703
 21
-152.1182716364238
 31
0.0
  0
LINE
  5
21D
330
1F
100
AcDbEntity
  8
0-0
  6
JWW_DASHED1
 62
   120
370
     5
100
AcDbLine
 10
-679.644673198294
 20
447.7812232987803
 30
0.0
 11
-89.64467319830703
 21
-142.2187767012058
 31
0.0
  0
LINE
  5
21E
330
1F
100
AcDbEntity
  8
0-0
  6
JWW_DASHED1
 62
   120
370
     5
100
AcDbLine
 10
-679.6446731983101
 20
457.6807182339855
 30
0.0
 11
-89.64467319831897
 21
-132.3192817660048
 31
0.0
  0
LINE
  5
21F
330
1F
100
AcDbEntity
  8
0-0
  6
JWW_DASHED1
 62
   120
370
     5
100
AcDbLine
 10
-679.6446731983008
 20
467.5802131691644
 30
0.0
 11
-89.64467319830874
 21
-122.4197868308268
 31
0.0
  0
LINE
  5
220
330
1F
100
AcDbEntity
  8
0-0
  6
JWW_DASHED1
 62
   120
370
     5
100
AcDbLine
 10
-679.6446731982965
 20
477.4797081043773
 30
0.0
 11
-89.64467319831044
 21
-112.5202918956087
 31
0.0
  0
LINE
  5
221
330
1F
100
AcDbEntity
  8
0-0
  6
JWW_DASHED1
 62
   120
370
     5
100
AcDbLine
 10
-679.644673198311
 20
487.3792030395537
 30
0.0
 11
-89.64467319830362
 21
-102.6207969604529
 31
0.0
  0
LINE
  5
222
330
1F
100
AcDbEntity
  8
0-0
  6
JWW_DASHED1
 62
   120
370
     5
100
AcDbLine
 10
-679.6446731983025
 20
497.2786979747615
 30
0.0
 11
-89.64467319831215
 21
-92.72130202522973
 31
0.0
  0
LINE
  5
223
330
1F
100
AcDbEntity
  8
0-0
  6
JWW_DASHED1
 62
   120
370
     5
100
AcDbLine
 10
-679.6446731982974
 20
507.1781929099727
 30
0.0
 11
-89.64467319831215
 21
-82.82180709001167
 31
0.0
  0
LINE
  5
224
330
1F
100
AcDbEntity
  8
0-0
  6
JWW_DASHED1
 62
   120
370
     5
100
AcDbLine
 10
-679.6446731983127
 20
517.0776878451499
 30
0.0
 11
-89.64467319830703
 21
-72.92231215485586
 31
0.0
  0
LINE
  5
225
330
1F
100
AcDbEntity
  8
0-0
  6
JWW_DASHED1
 62
   120
370
     5
100
AcDbLine
 10
-679.6446731983059
 20
526.9771827803585
 30
0.0
 11
-89.64467319831385
 21
-63.02281721963183
 31
0.0
  0
LINE
  5
226
330
1F
100
AcDbEntity
  8
0-0
  6
JWW_DASHED1
 62
   120
370
     5
100
AcDbLine
 10
-679.6446731982965
 20
536.8766777155663
 30
0.0
 11
-89.64467319830533
 21
-53.12332228442486
 31
0.0
  0
LINE
  5
227
330
1F
100
AcDbEntity
  8
0-0
  6
JWW_DASHED1
 62
   120
370
     5
100
AcDbLine
 10
-679.6446731983153
 20
546.7761726507468
 30
0.0
 11
-89.64467319830874
 21
-43.22382734925881
 31
0.0
  0
LINE
  5
228
330
1F
100
AcDbEntity
  8
0-0
  6
JWW_DASHED1
 62
   120
370
     5
100
AcDbLine
 10
-679.6446731983076
 20
556.6756675859556
 30
0.0
 11
-89.64467319831726
 21
-33.32433241403479
 31
0.0
  0
LINE
  5
229
330
1F
100
AcDbEntity
  8
0-0
  6
JWW_DASHED1
 62
   120
370
     5
100
AcDbLine
 10
-679.6446731982991
 20
566.5751625211634
 30
0.0
 11
-89.64467319830788
 21
-23.42483747882781
 31
0.0
  0
LINE
  5
22A
330
1F
100
AcDbEntity
  8
0-0
  6
JWW_DASHED1
 62
   120
370
     5
100
AcDbLine
 10
-679.6446731983025
 20
576.4746574563286
 30
0.0
 11
-89.64467319831044
 21
-13.52534254366262
 31
0.0
  0
LINE
  5
22B
330
1F
100
AcDbEntity
  8
0-0
  6
JWW_DASHED1
 62
   120
370
     5
100
AcDbLine
 10
-679.6446731983101
 20
586.3741523915526
 30
0.0
 11
-89.64467319830362
 21
-3.625847608453938
 31
0.0
  0
LINE
  5
22C
330
1F
100
AcDbEntity
  8
0-0
  6
JWW_DASHED1
 62
   120
370
     5
100
AcDbLine
 10
-679.6446731983008
 20
596.2736473267604
 30
0.0
 11
-89.64467319831044
 21
6.273647326769236
 31
0.0
  0
LINE
  5
22D
330
1F
100
AcDbEntity
  8
0-0
  6
JWW_DASHED1
 62
   120
370
     5
100
AcDbLine
 10
-679.6446731982923
 20
606.1731422619129
 30
0.0
 11
-89.64467319830703
 21
16.17314226192676
 31
0.0
  0
LINE
  5
22E
330
1F
100
AcDbEntity
  8
0-0
  6
JWW_DASHED1
 62
   120
370
     5
100
AcDbLine
 10
-679.6446731983119
 20
616.0726371971488
 30
0.0
 11
-89.64467319830533
 21
26.07263719714226
 31
0.0
  0
LINE
  5
22F
330
1F
100
AcDbEntity
  8
0-0
  6
JWW_DASHED1
 62
   120
370
     5
100
AcDbLine
 10
-679.6446731983042
 20
625.9721321323575
 30
0.0
 11
-89.64467319831385
 21
35.97213213236628
 31
0.0
  0
LINE
  5
230
330
1F
100
AcDbEntity
  8
0-0
  6
JWW_DASHED1
 62
   120
370
     5
100
AcDbLine
 10
-679.644673198294
 20
635.871627067509
 30
0.0
 11
-89.64467319830874
 21
45.8716270675238
 31
0.0
  0
LINE
  5
231
330
1F
100
AcDbEntity
  8
0-0
  6
JWW_DASHED1
 62
   120
370
     5
100
AcDbLine
 10
-679.6446731983144
 20
645.7711220027459
 30
0.0
 11
-89.64467319830874
 21
55.7711220027393
 31
0.0
  0
LINE
  5
232
330
1F
100
AcDbEntity
  8
0-0
  6
JWW_DASHED1
 62
   120
370
     5
100
AcDbLine
 10
-679.6446731983067
 20
655.6706169379554
 30
0.0
 11
-89.64467319831556
 21
65.67061693796333
 31
0.0
  0
LINE
  5
233
330
1F
100
AcDbEntity
  8
0-0
  6
JWW_DASHED1
 62
   120
370
     5
100
AcDbLine
 10
-679.6446731982965
 20
665.570111873106
 30
0.0
 11
-89.64467319831044
 21
75.57011187312
 31
0.0
  0
LINE
  5
234
330
1F
100
AcDbEntity
  8
0-0
  6
JWW_DASHED1
 62
   120
370
     5
100
AcDbLine
 10
-679.6446731983169
 20
675.4696068083429
 30
0.0
 11
-89.64467319831044
 21
85.46960680833635
 31
0.0
  0
LINE
  5
235
330
1F
100
AcDbEntity
  8
0-0
  6
JWW_DASHED1
 62
   120
370
     5
100
AcDbLine
 10
-679.6446731983093
 20
685.3691017435524
 30
0.0
 11
-89.64467319831897
 21
95.36910174356038
 31
0.0
  0
LINE
  5
236
330
1F
100
AcDbEntity
  8
0-0
  6
JWW_DASHED1
 62
   120
370
     5
100
AcDbLine
 10
-679.6446731982991
 20
695.2685966787031
 30
0.0
 11
-89.644673198313
 21
105.268596678717
 31
0.0
  0
LINE
  5
237
330
1F
100
AcDbEntity
  8
0-0
  6
JWW_DASHED1
 62
   120
370
     5
100
AcDbLine
 10
-679.6446731983042
 20
705.1680916139246
 30
0.0
 11
-89.64467319831385
 21
115.1680916139343
 31
0.0
  0
LINE
  5
238
330
1F
100
AcDbEntity
  8
0-0
  6
JWW_DASHED1
 62
   120
370
     5
100
AcDbLine
 10
-679.6446731983119
 20
715.0675865491486
 30
0.0
 11
-89.64467319830533
 21
125.0675865491421
 31
0.0
  0
LINE
  5
239
330
1F
100
AcDbEntity
  8
0-0
  6
JWW_DASHED1
 62
   120
370
     5
100
AcDbLine
 10
-679.6446731982991
 20
724.9670814842984
 30
0.0
 11
-89.64467319830874
 21
134.9670814843073
 31
0.0
  0
LINE
  5
23A
330
1F
100
AcDbEntity
  8
0-0
  6
JWW_DASHED1
 62
   120
370
     5
100
AcDbLine
 10
-679.6446731982923
 20
734.866576419508
 30
0.0
 11
-89.64467319830703
 21
144.8665764195219
 31
0.0
  0
LINE
  5
23B
330
1F
100
AcDbEntity
  8
0-0
  6
JWW_DASHED1
 62
   120
370
     5
100
AcDbLine
 10
-679.6446731983135
 20
744.7660713547448
 30
0.0
 11
-89.64467319830788
 21
154.7660713547391
 31
0.0
  0
LINE
  5
23C
330
1F
100
AcDbEntity
  8
0-0
  6
JWW_DASHED1
 62
   120
370
     5
100
AcDbLine
 10
-679.6446731983017
 20
754.6655662898946
 30
0.0
 11
-89.64467319831044
 21
164.6655662899043
 31
0.0
  0
LINE
  5
23D
330
1F
100
AcDbEntity
  8
0-0
  6
JWW_DASHED1
 62
   120
370
     5
100
AcDbLine
 10
-679.6446731982949
 20
764.5650612251051
 30
0.0
 11
-89.64467319830959
 21
174.565061225119
 31
0.0
  0
LINE
  5
23E
330
1F
100
AcDbEntity
  8
0-0
  6
JWW_DASHED1
 62
   120
370
     5
100
AcDbLine
 10
-679.6446731983119
 20
774.464556160283
 30
0.0
 11
-89.64467319830533
 21
184.4645561602765
 31
0.0
  0
LINE
  5
23F
330
1F
100
AcDbEntity
  8
0-0
  6
JWW_DASHED1
 62
   120
370
     5
100
AcDbLine
 10
-679.6446731983042
 20
784.3640510954917
 30
0.0
 11
-89.64467319831385
 21
194.3640510955014
 31
0.0
  0
LINE
  5
240
330
1F
100
AcDbEntity
  8
0-0
  6
JWW_DASHED1
 62
   120
370
     5
100
AcDbLine
 10
-679.6446731982974
 20
794.2635460307013
 30
0.0
 11
-89.64467319831215
 21
204.263546030716
 31
0.0
  0
LINE
  5
241
330
1F
100
AcDbEntity
  8
0-0
  6
JWW_DASHED1
 62
   120
370
     5
100
AcDbLine
 10
-679.6446731983144
 20
804.1630409658801
 30
0.0
 11
-89.64467319830788
 21
214.1630409658735
 31
0.0
  0
LINE
  5
242
330
1F
100
AcDbEntity
  8
0-0
  6
JWW_DASHED1
 62
   120
370
     5
100
AcDbLine
 10
-679.6446731983067
 20
814.0625359010887
 30
0.0
 11
-89.64467319831556
 21
224.0625359010984
 31
0.0
  0
LINE
  5
243
330
1F
100
AcDbEntity
  8
0-0
  6
JWW_DASHED1
 62
   120
370
     5
100
AcDbLine
 10
-679.6446731982983
 20
823.9620308362975
 30
0.0
 11
-89.64467319830703
 21
233.9620308363054
 31
0.0
  0
LINE
  5
244
330
1F
100
AcDbEntity
  8
0-0
  6
JWW_DASHED1
 62
   120
370
     5
100
AcDbLine
 10
-679.6446731983169
 20
833.8615257714771
 30
0.0
 11
-89.64467319831044
 21
243.8615257714714
 31
0.0
  0
LINE
  5
245
330
1F
100
AcDbEntity
  8
0-0
  6
JWW_DASHED1
 62
   120
370
     5
100
AcDbLine
 10
-679.6446731983085
 20
843.7610207066849
 30
0.0
 11
-89.64467319831897
 21
253.7610207066955
 31
0.0
  0
LINE
  5
246
330
1F
100
AcDbEntity
  8
0-0
  6
JWW_DASHED1
 62
   120
370
     5
100
AcDbLine
 10
-679.6446731983008
 20
853.6605156418944
 30
0.0
 11
-89.64467319831044
 21
263.6605156419024
 31
0.0
  0
LINE
  5
247
330
1F
100
AcDbEntity
  8
0-0
  6
JWW_DASHED1
 62
   120
370
     5
100
AcDbLine
 10
-679.6446731983042
 20
863.5600105770588
 30
0.0
 11
-89.644673198313
 21
273.5600105770676
 31
0.0
  0
LINE
  5
248
330
1F
100
AcDbEntity
  8
0-0
  6
JWW_DASHED1
 62
   120
370
     5
100
AcDbLine
 10
-679.644673198311
 20
873.459505512282
 30
0.0
 11
-89.64467319830533
 21
283.4595055122763
 31
0.0
  0
LINE
  5
249
330
1F
100
AcDbEntity
  8
0-0
  6
JWW_DASHED1
 62
   120
370
     5
100
AcDbLine
 10
-679.6446731983033
 20
883.3590004474916
 30
0.0
 11
-89.64467319831215
 21
293.3590004475003
 31
0.0
  0
LINE
  5
24A
330
1F
100
AcDbEntity
  8
0-0
  6
JWW_DASHED1
 62
   120
370
     5
100
AcDbLine
 10
-679.6446731982905
 20
893.2584953826405
 30
0.0
 11
-89.64467319830533
 21
303.2584953826553
 31
0.0
  0
LINE
  5
24B
330
1F
100
AcDbEntity
  8
0-0
  6
JWW_DASHED1
 62
   120
370
     5
100
AcDbLine
 10
-679.6446731983135
 20
903.157990317879
 30
0.0
 11
-89.64467319830703
 21
313.1579903178725
 31
0.0
  0
LINE
  5
24C
330
1F
100
AcDbEntity
  8
0-0
  6
JWW_DASHED1
 62
   120
370
     5
100
AcDbLine
 10
-679.6446731983059
 20
913.0574852530877
 30
0.0
 11
-89.64467319831556
 21
323.0574852530974
 31
0.0
  0
LINE
  5
24D
330
1F
100
AcDbEntity
  8
0-0
  6
JWW_DASHED1
 62
   120
370
     5
100
AcDbLine
 10
-679.644673198293
 20
922.9569801882376
 30
0.0
 11
-89.64467319830788
 21
332.9569801882515
 31
0.0
  0
LINE
  5
24E
330
1F
100
AcDbEntity
  8
0-0
  6
JWW_DASHED1
 62
   120
370
     5
100
AcDbLine
 10
-679.6446731983161
 20
932.8564751234761
 30
0.0
 11
-89.64467319830959
 21
342.8564751234695
 31
0.0
  0
LINE
  5
24F
330
1F
100
AcDbEntity
  8
0-0
  6
JWW_DASHED1
 62
   120
370
     5
100
AcDbLine
 10
-679.6446731983085
 20
942.7559700586847
 30
0.0
 11
-89.64467319831726
 21
352.7559700586944
 31
0.0
  0
LINE
  5
250
330
1F
100
AcDbEntity
  8
0-0
  6
JWW_DASHED1
 62
   120
370
     5
100
AcDbLine
 10
-679.6446731982957
 20
952.6554649938346
 30
0.0
 11
-89.64467319830959
 21
362.6554649938477
 31
0.0
  0
LINE
  5
251
330
1F
100
AcDbEntity
  8
0-0
  6
JWW_DASHED1
 62
   120
370
     5
100
AcDbLine
 10
-679.6446731983033
 20
962.5549599290578
 30
0.0
 11
-89.64467319831215
 21
372.5549599290674
 31
0.0
  0
LINE
  5
252
330
1F
100
AcDbEntity
  8
0-0
  6
JWW_DASHED1
 62
   120
370
     5
100
AcDbLine
 10
-679.6446731983101
 20
972.4544548642809
 30
0.0
 11
-89.64467319832067
 21
382.4544548642915
 31
0.0
  0
LINE
  5
253
330
1F
100
AcDbEntity
  8
0-0
  6
JWW_DASHED1
 62
   120
370
     5
100
AcDbLine
 10
-679.6230522505925
 20
982.3323288517252
 30
0.0
 11
-89.64467319830703
 21
392.3539497994404
 31
0.0
  0
LINE
  5
254
330
1F
100
AcDbEntity
  8
0-0
  6
JWW_DASHED1
 62
   120
370
     5
100
AcDbLine
 10
-669.7235573153685
 20
982.3323288517174
 30
0.0
 11
-89.64467319831556
 21
402.2534447346645
 31
0.0
  0
LINE
  5
255
330
1F
100
AcDbEntity
  8
0-0
  6
JWW_DASHED1
 62
   120
370
     5
100
AcDbLine
 10
-659.8240623801445
 20
982.3323288517106
 30
0.0
 11
-89.64467319830703
 21
412.1529396698714
 31
0.0
  0
LINE
  5
256
330
1F
100
AcDbEntity
  8
0-0
  6
JWW_DASHED1
 62
   120
370
     5
100
AcDbLine
 10
-649.9245674449946
 20
982.3323288517225
 30
0.0
 11
-89.64467319831044
 21
422.0524346050375
 31
0.0
  0
LINE
  5
257
330
1F
100
AcDbEntity
  8
0-0
  6
JWW_DASHED1
 62
   120
370
     5
100
AcDbLine
 10
-640.0250725097868
 20
982.3323288517303
 30
0.0
 11
-89.64467319830618
 21
431.9519295402496
 31
0.0
  0
LINE
  5
258
330
1F
100
AcDbEntity
  8
0-0
  6
JWW_DASHED1
 62
   120
370
     5
100
AcDbLine
 10
-630.1255775745474
 20
982.3323288517072
 30
0.0
 11
-89.64467319830874
 21
441.8514244754685
 31
0.0
  0
LINE
  5
259
330
1F
100
AcDbEntity
  8
0-0
  6
JWW_DASHED1
 62
   120
370
     5
100
AcDbLine
 10
-620.2260826393976
 20
982.3323288517191
 30
0.0
 11
-89.64467319831215
 21
451.7509194106345
 31
0.0
  0
LINE
  5
25A
330
1F
100
AcDbEntity
  8
0-0
  6
JWW_DASHED1
 62
   120
370
     5
100
AcDbLine
 10
-610.3265877041889
 20
982.3323288517269
 30
0.0
 11
-89.64467319830874
 21
461.6504143458467
 31
0.0
  0
LINE
  5
25B
330
1F
100
AcDbEntity
  8
0-0
  6
JWW_DASHED1
 62
   120
370
     5
100
AcDbLine
 10
-600.4270927690101
 20
982.3323288517098
 30
0.0
 11
-89.64467319830703
 21
471.5499092810068
 31
0.0
  0
LINE
  5
25C
330
1F
100
AcDbEntity
  8
0-0
  6
JWW_DASHED1
 62
   120
370
     5
100
AcDbLine
 10
-590.5275978337988
 20
982.3323288517157
 30
0.0
 11
-89.6446731983147
 21
481.4494042162307
 31
0.0
  0
LINE
  5
25D
330
1F
100
AcDbEntity
  8
0-0
  6
JWW_DASHED1
 62
   120
370
     5
100
AcDbLine
 10
-580.628102898591
 20
982.3323288517242
 30
0.0
 11
-89.64467319831044
 21
491.3488991514437
 31
0.0
  0
LINE
  5
25E
330
1F
100
AcDbEntity
  8
0-0
  6
JWW_DASHED1
 62
   120
370
     5
100
AcDbLine
 10
-570.728607963413
 20
982.3323288517081
 30
0.0
 11
-89.64467319830959
 21
501.2483940866038
 31
0.0
  0
LINE
  5
25F
330
1F
100
AcDbEntity
  8
0-0
  6
JWW_DASHED1
 62
   120
370
     5
100
AcDbLine
 10
-560.8291130282018
 20
982.3323288517132
 30
0.0
 11
-89.64467319831641
 21
511.1478890218269
 31
0.0
  0
LINE
  5
260
330
1F
100
AcDbEntity
  8
0-0
  6
JWW_DASHED1
 62
   120
370
     5
100
AcDbLine
 10
-550.9296180929939
 20
982.3323288517208
 30
0.0
 11
-89.64467319830874
 21
521.0473839570365
 31
0.0
  0
LINE
  5
261
330
1F
100
AcDbEntity
  8
0-0
  6
JWW_DASHED1
 62
   120
370
     5
100
AcDbLine
 10
-541.030123157816
 20
982.3323288517055
 30
0.0
 11
-89.64467319831215
 21
530.9468788922009
 31
0.0
  0
LINE
  5
262
330
1F
100
AcDbEntity
  8
0-0
  6
JWW_DASHED1
 62
   120
370
     5
100
AcDbLine
 10
-531.1306282226047
 20
982.3323288517106
 30
0.0
 11
-89.64467319831982
 21
540.8463738274248
 31
0.0
  0
LINE
  5
263
330
1F
100
AcDbEntity
  8
0-0
  6
JWW_DASHED1
 62
   120
370
     5
100
AcDbLine
 10
-521.231133287396
 20
982.3323288517174
 30
0.0
 11
-89.64467319831215
 21
550.7458687626336
 31
0.0
  0
LINE
  5
264
330
1F
100
AcDbEntity
  8
0-0
  6
JWW_DASHED1
 62
   120
370
     5
100
AcDbLine
 10
-511.3316383522309
 20
982.3323288517149
 30
0.0
 11
-89.6446731983147
 21
560.6453636977978
 31
0.0
  0
LINE
  5
265
330
1F
100
AcDbEntity
  8
0-0
  6
JWW_DASHED1
 62
   120
370
     5
100
AcDbLine
 10
-501.4321434170111
 20
982.3323288517115
 30
0.0
 11
-89.64467319830618
 21
570.5448586330057
 31
0.0
  0
LINE
  5
266
330
1F
100
AcDbEntity
  8
0-0
  6
JWW_DASHED1
 62
   120
370
     5
100
AcDbLine
 10
-491.532648481799
 20
982.3323288517149
 30
0.0
 11
-89.64467319831385
 21
580.4443535682306
 31
0.0
  0
LINE
  5
267
330
1F
100
AcDbEntity
  8
0-0
  6
JWW_DASHED1
 62
   120
370
     5
100
AcDbLine
 10
-481.6331535466492
 20
982.3323288517269
 30
0.0
 11
-89.64467319830447
 21
590.3438485033821
 31
0.0
  0
LINE
  5
268
330
1F
100
AcDbEntity
  8
0-0
  6
JWW_DASHED1
 62
   120
370
     5
100
AcDbLine
 10
-471.7336586114158
 20
982.3323288517098
 30
0.0
 11
-89.64467319830874
 21
600.2433434386028
 31
0.0
  0
LINE
  5
269
330
1F
100
AcDbEntity
  8
0-0
  6
JWW_DASHED1
 62
   120
370
     5
100
AcDbLine
 10
-461.8341636762011
 20
982.3323288517123
 30
0.0
 11
-89.64467319831726
 21
610.1428383738277
 31
0.0
  0
LINE
  5
26A
330
1F
100
AcDbEntity
  8
0-0
  6
JWW_DASHED1
 62
   120
370
     5
100
AcDbLine
 10
-451.9346687410513
 20
982.3323288517242
 30
0.0
 11
-89.64467319830703
 21
620.0423333089792
 31
0.0
  0
LINE
  5
26B
330
1F
100
AcDbEntity
  8
0-0
  6
JWW_DASHED1
 62
   120
370
     5
100
AcDbLine
 10
-442.0351738058187
 20
982.3323288517072
 30
0.0
 11
-89.6446731983113
 21
629.9418282441998
 31
0.0
  0
LINE
  5
26C
330
1F
100
AcDbEntity
  8
0-0
  6
JWW_DASHED1
 62
   120
370
     5
100
AcDbLine
 10
-432.1356788706041
 20
982.3323288517089
 30
0.0
 11
-89.64467319831812
 21
639.841323179423
 31
0.0
  0
LINE
  5
26D
330
1F
100
AcDbEntity
  8
0-0
  6
JWW_DASHED1
 62
   120
370
     5
100
AcDbLine
 10
-422.2361839354542
 20
982.3323288517208
 30
0.0
 11
-89.64467319830874
 21
649.7408181145762
 31
0.0
  0
LINE
  5
26E
330
1F
100
AcDbEntity
  8
0-0
  6
JWW_DASHED1
 62
   120
370
     5
100
AcDbLine
 10
-412.3366890002302
 20
982.3323288517132
 30
0.0
 11
-89.64467319831385
 21
659.6403130497969
 31
0.0
  0
LINE
  5
26F
330
1F
100
AcDbEntity
  8
0-0
  6
JWW_DASHED1
 62
   120
370
     5
100
AcDbLine
 10
-402.4371940650062
 20
982.3323288517055
 30
0.0
 11
-89.64467319832153
 21
669.5398079850208
 31
0.0
  0
LINE
  5
270
330
1F
100
AcDbEntity
  8
0-0
  6
JWW_DASHED1
 62
   120
370
     5
100
AcDbLine
 10
-392.5376991298563
 20
982.3323288517174
 30
0.0
 11
-89.64467319830874
 21
679.4393029201699
 31
0.0
  0
LINE
  5
271
330
1F
100
AcDbEntity
  8
0-0
  6
JWW_DASHED1
 62
   120
370
     5
100
AcDbLine
 10
-382.6382041946485
 20
982.332328851726
 30
0.0
 11
-89.64467319830362
 21
689.3387978553802
 31
0.0
  0
LINE
  5
272
330
1F
100
AcDbEntity
  8
0-0
  6
JWW_DASHED1
 62
   120
370
     5
100
AcDbLine
 10
-372.7387092594168
 20
982.3323288517106
 30
0.0
 11
-89.64467319830788
 21
699.2382927906017
 31
0.0
  0
LINE
  5
273
330
1F
100
AcDbEntity
  8
0-0
  6
JWW_DASHED1
 62
   120
370
     5
100
AcDbLine
 10
-362.8392143242593
 20
982.3323288517149
 30
0.0
 11
-89.64467319831215
 21
709.1377877257678
 31
0.0
  0
LINE
  5
274
330
1F
100
AcDbEntity
  8
0-0
  6
JWW_DASHED1
 62
   120
370
     5
100
AcDbLine
 10
-352.9397193890506
 20
982.3323288517234
 30
0.0
 11
-89.64467319830533
 21
719.0372826609773
 31
0.0
  0
LINE
  5
275
330
1F
100
AcDbEntity
  8
0-0
  6
JWW_DASHED1
 62
   120
370
     5
100
AcDbLine
 10
-343.0402244538786
 20
982.3323288517132
 30
0.0
 11
-89.64467319830618
 21
728.9367775961399
 31
0.0
  0
LINE
  5
276
330
1F
100
AcDbEntity
  8
0-0
  6
JWW_DASHED1
 62
   120
370
     5
100
AcDbLine
 10
-333.1407295186614
 20
982.3323288517123
 30
0.0
 11
-89.64467319831385
 21
738.836272531364
 31
0.0
  0
LINE
  5
277
330
1F
100
AcDbEntity
  8
0-0
  6
JWW_DASHED1
 62
   120
370
     5
100
AcDbLine
 10
-323.2412345834535
 20
982.33232885172
 30
0.0
 11
-89.64467319830703
 21
748.7357674665735
 31
0.0
  0
LINE
  5
278
330
1F
100
AcDbEntity
  8
0-0
  6
JWW_DASHED1
 62
   120
370
     5
100
AcDbLine
 10
-313.3417396482824
 20
982.3323288517106
 30
0.0
 11
-89.64467319830874
 21
758.635262401737
 31
0.0
  0
LINE
  5
279
330
1F
100
AcDbEntity
  8
0-0
  6
JWW_DASHED1
 62
   120
370
     5
100
AcDbLine
 10
-303.4422447130643
 20
982.3323288517089
 30
0.0
 11
-89.64467319831556
 21
768.5347573369602
 31
0.0
  0
LINE
  5
27A
330
1F
100
AcDbEntity
  8
0-0
  6
JWW_DASHED1
 62
   120
370
     5
100
AcDbLine
 10
-293.5427497778565
 20
982.3323288517174
 30
0.0
 11
-89.64467319830959
 21
778.4342522721705
 31
0.0
  0
LINE
  5
27B
330
1F
100
AcDbEntity
  8
0-0
  6
JWW_DASHED1
 62
   120
370
     5
100
AcDbLine
 10
-283.6432548426853
 20
982.3323288517081
 30
0.0
 11
-89.6446731983113
 21
788.333747207334
 31
0.0
  0
LINE
  5
27C
330
1F
100
AcDbEntity
  8
0-0
  6
JWW_DASHED1
 62
   120
370
     5
100
AcDbLine
 10
-273.7437599074664
 20
982.3323288517055
 30
0.0
 11
-89.64467319831897
 21
798.2332421425572
 31
0.0
  0
LINE
  5
27D
330
1F
100
AcDbEntity
  8
0-0
  6
JWW_DASHED1
 62
   120
370
     5
100
AcDbLine
 10
-263.8442649722577
 20
982.3323288517132
 30
0.0
 11
-89.64467319831044
 21
808.1327370777659
 31
0.0
  0
LINE
  5
27E
330
1F
100
AcDbEntity
  8
0-0
  6
JWW_DASHED1
 62
   120
370
     5
100
AcDbLine
 10
-253.9447700370926
 20
982.3323288517098
 30
0.0
 11
-89.64467319831385
 21
818.0322320129311
 31
0.0
  0
LINE
  5
27F
330
1F
100
AcDbEntity
  8
0-0
  6
JWW_DASHED1
 62
   120
370
     5
100
AcDbLine
 10
-244.0452751018685
 20
982.3323288517021
 30
0.0
 11
-89.64467319832067
 21
827.9317269481543
 31
0.0
  0
LINE
  5
280
330
1F
100
AcDbEntity
  8
0-0
  6
JWW_DASHED1
 62
   120
370
     5
100
AcDbLine
 10
-234.1457801666607
 20
982.3323288517106
 30
0.0
 11
-89.644673198313
 21
837.8312218833629
 31
0.0
  0
LINE
  5
281
330
1F
100
AcDbEntity
  8
0-0
  6
JWW_DASHED1
 62
   120
370
     5
100
AcDbLine
 10
-224.2462852314955
 20
982.3323288517072
 30
0.0
 11
-89.64467319831641
 21
847.7307168185281
 31
0.0
  0
LINE
  5
282
330
1F
100
AcDbEntity
  8
0-0
  6
JWW_DASHED1
 62
   120
370
     5
100
AcDbLine
 10
-214.3467902962834
 20
982.3323288517115
 30
0.0
 11
-89.64467319830788
 21
857.6302117537359
 31
0.0
  0
LINE
  5
283
330
1F
100
AcDbEntity
  8
0-0
  6
JWW_DASHED1
 62
   120
370
     5
100
AcDbLine
 10
-204.4472953610619
 20
982.3323288517072
 30
0.0
 11
-89.64467319831556
 21
867.52970668896
 31
0.0
  0
LINE
  5
284
330
1F
100
AcDbEntity
  8
0-0
  6
JWW_DASHED1
 62
   120
370
     5
100
AcDbLine
 10
-194.5478004259138
 20
982.33232885172
 30
0.0
 11
-89.64467319830362
 21
877.4292016241099
 31
0.0
  0
LINE
  5
285
330
1F
100
AcDbEntity
  8
0-0
  6
JWW_DASHED1
 62
   120
370
     5
100
AcDbLine
 10
-184.6483054906872
 20
982.3323288517098
 30
0.0
 11
-89.64467319831044
 21
887.328696559333
 31
0.0
  0
LINE
  5
286
330
1F
100
AcDbEntity
  8
0-0
  6
JWW_DASHED1
 62
   120
370
     5
100
AcDbLine
 10
-174.7488105554658
 20
982.3323288517047
 30
0.0
 11
-89.64467319831812
 21
897.228191494557
 31
0.0
  0
LINE
  5
287
330
1F
100
AcDbEntity
  8
0-0
  6
JWW_DASHED1
 62
   120
370
     5
100
AcDbLine
 10
-164.8493156203159
 20
982.3323288517174
 30
0.0
 11
-89.64467319830618
 21
907.1276864297068
 31
0.0
  0
LINE
  5
288
330
1F
100
AcDbEntity
  8
0-0
  6
JWW_DASHED1
 62
   120
370
     5
100
AcDbLine
 10
-154.949820685091
 20
982.3323288517081
 30
0.0
 11
-89.644673198313
 21
917.02718136493
 31
0.0
  0
LINE
  5
289
330
1F
100
AcDbEntity
  8
0-0
  6
JWW_DASHED1
 62
   120
370
     5
100
AcDbLine
 10
-145.0503257498679
 20
982.3323288517013
 30
0.0
 11
-89.64467319832067
 21
926.9266763001532
 31
0.0
  0
LINE
  5
28A
330
1F
100
AcDbEntity
  8
0-0
  6
JWW_DASHED1
 62
   120
370
     5
100
AcDbLine
 10
-135.150830814718
 20
982.3323288517132
 30
0.0
 11
-89.64467319830874
 21
936.826171235304
 31
0.0
  0
LINE
  5
28B
330
1F
100
AcDbEntity
  8
0-0
  6
JWW_DASHED1
 62
   120
370
     5
100
AcDbLine
 10
-125.251335879494
 20
982.3323288517055
 30
0.0
 11
-89.64467319831556
 21
946.7256661705271
 31
0.0
  0
LINE
  5
28C
330
1F
100
AcDbEntity
  8
0-0
  6
JWW_DASHED1
 62
   120
370
     5
100
AcDbLine
 10
-115.3518409443288
 20
982.3323288517021
 30
0.0
 11
-89.64467319831897
 21
956.6251611056923
 31
0.0
  0
LINE
  5
28D
330
1F
100
AcDbEntity
  8
0-0
  6
JWW_DASHED1
 62
   120
370
     5
100
AcDbLine
 10
-105.452346009121
 20
982.3323288517106
 30
0.0
 11
-89.64467319831044
 21
966.5246560409001
 31
0.0
  0
LINE
  5
28E
330
1F
100
AcDbEntity
  8
0-0
  6
JWW_DASHED1
 62
   120
370
     5
100
AcDbLine
 10
-95.55285107391228
 20
982.3323288517183
 30
0.0
 11
-89.64467319830192
 21
976.4241509761088
 31
0.0
  0
LINE
  5
28F
330
1F
100
AcDbEntity
  8
0-0
  6
JWW_DASHED1
 62
   120
370
     5
100
AcDbLine
 10
130.3553268017026
 20
-908.4495828232914
 30
0.0
 11
137.5734151266843
 21
-915.6676711482731
 31
0.0
  0
LINE
  5
290
330
1F
100
AcDbEntity
  8
0-0
  6
JWW_DASHED1
 62
   120
370
     5
100
AcDbLine
 10
130.3553268016958
 20
-898.5500878880682
 30
0.0
 11
147.4729100619084
 21
-915.6676711482817
 31
0.0
  0
LINE
  5
291
330
1F
100
AcDbEntity
  8
0-0
  6
JWW_DASHED1
 62
   120
370
     5
100
AcDbLine
 10
130.3553268017043
 20
-888.6505929528605
 30
0.0
 11
157.3724049971162
 21
-915.6676711482727
 31
0.0
  0
LINE
  5
292
330
1F
100
AcDbEntity
  8
0-0
  6
JWW_DASHED1
 62
   120
370
     5
100
AcDbLine
 10
130.3553268017001
 20
-878.7510980176944
 30
0.0
 11
167.2718999322814
 21
-915.6676711482766
 31
0.0
  0
LINE
  5
293
330
1F
100
AcDbEntity
  8
0-0
  6
JWW_DASHED1
 62
   120
370
     5
100
AcDbLine
 10
130.3553268017086
 20
-868.8516030824866
 30
0.0
 11
177.1713948674909
 21
-915.6676711482685
 31
0.0
  0
LINE
  5
294
330
1F
100
AcDbEntity
  8
0-0
  6
JWW_DASHED1
 62
   120
370
     5
100
AcDbLine
 10
130.3553268017018
 20
-858.9521081472634
 30
0.0
 11
187.0708898027149
 21
-915.6676711482766
 31
0.0
  0
LINE
  5
295
330
1F
100
AcDbEntity
  8
0-0
  6
JWW_DASHED1
 62
   120
370
     5
100
AcDbLine
 10
130.3553268016975
 20
-849.0526132120978
 30
0.0
 11
196.9703847378793
 21
-915.6676711482795
 31
0.0
  0
LINE
  5
296
330
1F
100
AcDbEntity
  8
0-0
  6
JWW_DASHED1
 62
   120
370
     5
100
AcDbLine
 10
130.355326801706
 20
-839.1531182768895
 30
0.0
 11
206.869879673088
 21
-915.6676711482714
 31
0.0
  0
LINE
  5
297
330
1F
100
AcDbEntity
  8
0-0
  6
JWW_DASHED1
 62
   120
370
     5
100
AcDbLine
 10
130.3553268016992
 20
-829.2536233416663
 30
0.0
 11
216.769374608312
 21
-915.6676711482792
 31
0.0
  0
LINE
  5
298
330
1F
100
AcDbEntity
  8
0-0
  6
JWW_DASHED1
 62
   120
370
     5
100
AcDbLine
 10
130.3553268016958
 20
-819.3541284065008
 30
0.0
 11
226.6688695434755
 21
-915.6676711482804
 31
0.0
  0
LINE
  5
299
330
1F
100
AcDbEntity
  8
0-0
  6
JWW_DASHED1
 62
   120
370
     5
100
AcDbLine
 10
130.3553268017035
 20
-809.4546334712925
 30
0.0
 11
236.5683644786859
 21
-915.6676711482748
 31
0.0
  0
LINE
  5
29A
330
1F
100
AcDbEntity
  8
0-0
  6
JWW_DASHED1
 62
   120
370
     5
100
AcDbLine
 10
130.3553268017018
 20
-799.555138536129
 30
0.0
 11
246.4678594138502
 21
-915.6676711482778
 31
0.0
  0
LINE
  5
29B
330
1F
100
AcDbEntity
  8
0-0
  6
JWW_DASHED1
 62
   120
370
     5
100
AcDbLine
 10
130.3553268016924
 20
-789.6556436009037
 30
0.0
 11
256.3673543490717
 21
-915.6676711482821
 31
0.0
  0
LINE
  5
29C
330
1F
100
AcDbEntity
  8
0-0
  6
JWW_DASHED1
 62
   120
370
     5
100
AcDbLine
 10
130.3553268017009
 20
-779.7561486656955
 30
0.0
 11
266.2668492842829
 21
-915.6676711482778
 31
0.0
  0
LINE
  5
29D
330
1F
100
AcDbEntity
  8
0-0
  6
JWW_DASHED1
 62
   120
370
     5
100
AcDbLine
 10
130.3553268016992
 20
-769.8566537305319
 30
0.0
 11
276.1663442194481
 21
-915.6676711482812
 31
0.0
  0
LINE
  5
29E
330
1F
100
AcDbEntity
  8
0-0
  6
JWW_DASHED1
 62
   120
370
     5
100
AcDbLine
 10
130.3553268016907
 20
-759.9571587953075
 30
0.0
 11
286.0658391546679
 21
-915.6676711482851
 31
0.0
  0
LINE
  5
29F
330
1F
100
AcDbEntity
  8
0-0
  6
JWW_DASHED1
 62
   120
370
     5
100
AcDbLine
 10
130.3553268016984
 20
-750.0576638600984
 30
0.0
 11
295.9653340898808
 21
-915.6676711482804
 31
0.0
  0
LINE
  5
2A0
330
1F
100
AcDbEntity
  8
0-0
  6
JWW_DASHED1
 62
   120
370
     5
100
AcDbLine
 10
130.3553268016967
 20
-740.1581689249349
 30
0.0
 11
305.864829025046
 21
-915.6676711482842
 31
0.0
  0
LINE
  5
2A1
330
1F
100
AcDbEntity
  8
0-0
  6
JWW_DASHED1
 62
   120
370
     5
100
AcDbLine
 10
130.3553268017043
 20
-730.2586739897258
 30
0.0
 11
315.7643239602538
 21
-915.6676711482761
 31
0.0
  0
LINE
  5
2A2
330
1F
100
AcDbEntity
  8
0-0
  6
JWW_DASHED1
 62
   120
370
     5
100
AcDbLine
 10
130.3553268016958
 20
-720.3591790545022
 30
0.0
 11
325.6638188954778
 21
-915.6676711482838
 31
0.0
  0
LINE
  5
2A3
330
1F
100
AcDbEntity
  8
0-0
  6
JWW_DASHED1
 62
   120
370
     5
100
AcDbLine
 10
130.3553268016958
 20
-710.4596841193392
 30
0.0
 11
335.5633138306422
 21
-915.6676711482868
 31
0.0
  0
LINE
  5
2A4
330
1F
100
AcDbEntity
  8
0-0
  6
JWW_DASHED1
 62
   120
370
     5
100
AcDbLine
 10
130.3553268017009
 20
-700.5601891841287
 30
0.0
 11
345.4628087658517
 21
-915.6676711482792
 31
0.0
  0
LINE
  5
2A5
330
1F
100
AcDbEntity
  8
0-0
  6
JWW_DASHED1
 62
   120
370
     5
100
AcDbLine
 10
130.3553268016941
 20
-690.6606942489052
 30
0.0
 11
355.3623037010698
 21
-915.6676711482808
 31
0.0
  0
LINE
  5
2A6
330
1F
100
AcDbEntity
  8
0-0
  6
JWW_DASHED1
 62
   120
370
     5
100
AcDbLine
 10
130.355326801706
 20
-680.7611993137552
 30
0.0
 11
365.2617986362256
 21
-915.6676711482748
 31
0.0
  0
LINE
  5
2A7
330
1F
100
AcDbEntity
  8
0-0
  6
JWW_DASHED1
 62
   120
370
     5
100
AcDbLine
 10
130.3553268017009
 20
-670.8617043785339
 30
0.0
 11
375.1612935714496
 21
-915.6676711482826
 31
0.0
  0
LINE
  5
2A8
330
1F
100
AcDbEntity
  8
0-0
  6
JWW_DASHED1
 62
   120
370
     5
100
AcDbLine
 10
130.3553268016907
 20
-660.9622094433081
 30
0.0
 11
385.0607885066668
 21
-915.6676711482834
 31
0.0
  0
LINE
  5
2A9
330
1F
100
AcDbEntity
  8
0-0
  6
JWW_DASHED1
 62
   120
370
     5
100
AcDbLine
 10
130.3553268017043
 20
-651.0627145081587
 30
0.0
 11
394.9602834418226
 21
-915.6676711482778
 31
0.0
  0
LINE
  5
2AA
330
1F
100
AcDbEntity
  8
0-0
  6
JWW_DASHED1
 62
   120
370
     5
100
AcDbLine
 10
130.3553268016992
 20
-641.1632195729372
 30
0.0
 11
404.8597783770475
 21
-915.6676711482855
 31
0.0
  0
LINE
  5
2AB
330
1F
100
AcDbEntity
  8
0-0
  6
JWW_DASHED1
 62
   120
370
     5
100
AcDbLine
 10
130.355326801689
 20
-631.2637246377107
 30
0.0
 11
414.759273312263
 21
-915.6676711482855
 31
0.0
  0
LINE
  5
2AC
330
1F
100
AcDbEntity
  8
0-0
  6
JWW_DASHED1
 62
   120
370
     5
100
AcDbLine
 10
130.3553268017009
 20
-621.3642297025616
 30
0.0
 11
424.6587682474205
 21
-915.6676711482804
 31
0.0
  0
LINE
  5
2AD
330
1F
100
AcDbEntity
  8
0-0
  6
JWW_DASHED1
 62
   120
370
     5
100
AcDbLine
 10
130.3553268016958
 20
-611.4647347673401
 30
0.0
 11
434.5582631826437
 21
-915.667671148288
 31
0.0
  0
LINE
  5
2AE
330
1F
100
AcDbEntity
  8
0-0
  6
JWW_DASHED1
 62
   120
370
     5
100
AcDbLine
 10
130.3553268016907
 20
-601.5652398321729
 30
0.0
 11
444.4577581178012
 21
-915.6676711482834
 31
0.0
  0
LINE
  5
2AF
330
1F
100
AcDbEntity
  8
0-0
  6
JWW_DASHED1
 62
   120
370
     5
100
AcDbLine
 10
130.3553268016992
 20
-591.6657448969654
 30
0.0
 11
454.3572530530176
 21
-915.6676711482838
 31
0.0
  0
LINE
  5
2B0
330
1F
100
AcDbEntity
  8
0-0
  6
JWW_DASHED1
 62
   120
370
     5
100
AcDbLine
 10
130.3553268017069
 20
-581.7662499617563
 30
0.0
 11
464.2567479882254
 21
-915.6676711482748
 31
0.0
  0
LINE
  5
2B1
330
1F
100
AcDbEntity
  8
0-0
  6
JWW_DASHED1
 62
   120
370
     5
100
AcDbLine
 10
130.3553268016881
 20
-571.8667550265758
 30
0.0
 11
474.1562429233983
 21
-915.667671148286
 31
0.0
  0
LINE
  5
2B2
330
1F
100
AcDbEntity
  8
0-0
  6
JWW_DASHED1
 62
   120
370
     5
100
AcDbLine
 10
130.3553268016967
 20
-561.9672600913684
 30
0.0
 11
484.0557378586155
 21
-915.6676711482868
 31
0.0
  0
LINE
  5
2B3
330
1F
100
AcDbEntity
  8
0-0
  6
JWW_DASHED1
 62
   120
370
     5
100
AcDbLine
 10
130.3553268017043
 20
-552.0677651561593
 30
0.0
 11
493.9552327938242
 21
-915.6676711482787
 31
0.0
  0
LINE
  5
2B4
330
1F
100
AcDbEntity
  8
0-0
  6
JWW_DASHED1
 62
   120
370
     5
100
AcDbLine
 10
130.3553268017009
 20
-542.1682702209945
 30
0.0
 11
503.8547277289885
 21
-915.6676711482817
 31
0.0
  0
LINE
  5
2B5
330
1F
100
AcDbEntity
  8
0-0
  6
JWW_DASHED1
 62
   120
370
     5
100
AcDbLine
 10
130.3553268016941
 20
-532.2687752857713
 30
0.0
 11
513.754222664204
 21
-915.6676711482804
 31
0.0
  0
LINE
  5
2B6
330
1F
100
AcDbEntity
  8
0-0
  6
JWW_DASHED1
 62
   120
370
     5
100
AcDbLine
 10
130.3553268017026
 20
-522.3692803505627
 30
0.0
 11
523.6537175994221
 21
-915.6676711482821
 31
0.0
  0
LINE
  5
2B7
330
1F
100
AcDbEntity
  8
0-0
  6
JWW_DASHED1
 62
   120
370
     5
100
AcDbLine
 10
130.3553268017026
 20
-512.4697854154012
 30
0.0
 11
533.5532125345873
 21
-915.6676711482855
 31
0.0
  0
LINE
  5
2B8
330
1F
100
AcDbEntity
  8
0-0
  6
JWW_DASHED1
 62
   120
370
     5
100
AcDbLine
 10
130.3553268016907
 20
-502.5702904801734
 30
0.0
 11
543.4527074697994
 21
-915.6676711482817
 31
0.0
  0
LINE
  5
2B9
330
1F
100
AcDbEntity
  8
0-0
  6
JWW_DASHED1
 62
   120
370
     5
100
AcDbLine
 10
130.3553268016992
 20
-492.6707955449656
 30
0.0
 11
553.3522024050192
 21
-915.6676711482851
 31
0.0
  0
LINE
  5
2BA
330
1F
100
AcDbEntity
  8
0-0
  6
JWW_DASHED1
 62
   120
370
     5
100
AcDbLine
 10
130.3553268016992
 20
-482.7713006098043
 30
0.0
 11
563.2516973401835
 21
-915.667671148288
 31
0.0
  0
LINE
  5
2BB
330
1F
100
AcDbEntity
  8
0-0
  6
JWW_DASHED1
 62
   120
370
     5
100
AcDbLine
 10
130.355326801689
 20
-472.8718056745772
 30
0.0
 11
573.1511922753964
 21
-915.6676711482842
 31
0.0
  0
LINE
  5
2BC
330
1F
100
AcDbEntity
  8
0-0
  6
JWW_DASHED1
 62
   120
370
     5
100
AcDbLine
 10
130.3553268016975
 20
-462.9723107393686
 30
0.0
 11
583.0506872106162
 21
-915.6676711482876
 31
0.0
  0
LINE
  5
2BD
330
1F
100
AcDbEntity
  8
0-0
  6
JWW_DASHED1
 62
   120
370
     5
100
AcDbLine
 10
130.3553268016975
 20
-453.0728158042076
 30
0.0
 11
592.9501821457814
 21
-915.667671148291
 31
0.0
  0
LINE
  5
2BE
330
1F
100
AcDbEntity
  8
0-0
  6
JWW_DASHED1
 62
   120
370
     5
100
AcDbLine
 10
130.3553268017026
 20
-443.1733208689956
 30
0.0
 11
602.84967708099
 21
-915.6676711482834
 31
0.0
  0
LINE
  5
2BF
330
1F
100
AcDbEntity
  8
0-0
  6
JWW_DASHED1
 62
   120
370
     5
100
AcDbLine
 10
130.3553268016958
 20
-433.2738259337724
 30
0.0
 11
612.7491720162141
 21
-915.667671148291
 31
0.0
  0
LINE
  5
2C0
330
1F
100
AcDbEntity
  8
0-0
  6
JWW_DASHED1
 62
   120
370
     5
100
AcDbLine
 10
130.3553268017077
 20
-423.3743309986233
 30
0.0
 11
622.6486669513639
 21
-915.6676711482787
 31
0.0
  0
LINE
  5
2C1
330
1F
100
AcDbEntity
  8
0-0
  6
JWW_DASHED1
 62
   120
370
     5
100
AcDbLine
 10
130.3553268017043
 20
-413.4748360634028
 30
0.0
 11
632.5481618865871
 21
-915.6676711482863
 31
0.0
  0
LINE
  5
2C2
330
1F
100
AcDbEntity
  8
0-0
  6
JWW_DASHED1
 62
   120
370
     5
100
AcDbLine
 10
130.3553268016967
 20
-403.5753411282337
 30
0.0
 11
642.4476568217523
 21
-915.6676711482897
 31
0.0
  0
LINE
  5
2C3
330
1F
100
AcDbEntity
  8
0-0
  6
JWW_DASHED1
 62
   120
370
     5
100
AcDbLine
 10
130.3553268017043
 20
-393.6758461930254
 30
0.0
 11
652.3471517569601
 21
-915.6676711482812
 31
0.0
  0
LINE
  5
2C4
330
1F
100
AcDbEntity
  8
0-0
  6
JWW_DASHED1
 62
   120
370
     5
100
AcDbLine
 10
130.3553268017009
 20
-383.7763512578057
 30
0.0
 11
662.246646692185
 21
-915.6676711482897
 31
0.0
  0
LINE
  5
2C5
330
1F
100
AcDbEntity
  8
0-0
  6
JWW_DASHED1
 62
   120
370
     5
100
AcDbLine
 10
130.3553268016941
 20
-373.8768563226367
 30
0.0
 11
672.1461416273502
 21
-915.6676711482924
 31
0.0
  0
LINE
  5
2C6
330
1F
100
AcDbEntity
  8
0-0
  6
JWW_DASHED1
 62
   120
370
     5
100
AcDbLine
 10
130.3553268017026
 20
-363.9773613874293
 30
0.0
 11
682.0456365625589
 21
-915.6676711482851
 31
0.0
  0
LINE
  5
2C7
330
1F
100
AcDbEntity
  8
0-0
  6
JWW_DASHED1
 62
   120
370
     5
100
AcDbLine
 10
130.3553268016992
 20
-354.0778664522091
 30
0.0
 11
691.9451314977829
 21
-915.6676711482928
 31
0.0
  0
LINE
  5
2C8
330
1F
100
AcDbEntity
  8
0-0
  6
JWW_DASHED1
 62
   120
370
     5
100
AcDbLine
 10
130.3553268016915
 20
-344.1783715170396
 30
0.0
 11
701.8446264329327
 21
-915.6676711482808
 31
0.0
  0
LINE
  5
2C9
330
1F
100
AcDbEntity
  8
0-0
  6
JWW_DASHED1
 62
   120
370
     5
100
AcDbLine
 10
130.3553268017001
 20
-334.2788765818318
 30
0.0
 11
711.7441213681559
 21
-915.6676711482876
 31
0.0
  0
LINE
  5
2CA
330
1F
100
AcDbEntity
  8
0-0
  6
JWW_DASHED1
 62
   120
370
     5
100
AcDbLine
 10
130.3553268016975
 20
-324.3793816466129
 30
0.0
 11
720.3553268016827
 21
-914.3793816465985
 31
0.0
  0
LINE
  5
2CB
330
1F
100
AcDbEntity
  8
0-0
  6
JWW_DASHED1
 62
   120
370
     5
100
AcDbLine
 10
130.355326801689
 20
-314.4798867114426
 30
0.0
 11
720.3553268016964
 21
-904.4798867114496
 31
0.0
  0
LINE
  5
2CC
330
1F
100
AcDbEntity
  8
0-0
  6
JWW_DASHED1
 62
   120
370
     5
100
AcDbLine
 10
130.3553268016975
 20
-304.5803917762348
 30
0.0
 11
720.3553268016879
 21
-894.5803917762255
 31
0.0
  0
LINE
  5
2CD
330
1F
100
AcDbEntity
  8
0-0
  6
JWW_DASHED1
 62
   120
370
     5
100
AcDbLine
 10
130.355326801706
 20
-294.6808968410265
 30
0.0
 11
720.3553268016964
 21
-884.6808968410173
 31
0.0
  0
LINE
  5
2CE
330
1F
100
AcDbEntity
  8
0-0
  6
JWW_DASHED1
 62
   120
370
     5
100
AcDbLine
 10
130.3553268016864
 20
-284.7814019058455
 30
0.0
 11
720.355326801693
 21
-874.7814019058525
 31
0.0
  0
LINE
  5
2CF
330
1F
100
AcDbEntity
  8
0-0
  6
JWW_DASHED1
 62
   120
370
     5
100
AcDbLine
 10
130.355326801695
 20
-274.8819069706377
 30
0.0
 11
720.3553268016861
 21
-864.8819069706285
 31
0.0
  0
LINE
  5
2D0
330
1F
100
AcDbEntity
  8
0-0
  6
JWW_DASHED1
 62
   120
370
     5
100
AcDbLine
 10
130.3553268017026
 20
-264.9824120354294
 30
0.0
 11
720.355326801693
 21
-854.9824120354202
 31
0.0
  0
LINE
  5
2D1
330
1F
100
AcDbEntity
  8
0-0
  6
JWW_DASHED1
 62
   120
370
     5
100
AcDbLine
 10
130.3553268016992
 20
-255.0829171002643
 30
0.0
 11
720.3553268016913
 21
-845.0829171002555
 31
0.0
  0
LINE
  5
2D2
330
1F
100
AcDbEntity
  8
0-0
  6
JWW_DASHED1
 62
   120
370
     5
100
AcDbLine
 10
130.3553268016924
 20
-245.1834221650407
 30
0.0
 11
720.3553268016998
 21
-835.1834221650477
 31
0.0
  0
LINE
  5
2D3
330
1F
100
AcDbEntity
  8
0-0
  6
JWW_DASHED1
 62
   120
370
     5
100
AcDbLine
 10
130.3553268017009
 20
-235.2839272298333
 30
0.0
 11
720.3553268016913
 21
-825.2839272298228
 31
0.0
  0
LINE
  5
2D4
330
1F
100
AcDbEntity
  8
0-0
  6
JWW_DASHED1
 62
   120
370
     5
100
AcDbLine
 10
130.3553268017026
 20
-225.3844322946732
 30
0.0
 11
720.3553268016896
 21
-815.3844322946593
 31
0.0
  0
LINE
  5
2D5
330
1F
100
AcDbEntity
  8
0-0
  6
JWW_DASHED1
 62
   120
370
     5
100
AcDbLine
 10
130.3553268016898
 20
-215.4849373594436
 30
0.0
 11
720.3553268016964
 21
-805.4849373594506
 31
0.0
  0
LINE
  5
2D6
330
1F
100
AcDbEntity
  8
0-0
  6
JWW_DASHED1
 62
   120
370
     5
100
AcDbLine
 10
130.3553268016984
 20
-205.5854424242362
 30
0.0
 11
720.3553268016896
 21
-795.5854424242266
 31
0.0
  0
LINE
  5
2D7
330
1F
100
AcDbEntity
  8
0-0
  6
JWW_DASHED1
 62
   120
370
     5
100
AcDbLine
 10
130.3553268017009
 20
-195.6859474890766
 30
0.0
 11
720.3553268016861
 21
-785.6859474890622
 31
0.0
  0
LINE
  5
2D8
330
1F
100
AcDbEntity
  8
0-0
  6
JWW_DASHED1
 62
   120
370
     5
100
AcDbLine
 10
130.3553268016873
 20
-185.7864525538466
 30
0.0
 11
720.3553268016947
 21
-775.7864525538536
 31
0.0
  0
LINE
  5
2D9
330
1F
100
AcDbEntity
  8
0-0
  6
JWW_DASHED1
 62
   120
370
     5
100
AcDbLine
 10
130.3553268016958
 20
-175.8869576186392
 30
0.0
 11
720.3553268016861
 21
-765.8869576186295
 31
0.0
  0
LINE
  5
2DA
330
1F
100
AcDbEntity
  8
0-0
  6
JWW_DASHED1
 62
   120
370
     5
100
AcDbLine
 10
130.3553268016984
 20
-165.9874626834795
 30
0.0
 11
720.3553268016844
 21
-755.9874626834652
 31
0.0
  0
LINE
  5
2DB
330
1F
100
AcDbEntity
  8
0-0
  6
JWW_DASHED1
 62
   120
370
     5
100
AcDbLine
 10
130.3553268017009
 20
-156.0879677482653
 30
0.0
 11
720.3553268016913
 21
-746.0879677482565
 31
0.0
  0
LINE
  5
2DC
330
1F
100
AcDbEntity
  8
0-0
  6
JWW_DASHED1
 62
   120
370
     5
100
AcDbLine
 10
130.3553268016975
 20
-146.1884728131005
 30
0.0
 11
720.3553268016879
 21
-736.1884728130908
 31
0.0
  0
LINE
  5
2DD
330
1F
100
AcDbEntity
  8
0-0
  6
JWW_DASHED1
 62
   120
370
     5
100
AcDbLine
 10
130.355326801706
 20
-136.2889778778927
 30
0.0
 11
720.3553268016964
 21
-726.2889778778834
 31
0.0
  0
LINE
  5
2DE
330
1F
100
AcDbEntity
  8
0-0
  6
JWW_DASHED1
 62
   120
370
     5
100
AcDbLine
 10
130.3553268017052
 20
-126.3894829426755
 30
0.0
 11
720.3553268016913
 21
-716.3894829426612
 31
0.0
  0
LINE
  5
2DF
330
1F
100
AcDbEntity
  8
0-0
  6
JWW_DASHED1
 62
   120
370
     5
100
AcDbLine
 10
130.355326801695
 20
-116.4899880075035
 30
0.0
 11
720.3553268016861
 21
-706.4899880074947
 31
0.0
  0
LINE
  5
2E0
330
1F
100
AcDbEntity
  8
0-0
  6
JWW_DASHED1
 62
   120
370
     5
100
AcDbLine
 10
130.3553268017035
 20
-106.5904930722957
 30
0.0
 11
720.3553268016947
 21
-696.5904930722864
 31
0.0
  0
LINE
  5
2E1
330
1F
100
AcDbEntity
  8
0-0
  6
JWW_DASHED1
 62
   120
370
     5
100
AcDbLine
 10
130.3553268017026
 20
-96.69099813707845
 30
0.0
 11
720.3553268016879
 21
-686.6909981370641
 31
0.0
  0
LINE
  5
2E2
330
1F
100
AcDbEntity
  8
0-0
  6
JWW_DASHED1
 62
   120
370
     5
100
AcDbLine
 10
130.3553268016924
 20
-86.79150320190644
 30
0.0
 11
720.355326801699
 21
-676.791503201913
 31
0.0
  0
LINE
  5
2E3
330
1F
100
AcDbEntity
  8
0-0
  6
JWW_DASHED1
 62
   120
370
     5
100
AcDbLine
 10
130.3553268017009
 20
-76.89200826669861
 30
0.0
 11
720.3553268016922
 21
-666.8920082666898
 31
0.0
  0
LINE
  5
2E4
330
1F
100
AcDbEntity
  8
0-0
  6
JWW_DASHED1
 62
   120
370
     5
100
AcDbLine
 10
130.3553268017009
 20
-66.99251333148183
 30
0.0
 11
720.3553268016861
 21
-656.9925133314675
 31
0.0
  0
LINE
  5
2E5
330
1F
100
AcDbEntity
  8
0-0
  6
JWW_DASHED1
 62
   120
370
     5
100
AcDbLine
 10
130.3553268016907
 20
-57.09301839630982
 30
0.0
 11
720.3553268016964
 21
-647.093018396316
 31
0.0
  0
LINE
  5
2E6
330
1F
100
AcDbEntity
  8
0-0
  6
JWW_DASHED1
 62
   120
370
     5
100
AcDbLine
 10
130.3553268016984
 20
-47.19352346110156
 30
0.0
 11
720.3553268016888
 21
-637.1935234610924
 31
0.0
  0
LINE
  5
2E7
330
1F
100
AcDbEntity
  8
0-0
  6
JWW_DASHED1
 62
   120
370
     5
100
AcDbLine
 10
130.3553268016984
 20
-37.29402852588564
 30
0.0
 11
720.3553268016835
 21
-627.2940285258704
 31
0.0
  0
LINE
  5
2E8
330
1F
100
AcDbEntity
  8
0-0
  6
JWW_DASHED1
 62
   120
370
     5
100
AcDbLine
 10
130.3553268016873
 20
-27.39453359071234
 30
0.0
 11
720.3553268016938
 21
-617.3945335907189
 31
0.0
  0
LINE
  5
2E9
330
1F
100
AcDbEntity
  8
0-0
  6
JWW_DASHED1
 62
   120
370
     5
100
AcDbLine
 10
130.3553268016958
 20
-17.49503865550452
 30
0.0
 11
720.3553268016861
 21
-607.4950386554949
 31
0.0
  0
LINE
  5
2EA
330
1F
100
AcDbEntity
  8
0-0
  6
JWW_DASHED1
 62
   120
370
     5
100
AcDbLine
 10
130.3553268017043
 20
-7.595543720296689
 30
0.0
 11
720.3553268016947
 21
-597.5955437202874
 31
0.0
  0
LINE
  5
2EB
330
1F
100
AcDbEntity
  8
0-0
  6
JWW_DASHED1
 62
   120
370
     5
100
AcDbLine
 10
130.3553268017001
 20
2.303951214868931
 30
0.0
 11
720.3553268016913
 21
-587.6960487851218
 31
0.0
  0
LINE
  5
2EC
330
1F
100
AcDbEntity
  8
0-0
  6
JWW_DASHED1
 62
   120
370
     5
100
AcDbLine
 10
130.3553268016933
 20
12.20344615009253
 30
0.0
 11
720.3553268016844
 21
-577.7965538498986
 31
0.0
  0
LINE
  5
2ED
330
1F
100
AcDbEntity
  8
0-0
  6
JWW_DASHED1
 62
   120
370
     5
100
AcDbLine
 10
130.3553268017018
 20
22.10294108530036
 30
0.0
 11
720.355326801693
 21
-567.8970589146904
 31
0.0
  0
LINE
  5
2EE
330
1F
100
AcDbEntity
  8
0-0
  6
JWW_DASHED1
 62
   120
370
     5
100
AcDbLine
 10
130.3553268016984
 20
32.00243602046555
 30
0.0
 11
720.3553268016888
 21
-557.9975639795248
 31
0.0
  0
LINE
  5
2EF
330
1F
100
AcDbEntity
  8
0-0
  6
JWW_DASHED1
 62
   120
370
     5
100
AcDbLine
 10
130.3553268016907
 20
41.90193095568958
 30
0.0
 11
720.3553268016981
 21
-548.0980690443174
 31
0.0
  0
LINE
  5
2F0
330
1F
100
AcDbEntity
  8
0-0
  6
JWW_DASHED1
 62
   120
370
     5
100
AcDbLine
 10
130.3553268016992
 20
51.80142589089741
 30
0.0
 11
720.3553268016896
 21
-538.1985741090933
 31
0.0
  0
LINE
  5
2F1
330
1F
100
AcDbEntity
  8
0-0
  6
JWW_DASHED1
 62
   120
370
     5
100
AcDbLine
 10
130.3553268017043
 20
61.70092082605407
 30
0.0
 11
720.3553268016896
 21
-528.2990791739315
 31
0.0
  0
LINE
  5
2F2
330
1F
100
AcDbEntity
  8
0-0
  6
JWW_DASHED1
 62
   120
370
     5
100
AcDbLine
 10
130.3553268016881
 20
71.60041576128663
 30
0.0
 11
720.3553268016947
 21
-518.3995842387203
 31
0.0
  0
LINE
  5
2F3
330
1F
100
AcDbEntity
  8
0-0
  6
JWW_DASHED1
 62
   120
370
     5
100
AcDbLine
 10
130.3553268016967
 20
81.49991069649445
 30
0.0
 11
720.3553268016879
 21
-508.5000893034963
 31
0.0
  0
LINE
  5
2F4
330
1F
100
AcDbEntity
  8
0-0
  6
JWW_DASHED1
 62
   120
370
     5
100
AcDbLine
 10
130.3553268017026
 20
91.3994056316507
 30
0.0
 11
720.3553268016879
 21
-498.600594368335
 31
0.0
  0
LINE
  5
2F5
330
1F
100
AcDbEntity
  8
0-0
  6
JWW_DASHED1
 62
   120
370
     5
100
AcDbLine
 10
130.3553268016856
 20
101.2989005668837
 30
0.0
 11
720.3553268016922
 21
-488.7010994331233
 31
0.0
  0
LINE
  5
2F6
330
1F
100
AcDbEntity
  8
0-0
  6
JWW_DASHED1
 62
   120
370
     5
100
AcDbLine
 10
130.3553268016941
 20
111.1983955020915
 30
0.0
 11
720.3553268016854
 21
-478.8016044978997
 31
0.0
  0
LINE
  5
2F7
330
1F
100
AcDbEntity
  8
0-0
  6
JWW_DASHED1
 62
   120
370
     5
100
AcDbLine
 10
130.3553268016992
 20
121.0978904372477
 30
0.0
 11
720.3553268016854
 21
-468.9021095627379
 31
0.0
  0
LINE
  5
2F8
330
1F
100
AcDbEntity
  8
0-0
  6
JWW_DASHED1
 62
   120
370
     5
100
AcDbLine
 10
130.3553268016992
 20
130.9973853724649
 30
0.0
 11
720.3553268016896
 21
-459.0026146275262
 31
0.0
  0
LINE
  5
2F9
330
1F
100
AcDbEntity
  8
0-0
  6
JWW_DASHED1
 62
   120
370
     5
100
AcDbLine
 10
130.3553268016915
 20
140.8968803076885
 30
0.0
 11
720.3553268016981
 21
-449.1031196923184
 31
0.0
  0
LINE
  5
2FA
330
1F
100
AcDbEntity
  8
0-0
  6
JWW_DASHED1
 62
   120
370
     5
100
AcDbLine
 10
130.3553268017043
 20
150.7963752428375
 30
0.0
 11
720.3553268016947
 21
-439.2036247571528
 31
0.0
  0
LINE
  5
2FB
330
1F
100
AcDbEntity
  8
0-0
  6
JWW_DASHED1
 62
   120
370
     5
100
AcDbLine
 10
130.355326801706
 20
160.6958701780526
 30
0.0
 11
720.3553268016922
 21
-429.3041298219339
 31
0.0
  0
LINE
  5
2FC
330
1F
100
AcDbEntity
  8
0-0
  6
JWW_DASHED1
 62
   120
370
     5
100
AcDbLine
 10
130.3553268016933
 20
170.5953651132268
 30
0.0
 11
720.3553268016844
 21
-419.4046348867644
 31
0.0
  0
LINE
  5
2FD
330
1F
100
AcDbEntity
  8
0-0
  6
JWW_DASHED1
 62
   120
370
     5
100
AcDbLine
 10
130.3553268017018
 20
180.4948600484346
 30
0.0
 11
720.3553268016922
 21
-409.5051399515557
 31
0.0
  0
LINE
  5
2FE
330
1F
100
AcDbEntity
  8
0-0
  6
JWW_DASHED1
 62
   120
370
     5
100
AcDbLine
 10
130.3553268017026
 20
190.3943549836497
 30
0.0
 11
720.3553268016896
 21
-399.6056450163368
 31
0.0
  0
LINE
  5
2FF
330
1F
100
AcDbEntity
  8
0-0
  6
JWW_DASHED1
 62
   120
370
     5
100
AcDbLine
 10
130.3553268016907
 20
200.2938499188238
 30
0.0
 11
720.3553268016972
 21
-389.7061500811827
 31
0.0
  0
LINE
  5
300
330
1F
100
AcDbEntity
  8
0-0
  6
JWW_DASHED1
 62
   120
370
     5
100
AcDbLine
 10
130.3553268016992
 20
210.1933448540316
 30
0.0
 11
720.3553268016904
 21
-379.8066551459596
 31
0.0
  0
LINE
  5
301
330
1F
100
AcDbEntity
  8
0-0
  6
JWW_DASHED1
 62
   120
370
     5
100
AcDbLine
 10
130.3553268017009
 20
220.0928397892459
 30
0.0
 11
720.3553268016869
 21
-369.9071602107398
 31
0.0
  0
LINE
  5
302
330
1F
100
AcDbEntity
  8
0-0
  6
JWW_DASHED1
 62
   120
370
     5
100
AcDbLine
 10
130.355326801689
 20
229.9923347244204
 30
0.0
 11
720.3553268016947
 21
-360.0076652755857
 31
0.0
  0
LINE
  5
303
330
1F
100
AcDbEntity
  8
0-0
  6
JWW_DASHED1
 62
   120
370
     5
100
AcDbLine
 10
130.3553268016967
 20
239.8918296596287
 30
0.0
 11
720.3553268016879
 21
-350.1081703403625
 31
0.0
  0
LINE
  5
304
330
1F
100
AcDbEntity
  8
0-0
  6
JWW_DASHED1
 62
   120
370
     5
100
AcDbLine
 10
130.3553268017052
 20
249.7913245948365
 30
0.0
 11
720.3553268016964
 21
-340.2086754051547
 31
0.0
  0
LINE
  5
305
330
1F
100
AcDbEntity
  8
0-0
  6
JWW_DASHED1
 62
   120
370
     5
100
AcDbLine
 10
130.3553268016856
 20
259.6908195300175
 30
0.0
 11
720.355326801693
 21
-330.3091804699895
 31
0.0
  0
LINE
  5
306
330
1F
100
AcDbEntity
  8
0-0
  6
JWW_DASHED1
 62
   120
370
     5
100
AcDbLine
 10
130.3553268016941
 20
269.5903144652253
 30
0.0
 11
720.3553268016854
 21
-320.4096855347655
 31
0.0
  0
LINE
  5
307
330
1F
100
AcDbEntity
  8
0-0
  6
JWW_DASHED1
 62
   120
370
     5
100
AcDbLine
 10
130.3553268017026
 20
279.4898094004336
 30
0.0
 11
720.355326801693
 21
-310.5101905995572
 31
0.0
  0
LINE
  5
308
330
1F
100
AcDbEntity
  8
0-0
  6
JWW_DASHED1
 62
   120
370
     5
100
AcDbLine
 10
130.3553268016992
 20
289.3893043355988
 30
0.0
 11
720.3553268016896
 21
-300.6106956643924
 31
0.0
  0
LINE
  5
309
330
1F
100
AcDbEntity
  8
0-0
  6
JWW_DASHED1
 62
   120
370
     5
100
AcDbLine
 10
130.3553268016915
 20
299.2887992708228
 30
0.0
 11
720.3553268016827
 21
-290.7112007291684
 31
0.0
  0
LINE
  5
30A
330
1F
100
AcDbEntity
  8
0-0
  6
JWW_DASHED1
 62
   120
370
     5
100
AcDbLine
 10
130.3553268017001
 20
309.1882942060306
 30
0.0
 11
720.3553268016904
 21
-280.8117057939597
 31
0.0
  0
LINE
  5
30B
330
1F
100
AcDbEntity
  8
0-0
  6
JWW_DASHED1
 62
   120
370
     5
100
AcDbLine
 10
130.3553268017069
 20
319.0877891411856
 30
0.0
 11
720.355326801693
 21
-270.9122108588005
 31
0.0
  0
LINE
  5
30C
330
1F
100
AcDbEntity
  8
0-0
  6
JWW_DASHED1
 62
   120
370
     5
100
AcDbLine
 10
130.355326801689
 20
328.9872840764198
 30
0.0
 11
720.3553268016956
 21
-261.0127159235867
 31
0.0
  0
LINE
  5
30D
330
1F
100
AcDbEntity
  8
0-0
  6
JWW_DASHED1
 62
   120
370
     5
100
AcDbLine
 10
130.3553268016975
 20
338.8867790116277
 30
0.0
 11
720.3553268016888
 21
-251.1132209883635
 31
0.0
  0
LINE
  5
30E
330
1F
100
AcDbEntity
  8
0-0
  6
JWW_DASHED1
 62
   120
370
     5
100
AcDbLine
 10
130.3553268017043
 20
348.7862739467822
 30
0.0
 11
720.3553268016904
 21
-241.2137260532035
 31
0.0
  0
LINE
  5
30F
330
1F
100
AcDbEntity
  8
0-0
  6
JWW_DASHED1
 62
   120
370
     5
100
AcDbLine
 10
130.3553268016864
 20
358.6857688820169
 30
0.0
 11
720.355326801693
 21
-231.3142311179897
 31
0.0
  0
LINE
  5
310
330
1F
100
AcDbEntity
  8
0-0
  6
JWW_DASHED1
 62
   120
370
     5
100
AcDbLine
 10
130.355326801695
 20
368.5852638172247
 30
0.0
 11
720.3553268016861
 21
-221.4147361827665
 31
0.0
  0
LINE
  5
311
330
1F
100
AcDbEntity
  8
0-0
  6
JWW_DASHED1
 62
   120
370
     5
100
AcDbLine
 10
130.3553268017026
 20
378.4847587523784
 30
0.0
 11
720.3553268016879
 21
-211.5152412476073
 31
0.0
  0
LINE
  5
312
330
1F
100
AcDbEntity
  8
0-0
  6
JWW_DASHED1
 62
   120
370
     5
100
AcDbLine
 10
130.3553268016839
 20
388.3842536876135
 30
0.0
 11
720.3553268016904
 21
-201.6157463123926
 31
0.0
  0
LINE
  5
313
330
1F
100
AcDbEntity
  8
0-0
  6
JWW_DASHED1
 62
   120
370
     5
100
AcDbLine
 10
130.3553268016924
 20
398.2837486228217
 30
0.0
 11
720.3553268016835
 21
-191.7162513771694
 31
0.0
  0
LINE
  5
314
330
1F
100
AcDbEntity
  8
0-0
  6
JWW_DASHED1
 62
   120
370
     5
100
AcDbLine
 10
130.3553268017001
 20
408.1832435579754
 30
0.0
 11
720.3553268016861
 21
-181.8167564420106
 31
0.0
  0
LINE
  5
315
330
1F
100
AcDbEntity
  8
0-0
  6
JWW_DASHED1
 62
   120
370
     5
100
AcDbLine
 10
130.3553268016975
 20
418.0827384931944
 30
0.0
 11
720.3553268016888
 21
-171.9172615067964
 31
0.0
  0
LINE
  5
316
330
1F
100
AcDbEntity
  8
0-0
  6
JWW_DASHED1
 62
   120
370
     5
100
AcDbLine
 10
130.3553268016898
 20
427.9822334284188
 30
0.0
 11
720.3553268016964
 21
-162.0177665715882
 31
0.0
  0
LINE
  5
317
330
1F
100
AcDbEntity
  8
0-0
  6
JWW_DASHED1
 62
   120
370
     5
100
AcDbLine
 10
130.3553268017026
 20
437.8817283635678
 30
0.0
 11
720.355326801693
 21
-152.1182716364234
 31
0.0
  0
LINE
  5
318
330
1F
100
AcDbEntity
  8
0-0
  6
JWW_DASHED1
 62
   120
370
     5
100
AcDbLine
 10
130.355326801706
 20
447.7812232987803
 30
0.0
 11
720.355326801693
 21
-142.2187767012058
 31
0.0
  0
LINE
  5
319
330
1F
100
AcDbEntity
  8
0-0
  6
JWW_DASHED1
 62
   120
370
     5
100
AcDbLine
 10
130.3553268016898
 20
457.6807182339855
 30
0.0
 11
720.355326801681
 21
-132.3192817660048
 31
0.0
  0
LINE
  5
31A
330
1F
100
AcDbEntity
  8
0-0
  6
JWW_DASHED1
 62
   120
370
     5
100
AcDbLine
 10
130.3553268016992
 20
467.5802131691648
 30
0.0
 11
720.3553268016913
 21
-122.4197868308264
 31
0.0
  0
LINE
  5
31B
330
1F
100
AcDbEntity
  8
0-0
  6
JWW_DASHED1
 62
   120
370
     5
100
AcDbLine
 10
130.3553268017035
 20
477.4797081043773
 30
0.0
 11
720.3553268016896
 21
-112.5202918956087
 31
0.0
  0
LINE
  5
31C
330
1F
100
AcDbEntity
  8
0-0
  6
JWW_DASHED1
 62
   120
370
     5
100
AcDbLine
 10
130.355326801689
 20
487.3792030395537
 30
0.0
 11
720.3553268016964
 21
-102.6207969604529
 31
0.0
  0
LINE
  5
31D
330
1F
100
AcDbEntity
  8
0-0
  6
JWW_DASHED1
 62
   120
370
     5
100
AcDbLine
 10
130.3553268016975
 20
497.2786979747619
 30
0.0
 11
720.3553268016879
 21
-92.7213020252293
 31
0.0
  0
LINE
  5
31E
330
1F
100
AcDbEntity
  8
0-0
  6
JWW_DASHED1
 62
   120
370
     5
100
AcDbLine
 10
130.3553268017026
 20
507.1781929099731
 30
0.0
 11
720.3553268016879
 21
-82.82180709001167
 31
0.0
  0
LINE
  5
31F
330
1F
100
AcDbEntity
  8
0-0
  6
JWW_DASHED1
 62
   120
370
     5
100
AcDbLine
 10
130.3553268016873
 20
517.0776878451502
 30
0.0
 11
720.355326801693
 21
-72.92231215485586
 31
0.0
  0
LINE
  5
320
330
1F
100
AcDbEntity
  8
0-0
  6
JWW_DASHED1
 62
   120
370
     5
100
AcDbLine
 10
130.3553268016941
 20
526.9771827803589
 30
0.0
 11
720.3553268016861
 21
-63.02281721963183
 31
0.0
  0
LINE
  5
321
330
1F
100
AcDbEntity
  8
0-0
  6
JWW_DASHED1
 62
   120
370
     5
100
AcDbLine
 10
130.3553268017035
 20
536.8766777155668
 30
0.0
 11
720.3553268016947
 21
-53.12332228442443
 31
0.0
  0
LINE
  5
322
330
1F
100
AcDbEntity
  8
0-0
  6
JWW_DASHED1
 62
   120
370
     5
100
AcDbLine
 10
130.3553268016847
 20
546.7761726507473
 30
0.0
 11
720.3553268016913
 21
-43.22382734925881
 31
0.0
  0
LINE
  5
323
330
1F
100
AcDbEntity
  8
0-0
  6
JWW_DASHED1
 62
   120
370
     5
100
AcDbLine
 10
130.3553268016924
 20
556.6756675859556
 30
0.0
 11
720.3553268016827
 21
-33.32433241403479
 31
0.0
  0
LINE
  5
324
330
1F
100
AcDbEntity
  8
0-0
  6
JWW_DASHED1
 62
   120
370
     5
100
AcDbLine
 10
130.3553268017009
 20
566.5751625211634
 30
0.0
 11
720.3553268016922
 21
-23.42483747882738
 31
0.0
  0
LINE
  5
325
330
1F
100
AcDbEntity
  8
0-0
  6
JWW_DASHED1
 62
   120
370
     5
100
AcDbLine
 10
130.3553268016975
 20
576.4746574563286
 30
0.0
 11
720.3553268016896
 21
-13.52534254366262
 31
0.0
  0
LINE
  5
326
330
1F
100
AcDbEntity
  8
0-0
  6
JWW_DASHED1
 62
   120
370
     5
100
AcDbLine
 10
130.3553268016898
 20
586.3741523915526
 30
0.0
 11
720.3553268016964
 21
-3.625847608453512
 31
0.0
  0
LINE
  5
327
330
1F
100
AcDbEntity
  8
0-0
  6
JWW_DASHED1
 62
   120
370
     5
100
AcDbLine
 10
130.3553268016992
 20
596.2736473267604
 30
0.0
 11
720.3553268016896
 21
6.273647326769662
 31
0.0
  0
LINE
  5
328
330
1F
100
AcDbEntity
  8
0-0
  6
JWW_DASHED1
 62
   120
370
     5
100
AcDbLine
 10
130.3553268017077
 20
606.1731422619129
 30
0.0
 11
720.355326801693
 21
16.17314226192718
 31
0.0
  0
LINE
  5
329
330
1F
100
AcDbEntity
  8
0-0
  6
JWW_DASHED1
 62
   120
370
     5
100
AcDbLine
 10
130.3553268016881
 20
616.0726371971488
 30
0.0
 11
720.3553268016947
 21
26.07263719714268
 31
0.0
  0
LINE
  5
32A
330
1F
100
AcDbEntity
  8
0-0
  6
JWW_DASHED1
 62
   120
370
     5
100
AcDbLine
 10
130.3553268016958
 20
625.9721321323575
 30
0.0
 11
720.3553268016861
 21
35.97213213236671
 31
0.0
  0
LINE
  5
32B
330
1F
100
AcDbEntity
  8
0-0
  6
JWW_DASHED1
 62
   120
370
     5
100
AcDbLine
 10
130.355326801706
 20
635.871627067509
 30
0.0
 11
720.3553268016913
 21
45.87162706752423
 31
0.0
  0
LINE
  5
32C
330
1F
100
AcDbEntity
  8
0-0
  6
JWW_DASHED1
 62
   120
370
     5
100
AcDbLine
 10
130.3553268016856
 20
645.7711220027459
 30
0.0
 11
720.3553268016913
 21
55.77112200273973
 31
0.0
  0
LINE
  5
32D
330
1F
100
AcDbEntity
  8
0-0
  6
JWW_DASHED1
 62
   120
370
     5
100
AcDbLine
 10
130.3553268016933
 20
655.6706169379554
 30
0.0
 11
720.3553268016844
 21
65.67061693796376
 31
0.0
  0
LINE
  5
32E
330
1F
100
AcDbEntity
  8
0-0
  6
JWW_DASHED1
 62
   120
370
     5
100
AcDbLine
 10
130.3553268017035
 20
665.570111873106
 30
0.0
 11
720.3553268016896
 21
75.57011187312042
 31
0.0
  0
LINE
  5
32F
330
1F
100
AcDbEntity
  8
0-0
  6
JWW_DASHED1
 62
   120
370
     5
100
AcDbLine
 10
130.355326801683
 20
675.4696068083429
 30
0.0
 11
720.3553268016896
 21
85.46960680833678
 31
0.0
  0
LINE
  5
330
330
1F
100
AcDbEntity
  8
0-0
  6
JWW_DASHED1
 62
   120
370
     5
100
AcDbLine
 10
130.3553268016907
 20
685.3691017435524
 30
0.0
 11
720.355326801681
 21
95.3691017435608
 31
0.0
  0
LINE
  5
331
330
1F
100
AcDbEntity
  8
0-0
  6
JWW_DASHED1
 62
   120
370
     5
100
AcDbLine
 10
130.3553268017009
 20
695.2685966787031
 30
0.0
 11
720.3553268016869
 21
105.2685966787175
 31
0.0
  0
LINE
  5
332
330
1F
100
AcDbEntity
  8
0-0
  6
JWW_DASHED1
 62
   120
370
     5
100
AcDbLine
 10
130.3553268016958
 20
705.1680916139246
 30
0.0
 11
720.3553268016861
 21
115.1680916139343
 31
0.0
  0
LINE
  5
333
330
1F
100
AcDbEntity
  8
0-0
  6
JWW_DASHED1
 62
   120
370
     5
100
AcDbLine
 10
130.3553268016881
 20
715.0675865491486
 30
0.0
 11
720.3553268016947
 21
125.0675865491425
 31
0.0
  0
LINE
  5
334
330
1F
100
AcDbEntity
  8
0-0
  6
JWW_DASHED1
 62
   120
370
     5
100
AcDbLine
 10
130.3553268017009
 20
724.9670814842984
 30
0.0
 11
720.3553268016913
 21
134.9670814843073
 31
0.0
  0
LINE
  5
335
330
1F
100
AcDbEntity
  8
0-0
  6
JWW_DASHED1
 62
   120
370
     5
100
AcDbLine
 10
130.3553268017077
 20
734.866576419508
 30
0.0
 11
720.355326801693
 21
144.8665764195219
 31
0.0
  0
LINE
  5
336
330
1F
100
AcDbEntity
  8
0-0
  6
JWW_DASHED1
 62
   120
370
     5
100
AcDbLine
 10
130.3553268016864
 20
744.7660713547448
 30
0.0
 11
720.3553268016922
 21
154.7660713547396
 31
0.0
  0
LINE
  5
337
330
1F
100
AcDbEntity
  8
0-0
  6
JWW_DASHED1
 62
   120
370
     5
100
AcDbLine
 10
130.3553268016984
 20
754.6655662898946
 30
0.0
 11
720.3553268016896
 21
164.6655662899043
 31
0.0
  0
LINE
  5
338
330
1F
100
AcDbEntity
  8
0-0
  6
JWW_DASHED1
 62
   120
370
     5
100
AcDbLine
 10
130.3553268017052
 20
764.5650612251051
 30
0.0
 11
720.3553268016904
 21
174.565061225119
 31
0.0
  0
LINE
  5
339
330
1F
100
AcDbEntity
  8
0-0
  6
JWW_DASHED1
 62
   120
370
     5
100
AcDbLine
 10
130.3553268016881
 20
774.464556160283
 30
0.0
 11
720.3553268016947
 21
184.4645561602765
 31
0.0
  0
LINE
  5
33A
330
1F
100
AcDbEntity
  8
0-0
  6
JWW_DASHED1
 62
   120
370
     5
100
AcDbLine
 10
130.3553268016958
 20
784.3640510954917
 30
0.0
 11
720.3553268016861
 21
194.3640510955014
 31
0.0
  0
LINE
  5
33B
330
1F
100
AcDbEntity
  8
0-0
  6
JWW_DASHED1
 62
   120
370
     5
100
AcDbLine
 10
130.3553268017026
 20
794.2635460307013
 30
0.0
 11
720.3553268016879
 21
204.263546030716
 31
0.0
  0
LINE
  5
33C
330
1F
100
AcDbEntity
  8
0-0
  6
JWW_DASHED1
 62
   120
370
     5
100
AcDbLine
 10
130.3553268016856
 20
804.1630409658801
 30
0.0
 11
720.3553268016922
 21
214.1630409658735
 31
0.0
  0
LINE
  5
33D
330
1F
100
AcDbEntity
  8
0-0
  6
JWW_DASHED1
 62
   120
370
     5
100
AcDbLine
 10
130.3553268016933
 20
814.0625359010887
 30
0.0
 11
720.3553268016844
 21
224.0625359010984
 31
0.0
  0
LINE
  5
33E
330
1F
100
AcDbEntity
  8
0-0
  6
JWW_DASHED1
 62
   120
370
     5
100
AcDbLine
 10
130.3553268017018
 20
823.9620308362975
 30
0.0
 11
720.355326801693
 21
233.9620308363058
 31
0.0
  0
LINE
  5
33F
330
1F
100
AcDbEntity
  8
0-0
  6
JWW_DASHED1
 62
   120
370
     5
100
AcDbLine
 10
130.355326801683
 20
833.8615257714771
 30
0.0
 11
720.3553268016896
 21
243.8615257714714
 31
0.0
  0
LINE
  5
340
330
1F
100
AcDbEntity
  8
0-0
  6
JWW_DASHED1
 62
   120
370
     5
100
AcDbLine
 10
130.3553268016915
 20
843.7610207066849
 30
0.0
 11
720.355326801681
 21
253.7610207066955
 31
0.0
  0
LINE
  5
341
330
1F
100
AcDbEntity
  8
0-0
  6
JWW_DASHED1
 62
   120
370
     5
100
AcDbLine
 10
130.3553268016992
 20
853.6605156418944
 30
0.0
 11
720.3553268016896
 21
263.6605156419029
 31
0.0
  0
LINE
  5
342
330
1F
100
AcDbEntity
  8
0-0
  6
JWW_DASHED1
 62
   120
370
     5
100
AcDbLine
 10
130.3553268016958
 20
863.5600105770588
 30
0.0
 11
720.3553268016869
 21
273.5600105770676
 31
0.0
  0
LINE
  5
343
330
1F
100
AcDbEntity
  8
0-0
  6
JWW_DASHED1
 62
   120
370
     5
100
AcDbLine
 10
130.355326801689
 20
873.459505512282
 30
0.0
 11
720.3553268016947
 21
283.4595055122767
 31
0.0
  0
LINE
  5
344
330
1F
100
AcDbEntity
  8
0-0
  6
JWW_DASHED1
 62
   120
370
     5
100
AcDbLine
 10
130.3553268016967
 20
883.3590004474916
 30
0.0
 11
720.3553268016879
 21
293.3590004475003
 31
0.0
  0
LINE
  5
345
330
1F
100
AcDbEntity
  8
0-0
  6
JWW_DASHED1
 62
   120
370
     5
100
AcDbLine
 10
130.3553268017095
 20
893.2584953826405
 30
0.0
 11
720.3553268016947
 21
303.2584953826553
 31
0.0
  0
LINE
  5
346
330
1F
100
AcDbEntity
  8
0-0
  6
JWW_DASHED1
 62
   120
370
     5
100
AcDbLine
 10
130.3553268016864
 20
903.157990317879
 30
0.0
 11
720.355326801693
 21
313.1579903178725
 31
0.0
  0
LINE
  5
347
330
1F
100
AcDbEntity
  8
0-0
  6
JWW_DASHED1
 62
   120
370
     5
100
AcDbLine
 10
130.3553268016941
 20
913.0574852530877
 30
0.0
 11
720.3553268016844
 21
323.0574852530974
 31
0.0
  0
LINE
  5
348
330
1F
100
AcDbEntity
  8
0-0
  6
JWW_DASHED1
 62
   120
370
     5
100
AcDbLine
 10
130.3553268017069
 20
922.9569801882376
 30
0.0
 11
720.3553268016922
 21
332.9569801882515
 31
0.0
  0
LINE
  5
349
330
1F
100
AcDbEntity
  8
0-0
  6
JWW_DASHED1
 62
   120
370
     5
100
AcDbLine
 10
130.3553268016839
 20
932.8564751234761
 30
0.0
 11
720.3553268016904
 21
342.8564751234695
 31
0.0
  0
LINE
  5
34A
330
1F
100
AcDbEntity
  8
0-0
  6
JWW_DASHED1
 62
   120
370
     5
100
AcDbLine
 10
130.3553268016915
 20
942.7559700586847
 30
0.0
 11
720.3553268016827
 21
352.7559700586944
 31
0.0
  0
LINE
  5
34B
330
1F
100
AcDbEntity
  8
0-0
  6
JWW_DASHED1
 62
   120
370
     5
100
AcDbLine
 10
130.3553268017043
 20
952.6554649938346
 30
0.0
 11
720.3553268016904
 21
362.6554649938481
 31
0.0
  0
LINE
  5
34C
330
1F
100
AcDbEntity
  8
0-0
  6
JWW_DASHED1
 62
   120
370
     5
100
AcDbLine
 10
130.3553268016967
 20
962.5549599290578
 30
0.0
 11
720.3553268016879
 21
372.5549599290674
 31
0.0
  0
LINE
  5
34D
330
1F
100
AcDbEntity
  8
0-0
  6
JWW_DASHED1
 62
   120
370
     5
100
AcDbLine
 10
130.3553268016898
 20
972.4544548642809
 30
0.0
 11
720.3553268016793
 21
382.4544548642915
 31
0.0
  0
LINE
  5
34E
330
1F
100
AcDbEntity
  8
0-0
  6
JWW_DASHED1
 62
   120
370
     5
100
AcDbLine
 10
130.3769477494075
 20
982.3323288517252
 30
0.0
 11
720.355326801693
 21
392.3539497994404
 31
0.0
  0
LINE
  5
34F
330
1F
100
AcDbEntity
  8
0-0
  6
JWW_DASHED1
 62
   120
370
     5
100
AcDbLine
 10
140.2764426846315
 20
982.3323288517174
 30
0.0
 11
720.3553268016844
 21
402.2534447346645
 31
0.0
  0
LINE
  5
350
330
1F
100
AcDbEntity
  8
0-0
  6
JWW_DASHED1
 62
   120
370
     5
100
AcDbLine
 10
150.1759376198555
 20
982.3323288517106
 30
0.0
 11
720.355326801693
 21
412.1529396698719
 31
0.0
  0
LINE
  5
351
330
1F
100
AcDbEntity
  8
0-0
  6
JWW_DASHED1
 62
   120
370
     5
100
AcDbLine
 10
160.0754325550054
 20
982.3323288517225
 30
0.0
 11
720.3553268016896
 21
422.0524346050375
 31
0.0
  0
LINE
  5
352
330
1F
100
AcDbEntity
  8
0-0
  6
JWW_DASHED1
 62
   120
370
     5
100
AcDbLine
 10
169.9749274902132
 20
982.3323288517303
 30
0.0
 11
720.3553268016938
 21
431.95192954025
 31
0.0
  0
LINE
  5
353
330
1F
100
AcDbEntity
  8
0-0
  6
JWW_DASHED1
 62
   120
370
     5
100
AcDbLine
 10
179.8744224254526
 20
982.3323288517072
 30
0.0
 11
720.3553268016913
 21
441.8514244754689
 31
0.0
  0
LINE
  5
354
330
1F
100
AcDbEntity
  8
0-0
  6
JWW_DASHED1
 62
   120
370
     5
100
AcDbLine
 10
189.7739173606024
 20
982.3323288517191
 30
0.0
 11
720.3553268016879
 21
451.7509194106345
 31
0.0
  0
LINE
  5
355
330
1F
100
AcDbEntity
  8
0-0
  6
JWW_DASHED1
 62
   120
370
     5
100
AcDbLine
 10
199.6734122958111
 20
982.3323288517269
 30
0.0
 11
720.3553268016913
 21
461.6504143458471
 31
0.0
  0
LINE
  5
356
330
1F
100
AcDbEntity
  8
0-0
  6
JWW_DASHED1
 62
   120
370
     5
100
AcDbLine
 10
209.5729072309899
 20
982.3323288517098
 30
0.0
 11
720.355326801693
 21
471.5499092810072
 31
0.0
  0
LINE
  5
357
330
1F
100
AcDbEntity
  8
0-0
  6
JWW_DASHED1
 62
   120
370
     5
100
AcDbLine
 10
219.4724021662012
 20
982.3323288517157
 30
0.0
 11
720.3553268016854
 21
481.4494042162307
 31
0.0
  0
LINE
  5
358
330
1F
100
AcDbEntity
  8
0-0
  6
JWW_DASHED1
 62
   120
370
     5
100
AcDbLine
 10
229.371897101409
 20
982.3323288517242
 30
0.0
 11
720.3553268016896
 21
491.3488991514437
 31
0.0
  0
LINE
  5
359
330
1F
100
AcDbEntity
  8
0-0
  6
JWW_DASHED1
 62
   120
370
     5
100
AcDbLine
 10
239.271392036587
 20
982.3323288517081
 30
0.0
 11
720.3553268016904
 21
501.2483940866042
 31
0.0
  0
LINE
  5
35A
330
1F
100
AcDbEntity
  8
0-0
  6
JWW_DASHED1
 62
   120
370
     5
100
AcDbLine
 10
249.1708869717982
 20
982.3323288517132
 30
0.0
 11
720.3553268016835
 21
511.1478890218274
 31
0.0
  0
LINE
  5
35B
330
1F
100
AcDbEntity
  8
0-0
  6
JWW_DASHED1
 62
   120
370
     5
100
AcDbLine
 10
259.070381907006
 20
982.3323288517208
 30
0.0
 11
720.3553268016913
 21
521.0473839570365
 31
0.0
  0
LINE
  5
35C
330
1F
100
AcDbEntity
  8
0-0
  6
JWW_DASHED1
 62
   120
370
     5
100
AcDbLine
 10
268.969876842184
 20
982.3323288517055
 30
0.0
 11
720.3553268016879
 21
530.9468788922013
 31
0.0
  0
LINE
  5
35D
330
1F
100
AcDbEntity
  8
0-0
  6
JWW_DASHED1
 62
   120
370
     5
100
AcDbLine
 10
278.8693717773953
 20
982.3323288517106
 30
0.0
 11
720.3553268016801
 21
540.8463738274253
 31
0.0
  0
LINE
  5
35E
330
1F
100
AcDbEntity
  8
0-0
  6
JWW_DASHED1
 62
   120
370
     5
100
AcDbLine
 10
288.7688667126039
 20
982.3323288517174
 30
0.0
 11
720.3553268016879
 21
550.7458687626336
 31
0.0
  0
LINE
  5
35F
330
1F
100
AcDbEntity
  8
0-0
  6
JWW_DASHED1
 62
   120
370
     5
100
AcDbLine
 10
298.6683616477691
 20
982.3323288517149
 30
0.0
 11
720.3553268016854
 21
560.6453636977983
 31
0.0
  0
LINE
  5
360
330
1F
100
AcDbEntity
  8
0-0
  6
JWW_DASHED1
 62
   120
370
     5
100
AcDbLine
 10
308.5678565829889
 20
982.3323288517115
 30
0.0
 11
720.3553268016938
 21
570.5448586330057
 31
0.0
  0
LINE
  5
361
330
1F
100
AcDbEntity
  8
0-0
  6
JWW_DASHED1
 62
   120
370
     5
100
AcDbLine
 10
318.467351518201
 20
982.3323288517149
 30
0.0
 11
720.3553268016861
 21
580.4443535682306
 31
0.0
  0
LINE
  5
362
330
1F
100
AcDbEntity
  8
0-0
  6
JWW_DASHED1
 62
   120
370
     5
100
AcDbLine
 10
328.3668464533508
 20
982.3323288517269
 30
0.0
 11
720.3553268016956
 21
590.3438485033826
 31
0.0
  0
LINE
  5
363
330
1F
100
AcDbEntity
  8
0-0
  6
JWW_DASHED1
 62
   120
370
     5
100
AcDbLine
 10
338.2663413885842
 20
982.3323288517098
 30
0.0
 11
720.3553268016913
 21
600.2433434386028
 31
0.0
  0
LINE
  5
364
330
1F
100
AcDbEntity
  8
0-0
  6
JWW_DASHED1
 62
   120
370
     5
100
AcDbLine
 10
348.1658363237989
 20
982.3323288517123
 30
0.0
 11
720.3553268016827
 21
610.1428383738277
 31
0.0
  0
LINE
  5
365
330
1F
100
AcDbEntity
  8
0-0
  6
JWW_DASHED1
 62
   120
370
     5
100
AcDbLine
 10
358.0653312589487
 20
982.3323288517242
 30
0.0
 11
720.355326801693
 21
620.0423333089792
 31
0.0
  0
LINE
  5
366
330
1F
100
AcDbEntity
  8
0-0
  6
JWW_DASHED1
 62
   120
370
     5
100
AcDbLine
 10
367.9648261941813
 20
982.3323288517072
 30
0.0
 11
720.3553268016888
 21
629.9418282441998
 31
0.0
  0
LINE
  5
367
330
1F
100
AcDbEntity
  8
0-0
  6
JWW_DASHED1
 62
   120
370
     5
100
AcDbLine
 10
377.8643211293959
 20
982.3323288517089
 30
0.0
 11
720.3553268016819
 21
639.8413231794234
 31
0.0
  0
LINE
  5
368
330
1F
100
AcDbEntity
  8
0-0
  6
JWW_DASHED1
 62
   120
370
     5
100
AcDbLine
 10
387.7638160645458
 20
982.3323288517208
 30
0.0
 11
720.3553268016913
 21
649.7408181145762
 31
0.0
  0
LINE
  5
369
330
1F
100
AcDbEntity
  8
0-0
  6
JWW_DASHED1
 62
   120
370
     5
100
AcDbLine
 10
397.6633109997698
 20
982.3323288517132
 30
0.0
 11
720.3553268016861
 21
659.6403130497972
 31
0.0
  0
LINE
  5
36A
330
1F
100
AcDbEntity
  8
0-0
  6
JWW_DASHED1
 62
   120
370
     5
100
AcDbLine
 10
407.5628059349938
 20
982.3323288517055
 30
0.0
 11
720.3553268016785
 21
669.5398079850208
 31
0.0
  0
LINE
  5
36B
330
1F
100
AcDbEntity
  8
0-0
  6
JWW_DASHED1
 62
   120
370
     5
100
AcDbLine
 10
417.4623008701437
 20
982.3323288517174
 30
0.0
 11
720.3553268016913
 21
679.4393029201703
 31
0.0
  0
LINE
  5
36C
330
1F
100
AcDbEntity
  8
0-0
  6
JWW_DASHED1
 62
   120
370
     5
100
AcDbLine
 10
427.3617958053515
 20
982.332328851726
 30
0.0
 11
720.3553268016964
 21
689.3387978553807
 31
0.0
  0
LINE
  5
36D
330
1F
100
AcDbEntity
  8
0-0
  6
JWW_DASHED1
 62
   120
370
     5
100
AcDbLine
 10
437.2612907405832
 20
982.3323288517106
 30
0.0
 11
720.3553268016922
 21
699.2382927906017
 31
0.0
  0
LINE
  5
36E
330
1F
100
AcDbEntity
  8
0-0
  6
JWW_DASHED1
 62
   120
370
     5
100
AcDbLine
 10
447.1607856757407
 20
982.3323288517149
 30
0.0
 11
720.3553268016879
 21
709.1377877257678
 31
0.0
  0
LINE
  5
36F
330
1F
100
AcDbEntity
  8
0-0
  6
JWW_DASHED1
 62
   120
370
     5
100
AcDbLine
 10
457.0602806109494
 20
982.3323288517234
 30
0.0
 11
720.3553268016947
 21
719.0372826609773
 31
0.0
  0
LINE
  5
370
330
1F
100
AcDbEntity
  8
0-0
  6
JWW_DASHED1
 62
   120
370
     5
100
AcDbLine
 10
466.9597755461214
 20
982.3323288517132
 30
0.0
 11
720.3553268016938
 21
728.9367775961404
 31
0.0
  0
LINE
  5
371
330
1F
100
AcDbEntity
  8
0-0
  6
JWW_DASHED1
 62
   120
370
     5
100
AcDbLine
 10
476.8592704813386
 20
982.3323288517123
 30
0.0
 11
720.3553268016861
 21
738.8362725313643
 31
0.0
  0
LINE
  5
372
330
1F
100
AcDbEntity
  8
0-0
  6
JWW_DASHED1
 62
   120
370
     5
100
AcDbLine
 10
486.7587654165465
 20
982.33232885172
 30
0.0
 11
720.355326801693
 21
748.7357674665739
 31
0.0
  0
LINE
  5
373
330
1F
100
AcDbEntity
  8
0-0
  6
JWW_DASHED1
 62
   120
370
     5
100
AcDbLine
 10
496.6582603517176
 20
982.3323288517106
 30
0.0
 11
720.3553268016913
 21
758.6352624017375
 31
0.0
  0
LINE
  5
374
330
1F
100
AcDbEntity
  8
0-0
  6
JWW_DASHED1
 62
   120
370
     5
100
AcDbLine
 10
506.5577552869357
 20
982.3323288517089
 30
0.0
 11
720.3553268016844
 21
768.5347573369606
 31
0.0
  0
LINE
  5
375
330
1F
100
AcDbEntity
  8
0-0
  6
JWW_DASHED1
 62
   120
370
     5
100
AcDbLine
 10
516.4572502221436
 20
982.3323288517174
 30
0.0
 11
720.3553268016904
 21
778.434252272171
 31
0.0
  0
LINE
  5
376
330
1F
100
AcDbEntity
  8
0-0
  6
JWW_DASHED1
 62
   120
370
     5
100
AcDbLine
 10
526.3567451573147
 20
982.3323288517081
 30
0.0
 11
720.3553268016888
 21
788.3337472073345
 31
0.0
  0
LINE
  5
377
330
1F
100
AcDbEntity
  8
0-0
  6
JWW_DASHED1
 62
   120
370
     5
100
AcDbLine
 10
536.2562400925335
 20
982.3323288517055
 30
0.0
 11
720.355326801681
 21
798.2332421425576
 31
0.0
  0
LINE
  5
378
330
1F
100
AcDbEntity
  8
0-0
  6
JWW_DASHED1
 62
   120
370
     5
100
AcDbLine
 10
546.1557350277423
 20
982.3323288517132
 30
0.0
 11
720.3553268016896
 21
808.1327370777659
 31
0.0
  0
LINE
  5
379
330
1F
100
AcDbEntity
  8
0-0
  6
JWW_DASHED1
 62
   120
370
     5
100
AcDbLine
 10
556.0552299629074
 20
982.3323288517101
 30
0.0
 11
720.3553268016861
 21
818.0322320129314
 31
0.0
  0
LINE
  5
37A
330
1F
100
AcDbEntity
  8
0-0
  6
JWW_DASHED1
 62
   120
370
     5
100
AcDbLine
 10
565.9547248981314
 20
982.3323288517025
 30
0.0
 11
720.3553268016793
 21
827.9317269481546
 31
0.0
  0
LINE
  5
37B
330
1F
100
AcDbEntity
  8
0-0
  6
JWW_DASHED1
 62
   120
370
     5
100
AcDbLine
 10
575.8542198333394
 20
982.332328851711
 30
0.0
 11
720.3553268016869
 21
837.8312218833634
 31
0.0
  0
LINE
  5
37C
330
1F
100
AcDbEntity
  8
0-0
  6
JWW_DASHED1
 62
   120
370
     5
100
AcDbLine
 10
585.7537147685046
 20
982.3323288517076
 30
0.0
 11
720.3553268016835
 21
847.7307168185285
 31
0.0
  0
LINE
  5
37D
330
1F
100
AcDbEntity
  8
0-0
  6
JWW_DASHED1
 62
   120
370
     5
100
AcDbLine
 10
595.6532097037166
 20
982.332328851712
 30
0.0
 11
720.3553268016922
 21
857.6302117537364
 31
0.0
  0
LINE
  5
37E
330
1F
100
AcDbEntity
  8
0-0
  6
JWW_DASHED1
 62
   120
370
     5
100
AcDbLine
 10
605.552704638938
 20
982.3323288517072
 30
0.0
 11
720.3553268016844
 21
867.5297066889605
 31
0.0
  0
LINE
  5
37F
330
1F
100
AcDbEntity
  8
0-0
  6
JWW_DASHED1
 62
   120
370
     5
100
AcDbLine
 10
615.4521995740862
 20
982.33232885172
 30
0.0
 11
720.3553268016964
 21
877.4292016241099
 31
0.0
  0
LINE
  5
380
330
1F
100
AcDbEntity
  8
0-0
  6
JWW_DASHED1
 62
   120
370
     5
100
AcDbLine
 10
625.3516945093128
 20
982.3323288517098
 30
0.0
 11
720.3553268016896
 21
887.3286965593334
 31
0.0
  0
LINE
  5
381
330
1F
100
AcDbEntity
  8
0-0
  6
JWW_DASHED1
 62
   120
370
     5
100
AcDbLine
 10
635.2511894445342
 20
982.3323288517047
 30
0.0
 11
720.3553268016819
 21
897.2281914945574
 31
0.0
  0
LINE
  5
382
330
1F
100
AcDbEntity
  8
0-0
  6
JWW_DASHED1
 62
   120
370
     5
100
AcDbLine
 10
645.1506843796841
 20
982.3323288517174
 30
0.0
 11
720.3553268016938
 21
907.1276864297068
 31
0.0
  0
LINE
  5
383
330
1F
100
AcDbEntity
  8
0-0
  6
JWW_DASHED1
 62
   120
370
     5
100
AcDbLine
 10
655.050179314909
 20
982.3323288517081
 30
0.0
 11
720.3553268016869
 21
917.0271813649305
 31
0.0
  0
LINE
  5
384
330
1F
100
AcDbEntity
  8
0-0
  6
JWW_DASHED1
 62
   120
370
     5
100
AcDbLine
 10
664.9496742501321
 20
982.3323288517017
 30
0.0
 11
720.3553268016793
 21
926.9266763001536
 31
0.0
  0
LINE
  5
385
330
1F
100
AcDbEntity
  8
0-0
  6
JWW_DASHED1
 62
   120
370
     5
100
AcDbLine
 10
674.849169185282
 20
982.3323288517136
 30
0.0
 11
720.3553268016913
 21
936.826171235304
 31
0.0
  0
LINE
  5
386
330
1F
100
AcDbEntity
  8
0-0
  6
JWW_DASHED1
 62
   120
370
     5
100
AcDbLine
 10
684.748664120506
 20
982.3323288517059
 30
0.0
 11
720.3553268016844
 21
946.7256661705276
 31
0.0
  0
LINE
  5
387
330
1F
100
AcDbEntity
  8
0-0
  6
JWW_DASHED1
 62
   120
370
     5
100
AcDbLine
 10
694.6481590556712
 20
982.3323288517025
 30
0.0
 11
720.355326801681
 21
956.6251611056923
 31
0.0
  0
LINE
  5
388
330
1F
100
AcDbEntity
  8
0-0
  6
JWW_DASHED1
 62
   120
370
     5
100
AcDbLine
 10
704.5476539908791
 20
982.332328851711
 30
0.0
 11
720.3553268016896
 21
966.5246560409005
 31
0.0
  0
LINE
  5
389
330
1F
100
AcDbEntity
  8
0-0
  6
JWW_DASHED1
 62
   120
370
     5
100
AcDbLine
 10
714.4471489260877
 20
982.3323288517183
 30
0.0
 11
720.3553268016981
 21
976.4241509761088
 31
0.0
  0
LINE
  5
38A
330
1F
100
AcDbEntity
  8
0-0
  6
JWW_DASHED1
 62
   120
370
     5
100
AcDbLine
 10
910.3553268017026
 20
-908.4495828232914
 30
0.0
 11
917.5734151266843
 21
-915.6676711482731
 31
0.0
  0
LINE
  5
38B
330
1F
100
AcDbEntity
  8
0-0
  6
JWW_DASHED1
 62
   120
370
     5
100
AcDbLine
 10
910.3553268016958
 20
-898.5500878880682
 30
0.0
 11
927.4729100619084
 21
-915.6676711482817
 31
0.0
  0
LINE
  5
38C
330
1F
100
AcDbEntity
  8
0-0
  6
JWW_DASHED1
 62
   120
370
     5
100
AcDbLine
 10
910.3553268017043
 20
-888.6505929528605
 30
0.0
 11
937.3724049971162
 21
-915.6676711482727
 31
0.0
  0
LINE
  5
38D
330
1F
100
AcDbEntity
  8
0-0
  6
JWW_DASHED1
 62
   120
370
     5
100
AcDbLine
 10
910.3553268017001
 20
-878.7510980176944
 30
0.0
 11
947.2718999322814
 21
-915.6676711482766
 31
0.0
  0
LINE
  5
38E
330
1F
100
AcDbEntity
  8
0-0
  6
JWW_DASHED1
 62
   120
370
     5
100
AcDbLine
 10
910.3553268017085
 20
-868.8516030824866
 30
0.0
 11
957.1713948674909
 21
-915.6676711482685
 31
0.0
  0
LINE
  5
38F
330
1F
100
AcDbEntity
  8
0-0
  6
JWW_DASHED1
 62
   120
370
     5
100
AcDbLine
 10
910.3553268017017
 20
-858.9521081472634
 30
0.0
 11
967.0708898027149
 21
-915.6676711482766
 31
0.0
  0
LINE
  5
390
330
1F
100
AcDbEntity
  8
0-0
  6
JWW_DASHED1
 62
   120
370
     5
100
AcDbLine
 10
910.3553268016975
 20
-849.0526132120978
 30
0.0
 11
976.9703847378793
 21
-915.6676711482795
 31
0.0
  0
LINE
  5
391
330
1F
100
AcDbEntity
  8
0-0
  6
JWW_DASHED1
 62
   120
370
     5
100
AcDbLine
 10
910.355326801706
 20
-839.1531182768895
 30
0.0
 11
986.869879673088
 21
-915.6676711482714
 31
0.0
  0
LINE
  5
392
330
1F
100
AcDbEntity
  8
0-0
  6
JWW_DASHED1
 62
   120
370
     5
100
AcDbLine
 10
910.3553268016992
 20
-829.2536233416663
 30
0.0
 11
996.769374608312
 21
-915.6676711482792
 31
0.0
  0
LINE
  5
393
330
1F
100
AcDbEntity
  8
0-0
  6
JWW_DASHED1
 62
   120
370
     5
100
AcDbLine
 10
910.3553268016958
 20
-819.3541284065008
 30
0.0
 11
1006.668869543475
 21
-915.6676711482804
 31
0.0
  0
LINE
  5
394
330
1F
100
AcDbEntity
  8
0-0
  6
JWW_DASHED1
 62
   120
370
     5
100
AcDbLine
 10
910.3553268017035
 20
-809.4546334712925
 30
0.0
 11
1016.568364478686
 21
-915.6676711482748
 31
0.0
  0
LINE
  5
395
330
1F
100
AcDbEntity
  8
0-0
  6
JWW_DASHED1
 62
   120
370
     5
100
AcDbLine
 10
910.3553268017017
 20
-799.555138536129
 30
0.0
 11
1026.46785941385
 21
-915.6676711482778
 31
0.0
  0
LINE
  5
396
330
1F
100
AcDbEntity
  8
0-0
  6
JWW_DASHED1
 62
   120
370
     5
100
AcDbLine
 10
910.3553268016924
 20
-789.6556436009037
 30
0.0
 11
1036.367354349072
 21
-915.6676711482821
 31
0.0
  0
LINE
  5
397
330
1F
100
AcDbEntity
  8
0-0
  6
JWW_DASHED1
 62
   120
370
     5
100
AcDbLine
 10
910.3553268017009
 20
-779.7561486656955
 30
0.0
 11
1046.266849284283
 21
-915.6676711482778
 31
0.0
  0
LINE
  5
398
330
1F
100
AcDbEntity
  8
0-0
  6
JWW_DASHED1
 62
   120
370
     5
100
AcDbLine
 10
910.3553268016992
 20
-769.8566537305319
 30
0.0
 11
1056.166344219448
 21
-915.6676711482812
 31
0.0
  0
LINE
  5
399
330
1F
100
AcDbEntity
  8
0-0
  6
JWW_DASHED1
 62
   120
370
     5
100
AcDbLine
 10
910.3553268016907
 20
-759.9571587953075
 30
0.0
 11
1066.065839154668
 21
-915.6676711482851
 31
0.0
  0
LINE
  5
39A
330
1F
100
AcDbEntity
  8
0-0
  6
JWW_DASHED1
 62
   120
370
     5
100
AcDbLine
 10
910.3553268016983
 20
-750.0576638600984
 30
0.0
 11
1075.965334089881
 21
-915.6676711482804
 31
0.0
  0
LINE
  5
39B
330
1F
100
AcDbEntity
  8
0-0
  6
JWW_DASHED1
 62
   120
370
     5
100
AcDbLine
 10
910.3553268016967
 20
-740.1581689249349
 30
0.0
 11
1085.864829025046
 21
-915.6676711482842
 31
0.0
  0
LINE
  5
39C
330
1F
100
AcDbEntity
  8
0-0
  6
JWW_DASHED1
 62
   120
370
     5
100
AcDbLine
 10
910.3553268017043
 20
-730.2586739897258
 30
0.0
 11
1095.764323960254
 21
-915.6676711482761
 31
0.0
  0
LINE
  5
39D
330
1F
100
AcDbEntity
  8
0-0
  6
JWW_DASHED1
 62
   120
370
     5
100
AcDbLine
 10
910.3553268016958
 20
-720.3591790545022
 30
0.0
 11
1105.663818895478
 21
-915.6676711482838
 31
0.0
  0
LINE
  5
39E
330
1F
100
AcDbEntity
  8
0-0
  6
JWW_DASHED1
 62
   120
370
     5
100
AcDbLine
 10
910.3553268016958
 20
-710.4596841193392
 30
0.0
 11
1115.563313830642
 21
-915.6676711482868
 31
0.0
  0
LINE
  5
39F
330
1F
100
AcDbEntity
  8
0-0
  6
JWW_DASHED1
 62
   120
370
     5
100
AcDbLine
 10
910.3553268017009
 20
-700.5601891841287
 30
0.0
 11
1125.462808765852
 21
-915.6676711482792
 31
0.0
  0
LINE
  5
3A0
330
1F
100
AcDbEntity
  8
0-0
  6
JWW_DASHED1
 62
   120
370
     5
100
AcDbLine
 10
910.3553268016941
 20
-690.6606942489052
 30
0.0
 11
1135.36230370107
 21
-915.6676711482808
 31
0.0
  0
LINE
  5
3A1
330
1F
100
AcDbEntity
  8
0-0
  6
JWW_DASHED1
 62
   120
370
     5
100
AcDbLine
 10
910.355326801706
 20
-680.7611993137552
 30
0.0
 11
1145.261798636226
 21
-915.6676711482748
 31
0.0
  0
LINE
  5
3A2
330
1F
100
AcDbEntity
  8
0-0
  6
JWW_DASHED1
 62
   120
370
     5
100
AcDbLine
 10
910.3553268017009
 20
-670.8617043785339
 30
0.0
 11
1155.16129357145
 21
-915.6676711482826
 31
0.0
  0
LINE
  5
3A3
330
1F
100
AcDbEntity
  8
0-0
  6
JWW_DASHED1
 62
   120
370
     5
100
AcDbLine
 10
910.3553268016907
 20
-660.9622094433081
 30
0.0
 11
1165.060788506667
 21
-915.6676711482834
 31
0.0
  0
LINE
  5
3A4
330
1F
100
AcDbEntity
  8
0-0
  6
JWW_DASHED1
 62
   120
370
     5
100
AcDbLine
 10
910.3553268017043
 20
-651.0627145081587
 30
0.0
 11
1174.960283441823
 21
-915.6676711482778
 31
0.0
  0
LINE
  5
3A5
330
1F
100
AcDbEntity
  8
0-0
  6
JWW_DASHED1
 62
   120
370
     5
100
AcDbLine
 10
910.3553268016992
 20
-641.1632195729372
 30
0.0
 11
1184.859778377047
 21
-915.6676711482855
 31
0.0
  0
LINE
  5
3A6
330
1F
100
AcDbEntity
  8
0-0
  6
JWW_DASHED1
 62
   120
370
     5
100
AcDbLine
 10
910.355326801689
 20
-631.2637246377107
 30
0.0
 11
1194.759273312263
 21
-915.6676711482855
 31
0.0
  0
LINE
  5
3A7
330
1F
100
AcDbEntity
  8
0-0
  6
JWW_DASHED1
 62
   120
370
     5
100
AcDbLine
 10
910.3553268017009
 20
-621.3642297025616
 30
0.0
 11
1204.658768247421
 21
-915.6676711482804
 31
0.0
  0
LINE
  5
3A8
330
1F
100
AcDbEntity
  8
0-0
  6
JWW_DASHED1
 62
   120
370
     5
100
AcDbLine
 10
910.3553268016958
 20
-611.4647347673401
 30
0.0
 11
1214.558263182644
 21
-915.667671148288
 31
0.0
  0
LINE
  5
3A9
330
1F
100
AcDbEntity
  8
0-0
  6
JWW_DASHED1
 62
   120
370
     5
100
AcDbLine
 10
910.3553268016907
 20
-601.5652398321729
 30
0.0
 11
1224.457758117801
 21
-915.6676711482834
 31
0.0
  0
LINE
  5
3AA
330
1F
100
AcDbEntity
  8
0-0
  6
JWW_DASHED1
 62
   120
370
     5
100
AcDbLine
 10
910.3553268016992
 20
-591.6657448969654
 30
0.0
 11
1234.357253053018
 21
-915.6676711482838
 31
0.0
  0
LINE
  5
3AB
330
1F
100
AcDbEntity
  8
0-0
  6
JWW_DASHED1
 62
   120
370
     5
100
AcDbLine
 10
910.355326801707
 20
-581.7662499617563
 30
0.0
 11
1244.256747988225
 21
-915.6676711482748
 31
0.0
  0
LINE
  5
3AC
330
1F
100
AcDbEntity
  8
0-0
  6
JWW_DASHED1
 62
   120
370
     5
100
AcDbLine
 10
910.3553268016881
 20
-571.8667550265758
 30
0.0
 11
1254.156242923398
 21
-915.667671148286
 31
0.0
  0
LINE
  5
3AD
330
1F
100
AcDbEntity
  8
0-0
  6
JWW_DASHED1
 62
   120
370
     5
100
AcDbLine
 10
910.3553268016967
 20
-561.9672600913684
 30
0.0
 11
1264.055737858615
 21
-915.6676711482868
 31
0.0
  0
LINE
  5
3AE
330
1F
100
AcDbEntity
  8
0-0
  6
JWW_DASHED1
 62
   120
370
     5
100
AcDbLine
 10
910.3553268017043
 20
-552.0677651561593
 30
0.0
 11
1273.955232793824
 21
-915.6676711482787
 31
0.0
  0
LINE
  5
3AF
330
1F
100
AcDbEntity
  8
0-0
  6
JWW_DASHED1
 62
   120
370
     5
100
AcDbLine
 10
910.3553268017009
 20
-542.1682702209945
 30
0.0
 11
1283.854727728989
 21
-915.6676711482817
 31
0.0
  0
LINE
  5
3B0
330
1F
100
AcDbEntity
  8
0-0
  6
JWW_DASHED1
 62
   120
370
     5
100
AcDbLine
 10
910.3553268016941
 20
-532.2687752857713
 30
0.0
 11
1293.754222664204
 21
-915.6676711482804
 31
0.0
  0
LINE
  5
3B1
330
1F
100
AcDbEntity
  8
0-0
  6
JWW_DASHED1
 62
   120
370
     5
100
AcDbLine
 10
910.3553268017026
 20
-522.3692803505627
 30
0.0
 11
1303.653717599422
 21
-915.6676711482821
 31
0.0
  0
LINE
  5
3B2
330
1F
100
AcDbEntity
  8
0-0
  6
JWW_DASHED1
 62
   120
370
     5
100
AcDbLine
 10
910.3553268017026
 20
-512.4697854154012
 30
0.0
 11
1313.553212534587
 21
-915.6676711482855
 31
0.0
  0
LINE
  5
3B3
330
1F
100
AcDbEntity
  8
0-0
  6
JWW_DASHED1
 62
   120
370
     5
100
AcDbLine
 10
910.3553268016907
 20
-502.5702904801734
 30
0.0
 11
1323.452707469799
 21
-915.6676711482817
 31
0.0
  0
LINE
  5
3B4
330
1F
100
AcDbEntity
  8
0-0
  6
JWW_DASHED1
 62
   120
370
     5
100
AcDbLine
 10
910.3553268016992
 20
-492.6707955449656
 30
0.0
 11
1333.352202405019
 21
-915.6676711482851
 31
0.0
  0
LINE
  5
3B5
330
1F
100
AcDbEntity
  8
0-0
  6
JWW_DASHED1
 62
   120
370
     5
100
AcDbLine
 10
910.3553268016992
 20
-482.7713006098043
 30
0.0
 11
1343.251697340183
 21
-915.667671148288
 31
0.0
  0
LINE
  5
3B6
330
1F
100
AcDbEntity
  8
0-0
  6
JWW_DASHED1
 62
   120
370
     5
100
AcDbLine
 10
910.355326801689
 20
-472.8718056745772
 30
0.0
 11
1353.151192275396
 21
-915.6676711482842
 31
0.0
  0
LINE
  5
3B7
330
1F
100
AcDbEntity
  8
0-0
  6
JWW_DASHED1
 62
   120
370
     5
100
AcDbLine
 10
910.3553268016975
 20
-462.9723107393686
 30
0.0
 11
1363.050687210616
 21
-915.6676711482876
 31
0.0
  0
LINE
  5
3B8
330
1F
100
AcDbEntity
  8
0-0
  6
JWW_DASHED1
 62
   120
370
     5
100
AcDbLine
 10
910.3553268016975
 20
-453.0728158042076
 30
0.0
 11
1372.950182145781
 21
-915.667671148291
 31
0.0
  0
LINE
  5
3B9
330
1F
100
AcDbEntity
  8
0-0
  6
JWW_DASHED1
 62
   120
370
     5
100
AcDbLine
 10
910.3553268017026
 20
-443.1733208689956
 30
0.0
 11
1382.84967708099
 21
-915.6676711482834
 31
0.0
  0
LINE
  5
3BA
330
1F
100
AcDbEntity
  8
0-0
  6
JWW_DASHED1
 62
   120
370
     5
100
AcDbLine
 10
910.3553268016958
 20
-433.2738259337724
 30
0.0
 11
1392.749172016214
 21
-915.667671148291
 31
0.0
  0
LINE
  5
3BB
330
1F
100
AcDbEntity
  8
0-0
  6
JWW_DASHED1
 62
   120
370
     5
100
AcDbLine
 10
910.3553268017077
 20
-423.3743309986233
 30
0.0
 11
1402.648666951364
 21
-915.6676711482787
 31
0.0
  0
LINE
  5
3BC
330
1F
100
AcDbEntity
  8
0-0
  6
JWW_DASHED1
 62
   120
370
     5
100
AcDbLine
 10
910.3553268017043
 20
-413.4748360634028
 30
0.0
 11
1412.548161886587
 21
-915.6676711482863
 31
0.0
  0
LINE
  5
3BD
330
1F
100
AcDbEntity
  8
0-0
  6
JWW_DASHED1
 62
   120
370
     5
100
AcDbLine
 10
910.3553268016967
 20
-403.5753411282337
 30
0.0
 11
1422.447656821752
 21
-915.6676711482897
 31
0.0
  0
LINE
  5
3BE
330
1F
100
AcDbEntity
  8
0-0
  6
JWW_DASHED1
 62
   120
370
     5
100
AcDbLine
 10
910.3553268017043
 20
-393.6758461930254
 30
0.0
 11
1432.34715175696
 21
-915.6676711482812
 31
0.0
  0
LINE
  5
3BF
330
1F
100
AcDbEntity
  8
0-0
  6
JWW_DASHED1
 62
   120
370
     5
100
AcDbLine
 10
910.3553268017009
 20
-383.7763512578057
 30
0.0
 11
1442.246646692185
 21
-915.6676711482897
 31
0.0
  0
LINE
  5
3C0
330
1F
100
AcDbEntity
  8
0-0
  6
JWW_DASHED1
 62
   120
370
     5
100
AcDbLine
 10
910.3553268016941
 20
-373.8768563226367
 30
0.0
 11
1452.14614162735
 21
-915.6676711482924
 31
0.0
  0
LINE
  5
3C1
330
1F
100
AcDbEntity
  8
0-0
  6
JWW_DASHED1
 62
   120
370
     5
100
AcDbLine
 10
910.3553268017026
 20
-363.9773613874293
 30
0.0
 11
1462.045636562559
 21
-915.6676711482851
 31
0.0
  0
LINE
  5
3C2
330
1F
100
AcDbEntity
  8
0-0
  6
JWW_DASHED1
 62
   120
370
     5
100
AcDbLine
 10
910.3553268016992
 20
-354.0778664522091
 30
0.0
 11
1471.945131497783
 21
-915.6676711482928
 31
0.0
  0
LINE
  5
3C3
330
1F
100
AcDbEntity
  8
0-0
  6
JWW_DASHED1
 62
   120
370
     5
100
AcDbLine
 10
910.3553268016915
 20
-344.1783715170396
 30
0.0
 11
1481.844626432933
 21
-915.6676711482808
 31
0.0
  0
LINE
  5
3C4
330
1F
100
AcDbEntity
  8
0-0
  6
JWW_DASHED1
 62
   120
370
     5
100
AcDbLine
 10
910.3553268017001
 20
-334.2788765818318
 30
0.0
 11
1491.744121368156
 21
-915.6676711482876
 31
0.0
  0
LINE
  5
3C5
330
1F
100
AcDbEntity
  8
0-0
  6
JWW_DASHED1
 62
   120
370
     5
100
AcDbLine
 10
910.3553268016975
 20
-324.3793816466129
 30
0.0
 11
1500.355326801683
 21
-914.3793816465985
 31
0.0
  0
LINE
  5
3C6
330
1F
100
AcDbEntity
  8
0-0
  6
JWW_DASHED1
 62
   120
370
     5
100
AcDbLine
 10
910.355326801689
 20
-314.4798867114426
 30
0.0
 11
1500.355326801696
 21
-904.4798867114496
 31
0.0
  0
LINE
  5
3C7
330
1F
100
AcDbEntity
  8
0-0
  6
JWW_DASHED1
 62
   120
370
     5
100
AcDbLine
 10
910.3553268016975
 20
-304.5803917762348
 30
0.0
 11
1500.355326801688
 21
-894.5803917762255
 31
0.0
  0
LINE
  5
3C8
330
1F
100
AcDbEntity
  8
0-0
  6
JWW_DASHED1
 62
   120
370
     5
100
AcDbLine
 10
910.355326801706
 20
-294.6808968410265
 30
0.0
 11
1500.355326801696
 21
-884.6808968410173
 31
0.0
  0
LINE
  5
3C9
330
1F
100
AcDbEntity
  8
0-0
  6
JWW_DASHED1
 62
   120
370
     5
100
AcDbLine
 10
910.3553268016865
 20
-284.7814019058455
 30
0.0
 11
1500.355326801693
 21
-874.7814019058525
 31
0.0
  0
LINE
  5
3CA
330
1F
100
AcDbEntity
  8
0-0
  6
JWW_DASHED1
 62
   120
370
     5
100
AcDbLine
 10
910.3553268016949
 20
-274.8819069706377
 30
0.0
 11
1500.355326801686
 21
-864.8819069706285
 31
0.0
  0
LINE
  5
3CB
330
1F
100
AcDbEntity
  8
0-0
  6
JWW_DASHED1
 62
   120
370
     5
100
AcDbLine
 10
910.3553268017026
 20
-264.9824120354294
 30
0.0
 11
1500.355326801693
 21
-854.9824120354202
 31
0.0
  0
LINE
  5
3CC
330
1F
100
AcDbEntity
  8
0-0
  6
JWW_DASHED1
 62
   120
370
     5
100
AcDbLine
 10
910.3553268016992
 20
-255.0829171002643
 30
0.0
 11
1500.355326801691
 21
-845.0829171002555
 31
0.0
  0
LINE
  5
3CD
330
1F
100
AcDbEntity
  8
0-0
  6
JWW_DASHED1
 62
   120
370
     5
100
AcDbLine
 10
910.3553268016924
 20
-245.1834221650407
 30
0.0
 11
1500.3553268017
 21
-835.1834221650477
 31
0.0
  0
LINE
  5
3CE
330
1F
100
AcDbEntity
  8
0-0
  6
JWW_DASHED1
 62
   120
370
     5
100
AcDbLine
 10
910.3553268017009
 20
-235.2839272298333
 30
0.0
 11
1500.355326801691
 21
-825.2839272298228
 31
0.0
  0
LINE
  5
3CF
330
1F
100
AcDbEntity
  8
0-0
  6
JWW_DASHED1
 62
   120
370
     5
100
AcDbLine
 10
910.3553268017026
 20
-225.3844322946732
 30
0.0
 11
1500.355326801689
 21
-815.3844322946593
 31
0.0
  0
LINE
  5
3D0
330
1F
100
AcDbEntity
  8
0-0
  6
JWW_DASHED1
 62
   120
370
     5
100
AcDbLine
 10
910.3553268016899
 20
-215.4849373594436
 30
0.0
 11
1500.355326801696
 21
-805.4849373594506
 31
0.0
  0
LINE
  5
3D1
330
1F
100
AcDbEntity
  8
0-0
  6
JWW_DASHED1
 62
   120
370
     5
100
AcDbLine
 10
910.3553268016983
 20
-205.5854424242362
 30
0.0
 11
1500.355326801689
 21
-795.5854424242266
 31
0.0
  0
LINE
  5
3D2
330
1F
100
AcDbEntity
  8
0-0
  6
JWW_DASHED1
 62
   120
370
     5
100
AcDbLine
 10
910.3553268017009
 20
-195.6859474890766
 30
0.0
 11
1500.355326801686
 21
-785.6859474890622
 31
0.0
  0
LINE
  5
3D3
330
1F
100
AcDbEntity
  8
0-0
  6
JWW_DASHED1
 62
   120
370
     5
100
AcDbLine
 10
910.3553268016873
 20
-185.7864525538466
 30
0.0
 11
1500.355326801695
 21
-775.7864525538536
 31
0.0
  0
LINE
  5
3D4
330
1F
100
AcDbEntity
  8
0-0
  6
JWW_DASHED1
 62
   120
370
     5
100
AcDbLine
 10
910.3553268016958
 20
-175.8869576186392
 30
0.0
 11
1500.355326801686
 21
-765.8869576186295
 31
0.0
  0
LINE
  5
3D5
330
1F
100
AcDbEntity
  8
0-0
  6
JWW_DASHED1
 62
   120
370
     5
100
AcDbLine
 10
910.3553268016983
 20
-165.9874626834795
 30
0.0
 11
1500.355326801684
 21
-755.9874626834652
 31
0.0
  0
LINE
  5
3D6
330
1F
100
AcDbEntity
  8
0-0
  6
JWW_DASHED1
 62
   120
370
     5
100
AcDbLine
 10
910.3553268017009
 20
-156.0879677482653
 30
0.0
 11
1500.355326801691
 21
-746.0879677482565
 31
0.0
  0
LINE
  5
3D7
330
1F
100
AcDbEntity
  8
0-0
  6
JWW_DASHED1
 62
   120
370
     5
100
AcDbLine
 10
910.3553268016975
 20
-146.1884728131005
 30
0.0
 11
1500.355326801688
 21
-736.1884728130908
 31
0.0
  0
LINE
  5
3D8
330
1F
100
AcDbEntity
  8
0-0
  6
JWW_DASHED1
 62
   120
370
     5
100
AcDbLine
 10
910.355326801706
 20
-136.2889778778927
 30
0.0
 11
1500.355326801696
 21
-726.2889778778834
 31
0.0
  0
LINE
  5
3D9
330
1F
100
AcDbEntity
  8
0-0
  6
JWW_DASHED1
 62
   120
370
     5
100
AcDbLine
 10
910.3553268017051
 20
-126.3894829426755
 30
0.0
 11
1500.355326801691
 21
-716.3894829426612
 31
0.0
  0
LINE
  5
3DA
330
1F
100
AcDbEntity
  8
0-0
  6
JWW_DASHED1
 62
   120
370
     5
100
AcDbLine
 10
910.3553268016949
 20
-116.4899880075035
 30
0.0
 11
1500.355326801686
 21
-706.4899880074947
 31
0.0
  0
LINE
  5
3DB
330
1F
100
AcDbEntity
  8
0-0
  6
JWW_DASHED1
 62
   120
370
     5
100
AcDbLine
 10
910.3553268017035
 20
-106.5904930722957
 30
0.0
 11
1500.355326801695
 21
-696.5904930722864
 31
0.0
  0
LINE
  5
3DC
330
1F
100
AcDbEntity
  8
0-0
  6
JWW_DASHED1
 62
   120
370
     5
100
AcDbLine
 10
910.3553268017026
 20
-96.69099813707845
 30
0.0
 11
1500.355326801688
 21
-686.6909981370641
 31
0.0
  0
LINE
  5
3DD
330
1F
100
AcDbEntity
  8
0-0
  6
JWW_DASHED1
 62
   120
370
     5
100
AcDbLine
 10
910.3553268016924
 20
-86.79150320190644
 30
0.0
 11
1500.355326801699
 21
-676.791503201913
 31
0.0
  0
LINE
  5
3DE
330
1F
100
AcDbEntity
  8
0-0
  6
JWW_DASHED1
 62
   120
370
     5
100
AcDbLine
 10
910.3553268017009
 20
-76.89200826669861
 30
0.0
 11
1500.355326801692
 21
-666.8920082666898
 31
0.0
  0
LINE
  5
3DF
330
1F
100
AcDbEntity
  8
0-0
  6
JWW_DASHED1
 62
   120
370
     5
100
AcDbLine
 10
910.3553268017009
 20
-66.99251333148183
 30
0.0
 11
1500.355326801686
 21
-656.9925133314675
 31
0.0
  0
LINE
  5
3E0
330
1F
100
AcDbEntity
  8
0-0
  6
JWW_DASHED1
 62
   120
370
     5
100
AcDbLine
 10
910.3553268016907
 20
-57.09301839630982
 30
0.0
 11
1500.355326801696
 21
-647.093018396316
 31
0.0
  0
LINE
  5
3E1
330
1F
100
AcDbEntity
  8
0-0
  6
JWW_DASHED1
 62
   120
370
     5
100
AcDbLine
 10
910.3553268016983
 20
-47.19352346110156
 30
0.0
 11
1500.355326801689
 21
-637.1935234610924
 31
0.0
  0
LINE
  5
3E2
330
1F
100
AcDbEntity
  8
0-0
  6
JWW_DASHED1
 62
   120
370
     5
100
AcDbLine
 10
910.3553268016983
 20
-37.29402852588564
 30
0.0
 11
1500.355326801684
 21
-627.2940285258704
 31
0.0
  0
LINE
  5
3E3
330
1F
100
AcDbEntity
  8
0-0
  6
JWW_DASHED1
 62
   120
370
     5
100
AcDbLine
 10
910.3553268016873
 20
-27.39453359071234
 30
0.0
 11
1500.355326801694
 21
-617.3945335907189
 31
0.0
  0
LINE
  5
3E4
330
1F
100
AcDbEntity
  8
0-0
  6
JWW_DASHED1
 62
   120
370
     5
100
AcDbLine
 10
910.3553268016958
 20
-17.49503865550452
 30
0.0
 11
1500.355326801686
 21
-607.4950386554949
 31
0.0
  0
LINE
  5
3E5
330
1F
100
AcDbEntity
  8
0-0
  6
JWW_DASHED1
 62
   120
370
     5
100
AcDbLine
 10
910.3553268017043
 20
-7.595543720296689
 30
0.0
 11
1500.355326801695
 21
-597.5955437202874
 31
0.0
  0
LINE
  5
3E6
330
1F
100
AcDbEntity
  8
0-0
  6
JWW_DASHED1
 62
   120
370
     5
100
AcDbLine
 10
910.3553268017001
 20
2.303951214868931
 30
0.0
 11
1500.355326801691
 21
-587.6960487851218
 31
0.0
  0
LINE
  5
3E7
330
1F
100
AcDbEntity
  8
0-0
  6
JWW_DASHED1
 62
   120
370
     5
100
AcDbLine
 10
910.3553268016933
 20
12.20344615009253
 30
0.0
 11
1500.355326801684
 21
-577.7965538498986
 31
0.0
  0
LINE
  5
3E8
330
1F
100
AcDbEntity
  8
0-0
  6
JWW_DASHED1
 62
   120
370
     5
100
AcDbLine
 10
910.3553268017017
 20
22.10294108530036
 30
0.0
 11
1500.355326801693
 21
-567.8970589146904
 31
0.0
  0
LINE
  5
3E9
330
1F
100
AcDbEntity
  8
0-0
  6
JWW_DASHED1
 62
   120
370
     5
100
AcDbLine
 10
910.3553268016983
 20
32.00243602046555
 30
0.0
 11
1500.355326801689
 21
-557.9975639795248
 31
0.0
  0
LINE
  5
3EA
330
1F
100
AcDbEntity
  8
0-0
  6
JWW_DASHED1
 62
   120
370
     5
100
AcDbLine
 10
910.3553268016907
 20
41.90193095568958
 30
0.0
 11
1500.355326801698
 21
-548.0980690443174
 31
0.0
  0
LINE
  5
3EB
330
1F
100
AcDbEntity
  8
0-0
  6
JWW_DASHED1
 62
   120
370
     5
100
AcDbLine
 10
910.3553268016992
 20
51.80142589089741
 30
0.0
 11
1500.355326801689
 21
-538.1985741090933
 31
0.0
  0
LINE
  5
3EC
330
1F
100
AcDbEntity
  8
0-0
  6
JWW_DASHED1
 62
   120
370
     5
100
AcDbLine
 10
910.3553268017043
 20
61.70092082605407
 30
0.0
 11
1500.355326801689
 21
-528.2990791739315
 31
0.0
  0
LINE
  5
3ED
330
1F
100
AcDbEntity
  8
0-0
  6
JWW_DASHED1
 62
   120
370
     5
100
AcDbLine
 10
910.3553268016881
 20
71.60041576128663
 30
0.0
 11
1500.355326801695
 21
-518.3995842387203
 31
0.0
  0
LINE
  5
3EE
330
1F
100
AcDbEntity
  8
0-0
  6
JWW_DASHED1
 62
   120
370
     5
100
AcDbLine
 10
910.3553268016967
 20
81.49991069649445
 30
0.0
 11
1500.355326801688
 21
-508.5000893034963
 31
0.0
  0
LINE
  5
3EF
330
1F
100
AcDbEntity
  8
0-0
  6
JWW_DASHED1
 62
   120
370
     5
100
AcDbLine
 10
910.3553268017026
 20
91.3994056316507
 30
0.0
 11
1500.355326801688
 21
-498.600594368335
 31
0.0
  0
LINE
  5
3F0
330
1F
100
AcDbEntity
  8
0-0
  6
JWW_DASHED1
 62
   120
370
     5
100
AcDbLine
 10
910.3553268016856
 20
101.2989005668837
 30
0.0
 11
1500.355326801692
 21
-488.7010994331233
 31
0.0
  0
LINE
  5
3F1
330
1F
100
AcDbEntity
  8
0-0
  6
JWW_DASHED1
 62
   120
370
     5
100
AcDbLine
 10
910.3553268016941
 20
111.1983955020915
 30
0.0
 11
1500.355326801685
 21
-478.8016044978997
 31
0.0
  0
LINE
  5
3F2
330
1F
100
AcDbEntity
  8
0-0
  6
JWW_DASHED1
 62
   120
370
     5
100
AcDbLine
 10
910.3553268016992
 20
121.0978904372477
 30
0.0
 11
1500.355326801685
 21
-468.9021095627379
 31
0.0
  0
LINE
  5
3F3
330
1F
100
AcDbEntity
  8
0-0
  6
JWW_DASHED1
 62
   120
370
     5
100
AcDbLine
 10
910.3553268016992
 20
130.9973853724649
 30
0.0
 11
1500.355326801689
 21
-459.0026146275262
 31
0.0
  0
LINE
  5
3F4
330
1F
100
AcDbEntity
  8
0-0
  6
JWW_DASHED1
 62
   120
370
     5
100
AcDbLine
 10
910.3553268016915
 20
140.8968803076885
 30
0.0
 11
1500.355326801698
 21
-449.1031196923184
 31
0.0
  0
LINE
  5
3F5
330
1F
100
AcDbEntity
  8
0-0
  6
JWW_DASHED1
 62
   120
370
     5
100
AcDbLine
 10
910.3553268017043
 20
150.7963752428375
 30
0.0
 11
1500.355326801695
 21
-439.2036247571528
 31
0.0
  0
LINE
  5
3F6
330
1F
100
AcDbEntity
  8
0-0
  6
JWW_DASHED1
 62
   120
370
     5
100
AcDbLine
 10
910.355326801706
 20
160.6958701780526
 30
0.0
 11
1500.355326801692
 21
-429.3041298219339
 31
0.0
  0
LINE
  5
3F7
330
1F
100
AcDbEntity
  8
0-0
  6
JWW_DASHED1
 62
   120
370
     5
100
AcDbLine
 10
910.3553268016933
 20
170.5953651132268
 30
0.0
 11
1500.355326801684
 21
-419.4046348867644
 31
0.0
  0
LINE
  5
3F8
330
1F
100
AcDbEntity
  8
0-0
  6
JWW_DASHED1
 62
   120
370
     5
100
AcDbLine
 10
910.3553268017017
 20
180.4948600484346
 30
0.0
 11
1500.355326801692
 21
-409.5051399515557
 31
0.0
  0
LINE
  5
3F9
330
1F
100
AcDbEntity
  8
0-0
  6
JWW_DASHED1
 62
   120
370
     5
100
AcDbLine
 10
910.3553268017026
 20
190.3943549836497
 30
0.0
 11
1500.355326801689
 21
-399.6056450163368
 31
0.0
  0
LINE
  5
3FA
330
1F
100
AcDbEntity
  8
0-0
  6
JWW_DASHED1
 62
   120
370
     5
100
AcDbLine
 10
910.3553268016907
 20
200.2938499188238
 30
0.0
 11
1500.355326801697
 21
-389.7061500811827
 31
0.0
  0
LINE
  5
3FB
330
1F
100
AcDbEntity
  8
0-0
  6
JWW_DASHED1
 62
   120
370
     5
100
AcDbLine
 10
910.3553268016992
 20
210.1933448540316
 30
0.0
 11
1500.35532680169
 21
-379.8066551459596
 31
0.0
  0
LINE
  5
3FC
330
1F
100
AcDbEntity
  8
0-0
  6
JWW_DASHED1
 62
   120
370
     5
100
AcDbLine
 10
910.3553268017009
 20
220.0928397892459
 30
0.0
 11
1500.355326801687
 21
-369.9071602107398
 31
0.0
  0
LINE
  5
3FD
330
1F
100
AcDbEntity
  8
0-0
  6
JWW_DASHED1
 62
   120
370
     5
100
AcDbLine
 10
910.355326801689
 20
229.9923347244204
 30
0.0
 11
1500.355326801695
 21
-360.0076652755857
 31
0.0
  0
LINE
  5
3FE
330
1F
100
AcDbEntity
  8
0-0
  6
JWW_DASHED1
 62
   120
370
     5
100
AcDbLine
 10
910.3553268016967
 20
239.8918296596287
 30
0.0
 11
1500.355326801688
 21
-350.1081703403625
 31
0.0
  0
LINE
  5
3FF
330
1F
100
AcDbEntity
  8
0-0
  6
JWW_DASHED1
 62
   120
370
     5
100
AcDbLine
 10
910.3553268017051
 20
249.7913245948365
 30
0.0
 11
1500.355326801696
 21
-340.2086754051547
 31
0.0
  0
LINE
  5
400
330
1F
100
AcDbEntity
  8
0-0
  6
JWW_DASHED1
 62
   120
370
     5
100
AcDbLine
 10
910.3553268016856
 20
259.6908195300175
 30
0.0
 11
1500.355326801693
 21
-330.3091804699895
 31
0.0
  0
LINE
  5
401
330
1F
100
AcDbEntity
  8
0-0
  6
JWW_DASHED1
 62
   120
370
     5
100
AcDbLine
 10
910.3553268016941
 20
269.5903144652253
 30
0.0
 11
1500.355326801685
 21
-320.4096855347655
 31
0.0
  0
LINE
  5
402
330
1F
100
AcDbEntity
  8
0-0
  6
JWW_DASHED1
 62
   120
370
     5
100
AcDbLine
 10
910.3553268017026
 20
279.4898094004336
 30
0.0
 11
1500.355326801693
 21
-310.5101905995572
 31
0.0
  0
LINE
  5
403
330
1F
100
AcDbEntity
  8
0-0
  6
JWW_DASHED1
 62
   120
370
     5
100
AcDbLine
 10
910.3553268016992
 20
289.3893043355988
 30
0.0
 11
1500.355326801689
 21
-300.6106956643924
 31
0.0
  0
LINE
  5
404
330
1F
100
AcDbEntity
  8
0-0
  6
JWW_DASHED1
 62
   120
370
     5
100
AcDbLine
 10
910.3553268016915
 20
299.2887992708228
 30
0.0
 11
1500.355326801683
 21
-290.7112007291684
 31
0.0
  0
LINE
  5
405
330
1F
100
AcDbEntity
  8
0-0
  6
JWW_DASHED1
 62
   120
370
     5
100
AcDbLine
 10
910.3553268017001
 20
309.1882942060306
 30
0.0
 11
1500.35532680169
 21
-280.8117057939597
 31
0.0
  0
LINE
  5
406
330
1F
100
AcDbEntity
  8
0-0
  6
JWW_DASHED1
 62
   120
370
     5
100
AcDbLine
 10
910.355326801707
 20
319.0877891411856
 30
0.0
 11
1500.355326801693
 21
-270.9122108588005
 31
0.0
  0
LINE
  5
407
330
1F
100
AcDbEntity
  8
0-0
  6
JWW_DASHED1
 62
   120
370
     5
100
AcDbLine
 10
910.355326801689
 20
328.9872840764198
 30
0.0
 11
1500.355326801696
 21
-261.0127159235867
 31
0.0
  0
LINE
  5
408
330
1F
100
AcDbEntity
  8
0-0
  6
JWW_DASHED1
 62
   120
370
     5
100
AcDbLine
 10
910.3553268016975
 20
338.8867790116277
 30
0.0
 11
1500.355326801689
 21
-251.1132209883635
 31
0.0
  0
LINE
  5
409
330
1F
100
AcDbEntity
  8
0-0
  6
JWW_DASHED1
 62
   120
370
     5
100
AcDbLine
 10
910.3553268017043
 20
348.7862739467822
 30
0.0
 11
1500.35532680169
 21
-241.2137260532035
 31
0.0
  0
LINE
  5
40A
330
1F
100
AcDbEntity
  8
0-0
  6
JWW_DASHED1
 62
   120
370
     5
100
AcDbLine
 10
910.3553268016865
 20
358.6857688820169
 30
0.0
 11
1500.355326801693
 21
-231.3142311179897
 31
0.0
  0
LINE
  5
40B
330
1F
100
AcDbEntity
  8
0-0
  6
JWW_DASHED1
 62
   120
370
     5
100
AcDbLine
 10
910.3553268016949
 20
368.5852638172247
 30
0.0
 11
1500.355326801686
 21
-221.4147361827665
 31
0.0
  0
LINE
  5
40C
330
1F
100
AcDbEntity
  8
0-0
  6
JWW_DASHED1
 62
   120
370
     5
100
AcDbLine
 10
910.3553268017026
 20
378.4847587523784
 30
0.0
 11
1500.355326801688
 21
-211.5152412476073
 31
0.0
  0
LINE
  5
40D
330
1F
100
AcDbEntity
  8
0-0
  6
JWW_DASHED1
 62
   120
370
     5
100
AcDbLine
 10
910.3553268016839
 20
388.3842536876135
 30
0.0
 11
1500.35532680169
 21
-201.6157463123926
 31
0.0
  0
LINE
  5
40E
330
1F
100
AcDbEntity
  8
0-0
  6
JWW_DASHED1
 62
   120
370
     5
100
AcDbLine
 10
910.3553268016924
 20
398.2837486228217
 30
0.0
 11
1500.355326801684
 21
-191.7162513771694
 31
0.0
  0
LINE
  5
40F
330
1F
100
AcDbEntity
  8
0-0
  6
JWW_DASHED1
 62
   120
370
     5
100
AcDbLine
 10
910.3553268017001
 20
408.1832435579754
 30
0.0
 11
1500.355326801686
 21
-181.8167564420106
 31
0.0
  0
LINE
  5
410
330
1F
100
AcDbEntity
  8
0-0
  6
JWW_DASHED1
 62
   120
370
     5
100
AcDbLine
 10
910.3553268016975
 20
418.0827384931944
 30
0.0
 11
1500.355326801689
 21
-171.9172615067964
 31
0.0
  0
LINE
  5
411
330
1F
100
AcDbEntity
  8
0-0
  6
JWW_DASHED1
 62
   120
370
     5
100
AcDbLine
 10
910.3553268016899
 20
427.9822334284188
 30
0.0
 11
1500.355326801696
 21
-162.0177665715882
 31
0.0
  0
LINE
  5
412
330
1F
100
AcDbEntity
  8
0-0
  6
JWW_DASHED1
 62
   120
370
     5
100
AcDbLine
 10
910.3553268017026
 20
437.8817283635678
 30
0.0
 11
1500.355326801693
 21
-152.1182716364234
 31
0.0
  0
LINE
  5
413
330
1F
100
AcDbEntity
  8
0-0
  6
JWW_DASHED1
 62
   120
370
     5
100
AcDbLine
 10
910.355326801706
 20
447.7812232987803
 30
0.0
 11
1500.355326801693
 21
-142.2187767012058
 31
0.0
  0
LINE
  5
414
330
1F
100
AcDbEntity
  8
0-0
  6
JWW_DASHED1
 62
   120
370
     5
100
AcDbLine
 10
910.3553268016899
 20
457.6807182339855
 30
0.0
 11
1500.355326801681
 21
-132.3192817660048
 31
0.0
  0
LINE
  5
415
330
1F
100
AcDbEntity
  8
0-0
  6
JWW_DASHED1
 62
   120
370
     5
100
AcDbLine
 10
910.3553268016992
 20
467.5802131691648
 30
0.0
 11
1500.355326801691
 21
-122.4197868308264
 31
0.0
  0
LINE
  5
416
330
1F
100
AcDbEntity
  8
0-0
  6
JWW_DASHED1
 62
   120
370
     5
100
AcDbLine
 10
910.3553268017035
 20
477.4797081043773
 30
0.0
 11
1500.355326801689
 21
-112.5202918956087
 31
0.0
  0
LINE
  5
417
330
1F
100
AcDbEntity
  8
0-0
  6
JWW_DASHED1
 62
   120
370
     5
100
AcDbLine
 10
910.355326801689
 20
487.3792030395537
 30
0.0
 11
1500.355326801696
 21
-102.6207969604529
 31
0.0
  0
LINE
  5
418
330
1F
100
AcDbEntity
  8
0-0
  6
JWW_DASHED1
 62
   120
370
     5
100
AcDbLine
 10
910.3553268016975
 20
497.2786979747619
 30
0.0
 11
1500.355326801688
 21
-92.7213020252293
 31
0.0
  0
LINE
  5
419
330
1F
100
AcDbEntity
  8
0-0
  6
JWW_DASHED1
 62
   120
370
     5
100
AcDbLine
 10
910.3553268017026
 20
507.1781929099731
 30
0.0
 11
1500.355326801688
 21
-82.82180709001167
 31
0.0
  0
LINE
  5
41A
330
1F
100
AcDbEntity
  8
0-0
  6
JWW_DASHED1
 62
   120
370
     5
100
AcDbLine
 10
910.3553268016873
 20
517.0776878451502
 30
0.0
 11
1500.355326801693
 21
-72.92231215485586
 31
0.0
  0
LINE
  5
41B
330
1F
100
AcDbEntity
  8
0-0
  6
JWW_DASHED1
 62
   120
370
     5
100
AcDbLine
 10
910.3553268016941
 20
526.9771827803589
 30
0.0
 11
1500.355326801686
 21
-63.02281721963183
 31
0.0
  0
LINE
  5
41C
330
1F
100
AcDbEntity
  8
0-0
  6
JWW_DASHED1
 62
   120
370
     5
100
AcDbLine
 10
910.3553268017035
 20
536.8766777155668
 30
0.0
 11
1500.355326801695
 21
-53.12332228442443
 31
0.0
  0
LINE
  5
41D
330
1F
100
AcDbEntity
  8
0-0
  6
JWW_DASHED1
 62
   120
370
     5
100
AcDbLine
 10
910.3553268016847
 20
546.7761726507473
 30
0.0
 11
1500.355326801691
 21
-43.22382734925881
 31
0.0
  0
LINE
  5
41E
330
1F
100
AcDbEntity
  8
0-0
  6
JWW_DASHED1
 62
   120
370
     5
100
AcDbLine
 10
910.3553268016924
 20
556.6756675859556
 30
0.0
 11
1500.355326801683
 21
-33.32433241403479
 31
0.0
  0
LINE
  5
41F
330
1F
100
AcDbEntity
  8
0-0
  6
JWW_DASHED1
 62
   120
370
     5
100
AcDbLine
 10
910.3553268017009
 20
566.5751625211634
 30
0.0
 11
1500.355326801692
 21
-23.42483747882738
 31
0.0
  0
LINE
  5
420
330
1F
100
AcDbEntity
  8
0-0
  6
JWW_DASHED1
 62
   120
370
     5
100
AcDbLine
 10
910.3553268016975
 20
576.4746574563286
 30
0.0
 11
1500.355326801689
 21
-13.52534254366262
 31
0.0
  0
LINE
  5
421
330
1F
100
AcDbEntity
  8
0-0
  6
JWW_DASHED1
 62
   120
370
     5
100
AcDbLine
 10
910.3553268016899
 20
586.3741523915526
 30
0.0
 11
1500.355326801696
 21
-3.625847608453512
 31
0.0
  0
LINE
  5
422
330
1F
100
AcDbEntity
  8
0-0
  6
JWW_DASHED1
 62
   120
370
     5
100
AcDbLine
 10
910.3553268016992
 20
596.2736473267604
 30
0.0
 11
1500.355326801689
 21
6.273647326769662
 31
0.0
  0
LINE
  5
423
330
1F
100
AcDbEntity
  8
0-0
  6
JWW_DASHED1
 62
   120
370
     5
100
AcDbLine
 10
910.3553268017077
 20
606.1731422619129
 30
0.0
 11
1500.355326801693
 21
16.17314226192718
 31
0.0
  0
LINE
  5
424
330
1F
100
AcDbEntity
  8
0-0
  6
JWW_DASHED1
 62
   120
370
     5
100
AcDbLine
 10
910.3553268016881
 20
616.0726371971488
 30
0.0
 11
1500.355326801695
 21
26.07263719714268
 31
0.0
  0
LINE
  5
425
330
1F
100
AcDbEntity
  8
0-0
  6
JWW_DASHED1
 62
   120
370
     5
100
AcDbLine
 10
910.3553268016958
 20
625.9721321323575
 30
0.0
 11
1500.355326801686
 21
35.97213213236671
 31
0.0
  0
LINE
  5
426
330
1F
100
AcDbEntity
  8
0-0
  6
JWW_DASHED1
 62
   120
370
     5
100
AcDbLine
 10
910.355326801706
 20
635.871627067509
 30
0.0
 11
1500.355326801691
 21
45.87162706752423
 31
0.0
  0
LINE
  5
427
330
1F
100
AcDbEntity
  8
0-0
  6
JWW_DASHED1
 62
   120
370
     5
100
AcDbLine
 10
910.3553268016856
 20
645.7711220027459
 30
0.0
 11
1500.355326801691
 21
55.77112200273973
 31
0.0
  0
LINE
  5
428
330
1F
100
AcDbEntity
  8
0-0
  6
JWW_DASHED1
 62
   120
370
     5
100
AcDbLine
 10
910.3553268016933
 20
655.6706169379554
 30
0.0
 11
1500.355326801684
 21
65.67061693796376
 31
0.0
  0
LINE
  5
429
330
1F
100
AcDbEntity
  8
0-0
  6
JWW_DASHED1
 62
   120
370
     5
100
AcDbLine
 10
910.3553268017035
 20
665.570111873106
 30
0.0
 11
1500.355326801689
 21
75.57011187312042
 31
0.0
  0
LINE
  5
42A
330
1F
100
AcDbEntity
  8
0-0
  6
JWW_DASHED1
 62
   120
370
     5
100
AcDbLine
 10
910.3553268016831
 20
675.4696068083429
 30
0.0
 11
1500.355326801689
 21
85.46960680833678
 31
0.0
  0
LINE
  5
42B
330
1F
100
AcDbEntity
  8
0-0
  6
JWW_DASHED1
 62
   120
370
     5
100
AcDbLine
 10
910.3553268016907
 20
685.3691017435524
 30
0.0
 11
1500.355326801681
 21
95.3691017435608
 31
0.0
  0
LINE
  5
42C
330
1F
100
AcDbEntity
  8
0-0
  6
JWW_DASHED1
 62
   120
370
     5
100
AcDbLine
 10
910.3553268017009
 20
695.2685966787031
 30
0.0
 11
1500.355326801687
 21
105.2685966787175
 31
0.0
  0
LINE
  5
42D
330
1F
100
AcDbEntity
  8
0-0
  6
JWW_DASHED1
 62
   120
370
     5
100
AcDbLine
 10
910.3553268016958
 20
705.1680916139246
 30
0.0
 11
1500.355326801686
 21
115.1680916139343
 31
0.0
  0
LINE
  5
42E
330
1F
100
AcDbEntity
  8
0-0
  6
JWW_DASHED1
 62
   120
370
     5
100
AcDbLine
 10
910.3553268016881
 20
715.0675865491486
 30
0.0
 11
1500.355326801695
 21
125.0675865491425
 31
0.0
  0
LINE
  5
42F
330
1F
100
AcDbEntity
  8
0-0
  6
JWW_DASHED1
 62
   120
370
     5
100
AcDbLine
 10
910.3553268017009
 20
724.9670814842984
 30
0.0
 11
1500.355326801691
 21
134.9670814843073
 31
0.0
  0
LINE
  5
430
330
1F
100
AcDbEntity
  8
0-0
  6
JWW_DASHED1
 62
   120
370
     5
100
AcDbLine
 10
910.3553268017077
 20
734.866576419508
 30
0.0
 11
1500.355326801693
 21
144.8665764195219
 31
0.0
  0
LINE
  5
431
330
1F
100
AcDbEntity
  8
0-0
  6
JWW_DASHED1
 62
   120
370
     5
100
AcDbLine
 10
910.3553268016865
 20
744.7660713547448
 30
0.0
 11
1500.355326801692
 21
154.7660713547396
 31
0.0
  0
LINE
  5
432
330
1F
100
AcDbEntity
  8
0-0
  6
JWW_DASHED1
 62
   120
370
     5
100
AcDbLine
 10
910.3553268016983
 20
754.6655662898946
 30
0.0
 11
1500.355326801689
 21
164.6655662899043
 31
0.0
  0
LINE
  5
433
330
1F
100
AcDbEntity
  8
0-0
  6
JWW_DASHED1
 62
   120
370
     5
100
AcDbLine
 10
910.3553268017051
 20
764.5650612251051
 30
0.0
 11
1500.35532680169
 21
174.565061225119
 31
0.0
  0
LINE
  5
434
330
1F
100
AcDbEntity
  8
0-0
  6
JWW_DASHED1
 62
   120
370
     5
100
AcDbLine
 10
910.3553268016881
 20
774.464556160283
 30
0.0
 11
1500.355326801695
 21
184.4645561602765
 31
0.0
  0
LINE
  5
435
330
1F
100
AcDbEntity
  8
0-0
  6
JWW_DASHED1
 62
   120
370
     5
100
AcDbLine
 10
910.3553268016958
 20
784.3640510954917
 30
0.0
 11
1500.355326801686
 21
194.3640510955014
 31
0.0
  0
LINE
  5
436
330
1F
100
AcDbEntity
  8
0-0
  6
JWW_DASHED1
 62
   120
370
     5
100
AcDbLine
 10
910.3553268017026
 20
794.2635460307013
 30
0.0
 11
1500.355326801688
 21
204.263546030716
 31
0.0
  0
LINE
  5
437
330
1F
100
AcDbEntity
  8
0-0
  6
JWW_DASHED1
 62
   120
370
     5
100
AcDbLine
 10
910.3553268016856
 20
804.1630409658801
 30
0.0
 11
1500.355326801692
 21
214.1630409658735
 31
0.0
  0
LINE
  5
438
330
1F
100
AcDbEntity
  8
0-0
  6
JWW_DASHED1
 62
   120
370
     5
100
AcDbLine
 10
910.3553268016933
 20
814.0625359010887
 30
0.0
 11
1500.355326801684
 21
224.0625359010984
 31
0.0
  0
LINE
  5
439
330
1F
100
AcDbEntity
  8
0-0
  6
JWW_DASHED1
 62
   120
370
     5
100
AcDbLine
 10
910.3553268017017
 20
823.9620308362975
 30
0.0
 11
1500.355326801693
 21
233.9620308363058
 31
0.0
  0
LINE
  5
43A
330
1F
100
AcDbEntity
  8
0-0
  6
JWW_DASHED1
 62
   120
370
     5
100
AcDbLine
 10
910.3553268016831
 20
833.8615257714771
 30
0.0
 11
1500.355326801689
 21
243.8615257714714
 31
0.0
  0
LINE
  5
43B
330
1F
100
AcDbEntity
  8
0-0
  6
JWW_DASHED1
 62
   120
370
     5
100
AcDbLine
 10
910.3553268016915
 20
843.7610207066849
 30
0.0
 11
1500.355326801681
 21
253.7610207066955
 31
0.0
  0
LINE
  5
43C
330
1F
100
AcDbEntity
  8
0-0
  6
JWW_DASHED1
 62
   120
370
     5
100
AcDbLine
 10
910.3553268016992
 20
853.6605156418944
 30
0.0
 11
1500.355326801689
 21
263.6605156419029
 31
0.0
  0
LINE
  5
43D
330
1F
100
AcDbEntity
  8
0-0
  6
JWW_DASHED1
 62
   120
370
     5
100
AcDbLine
 10
910.3553268016958
 20
863.5600105770588
 30
0.0
 11
1500.355326801687
 21
273.5600105770676
 31
0.0
  0
LINE
  5
43E
330
1F
100
AcDbEntity
  8
0-0
  6
JWW_DASHED1
 62
   120
370
     5
100
AcDbLine
 10
910.355326801689
 20
873.459505512282
 30
0.0
 11
1500.355326801695
 21
283.4595055122767
 31
0.0
  0
LINE
  5
43F
330
1F
100
AcDbEntity
  8
0-0
  6
JWW_DASHED1
 62
   120
370
     5
100
AcDbLine
 10
910.3553268016967
 20
883.3590004474916
 30
0.0
 11
1500.355326801688
 21
293.3590004475003
 31
0.0
  0
LINE
  5
440
330
1F
100
AcDbEntity
  8
0-0
  6
JWW_DASHED1
 62
   120
370
     5
100
AcDbLine
 10
910.3553268017095
 20
893.2584953826405
 30
0.0
 11
1500.355326801695
 21
303.2584953826553
 31
0.0
  0
LINE
  5
441
330
1F
100
AcDbEntity
  8
0-0
  6
JWW_DASHED1
 62
   120
370
     5
100
AcDbLine
 10
910.3553268016865
 20
903.157990317879
 30
0.0
 11
1500.355326801693
 21
313.1579903178725
 31
0.0
  0
LINE
  5
442
330
1F
100
AcDbEntity
  8
0-0
  6
JWW_DASHED1
 62
   120
370
     5
100
AcDbLine
 10
910.3553268016941
 20
913.0574852530877
 30
0.0
 11
1500.355326801684
 21
323.0574852530974
 31
0.0
  0
LINE
  5
443
330
1F
100
AcDbEntity
  8
0-0
  6
JWW_DASHED1
 62
   120
370
     5
100
AcDbLine
 10
910.355326801707
 20
922.9569801882376
 30
0.0
 11
1500.355326801692
 21
332.9569801882515
 31
0.0
  0
LINE
  5
444
330
1F
100
AcDbEntity
  8
0-0
  6
JWW_DASHED1
 62
   120
370
     5
100
AcDbLine
 10
910.3553268016839
 20
932.8564751234761
 30
0.0
 11
1500.35532680169
 21
342.8564751234695
 31
0.0
  0
LINE
  5
445
330
1F
100
AcDbEntity
  8
0-0
  6
JWW_DASHED1
 62
   120
370
     5
100
AcDbLine
 10
910.3553268016915
 20
942.7559700586847
 30
0.0
 11
1500.355326801683
 21
352.7559700586944
 31
0.0
  0
LINE
  5
446
330
1F
100
AcDbEntity
  8
0-0
  6
JWW_DASHED1
 62
   120
370
     5
100
AcDbLine
 10
910.3553268017043
 20
952.6554649938346
 30
0.0
 11
1500.35532680169
 21
362.6554649938481
 31
0.0
  0
LINE
  5
447
330
1F
100
AcDbEntity
  8
0-0
  6
JWW_DASHED1
 62
   120
370
     5
100
AcDbLine
 10
910.3553268016967
 20
962.5549599290578
 30
0.0
 11
1500.355326801688
 21
372.5549599290674
 31
0.0
  0
LINE
  5
448
330
1F
100
AcDbEntity
  8
0-0
  6
JWW_DASHED1
 62
   120
370
     5
100
AcDbLine
 10
910.3553268016899
 20
972.4544548642809
 30
0.0
 11
1500.355326801679
 21
382.4544548642915
 31
0.0
  0
LINE
  5
449
330
1F
100
AcDbEntity
  8
0-0
  6
JWW_DASHED1
 62
   120
370
     5
100
AcDbLine
 10
910.3769477494075
 20
982.3323288517252
 30
0.0
 11
1500.355326801693
 21
392.3539497994404
 31
0.0
  0
LINE
  5
44A
330
1F
100
AcDbEntity
  8
0-0
  6
JWW_DASHED1
 62
   120
370
     5
100
AcDbLine
 10
920.2764426846315
 20
982.3323288517174
 30
0.0
 11
1500.355326801684
 21
402.2534447346645
 31
0.0
  0
LINE
  5
44B
330
1F
100
AcDbEntity
  8
0-0
  6
JWW_DASHED1
 62
   120
370
     5
100
AcDbLine
 10
930.1759376198555
 20
982.3323288517106
 30
0.0
 11
1500.355326801693
 21
412.1529396698719
 31
0.0
  0
LINE
  5
44C
330
1F
100
AcDbEntity
  8
0-0
  6
JWW_DASHED1
 62
   120
370
     5
100
AcDbLine
 10
940.0754325550054
 20
982.3323288517225
 30
0.0
 11
1500.355326801689
 21
422.0524346050375
 31
0.0
  0
LINE
  5
44D
330
1F
100
AcDbEntity
  8
0-0
  6
JWW_DASHED1
 62
   120
370
     5
100
AcDbLine
 10
949.9749274902132
 20
982.3323288517303
 30
0.0
 11
1500.355326801694
 21
431.95192954025
 31
0.0
  0
LINE
  5
44E
330
1F
100
AcDbEntity
  8
0-0
  6
JWW_DASHED1
 62
   120
370
     5
100
AcDbLine
 10
959.8744224254526
 20
982.3323288517072
 30
0.0
 11
1500.355326801691
 21
441.8514244754689
 31
0.0
  0
LINE
  5
44F
330
1F
100
AcDbEntity
  8
0-0
  6
JWW_DASHED1
 62
   120
370
     5
100
AcDbLine
 10
969.7739173606024
 20
982.3323288517191
 30
0.0
 11
1500.355326801688
 21
451.7509194106345
 31
0.0
  0
LINE
  5
450
330
1F
100
AcDbEntity
  8
0-0
  6
JWW_DASHED1
 62
   120
370
     5
100
AcDbLine
 10
979.6734122958111
 20
982.3323288517269
 30
0.0
 11
1500.355326801691
 21
461.6504143458471
 31
0.0
  0
LINE
  5
451
330
1F
100
AcDbEntity
  8
0-0
  6
JWW_DASHED1
 62
   120
370
     5
100
AcDbLine
 10
989.5729072309899
 20
982.3323288517098
 30
0.0
 11
1500.355326801693
 21
471.5499092810072
 31
0.0
  0
LINE
  5
452
330
1F
100
AcDbEntity
  8
0-0
  6
JWW_DASHED1
 62
   120
370
     5
100
AcDbLine
 10
999.4724021662012
 20
982.3323288517157
 30
0.0
 11
1500.355326801685
 21
481.4494042162307
 31
0.0
  0
LINE
  5
453
330
1F
100
AcDbEntity
  8
0-0
  6
JWW_DASHED1
 62
   120
370
     5
100
AcDbLine
 10
1009.371897101409
 20
982.3323288517242
 30
0.0
 11
1500.355326801689
 21
491.3488991514437
 31
0.0
  0
LINE
  5
454
330
1F
100
AcDbEntity
  8
0-0
  6
JWW_DASHED1
 62
   120
370
     5
100
AcDbLine
 10
1019.271392036587
 20
982.3323288517081
 30
0.0
 11
1500.35532680169
 21
501.2483940866042
 31
0.0
  0
LINE
  5
455
330
1F
100
AcDbEntity
  8
0-0
  6
JWW_DASHED1
 62
   120
370
     5
100
AcDbLine
 10
1029.170886971798
 20
982.3323288517132
 30
0.0
 11
1500.355326801684
 21
511.1478890218274
 31
0.0
  0
LINE
  5
456
330
1F
100
AcDbEntity
  8
0-0
  6
JWW_DASHED1
 62
   120
370
     5
100
AcDbLine
 10
1039.070381907006
 20
982.3323288517208
 30
0.0
 11
1500.355326801691
 21
521.0473839570365
 31
0.0
  0
LINE
  5
457
330
1F
100
AcDbEntity
  8
0-0
  6
JWW_DASHED1
 62
   120
370
     5
100
AcDbLine
 10
1048.969876842184
 20
982.3323288517055
 30
0.0
 11
1500.355326801688
 21
530.9468788922013
 31
0.0
  0
LINE
  5
458
330
1F
100
AcDbEntity
  8
0-0
  6
JWW_DASHED1
 62
   120
370
     5
100
AcDbLine
 10
1058.869371777395
 20
982.3323288517106
 30
0.0
 11
1500.35532680168
 21
540.8463738274253
 31
0.0
  0
LINE
  5
459
330
1F
100
AcDbEntity
  8
0-0
  6
JWW_DASHED1
 62
   120
370
     5
100
AcDbLine
 10
1068.768866712604
 20
982.3323288517174
 30
0.0
 11
1500.355326801688
 21
550.7458687626336
 31
0.0
  0
LINE
  5
45A
330
1F
100
AcDbEntity
  8
0-0
  6
JWW_DASHED1
 62
   120
370
     5
100
AcDbLine
 10
1078.668361647769
 20
982.3323288517149
 30
0.0
 11
1500.355326801685
 21
560.6453636977983
 31
0.0
  0
LINE
  5
45B
330
1F
100
AcDbEntity
  8
0-0
  6
JWW_DASHED1
 62
   120
370
     5
100
AcDbLine
 10
1088.567856582989
 20
982.3323288517115
 30
0.0
 11
1500.355326801694
 21
570.5448586330057
 31
0.0
  0
LINE
  5
45C
330
1F
100
AcDbEntity
  8
0-0
  6
JWW_DASHED1
 62
   120
370
     5
100
AcDbLine
 10
1098.467351518201
 20
982.3323288517149
 30
0.0
 11
1500.355326801686
 21
580.4443535682306
 31
0.0
  0
LINE
  5
45D
330
1F
100
AcDbEntity
  8
0-0
  6
JWW_DASHED1
 62
   120
370
     5
100
AcDbLine
 10
1108.366846453351
 20
982.3323288517269
 30
0.0
 11
1500.355326801696
 21
590.3438485033826
 31
0.0
  0
LINE
  5
45E
330
1F
100
AcDbEntity
  8
0-0
  6
JWW_DASHED1
 62
   120
370
     5
100
AcDbLine
 10
1118.266341388584
 20
982.3323288517098
 30
0.0
 11
1500.355326801691
 21
600.2433434386028
 31
0.0
  0
LINE
  5
45F
330
1F
100
AcDbEntity
  8
0-0
  6
JWW_DASHED1
 62
   120
370
     5
100
AcDbLine
 10
1128.165836323799
 20
982.3323288517123
 30
0.0
 11
1500.355326801683
 21
610.1428383738277
 31
0.0
  0
LINE
  5
460
330
1F
100
AcDbEntity
  8
0-0
  6
JWW_DASHED1
 62
   120
370
     5
100
AcDbLine
 10
1138.065331258949
 20
982.3323288517242
 30
0.0
 11
1500.355326801693
 21
620.0423333089792
 31
0.0
  0
LINE
  5
461
330
1F
100
AcDbEntity
  8
0-0
  6
JWW_DASHED1
 62
   120
370
     5
100
AcDbLine
 10
1147.964826194181
 20
982.3323288517072
 30
0.0
 11
1500.355326801689
 21
629.9418282441998
 31
0.0
  0
LINE
  5
462
330
1F
100
AcDbEntity
  8
0-0
  6
JWW_DASHED1
 62
   120
370
     5
100
AcDbLine
 10
1157.864321129396
 20
982.3323288517089
 30
0.0
 11
1500.355326801682
 21
639.8413231794234
 31
0.0
  0
LINE
  5
463
330
1F
100
AcDbEntity
  8
0-0
  6
JWW_DASHED1
 62
   120
370
     5
100
AcDbLine
 10
1167.763816064546
 20
982.3323288517208
 30
0.0
 11
1500.355326801691
 21
649.7408181145762
 31
0.0
  0
LINE
  5
464
330
1F
100
AcDbEntity
  8
0-0
  6
JWW_DASHED1
 62
   120
370
     5
100
AcDbLine
 10
1177.66331099977
 20
982.3323288517132
 30
0.0
 11
1500.355326801686
 21
659.6403130497972
 31
0.0
  0
LINE
  5
465
330
1F
100
AcDbEntity
  8
0-0
  6
JWW_DASHED1
 62
   120
370
     5
100
AcDbLine
 10
1187.562805934994
 20
982.3323288517055
 30
0.0
 11
1500.355326801679
 21
669.5398079850208
 31
0.0
  0
LINE
  5
466
330
1F
100
AcDbEntity
  8
0-0
  6
JWW_DASHED1
 62
   120
370
     5
100
AcDbLine
 10
1197.462300870144
 20
982.3323288517174
 30
0.0
 11
1500.355326801691
 21
679.4393029201703
 31
0.0
  0
LINE
  5
467
330
1F
100
AcDbEntity
  8
0-0
  6
JWW_DASHED1
 62
   120
370
     5
100
AcDbLine
 10
1207.361795805351
 20
982.332328851726
 30
0.0
 11
1500.355326801696
 21
689.3387978553807
 31
0.0
  0
LINE
  5
468
330
1F
100
AcDbEntity
  8
0-0
  6
JWW_DASHED1
 62
   120
370
     5
100
AcDbLine
 10
1217.261290740583
 20
982.3323288517106
 30
0.0
 11
1500.355326801692
 21
699.2382927906017
 31
0.0
  0
LINE
  5
469
330
1F
100
AcDbEntity
  8
0-0
  6
JWW_DASHED1
 62
   120
370
     5
100
AcDbLine
 10
1227.160785675741
 20
982.3323288517149
 30
0.0
 11
1500.355326801688
 21
709.1377877257678
 31
0.0
  0
LINE
  5
46A
330
1F
100
AcDbEntity
  8
0-0
  6
JWW_DASHED1
 62
   120
370
     5
100
AcDbLine
 10
1237.060280610949
 20
982.3323288517234
 30
0.0
 11
1500.355326801695
 21
719.0372826609773
 31
0.0
  0
LINE
  5
46B
330
1F
100
AcDbEntity
  8
0-0
  6
JWW_DASHED1
 62
   120
370
     5
100
AcDbLine
 10
1246.959775546121
 20
982.3323288517132
 30
0.0
 11
1500.355326801694
 21
728.9367775961404
 31
0.0
  0
LINE
  5
46C
330
1F
100
AcDbEntity
  8
0-0
  6
JWW_DASHED1
 62
   120
370
     5
100
AcDbLine
 10
1256.859270481339
 20
982.3323288517123
 30
0.0
 11
1500.355326801686
 21
738.8362725313643
 31
0.0
  0
LINE
  5
46D
330
1F
100
AcDbEntity
  8
0-0
  6
JWW_DASHED1
 62
   120
370
     5
100
AcDbLine
 10
1266.758765416546
 20
982.33232885172
 30
0.0
 11
1500.355326801693
 21
748.7357674665739
 31
0.0
  0
LINE
  5
46E
330
1F
100
AcDbEntity
  8
0-0
  6
JWW_DASHED1
 62
   120
370
     5
100
AcDbLine
 10
1276.658260351718
 20
982.3323288517106
 30
0.0
 11
1500.355326801691
 21
758.6352624017375
 31
0.0
  0
LINE
  5
46F
330
1F
100
AcDbEntity
  8
0-0
  6
JWW_DASHED1
 62
   120
370
     5
100
AcDbLine
 10
1286.557755286936
 20
982.3323288517089
 30
0.0
 11
1500.355326801684
 21
768.5347573369606
 31
0.0
  0
LINE
  5
470
330
1F
100
AcDbEntity
  8
0-0
  6
JWW_DASHED1
 62
   120
370
     5
100
AcDbLine
 10
1296.457250222144
 20
982.3323288517174
 30
0.0
 11
1500.35532680169
 21
778.434252272171
 31
0.0
  0
LINE
  5
471
330
1F
100
AcDbEntity
  8
0-0
  6
JWW_DASHED1
 62
   120
370
     5
100
AcDbLine
 10
1306.356745157315
 20
982.3323288517081
 30
0.0
 11
1500.355326801689
 21
788.3337472073345
 31
0.0
  0
LINE
  5
472
330
1F
100
AcDbEntity
  8
0-0
  6
JWW_DASHED1
 62
   120
370
     5
100
AcDbLine
 10
1316.256240092534
 20
982.3323288517055
 30
0.0
 11
1500.355326801681
 21
798.2332421425576
 31
0.0
  0
LINE
  5
473
330
1F
100
AcDbEntity
  8
0-0
  6
JWW_DASHED1
 62
   120
370
     5
100
AcDbLine
 10
1326.155735027742
 20
982.3323288517132
 30
0.0
 11
1500.355326801689
 21
808.1327370777659
 31
0.0
  0
LINE
  5
474
330
1F
100
AcDbEntity
  8
0-0
  6
JWW_DASHED1
 62
   120
370
     5
100
AcDbLine
 10
1336.055229962908
 20
982.3323288517101
 30
0.0
 11
1500.355326801686
 21
818.0322320129314
 31
0.0
  0
LINE
  5
475
330
1F
100
AcDbEntity
  8
0-0
  6
JWW_DASHED1
 62
   120
370
     5
100
AcDbLine
 10
1345.954724898131
 20
982.3323288517025
 30
0.0
 11
1500.355326801679
 21
827.9317269481546
 31
0.0
  0
LINE
  5
476
330
1F
100
AcDbEntity
  8
0-0
  6
JWW_DASHED1
 62
   120
370
     5
100
AcDbLine
 10
1355.854219833339
 20
982.332328851711
 30
0.0
 11
1500.355326801687
 21
837.8312218833634
 31
0.0
  0
LINE
  5
477
330
1F
100
AcDbEntity
  8
0-0
  6
JWW_DASHED1
 62
   120
370
     5
100
AcDbLine
 10
1365.753714768505
 20
982.3323288517076
 30
0.0
 11
1500.355326801684
 21
847.7307168185285
 31
0.0
  0
LINE
  5
478
330
1F
100
AcDbEntity
  8
0-0
  6
JWW_DASHED1
 62
   120
370
     5
100
AcDbLine
 10
1375.653209703717
 20
982.332328851712
 30
0.0
 11
1500.355326801692
 21
857.6302117537364
 31
0.0
  0
LINE
  5
479
330
1F
100
AcDbEntity
  8
0-0
  6
JWW_DASHED1
 62
   120
370
     5
100
AcDbLine
 10
1385.552704638938
 20
982.3323288517072
 30
0.0
 11
1500.355326801684
 21
867.5297066889605
 31
0.0
  0
LINE
  5
47A
330
1F
100
AcDbEntity
  8
0-0
  6
JWW_DASHED1
 62
   120
370
     5
100
AcDbLine
 10
1395.452199574086
 20
982.33232885172
 30
0.0
 11
1500.355326801696
 21
877.4292016241099
 31
0.0
  0
LINE
  5
47B
330
1F
100
AcDbEntity
  8
0-0
  6
JWW_DASHED1
 62
   120
370
     5
100
AcDbLine
 10
1405.351694509313
 20
982.3323288517098
 30
0.0
 11
1500.355326801689
 21
887.3286965593334
 31
0.0
  0
LINE
  5
47C
330
1F
100
AcDbEntity
  8
0-0
  6
JWW_DASHED1
 62
   120
370
     5
100
AcDbLine
 10
1415.251189444534
 20
982.3323288517047
 30
0.0
 11
1500.355326801682
 21
897.2281914945574
 31
0.0
  0
LINE
  5
47D
330
1F
100
AcDbEntity
  8
0-0
  6
JWW_DASHED1
 62
   120
370
     5
100
AcDbLine
 10
1425.150684379684
 20
982.3323288517174
 30
0.0
 11
1500.355326801694
 21
907.1276864297068
 31
0.0
  0
LINE
  5
47E
330
1F
100
AcDbEntity
  8
0-0
  6
JWW_DASHED1
 62
   120
370
     5
100
AcDbLine
 10
1435.050179314909
 20
982.3323288517081
 30
0.0
 11
1500.355326801687
 21
917.0271813649305
 31
0.0
  0
LINE
  5
47F
330
1F
100
AcDbEntity
  8
0-0
  6
JWW_DASHED1
 62
   120
370
     5
100
AcDbLine
 10
1444.949674250132
 20
982.3323288517017
 30
0.0
 11
1500.355326801679
 21
926.9266763001536
 31
0.0
  0
LINE
  5
480
330
1F
100
AcDbEntity
  8
0-0
  6
JWW_DASHED1
 62
   120
370
     5
100
AcDbLine
 10
1454.849169185282
 20
982.3323288517136
 30
0.0
 11
1500.355326801691
 21
936.826171235304
 31
0.0
  0
LINE
  5
481
330
1F
100
AcDbEntity
  8
0-0
  6
JWW_DASHED1
 62
   120
370
     5
100
AcDbLine
 10
1464.748664120506
 20
982.3323288517059
 30
0.0
 11
1500.355326801684
 21
946.7256661705276
 31
0.0
  0
LINE
  5
482
330
1F
100
AcDbEntity
  8
0-0
  6
JWW_DASHED1
 62
   120
370
     5
100
AcDbLine
 10
1474.648159055671
 20
982.3323288517025
 30
0.0
 11
1500.355326801681
 21
956.6251611056923
 31
0.0
  0
LINE
  5
483
330
1F
100
AcDbEntity
  8
0-0
  6
JWW_DASHED1
 62
   120
370
     5
100
AcDbLine
 10
1484.547653990879
 20
982.332328851711
 30
0.0
 11
1500.355326801689
 21
966.5246560409005
 31
0.0
  0
LINE
  5
484
330
1F
100
AcDbEntity
  8
0-0
  6
JWW_DASHED1
 62
   120
370
     5
100
AcDbLine
 10
1494.447148926088
 20
982.3323288517183
 30
0.0
 11
1500.355326801698
 21
976.4241509761088
 31
0.0
  0
LWPOLYLINE
  5
485
330
1F
100
AcDbEntity
  8
寸法
  6
Continuous
 62
     7
370
     9
100
AcDbPolyline
 90
        4
 70
     1
 43
3.0
 10
-2045.144673198306
 20
-1085.667671148284
 42
0.4142135623731
 10
-2046.644673198306
 20
-1084.167671148284
 42
0.4142135623731
 10
-2048.144673198306
 20
-1085.667671148284
 42
0.4142135623731
 10
-2046.644673198306
 20
-1087.167671148284
 42
0.4142135623731
  0
LWPOLYLINE
  5
486
330
1F
100
AcDbEntity
  8
寸法
  6
Continuous
 62
     7
370
     9
100
AcDbPolyline
 90
        4
 70
     1
 43
3.0
 10
-1845.144673198306
 20
-1065.667671148284
 42
0.4142135623731
 10
-1846.644673198306
 20
-1064.167671148284
 42
0.4142135623731
 10
-1848.144673198306
 20
-1065.667671148284
 42
0.4142135623731
 10
-1846.644673198306
 20
-1067.167671148284
 42
0.4142135623731
  0
LINE
  5
487
330
1F
100
AcDbEntity
  8
寸法
  6
Continuous
 62
   120
370
     5
100
AcDbLine
 10
-2046.644673198306
 20
-1085.667671148284
 30
0.0
 11
-1646.644673198305
 21
-1085.667671148284
 31
0.0
  0
LINE
  5
488
330
1F
100
AcDbEntity
  8
寸法
  6
Continuous
 62
   120
370
     5
100
AcDbLine
 10
-1846.644673198306
 20
-1065.667671148284
 30
0.0
 11
-1646.644673198305
 21
-1065.667671148284
 31
0.0
  0
LINE
  5
489
330
1F
100
AcDbEntity
  8
寸法
  6
Continuous
 62
   120
370
     5
100
AcDbLine
 10
-1566.644673198306
 20
-1535.667671148285
 30
0.0
 11
-1566.644673198306
 21
-1135.667671148286
 31
0.0
  0
LINE
  5
48A
330
1F
100
AcDbEntity
  8
寸法
  6
Continuous
 62
   120
370
     5
100
AcDbLine
 10
-1596.644673198306
 20
-1735.667671148284
 30
0.0
 11
-1596.644673198306
 21
-1135.667671148286
 31
0.0
  0
LWPOLYLINE
  5
48B
330
1F
100
AcDbEntity
  8
寸法
  6
Continuous
 62
     7
370
     9
100
AcDbPolyline
 90
        4
 70
     1
 43
3.0
 10
-1565.144673198306
 20
-1535.667671148285
 42
0.4142135623731
 10
-1566.644673198306
 20
-1534.167671148285
 42
0.4142135623731
 10
-1568.144673198306
 20
-1535.667671148285
 42
0.4142135623731
 10
-1566.644673198306
 20
-1537.167671148285
 42
0.4142135623731
  0
LWPOLYLINE
  5
48C
330
1F
100
AcDbEntity
  8
寸法
  6
Continuous
 62
     7
370
     9
100
AcDbPolyline
 90
        4
 70
     1
 43
3.0
 10
-1595.144673198306
 20
-1735.667671148284
 42
0.4142135623731
 10
-1596.644673198306
 20
-1734.167671148284
 42
0.4142135623731
 10
-1598.144673198306
 20
-1735.667671148284
 42
0.4142135623731
 10
-1596.644673198306
 20
-1737.167671148284
 42
0.4142135623731
  0
LINE
  5
48D
330
1F
100
AcDbEntity
  8
寸法
  6
Continuous
 62
   120
370
     5
100
AcDbLine
 10
20.35532680169354
 20
-1335.667671148284
 30
0.0
 11
20.35532680169354
 21
-1135.667671148286
 31
0.0
  0
LINE
  5
48E
330
1F
100
AcDbEntity
  8
寸法
  6
Continuous
 62
   120
370
     5
100
AcDbLine
 10
-789.6446731983065
 20
-1335.667671148284
 30
0.0
 11
-789.6446731983065
 21
-1135.667671148286
 31
0.0
  0
LINE
  5
48F
330
1F
100
AcDbEntity
  8
寸法
  6
Continuous
 62
   120
370
     5
100
AcDbLine
 10
-789.6446731983065
 20
-1335.667671148284
 30
0.0
 11
830.3553268016935
 21
-1335.667671148284
 31
0.0
  0
LINE
  5
490
330
1F
100
AcDbEntity
  8
寸法
  6
Continuous
 62
   120
370
     5
100
AcDbLine
 10
-1566.644673198306
 20
-1535.667671148285
 30
0.0
 11
1607.355326801693
 21
-1535.667671148283
 31
0.0
  0
LINE
  5
491
330
1F
100
AcDbEntity
  8
寸法
  6
Continuous
 62
   120
370
     5
100
AcDbLine
 10
1607.355326801693
 20
-1535.667671148283
 30
0.0
 11
1607.355326801693
 21
-1135.667671148284
 31
0.0
  0
LINE
  5
492
330
1F
100
AcDbEntity
  8
寸法
  6
Continuous
 62
   120
370
     5
100
AcDbLine
 10
-1596.644673198306
 20
-1735.667671148284
 30
0.0
 11
1637.355326801693
 21
-1735.667671148283
 31
0.0
  0
LINE
  5
493
330
1F
100
AcDbEntity
  8
寸法
  6
Continuous
 62
   120
370
     5
100
AcDbLine
 10
1637.355326801693
 20
-1735.667671148283
 30
0.0
 11
1637.355326801693
 21
-1135.667671148284
 31
0.0
  0
LINE
  5
494
330
1F
100
AcDbEntity
  8
寸法
  6
Continuous
 62
   120
370
     5
100
AcDbLine
 10
830.3553268016935
 20
-1335.667671148284
 30
0.0
 11
830.3553268016935
 21
-1135.667671148286
 31
0.0
  0
LWPOLYLINE
  5
495
330
1F
100
AcDbEntity
  8
寸法
  6
Continuous
 62
     7
370
     9
100
AcDbPolyline
 90
        4
 70
     1
 43
3.0
 10
21.85532680169354
 20
-1335.667671148284
 42
0.4142135623731
 10
20.35532680169354
 20
-1334.167671148284
 42
0.4142135623731
 10
18.85532680169354
 20
-1335.667671148284
 42
0.4142135623731
 10
20.35532680169354
 20
-1337.167671148284
 42
0.4142135623731
  0
LWPOLYLINE
  5
496
330
1F
100
AcDbEntity
  8
寸法
  6
Continuous
 62
     7
370
     9
100
AcDbPolyline
 90
        4
 70
     1
 43
3.0
 10
-788.1446731983065
 20
-1335.667671148284
 42
0.4142135623731
 10
-789.6446731983065
 20
-1334.167671148284
 42
0.4142135623731
 10
-791.1446731983065
 20
-1335.667671148284
 42
0.4142135623731
 10
-789.6446731983065
 20
-1337.167671148284
 42
0.4142135623731
  0
LWPOLYLINE
  5
497
330
1F
100
AcDbEntity
  8
寸法
  6
Continuous
 62
     7
370
     9
100
AcDbPolyline
 90
        4
 70
     1
 43
3.0
 10
1608.855326801693
 20
-1535.667671148283
 42
0.4142135623731
 10
1607.355326801693
 20
-1534.167671148284
 42
0.4142135623731
 10
1605.855326801693
 20
-1535.667671148283
 42
0.4142135623731
 10
1607.355326801693
 20
-1537.167671148283
 42
0.4142135623731
  0
LWPOLYLINE
  5
498
330
1F
100
AcDbEntity
  8
寸法
  6
Continuous
 62
     7
370
     9
100
AcDbPolyline
 90
        4
 70
     1
 43
3.0
 10
1638.855326801693
 20
-1735.667671148283
 42
0.4142135623731
 10
1637.355326801693
 20
-1734.167671148283
 42
0.4142135623731
 10
1635.855326801693
 20
-1735.667671148283
 42
0.4142135623731
 10
1637.355326801693
 20
-1737.167671148283
 42
0.4142135623731
  0
LWPOLYLINE
  5
499
330
1F
100
AcDbEntity
  8
寸法
  6
Continuous
 62
     7
370
     9
100
AcDbPolyline
 90
        4
 70
     1
 43
3.0
 10
831.8553268016935
 20
-1335.667671148284
 42
0.4142135623731
 10
830.3553268016935
 20
-1334.167671148284
 42
0.4142135623731
 10
828.8553268016935
 20
-1335.667671148284
 42
0.4142135623731
 10
830.3553268016935
 20
-1337.167671148284
 42
0.4142135623731
  0
LINE
  5
49A
330
1F
100
AcDbEntity
  8
寸法
  6
Continuous
 62
   120
370
     5
100
AcDbLine
 10
-2046.644673198306
 20
1161.332328851717
 30
0.0
 11
-1646.644673198305
 21
1161.332328851717
 31
0.0
  0
LWPOLYLINE
  5
49B
330
1F
100
AcDbEntity
  8
寸法
  6
Continuous
 62
     7
370
     9
100
AcDbPolyline
 90
        4
 70
     1
 43
3.0
 10
-2045.144673198306
 20
1161.332328851717
 42
0.4142135623731
 10
-2046.644673198306
 20
1162.832328851717
 42
0.4142135623731
 10
-2048.144673198306
 20
1161.332328851717
 42
0.4142135623731
 10
-2046.644673198306
 20
1159.832328851717
 42
0.4142135623731
  0
LINE
  5
49C
330
1F
100
AcDbEntity
  8
寸法
  6
Continuous
 62
   120
370
     5
100
AcDbLine
 10
-2046.644673198306
 20
1161.332328851717
 30
0.0
 11
-2046.644673198306
 21
-1085.667671148284
 31
0.0
  0
LINE
  5
49D
330
1F
100
AcDbEntity
  8
寸法
  6
Continuous
 62
   120
370
     5
100
AcDbLine
 10
-1846.644673198306
 20
1117.332328851716
 30
0.0
 11
-1646.644673198305
 21
1117.332328851716
 31
0.0
  0
LWPOLYLINE
  5
49E
330
1F
100
AcDbEntity
  8
寸法
  6
Continuous
 62
     7
370
     9
100
AcDbPolyline
 90
        4
 70
     1
 43
3.0
 10
-1845.144673198306
 20
1117.332328851716
 42
0.4142135623731
 10
-1846.644673198306
 20
1118.832328851716
 42
0.4142135623731
 10
-1848.144673198306
 20
1117.332328851716
 42
0.4142135623731
 10
-1846.644673198306
 20
1115.832328851716
 42
0.4142135623731
  0
LINE
  5
49F
330
1F
100
AcDbEntity
  8
寸法
  6
Continuous
 62
   120
370
     5
100
AcDbLine
 10
-1846.644673198306
 20
1117.332328851716
 30
0.0
 11
-1846.644673198306
 21
-1065.667671148284
 31
0.0
  0
MTEXT
  5
4A0
330
1F
100
AcDbEntity
  8
寸法
  6
Continuous
 62
     7
370
    70
100
AcDbMText
 10
-2061.644673198306
 20
-186.3426711482834
 30
0.0
 40
57.14999999999999
 41
412.5
 46
0.0
 71
     7
 72
     1
  1
{\fＭＳ ゴシック|b0|i0|c128|p49;枠外＝2,247}
 11
6.123031769111886E-17
 21
1.0
 31
0.0
 73
     1
 44
1.0
  0
MTEXT
  5
4A1
330
1F
100
AcDbEntity
  8
寸法
  6
Continuous
 62
     7
370
    70
100
AcDbMText
 10
-1861.644673198306
 20
-192.342671148283
 30
0.0
 40
57.14999999999999
 41
412.5
 46
0.0
 71
     7
 72
     1
  1
{\fＭＳ ゴシック|b0|i0|c128|p49;ＤＨ＝2,183}
 11
6.123031769111886E-17
 21
1.0
 31
0.0
 73
     1
 44
1.0
  0
MTEXT
  5
4A2
330
1F
100
AcDbEntity
  8
寸法
  6
Continuous
 62
     7
370
   211
100
AcDbMText
 10
-553.3946731983065
 20
-1329.592671148284
 30
0.0
 40
57.15
 41
337.5
 46
0.0
 71
     7
 72
     1
  1
{\fＭＳ ゴシック|b0|i0|c128|p49;ＤＷ＝810}
 73
     1
 44
1.0
  0
MTEXT
  5
4A3
330
1F
100
AcDbEntity
  8
寸法
  6
Continuous
 62
     7
370
   211
100
AcDbMText
 10
256.6053268016935
 20
-1329.592671148284
 30
0.0
 40
57.15
 41
337.5
 46
0.0
 71
     7
 72
     1
  1
{\fＭＳ ゴシック|b0|i0|c128|p49;ＤＷ＝810}
 73
     1
 44
1.0
  0
MTEXT
  5
4A4
330
1F
100
AcDbEntity
  8
寸法
  6
Continuous
 62
     7
370
   211
100
AcDbMText
 10
-185.8946731983065
 20
-1529.592671148285
 30
0.0
 40
57.14999999999999
 41
412.5
 46
0.0
 71
     7
 72
     1
  1
{\fＭＳ ゴシック|b0|i0|c128|p49;枠内＝3,174}
 73
     1
 44
1.0
  0
MTEXT
  5
4A5
330
1F
100
AcDbEntity
  8
寸法
  6
Continuous
 62
     7
370
   211
100
AcDbMText
 10
-185.8946731983065
 20
-1729.592671148284
 30
0.0
 40
57.14999999999999
 41
412.5
 46
0.0
 71
     7
 72
     1
  1
{\fＭＳ ゴシック|b0|i0|c128|p49;枠外＝3,234}
 73
     1
 44
1.0
  0
ENDSEC
  0
SECTION
  2
OBJECTS
  0
DICTIONARY
  5
C
330
0
100
AcDbDictionary
281
     1
  3
ACAD_GROUP
350
D
  3
ACAD_LAYOUT
350
1A
  3
ACAD_MATERIAL
350
3B
  3
ACAD_MLEADERSTYLE
350
4A7
  3
ACAD_MLINESTYLE
350
17
  3
ACAD_PLOTSETTINGS
350
19
  3
ACAD_PLOTSTYLENAME
350
E
  3
ACAD_TABLESTYLE
350
4A6
  3
ACAD_VISUALSTYLE
350
2A
  0
DICTIONARY
  5
D
102
{ACAD_REACTORS
330
C
102
}
330
C
100
AcDbDictionary
281
     1
  0
DICTIONARY
  5
1A
102
{ACAD_REACTORS
330
C
102
}
330
C
100
AcDbDictionary
281
     1
  3
Layout1
350
1E
  3
Layout2
350
26
  3
Model
350
22
  0
DICTIONARY
  5
3B
102
{ACAD_REACTORS
330
C
102
}
330
C
100
AcDbDictionary
281
     1
  3
ByBlock
350
3D
  3
ByLayer
350
3C
  3
Global
350
3E
  0
DICTIONARY
  5
4A7
102
{ACAD_REACTORS
330
C
102
}
330
C
100
AcDbDictionary
281
     1
  0
DICTIONARY
  5
17
102
{ACAD_REACTORS
330
C
102
}
330
C
100
AcDbDictionary
281
     1
  3
Standard
350
18
  0
DICTIONARY
  5
19
102
{ACAD_REACTORS
330
C
102
}
330
C
100
AcDbDictionary
281
     1
  0
ACDBDICTIONARYWDFLT
  5
E
102
{ACAD_REACTORS
330
C
102
}
330
C
100
AcDbDictionary
281
     1
  3
Normal
350
F
100
AcDbDictionaryWithDefault
340
F
  0
DICTIONARY
  5
4A6
102
{ACAD_REACTORS
330
C
102
}
330
C
100
AcDbDictionary
281
     1
  0
DICTIONARY
  5
2A
102
{ACAD_REACTORS
330
C
102
}
330
C
100
AcDbDictionary
281
     1
  3
2dWireframe
350
2F
  3
3D Hidden
350
31
  3
3dWireframe
350
30
  3
Basic
350
32
  3
Brighten
350
36
  3
ColorChange
350
3A
  3
Conceptual
350
34
  3
Dim
350
35
  3
Facepattern
350
39
  3
Flat
350
2B
  3
FlatWithEdges
350
2C
  3
Gouraud
350
2D
  3
GouraudWithEdges
350
2E
  3
Linepattern
350
38
  3
Realistic
350
33
  3
Thicken
350
37
  0
LAYOUT
  5
1E
102
{ACAD_REACTORS
330
1A
102
}
330
1A
100
AcDbPlotSettings
  1

  2
none_device
  4

  6

 40
0.0
 41
0.0
 42
0.0
 43
0.0
 44
0.0
 45
0.0
 46
0.0
 47
0.0
 48
0.0
 49
0.0
140
0.0
141
0.0
142
1.0
143
1.0
 70
   688
 72
     0
 73
     0
 74
     5
  7

 75
    16
 76
     0
 77
     5
 78
   300
147
1.0
148
0.0
149
0.0
100
AcDbLayout
  1
Layout1
 70
     1
 71
     1
 10
0.0
 20
0.0
 11
420.0
 21
297.0
 12
0.0
 22
0.0
 32
0.0
 14
1.000000000000000E+20
 24
1.000000000000000E+20
 34
1.000000000000000E+20
 15
-1.000000000000000E+20
 25
-1.000000000000000E+20
 35
-1.000000000000000E+20
146
0.0
 13
0.0
 23
0.0
 33
0.0
 16
1.0
 26
0.0
 36
0.0
 17
0.0
 27
1.0
 37
0.0
 76
     0
330
1B
  0
LAYOUT
  5
26
102
{ACAD_REACTORS
330
1A
102
}
330
1A
100
AcDbPlotSettings
  1

  2
none_device
  4

  6

 40
0.0
 41
0.0
 42
0.0
 43
0.0
 44
0.0
 45
0.0
 46
0.0
 47
0.0
 48
0.0
 49
0.0
140
0.0
141
0.0
142
1.0
143
1.0
 70
   688
 72
     0
 73
     0
 74
     5
  7

 75
    16
 76
     0
 77
     5
 78
   300
147
1.0
148
0.0
149
0.0
100
AcDbLayout
  1
Layout2
 70
     1
 71
     2
 10
0.0
 20
0.0
 11
0.0
 21
0.0
 12
0.0
 22
0.0
 32
0.0
 14
0.0
 24
0.0
 34
0.0
 15
0.0
 25
0.0
 35
0.0
146
0.0
 13
0.0
 23
0.0
 33
0.0
 16
1.0
 26
0.0
 36
0.0
 17
0.0
 27
1.0
 37
0.0
 76
     0
330
23
  0
LAYOUT
  5
22
102
{ACAD_REACTORS
330
1A
102
}
330
1A
100
AcDbPlotSettings
  1

  2
none_device
  4

  6

 40
0.0
 41
0.0
 42
0.0
 43
0.0
 44
0.0
 45
0.0
 46
0.0
 47
0.0
 48
0.0
 49
0.0
140
0.0
141
0.0
142
1.0
143
1.0
 70
  1712
 72
     0
 73
     0
 74
     0
  7

 75
     0
 76
     0
 77
     5
 78
   300
147
1.0
148
0.0
149
0.0
100
AcDbLayout
  1
Model
 70
     1
 71
     0
 10
-4455.0
 20
-3150.0
 11
4455.0
 21
3150.0
 12
0.0
 22
0.0
 32
0.0
 14
-4455.0
 24
-3150.0
 34
0.0
 15
4455.0
 25
3150.0
 35
0.0
146
0.0
 13
0.0
 23
0.0
 33
0.0
 16
1.0
 26
0.0
 36
0.0
 17
0.0
 27
1.0
 37
0.0
 76
     0
330
1F
331
29
  0
MATERIAL
  5
3D
102
{ACAD_REACTORS
330
3B
102
}
330
3B
100
AcDbMaterial
  1
ByBlock
 72
     1
 94
      127
  0
MATERIAL
  5
3C
102
{ACAD_REACTORS
330
3B
102
}
330
3B
100
AcDbMaterial
  1
ByLayer
 72
     1
 94
      127
  0
MATERIAL
  5
3E
102
{ACAD_REACTORS
330
3B
102
}
330
3B
100
AcDbMaterial
  1
Global
 72
     1
 94
      127
  0
MLINESTYLE
  5
18
102
{ACAD_REACTORS
330
17
102
}
330
17
100
AcDbMlineStyle
  2
Standard
 70
     0
  3

 62
   256
 51
90.0
 52
90.0
 71
     2
 49
0.5
 62
   256
  6
BYLAYER
 49
-0.5
 62
   256
  6
BYLAYER
  0
ACDBPLACEHOLDER
  5
F
102
{ACAD_REACTORS
330
E
102
}
330
E
  0
VISUALSTYLE
  5
2F
102
{ACAD_REACTORS
330
2A
102
}
330
2A
100
AcDbVisualStyle
  2
2dWireframe
 70
     4
177
     2
291
     0
 71
     0
176
     1
 72
     2
176
     1
 73
     0
176
     1
 90
        0
176
     1
 40
-0.6
176
     1
 41
-30.0
176
     1
 62
     5
 63
     7
421
 16777215
176
     1
 74
     1
176
     1
 91
        4
176
     1
 64
     7
176
     1
 65
   257
176
     1
 75
     1
176
     1
175
     1
176
     1
 42
1.0
176
     1
 92
        0
176
     1
 66
   257
176
     1
 43
1.0
176
     1
 76
     1
176
     1
 77
     6
176
     1
 78
     2
176
     1
 67
     7
176
     1
 79
     5
176
     1
170
     0
176
     1
171
     0
176
     1
290
     0
176
     1
 93
        1
176
     1
 44
0.0
176
     1
173
     0
176
     1
  0
VISUALSTYLE
  5
31
102
{ACAD_REACTORS
330
2A
102
}
330
2A
100
AcDbVisualStyle
  2
3D Hidden
 70
     6
177
     2
291
     0
 71
     1
176
     1
 72
     2
176
     1
 73
     2
176
     1
 90
        0
176
     1
 40
-0.6
176
     1
 41
-30.0
176
     1
 62
     5
 63
     7
421
 16777215
176
     1
 74
     2
176
     1
 91
        2
176
     1
 64
     7
176
     1
 65
   257
176
     1
 75
     2
176
     1
175
     1
176
     1
 42
40.0
176
     1
 92
        0
176
     1
 66
   257
176
     1
 43
1.0
176
     1
 76
     1
176
     1
 77
     6
176
     1
 78
     2
176
     1
 67
     7
176
     1
 79
     3
176
     1
170
     0
176
     1
171
     0
176
     1
290
     0
176
     1
 93
        1
176
     1
 44
0.0
176
     1
173
     0
176
     1
  0
VISUALSTYLE
  5
30
102
{ACAD_REACTORS
330
2A
102
}
330
2A
100
AcDbVisualStyle
  2
3dWireframe
 70
     5
177
     2
291
     0
 71
     0
176
     1
 72
     2
176
     1
 73
     0
176
     1
 90
        0
176
     1
 40
-0.6
176
     1
 41
-30.0
176
     1
 62
     5
 63
     7
421
 16777215
176
     1
 74
     1
176
     1
 91
        4
176
     1
 64
     7
176
     1
 65
   257
176
     1
 75
     1
176
     1
175
     1
176
     1
 42
1.0
176
     1
 92
        0
176
     1
 66
   257
176
     1
 43
1.0
176
     1
 76
     1
176
     1
 77
     6
176
     1
 78
     2
176
     1
 67
     7
176
     1
 79
     5
176
     1
170
     0
176
     1
171
     0
176
     1
290
     0
176
     1
 93
        1
176
     1
 44
0.0
176
     1
173
     0
176
     1
  0
VISUALSTYLE
  5
32
102
{ACAD_REACTORS
330
2A
102
}
330
2A
100
AcDbVisualStyle
  2
Basic
 70
     7
177
     2
291
     1
 71
     1
176
     1
 72
     0
176
     1
 73
     1
176
     1
 90
        0
176
     1
 40
-0.6
176
     1
 41
-30.0
176
     1
 62
     5
 63
     7
421
 16777215
176
     1
 74
     0
176
     1
 91
        4
176
     1
 64
     7
176
     1
 65
   257
176
     1
 75
     1
176
     1
175
     1
176
     1
 42
1.0
176
     1
 92
        8
176
     1
 66
     7
176
     1
 43
1.0
176
     1
 76
     1
176
     1
 77
     6
176
     1
 78
     2
176
     1
 67
     7
176
     1
 79
     5
176
     1
170
     0
176
     1
171
     0
176
     1
290
     0
176
     1
 93
        1
176
     1
 44
0.0
176
     1
173
     0
176
     1
  0
VISUALSTYLE
  5
36
102
{ACAD_REACTORS
330
2A
102
}
330
2A
100
AcDbVisualStyle
  2
Brighten
 70
    12
177
     2
291
     1
 71
     2
176
     1
 72
     2
176
     1
 73
     0
176
     1
 90
        0
176
     1
 40
-0.6
176
     1
 41
-30.0
176
     1
 62
     5
 63
     7
421
 16777215
176
     1
 74
     1
176
     1
 91
        4
176
     1
 64
     7
176
     1
 65
   257
176
     1
 75
     1
176
     1
175
     1
176
     1
 42
1.0
176
     1
 92
        8
176
     1
 66
     7
176
     1
 43
1.0
176
     1
 76
     1
176
     1
 77
     6
176
     1
 78
     2
176
     1
 67
     7
176
     1
 79
     5
176
     1
170
     0
176
     1
171
     0
176
     1
290
     0
176
     1
 93
        1
176
     1
 44
50.0
176
     1
173
     0
176
     1
  0
VISUALSTYLE
  5
3A
102
{ACAD_REACTORS
330
2A
102
}
330
2A
100
AcDbVisualStyle
  2
ColorChange
 70
    16
177
     2
291
     1
 71
     2
176
     1
 72
     2
176
     1
 73
     3
176
     1
 90
        0
176
     1
 40
-0.6
176
     1
 41
-30.0
176
     1
 62
     5
 63
     8
421
  8421504
176
     1
 74
     1
176
     1
 91
        4
176
     1
 64
     7
176
     1
 65
   257
176
     1
 75
     1
176
     1
175
     1
176
     1
 42
1.0
176
     1
 92
        8
176
     1
 66
     8
424
  8421504
176
     1
 43
1.0
176
     1
 76
     1
176
     1
 77
     6
176
     1
 78
     2
176
     1
 67
     7
176
     1
 79
     5
176
     1
170
     0
176
     1
171
     0
176
     1
290
     0
176
     1
 93
        1
176
     1
 44
0.0
176
     1
173
     0
176
     1
  0
VISUALSTYLE
  5
34
102
{ACAD_REACTORS
330
2A
102
}
330
2A
100
AcDbVisualStyle
  2
Conceptual
 70
     9
177
     2
291
     0
 71
     3
176
     1
 72
     2
176
     1
 73
     0
176
     1
 90
        0
176
     1
 40
-0.6
176
     1
 41
-30.0
176
     1
 62
     5
 63
     7
421
 16777215
176
     1
 74
     2
176
     1
 91
        2
176
     1
 64
     7
176
     1
 65
   257
176
     1
 75
     1
176
     1
175
     1
176
     1
 42
40.0
176
     1
 92
        8
176
     1
 66
     7
176
     1
 43
1.0
176
     1
 76
     1
176
     1
 77
     6
176
     1
 78
     2
176
     1
 67
     7
176
     1
 79
     3
176
     1
170
     0
176
     1
171
     0
176
     1
290
     0
176
     1
 93
        1
176
     1
 44
0.0
176
     1
173
     0
176
     1
  0
VISUALSTYLE
  5
35
102
{ACAD_REACTORS
330
2A
102
}
330
2A
100
AcDbVisualStyle
  2
Dim
 70
    11
177
     2
291
     1
 71
     2
176
     1
 72
     2
176
     1
 73
     0
176
     1
 90
        0
176
     1
 40
-0.6
176
     1
 41
-30.0
176
     1
 62
     5
 63
     7
421
 16777215
176
     1
 74
     1
176
     1
 91
        4
176
     1
 64
     7
176
     1
 65
   257
176
     1
 75
     1
176
     1
175
     1
176
     1
 42
1.0
176
     1
 92
        8
176
     1
 66
     7
176
     1
 43
1.0
176
     1
 76
     1
176
     1
 77
     6
176
     1
 78
     2
176
     1
 67
     7
176
     1
 79
     5
176
     1
170
     0
176
     1
171
     0
176
     1
290
     0
176
     1
 93
        1
176
     1
 44
-50.0
176
     1
173
     0
176
     1
  0
VISUALSTYLE
  5
39
102
{ACAD_REACTORS
330
2A
102
}
330
2A
100
AcDbVisualStyle
  2
Facepattern
 70
    15
177
     2
291
     1
 71
     2
176
     1
 72
     2
176
     1
 73
     0
176
     1
 90
        0
176
     1
 40
-0.6
176
     1
 41
-30.0
176
     1
 62
     5
 63
     7
421
 16777215
176
     1
 74
     1
176
     1
 91
        4
176
     1
 64
     7
176
     1
 65
   257
176
     1
 75
     1
176
     1
175
     1
176
     1
 42
1.0
176
     1
 92
        8
176
     1
 66
     7
176
     1
 43
1.0
176
     1
 76
     1
176
     1
 77
     6
176
     1
 78
     2
176
     1
 67
     7
176
     1
 79
     5
176
     1
170
     0
176
     1
171
     0
176
     1
290
     0
176
     1
 93
        1
176
     1
 44
0.0
176
     1
173
     0
176
     1
  0
VISUALSTYLE
  5
2B
102
{ACAD_REACTORS
330
2A
102
}
330
2A
100
AcDbVisualStyle
  2
Flat
 70
     0
177
     2
291
     1
 71
     2
176
     1
 72
     1
176
     1
 73
     1
176
     1
 90
        2
176
     1
 40
-0.6
176
     1
 41
30.0
176
     1
 62
     5
 63
     7
421
 16777215
176
     1
 74
     0
176
     1
 91
        4
176
     1
 64
     7
176
     1
 65
   257
176
     1
 75
     1
176
     1
175
     1
176
     1
 42
1.0
176
     1
 92
        8
176
     1
 66
     7
176
     1
 43
1.0
176
     1
 76
     1
176
     1
 77
     6
176
     1
 78
     2
176
     1
 67
     7
176
     1
 79
     5
176
     1
170
     0
176
     1
171
     0
176
     1
290
     0
176
     1
 93
       13
176
     1
 44
0.0
176
     1
173
     0
176
     1
  0
VISUALSTYLE
  5
2C
102
{ACAD_REACTORS
330
2A
102
}
330
2A
100
AcDbVisualStyle
  2
FlatWithEdges
 70
     1
177
     2
291
     1
 71
     2
176
     1
 72
     1
176
     1
 73
     1
176
     1
 90
        2
176
     1
 40
-0.6
176
     1
 41
30.0
176
     1
 62
     5
 63
     7
421
 16777215
176
     1
 74
     1
176
     1
 91
        4
176
     1
 64
     7
176
     1
 65
   257
176
     1
 75
     1
176
     1
175
     1
176
     1
 42
1.0
176
     1
 92
        0
176
     1
 66
   257
176
     1
 43
1.0
176
     1
 76
     1
176
     1
 77
     6
176
     1
 78
     2
176
     1
 67
     7
176
     1
 79
     5
176
     1
170
     0
176
     1
171
     0
176
     1
290
     0
176
     1
 93
       13
176
     1
 44
0.0
176
     1
173
     0
176
     1
  0
VISUALSTYLE
  5
2D
102
{ACAD_REACTORS
330
2A
102
}
330
2A
100
AcDbVisualStyle
  2
Gouraud
 70
     2
177
     2
291
     1
 71
     2
176
     1
 72
     2
176
     1
 73
     1
176
     1
 90
        2
176
     1
 40
-0.6
176
     1
 41
30.0
176
     1
 62
     5
 63
     7
421
 16777215
176
     1
 74
     0
176
     1
 91
        4
176
     1
 64
     7
176
     1
 65
   257
176
     1
 75
     1
176
     1
175
     1
176
     1
 42
1.0
176
     1
 92
        0
176
     1
 66
     7
176
     1
 43
1.0
176
     1
 76
     1
176
     1
 77
     6
176
     1
 78
     2
176
     1
 67
     7
176
     1
 79
     5
176
     1
170
     0
176
     1
171
     0
176
     1
290
     0
176
     1
 93
       13
176
     1
 44
0.0
176
     1
173
     0
176
     1
  0
VISUALSTYLE
  5
2E
102
{ACAD_REACTORS
330
2A
102
}
330
2A
100
AcDbVisualStyle
  2
GouraudWithEdges
 70
     3
177
     2
291
     1
 71
     2
176
     1
 72
     2
176
     1
 73
     1
176
     1
 90
        2
176
     1
 40
-0.6
176
     1
 41
30.0
176
     1
 62
     5
 63
     7
421
 16777215
176
     1
 74
     1
176
     1
 91
        4
176
     1
 64
     7
176
     1
 65
   257
176
     1
 75
     1
176
     1
175
     1
176
     1
 42
1.0
176
     1
 92
        0
176
     1
 66
   257
176
     1
 43
1.0
176
     1
 76
     1
176
     1
 77
     6
176
     1
 78
     2
176
     1
 67
     7
176
     1
 79
     5
176
     1
170
     0
176
     1
171
     0
176
     1
290
     0
176
     1
 93
       13
176
     1
 44
0.0
176
     1
173
     0
176
     1
  0
VISUALSTYLE
  5
38
102
{ACAD_REACTORS
330
2A
102
}
330
2A
100
AcDbVisualStyle
  2
Linepattern
 70
    14
177
     2
291
     1
 71
     2
176
     1
 72
     2
176
     1
 73
     0
176
     1
 90
        0
176
     1
 40
-0.6
176
     1
 41
-30.0
176
     1
 62
     5
 63
     7
421
 16777215
176
     1
 74
     1
176
     1
 91
        4
176
     1
 64
     7
176
     1
 65
   257
176
     1
 75
     7
176
     1
175
     7
176
     1
 42
1.0
176
     1
 92
        8
176
     1
 66
     7
176
     1
 43
1.0
176
     1
 76
     1
176
     1
 77
     6
176
     1
 78
     2
176
     1
 67
     7
176
     1
 79
     5
176
     1
170
     0
176
     1
171
     0
176
     1
290
     0
176
     1
 93
        1
176
     1
 44
0.0
176
     1
173
     0
176
     1
  0
VISUALSTYLE
  5
33
102
{ACAD_REACTORS
330
2A
102
}
330
2A
100
AcDbVisualStyle
  2
Realistic
 70
     8
177
     2
291
     0
 71
     2
176
     1
 72
     2
176
     1
 73
     0
176
     1
 90
        0
176
     1
 40
-0.6
176
     1
 41
-30.0
176
     1
 62
     5
 63
     7
421
 16777215
176
     1
 74
     1
176
     1
 91
        0
176
     1
 64
     7
176
     1
 65
   257
176
     1
 75
     1
176
     1
175
     1
176
     1
 42
1.0
176
     1
 92
        8
176
     1
 66
     8
424
  7895160
176
     1
 43
1.0
176
     1
 76
     1
176
     1
 77
     6
176
     1
 78
     2
176
     1
 67
     7
176
     1
 79
     5
176
     1
170
     0
176
     1
171
     0
176
     1
290
     0
176
     1
 93
       13
176
     1
 44
0.0
176
     1
173
     0
176
     1
  0
VISUALSTYLE
  5
37
102
{ACAD_REACTORS
330
2A
102
}
330
2A
100
AcDbVisualStyle
  2
Thicken
 70
    13
177
     2
291
     1
 71
     2
176
     1
 72
     2
176
     1
 73
     0
176
     1
 90
        0
176
     1
 40
-0.6
176
     1
 41
-30.0
176
     1
 62
     5
 63
     7
421
 16777215
176
     1
 74
     1
176
     1
 91
        4
176
     1
 64
     7
176
     1
 65
   257
176
     1
 75
     1
176
     1
175
     1
176
     1
 42
1.0
176
     1
 92
       12
176
     1
 66
     7
176
     1
 43
1.0
176
     1
 76
     1
176
     1
 77
     6
176
     1
 78
     2
176
     1
 67
     7
176
     1
 79
     5
176
     1
170
     0
176
     1
171
     0
176
     1
290
     0
176
     1
 93
        1
176
     1
 44
0.0
176
     1
173
     0
176
     1
  0
ENDSEC
  0
EOF
