  0
SECTION
  2
HEADER
  9
$ACADVER
  1
AC1024
  9
$ACADMAINTVER
 70
     6
  9
$DWGCODEPAGE
  3
ANSI_932
  9
$INSBASE
 10
0.0
 20
0.0
 30
0.0
  9
$EXTMIN
 10
-4455.0
 20
-3150.0
 30
0.0
  9
$EXTMAX
 10
4455.0
 20
3150.0
 30
0.0
  9
$LIMMIN
 10
-4455.0
 20
-3150.0
  9
$LIMMAX
 10
4455.0
 20
3150.0
  9
$ORTHOMODE
 70
     0
  9
$REGENMODE
 70
     1
  9
$FILLMODE
 70
     1
  9
$QTEXTMODE
 70
     0
  9
$MIRRTEXT
 70
     1
  9
$LTSCALE
 40
30.0
  9
$ATTMODE
 70
     1
  9
$TEXTSIZE
 40
2.5
  9
$TRACEWID
 40
1.0
  9
$TEXTSTYLE
  7
Standard
  9
$CLAYER
  8
0
  9
$CELTYPE
  6
ByLayer
  9
$CECOLOR
 62
   256
  9
$CELTSCALE
 40
1.0
  9
$DISPSILH
 70
     0
  9
$DIMSCALE
 40
1.0
  9
$DIMASZ
 40
2.5
  9
$DIMEXO
 40
0.625
  9
$DIMDLI
 40
3.75
  9
$DIMRND
 40
0.0
  9
$DIMDLE
 40
0.0
  9
$DIMEXE
 40
1.25
  9
$DIMTP
 40
0.0
  9
$DIMTM
 40
0.0
  9
$DIMTXT
 40
2.5
  9
$DIMCEN
 40
2.5
  9
$DIMTSZ
 40
0.0
  9
$DIMTOL
 70
     0
  9
$DIMLIM
 70
     0
  9
$DIMTIH
 70
     0
  9
$DIMTOH
 70
     0
  9
$DIMSE1
 70
     0
  9
$DIMSE2
 70
     0
  9
$DIMTAD
 70
     1
  9
$DIMZIN
 70
     8
  9
$DIMBLK
  1

  9
$DIMASO
 70
     1
  9
$DIMSHO
 70
     1
  9
$DIMPOST
  1

  9
$DIMAPOST
  1

  9
$DIMALT
 70
     0
  9
$DIMALTD
 70
     3
  9
$DIMALTF
 40
0.03937007874016
  9
$DIMLFAC
 40
1.0
  9
$DIMTOFL
 70
     1
  9
$DIMTVP
 40
0.0
  9
$DIMTIX
 70
     0
  9
$DIMSOXD
 70
     0
  9
$DIMSAH
 70
     0
  9
$DIMBLK1
  1

  9
$DIMBLK2
  1

  9
$DIMSTYLE
  2
ISO-25
  9
$DIMCLRD
 70
     0
  9
$DIMCLRE
 70
     0
  9
$DIMCLRT
 70
     0
  9
$DIMTFAC
 40
1.0
  9
$DIMGAP
 40
0.625
  9
$DIMJUST
 70
     0
  9
$DIMSD1
 70
     0
  9
$DIMSD2
 70
     0
  9
$DIMTOLJ
 70
     0
  9
$DIMTZIN
 70
     8
  9
$DIMALTZ
 70
     0
  9
$DIMALTTZ
 70
     0
  9
$DIMUPT
 70
     0
  9
$DIMDEC
 70
     2
  9
$DIMTDEC
 70
     2
  9
$DIMALTU
 70
     2
  9
$DIMALTTD
 70
     3
  9
$DIMTXSTY
  7
Standard
  9
$DIMAUNIT
 70
     0
  9
$DIMADEC
 70
     0
  9
$DIMALTRND
 40
0.0
  9
$DIMAZIN
 70
     0
  9
$DIMDSEP
 70
    44
  9
$DIMATFIT
 70
     3
  9
$DIMFRAC
 70
     0
  9
$DIMLDRBLK
  1

  9
$DIMLUNIT
 70
     2
  9
$DIMLWD
 70
    -2
  9
$DIMLWE
 70
    -2
  9
$DIMTMOVE
 70
     0
  9
$DIMFXL
 40
1.0
  9
$DIMFXLON
 70
     0
  9
$DIMJOGANG
 40
0.7853981633974483
  9
$DIMTFILL
 70
     0
  9
$DIMTFILLCLR
 70
     0
  9
$DIMARCSYM
 70
     0
  9
$DIMLTYPE
  6

  9
$DIMLTEX1
  6

  9
$DIMLTEX2
  6

  9
$DIMTXTDIRECTION
 70
     0
  9
$LUNITS
 70
     2
  9
$LUPREC
 70
     4
  9
$SKETCHINC
 40
1.0
  9
$FILLETRAD
 40
10.0
  9
$AUNITS
 70
     0
  9
$AUPREC
 70
     0
  9
$MENU
  1
.
  9
$ELEVATION
 40
0.0
  9
$PELEVATION
 40
0.0
  9
$THICKNESS
 40
0.0
  9
$LIMCHECK
 70
     0
  9
$CHAMFERA
 40
10.0
  9
$CHAMFERB
 40
10.0
  9
$CHAMFERC
 40
20.0
  9
$CHAMFERD
 40
0.0
  9
$SKPOLY
 70
     0
  9
$TDCREATE
 40
2457953.400734121
  9
$TDUCREATE
 40
2457953.025734121
  9
$TDUPDATE
 40
2457953.400734132
  9
$TDUUPDATE
 40
2457953.025734132
  9
$TDINDWG
 40
0.0000000116
  9
$TDUSRTIMER
 40
0.0000000116
  9
$USRTIMER
 70
     1
  9
$ANGBASE
 50
0.0
  9
$ANGDIR
 70
     0
  9
$PDMODE
 70
     0
  9
$PDSIZE
 40
0.0
  9
$PLINEWID
 40
0.0
  9
$SPLFRAME
 70
     0
  9
$SPLINETYPE
 70
     6
  9
$SPLINESEGS
 70
     8
  9
$HANDSEED
  5
43A
  9
$SURFTAB1
 70
     6
  9
$SURFTAB2
 70
     6
  9
$SURFTYPE
 70
     6
  9
$SURFU
 70
     6
  9
$SURFV
 70
     6
  9
$UCSBASE
  2

  9
$UCSNAME
  2

  9
$UCSORG
 10
0.0
 20
0.0
 30
0.0
  9
$UCSXDIR
 10
1.0
 20
0.0
 30
0.0
  9
$UCSYDIR
 10
0.0
 20
1.0
 30
0.0
  9
$UCSORTHOREF
  2

  9
$UCSORTHOVIEW
 70
     0
  9
$UCSORGTOP
 10
0.0
 20
0.0
 30
0.0
  9
$UCSORGBOTTOM
 10
0.0
 20
0.0
 30
0.0
  9
$UCSORGLEFT
 10
0.0
 20
0.0
 30
0.0
  9
$UCSORGRIGHT
 10
0.0
 20
0.0
 30
0.0
  9
$UCSORGFRONT
 10
0.0
 20
0.0
 30
0.0
  9
$UCSORGBACK
 10
0.0
 20
0.0
 30
0.0
  9
$PUCSBASE
  2

  9
$PUCSNAME
  2

  9
$PUCSORG
 10
0.0
 20
0.0
 30
0.0
  9
$PUCSXDIR
 10
1.0
 20
0.0
 30
0.0
  9
$PUCSYDIR
 10
0.0
 20
1.0
 30
0.0
  9
$PUCSORTHOREF
  2

  9
$PUCSORTHOVIEW
 70
     0
  9
$PUCSORGTOP
 10
0.0
 20
0.0
 30
0.0
  9
$PUCSORGBOTTOM
 10
0.0
 20
0.0
 30
0.0
  9
$PUCSORGLEFT
 10
0.0
 20
0.0
 30
0.0
  9
$PUCSORGRIGHT
 10
0.0
 20
0.0
 30
0.0
  9
$PUCSORGFRONT
 10
0.0
 20
0.0
 30
0.0
  9
$PUCSORGBACK
 10
0.0
 20
0.0
 30
0.0
  9
$USERI1
 70
     0
  9
$USERI2
 70
     0
  9
$USERI3
 70
     0
  9
$USERI4
 70
     0
  9
$USERI5
 70
     0
  9
$USERR1
 40
0.0
  9
$USERR2
 40
0.0
  9
$USERR3
 40
0.0
  9
$USERR4
 40
0.0
  9
$USERR5
 40
0.0
  9
$WORLDVIEW
 70
     1
  9
$SHADEDGE
 70
     3
  9
$SHADEDIF
 70
    70
  9
$TILEMODE
 70
     1
  9
$MAXACTVP
 70
    64
  9
$PINSBASE
 10
0.0
 20
0.0
 30
0.0
  9
$PLIMCHECK
 70
     0
  9
$PEXTMIN
 10
1.000000000000000E+20
 20
1.000000000000000E+20
 30
1.000000000000000E+20
  9
$PEXTMAX
 10
-1.000000000000000E+20
 20
-1.000000000000000E+20
 30
-1.000000000000000E+20
  9
$PLIMMIN
 10
0.0
 20
0.0
  9
$PLIMMAX
 10
420.0
 20
297.0
  9
$UNITMODE
 70
     0
  9
$VISRETAIN
 70
     1
  9
$PLINEGEN
 70
     0
  9
$PSLTSCALE
 70
     1
  9
$TREEDEPTH
 70
  3020
  9
$CMLSTYLE
  2
Standard
  9
$CMLJUST
 70
     0
  9
$CMLSCALE
 40
20.0
  9
$PROXYGRAPHICS
 70
     1
  9
$MEASUREMENT
 70
     1
  9
$CELWEIGHT
370
    -1
  9
$ENDCAPS
280
     0
  9
$JOINSTYLE
280
     0
  9
$LWDISPLAY
290
     0
  9
$INSUNITS
 70
     4
  9
$HYPERLINKBASE
  1

  9
$STYLESHEET
  1

  9
$XEDIT
290
     1
  9
$CEPSNTYPE
380
     0
  9
$PSTYLEMODE
290
     1
  9
$FINGERPRINTGUID
  2
{EB44DBC2-4713-4EA5-9B2F-D7ED633A5883}
  9
$VERSIONGUID
  2
{FAEB1C32-E019-11D5-929B-00C0DF256EC4}
  9
$EXTNAMES
290
     1
  9
$PSVPSCALE
 40
0.0
  9
$OLESTARTUP
290
     0
  9
$SORTENTS
280
   127
  9
$INDEXCTL
280
     0
  9
$HIDETEXT
280
     1
  9
$XCLIPFRAME
280
     2
  9
$HALOGAP
280
     0
  9
$OBSCOLOR
 70
   257
  9
$OBSLTYPE
280
     0
  9
$INTERSECTIONDISPLAY
280
     0
  9
$INTERSECTIONCOLOR
 70
   257
  9
$DIMASSOC
280
     2
  9
$PROJECTNAME
  1

  9
$CAMERADISPLAY
290
     0
  9
$LENSLENGTH
 40
50.0
  9
$CAMERAHEIGHT
 40
0.0
  9
$STEPSPERSEC
 40
2.0
  9
$STEPSIZE
 40
6.0
  9
$3DDWFPREC
 40
2.0
  9
$PSOLWIDTH
 40
5.0
  9
$PSOLHEIGHT
 40
80.0
  9
$LOFTANG1
 40
1.570796326794897
  9
$LOFTANG2
 40
1.570796326794897
  9
$LOFTMAG1
 40
0.0
  9
$LOFTMAG2
 40
0.0
  9
$LOFTPARAM
 70
     7
  9
$LOFTNORMALS
280
     1
  9
$LATITUDE
 40
37.795
  9
$LONGITUDE
 40
-122.394
  9
$NORTHDIRECTION
 40
0.0
  9
$TIMEZONE
 70
 -8000
  9
$LIGHTGLYPHDISPLAY
280
     1
  9
$TILEMODELIGHTSYNCH
280
     1
  9
$SOLIDHIST
280
     1
  9
$SHOWHIST
280
     1
  9
$DWFFRAME
280
     2
  9
$DGNFRAME
280
     2
  9
$REALWORLDSCALE
290
     1
  9
$INTERFERECOLOR
 62
   256
  9
$CSHADOW
280
     0
  9
$SHADOWPLANELOCATION
 40
0.0
  0
ENDSEC
  0
SECTION
  2
CLASSES
  0
CLASS
  1
ACDBDICTIONARYWDFLT
  2
AcDbDictionaryWithDefault
  3
ObjectDBX Classes
 90
        0
 91
        4
280
     0
281
     0
  0
CLASS
  1
VISUALSTYLE
  2
AcDbVisualStyle
  3
ObjectDBX Classes
 90
     4095
 91
        4
280
     0
281
     0
  0
CLASS
  1
MATERIAL
  2
AcDbMaterial
  3
ObjectDBX Classes
 90
     1153
 91
        4
280
     0
281
     0
  0
ENDSEC
  0
SECTION
  2
TABLES
  0
TABLE
  2
VPORT
  5
8
330
0
100
AcDbSymbolTable
 70
     1
  0
VPORT
  5
29
330
8
100
AcDbSymbolTableRecord
100
AcDbViewportTableRecord
  2
*Active
 70
     0
 10
0.0
 20
0.0
 11
1.0
 21
1.0
 12
0.0
 22
0.0
 13
0.0
 23
0.0
 14
10.0
 24
10.0
 15
10.0
 25
10.0
 16
0.0
 26
0.0
 36
1.0
 17
0.0
 27
0.0
 37
0.0
 40
6930.000000000001
 41
1.414285714285714
 42
50.0
 43
0.0
 44
0.0
 50
0.0
 51
0.0
 71
     0
 72
 10000
 73
     1
 74
     3
 75
     0
 76
     0
 77
     0
 78
     0
281
     0
 65
     1
110
0.0
120
0.0
130
0.0
111
1.0
121
0.0
131
0.0
112
0.0
122
1.0
132
0.0
 79
     0
146
0.0
 60
     3
 61
     5
292
     1
282
     1
141
0.0
142
0.0
 63
   250
  0
ENDTAB
  0
TABLE
  2
LTYPE
  5
5
330
0
100
AcDbSymbolTable
 70
     2
  0
LTYPE
  5
14
330
5
100
AcDbSymbolTableRecord
100
AcDbLinetypeTableRecord
  2
ByBlock
 70
     0
  3

 72
    65
 73
     0
 40
0.0
  0
LTYPE
  5
15
330
5
100
AcDbSymbolTableRecord
100
AcDbLinetypeTableRecord
  2
ByLayer
 70
     0
  3

 72
    65
 73
     0
 40
0.0
  0
LTYPE
  5
16
330
5
100
AcDbSymbolTableRecord
100
AcDbLinetypeTableRecord
  2
Continuous
 70
     0
  3
Solid line
 72
    65
 73
     0
 40
0.0
  0
LTYPE
  5
3F
330
5
100
AcDbSymbolTableRecord
100
AcDbLinetypeTableRecord
  2
JWW_DASHED1
 70
     0
  3
-  --  --  --  --  --  --  --  -
 72
    65
 73
     2
 40
1.693333333333333
 49
0.8466666666666667
 74
     0
 49
-0.8466666666666667
 74
     0
  0
ENDTAB
  0
TABLE
  2
LAYER
  5
2
330
0
100
AcDbSymbolTable
 70
     4
  0
LAYER
  5
10
330
2
100
AcDbSymbolTableRecord
100
AcDbLayerTableRecord
  2
0
 70
     0
 62
     7
  6
Continuous
370
    -3
390
F
347
3E
  0
LAYER
  5
40
330
2
100
AcDbSymbolTableRecord
100
AcDbLayerTableRecord
  2
0-0
 70
     0
 62
     7
  6
Continuous
370
    -3
390
F
347
3E
  0
LAYER
  5
41
330
2
100
AcDbSymbolTableRecord
100
AcDbLayerTableRecord
  2
文字
 70
     0
 62
     7
  6
Continuous
370
    -3
390
F
347
3E
  0
LAYER
  5
42
330
2
100
AcDbSymbolTableRecord
100
AcDbLayerTableRecord
  2
寸法
 70
     0
 62
     7
  6
Continuous
370
    -3
390
F
347
3E
  0
ENDTAB
  0
TABLE
  2
STYLE
  5
3
330
0
100
AcDbSymbolTable
 70
     1
  0
STYLE
  5
11
330
3
100
AcDbSymbolTableRecord
100
AcDbTextStyleTableRecord
  2
Standard
 70
     0
 40
0.0
 41
1.0
 50
0.0
 71
     0
 42
2.5
  3
txt
  4

  0
ENDTAB
  0
TABLE
  2
VIEW
  5
6
330
0
100
AcDbSymbolTable
 70
     0
  0
ENDTAB
  0
TABLE
  2
UCS
  5
7
330
0
100
AcDbSymbolTable
 70
     0
  0
ENDTAB
  0
TABLE
  2
APPID
  5
9
330
0
100
AcDbSymbolTable
 70
     1
  0
APPID
  5
12
330
9
100
AcDbSymbolTableRecord
100
AcDbRegAppTableRecord
  2
ACAD
 70
     0
  0
ENDTAB
  0
TABLE
  2
DIMSTYLE
  5
A
330
0
100
AcDbSymbolTable
 70
     1
100
AcDbDimStyleTable
  0
DIMSTYLE
105
27
330
A
100
AcDbSymbolTableRecord
100
AcDbDimStyleTableRecord
  2
ISO-25
 70
     0
 41
2.5
 42
0.625
 43
3.75
 44
1.25
 73
     0
 74
     0
 77
     1
 78
     8
140
2.5
141
2.5
143
0.03937007874016
147
0.625
171
     3
172
     1
178
     0
271
     2
272
     2
274
     3
278
    44
283
     0
284
     8
340
11
  0
ENDTAB
  0
TABLE
  2
BLOCK_RECORD
  5
1
330
0
100
AcDbSymbolTable
 70
     1
  0
BLOCK_RECORD
  5
1F
330
1
100
AcDbSymbolTableRecord
100
AcDbBlockTableRecord
  2
*Model_Space
340
22
 70
     0
280
     1
281
     0
  0
BLOCK_RECORD
  5
1B
330
1
100
AcDbSymbolTableRecord
100
AcDbBlockTableRecord
  2
*Paper_Space
340
1E
 70
     0
280
     1
281
     0
  0
BLOCK_RECORD
  5
23
330
1
100
AcDbSymbolTableRecord
100
AcDbBlockTableRecord
  2
*Paper_Space0
340
26
 70
     0
280
     1
281
     0
  0
ENDTAB
  0
ENDSEC
  0
SECTION
  2
BLOCKS
  0
BLOCK
  5
20
330
1F
100
AcDbEntity
  8
0
100
AcDbBlockBegin
  2
*Model_Space
 70
     0
 10
0.0
 20
0.0
 30
0.0
  3
*Model_Space
  1

  0
ENDBLK
  5
21
330
1F
100
AcDbEntity
  8
0
100
AcDbBlockEnd
  0
BLOCK
  5
1C
330
1B
100
AcDbEntity
 67
     1
  8
0
100
AcDbBlockBegin
  2
*Paper_Space
 70
     0
 10
0.0
 20
0.0
 30
0.0
  3
*Paper_Space
  1

  0
ENDBLK
  5
1D
330
1B
100
AcDbEntity
 67
     1
  8
0
100
AcDbBlockEnd
  0
BLOCK
  5
24
330
23
100
AcDbEntity
  8
0
100
AcDbBlockBegin
  2
*Paper_Space0
 70
     0
 10
0.0
 20
0.0
 30
0.0
  3
*Paper_Space0
  1

  0
ENDBLK
  5
25
330
23
100
AcDbEntity
  8
0
100
AcDbBlockEnd
  0
ENDSEC
  0
SECTION
  2
ENTITIES
  0
LINE
  5
43
330
1F
100
AcDbEntity
  8
0-0
  6
Continuous
 62
    92
370
    13
100
AcDbLine
 10
1641.003667237919
 20
-1484.824728877636
 30
0.0
 11
-1592.99633276208
 21
-1484.824728877636
 31
0.0
  0
LINE
  5
44
330
1F
100
AcDbEntity
  8
0-0
  6
Continuous
 62
    92
370
    13
100
AcDbLine
 10
1611.003667237919
 20
-1469.824728877636
 30
0.0
 11
-1562.99633276208
 21
-1469.824728877636
 31
0.0
  0
ARC
  5
45
330
1F
100
AcDbEntity
  8
0-0
  6
Continuous
 62
    92
370
    13
100
AcDbCircle
 10
-1534.496332762079
 20
-447.8247288776365
 30
0.0
 40
1.5
100
AcDbArc
 50
90.0
 51
180.0
  0
LINE
  5
46
330
1F
100
AcDbEntity
  8
0-0
  6
Continuous
 62
    92
370
    13
100
AcDbLine
 10
-1495.49633276208
 20
-446.3247288776361
 30
0.0
 11
-1534.496332762079
 21
-446.3247288776361
 31
0.0
  0
ARC
  5
47
330
1F
100
AcDbEntity
  8
0-0
  6
Continuous
 62
    92
370
    13
100
AcDbCircle
 10
-1495.49633276208
 20
-447.8247288776365
 30
0.0
 40
1.5
100
AcDbArc
 50
0.0
 51
90.00000000000001
  0
LINE
  5
48
330
1F
100
AcDbEntity
  8
0-0
  6
Continuous
 62
    92
370
    13
100
AcDbLine
 10
-1493.99633276208
 20
-566.8247288776356
 30
0.0
 11
-1493.99633276208
 21
-447.8247288776365
 31
0.0
  0
ARC
  5
49
330
1F
100
AcDbEntity
  8
0-0
  6
Continuous
 62
    92
370
    13
100
AcDbCircle
 10
-1495.49633276208
 20
-566.8247288776356
 30
0.0
 40
1.5
100
AcDbArc
 50
270.0
 51
0.0
  0
LINE
  5
4A
330
1F
100
AcDbEntity
  8
0-0
  6
Continuous
 62
    92
370
    13
100
AcDbLine
 10
-1534.496332762079
 20
-568.3247288776377
 30
0.0
 11
-1495.49633276208
 21
-568.3247288776377
 31
0.0
  0
LINE
  5
4B
330
1F
100
AcDbEntity
  8
0-0
  6
Continuous
 62
    92
370
    13
100
AcDbLine
 10
-1535.996332762079
 20
-566.8247288776356
 30
0.0
 11
-1535.996332762079
 21
-447.8247288776365
 31
0.0
  0
ARC
  5
4C
330
1F
100
AcDbEntity
  8
0-0
  6
Continuous
 62
    92
370
    13
100
AcDbCircle
 10
-1534.496332762079
 20
-566.8247288776356
 30
0.0
 40
1.5
100
AcDbArc
 50
180.0
 51
270.0
  0
ARC
  5
4D
330
1F
100
AcDbEntity
  8
0-0
  6
Continuous
 62
     7
370
     9
100
AcDbCircle
 10
-1514.996332762079
 20
-536.9247288776355
 30
0.0
 40
15.0
100
AcDbArc
 50
180.0
 51
0.0
  0
ARC
  5
4E
330
1F
100
AcDbEntity
  8
0-0
  6
Continuous
 62
     7
370
     9
100
AcDbCircle
 10
-1514.996332762079
 20
-477.7247288776357
 30
0.0
 40
15.0
100
AcDbArc
 50
0.0
 51
180.0
  0
LINE
  5
4F
330
1F
100
AcDbEntity
  8
0-0
  6
Continuous
 62
     7
370
     9
100
AcDbLine
 10
-1499.996332762079
 20
-536.9247288776355
 30
0.0
 11
-1499.996332762079
 21
-477.7247288776357
 31
0.0
  0
LINE
  5
50
330
1F
100
AcDbEntity
  8
0-0
  6
Continuous
 62
     7
370
     9
100
AcDbLine
 10
-1529.996332762079
 20
-477.7247288776357
 30
0.0
 11
-1529.996332762079
 21
-536.9247288776355
 31
0.0
  0
ARC
  5
51
330
1F
100
AcDbEntity
  8
0-0
  6
Continuous
 62
    92
370
    13
100
AcDbCircle
 10
-46.49633276207794
 20
-447.8247288776365
 30
0.0
 40
1.5
100
AcDbArc
 50
90.0
 51
180.0
  0
LINE
  5
52
330
1F
100
AcDbEntity
  8
0-0
  6
Continuous
 62
    92
370
    13
100
AcDbLine
 10
-7.496332762079305
 20
-446.3247288776361
 30
0.0
 11
-46.49633276207794
 21
-446.3247288776361
 31
0.0
  0
ARC
  5
53
330
1F
100
AcDbEntity
  8
0-0
  6
Continuous
 62
    92
370
    13
100
AcDbCircle
 10
-7.496332762079305
 20
-447.8247288776365
 30
0.0
 40
1.5
100
AcDbArc
 50
0.0
 51
90.00000000000001
  0
LINE
  5
54
330
1F
100
AcDbEntity
  8
0-0
  6
Continuous
 62
    92
370
    13
100
AcDbLine
 10
-5.996332762078964
 20
-566.8247288776356
 30
0.0
 11
-5.996332762078964
 21
-447.8247288776365
 31
0.0
  0
ARC
  5
55
330
1F
100
AcDbEntity
  8
0-0
  6
Continuous
 62
    92
370
    13
100
AcDbCircle
 10
-7.496332762079305
 20
-566.8247288776356
 30
0.0
 40
1.5
100
AcDbArc
 50
270.0
 51
0.0
  0
LINE
  5
56
330
1F
100
AcDbEntity
  8
0-0
  6
Continuous
 62
    92
370
    13
100
AcDbLine
 10
-46.49633276207794
 20
-568.3247288776377
 30
0.0
 11
-7.496332762079305
 21
-568.3247288776377
 31
0.0
  0
LINE
  5
57
330
1F
100
AcDbEntity
  8
0-0
  6
Continuous
 62
    92
370
    13
100
AcDbLine
 10
-47.99633276207828
 20
-566.8247288776356
 30
0.0
 11
-47.99633276207828
 21
-447.8247288776365
 31
0.0
  0
ARC
  5
58
330
1F
100
AcDbEntity
  8
0-0
  6
Continuous
 62
    92
370
    13
100
AcDbCircle
 10
-46.49633276207794
 20
-566.8247288776356
 30
0.0
 40
1.5
100
AcDbArc
 50
180.0
 51
270.0
  0
ARC
  5
59
330
1F
100
AcDbEntity
  8
0-0
  6
Continuous
 62
     7
370
     9
100
AcDbCircle
 10
-26.99633276207862
 20
-536.9247288776355
 30
0.0
 40
15.0
100
AcDbArc
 50
180.0
 51
0.0
  0
ARC
  5
5A
330
1F
100
AcDbEntity
  8
0-0
  6
Continuous
 62
     7
370
     9
100
AcDbCircle
 10
-26.99633276207862
 20
-477.7247288776357
 30
0.0
 40
15.0
100
AcDbArc
 50
0.0
 51
180.0
  0
LINE
  5
5B
330
1F
100
AcDbEntity
  8
0-0
  6
Continuous
 62
     7
370
     9
100
AcDbLine
 10
-11.99633276207862
 20
-536.9247288776355
 30
0.0
 11
-11.99633276207862
 21
-477.7247288776357
 31
0.0
  0
LINE
  5
5C
330
1F
100
AcDbEntity
  8
0-0
  6
Continuous
 62
     7
370
     9
100
AcDbLine
 10
-41.99633276207862
 20
-477.7247288776357
 30
0.0
 11
-41.99633276207862
 21
-536.9247288776355
 31
0.0
  0
ARC
  5
5D
330
1F
100
AcDbEntity
  8
0-0
  6
Continuous
 62
    92
370
    13
100
AcDbCircle
 10
55.50366723791797
 20
-447.8247288776365
 30
0.0
 40
1.5
100
AcDbArc
 50
90.0
 51
180.0
  0
LINE
  5
5E
330
1F
100
AcDbEntity
  8
0-0
  6
Continuous
 62
    92
370
    13
100
AcDbLine
 10
94.5036672379166
 20
-446.3247288776361
 30
0.0
 11
55.50366723791797
 21
-446.3247288776361
 31
0.0
  0
ARC
  5
5F
330
1F
100
AcDbEntity
  8
0-0
  6
Continuous
 62
    92
370
    13
100
AcDbCircle
 10
94.5036672379166
 20
-447.8247288776365
 30
0.0
 40
1.5
100
AcDbArc
 50
0.0
 51
90.00000000000001
  0
LINE
  5
60
330
1F
100
AcDbEntity
  8
0-0
  6
Continuous
 62
    92
370
    13
100
AcDbLine
 10
96.00366723791694
 20
-566.8247288776356
 30
0.0
 11
96.00366723791694
 21
-447.8247288776365
 31
0.0
  0
ARC
  5
61
330
1F
100
AcDbEntity
  8
0-0
  6
Continuous
 62
    92
370
    13
100
AcDbCircle
 10
94.5036672379166
 20
-566.8247288776356
 30
0.0
 40
1.5
100
AcDbArc
 50
270.0
 51
0.0
  0
LINE
  5
62
330
1F
100
AcDbEntity
  8
0-0
  6
Continuous
 62
    92
370
    13
100
AcDbLine
 10
55.50366723791797
 20
-568.3247288776377
 30
0.0
 11
94.5036672379166
 21
-568.3247288776377
 31
0.0
  0
LINE
  5
63
330
1F
100
AcDbEntity
  8
0-0
  6
Continuous
 62
    92
370
    13
100
AcDbLine
 10
54.00366723791763
 20
-566.8247288776356
 30
0.0
 11
54.00366723791763
 21
-447.8247288776365
 31
0.0
  0
ARC
  5
64
330
1F
100
AcDbEntity
  8
0-0
  6
Continuous
 62
    92
370
    13
100
AcDbCircle
 10
55.50366723791797
 20
-566.8247288776356
 30
0.0
 40
1.5
100
AcDbArc
 50
180.0
 51
270.0
  0
ARC
  5
65
330
1F
100
AcDbEntity
  8
0-0
  6
Continuous
 62
     7
370
     9
100
AcDbCircle
 10
75.00366723791728
 20
-536.9247288776355
 30
0.0
 40
15.0
100
AcDbArc
 50
180.0
 51
0.0
  0
ARC
  5
66
330
1F
100
AcDbEntity
  8
0-0
  6
Continuous
 62
     7
370
     9
100
AcDbCircle
 10
75.00366723791728
 20
-477.7247288776357
 30
0.0
 40
15.0
100
AcDbArc
 50
0.0
 51
180.0
  0
LINE
  5
67
330
1F
100
AcDbEntity
  8
0-0
  6
Continuous
 62
     7
370
     9
100
AcDbLine
 10
90.00366723791728
 20
-536.9247288776355
 30
0.0
 11
90.00366723791728
 21
-477.7247288776357
 31
0.0
  0
LINE
  5
68
330
1F
100
AcDbEntity
  8
0-0
  6
Continuous
 62
     7
370
     9
100
AcDbLine
 10
60.00366723791728
 20
-477.7247288776357
 30
0.0
 11
60.00366723791728
 21
-536.9247288776355
 31
0.0
  0
ARC
  5
69
330
1F
100
AcDbEntity
  8
0-0
  6
Continuous
 62
    92
370
    13
100
AcDbCircle
 10
1543.503667237921
 20
-447.8247288776365
 30
0.0
 40
1.5
100
AcDbArc
 50
90.0
 51
180.0
  0
LINE
  5
6A
330
1F
100
AcDbEntity
  8
0-0
  6
Continuous
 62
    92
370
    13
100
AcDbLine
 10
1582.503667237921
 20
-446.3247288776361
 30
0.0
 11
1543.503667237921
 21
-446.3247288776361
 31
0.0
  0
ARC
  5
6B
330
1F
100
AcDbEntity
  8
0-0
  6
Continuous
 62
    92
370
    13
100
AcDbCircle
 10
1582.503667237921
 20
-447.8247288776365
 30
0.0
 40
1.5
100
AcDbArc
 50
0.0
 51
90.00000000000001
  0
LINE
  5
6C
330
1F
100
AcDbEntity
  8
0-0
  6
Continuous
 62
    92
370
    13
100
AcDbLine
 10
1584.003667237921
 20
-566.8247288776356
 30
0.0
 11
1584.003667237921
 21
-447.8247288776365
 31
0.0
  0
ARC
  5
6D
330
1F
100
AcDbEntity
  8
0-0
  6
Continuous
 62
    92
370
    13
100
AcDbCircle
 10
1582.503667237921
 20
-566.8247288776356
 30
0.0
 40
1.5
100
AcDbArc
 50
270.0
 51
0.0
  0
LINE
  5
6E
330
1F
100
AcDbEntity
  8
0-0
  6
Continuous
 62
    92
370
    13
100
AcDbLine
 10
1543.503667237921
 20
-568.3247288776377
 30
0.0
 11
1582.503667237921
 21
-568.3247288776377
 31
0.0
  0
LINE
  5
6F
330
1F
100
AcDbEntity
  8
0-0
  6
Continuous
 62
    92
370
    13
100
AcDbLine
 10
1542.003667237922
 20
-566.8247288776356
 30
0.0
 11
1542.003667237922
 21
-447.8247288776365
 31
0.0
  0
ARC
  5
70
330
1F
100
AcDbEntity
  8
0-0
  6
Continuous
 62
    92
370
    13
100
AcDbCircle
 10
1543.503667237921
 20
-566.8247288776356
 30
0.0
 40
1.5
100
AcDbArc
 50
180.0
 51
270.0
  0
ARC
  5
71
330
1F
100
AcDbEntity
  8
0-0
  6
Continuous
 62
     7
370
     9
100
AcDbCircle
 10
1563.003667237921
 20
-536.9247288776355
 30
0.0
 40
15.0
100
AcDbArc
 50
180.0
 51
0.0
  0
ARC
  5
72
330
1F
100
AcDbEntity
  8
0-0
  6
Continuous
 62
     7
370
     9
100
AcDbCircle
 10
1563.003667237921
 20
-477.7247288776357
 30
0.0
 40
15.0
100
AcDbArc
 50
0.0
 51
180.0
  0
LINE
  5
73
330
1F
100
AcDbEntity
  8
0-0
  6
Continuous
 62
     7
370
     9
100
AcDbLine
 10
1578.003667237921
 20
-536.9247288776355
 30
0.0
 11
1578.003667237921
 21
-477.7247288776357
 31
0.0
  0
LINE
  5
74
330
1F
100
AcDbEntity
  8
0-0
  6
Continuous
 62
     7
370
     9
100
AcDbLine
 10
1548.003667237921
 20
-477.7247288776357
 30
0.0
 11
1548.003667237921
 21
-536.9247288776355
 31
0.0
  0
LINE
  5
75
330
1F
100
AcDbEntity
  8
0-0
  6
Continuous
 62
    92
370
    13
100
AcDbLine
 10
-1562.99633276208
 20
-1464.824728877637
 30
0.0
 11
24.00366723791933
 21
-1464.824728877637
 31
0.0
  0
LINE
  5
76
330
1F
100
AcDbEntity
  8
0-0
  6
Continuous
 62
    92
370
    13
100
AcDbLine
 10
1611.003667237919
 20
-1464.824728877637
 30
0.0
 11
24.00366723791933
 21
-1464.824728877637
 31
0.0
  0
LINE
  5
77
330
1F
100
AcDbEntity
  8
0-0
  6
JWW_DASHED1
 62
   120
370
     5
100
AcDbLine
 10
-1562.99633276208
 20
-1464.824728877637
 30
0.0
 11
-1565.996332762081
 21
-1464.824728877637
 31
0.0
  0
LINE
  5
78
330
1F
100
AcDbEntity
  8
0-0
  6
JWW_DASHED1
 62
   120
370
     5
100
AcDbLine
 10
1611.003667237919
 20
-1464.824728877637
 30
0.0
 11
1614.003667237919
 21
-1464.824728877637
 31
0.0
  0
LINE
  5
79
330
1F
100
AcDbEntity
  8
0-0
  6
Continuous
 62
    92
370
    13
100
AcDbLine
 10
-1592.99633276208
 20
762.1752711223638
 30
0.0
 11
1641.003667237919
 21
762.1752711223638
 31
0.0
  0
LINE
  5
7A
330
1F
100
AcDbEntity
  8
0-0
  6
Continuous
 62
    92
370
    13
100
AcDbLine
 10
-1562.99633276208
 20
726.1752711223625
 30
0.0
 11
1611.003667237919
 21
726.1752711223625
 31
0.0
  0
LINE
  5
7B
330
1F
100
AcDbEntity
  8
0-0
  6
Continuous
 62
    92
370
    13
100
AcDbLine
 10
1611.003667237919
 20
-1484.824728877636
 30
0.0
 11
1611.003667237919
 21
762.1752711223638
 31
0.0
  0
LINE
  5
7C
330
1F
100
AcDbEntity
  8
0-0
  6
Continuous
 62
    92
370
    13
100
AcDbLine
 10
-1562.99633276208
 20
-1484.824728877636
 30
0.0
 11
-1562.99633276208
 21
762.1752711223638
 31
0.0
  0
LINE
  5
7D
330
1F
100
AcDbEntity
  8
0-0
  6
Continuous
 62
    92
370
    13
100
AcDbLine
 10
1641.003667237919
 20
-1484.824728877636
 30
0.0
 11
1641.003667237919
 21
762.1752711223638
 31
0.0
  0
LINE
  5
7E
330
1F
100
AcDbEntity
  8
0-0
  6
Continuous
 62
    92
370
    13
100
AcDbLine
 10
-1592.99633276208
 20
-1484.824728877636
 30
0.0
 11
-1592.99633276208
 21
762.1752711223638
 31
0.0
  0
LINE
  5
7F
330
1F
100
AcDbEntity
  8
0-0
  6
Continuous
 62
    92
370
    13
100
AcDbLine
 10
-785.9963327620807
 20
-1464.824728877637
 30
0.0
 11
-785.9963327620807
 21
718.1752711223629
 31
0.0
  0
LINE
  5
80
330
1F
100
AcDbEntity
  8
0-0
  6
JWW_DASHED1
 62
   120
370
     5
100
AcDbLine
 10
-755.9963327620807
 20
-1464.824728877637
 30
0.0
 11
-755.9963327620807
 21
718.1752711223629
 31
0.0
  0
LINE
  5
81
330
1F
100
AcDbEntity
  8
0-0
  6
Continuous
 62
    92
370
    13
100
AcDbLine
 10
-1562.99633276208
 20
718.1752711223629
 30
0.0
 11
24.00366723791933
 21
718.1752711223629
 31
0.0
  0
LINE
  5
82
330
1F
100
AcDbEntity
  8
0-0
  6
Continuous
 62
    92
370
    13
100
AcDbLine
 10
24.00366723791933
 20
-1464.824728877637
 30
0.0
 11
24.00366723791933
 21
718.1752711223629
 31
0.0
  0
LINE
  5
83
330
1F
100
AcDbEntity
  8
0-0
  6
Continuous
 62
    92
370
    13
100
AcDbLine
 10
834.0036672379193
 20
-1464.824728877637
 30
0.0
 11
834.0036672379193
 21
718.1752711223629
 31
0.0
  0
LINE
  5
84
330
1F
100
AcDbEntity
  8
0-0
  6
JWW_DASHED1
 62
   120
370
     5
100
AcDbLine
 10
804.0036672379193
 20
-1464.824728877637
 30
0.0
 11
804.0036672379193
 21
718.1752711223629
 31
0.0
  0
LINE
  5
85
330
1F
100
AcDbEntity
  8
0-0
  6
Continuous
 62
    92
370
    13
100
AcDbLine
 10
1611.003667237919
 20
718.1752711223629
 30
0.0
 11
24.00366723791933
 21
718.1752711223629
 31
0.0
  0
LINE
  5
86
330
1F
100
AcDbEntity
  8
0-0
  6
JWW_DASHED1
 62
   120
370
     5
100
AcDbLine
 10
-1565.996332762081
 20
-1464.824728877637
 30
0.0
 11
-1565.996332762081
 21
718.1752711223629
 31
0.0
  0
LINE
  5
87
330
1F
100
AcDbEntity
  8
0-0
  6
JWW_DASHED1
 62
   120
370
     5
100
AcDbLine
 10
-1565.996332762081
 20
718.1752711223629
 30
0.0
 11
-1562.99633276208
 21
718.1752711223629
 31
0.0
  0
LINE
  5
88
330
1F
100
AcDbEntity
  8
0-0
  6
JWW_DASHED1
 62
   120
370
     5
100
AcDbLine
 10
1614.003667237919
 20
-1464.824728877637
 30
0.0
 11
1614.003667237919
 21
718.1752711223629
 31
0.0
  0
LINE
  5
89
330
1F
100
AcDbEntity
  8
0-0
  6
JWW_DASHED1
 62
   120
370
     5
100
AcDbLine
 10
1614.003667237919
 20
718.1752711223629
 30
0.0
 11
1611.003667237919
 21
718.1752711223629
 31
0.0
  0
LINE
  5
8A
330
1F
100
AcDbEntity
  8
0-0
  6
Continuous
 62
    92
370
    13
100
AcDbLine
 10
-1455.996332762082
 20
-1314.824728877637
 30
0.0
 11
-865.9963327620795
 21
-1314.824728877637
 31
0.0
  0
LINE
  5
8B
330
1F
100
AcDbEntity
  8
0-0
  6
Continuous
 62
    92
370
    13
100
AcDbLine
 10
-675.9963327620818
 20
-1314.824728877637
 30
0.0
 11
-85.99633276207953
 21
-1314.824728877637
 31
0.0
  0
LINE
  5
8C
330
1F
100
AcDbEntity
  8
0-0
  6
Continuous
 62
    92
370
    13
100
AcDbLine
 10
134.0036672379182
 20
-1314.824728877637
 30
0.0
 11
724.0036672379205
 21
-1314.824728877637
 31
0.0
  0
LINE
  5
8D
330
1F
100
AcDbEntity
  8
0-0
  6
Continuous
 62
    92
370
    13
100
AcDbLine
 10
914.0036672379182
 20
-1314.824728877637
 30
0.0
 11
1504.003667237921
 21
-1314.824728877637
 31
0.0
  0
LINE
  5
8E
330
1F
100
AcDbEntity
  8
0-0
  6
Continuous
 62
    92
370
    13
100
AcDbLine
 10
-1455.996332762082
 20
583.1752711223625
 30
0.0
 11
-865.9963327620795
 21
583.1752711223625
 31
0.0
  0
LINE
  5
8F
330
1F
100
AcDbEntity
  8
0-0
  6
Continuous
 62
    92
370
    13
100
AcDbLine
 10
-675.9963327620818
 20
583.1752711223625
 30
0.0
 11
-85.99633276207953
 21
583.1752711223625
 31
0.0
  0
LINE
  5
90
330
1F
100
AcDbEntity
  8
0-0
  6
Continuous
 62
    92
370
    13
100
AcDbLine
 10
134.0036672379182
 20
583.1752711223625
 30
0.0
 11
724.0036672379205
 21
583.1752711223625
 31
0.0
  0
LINE
  5
91
330
1F
100
AcDbEntity
  8
0-0
  6
Continuous
 62
    92
370
    13
100
AcDbLine
 10
914.0036672379182
 20
583.1752711223625
 30
0.0
 11
1504.003667237921
 21
583.1752711223625
 31
0.0
  0
LINE
  5
92
330
1F
100
AcDbEntity
  8
0-0
  6
Continuous
 62
    92
370
    13
100
AcDbLine
 10
-1455.996332762082
 20
-391.8247288776375
 30
0.0
 11
-865.9963327620795
 21
-391.8247288776375
 31
0.0
  0
LINE
  5
93
330
1F
100
AcDbEntity
  8
0-0
  6
JWW_DASHED1
 62
   120
370
     5
100
AcDbLine
 10
-870.4521111436537
 20
-391.8247288776213
 30
0.0
 11
-865.9963327620966
 21
-387.3689504960633
 31
0.0
  0
LINE
  5
94
330
1F
100
AcDbEntity
  8
0-0
  6
JWW_DASHED1
 62
   120
370
     5
100
AcDbLine
 10
-877.5231789555306
 20
-391.8247288776324
 30
0.0
 11
-865.9963327620864
 21
-380.2978826841864
 31
0.0
  0
LINE
  5
95
330
1F
100
AcDbEntity
  8
0-0
  6
JWW_DASHED1
 62
   120
370
     5
100
AcDbLine
 10
-884.5942467673922
 20
-391.8247288776264
 30
0.0
 11
-865.9963327620915
 21
-373.2268148723257
 31
0.0
  0
LINE
  5
96
330
1F
100
AcDbEntity
  8
0-0
  6
JWW_DASHED1
 62
   120
370
     5
100
AcDbLine
 10
-891.6653145792537
 20
-391.8247288776205
 30
0.0
 11
-865.9963327620966
 21
-366.155747060465
 31
0.0
  0
LINE
  5
97
330
1F
100
AcDbEntity
  8
0-0
  6
JWW_DASHED1
 62
   120
370
     5
100
AcDbLine
 10
-898.7363823911306
 20
-391.8247288776307
 30
0.0
 11
-865.9963327620864
 21
-359.0846792485881
 31
0.0
  0
LINE
  5
98
330
1F
100
AcDbEntity
  8
0-0
  6
JWW_DASHED1
 62
   120
370
     5
100
AcDbLine
 10
-905.8074502029905
 20
-391.8247288776247
 30
0.0
 11
-865.9963327620932
 21
-352.0136114367266
 31
0.0
  0
LINE
  5
99
330
1F
100
AcDbEntity
  8
0-0
  6
JWW_DASHED1
 62
   120
370
     5
100
AcDbLine
 10
-912.8785180148674
 20
-391.8247288776341
 30
0.0
 11
-865.996332762083
 21
-344.9425436248514
 31
0.0
  0
LINE
  5
9A
330
1F
100
AcDbEntity
  8
0-0
  6
JWW_DASHED1
 62
   120
370
     5
100
AcDbLine
 10
-919.9495858267289
 20
-391.824728877629
 30
0.0
 11
-865.9963327620898
 21
-337.8714758129906
 31
0.0
  0
LINE
  5
9B
330
1F
100
AcDbEntity
  8
0-0
  6
JWW_DASHED1
 62
   120
370
     5
100
AcDbLine
 10
-927.0206536385888
 20
-391.824728877623
 30
0.0
 11
-865.9963327620932
 21
-330.8004080011283
 31
0.0
  0
LINE
  5
9C
330
1F
100
AcDbEntity
  8
0-0
  6
JWW_DASHED1
 62
   120
370
     5
100
AcDbLine
 10
-934.091721450464
 20
-391.8247288776315
 30
0.0
 11
-865.9963327620864
 21
-323.7293401892531
 31
0.0
  0
LINE
  5
9D
330
1F
100
AcDbEntity
  8
0-0
  6
JWW_DASHED1
 62
   120
370
     5
100
AcDbLine
 10
-941.1627892623272
 20
-391.8247288776281
 30
0.0
 11
-865.9963327620915
 21
-316.6582723773923
 31
0.0
  0
LINE
  5
9E
330
1F
100
AcDbEntity
  8
0-0
  6
JWW_DASHED1
 62
   120
370
     5
100
AcDbLine
 10
-948.2338570742041
 20
-391.8247288776375
 30
0.0
 11
-865.9963327620812
 21
-309.5872045655154
 31
0.0
  0
LINE
  5
9F
330
1F
100
AcDbEntity
  8
0-0
  6
JWW_DASHED1
 62
   120
370
     5
100
AcDbLine
 10
-955.3049248860623
 20
-391.8247288776298
 30
0.0
 11
-865.9963327620864
 21
-302.5161367536548
 31
0.0
  0
LINE
  5
A0
330
1F
100
AcDbEntity
  8
0-0
  6
JWW_DASHED1
 62
   120
370
     5
100
AcDbLine
 10
-962.3759926979255
 20
-391.8247288776264
 30
0.0
 11
-865.9963327620932
 21
-295.445068941794
 31
0.0
  0
LINE
  5
A1
330
1F
100
AcDbEntity
  8
0-0
  6
JWW_DASHED1
 62
   120
370
     5
100
AcDbLine
 10
-969.4470605098024
 20
-391.8247288776366
 30
0.0
 11
-865.996332762083
 21
-288.3740011299171
 31
0.0
  0
LINE
  5
A2
330
1F
100
AcDbEntity
  8
0-0
  6
JWW_DASHED1
 62
   120
370
     5
100
AcDbLine
 10
-976.5181283216606
 20
-391.8247288776281
 30
0.0
 11
-865.9963327620864
 21
-281.3029333180548
 31
0.0
  0
LINE
  5
A3
330
1F
100
AcDbEntity
  8
0-0
  6
JWW_DASHED1
 62
   120
370
     5
100
AcDbLine
 10
-983.5891961334795
 20
-391.8247288776341
 30
0.0
 11
-865.996332762083
 21
-274.2318655062393
 31
0.0
  0
LINE
  5
A4
330
1F
100
AcDbEntity
  8
0-0
  6
JWW_DASHED1
 62
   120
370
     5
100
AcDbLine
 10
-990.6602639453428
 20
-391.8247288776315
 30
0.0
 11
-865.9963327620898
 21
-267.1607976943785
 31
0.0
  0
LINE
  5
A5
330
1F
100
AcDbEntity
  8
0-0
  6
JWW_DASHED1
 62
   120
370
     5
100
AcDbLine
 10
-997.7313317572026
 20
-391.8247288776256
 30
0.0
 11
-865.9963327620932
 21
-260.0897298825153
 31
0.0
  0
LINE
  5
A6
330
1F
100
AcDbEntity
  8
0-0
  6
JWW_DASHED1
 62
   120
370
     5
100
AcDbLine
 10
-1004.802399569076
 20
-391.8247288776315
 30
0.0
 11
-865.9963327620864
 21
-253.0186620706409
 31
0.0
  0
LINE
  5
A7
330
1F
100
AcDbEntity
  8
0-0
  6
JWW_DASHED1
 62
   120
370
     5
100
AcDbLine
 10
-1011.873467380941
 20
-391.8247288776298
 30
0.0
 11
-865.9963327620915
 21
-245.9475942587802
 31
0.0
  0
LINE
  5
A8
330
1F
100
AcDbEntity
  8
0-0
  6
JWW_DASHED1
 62
   120
370
     5
100
AcDbLine
 10
-1018.944535192818
 20
-391.82472887764
 30
0.0
 11
-865.9963327620812
 21
-238.8765264469033
 31
0.0
  0
LINE
  5
A9
330
1F
100
AcDbEntity
  8
0-0
  6
JWW_DASHED1
 62
   120
370
     5
100
AcDbLine
 10
-1026.015603004674
 20
-391.8247288776298
 30
0.0
 11
-865.9963327620864
 21
-231.8054586350426
 31
0.0
  0
LINE
  5
AA
330
1F
100
AcDbEntity
  8
0-0
  6
JWW_DASHED1
 62
   120
370
     5
100
AcDbLine
 10
-1033.086670816539
 20
-391.8247288776281
 30
0.0
 11
-865.9963327620932
 21
-224.7343908231819
 31
0.0
  0
LINE
  5
AB
330
1F
100
AcDbEntity
  8
0-0
  6
JWW_DASHED1
 62
   120
370
     5
100
AcDbLine
 10
-1040.157738628416
 20
-391.8247288776383
 30
0.0
 11
-865.996332762083
 21
-217.663323011305
 31
0.0
  0
LINE
  5
AC
330
1F
100
AcDbEntity
  8
0-0
  6
JWW_DASHED1
 62
   120
370
     5
100
AcDbLine
 10
-1047.228806440273
 20
-391.8247288776281
 30
0.0
 11
-865.9963327620864
 21
-210.5922551994418
 31
0.0
  0
LINE
  5
AD
330
1F
100
AcDbEntity
  8
0-0
  6
JWW_DASHED1
 62
   120
370
     5
100
AcDbLine
 10
-1054.299874252139
 20
-391.8247288776273
 30
0.0
 11
-865.9963327620949
 21
-203.5211873875836
 31
0.0
  0
LINE
  5
AE
330
1F
100
AcDbEntity
  8
0-0
  6
JWW_DASHED1
 62
   120
370
     5
100
AcDbLine
 10
-1061.370942064015
 20
-391.8247288776366
 30
0.0
 11
-865.9963327620846
 21
-196.4501195757067
 31
0.0
  0
LINE
  5
AF
330
1F
100
AcDbEntity
  8
0-0
  6
JWW_DASHED1
 62
   120
370
     5
100
AcDbLine
 10
-1068.442009875876
 20
-391.8247288776315
 30
0.0
 11
-865.9963327620881
 21
-189.3790517638435
 31
0.0
  0
LINE
  5
B0
330
1F
100
AcDbEntity
  8
0-0
  6
JWW_DASHED1
 62
   120
370
     5
100
AcDbLine
 10
-1075.513077687738
 20
-391.8247288776264
 30
0.0
 11
-865.9963327620966
 21
-182.3079839519853
 31
0.0
  0
LINE
  5
B1
330
1F
100
AcDbEntity
  8
0-0
  6
JWW_DASHED1
 62
   120
370
     5
100
AcDbLine
 10
-1082.584145499613
 20
-391.8247288776358
 30
0.0
 11
-865.9963327620864
 21
-175.2369161401093
 31
0.0
  0
LINE
  5
B2
330
1F
100
AcDbEntity
  8
0-0
  6
JWW_DASHED1
 62
   120
370
     5
100
AcDbLine
 10
-1089.655213311474
 20
-391.8247288776298
 30
0.0
 11
-865.9963327620898
 21
-168.1658483282443
 31
0.0
  0
LINE
  5
B3
330
1F
100
AcDbEntity
  8
0-0
  6
JWW_DASHED1
 62
   120
370
     5
100
AcDbLine
 10
-1096.726281123336
 20
-391.8247288776247
 30
0.0
 11
-865.9963327621
 21
-161.0947805163879
 31
0.0
  0
LINE
  5
B4
330
1F
100
AcDbEntity
  8
0-0
  6
JWW_DASHED1
 62
   120
370
     5
100
AcDbLine
 10
-1103.797348935213
 20
-391.8247288776341
 30
0.0
 11
-865.9963327620898
 21
-154.023712704511
 31
0.0
  0
LINE
  5
B5
330
1F
100
AcDbEntity
  8
0-0
  6
JWW_DASHED1
 62
   120
370
     5
100
AcDbLine
 10
-1110.868416747073
 20
-391.824728877629
 30
0.0
 11
-865.9963327620898
 21
-146.952644892646
 31
0.0
  0
LINE
  5
B6
330
1F
100
AcDbEntity
  8
0-0
  6
JWW_DASHED1
 62
   120
370
     5
100
AcDbLine
 10
-1117.939484558943
 20
-391.8247288776324
 30
0.0
 11
-865.9963327620846
 21
-139.8815770807734
 31
0.0
  0
LINE
  5
B7
330
1F
100
AcDbEntity
  8
0-0
  6
JWW_DASHED1
 62
   120
370
     5
100
AcDbLine
 10
-1125.010552370811
 20
-391.8247288776332
 30
0.0
 11
-865.9963327620898
 21
-132.8105092689127
 31
0.0
  0
LINE
  5
B8
330
1F
100
AcDbEntity
  8
0-0
  6
JWW_DASHED1
 62
   120
370
     5
100
AcDbLine
 10
-1139.152687994543
 20
-391.8247288776307
 30
0.0
 11
-865.9963327620864
 21
-118.6683736451751
 31
0.0
  0
LINE
  5
B9
330
1F
100
AcDbEntity
  8
0-0
  6
JWW_DASHED1
 62
   120
370
     5
100
AcDbLine
 10
-1146.223755806409
 20
-391.8247288776324
 30
0.0
 11
-865.9963327620932
 21
-111.5973058333144
 31
0.0
  0
LINE
  5
BA
330
1F
100
AcDbEntity
  8
0-0
  6
JWW_DASHED1
 62
   120
370
     5
100
AcDbLine
 10
-1153.294823618287
 20
-391.8247288776417
 30
0.0
 11
-865.996332762083
 21
-104.5262380214375
 31
0.0
  0
LINE
  5
BB
330
1F
100
AcDbEntity
  8
0-0
  6
JWW_DASHED1
 62
   120
370
     5
100
AcDbLine
 10
-1160.36589143014
 20
-391.824728877629
 30
0.0
 11
-865.9963327620881
 21
-97.45517020957763
 31
0.0
  0
LINE
  5
BC
330
1F
100
AcDbEntity
  8
0-0
  6
JWW_DASHED1
 62
   120
370
     5
100
AcDbLine
 10
-1167.436959242009
 20
-391.8247288776307
 30
0.0
 11
-865.9963327620949
 21
-90.38410239771693
 31
0.0
  0
LINE
  5
BD
330
1F
100
AcDbEntity
  8
0-0
  6
JWW_DASHED1
 62
   120
370
     5
100
AcDbLine
 10
-1174.508027053887
 20
-391.824728877641
 30
0.0
 11
-865.9963327620846
 21
-83.31303458584003
 31
0.0
  0
LINE
  5
BE
330
1F
100
AcDbEntity
  8
0-0
  6
JWW_DASHED1
 62
   120
370
     5
100
AcDbLine
 10
-1181.579094865738
 20
-391.8247288776264
 30
0.0
 11
-865.9963327620864
 21
-76.24196677397421
 31
0.0
  0
LINE
  5
BF
330
1F
100
AcDbEntity
  8
0-0
  6
JWW_DASHED1
 62
   120
370
     5
100
AcDbLine
 10
-1188.650162677608
 20
-391.8247288776298
 30
0.0
 11
-865.9963327620966
 21
-69.17089896211863
 31
0.0
  0
LINE
  5
C0
330
1F
100
AcDbEntity
  8
0-0
  6
JWW_DASHED1
 62
   120
370
     5
100
AcDbLine
 10
-1195.721230489485
 20
-391.82472887764
 30
0.0
 11
-865.9963327620864
 21
-62.09983115024173
 31
0.0
  0
LINE
  5
C1
330
1F
100
AcDbEntity
  8
0-0
  6
JWW_DASHED1
 62
   120
370
     5
100
AcDbLine
 10
-1202.792298301346
 20
-391.8247288776341
 30
0.0
 11
-865.9963327620864
 21
-55.02876333837591
 31
0.0
  0
LINE
  5
C2
330
1F
100
AcDbEntity
  8
0-0
  6
JWW_DASHED1
 62
   120
370
     5
100
AcDbLine
 10
-1209.863366113206
 20
-391.8247288776281
 30
0.0
 11
-865.9963327620983
 21
-47.95769552652033
 31
0.0
  0
LINE
  5
C3
330
1F
100
AcDbEntity
  8
0-0
  6
JWW_DASHED1
 62
   120
370
     5
100
AcDbLine
 10
-1216.934433925083
 20
-391.8247288776383
 30
0.0
 11
-865.9963327620881
 21
-40.88662771464342
 31
0.0
  0
LINE
  5
C4
330
1F
100
AcDbEntity
  8
0-0
  6
JWW_DASHED1
 62
   120
370
     5
100
AcDbLine
 10
-1224.005501736914
 20
-391.8247288776298
 30
0.0
 11
-865.9963327620898
 21
-33.8155599028066
 31
0.0
  0
LINE
  5
C5
330
1F
100
AcDbEntity
  8
0-0
  6
JWW_DASHED1
 62
   120
370
     5
100
AcDbLine
 10
-1231.076569548752
 20
-391.824728877629
 30
0.0
 11
-865.9963327620881
 21
-26.74449209096551
 31
0.0
  0
LINE
  5
C6
330
1F
100
AcDbEntity
  8
0-0
  6
JWW_DASHED1
 62
   120
370
     5
100
AcDbLine
 10
-1238.147637360622
 20
-391.8247288776324
 30
0.0
 11
-865.9963327620949
 21
-19.67342427910481
 31
0.0
  0
LINE
  5
C7
330
1F
100
AcDbEntity
  8
0-0
  6
JWW_DASHED1
 62
   120
370
     5
100
AcDbLine
 10
-1245.218705172499
 20
-391.8247288776427
 30
0.0
 11
-865.9963327620846
 21
-12.60235646722791
 31
0.0
  0
LINE
  5
C8
330
1F
100
AcDbEntity
  8
0-0
  6
JWW_DASHED1
 62
   120
370
     5
100
AcDbLine
 10
-1252.28977298435
 20
-391.8247288776264
 30
0.0
 11
-865.996332762083
 21
-5.531288655360385
 31
0.0
  0
LINE
  5
C9
330
1F
100
AcDbEntity
  8
0-0
  6
JWW_DASHED1
 62
   120
370
     5
100
AcDbLine
 10
-1259.360840796222
 20
-391.8247288776307
 30
0.0
 11
-865.9963327620966
 21
1.539779156493495
 31
0.0
  0
LINE
  5
CA
330
1F
100
AcDbEntity
  8
0-0
  6
JWW_DASHED1
 62
   120
370
     5
100
AcDbLine
 10
-1266.431908608099
 20
-391.824728877641
 30
0.0
 11
-865.9963327620864
 21
8.610846968370396
 31
0.0
  0
LINE
  5
CB
330
1F
100
AcDbEntity
  8
0-0
  6
JWW_DASHED1
 62
   120
370
     5
100
AcDbLine
 10
-1273.502976419958
 20
-391.8247288776358
 30
0.0
 11
-865.9963327620864
 21
15.68191478023792
 31
0.0
  0
LINE
  5
CC
330
1F
100
AcDbEntity
  8
0-0
  6
JWW_DASHED1
 62
   120
370
     5
100
AcDbLine
 10
-1280.57404423182
 20
-391.8247288776298
 30
0.0
 11
-865.9963327620983
 21
22.7529825920918
 31
0.0
  0
LINE
  5
CD
330
1F
100
AcDbEntity
  8
0-0
  6
JWW_DASHED1
 62
   120
370
     5
100
AcDbLine
 10
-1287.645112043697
 20
-391.82472887764
 30
0.0
 11
-865.9963327620881
 21
29.8240504039687
 31
0.0
  0
LINE
  5
CE
330
1F
100
AcDbEntity
  8
0-0
  6
JWW_DASHED1
 62
   120
370
     5
100
AcDbLine
 10
-1294.716179855558
 20
-391.8247288776341
 30
0.0
 11
-865.9963327620864
 21
36.89511821583622
 31
0.0
  0
LINE
  5
CF
330
1F
100
AcDbEntity
  8
0-0
  6
JWW_DASHED1
 62
   120
370
     5
100
AcDbLine
 10
-1301.787247667418
 20
-391.824728877629
 30
0.0
 11
-865.9963327621
 21
43.9661860276901
 31
0.0
  0
LINE
  5
D0
330
1F
100
AcDbEntity
  8
0-0
  6
JWW_DASHED1
 62
   120
370
     5
100
AcDbLine
 10
-1308.858315479295
 20
-391.8247288776392
 30
0.0
 11
-865.9963327620898
 21
51.03725383956615
 31
0.0
  0
LINE
  5
D1
330
1F
100
AcDbEntity
  8
0-0
  6
JWW_DASHED1
 62
   120
370
     5
100
AcDbLine
 10
-1315.929383291157
 20
-391.8247288776332
 30
0.0
 11
-865.9963327620898
 21
58.10832165143452
 31
0.0
  0
LINE
  5
D2
330
1F
100
AcDbEntity
  8
0-0
  6
JWW_DASHED1
 62
   120
370
     5
100
AcDbLine
 10
-1323.000451103022
 20
-391.8247288776307
 30
0.0
 11
-865.9963327620864
 21
65.17938946330375
 31
0.0
  0
LINE
  5
D3
330
1F
100
AcDbEntity
  8
0-0
  6
JWW_DASHED1
 62
   120
370
     5
100
AcDbLine
 10
-1330.071518914895
 20
-391.8247288776375
 30
0.0
 11
-865.9963327620932
 21
72.25045727516445
 31
0.0
  0
LINE
  5
D4
330
1F
100
AcDbEntity
  8
0-0
  6
JWW_DASHED1
 62
   120
370
     5
100
AcDbLine
 10
-1337.142586726772
 20
-391.8247288776478
 30
0.0
 11
-865.996332762083
 21
79.32152508704135
 31
0.0
  0
LINE
  5
D5
330
1F
100
AcDbEntity
  8
0-0
  6
JWW_DASHED1
 62
   120
370
     5
100
AcDbLine
 10
-1344.213654538618
 20
-391.824728877629
 30
0.0
 11
-865.9963327620881
 21
86.39259289890205
 31
0.0
  0
LINE
  5
D6
330
1F
100
AcDbEntity
  8
0-0
  6
JWW_DASHED1
 62
   120
370
     5
100
AcDbLine
 10
-1351.284722350493
 20
-391.8247288776366
 30
0.0
 11
-865.9963327620932
 21
93.46366071076275
 31
0.0
  0
LINE
  5
D7
330
1F
100
AcDbEntity
  8
0-0
  6
JWW_DASHED1
 62
   120
370
     5
100
AcDbLine
 10
-1358.355790162369
 20
-391.8247288776461
 30
0.0
 11
-865.996332762083
 21
100.5347285226397
 31
0.0
  0
LINE
  5
D8
330
1F
100
AcDbEntity
  8
0-0
  6
JWW_DASHED1
 62
   120
370
     5
100
AcDbLine
 10
-1365.426857974218
 20
-391.8247288776273
 30
0.0
 11
-865.9963327620898
 21
107.6057963345004
 31
0.0
  0
LINE
  5
D9
330
1F
100
AcDbEntity
  8
0-0
  6
JWW_DASHED1
 62
   120
370
     5
100
AcDbLine
 10
-1372.497925786092
 20
-391.8247288776349
 30
0.0
 11
-865.9963327620966
 21
114.6768641463611
 31
0.0
  0
LINE
  5
DA
330
1F
100
AcDbEntity
  8
0-0
  6
JWW_DASHED1
 62
   120
370
     5
100
AcDbLine
 10
-1379.568993597969
 20
-391.8247288776444
 30
0.0
 11
-865.9963327620864
 21
121.747931958238
 31
0.0
  0
LINE
  5
DB
330
1F
100
AcDbEntity
  8
0-0
  6
JWW_DASHED1
 62
   120
370
     5
100
AcDbLine
 10
-1386.640061409815
 20
-391.8247288776256
 30
0.0
 11
-865.996332762083
 21
128.8189997701072
 31
0.0
  0
LINE
  5
DC
330
1F
100
AcDbEntity
  8
0-0
  6
JWW_DASHED1
 62
   120
370
     5
100
AcDbLine
 10
-1393.711129221692
 20
-391.8247288776341
 30
0.0
 11
-865.9963327620966
 21
135.8900675819594
 31
0.0
  0
LINE
  5
DD
330
1F
100
AcDbEntity
  8
0-0
  6
JWW_DASHED1
 62
   120
370
     5
100
AcDbLine
 10
-1400.782197033567
 20
-391.8247288776435
 30
0.0
 11
-865.9963327620881
 21
142.9611353938354
 31
0.0
  0
LINE
  5
DE
330
1F
100
AcDbEntity
  8
0-0
  6
JWW_DASHED1
 62
   120
370
     5
100
AcDbLine
 10
-1407.853264845428
 20
-391.8247288776375
 30
0.0
 11
-865.9963327620846
 21
150.0322032057055
 31
0.0
  0
LINE
  5
DF
330
1F
100
AcDbEntity
  8
0-0
  6
JWW_DASHED1
 62
   120
370
     5
100
AcDbLine
 10
-1414.924332657288
 20
-391.8247288776324
 30
0.0
 11
-865.9963327621
 21
157.1032710175577
 31
0.0
  0
LINE
  5
E0
330
1F
100
AcDbEntity
  8
0-0
  6
JWW_DASHED1
 62
   120
370
     5
100
AcDbLine
 10
-1421.995400469165
 20
-391.8247288776427
 30
0.0
 11
-865.9963327620898
 21
164.1743388294337
 31
0.0
  0
LINE
  5
E1
330
1F
100
AcDbEntity
  8
0-0
  6
JWW_DASHED1
 62
   120
370
     5
100
AcDbLine
 10
-1429.066468281027
 20
-391.8247288776366
 30
0.0
 11
-865.9963327620864
 21
171.2454066413038
 31
0.0
  0
LINE
  5
E2
330
1F
100
AcDbEntity
  8
0-0
  6
JWW_DASHED1
 62
   120
370
     5
100
AcDbLine
 10
-1436.137536092888
 20
-391.8247288776315
 30
0.0
 11
-865.9963327620864
 21
178.3164744531713
 31
0.0
  0
LINE
  5
E3
330
1F
100
AcDbEntity
  8
0-0
  6
JWW_DASHED1
 62
   120
370
     5
100
AcDbLine
 10
-1443.208603904765
 20
-391.824728877641
 30
0.0
 11
-865.9963327620915
 21
185.387542265032
 31
0.0
  0
LINE
  5
E4
330
1F
100
AcDbEntity
  8
0-0
  6
JWW_DASHED1
 62
   120
370
     5
100
AcDbLine
 10
-1450.279671716625
 20
-391.8247288776358
 30
0.0
 11
-865.9963327620881
 21
192.4586100769021
 31
0.0
  0
LINE
  5
E5
330
1F
100
AcDbEntity
  8
0-0
  6
JWW_DASHED1
 62
   120
370
     5
100
AcDbLine
 10
-1455.996332762089
 20
-390.4703221112318
 30
0.0
 11
-865.9963327620864
 21
199.5296778887696
 31
0.0
  0
LINE
  5
E6
330
1F
100
AcDbEntity
  8
0-0
  6
JWW_DASHED1
 62
   120
370
     5
100
AcDbLine
 10
-1455.996332762079
 20
-383.3992542993558
 30
0.0
 11
-865.9963327620932
 21
206.6007457006303
 31
0.0
  0
LINE
  5
E7
330
1F
100
AcDbEntity
  8
0-0
  6
JWW_DASHED1
 62
   120
370
     5
100
AcDbLine
 10
-1455.996332762073
 20
-376.3281864875377
 30
0.0
 11
-865.9963327620881
 21
213.6718135124475
 31
0.0
  0
LINE
  5
E8
330
1F
100
AcDbEntity
  8
0-0
  6
JWW_DASHED1
 62
   120
370
     5
100
AcDbLine
 10
-1455.996332762079
 20
-369.257118675677
 30
0.0
 11
-865.996332762083
 21
220.7428813243185
 31
0.0
  0
LINE
  5
E9
330
1F
100
AcDbEntity
  8
0-0
  6
JWW_DASHED1
 62
   120
370
     5
100
AcDbLine
 10
-1455.996332762085
 20
-362.1860508638163
 30
0.0
 11
-865.9963327621
 21
227.8139491361689
 31
0.0
  0
LINE
  5
EA
330
1F
100
AcDbEntity
  8
0-0
  6
JWW_DASHED1
 62
   120
370
     5
100
AcDbLine
 10
-1455.996332762075
 20
-355.1149830519394
 30
0.0
 11
-865.9963327620898
 21
234.8850169480458
 31
0.0
  0
LINE
  5
EB
330
1F
100
AcDbEntity
  8
0-0
  6
JWW_DASHED1
 62
   120
370
     5
100
AcDbLine
 10
-1455.996332762082
 20
-348.0439152400787
 30
0.0
 11
-865.9963327620846
 21
241.9560847599168
 31
0.0
  0
LINE
  5
EC
330
1F
100
AcDbEntity
  8
0-0
  6
JWW_DASHED1
 62
   120
370
     5
100
AcDbLine
 10
-1455.996332762087
 20
-340.972847428218
 30
0.0
 11
-865.9963327620864
 21
249.0271525717834
 31
0.0
  0
LINE
  5
ED
330
1F
100
AcDbEntity
  8
0-0
  6
JWW_DASHED1
 62
   120
370
     5
100
AcDbLine
 10
-1455.996332762077
 20
-333.9017796163411
 30
0.0
 11
-865.9963327620915
 21
256.0982203836442
 31
0.0
  0
LINE
  5
EE
330
1F
100
AcDbEntity
  8
0-0
  6
JWW_DASHED1
 62
   120
370
     5
100
AcDbLine
 10
-1455.996332762082
 20
-326.8307118044795
 30
0.0
 11
-865.9963327620864
 21
263.169288195515
 31
0.0
  0
LINE
  5
EF
330
1F
100
AcDbEntity
  8
0-0
  6
JWW_DASHED1
 62
   120
370
     5
100
AcDbLine
 10
-1455.996332762089
 20
-319.7596439926197
 30
0.0
 11
-865.9963327620864
 21
270.2403560073817
 31
0.0
  0
LINE
  5
F0
330
1F
100
AcDbEntity
  8
0-0
  6
JWW_DASHED1
 62
   120
370
     5
100
AcDbLine
 10
-1455.996332762079
 20
-312.6885761807437
 30
0.0
 11
-865.9963327620932
 21
277.3114238192425
 31
0.0
  0
LINE
  5
F1
330
1F
100
AcDbEntity
  8
0-0
  6
JWW_DASHED1
 62
   120
370
     5
100
AcDbLine
 10
-1455.996332762068
 20
-305.6175083688668
 30
0.0
 11
-865.996332762083
 21
284.3824916311185
 31
0.0
  0
LINE
  5
F2
330
1F
100
AcDbEntity
  8
0-0
  6
JWW_DASHED1
 62
   120
370
     5
100
AcDbLine
 10
-1455.99633276209
 20
-298.5464405570214
 30
0.0
 11
-865.9963327620898
 21
291.4535594429792
 31
0.0
  0
LINE
  5
F3
330
1F
100
AcDbEntity
  8
0-0
  6
JWW_DASHED1
 62
   120
370
     5
100
AcDbLine
 10
-1455.996332762082
 20
-291.4753727451454
 30
0.0
 11
-865.9963327620949
 21
298.5246272548408
 31
0.0
  0
LINE
  5
F4
330
1F
100
AcDbEntity
  8
0-0
  6
JWW_DASHED1
 62
   120
370
     5
100
AcDbLine
 10
-1455.996332762072
 20
-284.4043049332685
 30
0.0
 11
-865.9963327620864
 21
305.5956950667168
 31
0.0
  0
LINE
  5
F5
330
1F
100
AcDbEntity
  8
0-0
  6
JWW_DASHED1
 62
   120
370
     5
100
AcDbLine
 10
-1455.99633276209
 20
-277.3332371214213
 30
0.0
 11
-865.9963327620795
 21
312.6667628785895
 31
0.0
  0
LINE
  5
F6
330
1F
100
AcDbEntity
  8
0-0
  6
JWW_DASHED1
 62
   120
370
     5
100
AcDbLine
 10
-1455.996332762084
 20
-270.2621693095471
 30
0.0
 11
-865.9963327620966
 21
319.7378306904382
 31
0.0
  0
LINE
  5
F7
330
1F
100
AcDbEntity
  8
0-0
  6
JWW_DASHED1
 62
   120
370
     5
100
AcDbLine
 10
-1455.996332762073
 20
-263.191101497671
 30
0.0
 11
-865.9963327620864
 21
326.8088985023151
 31
0.0
  0
LINE
  5
F8
330
1F
100
AcDbEntity
  8
0-0
  6
JWW_DASHED1
 62
   120
370
     5
100
AcDbLine
 10
-1455.996332762077
 20
-256.1200336858077
 30
0.0
 11
-865.9963327620812
 21
333.8799663141878
 31
0.0
  0
LINE
  5
F9
330
1F
100
AcDbEntity
  8
0-0
  6
JWW_DASHED1
 62
   120
370
     5
100
AcDbLine
 10
-1455.996332762085
 20
-249.0489658739487
 30
0.0
 11
-865.9963327621
 21
340.9510341260365
 31
0.0
  0
LINE
  5
FA
330
1F
100
AcDbEntity
  8
0-0
  6
JWW_DASHED1
 62
   120
370
     5
100
AcDbLine
 10
-1455.996332762075
 20
-241.9778980620727
 30
0.0
 11
-865.9963327620898
 21
348.0221019379134
 31
0.0
  0
LINE
  5
FB
330
1F
100
AcDbEntity
  8
0-0
  6
JWW_DASHED1
 62
   120
370
     5
100
AcDbLine
 10
-1455.996332762079
 20
-234.9068302502094
 30
0.0
 11
-865.996332762083
 21
355.0931697497861
 31
0.0
  0
LINE
  5
FC
330
1F
100
AcDbEntity
  8
0-0
  6
JWW_DASHED1
 62
   120
370
     5
100
AcDbLine
 10
-1455.996332762087
 20
-227.8357624383513
 30
0.0
 11
-865.9963327621
 21
362.1642375616348
 31
0.0
  0
LINE
  5
FD
330
1F
100
AcDbEntity
  8
0-0
  6
JWW_DASHED1
 62
   120
370
     5
100
AcDbLine
 10
-1455.996332762077
 20
-220.7646946264744
 30
0.0
 11
-865.9963327620898
 21
369.2353053735117
 31
0.0
  0
LINE
  5
FE
330
1F
100
AcDbEntity
  8
0-0
  6
JWW_DASHED1
 62
   120
370
     5
100
AcDbLine
 10
-1455.99633276208
 20
-213.6936268146103
 30
0.0
 11
-865.9963327620846
 21
376.3063731853844
 31
0.0
  0
LINE
  5
FF
330
1F
100
AcDbEntity
  8
0-0
  6
JWW_DASHED1
 62
   120
370
     5
100
AcDbLine
 10
-1455.996332762089
 20
-206.622559002753
 30
0.0
 11
-865.9963327620864
 21
383.3774409972484
 31
0.0
  0
LINE
  5
100
330
1F
100
AcDbEntity
  8
0-0
  6
JWW_DASHED1
 62
   120
370
     5
100
AcDbLine
 10
-1455.996332762079
 20
-199.5514911908761
 30
0.0
 11
-865.9963327620932
 21
390.4485088091092
 31
0.0
  0
LINE
  5
101
330
1F
100
AcDbEntity
  8
0-0
  6
JWW_DASHED1
 62
   120
370
     5
100
AcDbLine
 10
-1455.996332762082
 20
-192.480423379012
 30
0.0
 11
-865.9963327620864
 21
397.5195766209835
 31
0.0
  0
LINE
  5
102
330
1F
100
AcDbEntity
  8
0-0
  6
JWW_DASHED1
 62
   120
370
     5
100
AcDbLine
 10
-1455.99633276209
 20
-185.4093555671547
 30
0.0
 11
-865.9963327620898
 21
404.5906444328467
 31
0.0
  0
LINE
  5
103
330
1F
100
AcDbEntity
  8
0-0
  6
JWW_DASHED1
 62
   120
370
     5
100
AcDbLine
 10
-1455.99633276208
 20
-178.3382877552778
 30
0.0
 11
-865.9963327620949
 21
411.6617122447075
 31
0.0
  0
LINE
  5
104
330
1F
100
AcDbEntity
  8
0-0
  6
JWW_DASHED1
 62
   120
370
     5
100
AcDbLine
 10
-1455.996332762072
 20
-171.2672199434017
 30
0.0
 11
-865.9963327620846
 21
418.7327800565844
 31
0.0
  0
LINE
  5
105
330
1F
100
AcDbEntity
  8
0-0
  6
JWW_DASHED1
 62
   120
370
     5
100
AcDbLine
 10
-1455.996332762092
 20
-164.1961521315564
 30
0.0
 11
-865.9963327620898
 21
425.803847868445
 31
0.0
  0
LINE
  5
106
330
1F
100
AcDbEntity
  8
0-0
  6
JWW_DASHED1
 62
   120
370
     5
100
AcDbLine
 10
-1455.996332762082
 20
-157.1250843196803
 30
0.0
 11
-865.9963327620966
 21
432.8749156803058
 31
0.0
  0
LINE
  5
107
330
1F
100
AcDbEntity
  8
0-0
  6
JWW_DASHED1
 62
   120
370
     5
100
AcDbLine
 10
-1455.996332762072
 20
-150.0540165078034
 30
0.0
 11
-865.9963327620864
 21
439.9459834921827
 31
0.0
  0
LINE
  5
108
330
1F
100
AcDbEntity
  8
0-0
  6
JWW_DASHED1
 62
   120
370
     5
100
AcDbLine
 10
-1455.996332762077
 20
-142.9829486959675
 30
0.0
 11
-865.9963327620812
 21
447.0170513040272
 31
0.0
  0
LINE
  5
109
330
1F
100
AcDbEntity
  8
0-0
  6
JWW_DASHED1
 62
   120
370
     5
100
AcDbLine
 10
-1455.996332762089
 20
-135.9118808841409
 30
0.0
 11
-865.9963327620864
 21
454.0881191158605
 31
0.0
  0
LINE
  5
10A
330
1F
100
AcDbEntity
  8
0-0
  6
JWW_DASHED1
 62
   120
370
     5
100
AcDbLine
 10
-1455.996332762079
 20
-128.840813072264
 30
0.0
 11
-865.9963327620932
 21
461.1591869277213
 31
0.0
  0
LINE
  5
10B
330
1F
100
AcDbEntity
  8
0-0
  6
JWW_DASHED1
 62
   120
370
     5
100
AcDbLine
 10
-1455.99633276208
 20
-121.769745260399
 30
0.0
 11
-865.9963327620846
 21
468.2302547395965
 31
0.0
  0
LINE
  5
10C
330
1F
100
AcDbEntity
  8
0-0
  6
JWW_DASHED1
 62
   120
370
     5
100
AcDbLine
 10
-1455.99633276209
 20
-114.6986774485426
 30
0.0
 11
-865.9963327620898
 21
475.3013225514588
 31
0.0
  0
LINE
  5
10D
330
1F
100
AcDbEntity
  8
0-0
  6
JWW_DASHED1
 62
   120
370
     5
100
AcDbLine
 10
-1455.99633276208
 20
-107.6276096366657
 30
0.0
 11
-865.9963327620949
 21
482.3723903633196
 31
0.0
  0
LINE
  5
10E
330
1F
100
AcDbEntity
  8
0-0
  6
JWW_DASHED1
 62
   120
370
     5
100
AcDbLine
 10
-1455.996332762072
 20
-100.5565418247896
 30
0.0
 11
-865.9963327620846
 21
489.4434581751965
 31
0.0
  0
LINE
  5
10F
330
1F
100
AcDbEntity
  8
0-0
  6
JWW_DASHED1
 62
   120
370
     5
100
AcDbLine
 10
-1455.996332762092
 20
-93.48547401294425
 30
0.0
 11
-865.9963327620898
 21
496.5145259870571
 31
0.0
  0
LINE
  5
110
330
1F
100
AcDbEntity
  8
0-0
  6
JWW_DASHED1
 62
   120
370
     5
100
AcDbLine
 10
-1455.996332762082
 20
-86.4144062010682
 30
0.0
 11
-865.9963327620966
 21
503.5855937989179
 31
0.0
  0
LINE
  5
111
330
1F
100
AcDbEntity
  8
0-0
  6
JWW_DASHED1
 62
   120
370
     5
100
AcDbLine
 10
-1455.996332762072
 20
-79.3433383891913
 30
0.0
 11
-865.9963327620864
 21
510.6566616107948
 31
0.0
  0
LINE
  5
112
330
1F
100
AcDbEntity
  8
0-0
  6
JWW_DASHED1
 62
   120
370
     5
100
AcDbLine
 10
-1455.996332762089
 20
-72.27227057734083
 30
0.0
 11
-865.9963327620778
 21
517.72772942267
 31
0.0
  0
LINE
  5
113
330
1F
100
AcDbEntity
  8
0-0
  6
JWW_DASHED1
 62
   120
370
     5
100
AcDbLine
 10
-1455.996332762085
 20
-65.2012027654699
 30
0.0
 11
-865.9963327620983
 21
524.7987972345162
 31
0.0
  0
LINE
  5
114
330
1F
100
AcDbEntity
  8
0-0
  6
JWW_DASHED1
 62
   120
370
     5
100
AcDbLine
 10
-1455.996332762075
 20
-58.130134953593
 30
0.0
 11
-865.9963327620881
 21
531.8698650463922
 31
0.0
  0
LINE
  5
115
330
1F
100
AcDbEntity
  8
0-0
  6
JWW_DASHED1
 62
   120
370
     5
100
AcDbLine
 10
-1455.996332762075
 20
-51.05906714172633
 30
0.0
 11
-865.9963327620795
 21
538.9409328582683
 31
0.0
  0
LINE
  5
116
330
1F
100
AcDbEntity
  8
0-0
  6
JWW_DASHED1
 62
   120
370
     5
100
AcDbLine
 10
-1455.996332762085
 20
-43.9879993298716
 30
0.0
 11
-865.9963327621
 21
546.0120006701145
 31
0.0
  0
LINE
  5
117
330
1F
100
AcDbEntity
  8
0-0
  6
JWW_DASHED1
 62
   120
370
     5
100
AcDbLine
 10
-1455.996332762075
 20
-36.9169315179947
 30
0.0
 11
-865.9963327620898
 21
553.0830684819905
 31
0.0
  0
LINE
  5
118
330
1F
100
AcDbEntity
  8
0-0
  6
JWW_DASHED1
 62
   120
370
     5
100
AcDbLine
 10
-1455.996332762075
 20
-29.84586370612803
 30
0.0
 11
-865.9963327620812
 21
560.1541362938666
 31
0.0
  0
LINE
  5
119
330
1F
100
AcDbEntity
  8
0-0
  6
JWW_DASHED1
 62
   120
370
     5
100
AcDbLine
 10
-1455.996332762089
 20
-22.7747958942733
 30
0.0
 11
-865.9963327621017
 21
567.2252041057119
 31
0.0
  0
LINE
  5
11A
330
1F
100
AcDbEntity
  8
0-0
  6
JWW_DASHED1
 62
   120
370
     5
100
AcDbLine
 10
-1455.996332762079
 20
-15.7037280823964
 30
0.0
 11
-865.9963327620932
 21
574.2962719175888
 31
0.0
  0
LINE
  5
11B
330
1F
100
AcDbEntity
  8
0-0
  6
JWW_DASHED1
 62
   120
370
     5
100
AcDbLine
 10
-1455.996332762079
 20
-8.632660270529726
 30
0.0
 11
-865.996332762083
 21
581.3673397294657
 31
0.0
  0
LINE
  5
11C
330
1F
100
AcDbEntity
  8
0-0
  6
JWW_DASHED1
 62
   120
370
     5
100
AcDbLine
 10
-1455.996332762089
 20
-1.561592458674994
 30
0.0
 11
-871.2594691810426
 21
583.1752711223719
 31
0.0
  0
LINE
  5
11D
330
1F
100
AcDbEntity
  8
0-0
  6
JWW_DASHED1
 62
   120
370
     5
100
AcDbLine
 10
-1455.99633276208
 20
5.509475353201054
 30
0.0
 11
-878.3305369929042
 21
583.175271122377
 31
0.0
  0
LINE
  5
11E
330
1F
100
AcDbEntity
  8
0-0
  6
JWW_DASHED1
 62
   120
370
     5
100
AcDbLine
 10
-1455.99633276207
 20
12.58054316507796
 30
0.0
 11
-885.4016048047811
 21
583.1752711223668
 31
0.0
  0
LINE
  5
11F
330
1F
100
AcDbEntity
  8
0-0
  6
JWW_DASHED1
 62
   120
370
     5
100
AcDbLine
 10
-1455.996332762092
 20
19.65161097692331
 30
0.0
 11
-892.4726726166409
 21
583.1752711223736
 31
0.0
  0
LINE
  5
120
330
1F
100
AcDbEntity
  8
0-0
  6
JWW_DASHED1
 62
   120
370
     5
100
AcDbLine
 10
-1455.996332762082
 20
26.72267878879936
 30
0.0
 11
-899.5437404285025
 21
583.1752711223787
 31
0.0
  0
LINE
  5
121
330
1F
100
AcDbEntity
  8
0-0
  6
JWW_DASHED1
 62
   120
370
     5
100
AcDbLine
 10
-1455.996332762072
 20
33.79374660067626
 30
0.0
 11
-906.6148082403794
 21
583.1752711223685
 31
0.0
  0
LINE
  5
122
330
1F
100
AcDbEntity
  8
0-0
  6
JWW_DASHED1
 62
   120
370
     5
100
AcDbLine
 10
-1455.996332762094
 20
40.86481441252076
 30
0.0
 11
-913.6858760522392
 21
583.1752711223753
 31
0.0
  0
LINE
  5
123
330
1F
100
AcDbEntity
  8
0-0
  6
JWW_DASHED1
 62
   120
370
     5
100
AcDbLine
 10
-1455.996332762084
 20
47.93588222439766
 30
0.0
 11
-920.7569438641025
 21
583.1752711223795
 31
0.0
  0
LINE
  5
124
330
1F
100
AcDbEntity
  8
0-0
  6
JWW_DASHED1
 62
   120
370
     5
100
AcDbLine
 10
-1455.996332762075
 20
55.00695003627371
 30
0.0
 11
-927.8280116759794
 21
583.1752711223693
 31
0.0
  0
LINE
  5
125
330
1F
100
AcDbEntity
  8
0-0
  6
JWW_DASHED1
 62
   120
370
     5
100
AcDbLine
 10
-1455.996332762089
 20
62.07801784812673
 30
0.0
 11
-934.8990794878529
 21
583.1752711223617
 31
0.0
  0
LINE
  5
126
330
1F
100
AcDbEntity
  8
0-0
  6
JWW_DASHED1
 62
   120
370
     5
100
AcDbLine
 10
-1455.996332762085
 20
69.14908565999596
 30
0.0
 11
-941.9701472996991
 21
583.1752711223812
 31
0.0
  0
LINE
  5
127
330
1F
100
AcDbEntity
  8
0-0
  6
JWW_DASHED1
 62
   120
370
     5
100
AcDbLine
 10
-1455.996332762075
 20
76.22015347187286
 30
0.0
 11
-949.041215111576
 21
583.175271122371
 31
0.0
  0
LINE
  5
128
330
1F
100
AcDbEntity
  8
0-0
  6
JWW_DASHED1
 62
   120
370
     5
100
AcDbLine
 10
-1455.996332762073
 20
83.29122128374124
 30
0.0
 11
-956.1122829234529
 21
583.1752711223608
 31
0.0
  0
LINE
  5
129
330
1F
100
AcDbEntity
  8
0-0
  6
JWW_DASHED1
 62
   120
370
     5
100
AcDbLine
 10
-1455.996332762087
 20
90.36228909559426
 30
0.0
 11
-963.1833507352991
 21
583.1752711223821
 31
0.0
  0
LINE
  5
12A
330
1F
100
AcDbEntity
  8
0-0
  6
JWW_DASHED1
 62
   120
370
     5
100
AcDbLine
 10
-1455.996332762079
 20
97.43335690747031
 30
0.0
 11
-970.254418547176
 21
583.1752711223719
 31
0.0
  0
LINE
  5
12B
330
1F
100
AcDbEntity
  8
0-0
  6
JWW_DASHED1
 62
   120
370
     5
100
AcDbLine
 10
-1455.996332762079
 20
104.5044247193097
 30
0.0
 11
-977.3254863590222
 21
583.1752711223642
 31
0.0
  0
LINE
  5
12C
330
1F
100
AcDbEntity
  8
0-0
  6
JWW_DASHED1
 62
   120
370
     5
100
AcDbLine
 10
-1455.996332762094
 20
111.5754925311329
 30
0.0
 11
-984.3965541708513
 21
583.1752711223753
 31
0.0
  0
LINE
  5
12D
330
1F
100
AcDbEntity
  8
0-0
  6
JWW_DASHED1
 62
   120
370
     5
100
AcDbLine
 10
-1455.996332762084
 20
118.6465603430098
 30
0.0
 11
-991.4676219827146
 21
583.1752711223778
 31
0.0
  0
LINE
  5
12E
330
1F
100
AcDbEntity
  8
0-0
  6
JWW_DASHED1
 62
   120
370
     5
100
AcDbLine
 10
-1455.996332762075
 20
125.7176281548858
 30
0.0
 11
-998.5386897945915
 21
583.1752711223676
 31
0.0
  0
LINE
  5
12F
330
1F
100
AcDbEntity
  8
0-0
  6
JWW_DASHED1
 62
   120
370
     5
100
AcDbLine
 10
-1455.996332762087
 20
132.7886959667397
 30
0.0
 11
-1005.609757606465
 21
583.1752711223617
 31
0.0
  0
LINE
  5
130
330
1F
100
AcDbEntity
  8
0-0
  6
JWW_DASHED1
 62
   120
370
     5
100
AcDbLine
 10
-1455.996332762085
 20
139.8597637786081
 30
0.0
 11
-1012.680825418315
 21
583.1752711223795
 31
0.0
  0
LINE
  5
131
330
1F
100
AcDbEntity
  8
0-0
  6
JWW_DASHED1
 62
   120
370
     5
100
AcDbLine
 10
-1455.996332762075
 20
146.9308315904841
 30
0.0
 11
-1019.751893230192
 21
583.1752711223693
 31
0.0
  0
LINE
  5
132
330
1F
100
AcDbEntity
  8
0-0
  6
JWW_DASHED1
 62
   120
370
     5
100
AcDbLine
 10
-1455.996332762073
 20
154.0018994023542
 30
0.0
 11
-1026.822961042069
 21
583.175271122359
 31
0.0
  0
LINE
  5
133
330
1F
100
AcDbEntity
  8
0-0
  6
JWW_DASHED1
 62
   120
370
     5
100
AcDbLine
 10
-1455.996332762089
 20
161.0729672142055
 30
0.0
 11
-1033.894028853913
 21
583.1752711223804
 31
0.0
  0
LINE
  5
134
330
1F
100
AcDbEntity
  8
0-0
  6
JWW_DASHED1
 62
   120
370
     5
100
AcDbLine
 10
-1455.996332762079
 20
168.1440350260824
 30
0.0
 11
-1040.96509666579
 21
583.1752711223702
 31
0.0
  0
LINE
  5
135
330
1F
100
AcDbEntity
  8
0-0
  6
JWW_DASHED1
 62
   120
370
     5
100
AcDbLine
 10
-1455.996332762075
 20
175.2151028379525
 30
0.0
 11
-1048.036164477667
 21
583.17527112236
 31
0.0
  0
LINE
  5
136
330
1F
100
AcDbEntity
  8
0-0
  6
JWW_DASHED1
 62
   120
370
     5
100
AcDbLine
 10
-1455.996332762089
 20
182.2861706498038
 30
0.0
 11
-1055.107232289522
 21
583.175271122371
 31
0.0
  0
LINE
  5
137
330
1F
100
AcDbEntity
  8
0-0
  6
JWW_DASHED1
 62
   120
370
     5
100
AcDbLine
 10
-1455.996332762079
 20
189.3572384616807
 30
0.0
 11
-1062.178300101388
 21
583.1752711223719
 31
0.0
  0
LINE
  5
138
330
1F
100
AcDbEntity
  8
0-0
  6
JWW_DASHED1
 62
   120
370
     5
100
AcDbLine
 10
-1455.996332762075
 20
196.4283062735508
 30
0.0
 11
-1069.249367913265
 21
583.1752711223617
 31
0.0
  0
LINE
  5
139
330
1F
100
AcDbEntity
  8
0-0
  6
JWW_DASHED1
 62
   120
370
     5
100
AcDbLine
 10
-1455.996332762092
 20
203.4993740854021
 30
0.0
 11
-1076.320435725122
 21
583.1752711223727
 31
0.0
  0
LINE
  5
13A
330
1F
100
AcDbEntity
  8
0-0
  6
JWW_DASHED1
 62
   120
370
     5
100
AcDbLine
 10
-1455.996332762082
 20
210.570441897279
 30
0.0
 11
-1083.391503536988
 21
583.1752711223727
 31
0.0
  0
LINE
  5
13B
330
1F
100
AcDbEntity
  8
0-0
  6
JWW_DASHED1
 62
   120
370
     5
100
AcDbLine
 10
-1455.996332762072
 20
217.6415097091551
 30
0.0
 11
-1090.462571348865
 21
583.1752711223625
 31
0.0
  0
LINE
  5
13C
330
1F
100
AcDbEntity
  8
0-0
  6
JWW_DASHED1
 62
   120
370
     5
100
AcDbLine
 10
-1455.996332762092
 20
224.7125775210004
 30
0.0
 11
-1097.533639160718
 21
583.1752711223744
 31
0.0
  0
LINE
  5
13D
330
1F
100
AcDbEntity
  8
0-0
  6
JWW_DASHED1
 62
   120
370
     5
100
AcDbLine
 10
-1455.996332762084
 20
231.7836453328765
 30
0.0
 11
-1104.604706972585
 21
583.1752711223744
 31
0.0
  0
LINE
  5
13E
330
1F
100
AcDbEntity
  8
0-0
  6
JWW_DASHED1
 62
   120
370
     5
100
AcDbLine
 10
-1455.996332762073
 20
238.8547131447534
 30
0.0
 11
-1111.675774784462
 21
583.1752711223642
 31
0.0
  0
LINE
  5
13F
330
1F
100
AcDbEntity
  8
0-0
  6
JWW_DASHED1
 62
   120
370
     5
100
AcDbLine
 10
-1455.996332762085
 20
245.925780956609
 30
0.0
 11
-1118.746842596332
 21
583.1752711223608
 31
0.0
  0
LINE
  5
140
330
1F
100
AcDbEntity
  8
0-0
  6
JWW_DASHED1
 62
   120
370
     5
100
AcDbLine
 10
-1455.996332762085
 20
252.9968487684748
 30
0.0
 11
-1125.817910408185
 21
583.1752711223753
 31
0.0
  0
LINE
  5
141
330
1F
100
AcDbEntity
  8
0-0
  6
JWW_DASHED1
 62
   120
370
     5
100
AcDbLine
 10
-1455.996332762075
 20
260.0679165803517
 30
0.0
 11
-1132.888978220062
 21
583.1752711223659
 31
0.0
  0
LINE
  5
142
330
1F
100
AcDbEntity
  8
0-0
  6
JWW_DASHED1
 62
   120
370
     5
100
AcDbLine
 10
-1455.996332762072
 20
267.1389843922226
 30
0.0
 11
-1139.960046031938
 21
583.1752711223556
 31
0.0
  0
LINE
  5
143
330
1F
100
AcDbEntity
  8
0-0
  6
JWW_DASHED1
 62
   120
370
     5
100
AcDbLine
 10
-1455.996332762087
 20
274.2100522040731
 30
0.0
 11
-1147.031113843783
 21
583.175271122377
 31
0.0
  0
LINE
  5
144
330
1F
100
AcDbEntity
  8
0-0
  6
JWW_DASHED1
 62
   120
370
     5
100
AcDbLine
 10
-1455.996332762077
 20
281.28112001595
 30
0.0
 11
-1154.10218165566
 21
583.1752711223668
 31
0.0
  0
LINE
  5
145
330
1F
100
AcDbEntity
  8
0-0
  6
JWW_DASHED1
 62
   120
370
     5
100
AcDbLine
 10
-1455.996332762072
 20
288.3521878278218
 30
0.0
 11
-1161.173249467537
 21
583.1752711223565
 31
0.0
  0
LINE
  5
146
330
1F
100
AcDbEntity
  8
0-0
  6
JWW_DASHED1
 62
   120
370
     5
100
AcDbLine
 10
-1455.996332762089
 20
295.4232556396714
 30
0.0
 11
-1168.244317279381
 21
583.1752711223778
 31
0.0
  0
LINE
  5
147
330
1F
100
AcDbEntity
  8
0-0
  6
JWW_DASHED1
 62
   120
370
     5
100
AcDbLine
 10
-1455.996332762079
 20
302.4943234515474
 30
0.0
 11
-1175.315385091258
 21
583.1752711223685
 31
0.0
  0
LINE
  5
148
330
1F
100
AcDbEntity
  8
0-0
  6
JWW_DASHED1
 62
   120
370
     5
100
AcDbLine
 10
-1455.996332762073
 20
309.5653912634201
 30
0.0
 11
-1182.386452903135
 21
583.1752711223583
 31
0.0
  0
LINE
  5
149
330
1F
100
AcDbEntity
  8
0-0
  6
JWW_DASHED1
 62
   120
370
     5
100
AcDbLine
 10
-1455.99633276209
 20
316.6364590752697
 30
0.0
 11
-1189.457520714988
 21
583.1752711223727
 31
0.0
  0
LINE
  5
14A
330
1F
100
AcDbEntity
  8
0-0
  6
JWW_DASHED1
 62
   120
370
     5
100
AcDbLine
 10
-1455.99633276208
 20
323.7075268871457
 30
0.0
 11
-1196.528588526858
 21
583.1752711223693
 31
0.0
  0
LINE
  5
14B
330
1F
100
AcDbEntity
  8
0-0
  6
JWW_DASHED1
 62
   120
370
     5
100
AcDbLine
 10
-1455.996332762075
 20
330.7785946990184
 30
0.0
 11
-1203.599656338735
 21
583.175271122359
 31
0.0
  0
LINE
  5
14C
330
1F
100
AcDbEntity
  8
0-0
  6
JWW_DASHED1
 62
   120
370
     5
100
AcDbLine
 10
-1455.996332762079
 20
337.8496625108535
 30
0.0
 11
-1210.670724150564
 21
583.1752711223676
 31
0.0
  0
LINE
  5
14D
330
1F
100
AcDbEntity
  8
0-0
  6
JWW_DASHED1
 62
   120
370
     5
100
AcDbLine
 10
-1455.996332762087
 20
344.9207303226852
 30
0.0
 11
-1217.741791962397
 21
583.1752711223753
 31
0.0
  0
LINE
  5
14E
330
1F
100
AcDbEntity
  8
0-0
  6
JWW_DASHED1
 62
   120
370
     5
100
AcDbLine
 10
-1455.996332762077
 20
351.9917981345621
 30
0.0
 11
-1224.812859774274
 21
583.1752711223651
 31
0.0
  0
LINE
  5
14F
330
1F
100
AcDbEntity
  8
0-0
  6
JWW_DASHED1
 62
   120
370
     5
100
AcDbLine
 10
-1455.996332762072
 20
359.0628659464347
 30
0.0
 11
-1231.883927586151
 21
583.1752711223548
 31
0.0
  0
LINE
  5
150
330
1F
100
AcDbEntity
  8
0-0
  6
JWW_DASHED1
 62
   120
370
     5
100
AcDbLine
 10
-1455.996332762089
 20
366.1339337582835
 30
0.0
 11
-1238.954995397997
 21
583.1752711223761
 31
0.0
  0
LINE
  5
151
330
1F
100
AcDbEntity
  8
0-0
  6
JWW_DASHED1
 62
   120
370
     5
100
AcDbLine
 10
-1455.996332762079
 20
373.2050015701595
 30
0.0
 11
-1246.026063209874
 21
583.1752711223659
 31
0.0
  0
LINE
  5
152
330
1F
100
AcDbEntity
  8
0-0
  6
JWW_DASHED1
 62
   120
370
     5
100
AcDbLine
 10
-1455.996332762072
 20
380.2760693820339
 30
0.0
 11
-1253.097131021749
 21
583.1752711223565
 31
0.0
  0
LINE
  5
153
330
1F
100
AcDbEntity
  8
0-0
  6
JWW_DASHED1
 62
   120
370
     5
100
AcDbLine
 10
-1455.99633276209
 20
387.3471371938818
 30
0.0
 11
-1260.1681988336
 21
583.1752711223727
 31
0.0
  0
LINE
  5
154
330
1F
100
AcDbEntity
  8
0-0
  6
JWW_DASHED1
 62
   120
370
     5
100
AcDbLine
 10
-1455.99633276208
 20
394.4182050057588
 30
0.0
 11
-1267.23926664547
 21
583.1752711223676
 31
0.0
  0
LINE
  5
155
330
1F
100
AcDbEntity
  8
0-0
  6
JWW_DASHED1
 62
   120
370
     5
100
AcDbLine
 10
-1455.996332762073
 20
401.4892728176313
 30
0.0
 11
-1274.310334457347
 21
583.1752711223573
 31
0.0
  0
LINE
  5
156
330
1F
100
AcDbEntity
  8
0-0
  6
JWW_DASHED1
 62
   120
370
     5
100
AcDbLine
 10
-1455.996332762092
 20
408.5603406294792
 30
0.0
 11
-1281.381402269197
 21
583.1752711223744
 31
0.0
  0
LINE
  5
157
330
1F
100
AcDbEntity
  8
0-0
  6
JWW_DASHED1
 62
   120
370
     5
100
AcDbLine
 10
-1455.996332762082
 20
415.6314084413561
 30
0.0
 11
-1288.45247008107
 21
583.1752711223693
 31
0.0
  0
LINE
  5
158
330
1F
100
AcDbEntity
  8
0-0
  6
JWW_DASHED1
 62
   120
370
     5
100
AcDbLine
 10
-1455.996332762072
 20
422.702476253233
 30
0.0
 11
-1295.523537892947
 21
583.175271122359
 31
0.0
  0
LINE
  5
159
330
1F
100
AcDbEntity
  8
0-0
  6
JWW_DASHED1
 62
   120
370
     5
100
AcDbLine
 10
-1455.996332762094
 20
429.7735440650785
 30
0.0
 11
-1302.594605704797
 21
583.1752711223761
 31
0.0
  0
LINE
  5
15A
330
1F
100
AcDbEntity
  8
0-0
  6
JWW_DASHED1
 62
   120
370
     5
100
AcDbLine
 10
-1455.996332762085
 20
436.8446118769544
 30
0.0
 11
-1309.665673516669
 21
583.1752711223702
 31
0.0
  0
LINE
  5
15B
330
1F
100
AcDbEntity
  8
0-0
  6
JWW_DASHED1
 62
   120
370
     5
100
AcDbLine
 10
-1455.996332762075
 20
443.9156796888306
 30
0.0
 11
-1316.736741328546
 21
583.17527112236
 31
0.0
  0
LINE
  5
15C
330
1F
100
AcDbEntity
  8
0-0
  6
JWW_DASHED1
 62
   120
370
     5
100
AcDbLine
 10
-1455.996332762082
 20
450.9867475006895
 30
0.0
 11
-1323.80780914041
 21
583.1752711223625
 31
0.0
  0
LINE
  5
15D
330
1F
100
AcDbEntity
  8
0-0
  6
JWW_DASHED1
 62
   120
370
     5
100
AcDbLine
 10
-1455.996332762085
 20
458.0578153125527
 30
0.0
 11
-1330.878876952267
 21
583.1752711223719
 31
0.0
  0
LINE
  5
15E
330
1F
100
AcDbEntity
  8
0-0
  6
JWW_DASHED1
 62
   120
370
     5
100
AcDbLine
 10
-1455.996332762077
 20
465.1288831244289
 30
0.0
 11
-1337.949944764144
 21
583.1752711223617
 31
0.0
  0
LINE
  5
15F
330
1F
100
AcDbEntity
  8
0-0
  6
JWW_DASHED1
 62
   120
370
     5
100
AcDbLine
 10
-1455.996332762068
 20
472.199950936304
 30
0.0
 11
-1345.021012576021
 21
583.1752711223514
 31
0.0
  0
LINE
  5
160
330
1F
100
AcDbEntity
  8
0-0
  6
JWW_DASHED1
 62
   120
370
     5
100
AcDbLine
 10
-1455.996332762089
 20
479.2710187481503
 30
0.0
 11
-1352.092080387867
 21
583.1752711223727
 31
0.0
  0
LINE
  5
161
330
1F
100
AcDbEntity
  8
0-0
  6
JWW_DASHED1
 62
   120
370
     5
100
AcDbLine
 10
-1455.996332762079
 20
486.3420865600272
 30
0.0
 11
-1359.163148199744
 21
583.1752711223625
 31
0.0
  0
LINE
  5
162
330
1F
100
AcDbEntity
  8
0-0
  6
JWW_DASHED1
 62
   120
370
     5
100
AcDbLine
 10
-1455.99633276207
 20
493.4131543719024
 30
0.0
 11
-1366.234216011621
 21
583.1752711223522
 31
0.0
  0
LINE
  5
163
330
1F
100
AcDbEntity
  8
0-0
  6
JWW_DASHED1
 62
   120
370
     5
100
AcDbLine
 10
-1455.99633276209
 20
500.4842221837486
 30
0.0
 11
-1373.305283823467
 21
583.1752711223719
 31
0.0
  0
LINE
  5
164
330
1F
100
AcDbEntity
  8
0-0
  6
JWW_DASHED1
 62
   120
370
     5
100
AcDbLine
 10
-1455.99633276208
 20
507.5552899956255
 30
0.0
 11
-1380.376351635341
 21
583.1752711223642
 31
0.0
  0
LINE
  5
165
330
1F
100
AcDbEntity
  8
0-0
  6
JWW_DASHED1
 62
   120
370
     5
100
AcDbLine
 10
-1455.996332762072
 20
514.6263578075007
 30
0.0
 11
-1387.447419447217
 21
583.1752711223539
 31
0.0
  0
LINE
  5
166
330
1F
100
AcDbEntity
  8
0-0
  6
JWW_DASHED1
 62
   120
370
     5
100
AcDbLine
 10
-1455.996332762092
 20
521.6974256193469
 30
0.0
 11
-1394.518487259065
 21
583.1752711223736
 31
0.0
  0
LINE
  5
167
330
1F
100
AcDbEntity
  8
0-0
  6
JWW_DASHED1
 62
   120
370
     5
100
AcDbLine
 10
-1455.996332762082
 20
528.7684934312238
 30
0.0
 11
-1401.589555070941
 21
583.1752711223651
 31
0.0
  0
LINE
  5
168
330
1F
100
AcDbEntity
  8
0-0
  6
JWW_DASHED1
 62
   120
370
     5
100
AcDbLine
 10
-1455.996332762072
 20
535.8395612430998
 30
0.0
 11
-1408.660622882817
 21
583.1752711223548
 31
0.0
  0
LINE
  5
169
330
1F
100
AcDbEntity
  8
0-0
  6
JWW_DASHED1
 62
   120
370
     5
100
AcDbLine
 10
-1455.996332762094
 20
542.9106290549452
 30
0.0
 11
-1415.731690694663
 21
583.1752711223753
 31
0.0
  0
LINE
  5
16A
330
1F
100
AcDbEntity
  8
0-0
  6
JWW_DASHED1
 62
   120
370
     5
100
AcDbLine
 10
-1455.996332762084
 20
549.9816968668221
 30
0.0
 11
-1422.802758506539
 21
583.1752711223668
 31
0.0
  0
LINE
  5
16B
330
1F
100
AcDbEntity
  8
0-0
  6
JWW_DASHED1
 62
   120
370
     5
100
AcDbLine
 10
-1455.996332762075
 20
557.052764678698
 30
0.0
 11
-1429.873826318416
 21
583.1752711223565
 31
0.0
  0
LINE
  5
16C
330
1F
100
AcDbEntity
  8
0-0
  6
JWW_DASHED1
 62
   120
370
     5
100
AcDbLine
 10
-1455.99633276208
 20
564.1238324905588
 30
0.0
 11
-1436.944894130277
 21
583.1752711223617
 31
0.0
  0
LINE
  5
16D
330
1F
100
AcDbEntity
  8
0-0
  6
JWW_DASHED1
 62
   120
370
     5
100
AcDbLine
 10
-1455.996332762085
 20
571.1949003024195
 30
0.0
 11
-1444.015961942137
 21
583.1752711223676
 31
0.0
  0
LINE
  5
16E
330
1F
100
AcDbEntity
  8
0-0
  6
JWW_DASHED1
 62
   120
370
     5
100
AcDbLine
 10
-1455.996332762075
 20
578.2659681142964
 30
0.0
 11
-1451.087029754014
 21
583.1752711223583
 31
0.0
  0
LINE
  5
16F
330
1F
100
AcDbEntity
  8
0-0
  6
JWW_DASHED1
 62
   120
370
     5
100
AcDbLine
 10
-1132.081620182673
 20
-391.8247288776281
 30
0.0
 11
-865.9963327620932
 21
-125.7394414570477
 31
0.0
  0
LINE
  5
170
330
1F
100
AcDbEntity
  8
0-0
  6
Continuous
 62
    92
370
    13
100
AcDbLine
 10
-1455.996332762082
 20
-521.8247288776378
 30
0.0
 11
-865.9963327620795
 21
-521.8247288776378
 31
0.0
  0
LINE
  5
171
330
1F
100
AcDbEntity
  8
0-0
  6
Continuous
 62
    92
370
    13
100
AcDbLine
 10
-675.9963327620818
 20
-391.8247288776375
 30
0.0
 11
-85.99633276207953
 21
-391.8247288776375
 31
0.0
  0
LINE
  5
172
330
1F
100
AcDbEntity
  8
0-0
  6
JWW_DASHED1
 62
   120
370
     5
100
AcDbLine
 10
-90.45211114365372
 20
-391.8247288776213
 30
0.0
 11
-85.99633276209659
 21
-387.3689504960633
 31
0.0
  0
LINE
  5
173
330
1F
100
AcDbEntity
  8
0-0
  6
JWW_DASHED1
 62
   120
370
     5
100
AcDbLine
 10
-97.52317895553062
 20
-391.8247288776324
 30
0.0
 11
-85.99633276208635
 21
-380.2978826841864
 31
0.0
  0
LINE
  5
174
330
1F
100
AcDbEntity
  8
0-0
  6
JWW_DASHED1
 62
   120
370
     5
100
AcDbLine
 10
-104.5942467673922
 20
-391.8247288776264
 30
0.0
 11
-85.99633276209147
 21
-373.2268148723257
 31
0.0
  0
LINE
  5
175
330
1F
100
AcDbEntity
  8
0-0
  6
JWW_DASHED1
 62
   120
370
     5
100
AcDbLine
 10
-111.6653145792537
 20
-391.8247288776205
 30
0.0
 11
-85.99633276209659
 21
-366.155747060465
 31
0.0
  0
LINE
  5
176
330
1F
100
AcDbEntity
  8
0-0
  6
JWW_DASHED1
 62
   120
370
     5
100
AcDbLine
 10
-118.7363823911306
 20
-391.8247288776307
 30
0.0
 11
-85.99633276208635
 21
-359.0846792485881
 31
0.0
  0
LINE
  5
177
330
1F
100
AcDbEntity
  8
0-0
  6
JWW_DASHED1
 62
   120
370
     5
100
AcDbLine
 10
-125.8074502029905
 20
-391.8247288776247
 30
0.0
 11
-85.99633276209318
 21
-352.0136114367266
 31
0.0
  0
LINE
  5
178
330
1F
100
AcDbEntity
  8
0-0
  6
JWW_DASHED1
 62
   120
370
     5
100
AcDbLine
 10
-132.8785180148674
 20
-391.8247288776341
 30
0.0
 11
-85.99633276208294
 21
-344.9425436248514
 31
0.0
  0
LINE
  5
179
330
1F
100
AcDbEntity
  8
0-0
  6
JWW_DASHED1
 62
   120
370
     5
100
AcDbLine
 10
-139.9495858267289
 20
-391.824728877629
 30
0.0
 11
-85.99633276208976
 21
-337.8714758129906
 31
0.0
  0
LINE
  5
17A
330
1F
100
AcDbEntity
  8
0-0
  6
JWW_DASHED1
 62
   120
370
     5
100
AcDbLine
 10
-147.0206536385888
 20
-391.824728877623
 30
0.0
 11
-85.99633276209318
 21
-330.8004080011283
 31
0.0
  0
LINE
  5
17B
330
1F
100
AcDbEntity
  8
0-0
  6
JWW_DASHED1
 62
   120
370
     5
100
AcDbLine
 10
-154.091721450464
 20
-391.8247288776315
 30
0.0
 11
-85.99633276208635
 21
-323.7293401892531
 31
0.0
  0
LINE
  5
17C
330
1F
100
AcDbEntity
  8
0-0
  6
JWW_DASHED1
 62
   120
370
     5
100
AcDbLine
 10
-161.1627892623272
 20
-391.8247288776281
 30
0.0
 11
-85.99633276209147
 21
-316.6582723773923
 31
0.0
  0
LINE
  5
17D
330
1F
100
AcDbEntity
  8
0-0
  6
JWW_DASHED1
 62
   120
370
     5
100
AcDbLine
 10
-168.2338570742041
 20
-391.8247288776375
 30
0.0
 11
-85.99633276208124
 21
-309.5872045655154
 31
0.0
  0
LINE
  5
17E
330
1F
100
AcDbEntity
  8
0-0
  6
JWW_DASHED1
 62
   120
370
     5
100
AcDbLine
 10
-175.3049248860623
 20
-391.8247288776298
 30
0.0
 11
-85.99633276208635
 21
-302.5161367536548
 31
0.0
  0
LINE
  5
17F
330
1F
100
AcDbEntity
  8
0-0
  6
JWW_DASHED1
 62
   120
370
     5
100
AcDbLine
 10
-182.3759926979255
 20
-391.8247288776264
 30
0.0
 11
-85.99633276209318
 21
-295.445068941794
 31
0.0
  0
LINE
  5
180
330
1F
100
AcDbEntity
  8
0-0
  6
JWW_DASHED1
 62
   120
370
     5
100
AcDbLine
 10
-189.4470605098024
 20
-391.8247288776366
 30
0.0
 11
-85.99633276208294
 21
-288.3740011299171
 31
0.0
  0
LINE
  5
181
330
1F
100
AcDbEntity
  8
0-0
  6
JWW_DASHED1
 62
   120
370
     5
100
AcDbLine
 10
-196.5181283216606
 20
-391.8247288776281
 30
0.0
 11
-85.99633276208635
 21
-281.3029333180548
 31
0.0
  0
LINE
  5
182
330
1F
100
AcDbEntity
  8
0-0
  6
JWW_DASHED1
 62
   120
370
     5
100
AcDbLine
 10
-203.5891961334795
 20
-391.8247288776341
 30
0.0
 11
-85.99633276208294
 21
-274.2318655062393
 31
0.0
  0
LINE
  5
183
330
1F
100
AcDbEntity
  8
0-0
  6
JWW_DASHED1
 62
   120
370
     5
100
AcDbLine
 10
-210.6602639453428
 20
-391.8247288776315
 30
0.0
 11
-85.99633276208976
 21
-267.1607976943785
 31
0.0
  0
LINE
  5
184
330
1F
100
AcDbEntity
  8
0-0
  6
JWW_DASHED1
 62
   120
370
     5
100
AcDbLine
 10
-217.7313317572026
 20
-391.8247288776256
 30
0.0
 11
-85.99633276209318
 21
-260.0897298825153
 31
0.0
  0
LINE
  5
185
330
1F
100
AcDbEntity
  8
0-0
  6
JWW_DASHED1
 62
   120
370
     5
100
AcDbLine
 10
-224.8023995690761
 20
-391.8247288776315
 30
0.0
 11
-85.99633276208635
 21
-253.0186620706409
 31
0.0
  0
LINE
  5
186
330
1F
100
AcDbEntity
  8
0-0
  6
JWW_DASHED1
 62
   120
370
     5
100
AcDbLine
 10
-231.8734673809411
 20
-391.8247288776298
 30
0.0
 11
-85.99633276209147
 21
-245.9475942587802
 31
0.0
  0
LINE
  5
187
330
1F
100
AcDbEntity
  8
0-0
  6
JWW_DASHED1
 62
   120
370
     5
100
AcDbLine
 10
-238.944535192818
 20
-391.82472887764
 30
0.0
 11
-85.99633276208124
 21
-238.8765264469033
 31
0.0
  0
LINE
  5
188
330
1F
100
AcDbEntity
  8
0-0
  6
JWW_DASHED1
 62
   120
370
     5
100
AcDbLine
 10
-246.0156030046744
 20
-391.8247288776298
 30
0.0
 11
-85.99633276208635
 21
-231.8054586350426
 31
0.0
  0
LINE
  5
189
330
1F
100
AcDbEntity
  8
0-0
  6
JWW_DASHED1
 62
   120
370
     5
100
AcDbLine
 10
-253.0866708165394
 20
-391.8247288776281
 30
0.0
 11
-85.99633276209318
 21
-224.7343908231819
 31
0.0
  0
LINE
  5
18A
330
1F
100
AcDbEntity
  8
0-0
  6
JWW_DASHED1
 62
   120
370
     5
100
AcDbLine
 10
-260.1577386284163
 20
-391.8247288776383
 30
0.0
 11
-85.99633276208294
 21
-217.663323011305
 31
0.0
  0
LINE
  5
18B
330
1F
100
AcDbEntity
  8
0-0
  6
JWW_DASHED1
 62
   120
370
     5
100
AcDbLine
 10
-267.2288064402727
 20
-391.8247288776281
 30
0.0
 11
-85.99633276208635
 21
-210.5922551994418
 31
0.0
  0
LINE
  5
18C
330
1F
100
AcDbEntity
  8
0-0
  6
JWW_DASHED1
 62
   120
370
     5
100
AcDbLine
 10
-274.2998742521394
 20
-391.8247288776273
 30
0.0
 11
-85.99633276209488
 21
-203.5211873875836
 31
0.0
  0
LINE
  5
18D
330
1F
100
AcDbEntity
  8
0-0
  6
JWW_DASHED1
 62
   120
370
     5
100
AcDbLine
 10
-281.3709420640146
 20
-391.8247288776366
 30
0.0
 11
-85.99633276208465
 21
-196.4501195757067
 31
0.0
  0
LINE
  5
18E
330
1F
100
AcDbEntity
  8
0-0
  6
JWW_DASHED1
 62
   120
370
     5
100
AcDbLine
 10
-288.4420098758761
 20
-391.8247288776315
 30
0.0
 11
-85.99633276208806
 21
-189.3790517638435
 31
0.0
  0
LINE
  5
18F
330
1F
100
AcDbEntity
  8
0-0
  6
JWW_DASHED1
 62
   120
370
     5
100
AcDbLine
 10
-295.5130776877377
 20
-391.8247288776264
 30
0.0
 11
-85.99633276209659
 21
-182.3079839519853
 31
0.0
  0
LINE
  5
190
330
1F
100
AcDbEntity
  8
0-0
  6
JWW_DASHED1
 62
   120
370
     5
100
AcDbLine
 10
-302.5841454996129
 20
-391.8247288776358
 30
0.0
 11
-85.99633276208635
 21
-175.2369161401093
 31
0.0
  0
LINE
  5
191
330
1F
100
AcDbEntity
  8
0-0
  6
JWW_DASHED1
 62
   120
370
     5
100
AcDbLine
 10
-309.6552133114744
 20
-391.8247288776298
 30
0.0
 11
-85.99633276208976
 21
-168.1658483282443
 31
0.0
  0
LINE
  5
192
330
1F
100
AcDbEntity
  8
0-0
  6
JWW_DASHED1
 62
   120
370
     5
100
AcDbLine
 10
-316.726281123336
 20
-391.8247288776247
 30
0.0
 11
-85.9963327621
 21
-161.0947805163879
 31
0.0
  0
LINE
  5
193
330
1F
100
AcDbEntity
  8
0-0
  6
JWW_DASHED1
 62
   120
370
     5
100
AcDbLine
 10
-323.7973489352129
 20
-391.8247288776341
 30
0.0
 11
-85.99633276208976
 21
-154.023712704511
 31
0.0
  0
LINE
  5
194
330
1F
100
AcDbEntity
  8
0-0
  6
JWW_DASHED1
 62
   120
370
     5
100
AcDbLine
 10
-330.8684167470727
 20
-391.824728877629
 30
0.0
 11
-85.99633276208976
 21
-146.952644892646
 31
0.0
  0
LINE
  5
195
330
1F
100
AcDbEntity
  8
0-0
  6
JWW_DASHED1
 62
   120
370
     5
100
AcDbLine
 10
-337.9394845589428
 20
-391.8247288776324
 30
0.0
 11
-85.99633276208465
 21
-139.8815770807734
 31
0.0
  0
LINE
  5
196
330
1F
100
AcDbEntity
  8
0-0
  6
JWW_DASHED1
 62
   120
370
     5
100
AcDbLine
 10
-345.0105523708112
 20
-391.8247288776332
 30
0.0
 11
-85.99633276208976
 21
-132.8105092689127
 31
0.0
  0
LINE
  5
197
330
1F
100
AcDbEntity
  8
0-0
  6
JWW_DASHED1
 62
   120
370
     5
100
AcDbLine
 10
-359.1526879945428
 20
-391.8247288776307
 30
0.0
 11
-85.99633276208635
 21
-118.6683736451751
 31
0.0
  0
LINE
  5
198
330
1F
100
AcDbEntity
  8
0-0
  6
JWW_DASHED1
 62
   120
370
     5
100
AcDbLine
 10
-366.2237558064095
 20
-391.8247288776324
 30
0.0
 11
-85.99633276209318
 21
-111.5973058333144
 31
0.0
  0
LINE
  5
199
330
1F
100
AcDbEntity
  8
0-0
  6
JWW_DASHED1
 62
   120
370
     5
100
AcDbLine
 10
-373.2948236182864
 20
-391.8247288776417
 30
0.0
 11
-85.99633276208294
 21
-104.5262380214375
 31
0.0
  0
LINE
  5
19A
330
1F
100
AcDbEntity
  8
0-0
  6
JWW_DASHED1
 62
   120
370
     5
100
AcDbLine
 10
-380.3658914301394
 20
-391.824728877629
 30
0.0
 11
-85.99633276208806
 21
-97.45517020957763
 31
0.0
  0
LINE
  5
19B
330
1F
100
AcDbEntity
  8
0-0
  6
JWW_DASHED1
 62
   120
370
     5
100
AcDbLine
 10
-387.4369592420095
 20
-391.8247288776307
 30
0.0
 11
-85.99633276209488
 21
-90.38410239771693
 31
0.0
  0
LINE
  5
19C
330
1F
100
AcDbEntity
  8
0-0
  6
JWW_DASHED1
 62
   120
370
     5
100
AcDbLine
 10
-394.5080270538864
 20
-391.824728877641
 30
0.0
 11
-85.99633276208465
 21
-83.31303458584003
 31
0.0
  0
LINE
  5
19D
330
1F
100
AcDbEntity
  8
0-0
  6
JWW_DASHED1
 62
   120
370
     5
100
AcDbLine
 10
-401.5790948657377
 20
-391.8247288776264
 30
0.0
 11
-85.99633276208635
 21
-76.24196677397421
 31
0.0
  0
LINE
  5
19E
330
1F
100
AcDbEntity
  8
0-0
  6
JWW_DASHED1
 62
   120
370
     5
100
AcDbLine
 10
-408.6501626776078
 20
-391.8247288776298
 30
0.0
 11
-85.99633276209659
 21
-69.17089896211863
 31
0.0
  0
LINE
  5
19F
330
1F
100
AcDbEntity
  8
0-0
  6
JWW_DASHED1
 62
   120
370
     5
100
AcDbLine
 10
-415.7212304894847
 20
-391.82472887764
 30
0.0
 11
-85.99633276208635
 21
-62.09983115024173
 31
0.0
  0
LINE
  5
1A0
330
1F
100
AcDbEntity
  8
0-0
  6
JWW_DASHED1
 62
   120
370
     5
100
AcDbLine
 10
-422.7922983013462
 20
-391.8247288776341
 30
0.0
 11
-85.99633276208635
 21
-55.02876333837591
 31
0.0
  0
LINE
  5
1A1
330
1F
100
AcDbEntity
  8
0-0
  6
JWW_DASHED1
 62
   120
370
     5
100
AcDbLine
 10
-429.8633661132061
 20
-391.8247288776281
 30
0.0
 11
-85.99633276209829
 21
-47.95769552652033
 31
0.0
  0
LINE
  5
1A2
330
1F
100
AcDbEntity
  8
0-0
  6
JWW_DASHED1
 62
   120
370
     5
100
AcDbLine
 10
-436.934433925083
 20
-391.8247288776383
 30
0.0
 11
-85.99633276208806
 21
-40.88662771464342
 31
0.0
  0
LINE
  5
1A3
330
1F
100
AcDbEntity
  8
0-0
  6
JWW_DASHED1
 62
   120
370
     5
100
AcDbLine
 10
-444.0055017369139
 20
-391.8247288776298
 30
0.0
 11
-85.99633276208976
 21
-33.8155599028066
 31
0.0
  0
LINE
  5
1A4
330
1F
100
AcDbEntity
  8
0-0
  6
JWW_DASHED1
 62
   120
370
     5
100
AcDbLine
 10
-451.0765695487515
 20
-391.824728877629
 30
0.0
 11
-85.99633276208806
 21
-26.74449209096551
 31
0.0
  0
LINE
  5
1A5
330
1F
100
AcDbEntity
  8
0-0
  6
JWW_DASHED1
 62
   120
370
     5
100
AcDbLine
 10
-458.1476373606216
 20
-391.8247288776324
 30
0.0
 11
-85.99633276209488
 21
-19.67342427910481
 31
0.0
  0
LINE
  5
1A6
330
1F
100
AcDbEntity
  8
0-0
  6
JWW_DASHED1
 62
   120
370
     5
100
AcDbLine
 10
-465.2187051724985
 20
-391.8247288776427
 30
0.0
 11
-85.99633276208465
 21
-12.60235646722791
 31
0.0
  0
LINE
  5
1A7
330
1F
100
AcDbEntity
  8
0-0
  6
JWW_DASHED1
 62
   120
370
     5
100
AcDbLine
 10
-472.2897729843498
 20
-391.8247288776264
 30
0.0
 11
-85.99633276208294
 21
-5.531288655360385
 31
0.0
  0
LINE
  5
1A8
330
1F
100
AcDbEntity
  8
0-0
  6
JWW_DASHED1
 62
   120
370
     5
100
AcDbLine
 10
-479.3608407962216
 20
-391.8247288776307
 30
0.0
 11
-85.99633276209659
 21
1.539779156493495
 31
0.0
  0
LINE
  5
1A9
330
1F
100
AcDbEntity
  8
0-0
  6
JWW_DASHED1
 62
   120
370
     5
100
AcDbLine
 10
-486.4319086080985
 20
-391.824728877641
 30
0.0
 11
-85.99633276208635
 21
8.610846968370396
 31
0.0
  0
LINE
  5
1AA
330
1F
100
AcDbEntity
  8
0-0
  6
JWW_DASHED1
 62
   120
370
     5
100
AcDbLine
 10
-493.5029764199584
 20
-391.8247288776358
 30
0.0
 11
-85.99633276208635
 21
15.68191478023792
 31
0.0
  0
LINE
  5
1AB
330
1F
100
AcDbEntity
  8
0-0
  6
JWW_DASHED1
 62
   120
370
     5
100
AcDbLine
 10
-500.5740442318199
 20
-391.8247288776298
 30
0.0
 11
-85.99633276209829
 21
22.7529825920918
 31
0.0
  0
LINE
  5
1AC
330
1F
100
AcDbEntity
  8
0-0
  6
JWW_DASHED1
 62
   120
370
     5
100
AcDbLine
 10
-507.6451120436968
 20
-391.82472887764
 30
0.0
 11
-85.99633276208806
 21
29.8240504039687
 31
0.0
  0
LINE
  5
1AD
330
1F
100
AcDbEntity
  8
0-0
  6
JWW_DASHED1
 62
   120
370
     5
100
AcDbLine
 10
-514.7161798555584
 20
-391.8247288776341
 30
0.0
 11
-85.99633276208635
 21
36.89511821583622
 31
0.0
  0
LINE
  5
1AE
330
1F
100
AcDbEntity
  8
0-0
  6
JWW_DASHED1
 62
   120
370
     5
100
AcDbLine
 10
-521.7872476674182
 20
-391.824728877629
 30
0.0
 11
-85.9963327621
 21
43.9661860276901
 31
0.0
  0
LINE
  5
1AF
330
1F
100
AcDbEntity
  8
0-0
  6
JWW_DASHED1
 62
   120
370
     5
100
AcDbLine
 10
-528.8583154792951
 20
-391.8247288776392
 30
0.0
 11
-85.99633276208976
 21
51.03725383956615
 31
0.0
  0
LINE
  5
1B0
330
1F
100
AcDbEntity
  8
0-0
  6
JWW_DASHED1
 62
   120
370
     5
100
AcDbLine
 10
-535.9293832911567
 20
-391.8247288776332
 30
0.0
 11
-85.99633276208976
 21
58.10832165143452
 31
0.0
  0
LINE
  5
1B1
330
1F
100
AcDbEntity
  8
0-0
  6
JWW_DASHED1
 62
   120
370
     5
100
AcDbLine
 10
-543.0004511030216
 20
-391.8247288776307
 30
0.0
 11
-85.99633276208635
 21
65.17938946330375
 31
0.0
  0
LINE
  5
1B2
330
1F
100
AcDbEntity
  8
0-0
  6
JWW_DASHED1
 62
   120
370
     5
100
AcDbLine
 10
-550.0715189148951
 20
-391.8247288776375
 30
0.0
 11
-85.99633276209318
 21
72.25045727516445
 31
0.0
  0
LINE
  5
1B3
330
1F
100
AcDbEntity
  8
0-0
  6
JWW_DASHED1
 62
   120
370
     5
100
AcDbLine
 10
-557.142586726772
 20
-391.8247288776478
 30
0.0
 11
-85.99633276208294
 21
79.32152508704135
 31
0.0
  0
LINE
  5
1B4
330
1F
100
AcDbEntity
  8
0-0
  6
JWW_DASHED1
 62
   120
370
     5
100
AcDbLine
 10
-564.2136545386182
 20
-391.824728877629
 30
0.0
 11
-85.99633276208806
 21
86.39259289890205
 31
0.0
  0
LINE
  5
1B5
330
1F
100
AcDbEntity
  8
0-0
  6
JWW_DASHED1
 62
   120
370
     5
100
AcDbLine
 10
-571.2847223504934
 20
-391.8247288776366
 30
0.0
 11
-85.99633276209318
 21
93.46366071076275
 31
0.0
  0
LINE
  5
1B6
330
1F
100
AcDbEntity
  8
0-0
  6
JWW_DASHED1
 62
   120
370
     5
100
AcDbLine
 10
-578.3557901623686
 20
-391.8247288776461
 30
0.0
 11
-85.99633276208294
 21
100.5347285226397
 31
0.0
  0
LINE
  5
1B7
330
1F
100
AcDbEntity
  8
0-0
  6
JWW_DASHED1
 62
   120
370
     5
100
AcDbLine
 10
-585.4268579742183
 20
-391.8247288776273
 30
0.0
 11
-85.99633276208976
 21
107.6057963345004
 31
0.0
  0
LINE
  5
1B8
330
1F
100
AcDbEntity
  8
0-0
  6
JWW_DASHED1
 62
   120
370
     5
100
AcDbLine
 10
-592.4979257860917
 20
-391.8247288776349
 30
0.0
 11
-85.99633276209659
 21
114.6768641463611
 31
0.0
  0
LINE
  5
1B9
330
1F
100
AcDbEntity
  8
0-0
  6
JWW_DASHED1
 62
   120
370
     5
100
AcDbLine
 10
-599.5689935979686
 20
-391.8247288776444
 30
0.0
 11
-85.99633276208635
 21
121.747931958238
 31
0.0
  0
LINE
  5
1BA
330
1F
100
AcDbEntity
  8
0-0
  6
JWW_DASHED1
 62
   120
370
     5
100
AcDbLine
 10
-606.6400614098148
 20
-391.8247288776256
 30
0.0
 11
-85.99633276208294
 21
128.8189997701072
 31
0.0
  0
LINE
  5
1BB
330
1F
100
AcDbEntity
  8
0-0
  6
JWW_DASHED1
 62
   120
370
     5
100
AcDbLine
 10
-613.7111292216917
 20
-391.8247288776341
 30
0.0
 11
-85.99633276209659
 21
135.8900675819594
 31
0.0
  0
LINE
  5
1BC
330
1F
100
AcDbEntity
  8
0-0
  6
JWW_DASHED1
 62
   120
370
     5
100
AcDbLine
 10
-620.782197033567
 20
-391.8247288776435
 30
0.0
 11
-85.99633276208806
 21
142.9611353938354
 31
0.0
  0
LINE
  5
1BD
330
1F
100
AcDbEntity
  8
0-0
  6
JWW_DASHED1
 62
   120
370
     5
100
AcDbLine
 10
-627.8532648454285
 20
-391.8247288776375
 30
0.0
 11
-85.99633276208465
 21
150.0322032057055
 31
0.0
  0
LINE
  5
1BE
330
1F
100
AcDbEntity
  8
0-0
  6
JWW_DASHED1
 62
   120
370
     5
100
AcDbLine
 10
-634.9243326572883
 20
-391.8247288776324
 30
0.0
 11
-85.9963327621
 21
157.1032710175577
 31
0.0
  0
LINE
  5
1BF
330
1F
100
AcDbEntity
  8
0-0
  6
JWW_DASHED1
 62
   120
370
     5
100
AcDbLine
 10
-641.9954004691652
 20
-391.8247288776427
 30
0.0
 11
-85.99633276208976
 21
164.1743388294337
 31
0.0
  0
LINE
  5
1C0
330
1F
100
AcDbEntity
  8
0-0
  6
JWW_DASHED1
 62
   120
370
     5
100
AcDbLine
 10
-649.0664682810268
 20
-391.8247288776366
 30
0.0
 11
-85.99633276208635
 21
171.2454066413038
 31
0.0
  0
LINE
  5
1C1
330
1F
100
AcDbEntity
  8
0-0
  6
JWW_DASHED1
 62
   120
370
     5
100
AcDbLine
 10
-656.1375360928884
 20
-391.8247288776315
 30
0.0
 11
-85.99633276208635
 21
178.3164744531713
 31
0.0
  0
LINE
  5
1C2
330
1F
100
AcDbEntity
  8
0-0
  6
JWW_DASHED1
 62
   120
370
     5
100
AcDbLine
 10
-663.2086039047653
 20
-391.824728877641
 30
0.0
 11
-85.99633276209147
 21
185.387542265032
 31
0.0
  0
LINE
  5
1C3
330
1F
100
AcDbEntity
  8
0-0
  6
JWW_DASHED1
 62
   120
370
     5
100
AcDbLine
 10
-670.2796717166251
 20
-391.8247288776358
 30
0.0
 11
-85.99633276208806
 21
192.4586100769021
 31
0.0
  0
LINE
  5
1C4
330
1F
100
AcDbEntity
  8
0-0
  6
JWW_DASHED1
 62
   120
370
     5
100
AcDbLine
 10
-675.9963327620886
 20
-390.4703221112318
 30
0.0
 11
-85.99633276208635
 21
199.5296778887696
 31
0.0
  0
LINE
  5
1C5
330
1F
100
AcDbEntity
  8
0-0
  6
JWW_DASHED1
 62
   120
370
     5
100
AcDbLine
 10
-675.9963327620784
 20
-383.3992542993558
 30
0.0
 11
-85.99633276209318
 21
206.6007457006303
 31
0.0
  0
LINE
  5
1C6
330
1F
100
AcDbEntity
  8
0-0
  6
JWW_DASHED1
 62
   120
370
     5
100
AcDbLine
 10
-675.9963327620733
 20
-376.3281864875377
 30
0.0
 11
-85.99633276208806
 21
213.6718135124475
 31
0.0
  0
LINE
  5
1C7
330
1F
100
AcDbEntity
  8
0-0
  6
JWW_DASHED1
 62
   120
370
     5
100
AcDbLine
 10
-675.9963327620784
 20
-369.257118675677
 30
0.0
 11
-85.99633276208294
 21
220.7428813243185
 31
0.0
  0
LINE
  5
1C8
330
1F
100
AcDbEntity
  8
0-0
  6
JWW_DASHED1
 62
   120
370
     5
100
AcDbLine
 10
-675.9963327620852
 20
-362.1860508638163
 30
0.0
 11
-85.9963327621
 21
227.8139491361689
 31
0.0
  0
LINE
  5
1C9
330
1F
100
AcDbEntity
  8
0-0
  6
JWW_DASHED1
 62
   120
370
     5
100
AcDbLine
 10
-675.996332762075
 20
-355.1149830519394
 30
0.0
 11
-85.99633276208976
 21
234.8850169480458
 31
0.0
  0
LINE
  5
1CA
330
1F
100
AcDbEntity
  8
0-0
  6
JWW_DASHED1
 62
   120
370
     5
100
AcDbLine
 10
-675.9963327620818
 20
-348.0439152400787
 30
0.0
 11
-85.99633276208465
 21
241.9560847599168
 31
0.0
  0
LINE
  5
1CB
330
1F
100
AcDbEntity
  8
0-0
  6
JWW_DASHED1
 62
   120
370
     5
100
AcDbLine
 10
-675.9963327620869
 20
-340.972847428218
 30
0.0
 11
-85.99633276208635
 21
249.0271525717834
 31
0.0
  0
LINE
  5
1CC
330
1F
100
AcDbEntity
  8
0-0
  6
JWW_DASHED1
 62
   120
370
     5
100
AcDbLine
 10
-675.9963327620767
 20
-333.9017796163411
 30
0.0
 11
-85.99633276209147
 21
256.0982203836442
 31
0.0
  0
LINE
  5
1CD
330
1F
100
AcDbEntity
  8
0-0
  6
JWW_DASHED1
 62
   120
370
     5
100
AcDbLine
 10
-675.9963327620818
 20
-326.8307118044795
 30
0.0
 11
-85.99633276208635
 21
263.169288195515
 31
0.0
  0
LINE
  5
1CE
330
1F
100
AcDbEntity
  8
0-0
  6
JWW_DASHED1
 62
   120
370
     5
100
AcDbLine
 10
-675.9963327620886
 20
-319.7596439926197
 30
0.0
 11
-85.99633276208635
 21
270.2403560073817
 31
0.0
  0
LINE
  5
1CF
330
1F
100
AcDbEntity
  8
0-0
  6
JWW_DASHED1
 62
   120
370
     5
100
AcDbLine
 10
-675.9963327620784
 20
-312.6885761807437
 30
0.0
 11
-85.99633276209318
 21
277.3114238192425
 31
0.0
  0
LINE
  5
1D0
330
1F
100
AcDbEntity
  8
0-0
  6
JWW_DASHED1
 62
   120
370
     5
100
AcDbLine
 10
-675.9963327620682
 20
-305.6175083688668
 30
0.0
 11
-85.99633276208294
 21
284.3824916311185
 31
0.0
  0
LINE
  5
1D1
330
1F
100
AcDbEntity
  8
0-0
  6
JWW_DASHED1
 62
   120
370
     5
100
AcDbLine
 10
-675.9963327620903
 20
-298.5464405570214
 30
0.0
 11
-85.99633276208976
 21
291.4535594429792
 31
0.0
  0
LINE
  5
1D2
330
1F
100
AcDbEntity
  8
0-0
  6
JWW_DASHED1
 62
   120
370
     5
100
AcDbLine
 10
-675.9963327620818
 20
-291.4753727451454
 30
0.0
 11
-85.99633276209488
 21
298.5246272548408
 31
0.0
  0
LINE
  5
1D3
330
1F
100
AcDbEntity
  8
0-0
  6
JWW_DASHED1
 62
   120
370
     5
100
AcDbLine
 10
-675.9963327620716
 20
-284.4043049332685
 30
0.0
 11
-85.99633276208635
 21
305.5956950667168
 31
0.0
  0
LINE
  5
1D4
330
1F
100
AcDbEntity
  8
0-0
  6
JWW_DASHED1
 62
   120
370
     5
100
AcDbLine
 10
-675.9963327620903
 20
-277.3332371214213
 30
0.0
 11
-85.99633276207953
 21
312.6667628785895
 31
0.0
  0
LINE
  5
1D5
330
1F
100
AcDbEntity
  8
0-0
  6
JWW_DASHED1
 62
   120
370
     5
100
AcDbLine
 10
-675.9963327620835
 20
-270.2621693095471
 30
0.0
 11
-85.99633276209659
 21
319.7378306904382
 31
0.0
  0
LINE
  5
1D6
330
1F
100
AcDbEntity
  8
0-0
  6
JWW_DASHED1
 62
   120
370
     5
100
AcDbLine
 10
-675.9963327620733
 20
-263.191101497671
 30
0.0
 11
-85.99633276208635
 21
326.8088985023151
 31
0.0
  0
LINE
  5
1D7
330
1F
100
AcDbEntity
  8
0-0
  6
JWW_DASHED1
 62
   120
370
     5
100
AcDbLine
 10
-675.9963327620767
 20
-256.1200336858077
 30
0.0
 11
-85.99633276208124
 21
333.8799663141878
 31
0.0
  0
LINE
  5
1D8
330
1F
100
AcDbEntity
  8
0-0
  6
JWW_DASHED1
 62
   120
370
     5
100
AcDbLine
 10
-675.9963327620852
 20
-249.0489658739487
 30
0.0
 11
-85.9963327621
 21
340.9510341260365
 31
0.0
  0
LINE
  5
1D9
330
1F
100
AcDbEntity
  8
0-0
  6
JWW_DASHED1
 62
   120
370
     5
100
AcDbLine
 10
-675.996332762075
 20
-241.9778980620727
 30
0.0
 11
-85.99633276208976
 21
348.0221019379134
 31
0.0
  0
LINE
  5
1DA
330
1F
100
AcDbEntity
  8
0-0
  6
JWW_DASHED1
 62
   120
370
     5
100
AcDbLine
 10
-675.9963327620784
 20
-234.9068302502094
 30
0.0
 11
-85.99633276208294
 21
355.0931697497861
 31
0.0
  0
LINE
  5
1DB
330
1F
100
AcDbEntity
  8
0-0
  6
JWW_DASHED1
 62
   120
370
     5
100
AcDbLine
 10
-675.9963327620869
 20
-227.8357624383513
 30
0.0
 11
-85.9963327621
 21
362.1642375616348
 31
0.0
  0
LINE
  5
1DC
330
1F
100
AcDbEntity
  8
0-0
  6
JWW_DASHED1
 62
   120
370
     5
100
AcDbLine
 10
-675.9963327620767
 20
-220.7646946264744
 30
0.0
 11
-85.99633276208976
 21
369.2353053735117
 31
0.0
  0
LINE
  5
1DD
330
1F
100
AcDbEntity
  8
0-0
  6
JWW_DASHED1
 62
   120
370
     5
100
AcDbLine
 10
-675.9963327620801
 20
-213.6936268146103
 30
0.0
 11
-85.99633276208465
 21
376.3063731853844
 31
0.0
  0
LINE
  5
1DE
330
1F
100
AcDbEntity
  8
0-0
  6
JWW_DASHED1
 62
   120
370
     5
100
AcDbLine
 10
-675.9963327620886
 20
-206.622559002753
 30
0.0
 11
-85.99633276208635
 21
383.3774409972484
 31
0.0
  0
LINE
  5
1DF
330
1F
100
AcDbEntity
  8
0-0
  6
JWW_DASHED1
 62
   120
370
     5
100
AcDbLine
 10
-675.9963327620784
 20
-199.5514911908761
 30
0.0
 11
-85.99633276209318
 21
390.4485088091092
 31
0.0
  0
LINE
  5
1E0
330
1F
100
AcDbEntity
  8
0-0
  6
JWW_DASHED1
 62
   120
370
     5
100
AcDbLine
 10
-675.9963327620818
 20
-192.480423379012
 30
0.0
 11
-85.99633276208635
 21
397.5195766209835
 31
0.0
  0
LINE
  5
1E1
330
1F
100
AcDbEntity
  8
0-0
  6
JWW_DASHED1
 62
   120
370
     5
100
AcDbLine
 10
-675.9963327620903
 20
-185.4093555671547
 30
0.0
 11
-85.99633276208976
 21
404.5906444328467
 31
0.0
  0
LINE
  5
1E2
330
1F
100
AcDbEntity
  8
0-0
  6
JWW_DASHED1
 62
   120
370
     5
100
AcDbLine
 10
-675.9963327620801
 20
-178.3382877552778
 30
0.0
 11
-85.99633276209488
 21
411.6617122447075
 31
0.0
  0
LINE
  5
1E3
330
1F
100
AcDbEntity
  8
0-0
  6
JWW_DASHED1
 62
   120
370
     5
100
AcDbLine
 10
-675.9963327620716
 20
-171.2672199434017
 30
0.0
 11
-85.99633276208465
 21
418.7327800565844
 31
0.0
  0
LINE
  5
1E4
330
1F
100
AcDbEntity
  8
0-0
  6
JWW_DASHED1
 62
   120
370
     5
100
AcDbLine
 10
-675.996332762092
 20
-164.1961521315564
 30
0.0
 11
-85.99633276208976
 21
425.803847868445
 31
0.0
  0
LINE
  5
1E5
330
1F
100
AcDbEntity
  8
0-0
  6
JWW_DASHED1
 62
   120
370
     5
100
AcDbLine
 10
-675.9963327620818
 20
-157.1250843196803
 30
0.0
 11
-85.99633276209659
 21
432.8749156803058
 31
0.0
  0
LINE
  5
1E6
330
1F
100
AcDbEntity
  8
0-0
  6
JWW_DASHED1
 62
   120
370
     5
100
AcDbLine
 10
-675.9963327620716
 20
-150.0540165078034
 30
0.0
 11
-85.99633276208635
 21
439.9459834921827
 31
0.0
  0
LINE
  5
1E7
330
1F
100
AcDbEntity
  8
0-0
  6
JWW_DASHED1
 62
   120
370
     5
100
AcDbLine
 10
-675.9963327620767
 20
-142.9829486959675
 30
0.0
 11
-85.99633276208124
 21
447.0170513040272
 31
0.0
  0
LINE
  5
1E8
330
1F
100
AcDbEntity
  8
0-0
  6
JWW_DASHED1
 62
   120
370
     5
100
AcDbLine
 10
-675.9963327620886
 20
-135.9118808841409
 30
0.0
 11
-85.99633276208635
 21
454.0881191158605
 31
0.0
  0
LINE
  5
1E9
330
1F
100
AcDbEntity
  8
0-0
  6
JWW_DASHED1
 62
   120
370
     5
100
AcDbLine
 10
-675.9963327620784
 20
-128.840813072264
 30
0.0
 11
-85.99633276209318
 21
461.1591869277213
 31
0.0
  0
LINE
  5
1EA
330
1F
100
AcDbEntity
  8
0-0
  6
JWW_DASHED1
 62
   120
370
     5
100
AcDbLine
 10
-675.9963327620801
 20
-121.769745260399
 30
0.0
 11
-85.99633276208465
 21
468.2302547395965
 31
0.0
  0
LINE
  5
1EB
330
1F
100
AcDbEntity
  8
0-0
  6
JWW_DASHED1
 62
   120
370
     5
100
AcDbLine
 10
-675.9963327620903
 20
-114.6986774485426
 30
0.0
 11
-85.99633276208976
 21
475.3013225514588
 31
0.0
  0
LINE
  5
1EC
330
1F
100
AcDbEntity
  8
0-0
  6
JWW_DASHED1
 62
   120
370
     5
100
AcDbLine
 10
-675.9963327620801
 20
-107.6276096366657
 30
0.0
 11
-85.99633276209488
 21
482.3723903633196
 31
0.0
  0
LINE
  5
1ED
330
1F
100
AcDbEntity
  8
0-0
  6
JWW_DASHED1
 62
   120
370
     5
100
AcDbLine
 10
-675.9963327620716
 20
-100.5565418247896
 30
0.0
 11
-85.99633276208465
 21
489.4434581751965
 31
0.0
  0
LINE
  5
1EE
330
1F
100
AcDbEntity
  8
0-0
  6
JWW_DASHED1
 62
   120
370
     5
100
AcDbLine
 10
-675.996332762092
 20
-93.48547401294425
 30
0.0
 11
-85.99633276208976
 21
496.5145259870571
 31
0.0
  0
LINE
  5
1EF
330
1F
100
AcDbEntity
  8
0-0
  6
JWW_DASHED1
 62
   120
370
     5
100
AcDbLine
 10
-675.9963327620818
 20
-86.4144062010682
 30
0.0
 11
-85.99633276209659
 21
503.5855937989179
 31
0.0
  0
LINE
  5
1F0
330
1F
100
AcDbEntity
  8
0-0
  6
JWW_DASHED1
 62
   120
370
     5
100
AcDbLine
 10
-675.9963327620716
 20
-79.3433383891913
 30
0.0
 11
-85.99633276208635
 21
510.6566616107948
 31
0.0
  0
LINE
  5
1F1
330
1F
100
AcDbEntity
  8
0-0
  6
JWW_DASHED1
 62
   120
370
     5
100
AcDbLine
 10
-675.9963327620886
 20
-72.27227057734083
 30
0.0
 11
-85.99633276207783
 21
517.72772942267
 31
0.0
  0
LINE
  5
1F2
330
1F
100
AcDbEntity
  8
0-0
  6
JWW_DASHED1
 62
   120
370
     5
100
AcDbLine
 10
-675.9963327620852
 20
-65.2012027654699
 30
0.0
 11
-85.99633276209829
 21
524.7987972345162
 31
0.0
  0
LINE
  5
1F3
330
1F
100
AcDbEntity
  8
0-0
  6
JWW_DASHED1
 62
   120
370
     5
100
AcDbLine
 10
-675.996332762075
 20
-58.130134953593
 30
0.0
 11
-85.99633276208806
 21
531.8698650463922
 31
0.0
  0
LINE
  5
1F4
330
1F
100
AcDbEntity
  8
0-0
  6
JWW_DASHED1
 62
   120
370
     5
100
AcDbLine
 10
-675.996332762075
 20
-51.05906714172633
 30
0.0
 11
-85.99633276207953
 21
538.9409328582683
 31
0.0
  0
LINE
  5
1F5
330
1F
100
AcDbEntity
  8
0-0
  6
JWW_DASHED1
 62
   120
370
     5
100
AcDbLine
 10
-675.9963327620852
 20
-43.9879993298716
 30
0.0
 11
-85.9963327621
 21
546.0120006701145
 31
0.0
  0
LINE
  5
1F6
330
1F
100
AcDbEntity
  8
0-0
  6
JWW_DASHED1
 62
   120
370
     5
100
AcDbLine
 10
-675.996332762075
 20
-36.9169315179947
 30
0.0
 11
-85.99633276208976
 21
553.0830684819905
 31
0.0
  0
LINE
  5
1F7
330
1F
100
AcDbEntity
  8
0-0
  6
JWW_DASHED1
 62
   120
370
     5
100
AcDbLine
 10
-675.996332762075
 20
-29.84586370612803
 30
0.0
 11
-85.99633276208124
 21
560.1541362938666
 31
0.0
  0
LINE
  5
1F8
330
1F
100
AcDbEntity
  8
0-0
  6
JWW_DASHED1
 62
   120
370
     5
100
AcDbLine
 10
-675.9963327620886
 20
-22.7747958942733
 30
0.0
 11
-85.9963327621017
 21
567.2252041057119
 31
0.0
  0
LINE
  5
1F9
330
1F
100
AcDbEntity
  8
0-0
  6
JWW_DASHED1
 62
   120
370
     5
100
AcDbLine
 10
-675.9963327620784
 20
-15.7037280823964
 30
0.0
 11
-85.99633276209318
 21
574.2962719175888
 31
0.0
  0
LINE
  5
1FA
330
1F
100
AcDbEntity
  8
0-0
  6
JWW_DASHED1
 62
   120
370
     5
100
AcDbLine
 10
-675.9963327620784
 20
-8.632660270529726
 30
0.0
 11
-85.99633276208294
 21
581.3673397294657
 31
0.0
  0
LINE
  5
1FB
330
1F
100
AcDbEntity
  8
0-0
  6
JWW_DASHED1
 62
   120
370
     5
100
AcDbLine
 10
-675.9963327620886
 20
-1.561592458674994
 30
0.0
 11
-91.25946918104262
 21
583.1752711223719
 31
0.0
  0
LINE
  5
1FC
330
1F
100
AcDbEntity
  8
0-0
  6
JWW_DASHED1
 62
   120
370
     5
100
AcDbLine
 10
-675.9963327620801
 20
5.509475353201054
 30
0.0
 11
-98.33053699290417
 21
583.175271122377
 31
0.0
  0
LINE
  5
1FD
330
1F
100
AcDbEntity
  8
0-0
  6
JWW_DASHED1
 62
   120
370
     5
100
AcDbLine
 10
-675.9963327620699
 20
12.58054316507796
 30
0.0
 11
-105.4016048047811
 21
583.1752711223668
 31
0.0
  0
LINE
  5
1FE
330
1F
100
AcDbEntity
  8
0-0
  6
JWW_DASHED1
 62
   120
370
     5
100
AcDbLine
 10
-675.996332762092
 20
19.65161097692331
 30
0.0
 11
-112.4726726166409
 21
583.1752711223736
 31
0.0
  0
LINE
  5
1FF
330
1F
100
AcDbEntity
  8
0-0
  6
JWW_DASHED1
 62
   120
370
     5
100
AcDbLine
 10
-675.9963327620818
 20
26.72267878879936
 30
0.0
 11
-119.5437404285025
 21
583.1752711223787
 31
0.0
  0
LINE
  5
200
330
1F
100
AcDbEntity
  8
0-0
  6
JWW_DASHED1
 62
   120
370
     5
100
AcDbLine
 10
-675.9963327620716
 20
33.79374660067626
 30
0.0
 11
-126.6148082403794
 21
583.1752711223685
 31
0.0
  0
LINE
  5
201
330
1F
100
AcDbEntity
  8
0-0
  6
JWW_DASHED1
 62
   120
370
     5
100
AcDbLine
 10
-675.9963327620937
 20
40.86481441252076
 30
0.0
 11
-133.6858760522392
 21
583.1752711223753
 31
0.0
  0
LINE
  5
202
330
1F
100
AcDbEntity
  8
0-0
  6
JWW_DASHED1
 62
   120
370
     5
100
AcDbLine
 10
-675.9963327620835
 20
47.93588222439766
 30
0.0
 11
-140.7569438641025
 21
583.1752711223795
 31
0.0
  0
LINE
  5
203
330
1F
100
AcDbEntity
  8
0-0
  6
JWW_DASHED1
 62
   120
370
     5
100
AcDbLine
 10
-675.996332762075
 20
55.00695003627371
 30
0.0
 11
-147.8280116759794
 21
583.1752711223693
 31
0.0
  0
LINE
  5
204
330
1F
100
AcDbEntity
  8
0-0
  6
JWW_DASHED1
 62
   120
370
     5
100
AcDbLine
 10
-675.9963327620886
 20
62.07801784812673
 30
0.0
 11
-154.8990794878529
 21
583.1752711223617
 31
0.0
  0
LINE
  5
205
330
1F
100
AcDbEntity
  8
0-0
  6
JWW_DASHED1
 62
   120
370
     5
100
AcDbLine
 10
-675.9963327620852
 20
69.14908565999596
 30
0.0
 11
-161.9701472996991
 21
583.1752711223812
 31
0.0
  0
LINE
  5
206
330
1F
100
AcDbEntity
  8
0-0
  6
JWW_DASHED1
 62
   120
370
     5
100
AcDbLine
 10
-675.996332762075
 20
76.22015347187286
 30
0.0
 11
-169.041215111576
 21
583.175271122371
 31
0.0
  0
LINE
  5
207
330
1F
100
AcDbEntity
  8
0-0
  6
JWW_DASHED1
 62
   120
370
     5
100
AcDbLine
 10
-675.9963327620733
 20
83.29122128374124
 30
0.0
 11
-176.1122829234529
 21
583.1752711223608
 31
0.0
  0
LINE
  5
208
330
1F
100
AcDbEntity
  8
0-0
  6
JWW_DASHED1
 62
   120
370
     5
100
AcDbLine
 10
-675.9963327620869
 20
90.36228909559426
 30
0.0
 11
-183.1833507352991
 21
583.1752711223821
 31
0.0
  0
LINE
  5
209
330
1F
100
AcDbEntity
  8
0-0
  6
JWW_DASHED1
 62
   120
370
     5
100
AcDbLine
 10
-675.9963327620784
 20
97.43335690747031
 30
0.0
 11
-190.254418547176
 21
583.1752711223719
 31
0.0
  0
LINE
  5
20A
330
1F
100
AcDbEntity
  8
0-0
  6
JWW_DASHED1
 62
   120
370
     5
100
AcDbLine
 10
-675.9963327620784
 20
104.5044247193097
 30
0.0
 11
-197.3254863590222
 21
583.1752711223642
 31
0.0
  0
LINE
  5
20B
330
1F
100
AcDbEntity
  8
0-0
  6
JWW_DASHED1
 62
   120
370
     5
100
AcDbLine
 10
-675.9963327620937
 20
111.5754925311329
 30
0.0
 11
-204.3965541708513
 21
583.1752711223753
 31
0.0
  0
LINE
  5
20C
330
1F
100
AcDbEntity
  8
0-0
  6
JWW_DASHED1
 62
   120
370
     5
100
AcDbLine
 10
-675.9963327620835
 20
118.6465603430098
 30
0.0
 11
-211.4676219827146
 21
583.1752711223778
 31
0.0
  0
LINE
  5
20D
330
1F
100
AcDbEntity
  8
0-0
  6
JWW_DASHED1
 62
   120
370
     5
100
AcDbLine
 10
-675.996332762075
 20
125.7176281548858
 30
0.0
 11
-218.5386897945915
 21
583.1752711223676
 31
0.0
  0
LINE
  5
20E
330
1F
100
AcDbEntity
  8
0-0
  6
JWW_DASHED1
 62
   120
370
     5
100
AcDbLine
 10
-675.9963327620869
 20
132.7886959667397
 30
0.0
 11
-225.609757606465
 21
583.1752711223617
 31
0.0
  0
LINE
  5
20F
330
1F
100
AcDbEntity
  8
0-0
  6
JWW_DASHED1
 62
   120
370
     5
100
AcDbLine
 10
-675.9963327620852
 20
139.8597637786081
 30
0.0
 11
-232.6808254183146
 21
583.1752711223795
 31
0.0
  0
LINE
  5
210
330
1F
100
AcDbEntity
  8
0-0
  6
JWW_DASHED1
 62
   120
370
     5
100
AcDbLine
 10
-675.996332762075
 20
146.9308315904841
 30
0.0
 11
-239.7518932301915
 21
583.1752711223693
 31
0.0
  0
LINE
  5
211
330
1F
100
AcDbEntity
  8
0-0
  6
JWW_DASHED1
 62
   120
370
     5
100
AcDbLine
 10
-675.9963327620733
 20
154.0018994023542
 30
0.0
 11
-246.8229610420684
 21
583.175271122359
 31
0.0
  0
LINE
  5
212
330
1F
100
AcDbEntity
  8
0-0
  6
JWW_DASHED1
 62
   120
370
     5
100
AcDbLine
 10
-675.9963327620886
 20
161.0729672142055
 30
0.0
 11
-253.8940288539129
 21
583.1752711223804
 31
0.0
  0
LINE
  5
213
330
1F
100
AcDbEntity
  8
0-0
  6
JWW_DASHED1
 62
   120
370
     5
100
AcDbLine
 10
-675.9963327620784
 20
168.1440350260824
 30
0.0
 11
-260.9650966657898
 21
583.1752711223702
 31
0.0
  0
LINE
  5
214
330
1F
100
AcDbEntity
  8
0-0
  6
JWW_DASHED1
 62
   120
370
     5
100
AcDbLine
 10
-675.996332762075
 20
175.2151028379525
 30
0.0
 11
-268.0361644776667
 21
583.17527112236
 31
0.0
  0
LINE
  5
215
330
1F
100
AcDbEntity
  8
0-0
  6
JWW_DASHED1
 62
   120
370
     5
100
AcDbLine
 10
-675.9963327620886
 20
182.2861706498038
 30
0.0
 11
-275.1072322895214
 21
583.175271122371
 31
0.0
  0
LINE
  5
216
330
1F
100
AcDbEntity
  8
0-0
  6
JWW_DASHED1
 62
   120
370
     5
100
AcDbLine
 10
-675.9963327620784
 20
189.3572384616807
 30
0.0
 11
-282.1783001013881
 21
583.1752711223719
 31
0.0
  0
LINE
  5
217
330
1F
100
AcDbEntity
  8
0-0
  6
JWW_DASHED1
 62
   120
370
     5
100
AcDbLine
 10
-675.996332762075
 20
196.4283062735508
 30
0.0
 11
-289.249367913265
 21
583.1752711223617
 31
0.0
  0
LINE
  5
218
330
1F
100
AcDbEntity
  8
0-0
  6
JWW_DASHED1
 62
   120
370
     5
100
AcDbLine
 10
-675.996332762092
 20
203.4993740854021
 30
0.0
 11
-296.3204357251215
 21
583.1752711223727
 31
0.0
  0
LINE
  5
219
330
1F
100
AcDbEntity
  8
0-0
  6
JWW_DASHED1
 62
   120
370
     5
100
AcDbLine
 10
-675.9963327620818
 20
210.570441897279
 30
0.0
 11
-303.3915035369881
 21
583.1752711223727
 31
0.0
  0
LINE
  5
21A
330
1F
100
AcDbEntity
  8
0-0
  6
JWW_DASHED1
 62
   120
370
     5
100
AcDbLine
 10
-675.9963327620716
 20
217.6415097091551
 30
0.0
 11
-310.462571348865
 21
583.1752711223625
 31
0.0
  0
LINE
  5
21B
330
1F
100
AcDbEntity
  8
0-0
  6
JWW_DASHED1
 62
   120
370
     5
100
AcDbLine
 10
-675.996332762092
 20
224.7125775210004
 30
0.0
 11
-317.5336391607181
 21
583.1752711223744
 31
0.0
  0
LINE
  5
21C
330
1F
100
AcDbEntity
  8
0-0
  6
JWW_DASHED1
 62
   120
370
     5
100
AcDbLine
 10
-675.9963327620835
 20
231.7836453328765
 30
0.0
 11
-324.6047069725847
 21
583.1752711223744
 31
0.0
  0
LINE
  5
21D
330
1F
100
AcDbEntity
  8
0-0
  6
JWW_DASHED1
 62
   120
370
     5
100
AcDbLine
 10
-675.9963327620733
 20
238.8547131447534
 30
0.0
 11
-331.6757747844616
 21
583.1752711223642
 31
0.0
  0
LINE
  5
21E
330
1F
100
AcDbEntity
  8
0-0
  6
JWW_DASHED1
 62
   120
370
     5
100
AcDbLine
 10
-675.9963327620852
 20
245.925780956609
 30
0.0
 11
-338.7468425963317
 21
583.1752711223608
 31
0.0
  0
LINE
  5
21F
330
1F
100
AcDbEntity
  8
0-0
  6
JWW_DASHED1
 62
   120
370
     5
100
AcDbLine
 10
-675.9963327620852
 20
252.9968487684748
 30
0.0
 11
-345.8179104081847
 21
583.1752711223753
 31
0.0
  0
LINE
  5
220
330
1F
100
AcDbEntity
  8
0-0
  6
JWW_DASHED1
 62
   120
370
     5
100
AcDbLine
 10
-675.996332762075
 20
260.0679165803517
 30
0.0
 11
-352.8889782200616
 21
583.1752711223659
 31
0.0
  0
LINE
  5
221
330
1F
100
AcDbEntity
  8
0-0
  6
JWW_DASHED1
 62
   120
370
     5
100
AcDbLine
 10
-675.9963327620716
 20
267.1389843922226
 30
0.0
 11
-359.9600460319385
 21
583.1752711223556
 31
0.0
  0
LINE
  5
222
330
1F
100
AcDbEntity
  8
0-0
  6
JWW_DASHED1
 62
   120
370
     5
100
AcDbLine
 10
-675.9963327620869
 20
274.2100522040731
 30
0.0
 11
-367.031113843783
 21
583.175271122377
 31
0.0
  0
LINE
  5
223
330
1F
100
AcDbEntity
  8
0-0
  6
JWW_DASHED1
 62
   120
370
     5
100
AcDbLine
 10
-675.9963327620767
 20
281.28112001595
 30
0.0
 11
-374.1021816556599
 21
583.1752711223668
 31
0.0
  0
LINE
  5
224
330
1F
100
AcDbEntity
  8
0-0
  6
JWW_DASHED1
 62
   120
370
     5
100
AcDbLine
 10
-675.9963327620716
 20
288.3521878278218
 30
0.0
 11
-381.1732494675368
 21
583.1752711223565
 31
0.0
  0
LINE
  5
225
330
1F
100
AcDbEntity
  8
0-0
  6
JWW_DASHED1
 62
   120
370
     5
100
AcDbLine
 10
-675.9963327620886
 20
295.4232556396714
 30
0.0
 11
-388.2443172793813
 21
583.1752711223778
 31
0.0
  0
LINE
  5
226
330
1F
100
AcDbEntity
  8
0-0
  6
JWW_DASHED1
 62
   120
370
     5
100
AcDbLine
 10
-675.9963327620784
 20
302.4943234515474
 30
0.0
 11
-395.3153850912582
 21
583.1752711223685
 31
0.0
  0
LINE
  5
227
330
1F
100
AcDbEntity
  8
0-0
  6
JWW_DASHED1
 62
   120
370
     5
100
AcDbLine
 10
-675.9963327620733
 20
309.5653912634201
 30
0.0
 11
-402.3864529031351
 21
583.1752711223583
 31
0.0
  0
LINE
  5
228
330
1F
100
AcDbEntity
  8
0-0
  6
JWW_DASHED1
 62
   120
370
     5
100
AcDbLine
 10
-675.9963327620903
 20
316.6364590752697
 30
0.0
 11
-409.4575207149882
 21
583.1752711223727
 31
0.0
  0
LINE
  5
229
330
1F
100
AcDbEntity
  8
0-0
  6
JWW_DASHED1
 62
   120
370
     5
100
AcDbLine
 10
-675.9963327620801
 20
323.7075268871457
 30
0.0
 11
-416.5285885268582
 21
583.1752711223693
 31
0.0
  0
LINE
  5
22A
330
1F
100
AcDbEntity
  8
0-0
  6
JWW_DASHED1
 62
   120
370
     5
100
AcDbLine
 10
-675.996332762075
 20
330.7785946990184
 30
0.0
 11
-423.5996563387351
 21
583.175271122359
 31
0.0
  0
LINE
  5
22B
330
1F
100
AcDbEntity
  8
0-0
  6
JWW_DASHED1
 62
   120
370
     5
100
AcDbLine
 10
-675.9963327620784
 20
337.8496625108535
 30
0.0
 11
-430.6707241505643
 21
583.1752711223676
 31
0.0
  0
LINE
  5
22C
330
1F
100
AcDbEntity
  8
0-0
  6
JWW_DASHED1
 62
   120
370
     5
100
AcDbLine
 10
-675.9963327620869
 20
344.9207303226852
 30
0.0
 11
-437.7417919623969
 21
583.1752711223753
 31
0.0
  0
LINE
  5
22D
330
1F
100
AcDbEntity
  8
0-0
  6
JWW_DASHED1
 62
   120
370
     5
100
AcDbLine
 10
-675.9963327620767
 20
351.9917981345621
 30
0.0
 11
-444.8128597742738
 21
583.1752711223651
 31
0.0
  0
LINE
  5
22E
330
1F
100
AcDbEntity
  8
0-0
  6
JWW_DASHED1
 62
   120
370
     5
100
AcDbLine
 10
-675.9963327620716
 20
359.0628659464347
 30
0.0
 11
-451.8839275861507
 21
583.1752711223548
 31
0.0
  0
LINE
  5
22F
330
1F
100
AcDbEntity
  8
0-0
  6
JWW_DASHED1
 62
   120
370
     5
100
AcDbLine
 10
-675.9963327620886
 20
366.1339337582835
 30
0.0
 11
-458.9549953979969
 21
583.1752711223761
 31
0.0
  0
LINE
  5
230
330
1F
100
AcDbEntity
  8
0-0
  6
JWW_DASHED1
 62
   120
370
     5
100
AcDbLine
 10
-675.9963327620784
 20
373.2050015701595
 30
0.0
 11
-466.0260632098738
 21
583.1752711223659
 31
0.0
  0
LINE
  5
231
330
1F
100
AcDbEntity
  8
0-0
  6
JWW_DASHED1
 62
   120
370
     5
100
AcDbLine
 10
-675.9963327620716
 20
380.2760693820339
 30
0.0
 11
-473.097131021749
 21
583.1752711223565
 31
0.0
  0
LINE
  5
232
330
1F
100
AcDbEntity
  8
0-0
  6
JWW_DASHED1
 62
   120
370
     5
100
AcDbLine
 10
-675.9963327620903
 20
387.3471371938818
 30
0.0
 11
-480.1681988336003
 21
583.1752711223727
 31
0.0
  0
LINE
  5
233
330
1F
100
AcDbEntity
  8
0-0
  6
JWW_DASHED1
 62
   120
370
     5
100
AcDbLine
 10
-675.9963327620801
 20
394.4182050057588
 30
0.0
 11
-487.2392666454704
 21
583.1752711223676
 31
0.0
  0
LINE
  5
234
330
1F
100
AcDbEntity
  8
0-0
  6
JWW_DASHED1
 62
   120
370
     5
100
AcDbLine
 10
-675.9963327620733
 20
401.4892728176313
 30
0.0
 11
-494.3103344573473
 21
583.1752711223573
 31
0.0
  0
LINE
  5
235
330
1F
100
AcDbEntity
  8
0-0
  6
JWW_DASHED1
 62
   120
370
     5
100
AcDbLine
 10
-675.996332762092
 20
408.5603406294792
 30
0.0
 11
-501.3814022691969
 21
583.1752711223744
 31
0.0
  0
LINE
  5
236
330
1F
100
AcDbEntity
  8
0-0
  6
JWW_DASHED1
 62
   120
370
     5
100
AcDbLine
 10
-675.9963327620818
 20
415.6314084413561
 30
0.0
 11
-508.4524700810704
 21
583.1752711223693
 31
0.0
  0
LINE
  5
237
330
1F
100
AcDbEntity
  8
0-0
  6
JWW_DASHED1
 62
   120
370
     5
100
AcDbLine
 10
-675.9963327620716
 20
422.702476253233
 30
0.0
 11
-515.5235378929473
 21
583.175271122359
 31
0.0
  0
LINE
  5
238
330
1F
100
AcDbEntity
  8
0-0
  6
JWW_DASHED1
 62
   120
370
     5
100
AcDbLine
 10
-675.9963327620937
 20
429.7735440650785
 30
0.0
 11
-522.5946057047969
 21
583.1752711223761
 31
0.0
  0
LINE
  5
239
330
1F
100
AcDbEntity
  8
0-0
  6
JWW_DASHED1
 62
   120
370
     5
100
AcDbLine
 10
-675.9963327620852
 20
436.8446118769544
 30
0.0
 11
-529.6656735166687
 21
583.1752711223702
 31
0.0
  0
LINE
  5
23A
330
1F
100
AcDbEntity
  8
0-0
  6
JWW_DASHED1
 62
   120
370
     5
100
AcDbLine
 10
-675.996332762075
 20
443.9156796888306
 30
0.0
 11
-536.7367413285456
 21
583.17527112236
 31
0.0
  0
LINE
  5
23B
330
1F
100
AcDbEntity
  8
0-0
  6
JWW_DASHED1
 62
   120
370
     5
100
AcDbLine
 10
-675.9963327620818
 20
450.9867475006895
 30
0.0
 11
-543.8078091404105
 21
583.1752711223625
 31
0.0
  0
LINE
  5
23C
330
1F
100
AcDbEntity
  8
0-0
  6
JWW_DASHED1
 62
   120
370
     5
100
AcDbLine
 10
-675.9963327620852
 20
458.0578153125527
 30
0.0
 11
-550.878876952267
 21
583.1752711223719
 31
0.0
  0
LINE
  5
23D
330
1F
100
AcDbEntity
  8
0-0
  6
JWW_DASHED1
 62
   120
370
     5
100
AcDbLine
 10
-675.9963327620767
 20
465.1288831244289
 30
0.0
 11
-557.9499447641439
 21
583.1752711223617
 31
0.0
  0
LINE
  5
23E
330
1F
100
AcDbEntity
  8
0-0
  6
JWW_DASHED1
 62
   120
370
     5
100
AcDbLine
 10
-675.9963327620682
 20
472.199950936304
 30
0.0
 11
-565.0210125760208
 21
583.1752711223514
 31
0.0
  0
LINE
  5
23F
330
1F
100
AcDbEntity
  8
0-0
  6
JWW_DASHED1
 62
   120
370
     5
100
AcDbLine
 10
-675.9963327620886
 20
479.2710187481503
 30
0.0
 11
-572.092080387867
 21
583.1752711223727
 31
0.0
  0
LINE
  5
240
330
1F
100
AcDbEntity
  8
0-0
  6
JWW_DASHED1
 62
   120
370
     5
100
AcDbLine
 10
-675.9963327620784
 20
486.3420865600272
 30
0.0
 11
-579.1631481997439
 21
583.1752711223625
 31
0.0
  0
LINE
  5
241
330
1F
100
AcDbEntity
  8
0-0
  6
JWW_DASHED1
 62
   120
370
     5
100
AcDbLine
 10
-675.9963327620699
 20
493.4131543719024
 30
0.0
 11
-586.2342160116208
 21
583.1752711223522
 31
0.0
  0
LINE
  5
242
330
1F
100
AcDbEntity
  8
0-0
  6
JWW_DASHED1
 62
   120
370
     5
100
AcDbLine
 10
-675.9963327620903
 20
500.4842221837486
 30
0.0
 11
-593.305283823467
 21
583.1752711223719
 31
0.0
  0
LINE
  5
243
330
1F
100
AcDbEntity
  8
0-0
  6
JWW_DASHED1
 62
   120
370
     5
100
AcDbLine
 10
-675.9963327620801
 20
507.5552899956255
 30
0.0
 11
-600.3763516353405
 21
583.1752711223642
 31
0.0
  0
LINE
  5
244
330
1F
100
AcDbEntity
  8
0-0
  6
JWW_DASHED1
 62
   120
370
     5
100
AcDbLine
 10
-675.9963327620716
 20
514.6263578075007
 30
0.0
 11
-607.4474194472174
 21
583.1752711223539
 31
0.0
  0
LINE
  5
245
330
1F
100
AcDbEntity
  8
0-0
  6
JWW_DASHED1
 62
   120
370
     5
100
AcDbLine
 10
-675.996332762092
 20
521.6974256193469
 30
0.0
 11
-614.5184872590653
 21
583.1752711223736
 31
0.0
  0
LINE
  5
246
330
1F
100
AcDbEntity
  8
0-0
  6
JWW_DASHED1
 62
   120
370
     5
100
AcDbLine
 10
-675.9963327620818
 20
528.7684934312238
 30
0.0
 11
-621.5895550709405
 21
583.1752711223651
 31
0.0
  0
LINE
  5
247
330
1F
100
AcDbEntity
  8
0-0
  6
JWW_DASHED1
 62
   120
370
     5
100
AcDbLine
 10
-675.9963327620716
 20
535.8395612430998
 30
0.0
 11
-628.6606228828174
 21
583.1752711223548
 31
0.0
  0
LINE
  5
248
330
1F
100
AcDbEntity
  8
0-0
  6
JWW_DASHED1
 62
   120
370
     5
100
AcDbLine
 10
-675.9963327620937
 20
542.9106290549452
 30
0.0
 11
-635.7316906946636
 21
583.1752711223753
 31
0.0
  0
LINE
  5
249
330
1F
100
AcDbEntity
  8
0-0
  6
JWW_DASHED1
 62
   120
370
     5
100
AcDbLine
 10
-675.9963327620835
 20
549.9816968668221
 30
0.0
 11
-642.8027585065388
 21
583.1752711223668
 31
0.0
  0
LINE
  5
24A
330
1F
100
AcDbEntity
  8
0-0
  6
JWW_DASHED1
 62
   120
370
     5
100
AcDbLine
 10
-675.996332762075
 20
557.052764678698
 30
0.0
 11
-649.8738263184157
 21
583.1752711223565
 31
0.0
  0
LINE
  5
24B
330
1F
100
AcDbEntity
  8
0-0
  6
JWW_DASHED1
 62
   120
370
     5
100
AcDbLine
 10
-675.9963327620801
 20
564.1238324905588
 30
0.0
 11
-656.9448941302772
 21
583.1752711223617
 31
0.0
  0
LINE
  5
24C
330
1F
100
AcDbEntity
  8
0-0
  6
JWW_DASHED1
 62
   120
370
     5
100
AcDbLine
 10
-675.9963327620852
 20
571.1949003024195
 30
0.0
 11
-664.0159619421371
 21
583.1752711223676
 31
0.0
  0
LINE
  5
24D
330
1F
100
AcDbEntity
  8
0-0
  6
JWW_DASHED1
 62
   120
370
     5
100
AcDbLine
 10
-675.996332762075
 20
578.2659681142964
 30
0.0
 11
-671.087029754014
 21
583.1752711223583
 31
0.0
  0
LINE
  5
24E
330
1F
100
AcDbEntity
  8
0-0
  6
JWW_DASHED1
 62
   120
370
     5
100
AcDbLine
 10
-352.0816201826727
 20
-391.8247288776281
 30
0.0
 11
-85.99633276209318
 21
-125.7394414570477
 31
0.0
  0
LINE
  5
24F
330
1F
100
AcDbEntity
  8
0-0
  6
Continuous
 62
    92
370
    13
100
AcDbLine
 10
-675.9963327620818
 20
-521.8247288776378
 30
0.0
 11
-85.99633276207953
 21
-521.8247288776378
 31
0.0
  0
LINE
  5
250
330
1F
100
AcDbEntity
  8
0-0
  6
Continuous
 62
    92
370
    13
100
AcDbLine
 10
134.0036672379182
 20
-391.8247288776375
 30
0.0
 11
724.0036672379205
 21
-391.8247288776375
 31
0.0
  0
LINE
  5
251
330
1F
100
AcDbEntity
  8
0-0
  6
JWW_DASHED1
 62
   120
370
     5
100
AcDbLine
 10
719.5478888563463
 20
-391.8247288776213
 30
0.0
 11
724.0036672379034
 21
-387.3689504960633
 31
0.0
  0
LINE
  5
252
330
1F
100
AcDbEntity
  8
0-0
  6
JWW_DASHED1
 62
   120
370
     5
100
AcDbLine
 10
712.4768210444694
 20
-391.8247288776324
 30
0.0
 11
724.0036672379136
 21
-380.2978826841864
 31
0.0
  0
LINE
  5
253
330
1F
100
AcDbEntity
  8
0-0
  6
JWW_DASHED1
 62
   120
370
     5
100
AcDbLine
 10
705.4057532326078
 20
-391.8247288776264
 30
0.0
 11
724.0036672379085
 21
-373.2268148723257
 31
0.0
  0
LINE
  5
254
330
1F
100
AcDbEntity
  8
0-0
  6
JWW_DASHED1
 62
   120
370
     5
100
AcDbLine
 10
698.3346854207463
 20
-391.8247288776205
 30
0.0
 11
724.0036672379034
 21
-366.155747060465
 31
0.0
  0
LINE
  5
255
330
1F
100
AcDbEntity
  8
0-0
  6
JWW_DASHED1
 62
   120
370
     5
100
AcDbLine
 10
691.2636176088694
 20
-391.8247288776307
 30
0.0
 11
724.0036672379136
 21
-359.0846792485881
 31
0.0
  0
LINE
  5
256
330
1F
100
AcDbEntity
  8
0-0
  6
JWW_DASHED1
 62
   120
370
     5
100
AcDbLine
 10
684.1925497970095
 20
-391.8247288776247
 30
0.0
 11
724.0036672379068
 21
-352.0136114367266
 31
0.0
  0
LINE
  5
257
330
1F
100
AcDbEntity
  8
0-0
  6
JWW_DASHED1
 62
   120
370
     5
100
AcDbLine
 10
677.1214819851326
 20
-391.8247288776341
 30
0.0
 11
724.003667237917
 21
-344.9425436248514
 31
0.0
  0
LINE
  5
258
330
1F
100
AcDbEntity
  8
0-0
  6
JWW_DASHED1
 62
   120
370
     5
100
AcDbLine
 10
670.0504141732711
 20
-391.824728877629
 30
0.0
 11
724.0036672379102
 21
-337.8714758129906
 31
0.0
  0
LINE
  5
259
330
1F
100
AcDbEntity
  8
0-0
  6
JWW_DASHED1
 62
   120
370
     5
100
AcDbLine
 10
662.9793463614112
 20
-391.824728877623
 30
0.0
 11
724.0036672379068
 21
-330.8004080011283
 31
0.0
  0
LINE
  5
25A
330
1F
100
AcDbEntity
  8
0-0
  6
JWW_DASHED1
 62
   120
370
     5
100
AcDbLine
 10
655.908278549536
 20
-391.8247288776315
 30
0.0
 11
724.0036672379136
 21
-323.7293401892531
 31
0.0
  0
LINE
  5
25B
330
1F
100
AcDbEntity
  8
0-0
  6
JWW_DASHED1
 62
   120
370
     5
100
AcDbLine
 10
648.8372107376728
 20
-391.8247288776281
 30
0.0
 11
724.0036672379085
 21
-316.6582723773923
 31
0.0
  0
LINE
  5
25C
330
1F
100
AcDbEntity
  8
0-0
  6
JWW_DASHED1
 62
   120
370
     5
100
AcDbLine
 10
641.7661429257959
 20
-391.8247288776375
 30
0.0
 11
724.0036672379188
 21
-309.5872045655154
 31
0.0
  0
LINE
  5
25D
330
1F
100
AcDbEntity
  8
0-0
  6
JWW_DASHED1
 62
   120
370
     5
100
AcDbLine
 10
634.6950751139377
 20
-391.8247288776298
 30
0.0
 11
724.0036672379136
 21
-302.5161367536548
 31
0.0
  0
LINE
  5
25E
330
1F
100
AcDbEntity
  8
0-0
  6
JWW_DASHED1
 62
   120
370
     5
100
AcDbLine
 10
627.6240073020745
 20
-391.8247288776264
 30
0.0
 11
724.0036672379068
 21
-295.445068941794
 31
0.0
  0
LINE
  5
25F
330
1F
100
AcDbEntity
  8
0-0
  6
JWW_DASHED1
 62
   120
370
     5
100
AcDbLine
 10
620.5529394901976
 20
-391.8247288776366
 30
0.0
 11
724.003667237917
 21
-288.3740011299171
 31
0.0
  0
LINE
  5
260
330
1F
100
AcDbEntity
  8
0-0
  6
JWW_DASHED1
 62
   120
370
     5
100
AcDbLine
 10
613.4818716783394
 20
-391.8247288776281
 30
0.0
 11
724.0036672379136
 21
-281.3029333180548
 31
0.0
  0
LINE
  5
261
330
1F
100
AcDbEntity
  8
0-0
  6
JWW_DASHED1
 62
   120
370
     5
100
AcDbLine
 10
606.4108038665205
 20
-391.8247288776341
 30
0.0
 11
724.003667237917
 21
-274.2318655062393
 31
0.0
  0
LINE
  5
262
330
1F
100
AcDbEntity
  8
0-0
  6
JWW_DASHED1
 62
   120
370
     5
100
AcDbLine
 10
599.3397360546572
 20
-391.8247288776315
 30
0.0
 11
724.0036672379102
 21
-267.1607976943785
 31
0.0
  0
LINE
  5
263
330
1F
100
AcDbEntity
  8
0-0
  6
JWW_DASHED1
 62
   120
370
     5
100
AcDbLine
 10
592.2686682427974
 20
-391.8247288776256
 30
0.0
 11
724.0036672379068
 21
-260.0897298825153
 31
0.0
  0
LINE
  5
264
330
1F
100
AcDbEntity
  8
0-0
  6
JWW_DASHED1
 62
   120
370
     5
100
AcDbLine
 10
585.1976004309239
 20
-391.8247288776315
 30
0.0
 11
724.0036672379136
 21
-253.0186620706409
 31
0.0
  0
LINE
  5
265
330
1F
100
AcDbEntity
  8
0-0
  6
JWW_DASHED1
 62
   120
370
     5
100
AcDbLine
 10
578.1265326190589
 20
-391.8247288776298
 30
0.0
 11
724.0036672379085
 21
-245.9475942587802
 31
0.0
  0
LINE
  5
266
330
1F
100
AcDbEntity
  8
0-0
  6
JWW_DASHED1
 62
   120
370
     5
100
AcDbLine
 10
571.055464807182
 20
-391.82472887764
 30
0.0
 11
724.0036672379188
 21
-238.8765264469033
 31
0.0
  0
LINE
  5
267
330
1F
100
AcDbEntity
  8
0-0
  6
JWW_DASHED1
 62
   120
370
     5
100
AcDbLine
 10
563.9843969953256
 20
-391.8247288776298
 30
0.0
 11
724.0036672379136
 21
-231.8054586350426
 31
0.0
  0
LINE
  5
268
330
1F
100
AcDbEntity
  8
0-0
  6
JWW_DASHED1
 62
   120
370
     5
100
AcDbLine
 10
556.9133291834606
 20
-391.8247288776281
 30
0.0
 11
724.0036672379068
 21
-224.7343908231819
 31
0.0
  0
LINE
  5
269
330
1F
100
AcDbEntity
  8
0-0
  6
JWW_DASHED1
 62
   120
370
     5
100
AcDbLine
 10
549.8422613715837
 20
-391.8247288776383
 30
0.0
 11
724.003667237917
 21
-217.663323011305
 31
0.0
  0
LINE
  5
26A
330
1F
100
AcDbEntity
  8
0-0
  6
JWW_DASHED1
 62
   120
370
     5
100
AcDbLine
 10
542.7711935597273
 20
-391.8247288776281
 30
0.0
 11
724.0036672379136
 21
-210.5922551994418
 31
0.0
  0
LINE
  5
26B
330
1F
100
AcDbEntity
  8
0-0
  6
JWW_DASHED1
 62
   120
370
     5
100
AcDbLine
 10
535.7001257478606
 20
-391.8247288776273
 30
0.0
 11
724.0036672379051
 21
-203.5211873875836
 31
0.0
  0
LINE
  5
26C
330
1F
100
AcDbEntity
  8
0-0
  6
JWW_DASHED1
 62
   120
370
     5
100
AcDbLine
 10
528.6290579359854
 20
-391.8247288776366
 30
0.0
 11
724.0036672379154
 21
-196.4501195757067
 31
0.0
  0
LINE
  5
26D
330
1F
100
AcDbEntity
  8
0-0
  6
JWW_DASHED1
 62
   120
370
     5
100
AcDbLine
 10
521.5579901241239
 20
-391.8247288776315
 30
0.0
 11
724.0036672379119
 21
-189.3790517638435
 31
0.0
  0
LINE
  5
26E
330
1F
100
AcDbEntity
  8
0-0
  6
JWW_DASHED1
 62
   120
370
     5
100
AcDbLine
 10
514.4869223122623
 20
-391.8247288776264
 30
0.0
 11
724.0036672379034
 21
-182.3079839519853
 31
0.0
  0
LINE
  5
26F
330
1F
100
AcDbEntity
  8
0-0
  6
JWW_DASHED1
 62
   120
370
     5
100
AcDbLine
 10
507.4158545003871
 20
-391.8247288776358
 30
0.0
 11
724.0036672379136
 21
-175.2369161401093
 31
0.0
  0
LINE
  5
270
330
1F
100
AcDbEntity
  8
0-0
  6
JWW_DASHED1
 62
   120
370
     5
100
AcDbLine
 10
500.3447866885256
 20
-391.8247288776298
 30
0.0
 11
724.0036672379102
 21
-168.1658483282443
 31
0.0
  0
LINE
  5
271
330
1F
100
AcDbEntity
  8
0-0
  6
JWW_DASHED1
 62
   120
370
     5
100
AcDbLine
 10
493.273718876664
 20
-391.8247288776247
 30
0.0
 11
724.0036672379
 21
-161.0947805163879
 31
0.0
  0
LINE
  5
272
330
1F
100
AcDbEntity
  8
0-0
  6
JWW_DASHED1
 62
   120
370
     5
100
AcDbLine
 10
486.2026510647871
 20
-391.8247288776341
 30
0.0
 11
724.0036672379102
 21
-154.023712704511
 31
0.0
  0
LINE
  5
273
330
1F
100
AcDbEntity
  8
0-0
  6
JWW_DASHED1
 62
   120
370
     5
100
AcDbLine
 10
479.1315832529273
 20
-391.824728877629
 30
0.0
 11
724.0036672379102
 21
-146.952644892646
 31
0.0
  0
LINE
  5
274
330
1F
100
AcDbEntity
  8
0-0
  6
JWW_DASHED1
 62
   120
370
     5
100
AcDbLine
 10
472.0605154410572
 20
-391.8247288776324
 30
0.0
 11
724.0036672379154
 21
-139.8815770807734
 31
0.0
  0
LINE
  5
275
330
1F
100
AcDbEntity
  8
0-0
  6
JWW_DASHED1
 62
   120
370
     5
100
AcDbLine
 10
464.9894476291888
 20
-391.8247288776332
 30
0.0
 11
724.0036672379102
 21
-132.8105092689127
 31
0.0
  0
LINE
  5
276
330
1F
100
AcDbEntity
  8
0-0
  6
JWW_DASHED1
 62
   120
370
     5
100
AcDbLine
 10
450.8473120054572
 20
-391.8247288776307
 30
0.0
 11
724.0036672379136
 21
-118.6683736451751
 31
0.0
  0
LINE
  5
277
330
1F
100
AcDbEntity
  8
0-0
  6
JWW_DASHED1
 62
   120
370
     5
100
AcDbLine
 10
443.7762441935905
 20
-391.8247288776324
 30
0.0
 11
724.0036672379068
 21
-111.5973058333144
 31
0.0
  0
LINE
  5
278
330
1F
100
AcDbEntity
  8
0-0
  6
JWW_DASHED1
 62
   120
370
     5
100
AcDbLine
 10
436.7051763817136
 20
-391.8247288776417
 30
0.0
 11
724.003667237917
 21
-104.5262380214375
 31
0.0
  0
LINE
  5
279
330
1F
100
AcDbEntity
  8
0-0
  6
JWW_DASHED1
 62
   120
370
     5
100
AcDbLine
 10
429.6341085698606
 20
-391.824728877629
 30
0.0
 11
724.0036672379119
 21
-97.45517020957763
 31
0.0
  0
LINE
  5
27A
330
1F
100
AcDbEntity
  8
0-0
  6
JWW_DASHED1
 62
   120
370
     5
100
AcDbLine
 10
422.5630407579905
 20
-391.8247288776307
 30
0.0
 11
724.0036672379051
 21
-90.38410239771693
 31
0.0
  0
LINE
  5
27B
330
1F
100
AcDbEntity
  8
0-0
  6
JWW_DASHED1
 62
   120
370
     5
100
AcDbLine
 10
415.4919729461136
 20
-391.824728877641
 30
0.0
 11
724.0036672379154
 21
-83.31303458584003
 31
0.0
  0
LINE
  5
27C
330
1F
100
AcDbEntity
  8
0-0
  6
JWW_DASHED1
 62
   120
370
     5
100
AcDbLine
 10
408.4209051342623
 20
-391.8247288776264
 30
0.0
 11
724.0036672379136
 21
-76.24196677397421
 31
0.0
  0
LINE
  5
27D
330
1F
100
AcDbEntity
  8
0-0
  6
JWW_DASHED1
 62
   120
370
     5
100
AcDbLine
 10
401.3498373223922
 20
-391.8247288776298
 30
0.0
 11
724.0036672379034
 21
-69.17089896211863
 31
0.0
  0
LINE
  5
27E
330
1F
100
AcDbEntity
  8
0-0
  6
JWW_DASHED1
 62
   120
370
     5
100
AcDbLine
 10
394.2787695105153
 20
-391.82472887764
 30
0.0
 11
724.0036672379136
 21
-62.09983115024173
 31
0.0
  0
LINE
  5
27F
330
1F
100
AcDbEntity
  8
0-0
  6
JWW_DASHED1
 62
   120
370
     5
100
AcDbLine
 10
387.2077016986538
 20
-391.8247288776341
 30
0.0
 11
724.0036672379136
 21
-55.02876333837591
 31
0.0
  0
LINE
  5
280
330
1F
100
AcDbEntity
  8
0-0
  6
JWW_DASHED1
 62
   120
370
     5
100
AcDbLine
 10
380.1366338867939
 20
-391.8247288776281
 30
0.0
 11
724.0036672379017
 21
-47.95769552652033
 31
0.0
  0
LINE
  5
281
330
1F
100
AcDbEntity
  8
0-0
  6
JWW_DASHED1
 62
   120
370
     5
100
AcDbLine
 10
373.065566074917
 20
-391.8247288776383
 30
0.0
 11
724.0036672379119
 21
-40.88662771464342
 31
0.0
  0
LINE
  5
282
330
1F
100
AcDbEntity
  8
0-0
  6
JWW_DASHED1
 62
   120
370
     5
100
AcDbLine
 10
365.9944982630861
 20
-391.8247288776298
 30
0.0
 11
724.0036672379102
 21
-33.8155599028066
 31
0.0
  0
LINE
  5
283
330
1F
100
AcDbEntity
  8
0-0
  6
JWW_DASHED1
 62
   120
370
     5
100
AcDbLine
 10
358.9234304512485
 20
-391.824728877629
 30
0.0
 11
724.0036672379119
 21
-26.74449209096551
 31
0.0
  0
LINE
  5
284
330
1F
100
AcDbEntity
  8
0-0
  6
JWW_DASHED1
 62
   120
370
     5
100
AcDbLine
 10
351.8523626393784
 20
-391.8247288776324
 30
0.0
 11
724.0036672379051
 21
-19.67342427910481
 31
0.0
  0
LINE
  5
285
330
1F
100
AcDbEntity
  8
0-0
  6
JWW_DASHED1
 62
   120
370
     5
100
AcDbLine
 10
344.7812948275015
 20
-391.8247288776427
 30
0.0
 11
724.0036672379154
 21
-12.60235646722791
 31
0.0
  0
LINE
  5
286
330
1F
100
AcDbEntity
  8
0-0
  6
JWW_DASHED1
 62
   120
370
     5
100
AcDbLine
 10
337.7102270156502
 20
-391.8247288776264
 30
0.0
 11
724.003667237917
 21
-5.531288655360385
 31
0.0
  0
LINE
  5
287
330
1F
100
AcDbEntity
  8
0-0
  6
JWW_DASHED1
 62
   120
370
     5
100
AcDbLine
 10
330.6391592037784
 20
-391.8247288776307
 30
0.0
 11
724.0036672379034
 21
1.539779156493495
 31
0.0
  0
LINE
  5
288
330
1F
100
AcDbEntity
  8
0-0
  6
JWW_DASHED1
 62
   120
370
     5
100
AcDbLine
 10
323.5680913919015
 20
-391.824728877641
 30
0.0
 11
724.0036672379136
 21
8.610846968370396
 31
0.0
  0
LINE
  5
289
330
1F
100
AcDbEntity
  8
0-0
  6
JWW_DASHED1
 62
   120
370
     5
100
AcDbLine
 10
316.4970235800416
 20
-391.8247288776358
 30
0.0
 11
724.0036672379136
 21
15.68191478023792
 31
0.0
  0
LINE
  5
28A
330
1F
100
AcDbEntity
  8
0-0
  6
JWW_DASHED1
 62
   120
370
     5
100
AcDbLine
 10
309.4259557681801
 20
-391.8247288776298
 30
0.0
 11
724.0036672379017
 21
22.7529825920918
 31
0.0
  0
LINE
  5
28B
330
1F
100
AcDbEntity
  8
0-0
  6
JWW_DASHED1
 62
   120
370
     5
100
AcDbLine
 10
302.3548879563032
 20
-391.82472887764
 30
0.0
 11
724.0036672379119
 21
29.8240504039687
 31
0.0
  0
LINE
  5
28C
330
1F
100
AcDbEntity
  8
0-0
  6
JWW_DASHED1
 62
   120
370
     5
100
AcDbLine
 10
295.2838201444416
 20
-391.8247288776341
 30
0.0
 11
724.0036672379136
 21
36.89511821583622
 31
0.0
  0
LINE
  5
28D
330
1F
100
AcDbEntity
  8
0-0
  6
JWW_DASHED1
 62
   120
370
     5
100
AcDbLine
 10
288.2127523325818
 20
-391.824728877629
 30
0.0
 11
724.0036672379
 21
43.9661860276901
 31
0.0
  0
LINE
  5
28E
330
1F
100
AcDbEntity
  8
0-0
  6
JWW_DASHED1
 62
   120
370
     5
100
AcDbLine
 10
281.1416845207049
 20
-391.8247288776392
 30
0.0
 11
724.0036672379102
 21
51.03725383956615
 31
0.0
  0
LINE
  5
28F
330
1F
100
AcDbEntity
  8
0-0
  6
JWW_DASHED1
 62
   120
370
     5
100
AcDbLine
 10
274.0706167088433
 20
-391.8247288776332
 30
0.0
 11
724.0036672379102
 21
58.10832165143452
 31
0.0
  0
LINE
  5
290
330
1F
100
AcDbEntity
  8
0-0
  6
JWW_DASHED1
 62
   120
370
     5
100
AcDbLine
 10
266.9995488969784
 20
-391.8247288776307
 30
0.0
 11
724.0036672379136
 21
65.17938946330375
 31
0.0
  0
LINE
  5
291
330
1F
100
AcDbEntity
  8
0-0
  6
JWW_DASHED1
 62
   120
370
     5
100
AcDbLine
 10
259.9284810851049
 20
-391.8247288776375
 30
0.0
 11
724.0036672379068
 21
72.25045727516445
 31
0.0
  0
LINE
  5
292
330
1F
100
AcDbEntity
  8
0-0
  6
JWW_DASHED1
 62
   120
370
     5
100
AcDbLine
 10
252.857413273228
 20
-391.8247288776478
 30
0.0
 11
724.003667237917
 21
79.32152508704135
 31
0.0
  0
LINE
  5
293
330
1F
100
AcDbEntity
  8
0-0
  6
JWW_DASHED1
 62
   120
370
     5
100
AcDbLine
 10
245.7863454613818
 20
-391.824728877629
 30
0.0
 11
724.0036672379119
 21
86.39259289890205
 31
0.0
  0
LINE
  5
294
330
1F
100
AcDbEntity
  8
0-0
  6
JWW_DASHED1
 62
   120
370
     5
100
AcDbLine
 10
238.7152776495066
 20
-391.8247288776366
 30
0.0
 11
724.0036672379068
 21
93.46366071076275
 31
0.0
  0
LINE
  5
295
330
1F
100
AcDbEntity
  8
0-0
  6
JWW_DASHED1
 62
   120
370
     5
100
AcDbLine
 10
231.6442098376314
 20
-391.8247288776461
 30
0.0
 11
724.003667237917
 21
100.5347285226397
 31
0.0
  0
LINE
  5
296
330
1F
100
AcDbEntity
  8
0-0
  6
JWW_DASHED1
 62
   120
370
     5
100
AcDbLine
 10
224.5731420257817
 20
-391.8247288776273
 30
0.0
 11
724.0036672379102
 21
107.6057963345004
 31
0.0
  0
LINE
  5
297
330
1F
100
AcDbEntity
  8
0-0
  6
JWW_DASHED1
 62
   120
370
     5
100
AcDbLine
 10
217.5020742139083
 20
-391.8247288776349
 30
0.0
 11
724.0036672379034
 21
114.6768641463611
 31
0.0
  0
LINE
  5
298
330
1F
100
AcDbEntity
  8
0-0
  6
JWW_DASHED1
 62
   120
370
     5
100
AcDbLine
 10
210.4310064020314
 20
-391.8247288776444
 30
0.0
 11
724.0036672379136
 21
121.747931958238
 31
0.0
  0
LINE
  5
299
330
1F
100
AcDbEntity
  8
0-0
  6
JWW_DASHED1
 62
   120
370
     5
100
AcDbLine
 10
203.3599385901852
 20
-391.8247288776256
 30
0.0
 11
724.003667237917
 21
128.8189997701072
 31
0.0
  0
LINE
  5
29A
330
1F
100
AcDbEntity
  8
0-0
  6
JWW_DASHED1
 62
   120
370
     5
100
AcDbLine
 10
196.2888707783083
 20
-391.8247288776341
 30
0.0
 11
724.0036672379034
 21
135.8900675819594
 31
0.0
  0
LINE
  5
29B
330
1F
100
AcDbEntity
  8
0-0
  6
JWW_DASHED1
 62
   120
370
     5
100
AcDbLine
 10
189.2178029664331
 20
-391.8247288776435
 30
0.0
 11
724.0036672379119
 21
142.9611353938354
 31
0.0
  0
LINE
  5
29C
330
1F
100
AcDbEntity
  8
0-0
  6
JWW_DASHED1
 62
   120
370
     5
100
AcDbLine
 10
182.1467351545715
 20
-391.8247288776375
 30
0.0
 11
724.0036672379154
 21
150.0322032057055
 31
0.0
  0
LINE
  5
29D
330
1F
100
AcDbEntity
  8
0-0
  6
JWW_DASHED1
 62
   120
370
     5
100
AcDbLine
 10
175.0756673427117
 20
-391.8247288776324
 30
0.0
 11
724.0036672379
 21
157.1032710175577
 31
0.0
  0
LINE
  5
29E
330
1F
100
AcDbEntity
  8
0-0
  6
JWW_DASHED1
 62
   120
370
     5
100
AcDbLine
 10
168.0045995308348
 20
-391.8247288776427
 30
0.0
 11
724.0036672379102
 21
164.1743388294337
 31
0.0
  0
LINE
  5
29F
330
1F
100
AcDbEntity
  8
0-0
  6
JWW_DASHED1
 62
   120
370
     5
100
AcDbLine
 10
160.9335317189732
 20
-391.8247288776366
 30
0.0
 11
724.0036672379136
 21
171.2454066413038
 31
0.0
  0
LINE
  5
2A0
330
1F
100
AcDbEntity
  8
0-0
  6
JWW_DASHED1
 62
   120
370
     5
100
AcDbLine
 10
153.8624639071116
 20
-391.8247288776315
 30
0.0
 11
724.0036672379136
 21
178.3164744531713
 31
0.0
  0
LINE
  5
2A1
330
1F
100
AcDbEntity
  8
0-0
  6
JWW_DASHED1
 62
   120
370
     5
100
AcDbLine
 10
146.7913960952347
 20
-391.824728877641
 30
0.0
 11
724.0036672379085
 21
185.387542265032
 31
0.0
  0
LINE
  5
2A2
330
1F
100
AcDbEntity
  8
0-0
  6
JWW_DASHED1
 62
   120
370
     5
100
AcDbLine
 10
139.7203282833749
 20
-391.8247288776358
 30
0.0
 11
724.0036672379119
 21
192.4586100769021
 31
0.0
  0
LINE
  5
2A3
330
1F
100
AcDbEntity
  8
0-0
  6
JWW_DASHED1
 62
   120
370
     5
100
AcDbLine
 10
134.0036672379114
 20
-390.4703221112318
 30
0.0
 11
724.0036672379136
 21
199.5296778887696
 31
0.0
  0
LINE
  5
2A4
330
1F
100
AcDbEntity
  8
0-0
  6
JWW_DASHED1
 62
   120
370
     5
100
AcDbLine
 10
134.0036672379216
 20
-383.3992542993558
 30
0.0
 11
724.0036672379068
 21
206.6007457006303
 31
0.0
  0
LINE
  5
2A5
330
1F
100
AcDbEntity
  8
0-0
  6
JWW_DASHED1
 62
   120
370
     5
100
AcDbLine
 10
134.0036672379267
 20
-376.3281864875377
 30
0.0
 11
724.0036672379119
 21
213.6718135124475
 31
0.0
  0
LINE
  5
2A6
330
1F
100
AcDbEntity
  8
0-0
  6
JWW_DASHED1
 62
   120
370
     5
100
AcDbLine
 10
134.0036672379216
 20
-369.257118675677
 30
0.0
 11
724.003667237917
 21
220.7428813243185
 31
0.0
  0
LINE
  5
2A7
330
1F
100
AcDbEntity
  8
0-0
  6
JWW_DASHED1
 62
   120
370
     5
100
AcDbLine
 10
134.0036672379148
 20
-362.1860508638163
 30
0.0
 11
724.0036672379
 21
227.8139491361689
 31
0.0
  0
LINE
  5
2A8
330
1F
100
AcDbEntity
  8
0-0
  6
JWW_DASHED1
 62
   120
370
     5
100
AcDbLine
 10
134.003667237925
 20
-355.1149830519394
 30
0.0
 11
724.0036672379102
 21
234.8850169480458
 31
0.0
  0
LINE
  5
2A9
330
1F
100
AcDbEntity
  8
0-0
  6
JWW_DASHED1
 62
   120
370
     5
100
AcDbLine
 10
134.0036672379182
 20
-348.0439152400787
 30
0.0
 11
724.0036672379154
 21
241.9560847599168
 31
0.0
  0
LINE
  5
2AA
330
1F
100
AcDbEntity
  8
0-0
  6
JWW_DASHED1
 62
   120
370
     5
100
AcDbLine
 10
134.0036672379131
 20
-340.972847428218
 30
0.0
 11
724.0036672379136
 21
249.0271525717834
 31
0.0
  0
LINE
  5
2AB
330
1F
100
AcDbEntity
  8
0-0
  6
JWW_DASHED1
 62
   120
370
     5
100
AcDbLine
 10
134.0036672379233
 20
-333.9017796163411
 30
0.0
 11
724.0036672379085
 21
256.0982203836442
 31
0.0
  0
LINE
  5
2AC
330
1F
100
AcDbEntity
  8
0-0
  6
JWW_DASHED1
 62
   120
370
     5
100
AcDbLine
 10
134.0036672379182
 20
-326.8307118044795
 30
0.0
 11
724.0036672379136
 21
263.169288195515
 31
0.0
  0
LINE
  5
2AD
330
1F
100
AcDbEntity
  8
0-0
  6
JWW_DASHED1
 62
   120
370
     5
100
AcDbLine
 10
134.0036672379114
 20
-319.7596439926197
 30
0.0
 11
724.0036672379136
 21
270.2403560073817
 31
0.0
  0
LINE
  5
2AE
330
1F
100
AcDbEntity
  8
0-0
  6
JWW_DASHED1
 62
   120
370
     5
100
AcDbLine
 10
134.0036672379216
 20
-312.6885761807437
 30
0.0
 11
724.0036672379068
 21
277.3114238192425
 31
0.0
  0
LINE
  5
2AF
330
1F
100
AcDbEntity
  8
0-0
  6
JWW_DASHED1
 62
   120
370
     5
100
AcDbLine
 10
134.0036672379318
 20
-305.6175083688668
 30
0.0
 11
724.003667237917
 21
284.3824916311185
 31
0.0
  0
LINE
  5
2B0
330
1F
100
AcDbEntity
  8
0-0
  6
JWW_DASHED1
 62
   120
370
     5
100
AcDbLine
 10
134.0036672379097
 20
-298.5464405570214
 30
0.0
 11
724.0036672379102
 21
291.4535594429792
 31
0.0
  0
LINE
  5
2B1
330
1F
100
AcDbEntity
  8
0-0
  6
JWW_DASHED1
 62
   120
370
     5
100
AcDbLine
 10
134.0036672379182
 20
-291.4753727451454
 30
0.0
 11
724.0036672379051
 21
298.5246272548408
 31
0.0
  0
LINE
  5
2B2
330
1F
100
AcDbEntity
  8
0-0
  6
JWW_DASHED1
 62
   120
370
     5
100
AcDbLine
 10
134.0036672379284
 20
-284.4043049332685
 30
0.0
 11
724.0036672379136
 21
305.5956950667168
 31
0.0
  0
LINE
  5
2B3
330
1F
100
AcDbEntity
  8
0-0
  6
JWW_DASHED1
 62
   120
370
     5
100
AcDbLine
 10
134.0036672379097
 20
-277.3332371214213
 30
0.0
 11
724.0036672379205
 21
312.6667628785895
 31
0.0
  0
LINE
  5
2B4
330
1F
100
AcDbEntity
  8
0-0
  6
JWW_DASHED1
 62
   120
370
     5
100
AcDbLine
 10
134.0036672379165
 20
-270.2621693095471
 30
0.0
 11
724.0036672379034
 21
319.7378306904382
 31
0.0
  0
LINE
  5
2B5
330
1F
100
AcDbEntity
  8
0-0
  6
JWW_DASHED1
 62
   120
370
     5
100
AcDbLine
 10
134.0036672379267
 20
-263.191101497671
 30
0.0
 11
724.0036672379136
 21
326.8088985023151
 31
0.0
  0
LINE
  5
2B6
330
1F
100
AcDbEntity
  8
0-0
  6
JWW_DASHED1
 62
   120
370
     5
100
AcDbLine
 10
134.0036672379233
 20
-256.1200336858077
 30
0.0
 11
724.0036672379188
 21
333.8799663141878
 31
0.0
  0
LINE
  5
2B7
330
1F
100
AcDbEntity
  8
0-0
  6
JWW_DASHED1
 62
   120
370
     5
100
AcDbLine
 10
134.0036672379148
 20
-249.0489658739487
 30
0.0
 11
724.0036672379
 21
340.9510341260365
 31
0.0
  0
LINE
  5
2B8
330
1F
100
AcDbEntity
  8
0-0
  6
JWW_DASHED1
 62
   120
370
     5
100
AcDbLine
 10
134.003667237925
 20
-241.9778980620727
 30
0.0
 11
724.0036672379102
 21
348.0221019379134
 31
0.0
  0
LINE
  5
2B9
330
1F
100
AcDbEntity
  8
0-0
  6
JWW_DASHED1
 62
   120
370
     5
100
AcDbLine
 10
134.0036672379216
 20
-234.9068302502094
 30
0.0
 11
724.003667237917
 21
355.0931697497861
 31
0.0
  0
LINE
  5
2BA
330
1F
100
AcDbEntity
  8
0-0
  6
JWW_DASHED1
 62
   120
370
     5
100
AcDbLine
 10
134.0036672379131
 20
-227.8357624383513
 30
0.0
 11
724.0036672379
 21
362.1642375616348
 31
0.0
  0
LINE
  5
2BB
330
1F
100
AcDbEntity
  8
0-0
  6
JWW_DASHED1
 62
   120
370
     5
100
AcDbLine
 10
134.0036672379233
 20
-220.7646946264744
 30
0.0
 11
724.0036672379102
 21
369.2353053735117
 31
0.0
  0
LINE
  5
2BC
330
1F
100
AcDbEntity
  8
0-0
  6
JWW_DASHED1
 62
   120
370
     5
100
AcDbLine
 10
134.0036672379199
 20
-213.6936268146103
 30
0.0
 11
724.0036672379154
 21
376.3063731853844
 31
0.0
  0
LINE
  5
2BD
330
1F
100
AcDbEntity
  8
0-0
  6
JWW_DASHED1
 62
   120
370
     5
100
AcDbLine
 10
134.0036672379114
 20
-206.622559002753
 30
0.0
 11
724.0036672379136
 21
383.3774409972484
 31
0.0
  0
LINE
  5
2BE
330
1F
100
AcDbEntity
  8
0-0
  6
JWW_DASHED1
 62
   120
370
     5
100
AcDbLine
 10
134.0036672379216
 20
-199.5514911908761
 30
0.0
 11
724.0036672379068
 21
390.4485088091092
 31
0.0
  0
LINE
  5
2BF
330
1F
100
AcDbEntity
  8
0-0
  6
JWW_DASHED1
 62
   120
370
     5
100
AcDbLine
 10
134.0036672379182
 20
-192.480423379012
 30
0.0
 11
724.0036672379136
 21
397.5195766209835
 31
0.0
  0
LINE
  5
2C0
330
1F
100
AcDbEntity
  8
0-0
  6
JWW_DASHED1
 62
   120
370
     5
100
AcDbLine
 10
134.0036672379097
 20
-185.4093555671547
 30
0.0
 11
724.0036672379102
 21
404.5906444328467
 31
0.0
  0
LINE
  5
2C1
330
1F
100
AcDbEntity
  8
0-0
  6
JWW_DASHED1
 62
   120
370
     5
100
AcDbLine
 10
134.0036672379199
 20
-178.3382877552778
 30
0.0
 11
724.0036672379051
 21
411.6617122447075
 31
0.0
  0
LINE
  5
2C2
330
1F
100
AcDbEntity
  8
0-0
  6
JWW_DASHED1
 62
   120
370
     5
100
AcDbLine
 10
134.0036672379284
 20
-171.2672199434017
 30
0.0
 11
724.0036672379154
 21
418.7327800565844
 31
0.0
  0
LINE
  5
2C3
330
1F
100
AcDbEntity
  8
0-0
  6
JWW_DASHED1
 62
   120
370
     5
100
AcDbLine
 10
134.003667237908
 20
-164.1961521315564
 30
0.0
 11
724.0036672379102
 21
425.803847868445
 31
0.0
  0
LINE
  5
2C4
330
1F
100
AcDbEntity
  8
0-0
  6
JWW_DASHED1
 62
   120
370
     5
100
AcDbLine
 10
134.0036672379182
 20
-157.1250843196803
 30
0.0
 11
724.0036672379034
 21
432.8749156803058
 31
0.0
  0
LINE
  5
2C5
330
1F
100
AcDbEntity
  8
0-0
  6
JWW_DASHED1
 62
   120
370
     5
100
AcDbLine
 10
134.0036672379284
 20
-150.0540165078034
 30
0.0
 11
724.0036672379136
 21
439.9459834921827
 31
0.0
  0
LINE
  5
2C6
330
1F
100
AcDbEntity
  8
0-0
  6
JWW_DASHED1
 62
   120
370
     5
100
AcDbLine
 10
134.0036672379233
 20
-142.9829486959675
 30
0.0
 11
724.0036672379188
 21
447.0170513040272
 31
0.0
  0
LINE
  5
2C7
330
1F
100
AcDbEntity
  8
0-0
  6
JWW_DASHED1
 62
   120
370
     5
100
AcDbLine
 10
134.0036672379114
 20
-135.9118808841409
 30
0.0
 11
724.0036672379136
 21
454.0881191158605
 31
0.0
  0
LINE
  5
2C8
330
1F
100
AcDbEntity
  8
0-0
  6
JWW_DASHED1
 62
   120
370
     5
100
AcDbLine
 10
134.0036672379216
 20
-128.840813072264
 30
0.0
 11
724.0036672379068
 21
461.1591869277213
 31
0.0
  0
LINE
  5
2C9
330
1F
100
AcDbEntity
  8
0-0
  6
JWW_DASHED1
 62
   120
370
     5
100
AcDbLine
 10
134.0036672379199
 20
-121.769745260399
 30
0.0
 11
724.0036672379154
 21
468.2302547395965
 31
0.0
  0
LINE
  5
2CA
330
1F
100
AcDbEntity
  8
0-0
  6
JWW_DASHED1
 62
   120
370
     5
100
AcDbLine
 10
134.0036672379097
 20
-114.6986774485426
 30
0.0
 11
724.0036672379102
 21
475.3013225514588
 31
0.0
  0
LINE
  5
2CB
330
1F
100
AcDbEntity
  8
0-0
  6
JWW_DASHED1
 62
   120
370
     5
100
AcDbLine
 10
134.0036672379199
 20
-107.6276096366657
 30
0.0
 11
724.0036672379051
 21
482.3723903633196
 31
0.0
  0
LINE
  5
2CC
330
1F
100
AcDbEntity
  8
0-0
  6
JWW_DASHED1
 62
   120
370
     5
100
AcDbLine
 10
134.0036672379284
 20
-100.5565418247896
 30
0.0
 11
724.0036672379154
 21
489.4434581751965
 31
0.0
  0
LINE
  5
2CD
330
1F
100
AcDbEntity
  8
0-0
  6
JWW_DASHED1
 62
   120
370
     5
100
AcDbLine
 10
134.003667237908
 20
-93.48547401294425
 30
0.0
 11
724.0036672379102
 21
496.5145259870571
 31
0.0
  0
LINE
  5
2CE
330
1F
100
AcDbEntity
  8
0-0
  6
JWW_DASHED1
 62
   120
370
     5
100
AcDbLine
 10
134.0036672379182
 20
-86.4144062010682
 30
0.0
 11
724.0036672379034
 21
503.5855937989179
 31
0.0
  0
LINE
  5
2CF
330
1F
100
AcDbEntity
  8
0-0
  6
JWW_DASHED1
 62
   120
370
     5
100
AcDbLine
 10
134.0036672379284
 20
-79.3433383891913
 30
0.0
 11
724.0036672379136
 21
510.6566616107948
 31
0.0
  0
LINE
  5
2D0
330
1F
100
AcDbEntity
  8
0-0
  6
JWW_DASHED1
 62
   120
370
     5
100
AcDbLine
 10
134.0036672379114
 20
-72.27227057734083
 30
0.0
 11
724.0036672379222
 21
517.72772942267
 31
0.0
  0
LINE
  5
2D1
330
1F
100
AcDbEntity
  8
0-0
  6
JWW_DASHED1
 62
   120
370
     5
100
AcDbLine
 10
134.0036672379148
 20
-65.2012027654699
 30
0.0
 11
724.0036672379017
 21
524.7987972345162
 31
0.0
  0
LINE
  5
2D2
330
1F
100
AcDbEntity
  8
0-0
  6
JWW_DASHED1
 62
   120
370
     5
100
AcDbLine
 10
134.003667237925
 20
-58.130134953593
 30
0.0
 11
724.0036672379119
 21
531.8698650463922
 31
0.0
  0
LINE
  5
2D3
330
1F
100
AcDbEntity
  8
0-0
  6
JWW_DASHED1
 62
   120
370
     5
100
AcDbLine
 10
134.003667237925
 20
-51.05906714172633
 30
0.0
 11
724.0036672379205
 21
538.9409328582683
 31
0.0
  0
LINE
  5
2D4
330
1F
100
AcDbEntity
  8
0-0
  6
JWW_DASHED1
 62
   120
370
     5
100
AcDbLine
 10
134.0036672379148
 20
-43.9879993298716
 30
0.0
 11
724.0036672379
 21
546.0120006701145
 31
0.0
  0
LINE
  5
2D5
330
1F
100
AcDbEntity
  8
0-0
  6
JWW_DASHED1
 62
   120
370
     5
100
AcDbLine
 10
134.003667237925
 20
-36.9169315179947
 30
0.0
 11
724.0036672379102
 21
553.0830684819905
 31
0.0
  0
LINE
  5
2D6
330
1F
100
AcDbEntity
  8
0-0
  6
JWW_DASHED1
 62
   120
370
     5
100
AcDbLine
 10
134.003667237925
 20
-29.84586370612803
 30
0.0
 11
724.0036672379188
 21
560.1541362938666
 31
0.0
  0
LINE
  5
2D7
330
1F
100
AcDbEntity
  8
0-0
  6
JWW_DASHED1
 62
   120
370
     5
100
AcDbLine
 10
134.0036672379114
 20
-22.7747958942733
 30
0.0
 11
724.0036672378983
 21
567.2252041057119
 31
0.0
  0
LINE
  5
2D8
330
1F
100
AcDbEntity
  8
0-0
  6
JWW_DASHED1
 62
   120
370
     5
100
AcDbLine
 10
134.0036672379216
 20
-15.7037280823964
 30
0.0
 11
724.0036672379068
 21
574.2962719175888
 31
0.0
  0
LINE
  5
2D9
330
1F
100
AcDbEntity
  8
0-0
  6
JWW_DASHED1
 62
   120
370
     5
100
AcDbLine
 10
134.0036672379216
 20
-8.632660270529726
 30
0.0
 11
724.003667237917
 21
581.3673397294657
 31
0.0
  0
LINE
  5
2DA
330
1F
100
AcDbEntity
  8
0-0
  6
JWW_DASHED1
 62
   120
370
     5
100
AcDbLine
 10
134.0036672379114
 20
-1.561592458674994
 30
0.0
 11
718.7405308189574
 21
583.1752711223719
 31
0.0
  0
LINE
  5
2DB
330
1F
100
AcDbEntity
  8
0-0
  6
JWW_DASHED1
 62
   120
370
     5
100
AcDbLine
 10
134.0036672379199
 20
5.509475353201054
 30
0.0
 11
711.6694630070958
 21
583.175271122377
 31
0.0
  0
LINE
  5
2DC
330
1F
100
AcDbEntity
  8
0-0
  6
JWW_DASHED1
 62
   120
370
     5
100
AcDbLine
 10
134.0036672379301
 20
12.58054316507796
 30
0.0
 11
704.5983951952189
 21
583.1752711223668
 31
0.0
  0
LINE
  5
2DD
330
1F
100
AcDbEntity
  8
0-0
  6
JWW_DASHED1
 62
   120
370
     5
100
AcDbLine
 10
134.003667237908
 20
19.65161097692331
 30
0.0
 11
697.5273273833591
 21
583.1752711223736
 31
0.0
  0
LINE
  5
2DE
330
1F
100
AcDbEntity
  8
0-0
  6
JWW_DASHED1
 62
   120
370
     5
100
AcDbLine
 10
134.0036672379182
 20
26.72267878879936
 30
0.0
 11
690.4562595714975
 21
583.1752711223787
 31
0.0
  0
LINE
  5
2DF
330
1F
100
AcDbEntity
  8
0-0
  6
JWW_DASHED1
 62
   120
370
     5
100
AcDbLine
 10
134.0036672379284
 20
33.79374660067626
 30
0.0
 11
683.3851917596206
 21
583.1752711223685
 31
0.0
  0
LINE
  5
2E0
330
1F
100
AcDbEntity
  8
0-0
  6
JWW_DASHED1
 62
   120
370
     5
100
AcDbLine
 10
134.0036672379063
 20
40.86481441252076
 30
0.0
 11
676.3141239477608
 21
583.1752711223753
 31
0.0
  0
LINE
  5
2E1
330
1F
100
AcDbEntity
  8
0-0
  6
JWW_DASHED1
 62
   120
370
     5
100
AcDbLine
 10
134.0036672379165
 20
47.93588222439766
 30
0.0
 11
669.2430561358975
 21
583.1752711223795
 31
0.0
  0
LINE
  5
2E2
330
1F
100
AcDbEntity
  8
0-0
  6
JWW_DASHED1
 62
   120
370
     5
100
AcDbLine
 10
134.003667237925
 20
55.00695003627371
 30
0.0
 11
662.1719883240206
 21
583.1752711223693
 31
0.0
  0
LINE
  5
2E3
330
1F
100
AcDbEntity
  8
0-0
  6
JWW_DASHED1
 62
   120
370
     5
100
AcDbLine
 10
134.0036672379114
 20
62.07801784812673
 30
0.0
 11
655.1009205121471
 21
583.1752711223617
 31
0.0
  0
LINE
  5
2E4
330
1F
100
AcDbEntity
  8
0-0
  6
JWW_DASHED1
 62
   120
370
     5
100
AcDbLine
 10
134.0036672379148
 20
69.14908565999596
 30
0.0
 11
648.0298527003009
 21
583.1752711223812
 31
0.0
  0
LINE
  5
2E5
330
1F
100
AcDbEntity
  8
0-0
  6
JWW_DASHED1
 62
   120
370
     5
100
AcDbLine
 10
134.003667237925
 20
76.22015347187286
 30
0.0
 11
640.958784888424
 21
583.175271122371
 31
0.0
  0
LINE
  5
2E6
330
1F
100
AcDbEntity
  8
0-0
  6
JWW_DASHED1
 62
   120
370
     5
100
AcDbLine
 10
134.0036672379267
 20
83.29122128374124
 30
0.0
 11
633.8877170765471
 21
583.1752711223608
 31
0.0
  0
LINE
  5
2E7
330
1F
100
AcDbEntity
  8
0-0
  6
JWW_DASHED1
 62
   120
370
     5
100
AcDbLine
 10
134.0036672379131
 20
90.36228909559426
 30
0.0
 11
626.8166492647009
 21
583.1752711223821
 31
0.0
  0
LINE
  5
2E8
330
1F
100
AcDbEntity
  8
0-0
  6
JWW_DASHED1
 62
   120
370
     5
100
AcDbLine
 10
134.0036672379216
 20
97.43335690747031
 30
0.0
 11
619.745581452824
 21
583.1752711223719
 31
0.0
  0
LINE
  5
2E9
330
1F
100
AcDbEntity
  8
0-0
  6
JWW_DASHED1
 62
   120
370
     5
100
AcDbLine
 10
134.0036672379216
 20
104.5044247193097
 30
0.0
 11
612.6745136409778
 21
583.1752711223642
 31
0.0
  0
LINE
  5
2EA
330
1F
100
AcDbEntity
  8
0-0
  6
JWW_DASHED1
 62
   120
370
     5
100
AcDbLine
 10
134.0036672379063
 20
111.5754925311329
 30
0.0
 11
605.6034458291487
 21
583.1752711223753
 31
0.0
  0
LINE
  5
2EB
330
1F
100
AcDbEntity
  8
0-0
  6
JWW_DASHED1
 62
   120
370
     5
100
AcDbLine
 10
134.0036672379165
 20
118.6465603430098
 30
0.0
 11
598.5323780172854
 21
583.1752711223778
 31
0.0
  0
LINE
  5
2EC
330
1F
100
AcDbEntity
  8
0-0
  6
JWW_DASHED1
 62
   120
370
     5
100
AcDbLine
 10
134.003667237925
 20
125.7176281548858
 30
0.0
 11
591.4613102054085
 21
583.1752711223676
 31
0.0
  0
LINE
  5
2ED
330
1F
100
AcDbEntity
  8
0-0
  6
JWW_DASHED1
 62
   120
370
     5
100
AcDbLine
 10
134.0036672379131
 20
132.7886959667397
 30
0.0
 11
584.390242393535
 21
583.1752711223617
 31
0.0
  0
LINE
  5
2EE
330
1F
100
AcDbEntity
  8
0-0
  6
JWW_DASHED1
 62
   120
370
     5
100
AcDbLine
 10
134.0036672379148
 20
139.8597637786081
 30
0.0
 11
577.3191745816854
 21
583.1752711223795
 31
0.0
  0
LINE
  5
2EF
330
1F
100
AcDbEntity
  8
0-0
  6
JWW_DASHED1
 62
   120
370
     5
100
AcDbLine
 10
134.003667237925
 20
146.9308315904841
 30
0.0
 11
570.2481067698085
 21
583.1752711223693
 31
0.0
  0
LINE
  5
2F0
330
1F
100
AcDbEntity
  8
0-0
  6
JWW_DASHED1
 62
   120
370
     5
100
AcDbLine
 10
134.0036672379267
 20
154.0018994023542
 30
0.0
 11
563.1770389579316
 21
583.175271122359
 31
0.0
  0
LINE
  5
2F1
330
1F
100
AcDbEntity
  8
0-0
  6
JWW_DASHED1
 62
   120
370
     5
100
AcDbLine
 10
134.0036672379114
 20
161.0729672142055
 30
0.0
 11
556.1059711460871
 21
583.1752711223804
 31
0.0
  0
LINE
  5
2F2
330
1F
100
AcDbEntity
  8
0-0
  6
JWW_DASHED1
 62
   120
370
     5
100
AcDbLine
 10
134.0036672379216
 20
168.1440350260824
 30
0.0
 11
549.0349033342102
 21
583.1752711223702
 31
0.0
  0
LINE
  5
2F3
330
1F
100
AcDbEntity
  8
0-0
  6
JWW_DASHED1
 62
   120
370
     5
100
AcDbLine
 10
134.003667237925
 20
175.2151028379525
 30
0.0
 11
541.9638355223333
 21
583.17527112236
 31
0.0
  0
LINE
  5
2F4
330
1F
100
AcDbEntity
  8
0-0
  6
JWW_DASHED1
 62
   120
370
     5
100
AcDbLine
 10
134.0036672379114
 20
182.2861706498038
 30
0.0
 11
534.8927677104786
 21
583.175271122371
 31
0.0
  0
LINE
  5
2F5
330
1F
100
AcDbEntity
  8
0-0
  6
JWW_DASHED1
 62
   120
370
     5
100
AcDbLine
 10
134.0036672379216
 20
189.3572384616807
 30
0.0
 11
527.8216998986119
 21
583.1752711223719
 31
0.0
  0
LINE
  5
2F6
330
1F
100
AcDbEntity
  8
0-0
  6
JWW_DASHED1
 62
   120
370
     5
100
AcDbLine
 10
134.003667237925
 20
196.4283062735508
 30
0.0
 11
520.750632086735
 21
583.1752711223617
 31
0.0
  0
LINE
  5
2F7
330
1F
100
AcDbEntity
  8
0-0
  6
JWW_DASHED1
 62
   120
370
     5
100
AcDbLine
 10
134.003667237908
 20
203.4993740854021
 30
0.0
 11
513.6795642748785
 21
583.1752711223727
 31
0.0
  0
LINE
  5
2F8
330
1F
100
AcDbEntity
  8
0-0
  6
JWW_DASHED1
 62
   120
370
     5
100
AcDbLine
 10
134.0036672379182
 20
210.570441897279
 30
0.0
 11
506.6084964630119
 21
583.1752711223727
 31
0.0
  0
LINE
  5
2F9
330
1F
100
AcDbEntity
  8
0-0
  6
JWW_DASHED1
 62
   120
370
     5
100
AcDbLine
 10
134.0036672379284
 20
217.6415097091551
 30
0.0
 11
499.537428651135
 21
583.1752711223625
 31
0.0
  0
LINE
  5
2FA
330
1F
100
AcDbEntity
  8
0-0
  6
JWW_DASHED1
 62
   120
370
     5
100
AcDbLine
 10
134.003667237908
 20
224.7125775210004
 30
0.0
 11
492.4663608392819
 21
583.1752711223744
 31
0.0
  0
LINE
  5
2FB
330
1F
100
AcDbEntity
  8
0-0
  6
JWW_DASHED1
 62
   120
370
     5
100
AcDbLine
 10
134.0036672379165
 20
231.7836453328765
 30
0.0
 11
485.3952930274153
 21
583.1752711223744
 31
0.0
  0
LINE
  5
2FC
330
1F
100
AcDbEntity
  8
0-0
  6
JWW_DASHED1
 62
   120
370
     5
100
AcDbLine
 10
134.0036672379267
 20
238.8547131447534
 30
0.0
 11
478.3242252155384
 21
583.1752711223642
 31
0.0
  0
LINE
  5
2FD
330
1F
100
AcDbEntity
  8
0-0
  6
JWW_DASHED1
 62
   120
370
     5
100
AcDbLine
 10
134.0036672379148
 20
245.925780956609
 30
0.0
 11
471.2531574036683
 21
583.1752711223608
 31
0.0
  0
LINE
  5
2FE
330
1F
100
AcDbEntity
  8
0-0
  6
JWW_DASHED1
 62
   120
370
     5
100
AcDbLine
 10
134.0036672379148
 20
252.9968487684748
 30
0.0
 11
464.1820895918153
 21
583.1752711223753
 31
0.0
  0
LINE
  5
2FF
330
1F
100
AcDbEntity
  8
0-0
  6
JWW_DASHED1
 62
   120
370
     5
100
AcDbLine
 10
134.003667237925
 20
260.0679165803517
 30
0.0
 11
457.1110217799384
 21
583.1752711223659
 31
0.0
  0
LINE
  5
300
330
1F
100
AcDbEntity
  8
0-0
  6
JWW_DASHED1
 62
   120
370
     5
100
AcDbLine
 10
134.0036672379284
 20
267.1389843922226
 30
0.0
 11
450.0399539680615
 21
583.1752711223556
 31
0.0
  0
LINE
  5
301
330
1F
100
AcDbEntity
  8
0-0
  6
JWW_DASHED1
 62
   120
370
     5
100
AcDbLine
 10
134.0036672379131
 20
274.2100522040731
 30
0.0
 11
442.968886156217
 21
583.175271122377
 31
0.0
  0
LINE
  5
302
330
1F
100
AcDbEntity
  8
0-0
  6
JWW_DASHED1
 62
   120
370
     5
100
AcDbLine
 10
134.0036672379233
 20
281.28112001595
 30
0.0
 11
435.8978183443401
 21
583.1752711223668
 31
0.0
  0
LINE
  5
303
330
1F
100
AcDbEntity
  8
0-0
  6
JWW_DASHED1
 62
   120
370
     5
100
AcDbLine
 10
134.0036672379284
 20
288.3521878278218
 30
0.0
 11
428.8267505324632
 21
583.1752711223565
 31
0.0
  0
LINE
  5
304
330
1F
100
AcDbEntity
  8
0-0
  6
JWW_DASHED1
 62
   120
370
     5
100
AcDbLine
 10
134.0036672379114
 20
295.4232556396714
 30
0.0
 11
421.7556827206187
 21
583.1752711223778
 31
0.0
  0
LINE
  5
305
330
1F
100
AcDbEntity
  8
0-0
  6
JWW_DASHED1
 62
   120
370
     5
100
AcDbLine
 10
134.0036672379216
 20
302.4943234515474
 30
0.0
 11
414.6846149087418
 21
583.1752711223685
 31
0.0
  0
LINE
  5
306
330
1F
100
AcDbEntity
  8
0-0
  6
JWW_DASHED1
 62
   120
370
     5
100
AcDbLine
 10
134.0036672379267
 20
309.5653912634201
 30
0.0
 11
407.6135470968649
 21
583.1752711223583
 31
0.0
  0
LINE
  5
307
330
1F
100
AcDbEntity
  8
0-0
  6
JWW_DASHED1
 62
   120
370
     5
100
AcDbLine
 10
134.0036672379097
 20
316.6364590752697
 30
0.0
 11
400.5424792850118
 21
583.1752711223727
 31
0.0
  0
LINE
  5
308
330
1F
100
AcDbEntity
  8
0-0
  6
JWW_DASHED1
 62
   120
370
     5
100
AcDbLine
 10
134.0036672379199
 20
323.7075268871457
 30
0.0
 11
393.4714114731418
 21
583.1752711223693
 31
0.0
  0
LINE
  5
309
330
1F
100
AcDbEntity
  8
0-0
  6
JWW_DASHED1
 62
   120
370
     5
100
AcDbLine
 10
134.003667237925
 20
330.7785946990184
 30
0.0
 11
386.4003436612649
 21
583.175271122359
 31
0.0
  0
LINE
  5
30A
330
1F
100
AcDbEntity
  8
0-0
  6
JWW_DASHED1
 62
   120
370
     5
100
AcDbLine
 10
134.0036672379216
 20
337.8496625108535
 30
0.0
 11
379.3292758494357
 21
583.1752711223676
 31
0.0
  0
LINE
  5
30B
330
1F
100
AcDbEntity
  8
0-0
  6
JWW_DASHED1
 62
   120
370
     5
100
AcDbLine
 10
134.0036672379131
 20
344.9207303226852
 30
0.0
 11
372.2582080376031
 21
583.1752711223753
 31
0.0
  0
LINE
  5
30C
330
1F
100
AcDbEntity
  8
0-0
  6
JWW_DASHED1
 62
   120
370
     5
100
AcDbLine
 10
134.0036672379233
 20
351.9917981345621
 30
0.0
 11
365.1871402257262
 21
583.1752711223651
 31
0.0
  0
LINE
  5
30D
330
1F
100
AcDbEntity
  8
0-0
  6
JWW_DASHED1
 62
   120
370
     5
100
AcDbLine
 10
134.0036672379284
 20
359.0628659464347
 30
0.0
 11
358.1160724138493
 21
583.1752711223548
 31
0.0
  0
LINE
  5
30E
330
1F
100
AcDbEntity
  8
0-0
  6
JWW_DASHED1
 62
   120
370
     5
100
AcDbLine
 10
134.0036672379114
 20
366.1339337582835
 30
0.0
 11
351.0450046020031
 21
583.1752711223761
 31
0.0
  0
LINE
  5
30F
330
1F
100
AcDbEntity
  8
0-0
  6
JWW_DASHED1
 62
   120
370
     5
100
AcDbLine
 10
134.0036672379216
 20
373.2050015701595
 30
0.0
 11
343.9739367901262
 21
583.1752711223659
 31
0.0
  0
LINE
  5
310
330
1F
100
AcDbEntity
  8
0-0
  6
JWW_DASHED1
 62
   120
370
     5
100
AcDbLine
 10
134.0036672379284
 20
380.2760693820339
 30
0.0
 11
336.902868978251
 21
583.1752711223565
 31
0.0
  0
LINE
  5
311
330
1F
100
AcDbEntity
  8
0-0
  6
JWW_DASHED1
 62
   120
370
     5
100
AcDbLine
 10
134.0036672379097
 20
387.3471371938818
 30
0.0
 11
329.8318011663997
 21
583.1752711223727
 31
0.0
  0
LINE
  5
312
330
1F
100
AcDbEntity
  8
0-0
  6
JWW_DASHED1
 62
   120
370
     5
100
AcDbLine
 10
134.0036672379199
 20
394.4182050057588
 30
0.0
 11
322.7607333545296
 21
583.1752711223676
 31
0.0
  0
LINE
  5
313
330
1F
100
AcDbEntity
  8
0-0
  6
JWW_DASHED1
 62
   120
370
     5
100
AcDbLine
 10
134.0036672379267
 20
401.4892728176313
 30
0.0
 11
315.6896655426527
 21
583.1752711223573
 31
0.0
  0
LINE
  5
314
330
1F
100
AcDbEntity
  8
0-0
  6
JWW_DASHED1
 62
   120
370
     5
100
AcDbLine
 10
134.003667237908
 20
408.5603406294792
 30
0.0
 11
308.6185977308031
 21
583.1752711223744
 31
0.0
  0
LINE
  5
315
330
1F
100
AcDbEntity
  8
0-0
  6
JWW_DASHED1
 62
   120
370
     5
100
AcDbLine
 10
134.0036672379182
 20
415.6314084413561
 30
0.0
 11
301.5475299189296
 21
583.1752711223693
 31
0.0
  0
LINE
  5
316
330
1F
100
AcDbEntity
  8
0-0
  6
JWW_DASHED1
 62
   120
370
     5
100
AcDbLine
 10
134.0036672379284
 20
422.702476253233
 30
0.0
 11
294.4764621070527
 21
583.175271122359
 31
0.0
  0
LINE
  5
317
330
1F
100
AcDbEntity
  8
0-0
  6
JWW_DASHED1
 62
   120
370
     5
100
AcDbLine
 10
134.0036672379063
 20
429.7735440650785
 30
0.0
 11
287.4053942952031
 21
583.1752711223761
 31
0.0
  0
LINE
  5
318
330
1F
100
AcDbEntity
  8
0-0
  6
JWW_DASHED1
 62
   120
370
     5
100
AcDbLine
 10
134.0036672379148
 20
436.8446118769544
 30
0.0
 11
280.3343264833313
 21
583.1752711223702
 31
0.0
  0
LINE
  5
319
330
1F
100
AcDbEntity
  8
0-0
  6
JWW_DASHED1
 62
   120
370
     5
100
AcDbLine
 10
134.003667237925
 20
443.9156796888306
 30
0.0
 11
273.2632586714544
 21
583.17527112236
 31
0.0
  0
LINE
  5
31A
330
1F
100
AcDbEntity
  8
0-0
  6
JWW_DASHED1
 62
   120
370
     5
100
AcDbLine
 10
134.0036672379182
 20
450.9867475006895
 30
0.0
 11
266.1921908595895
 21
583.1752711223625
 31
0.0
  0
LINE
  5
31B
330
1F
100
AcDbEntity
  8
0-0
  6
JWW_DASHED1
 62
   120
370
     5
100
AcDbLine
 10
134.0036672379148
 20
458.0578153125527
 30
0.0
 11
259.121123047733
 21
583.1752711223719
 31
0.0
  0
LINE
  5
31C
330
1F
100
AcDbEntity
  8
0-0
  6
JWW_DASHED1
 62
   120
370
     5
100
AcDbLine
 10
134.0036672379233
 20
465.1288831244289
 30
0.0
 11
252.0500552358561
 21
583.1752711223617
 31
0.0
  0
LINE
  5
31D
330
1F
100
AcDbEntity
  8
0-0
  6
JWW_DASHED1
 62
   120
370
     5
100
AcDbLine
 10
134.0036672379318
 20
472.199950936304
 30
0.0
 11
244.9789874239792
 21
583.1752711223514
 31
0.0
  0
LINE
  5
31E
330
1F
100
AcDbEntity
  8
0-0
  6
JWW_DASHED1
 62
   120
370
     5
100
AcDbLine
 10
134.0036672379114
 20
479.2710187481503
 30
0.0
 11
237.907919612133
 21
583.1752711223727
 31
0.0
  0
LINE
  5
31F
330
1F
100
AcDbEntity
  8
0-0
  6
JWW_DASHED1
 62
   120
370
     5
100
AcDbLine
 10
134.0036672379216
 20
486.3420865600272
 30
0.0
 11
230.8368518002561
 21
583.1752711223625
 31
0.0
  0
LINE
  5
320
330
1F
100
AcDbEntity
  8
0-0
  6
JWW_DASHED1
 62
   120
370
     5
100
AcDbLine
 10
134.0036672379301
 20
493.4131543719024
 30
0.0
 11
223.7657839883792
 21
583.1752711223522
 31
0.0
  0
LINE
  5
321
330
1F
100
AcDbEntity
  8
0-0
  6
JWW_DASHED1
 62
   120
370
     5
100
AcDbLine
 10
134.0036672379097
 20
500.4842221837486
 30
0.0
 11
216.694716176533
 21
583.1752711223719
 31
0.0
  0
LINE
  5
322
330
1F
100
AcDbEntity
  8
0-0
  6
JWW_DASHED1
 62
   120
370
     5
100
AcDbLine
 10
134.0036672379199
 20
507.5552899956255
 30
0.0
 11
209.6236483646595
 21
583.1752711223642
 31
0.0
  0
LINE
  5
323
330
1F
100
AcDbEntity
  8
0-0
  6
JWW_DASHED1
 62
   120
370
     5
100
AcDbLine
 10
134.0036672379284
 20
514.6263578075007
 30
0.0
 11
202.5525805527826
 21
583.1752711223539
 31
0.0
  0
LINE
  5
324
330
1F
100
AcDbEntity
  8
0-0
  6
JWW_DASHED1
 62
   120
370
     5
100
AcDbLine
 10
134.003667237908
 20
521.6974256193469
 30
0.0
 11
195.4815127409347
 21
583.1752711223736
 31
0.0
  0
LINE
  5
325
330
1F
100
AcDbEntity
  8
0-0
  6
JWW_DASHED1
 62
   120
370
     5
100
AcDbLine
 10
134.0036672379182
 20
528.7684934312238
 30
0.0
 11
188.4104449290595
 21
583.1752711223651
 31
0.0
  0
LINE
  5
326
330
1F
100
AcDbEntity
  8
0-0
  6
JWW_DASHED1
 62
   120
370
     5
100
AcDbLine
 10
134.0036672379284
 20
535.8395612430998
 30
0.0
 11
181.3393771171826
 21
583.1752711223548
 31
0.0
  0
LINE
  5
327
330
1F
100
AcDbEntity
  8
0-0
  6
JWW_DASHED1
 62
   120
370
     5
100
AcDbLine
 10
134.0036672379063
 20
542.9106290549452
 30
0.0
 11
174.2683093053364
 21
583.1752711223753
 31
0.0
  0
LINE
  5
328
330
1F
100
AcDbEntity
  8
0-0
  6
JWW_DASHED1
 62
   120
370
     5
100
AcDbLine
 10
134.0036672379165
 20
549.9816968668221
 30
0.0
 11
167.1972414934612
 21
583.1752711223668
 31
0.0
  0
LINE
  5
329
330
1F
100
AcDbEntity
  8
0-0
  6
JWW_DASHED1
 62
   120
370
     5
100
AcDbLine
 10
134.003667237925
 20
557.052764678698
 30
0.0
 11
160.1261736815843
 21
583.1752711223565
 31
0.0
  0
LINE
  5
32A
330
1F
100
AcDbEntity
  8
0-0
  6
JWW_DASHED1
 62
   120
370
     5
100
AcDbLine
 10
134.0036672379199
 20
564.1238324905588
 30
0.0
 11
153.0551058697228
 21
583.1752711223617
 31
0.0
  0
LINE
  5
32B
330
1F
100
AcDbEntity
  8
0-0
  6
JWW_DASHED1
 62
   120
370
     5
100
AcDbLine
 10
134.0036672379148
 20
571.1949003024195
 30
0.0
 11
145.9840380578629
 21
583.1752711223676
 31
0.0
  0
LINE
  5
32C
330
1F
100
AcDbEntity
  8
0-0
  6
JWW_DASHED1
 62
   120
370
     5
100
AcDbLine
 10
134.003667237925
 20
578.2659681142964
 30
0.0
 11
138.912970245986
 21
583.1752711223583
 31
0.0
  0
LINE
  5
32D
330
1F
100
AcDbEntity
  8
0-0
  6
JWW_DASHED1
 62
   120
370
     5
100
AcDbLine
 10
457.9183798173273
 20
-391.8247288776281
 30
0.0
 11
724.0036672379068
 21
-125.7394414570477
 31
0.0
  0
LINE
  5
32E
330
1F
100
AcDbEntity
  8
0-0
  6
Continuous
 62
    92
370
    13
100
AcDbLine
 10
134.0036672379182
 20
-521.8247288776378
 30
0.0
 11
724.0036672379205
 21
-521.8247288776378
 31
0.0
  0
LINE
  5
32F
330
1F
100
AcDbEntity
  8
0-0
  6
Continuous
 62
    92
370
    13
100
AcDbLine
 10
914.0036672379182
 20
-391.8247288776375
 30
0.0
 11
1504.003667237921
 21
-391.8247288776375
 31
0.0
  0
LINE
  5
330
330
1F
100
AcDbEntity
  8
0-0
  6
JWW_DASHED1
 62
   120
370
     5
100
AcDbLine
 10
1499.547888856346
 20
-391.8247288776213
 30
0.0
 11
1504.003667237904
 21
-387.3689504960633
 31
0.0
  0
LINE
  5
331
330
1F
100
AcDbEntity
  8
0-0
  6
JWW_DASHED1
 62
   120
370
     5
100
AcDbLine
 10
1492.476821044469
 20
-391.8247288776324
 30
0.0
 11
1504.003667237914
 21
-380.2978826841864
 31
0.0
  0
LINE
  5
332
330
1F
100
AcDbEntity
  8
0-0
  6
JWW_DASHED1
 62
   120
370
     5
100
AcDbLine
 10
1485.405753232608
 20
-391.8247288776264
 30
0.0
 11
1504.003667237909
 21
-373.2268148723257
 31
0.0
  0
LINE
  5
333
330
1F
100
AcDbEntity
  8
0-0
  6
JWW_DASHED1
 62
   120
370
     5
100
AcDbLine
 10
1478.334685420747
 20
-391.8247288776205
 30
0.0
 11
1504.003667237903
 21
-366.155747060465
 31
0.0
  0
LINE
  5
334
330
1F
100
AcDbEntity
  8
0-0
  6
JWW_DASHED1
 62
   120
370
     5
100
AcDbLine
 10
1471.26361760887
 20
-391.8247288776307
 30
0.0
 11
1504.003667237913
 21
-359.0846792485881
 31
0.0
  0
LINE
  5
335
330
1F
100
AcDbEntity
  8
0-0
  6
JWW_DASHED1
 62
   120
370
     5
100
AcDbLine
 10
1464.19254979701
 20
-391.8247288776247
 30
0.0
 11
1504.003667237908
 21
-352.0136114367266
 31
0.0
  0
LINE
  5
336
330
1F
100
AcDbEntity
  8
0-0
  6
JWW_DASHED1
 62
   120
370
     5
100
AcDbLine
 10
1457.121481985133
 20
-391.8247288776341
 30
0.0
 11
1504.003667237916
 21
-344.9425436248514
 31
0.0
  0
LINE
  5
337
330
1F
100
AcDbEntity
  8
0-0
  6
JWW_DASHED1
 62
   120
370
     5
100
AcDbLine
 10
1450.050414173271
 20
-391.824728877629
 30
0.0
 11
1504.00366723791
 21
-337.8714758129906
 31
0.0
  0
LINE
  5
338
330
1F
100
AcDbEntity
  8
0-0
  6
JWW_DASHED1
 62
   120
370
     5
100
AcDbLine
 10
1442.979346361411
 20
-391.824728877623
 30
0.0
 11
1504.003667237906
 21
-330.8004080011283
 31
0.0
  0
LINE
  5
339
330
1F
100
AcDbEntity
  8
0-0
  6
JWW_DASHED1
 62
   120
370
     5
100
AcDbLine
 10
1435.908278549536
 20
-391.8247288776315
 30
0.0
 11
1504.003667237914
 21
-323.7293401892531
 31
0.0
  0
LINE
  5
33A
330
1F
100
AcDbEntity
  8
0-0
  6
JWW_DASHED1
 62
   120
370
     5
100
AcDbLine
 10
1428.837210737673
 20
-391.8247288776281
 30
0.0
 11
1504.003667237909
 21
-316.6582723773923
 31
0.0
  0
LINE
  5
33B
330
1F
100
AcDbEntity
  8
0-0
  6
JWW_DASHED1
 62
   120
370
     5
100
AcDbLine
 10
1421.766142925796
 20
-391.8247288776375
 30
0.0
 11
1504.003667237919
 21
-309.5872045655154
 31
0.0
  0
LINE
  5
33C
330
1F
100
AcDbEntity
  8
0-0
  6
JWW_DASHED1
 62
   120
370
     5
100
AcDbLine
 10
1414.695075113938
 20
-391.8247288776298
 30
0.0
 11
1504.003667237913
 21
-302.5161367536548
 31
0.0
  0
LINE
  5
33D
330
1F
100
AcDbEntity
  8
0-0
  6
JWW_DASHED1
 62
   120
370
     5
100
AcDbLine
 10
1407.624007302074
 20
-391.8247288776264
 30
0.0
 11
1504.003667237907
 21
-295.445068941794
 31
0.0
  0
LINE
  5
33E
330
1F
100
AcDbEntity
  8
0-0
  6
JWW_DASHED1
 62
   120
370
     5
100
AcDbLine
 10
1400.552939490198
 20
-391.8247288776366
 30
0.0
 11
1504.003667237917
 21
-288.3740011299171
 31
0.0
  0
LINE
  5
33F
330
1F
100
AcDbEntity
  8
0-0
  6
JWW_DASHED1
 62
   120
370
     5
100
AcDbLine
 10
1393.481871678339
 20
-391.8247288776281
 30
0.0
 11
1504.003667237913
 21
-281.3029333180548
 31
0.0
  0
LINE
  5
340
330
1F
100
AcDbEntity
  8
0-0
  6
JWW_DASHED1
 62
   120
370
     5
100
AcDbLine
 10
1386.410803866521
 20
-391.8247288776341
 30
0.0
 11
1504.003667237916
 21
-274.2318655062393
 31
0.0
  0
LINE
  5
341
330
1F
100
AcDbEntity
  8
0-0
  6
JWW_DASHED1
 62
   120
370
     5
100
AcDbLine
 10
1379.339736054657
 20
-391.8247288776315
 30
0.0
 11
1504.00366723791
 21
-267.1607976943785
 31
0.0
  0
LINE
  5
342
330
1F
100
AcDbEntity
  8
0-0
  6
JWW_DASHED1
 62
   120
370
     5
100
AcDbLine
 10
1372.268668242797
 20
-391.8247288776256
 30
0.0
 11
1504.003667237907
 21
-260.0897298825153
 31
0.0
  0
LINE
  5
343
330
1F
100
AcDbEntity
  8
0-0
  6
JWW_DASHED1
 62
   120
370
     5
100
AcDbLine
 10
1365.197600430924
 20
-391.8247288776315
 30
0.0
 11
1504.003667237914
 21
-253.0186620706409
 31
0.0
  0
LINE
  5
344
330
1F
100
AcDbEntity
  8
0-0
  6
JWW_DASHED1
 62
   120
370
     5
100
AcDbLine
 10
1358.126532619059
 20
-391.8247288776298
 30
0.0
 11
1504.003667237909
 21
-245.9475942587802
 31
0.0
  0
LINE
  5
345
330
1F
100
AcDbEntity
  8
0-0
  6
JWW_DASHED1
 62
   120
370
     5
100
AcDbLine
 10
1351.055464807182
 20
-391.82472887764
 30
0.0
 11
1504.003667237919
 21
-238.8765264469033
 31
0.0
  0
LINE
  5
346
330
1F
100
AcDbEntity
  8
0-0
  6
JWW_DASHED1
 62
   120
370
     5
100
AcDbLine
 10
1343.984396995326
 20
-391.8247288776298
 30
0.0
 11
1504.003667237913
 21
-231.8054586350426
 31
0.0
  0
LINE
  5
347
330
1F
100
AcDbEntity
  8
0-0
  6
JWW_DASHED1
 62
   120
370
     5
100
AcDbLine
 10
1336.913329183461
 20
-391.8247288776281
 30
0.0
 11
1504.003667237907
 21
-224.7343908231819
 31
0.0
  0
LINE
  5
348
330
1F
100
AcDbEntity
  8
0-0
  6
JWW_DASHED1
 62
   120
370
     5
100
AcDbLine
 10
1329.842261371584
 20
-391.8247288776383
 30
0.0
 11
1504.003667237917
 21
-217.663323011305
 31
0.0
  0
LINE
  5
349
330
1F
100
AcDbEntity
  8
0-0
  6
JWW_DASHED1
 62
   120
370
     5
100
AcDbLine
 10
1322.771193559727
 20
-391.8247288776281
 30
0.0
 11
1504.003667237914
 21
-210.5922551994418
 31
0.0
  0
LINE
  5
34A
330
1F
100
AcDbEntity
  8
0-0
  6
JWW_DASHED1
 62
   120
370
     5
100
AcDbLine
 10
1315.700125747861
 20
-391.8247288776273
 30
0.0
 11
1504.003667237905
 21
-203.5211873875836
 31
0.0
  0
LINE
  5
34B
330
1F
100
AcDbEntity
  8
0-0
  6
JWW_DASHED1
 62
   120
370
     5
100
AcDbLine
 10
1308.629057935985
 20
-391.8247288776366
 30
0.0
 11
1504.003667237915
 21
-196.4501195757067
 31
0.0
  0
LINE
  5
34C
330
1F
100
AcDbEntity
  8
0-0
  6
JWW_DASHED1
 62
   120
370
     5
100
AcDbLine
 10
1301.557990124124
 20
-391.8247288776315
 30
0.0
 11
1504.003667237912
 21
-189.3790517638435
 31
0.0
  0
LINE
  5
34D
330
1F
100
AcDbEntity
  8
0-0
  6
JWW_DASHED1
 62
   120
370
     5
100
AcDbLine
 10
1294.486922312262
 20
-391.8247288776264
 30
0.0
 11
1504.003667237903
 21
-182.3079839519853
 31
0.0
  0
LINE
  5
34E
330
1F
100
AcDbEntity
  8
0-0
  6
JWW_DASHED1
 62
   120
370
     5
100
AcDbLine
 10
1287.415854500386
 20
-391.8247288776358
 30
0.0
 11
1504.003667237914
 21
-175.2369161401093
 31
0.0
  0
LINE
  5
34F
330
1F
100
AcDbEntity
  8
0-0
  6
JWW_DASHED1
 62
   120
370
     5
100
AcDbLine
 10
1280.344786688526
 20
-391.8247288776298
 30
0.0
 11
1504.003667237911
 21
-168.1658483282443
 31
0.0
  0
LINE
  5
350
330
1F
100
AcDbEntity
  8
0-0
  6
JWW_DASHED1
 62
   120
370
     5
100
AcDbLine
 10
1273.273718876664
 20
-391.8247288776247
 30
0.0
 11
1504.003667237901
 21
-161.0947805163879
 31
0.0
  0
LINE
  5
351
330
1F
100
AcDbEntity
  8
0-0
  6
JWW_DASHED1
 62
   120
370
     5
100
AcDbLine
 10
1266.202651064787
 20
-391.8247288776341
 30
0.0
 11
1504.003667237911
 21
-154.023712704511
 31
0.0
  0
LINE
  5
352
330
1F
100
AcDbEntity
  8
0-0
  6
JWW_DASHED1
 62
   120
370
     5
100
AcDbLine
 10
1259.131583252926
 20
-391.824728877629
 30
0.0
 11
1504.003667237909
 21
-146.952644892646
 31
0.0
  0
LINE
  5
353
330
1F
100
AcDbEntity
  8
0-0
  6
JWW_DASHED1
 62
   120
370
     5
100
AcDbLine
 10
1252.060515441056
 20
-391.8247288776324
 30
0.0
 11
1504.003667237915
 21
-139.8815770807734
 31
0.0
  0
LINE
  5
354
330
1F
100
AcDbEntity
  8
0-0
  6
JWW_DASHED1
 62
   120
370
     5
100
AcDbLine
 10
1244.989447629189
 20
-391.8247288776332
 30
0.0
 11
1504.003667237909
 21
-132.8105092689127
 31
0.0
  0
LINE
  5
355
330
1F
100
AcDbEntity
  8
0-0
  6
JWW_DASHED1
 62
   120
370
     5
100
AcDbLine
 10
1230.847312005458
 20
-391.8247288776307
 30
0.0
 11
1504.003667237914
 21
-118.6683736451751
 31
0.0
  0
LINE
  5
356
330
1F
100
AcDbEntity
  8
0-0
  6
JWW_DASHED1
 62
   120
370
     5
100
AcDbLine
 10
1223.776244193591
 20
-391.8247288776324
 30
0.0
 11
1504.003667237908
 21
-111.5973058333144
 31
0.0
  0
LINE
  5
357
330
1F
100
AcDbEntity
  8
0-0
  6
JWW_DASHED1
 62
   120
370
     5
100
AcDbLine
 10
1216.705176381713
 20
-391.8247288776417
 30
0.0
 11
1504.003667237918
 21
-104.5262380214375
 31
0.0
  0
LINE
  5
358
330
1F
100
AcDbEntity
  8
0-0
  6
JWW_DASHED1
 62
   120
370
     5
100
AcDbLine
 10
1209.63410856986
 20
-391.824728877629
 30
0.0
 11
1504.003667237912
 21
-97.45517020957763
 31
0.0
  0
LINE
  5
359
330
1F
100
AcDbEntity
  8
0-0
  6
JWW_DASHED1
 62
   120
370
     5
100
AcDbLine
 10
1202.563040757991
 20
-391.8247288776307
 30
0.0
 11
1504.003667237905
 21
-90.38410239771693
 31
0.0
  0
LINE
  5
35A
330
1F
100
AcDbEntity
  8
0-0
  6
JWW_DASHED1
 62
   120
370
     5
100
AcDbLine
 10
1195.491972946114
 20
-391.824728877641
 30
0.0
 11
1504.003667237915
 21
-83.31303458584003
 31
0.0
  0
LINE
  5
35B
330
1F
100
AcDbEntity
  8
0-0
  6
JWW_DASHED1
 62
   120
370
     5
100
AcDbLine
 10
1188.420905134262
 20
-391.8247288776264
 30
0.0
 11
1504.003667237914
 21
-76.24196677397421
 31
0.0
  0
LINE
  5
35C
330
1F
100
AcDbEntity
  8
0-0
  6
JWW_DASHED1
 62
   120
370
     5
100
AcDbLine
 10
1181.349837322392
 20
-391.8247288776298
 30
0.0
 11
1504.003667237903
 21
-69.17089896211863
 31
0.0
  0
LINE
  5
35D
330
1F
100
AcDbEntity
  8
0-0
  6
JWW_DASHED1
 62
   120
370
     5
100
AcDbLine
 10
1174.278769510515
 20
-391.82472887764
 30
0.0
 11
1504.003667237914
 21
-62.09983115024173
 31
0.0
  0
LINE
  5
35E
330
1F
100
AcDbEntity
  8
0-0
  6
JWW_DASHED1
 62
   120
370
     5
100
AcDbLine
 10
1167.207701698655
 20
-391.8247288776341
 30
0.0
 11
1504.003667237914
 21
-55.02876333837591
 31
0.0
  0
LINE
  5
35F
330
1F
100
AcDbEntity
  8
0-0
  6
JWW_DASHED1
 62
   120
370
     5
100
AcDbLine
 10
1160.136633886794
 20
-391.8247288776281
 30
0.0
 11
1504.003667237902
 21
-47.95769552652033
 31
0.0
  0
LINE
  5
360
330
1F
100
AcDbEntity
  8
0-0
  6
JWW_DASHED1
 62
   120
370
     5
100
AcDbLine
 10
1153.065566074917
 20
-391.8247288776383
 30
0.0
 11
1504.003667237912
 21
-40.88662771464342
 31
0.0
  0
LINE
  5
361
330
1F
100
AcDbEntity
  8
0-0
  6
JWW_DASHED1
 62
   120
370
     5
100
AcDbLine
 10
1145.994498263086
 20
-391.8247288776298
 30
0.0
 11
1504.003667237909
 21
-33.8155599028066
 31
0.0
  0
LINE
  5
362
330
1F
100
AcDbEntity
  8
0-0
  6
JWW_DASHED1
 62
   120
370
     5
100
AcDbLine
 10
1138.923430451248
 20
-391.824728877629
 30
0.0
 11
1504.003667237912
 21
-26.74449209096551
 31
0.0
  0
LINE
  5
363
330
1F
100
AcDbEntity
  8
0-0
  6
JWW_DASHED1
 62
   120
370
     5
100
AcDbLine
 10
1131.852362639378
 20
-391.8247288776324
 30
0.0
 11
1504.003667237905
 21
-19.67342427910481
 31
0.0
  0
LINE
  5
364
330
1F
100
AcDbEntity
  8
0-0
  6
JWW_DASHED1
 62
   120
370
     5
100
AcDbLine
 10
1124.781294827501
 20
-391.8247288776427
 30
0.0
 11
1504.003667237915
 21
-12.60235646722791
 31
0.0
  0
LINE
  5
365
330
1F
100
AcDbEntity
  8
0-0
  6
JWW_DASHED1
 62
   120
370
     5
100
AcDbLine
 10
1117.71022701565
 20
-391.8247288776264
 30
0.0
 11
1504.003667237916
 21
-5.531288655360385
 31
0.0
  0
LINE
  5
366
330
1F
100
AcDbEntity
  8
0-0
  6
JWW_DASHED1
 62
   120
370
     5
100
AcDbLine
 10
1110.639159203778
 20
-391.8247288776307
 30
0.0
 11
1504.003667237903
 21
1.539779156493495
 31
0.0
  0
LINE
  5
367
330
1F
100
AcDbEntity
  8
0-0
  6
JWW_DASHED1
 62
   120
370
     5
100
AcDbLine
 10
1103.568091391901
 20
-391.824728877641
 30
0.0
 11
1504.003667237914
 21
8.610846968370396
 31
0.0
  0
LINE
  5
368
330
1F
100
AcDbEntity
  8
0-0
  6
JWW_DASHED1
 62
   120
370
     5
100
AcDbLine
 10
1096.497023580041
 20
-391.8247288776358
 30
0.0
 11
1504.003667237914
 21
15.68191478023792
 31
0.0
  0
LINE
  5
369
330
1F
100
AcDbEntity
  8
0-0
  6
JWW_DASHED1
 62
   120
370
     5
100
AcDbLine
 10
1089.42595576818
 20
-391.8247288776298
 30
0.0
 11
1504.003667237902
 21
22.7529825920918
 31
0.0
  0
LINE
  5
36A
330
1F
100
AcDbEntity
  8
0-0
  6
JWW_DASHED1
 62
   120
370
     5
100
AcDbLine
 10
1082.354887956303
 20
-391.82472887764
 30
0.0
 11
1504.003667237912
 21
29.8240504039687
 31
0.0
  0
LINE
  5
36B
330
1F
100
AcDbEntity
  8
0-0
  6
JWW_DASHED1
 62
   120
370
     5
100
AcDbLine
 10
1075.283820144442
 20
-391.8247288776341
 30
0.0
 11
1504.003667237913
 21
36.89511821583622
 31
0.0
  0
LINE
  5
36C
330
1F
100
AcDbEntity
  8
0-0
  6
JWW_DASHED1
 62
   120
370
     5
100
AcDbLine
 10
1068.212752332582
 20
-391.824728877629
 30
0.0
 11
1504.0036672379
 21
43.9661860276901
 31
0.0
  0
LINE
  5
36D
330
1F
100
AcDbEntity
  8
0-0
  6
JWW_DASHED1
 62
   120
370
     5
100
AcDbLine
 10
1061.141684520705
 20
-391.8247288776392
 30
0.0
 11
1504.00366723791
 21
51.03725383956615
 31
0.0
  0
LINE
  5
36E
330
1F
100
AcDbEntity
  8
0-0
  6
JWW_DASHED1
 62
   120
370
     5
100
AcDbLine
 10
1054.070616708843
 20
-391.8247288776332
 30
0.0
 11
1504.003667237911
 21
58.10832165143452
 31
0.0
  0
LINE
  5
36F
330
1F
100
AcDbEntity
  8
0-0
  6
JWW_DASHED1
 62
   120
370
     5
100
AcDbLine
 10
1046.999548896979
 20
-391.8247288776307
 30
0.0
 11
1504.003667237914
 21
65.17938946330375
 31
0.0
  0
LINE
  5
370
330
1F
100
AcDbEntity
  8
0-0
  6
JWW_DASHED1
 62
   120
370
     5
100
AcDbLine
 10
1039.928481085106
 20
-391.8247288776375
 30
0.0
 11
1504.003667237908
 21
72.25045727516445
 31
0.0
  0
LINE
  5
371
330
1F
100
AcDbEntity
  8
0-0
  6
JWW_DASHED1
 62
   120
370
     5
100
AcDbLine
 10
1032.857413273229
 20
-391.8247288776478
 30
0.0
 11
1504.003667237918
 21
79.32152508704135
 31
0.0
  0
LINE
  5
372
330
1F
100
AcDbEntity
  8
0-0
  6
JWW_DASHED1
 62
   120
370
     5
100
AcDbLine
 10
1025.786345461381
 20
-391.824728877629
 30
0.0
 11
1504.003667237912
 21
86.39259289890205
 31
0.0
  0
LINE
  5
373
330
1F
100
AcDbEntity
  8
0-0
  6
JWW_DASHED1
 62
   120
370
     5
100
AcDbLine
 10
1018.715277649507
 20
-391.8247288776366
 30
0.0
 11
1504.003667237906
 21
93.46366071076275
 31
0.0
  0
LINE
  5
374
330
1F
100
AcDbEntity
  8
0-0
  6
JWW_DASHED1
 62
   120
370
     5
100
AcDbLine
 10
1011.644209837631
 20
-391.8247288776461
 30
0.0
 11
1504.003667237916
 21
100.5347285226397
 31
0.0
  0
LINE
  5
375
330
1F
100
AcDbEntity
  8
0-0
  6
JWW_DASHED1
 62
   120
370
     5
100
AcDbLine
 10
1004.573142025783
 20
-391.8247288776273
 30
0.0
 11
1504.00366723791
 21
107.6057963345004
 31
0.0
  0
LINE
  5
376
330
1F
100
AcDbEntity
  8
0-0
  6
JWW_DASHED1
 62
   120
370
     5
100
AcDbLine
 10
997.5020742139083
 20
-391.8247288776349
 30
0.0
 11
1504.003667237904
 21
114.6768641463611
 31
0.0
  0
LINE
  5
377
330
1F
100
AcDbEntity
  8
0-0
  6
JWW_DASHED1
 62
   120
370
     5
100
AcDbLine
 10
990.4310064020314
 20
-391.8247288776444
 30
0.0
 11
1504.003667237914
 21
121.747931958238
 31
0.0
  0
LINE
  5
378
330
1F
100
AcDbEntity
  8
0-0
  6
JWW_DASHED1
 62
   120
370
     5
100
AcDbLine
 10
983.3599385901852
 20
-391.8247288776256
 30
0.0
 11
1504.003667237917
 21
128.8189997701072
 31
0.0
  0
LINE
  5
379
330
1F
100
AcDbEntity
  8
0-0
  6
JWW_DASHED1
 62
   120
370
     5
100
AcDbLine
 10
976.2888707783083
 20
-391.8247288776341
 30
0.0
 11
1504.003667237903
 21
135.8900675819594
 31
0.0
  0
LINE
  5
37A
330
1F
100
AcDbEntity
  8
0-0
  6
JWW_DASHED1
 62
   120
370
     5
100
AcDbLine
 10
969.217802966433
 20
-391.8247288776435
 30
0.0
 11
1504.003667237912
 21
142.9611353938354
 31
0.0
  0
LINE
  5
37B
330
1F
100
AcDbEntity
  8
0-0
  6
JWW_DASHED1
 62
   120
370
     5
100
AcDbLine
 10
962.1467351545715
 20
-391.8247288776375
 30
0.0
 11
1504.003667237915
 21
150.0322032057055
 31
0.0
  0
LINE
  5
37C
330
1F
100
AcDbEntity
  8
0-0
  6
JWW_DASHED1
 62
   120
370
     5
100
AcDbLine
 10
955.0756673427117
 20
-391.8247288776324
 30
0.0
 11
1504.003667237901
 21
157.1032710175577
 31
0.0
  0
LINE
  5
37D
330
1F
100
AcDbEntity
  8
0-0
  6
JWW_DASHED1
 62
   120
370
     5
100
AcDbLine
 10
948.0045995308348
 20
-391.8247288776427
 30
0.0
 11
1504.00366723791
 21
164.1743388294337
 31
0.0
  0
LINE
  5
37E
330
1F
100
AcDbEntity
  8
0-0
  6
JWW_DASHED1
 62
   120
370
     5
100
AcDbLine
 10
940.9335317189732
 20
-391.8247288776366
 30
0.0
 11
1504.003667237914
 21
171.2454066413038
 31
0.0
  0
LINE
  5
37F
330
1F
100
AcDbEntity
  8
0-0
  6
JWW_DASHED1
 62
   120
370
     5
100
AcDbLine
 10
933.8624639071116
 20
-391.8247288776315
 30
0.0
 11
1504.003667237914
 21
178.3164744531713
 31
0.0
  0
LINE
  5
380
330
1F
100
AcDbEntity
  8
0-0
  6
JWW_DASHED1
 62
   120
370
     5
100
AcDbLine
 10
926.7913960952347
 20
-391.824728877641
 30
0.0
 11
1504.003667237909
 21
185.387542265032
 31
0.0
  0
LINE
  5
381
330
1F
100
AcDbEntity
  8
0-0
  6
JWW_DASHED1
 62
   120
370
     5
100
AcDbLine
 10
919.7203282833749
 20
-391.8247288776358
 30
0.0
 11
1504.003667237912
 21
192.4586100769021
 31
0.0
  0
LINE
  5
382
330
1F
100
AcDbEntity
  8
0-0
  6
JWW_DASHED1
 62
   120
370
     5
100
AcDbLine
 10
914.0036672379114
 20
-390.4703221112318
 30
0.0
 11
1504.003667237913
 21
199.5296778887696
 31
0.0
  0
LINE
  5
383
330
1F
100
AcDbEntity
  8
0-0
  6
JWW_DASHED1
 62
   120
370
     5
100
AcDbLine
 10
914.0036672379216
 20
-383.3992542993558
 30
0.0
 11
1504.003667237907
 21
206.6007457006303
 31
0.0
  0
LINE
  5
384
330
1F
100
AcDbEntity
  8
0-0
  6
JWW_DASHED1
 62
   120
370
     5
100
AcDbLine
 10
914.0036672379267
 20
-376.3281864875377
 30
0.0
 11
1504.003667237912
 21
213.6718135124475
 31
0.0
  0
LINE
  5
385
330
1F
100
AcDbEntity
  8
0-0
  6
JWW_DASHED1
 62
   120
370
     5
100
AcDbLine
 10
914.0036672379216
 20
-369.257118675677
 30
0.0
 11
1504.003667237916
 21
220.7428813243185
 31
0.0
  0
LINE
  5
386
330
1F
100
AcDbEntity
  8
0-0
  6
JWW_DASHED1
 62
   120
370
     5
100
AcDbLine
 10
914.0036672379148
 20
-362.1860508638163
 30
0.0
 11
1504.0036672379
 21
227.8139491361689
 31
0.0
  0
LINE
  5
387
330
1F
100
AcDbEntity
  8
0-0
  6
JWW_DASHED1
 62
   120
370
     5
100
AcDbLine
 10
914.003667237925
 20
-355.1149830519394
 30
0.0
 11
1504.00366723791
 21
234.8850169480458
 31
0.0
  0
LINE
  5
388
330
1F
100
AcDbEntity
  8
0-0
  6
JWW_DASHED1
 62
   120
370
     5
100
AcDbLine
 10
914.0036672379182
 20
-348.0439152400787
 30
0.0
 11
1504.003667237915
 21
241.9560847599168
 31
0.0
  0
LINE
  5
389
330
1F
100
AcDbEntity
  8
0-0
  6
JWW_DASHED1
 62
   120
370
     5
100
AcDbLine
 10
914.0036672379131
 20
-340.972847428218
 30
0.0
 11
1504.003667237914
 21
249.0271525717834
 31
0.0
  0
LINE
  5
38A
330
1F
100
AcDbEntity
  8
0-0
  6
JWW_DASHED1
 62
   120
370
     5
100
AcDbLine
 10
914.0036672379233
 20
-333.9017796163411
 30
0.0
 11
1504.003667237909
 21
256.0982203836442
 31
0.0
  0
LINE
  5
38B
330
1F
100
AcDbEntity
  8
0-0
  6
JWW_DASHED1
 62
   120
370
     5
100
AcDbLine
 10
914.0036672379182
 20
-326.8307118044795
 30
0.0
 11
1504.003667237914
 21
263.169288195515
 31
0.0
  0
LINE
  5
38C
330
1F
100
AcDbEntity
  8
0-0
  6
JWW_DASHED1
 62
   120
370
     5
100
AcDbLine
 10
914.0036672379114
 20
-319.7596439926197
 30
0.0
 11
1504.003667237913
 21
270.2403560073817
 31
0.0
  0
LINE
  5
38D
330
1F
100
AcDbEntity
  8
0-0
  6
JWW_DASHED1
 62
   120
370
     5
100
AcDbLine
 10
914.0036672379216
 20
-312.6885761807437
 30
0.0
 11
1504.003667237907
 21
277.3114238192425
 31
0.0
  0
LINE
  5
38E
330
1F
100
AcDbEntity
  8
0-0
  6
JWW_DASHED1
 62
   120
370
     5
100
AcDbLine
 10
914.0036672379318
 20
-305.6175083688668
 30
0.0
 11
1504.003667237917
 21
284.3824916311185
 31
0.0
  0
LINE
  5
38F
330
1F
100
AcDbEntity
  8
0-0
  6
JWW_DASHED1
 62
   120
370
     5
100
AcDbLine
 10
914.0036672379097
 20
-298.5464405570214
 30
0.0
 11
1504.00366723791
 21
291.4535594429792
 31
0.0
  0
LINE
  5
390
330
1F
100
AcDbEntity
  8
0-0
  6
JWW_DASHED1
 62
   120
370
     5
100
AcDbLine
 10
914.0036672379182
 20
-291.4753727451454
 30
0.0
 11
1504.003667237905
 21
298.5246272548408
 31
0.0
  0
LINE
  5
391
330
1F
100
AcDbEntity
  8
0-0
  6
JWW_DASHED1
 62
   120
370
     5
100
AcDbLine
 10
914.0036672379284
 20
-284.4043049332685
 30
0.0
 11
1504.003667237914
 21
305.5956950667168
 31
0.0
  0
LINE
  5
392
330
1F
100
AcDbEntity
  8
0-0
  6
JWW_DASHED1
 62
   120
370
     5
100
AcDbLine
 10
914.0036672379097
 20
-277.3332371214213
 30
0.0
 11
1504.003667237921
 21
312.6667628785895
 31
0.0
  0
LINE
  5
393
330
1F
100
AcDbEntity
  8
0-0
  6
JWW_DASHED1
 62
   120
370
     5
100
AcDbLine
 10
914.0036672379165
 20
-270.2621693095471
 30
0.0
 11
1504.003667237903
 21
319.7378306904382
 31
0.0
  0
LINE
  5
394
330
1F
100
AcDbEntity
  8
0-0
  6
JWW_DASHED1
 62
   120
370
     5
100
AcDbLine
 10
914.0036672379267
 20
-263.191101497671
 30
0.0
 11
1504.003667237913
 21
326.8088985023151
 31
0.0
  0
LINE
  5
395
330
1F
100
AcDbEntity
  8
0-0
  6
JWW_DASHED1
 62
   120
370
     5
100
AcDbLine
 10
914.0036672379233
 20
-256.1200336858077
 30
0.0
 11
1504.003667237919
 21
333.8799663141878
 31
0.0
  0
LINE
  5
396
330
1F
100
AcDbEntity
  8
0-0
  6
JWW_DASHED1
 62
   120
370
     5
100
AcDbLine
 10
914.0036672379148
 20
-249.0489658739487
 30
0.0
 11
1504.003667237901
 21
340.9510341260365
 31
0.0
  0
LINE
  5
397
330
1F
100
AcDbEntity
  8
0-0
  6
JWW_DASHED1
 62
   120
370
     5
100
AcDbLine
 10
914.003667237925
 20
-241.9778980620727
 30
0.0
 11
1504.003667237911
 21
348.0221019379134
 31
0.0
  0
LINE
  5
398
330
1F
100
AcDbEntity
  8
0-0
  6
JWW_DASHED1
 62
   120
370
     5
100
AcDbLine
 10
914.0036672379216
 20
-234.9068302502094
 30
0.0
 11
1504.003667237917
 21
355.0931697497861
 31
0.0
  0
LINE
  5
399
330
1F
100
AcDbEntity
  8
0-0
  6
JWW_DASHED1
 62
   120
370
     5
100
AcDbLine
 10
914.0036672379131
 20
-227.8357624383513
 30
0.0
 11
1504.003667237899
 21
362.1642375616348
 31
0.0
  0
LINE
  5
39A
330
1F
100
AcDbEntity
  8
0-0
  6
JWW_DASHED1
 62
   120
370
     5
100
AcDbLine
 10
914.0036672379233
 20
-220.7646946264744
 30
0.0
 11
1504.003667237909
 21
369.2353053735117
 31
0.0
  0
LINE
  5
39B
330
1F
100
AcDbEntity
  8
0-0
  6
JWW_DASHED1
 62
   120
370
     5
100
AcDbLine
 10
914.0036672379199
 20
-213.6936268146103
 30
0.0
 11
1504.003667237915
 21
376.3063731853844
 31
0.0
  0
LINE
  5
39C
330
1F
100
AcDbEntity
  8
0-0
  6
JWW_DASHED1
 62
   120
370
     5
100
AcDbLine
 10
914.0036672379114
 20
-206.622559002753
 30
0.0
 11
1504.003667237914
 21
383.3774409972484
 31
0.0
  0
LINE
  5
39D
330
1F
100
AcDbEntity
  8
0-0
  6
JWW_DASHED1
 62
   120
370
     5
100
AcDbLine
 10
914.0036672379216
 20
-199.5514911908761
 30
0.0
 11
1504.003667237907
 21
390.4485088091092
 31
0.0
  0
LINE
  5
39E
330
1F
100
AcDbEntity
  8
0-0
  6
JWW_DASHED1
 62
   120
370
     5
100
AcDbLine
 10
914.0036672379182
 20
-192.480423379012
 30
0.0
 11
1504.003667237914
 21
397.5195766209835
 31
0.0
  0
LINE
  5
39F
330
1F
100
AcDbEntity
  8
0-0
  6
JWW_DASHED1
 62
   120
370
     5
100
AcDbLine
 10
914.0036672379097
 20
-185.4093555671547
 30
0.0
 11
1504.003667237911
 21
404.5906444328467
 31
0.0
  0
LINE
  5
3A0
330
1F
100
AcDbEntity
  8
0-0
  6
JWW_DASHED1
 62
   120
370
     5
100
AcDbLine
 10
914.0036672379199
 20
-178.3382877552778
 30
0.0
 11
1504.003667237905
 21
411.6617122447075
 31
0.0
  0
LINE
  5
3A1
330
1F
100
AcDbEntity
  8
0-0
  6
JWW_DASHED1
 62
   120
370
     5
100
AcDbLine
 10
914.0036672379284
 20
-171.2672199434017
 30
0.0
 11
1504.003667237915
 21
418.7327800565844
 31
0.0
  0
LINE
  5
3A2
330
1F
100
AcDbEntity
  8
0-0
  6
JWW_DASHED1
 62
   120
370
     5
100
AcDbLine
 10
914.003667237908
 20
-164.1961521315564
 30
0.0
 11
1504.003667237909
 21
425.803847868445
 31
0.0
  0
LINE
  5
3A3
330
1F
100
AcDbEntity
  8
0-0
  6
JWW_DASHED1
 62
   120
370
     5
100
AcDbLine
 10
914.0036672379182
 20
-157.1250843196803
 30
0.0
 11
1504.003667237903
 21
432.8749156803058
 31
0.0
  0
LINE
  5
3A4
330
1F
100
AcDbEntity
  8
0-0
  6
JWW_DASHED1
 62
   120
370
     5
100
AcDbLine
 10
914.0036672379284
 20
-150.0540165078034
 30
0.0
 11
1504.003667237914
 21
439.9459834921827
 31
0.0
  0
LINE
  5
3A5
330
1F
100
AcDbEntity
  8
0-0
  6
JWW_DASHED1
 62
   120
370
     5
100
AcDbLine
 10
914.0036672379233
 20
-142.9829486959675
 30
0.0
 11
1504.003667237919
 21
447.0170513040272
 31
0.0
  0
LINE
  5
3A6
330
1F
100
AcDbEntity
  8
0-0
  6
JWW_DASHED1
 62
   120
370
     5
100
AcDbLine
 10
914.0036672379114
 20
-135.9118808841409
 30
0.0
 11
1504.003667237914
 21
454.0881191158605
 31
0.0
  0
LINE
  5
3A7
330
1F
100
AcDbEntity
  8
0-0
  6
JWW_DASHED1
 62
   120
370
     5
100
AcDbLine
 10
914.0036672379216
 20
-128.840813072264
 30
0.0
 11
1504.003667237907
 21
461.1591869277213
 31
0.0
  0
LINE
  5
3A8
330
1F
100
AcDbEntity
  8
0-0
  6
JWW_DASHED1
 62
   120
370
     5
100
AcDbLine
 10
914.0036672379199
 20
-121.769745260399
 30
0.0
 11
1504.003667237915
 21
468.2302547395965
 31
0.0
  0
LINE
  5
3A9
330
1F
100
AcDbEntity
  8
0-0
  6
JWW_DASHED1
 62
   120
370
     5
100
AcDbLine
 10
914.0036672379097
 20
-114.6986774485426
 30
0.0
 11
1504.003667237911
 21
475.3013225514588
 31
0.0
  0
LINE
  5
3AA
330
1F
100
AcDbEntity
  8
0-0
  6
JWW_DASHED1
 62
   120
370
     5
100
AcDbLine
 10
914.0036672379199
 20
-107.6276096366657
 30
0.0
 11
1504.003667237905
 21
482.3723903633196
 31
0.0
  0
LINE
  5
3AB
330
1F
100
AcDbEntity
  8
0-0
  6
JWW_DASHED1
 62
   120
370
     5
100
AcDbLine
 10
914.0036672379284
 20
-100.5565418247896
 30
0.0
 11
1504.003667237915
 21
489.4434581751965
 31
0.0
  0
LINE
  5
3AC
330
1F
100
AcDbEntity
  8
0-0
  6
JWW_DASHED1
 62
   120
370
     5
100
AcDbLine
 10
914.003667237908
 20
-93.48547401294425
 30
0.0
 11
1504.003667237909
 21
496.5145259870571
 31
0.0
  0
LINE
  5
3AD
330
1F
100
AcDbEntity
  8
0-0
  6
JWW_DASHED1
 62
   120
370
     5
100
AcDbLine
 10
914.0036672379182
 20
-86.4144062010682
 30
0.0
 11
1504.003667237903
 21
503.5855937989179
 31
0.0
  0
LINE
  5
3AE
330
1F
100
AcDbEntity
  8
0-0
  6
JWW_DASHED1
 62
   120
370
     5
100
AcDbLine
 10
914.0036672379284
 20
-79.3433383891913
 30
0.0
 11
1504.003667237914
 21
510.6566616107948
 31
0.0
  0
LINE
  5
3AF
330
1F
100
AcDbEntity
  8
0-0
  6
JWW_DASHED1
 62
   120
370
     5
100
AcDbLine
 10
914.0036672379114
 20
-72.27227057734083
 30
0.0
 11
1504.003667237922
 21
517.72772942267
 31
0.0
  0
LINE
  5
3B0
330
1F
100
AcDbEntity
  8
0-0
  6
JWW_DASHED1
 62
   120
370
     5
100
AcDbLine
 10
914.0036672379148
 20
-65.2012027654699
 30
0.0
 11
1504.003667237902
 21
524.7987972345162
 31
0.0
  0
LINE
  5
3B1
330
1F
100
AcDbEntity
  8
0-0
  6
JWW_DASHED1
 62
   120
370
     5
100
AcDbLine
 10
914.003667237925
 20
-58.130134953593
 30
0.0
 11
1504.003667237912
 21
531.8698650463922
 31
0.0
  0
LINE
  5
3B2
330
1F
100
AcDbEntity
  8
0-0
  6
JWW_DASHED1
 62
   120
370
     5
100
AcDbLine
 10
914.003667237925
 20
-51.05906714172633
 30
0.0
 11
1504.003667237921
 21
538.9409328582683
 31
0.0
  0
LINE
  5
3B3
330
1F
100
AcDbEntity
  8
0-0
  6
JWW_DASHED1
 62
   120
370
     5
100
AcDbLine
 10
914.0036672379148
 20
-43.9879993298716
 30
0.0
 11
1504.0036672379
 21
546.0120006701145
 31
0.0
  0
LINE
  5
3B4
330
1F
100
AcDbEntity
  8
0-0
  6
JWW_DASHED1
 62
   120
370
     5
100
AcDbLine
 10
914.003667237925
 20
-36.9169315179947
 30
0.0
 11
1504.00366723791
 21
553.0830684819905
 31
0.0
  0
LINE
  5
3B5
330
1F
100
AcDbEntity
  8
0-0
  6
JWW_DASHED1
 62
   120
370
     5
100
AcDbLine
 10
914.003667237925
 20
-29.84586370612803
 30
0.0
 11
1504.003667237919
 21
560.1541362938666
 31
0.0
  0
LINE
  5
3B6
330
1F
100
AcDbEntity
  8
0-0
  6
JWW_DASHED1
 62
   120
370
     5
100
AcDbLine
 10
914.0036672379114
 20
-22.7747958942733
 30
0.0
 11
1504.003667237898
 21
567.2252041057119
 31
0.0
  0
LINE
  5
3B7
330
1F
100
AcDbEntity
  8
0-0
  6
JWW_DASHED1
 62
   120
370
     5
100
AcDbLine
 10
914.0036672379216
 20
-15.7037280823964
 30
0.0
 11
1504.003667237908
 21
574.2962719175888
 31
0.0
  0
LINE
  5
3B8
330
1F
100
AcDbEntity
  8
0-0
  6
JWW_DASHED1
 62
   120
370
     5
100
AcDbLine
 10
914.0036672379216
 20
-8.632660270529726
 30
0.0
 11
1504.003667237918
 21
581.3673397294657
 31
0.0
  0
LINE
  5
3B9
330
1F
100
AcDbEntity
  8
0-0
  6
JWW_DASHED1
 62
   120
370
     5
100
AcDbLine
 10
914.0036672379114
 20
-1.561592458674994
 30
0.0
 11
1498.740530818957
 21
583.1752711223719
 31
0.0
  0
LINE
  5
3BA
330
1F
100
AcDbEntity
  8
0-0
  6
JWW_DASHED1
 62
   120
370
     5
100
AcDbLine
 10
914.0036672379199
 20
5.509475353201054
 30
0.0
 11
1491.669463007096
 21
583.175271122377
 31
0.0
  0
LINE
  5
3BB
330
1F
100
AcDbEntity
  8
0-0
  6
JWW_DASHED1
 62
   120
370
     5
100
AcDbLine
 10
914.0036672379301
 20
12.58054316507796
 30
0.0
 11
1484.598395195219
 21
583.1752711223668
 31
0.0
  0
LINE
  5
3BC
330
1F
100
AcDbEntity
  8
0-0
  6
JWW_DASHED1
 62
   120
370
     5
100
AcDbLine
 10
914.003667237908
 20
19.65161097692331
 30
0.0
 11
1477.527327383359
 21
583.1752711223736
 31
0.0
  0
LINE
  5
3BD
330
1F
100
AcDbEntity
  8
0-0
  6
JWW_DASHED1
 62
   120
370
     5
100
AcDbLine
 10
914.0036672379182
 20
26.72267878879936
 30
0.0
 11
1470.456259571497
 21
583.1752711223787
 31
0.0
  0
LINE
  5
3BE
330
1F
100
AcDbEntity
  8
0-0
  6
JWW_DASHED1
 62
   120
370
     5
100
AcDbLine
 10
914.0036672379284
 20
33.79374660067626
 30
0.0
 11
1463.385191759621
 21
583.1752711223685
 31
0.0
  0
LINE
  5
3BF
330
1F
100
AcDbEntity
  8
0-0
  6
JWW_DASHED1
 62
   120
370
     5
100
AcDbLine
 10
914.0036672379063
 20
40.86481441252076
 30
0.0
 11
1456.314123947761
 21
583.1752711223753
 31
0.0
  0
LINE
  5
3C0
330
1F
100
AcDbEntity
  8
0-0
  6
JWW_DASHED1
 62
   120
370
     5
100
AcDbLine
 10
914.0036672379165
 20
47.93588222439766
 30
0.0
 11
1449.243056135898
 21
583.1752711223795
 31
0.0
  0
LINE
  5
3C1
330
1F
100
AcDbEntity
  8
0-0
  6
JWW_DASHED1
 62
   120
370
     5
100
AcDbLine
 10
914.003667237925
 20
55.00695003627371
 30
0.0
 11
1442.171988324021
 21
583.1752711223693
 31
0.0
  0
LINE
  5
3C2
330
1F
100
AcDbEntity
  8
0-0
  6
JWW_DASHED1
 62
   120
370
     5
100
AcDbLine
 10
914.0036672379114
 20
62.07801784812673
 30
0.0
 11
1435.100920512147
 21
583.1752711223617
 31
0.0
  0
LINE
  5
3C3
330
1F
100
AcDbEntity
  8
0-0
  6
JWW_DASHED1
 62
   120
370
     5
100
AcDbLine
 10
914.0036672379148
 20
69.14908565999596
 30
0.0
 11
1428.0298527003
 21
583.1752711223812
 31
0.0
  0
LINE
  5
3C4
330
1F
100
AcDbEntity
  8
0-0
  6
JWW_DASHED1
 62
   120
370
     5
100
AcDbLine
 10
914.003667237925
 20
76.22015347187286
 30
0.0
 11
1420.958784888423
 21
583.175271122371
 31
0.0
  0
LINE
  5
3C5
330
1F
100
AcDbEntity
  8
0-0
  6
JWW_DASHED1
 62
   120
370
     5
100
AcDbLine
 10
914.0036672379267
 20
83.29122128374124
 30
0.0
 11
1413.887717076546
 21
583.1752711223608
 31
0.0
  0
LINE
  5
3C6
330
1F
100
AcDbEntity
  8
0-0
  6
JWW_DASHED1
 62
   120
370
     5
100
AcDbLine
 10
914.0036672379131
 20
90.36228909559426
 30
0.0
 11
1406.816649264701
 21
583.1752711223821
 31
0.0
  0
LINE
  5
3C7
330
1F
100
AcDbEntity
  8
0-0
  6
JWW_DASHED1
 62
   120
370
     5
100
AcDbLine
 10
914.0036672379216
 20
97.43335690747031
 30
0.0
 11
1399.745581452824
 21
583.1752711223719
 31
0.0
  0
LINE
  5
3C8
330
1F
100
AcDbEntity
  8
0-0
  6
JWW_DASHED1
 62
   120
370
     5
100
AcDbLine
 10
914.0036672379216
 20
104.5044247193097
 30
0.0
 11
1392.674513640977
 21
583.1752711223642
 31
0.0
  0
LINE
  5
3C9
330
1F
100
AcDbEntity
  8
0-0
  6
JWW_DASHED1
 62
   120
370
     5
100
AcDbLine
 10
914.0036672379063
 20
111.5754925311329
 30
0.0
 11
1385.603445829149
 21
583.1752711223753
 31
0.0
  0
LINE
  5
3CA
330
1F
100
AcDbEntity
  8
0-0
  6
JWW_DASHED1
 62
   120
370
     5
100
AcDbLine
 10
914.0036672379165
 20
118.6465603430098
 30
0.0
 11
1378.532378017285
 21
583.1752711223778
 31
0.0
  0
LINE
  5
3CB
330
1F
100
AcDbEntity
  8
0-0
  6
JWW_DASHED1
 62
   120
370
     5
100
AcDbLine
 10
914.003667237925
 20
125.7176281548858
 30
0.0
 11
1371.461310205408
 21
583.1752711223676
 31
0.0
  0
LINE
  5
3CC
330
1F
100
AcDbEntity
  8
0-0
  6
JWW_DASHED1
 62
   120
370
     5
100
AcDbLine
 10
914.0036672379131
 20
132.7886959667397
 30
0.0
 11
1364.390242393535
 21
583.1752711223617
 31
0.0
  0
LINE
  5
3CD
330
1F
100
AcDbEntity
  8
0-0
  6
JWW_DASHED1
 62
   120
370
     5
100
AcDbLine
 10
914.0036672379148
 20
139.8597637786081
 30
0.0
 11
1357.319174581686
 21
583.1752711223795
 31
0.0
  0
LINE
  5
3CE
330
1F
100
AcDbEntity
  8
0-0
  6
JWW_DASHED1
 62
   120
370
     5
100
AcDbLine
 10
914.003667237925
 20
146.9308315904841
 30
0.0
 11
1350.248106769809
 21
583.1752711223693
 31
0.0
  0
LINE
  5
3CF
330
1F
100
AcDbEntity
  8
0-0
  6
JWW_DASHED1
 62
   120
370
     5
100
AcDbLine
 10
914.0036672379267
 20
154.0018994023542
 30
0.0
 11
1343.177038957932
 21
583.175271122359
 31
0.0
  0
LINE
  5
3D0
330
1F
100
AcDbEntity
  8
0-0
  6
JWW_DASHED1
 62
   120
370
     5
100
AcDbLine
 10
914.0036672379114
 20
161.0729672142055
 30
0.0
 11
1336.105971146087
 21
583.1752711223804
 31
0.0
  0
LINE
  5
3D1
330
1F
100
AcDbEntity
  8
0-0
  6
JWW_DASHED1
 62
   120
370
     5
100
AcDbLine
 10
914.0036672379216
 20
168.1440350260824
 30
0.0
 11
1329.03490333421
 21
583.1752711223702
 31
0.0
  0
LINE
  5
3D2
330
1F
100
AcDbEntity
  8
0-0
  6
JWW_DASHED1
 62
   120
370
     5
100
AcDbLine
 10
914.003667237925
 20
175.2151028379525
 30
0.0
 11
1321.963835522333
 21
583.17527112236
 31
0.0
  0
LINE
  5
3D3
330
1F
100
AcDbEntity
  8
0-0
  6
JWW_DASHED1
 62
   120
370
     5
100
AcDbLine
 10
914.0036672379114
 20
182.2861706498038
 30
0.0
 11
1314.892767710478
 21
583.175271122371
 31
0.0
  0
LINE
  5
3D4
330
1F
100
AcDbEntity
  8
0-0
  6
JWW_DASHED1
 62
   120
370
     5
100
AcDbLine
 10
914.0036672379216
 20
189.3572384616807
 30
0.0
 11
1307.821699898612
 21
583.1752711223719
 31
0.0
  0
LINE
  5
3D5
330
1F
100
AcDbEntity
  8
0-0
  6
JWW_DASHED1
 62
   120
370
     5
100
AcDbLine
 10
914.003667237925
 20
196.4283062735508
 30
0.0
 11
1300.750632086735
 21
583.1752711223617
 31
0.0
  0
LINE
  5
3D6
330
1F
100
AcDbEntity
  8
0-0
  6
JWW_DASHED1
 62
   120
370
     5
100
AcDbLine
 10
914.003667237908
 20
203.4993740854021
 30
0.0
 11
1293.679564274879
 21
583.1752711223727
 31
0.0
  0
LINE
  5
3D7
330
1F
100
AcDbEntity
  8
0-0
  6
JWW_DASHED1
 62
   120
370
     5
100
AcDbLine
 10
914.0036672379182
 20
210.570441897279
 30
0.0
 11
1286.608496463013
 21
583.1752711223727
 31
0.0
  0
LINE
  5
3D8
330
1F
100
AcDbEntity
  8
0-0
  6
JWW_DASHED1
 62
   120
370
     5
100
AcDbLine
 10
914.0036672379284
 20
217.6415097091551
 30
0.0
 11
1279.537428651136
 21
583.1752711223625
 31
0.0
  0
LINE
  5
3D9
330
1F
100
AcDbEntity
  8
0-0
  6
JWW_DASHED1
 62
   120
370
     5
100
AcDbLine
 10
914.003667237908
 20
224.7125775210004
 30
0.0
 11
1272.466360839281
 21
583.1752711223744
 31
0.0
  0
LINE
  5
3DA
330
1F
100
AcDbEntity
  8
0-0
  6
JWW_DASHED1
 62
   120
370
     5
100
AcDbLine
 10
914.0036672379165
 20
231.7836453328765
 30
0.0
 11
1265.395293027414
 21
583.1752711223744
 31
0.0
  0
LINE
  5
3DB
330
1F
100
AcDbEntity
  8
0-0
  6
JWW_DASHED1
 62
   120
370
     5
100
AcDbLine
 10
914.0036672379267
 20
238.8547131447534
 30
0.0
 11
1258.324225215538
 21
583.1752711223642
 31
0.0
  0
LINE
  5
3DC
330
1F
100
AcDbEntity
  8
0-0
  6
JWW_DASHED1
 62
   120
370
     5
100
AcDbLine
 10
914.0036672379148
 20
245.925780956609
 30
0.0
 11
1251.253157403668
 21
583.1752711223608
 31
0.0
  0
LINE
  5
3DD
330
1F
100
AcDbEntity
  8
0-0
  6
JWW_DASHED1
 62
   120
370
     5
100
AcDbLine
 10
914.0036672379148
 20
252.9968487684748
 30
0.0
 11
1244.182089591815
 21
583.1752711223753
 31
0.0
  0
LINE
  5
3DE
330
1F
100
AcDbEntity
  8
0-0
  6
JWW_DASHED1
 62
   120
370
     5
100
AcDbLine
 10
914.003667237925
 20
260.0679165803517
 30
0.0
 11
1237.111021779939
 21
583.1752711223659
 31
0.0
  0
LINE
  5
3DF
330
1F
100
AcDbEntity
  8
0-0
  6
JWW_DASHED1
 62
   120
370
     5
100
AcDbLine
 10
914.0036672379284
 20
267.1389843922226
 30
0.0
 11
1230.039953968062
 21
583.1752711223556
 31
0.0
  0
LINE
  5
3E0
330
1F
100
AcDbEntity
  8
0-0
  6
JWW_DASHED1
 62
   120
370
     5
100
AcDbLine
 10
914.0036672379131
 20
274.2100522040731
 30
0.0
 11
1222.968886156217
 21
583.175271122377
 31
0.0
  0
LINE
  5
3E1
330
1F
100
AcDbEntity
  8
0-0
  6
JWW_DASHED1
 62
   120
370
     5
100
AcDbLine
 10
914.0036672379233
 20
281.28112001595
 30
0.0
 11
1215.89781834434
 21
583.1752711223668
 31
0.0
  0
LINE
  5
3E2
330
1F
100
AcDbEntity
  8
0-0
  6
JWW_DASHED1
 62
   120
370
     5
100
AcDbLine
 10
914.0036672379284
 20
288.3521878278218
 30
0.0
 11
1208.826750532463
 21
583.1752711223565
 31
0.0
  0
LINE
  5
3E3
330
1F
100
AcDbEntity
  8
0-0
  6
JWW_DASHED1
 62
   120
370
     5
100
AcDbLine
 10
914.0036672379114
 20
295.4232556396714
 30
0.0
 11
1201.755682720618
 21
583.1752711223778
 31
0.0
  0
LINE
  5
3E4
330
1F
100
AcDbEntity
  8
0-0
  6
JWW_DASHED1
 62
   120
370
     5
100
AcDbLine
 10
914.0036672379216
 20
302.4943234515474
 30
0.0
 11
1194.684614908742
 21
583.1752711223685
 31
0.0
  0
LINE
  5
3E5
330
1F
100
AcDbEntity
  8
0-0
  6
JWW_DASHED1
 62
   120
370
     5
100
AcDbLine
 10
914.0036672379267
 20
309.5653912634201
 30
0.0
 11
1187.613547096865
 21
583.1752711223583
 31
0.0
  0
LINE
  5
3E6
330
1F
100
AcDbEntity
  8
0-0
  6
JWW_DASHED1
 62
   120
370
     5
100
AcDbLine
 10
914.0036672379097
 20
316.6364590752697
 30
0.0
 11
1180.542479285013
 21
583.1752711223727
 31
0.0
  0
LINE
  5
3E7
330
1F
100
AcDbEntity
  8
0-0
  6
JWW_DASHED1
 62
   120
370
     5
100
AcDbLine
 10
914.0036672379199
 20
323.7075268871457
 30
0.0
 11
1173.471411473143
 21
583.1752711223693
 31
0.0
  0
LINE
  5
3E8
330
1F
100
AcDbEntity
  8
0-0
  6
JWW_DASHED1
 62
   120
370
     5
100
AcDbLine
 10
914.003667237925
 20
330.7785946990184
 30
0.0
 11
1166.400343661266
 21
583.175271122359
 31
0.0
  0
LINE
  5
3E9
330
1F
100
AcDbEntity
  8
0-0
  6
JWW_DASHED1
 62
   120
370
     5
100
AcDbLine
 10
914.0036672379216
 20
337.8496625108535
 30
0.0
 11
1159.329275849435
 21
583.1752711223676
 31
0.0
  0
LINE
  5
3EA
330
1F
100
AcDbEntity
  8
0-0
  6
JWW_DASHED1
 62
   120
370
     5
100
AcDbLine
 10
914.0036672379131
 20
344.9207303226852
 30
0.0
 11
1152.258208037603
 21
583.1752711223753
 31
0.0
  0
LINE
  5
3EB
330
1F
100
AcDbEntity
  8
0-0
  6
JWW_DASHED1
 62
   120
370
     5
100
AcDbLine
 10
914.0036672379233
 20
351.9917981345621
 30
0.0
 11
1145.187140225726
 21
583.1752711223651
 31
0.0
  0
LINE
  5
3EC
330
1F
100
AcDbEntity
  8
0-0
  6
JWW_DASHED1
 62
   120
370
     5
100
AcDbLine
 10
914.0036672379284
 20
359.0628659464347
 30
0.0
 11
1138.116072413849
 21
583.1752711223548
 31
0.0
  0
LINE
  5
3ED
330
1F
100
AcDbEntity
  8
0-0
  6
JWW_DASHED1
 62
   120
370
     5
100
AcDbLine
 10
914.0036672379114
 20
366.1339337582835
 30
0.0
 11
1131.045004602004
 21
583.1752711223761
 31
0.0
  0
LINE
  5
3EE
330
1F
100
AcDbEntity
  8
0-0
  6
JWW_DASHED1
 62
   120
370
     5
100
AcDbLine
 10
914.0036672379216
 20
373.2050015701595
 30
0.0
 11
1123.973936790127
 21
583.1752711223659
 31
0.0
  0
LINE
  5
3EF
330
1F
100
AcDbEntity
  8
0-0
  6
JWW_DASHED1
 62
   120
370
     5
100
AcDbLine
 10
914.0036672379284
 20
380.2760693820339
 30
0.0
 11
1116.902868978251
 21
583.1752711223565
 31
0.0
  0
LINE
  5
3F0
330
1F
100
AcDbEntity
  8
0-0
  6
JWW_DASHED1
 62
   120
370
     5
100
AcDbLine
 10
914.0036672379097
 20
387.3471371938818
 30
0.0
 11
1109.831801166401
 21
583.1752711223727
 31
0.0
  0
LINE
  5
3F1
330
1F
100
AcDbEntity
  8
0-0
  6
JWW_DASHED1
 62
   120
370
     5
100
AcDbLine
 10
914.0036672379199
 20
394.4182050057588
 30
0.0
 11
1102.760733354529
 21
583.1752711223676
 31
0.0
  0
LINE
  5
3F2
330
1F
100
AcDbEntity
  8
0-0
  6
JWW_DASHED1
 62
   120
370
     5
100
AcDbLine
 10
914.0036672379267
 20
401.4892728176313
 30
0.0
 11
1095.689665542652
 21
583.1752711223573
 31
0.0
  0
LINE
  5
3F3
330
1F
100
AcDbEntity
  8
0-0
  6
JWW_DASHED1
 62
   120
370
     5
100
AcDbLine
 10
914.003667237908
 20
408.5603406294792
 30
0.0
 11
1088.618597730802
 21
583.1752711223744
 31
0.0
  0
LINE
  5
3F4
330
1F
100
AcDbEntity
  8
0-0
  6
JWW_DASHED1
 62
   120
370
     5
100
AcDbLine
 10
914.0036672379182
 20
415.6314084413561
 30
0.0
 11
1081.54752991893
 21
583.1752711223693
 31
0.0
  0
LINE
  5
3F5
330
1F
100
AcDbEntity
  8
0-0
  6
JWW_DASHED1
 62
   120
370
     5
100
AcDbLine
 10
914.0036672379284
 20
422.702476253233
 30
0.0
 11
1074.476462107054
 21
583.175271122359
 31
0.0
  0
LINE
  5
3F6
330
1F
100
AcDbEntity
  8
0-0
  6
JWW_DASHED1
 62
   120
370
     5
100
AcDbLine
 10
914.0036672379063
 20
429.7735440650785
 30
0.0
 11
1067.405394295204
 21
583.1752711223761
 31
0.0
  0
LINE
  5
3F7
330
1F
100
AcDbEntity
  8
0-0
  6
JWW_DASHED1
 62
   120
370
     5
100
AcDbLine
 10
914.0036672379148
 20
436.8446118769544
 30
0.0
 11
1060.334326483331
 21
583.1752711223702
 31
0.0
  0
LINE
  5
3F8
330
1F
100
AcDbEntity
  8
0-0
  6
JWW_DASHED1
 62
   120
370
     5
100
AcDbLine
 10
914.003667237925
 20
443.9156796888306
 30
0.0
 11
1053.263258671454
 21
583.17527112236
 31
0.0
  0
LINE
  5
3F9
330
1F
100
AcDbEntity
  8
0-0
  6
JWW_DASHED1
 62
   120
370
     5
100
AcDbLine
 10
914.0036672379182
 20
450.9867475006895
 30
0.0
 11
1046.19219085959
 21
583.1752711223625
 31
0.0
  0
LINE
  5
3FA
330
1F
100
AcDbEntity
  8
0-0
  6
JWW_DASHED1
 62
   120
370
     5
100
AcDbLine
 10
914.0036672379148
 20
458.0578153125527
 30
0.0
 11
1039.121123047733
 21
583.1752711223719
 31
0.0
  0
LINE
  5
3FB
330
1F
100
AcDbEntity
  8
0-0
  6
JWW_DASHED1
 62
   120
370
     5
100
AcDbLine
 10
914.0036672379233
 20
465.1288831244289
 30
0.0
 11
1032.050055235856
 21
583.1752711223617
 31
0.0
  0
LINE
  5
3FC
330
1F
100
AcDbEntity
  8
0-0
  6
JWW_DASHED1
 62
   120
370
     5
100
AcDbLine
 10
914.0036672379318
 20
472.199950936304
 30
0.0
 11
1024.978987423979
 21
583.1752711223514
 31
0.0
  0
LINE
  5
3FD
330
1F
100
AcDbEntity
  8
0-0
  6
JWW_DASHED1
 62
   120
370
     5
100
AcDbLine
 10
914.0036672379114
 20
479.2710187481503
 30
0.0
 11
1017.907919612134
 21
583.1752711223727
 31
0.0
  0
LINE
  5
3FE
330
1F
100
AcDbEntity
  8
0-0
  6
JWW_DASHED1
 62
   120
370
     5
100
AcDbLine
 10
914.0036672379216
 20
486.3420865600272
 30
0.0
 11
1010.836851800257
 21
583.1752711223625
 31
0.0
  0
LINE
  5
3FF
330
1F
100
AcDbEntity
  8
0-0
  6
JWW_DASHED1
 62
   120
370
     5
100
AcDbLine
 10
914.0036672379301
 20
493.4131543719024
 30
0.0
 11
1003.76578398838
 21
583.1752711223522
 31
0.0
  0
LINE
  5
400
330
1F
100
AcDbEntity
  8
0-0
  6
JWW_DASHED1
 62
   120
370
     5
100
AcDbLine
 10
914.0036672379097
 20
500.4842221837486
 30
0.0
 11
996.694716176533
 21
583.1752711223719
 31
0.0
  0
LINE
  5
401
330
1F
100
AcDbEntity
  8
0-0
  6
JWW_DASHED1
 62
   120
370
     5
100
AcDbLine
 10
914.0036672379199
 20
507.5552899956255
 30
0.0
 11
989.6236483646587
 21
583.1752711223642
 31
0.0
  0
LINE
  5
402
330
1F
100
AcDbEntity
  8
0-0
  6
JWW_DASHED1
 62
   120
370
     5
100
AcDbLine
 10
914.0036672379284
 20
514.6263578075007
 30
0.0
 11
982.5525805527826
 21
583.1752711223539
 31
0.0
  0
LINE
  5
403
330
1F
100
AcDbEntity
  8
0-0
  6
JWW_DASHED1
 62
   120
370
     5
100
AcDbLine
 10
914.003667237908
 20
521.6974256193469
 30
0.0
 11
975.4815127409347
 21
583.1752711223736
 31
0.0
  0
LINE
  5
404
330
1F
100
AcDbEntity
  8
0-0
  6
JWW_DASHED1
 62
   120
370
     5
100
AcDbLine
 10
914.0036672379182
 20
528.7684934312238
 30
0.0
 11
968.4104449290595
 21
583.1752711223651
 31
0.0
  0
LINE
  5
405
330
1F
100
AcDbEntity
  8
0-0
  6
JWW_DASHED1
 62
   120
370
     5
100
AcDbLine
 10
914.0036672379284
 20
535.8395612430998
 30
0.0
 11
961.3393771171826
 21
583.1752711223548
 31
0.0
  0
LINE
  5
406
330
1F
100
AcDbEntity
  8
0-0
  6
JWW_DASHED1
 62
   120
370
     5
100
AcDbLine
 10
914.0036672379063
 20
542.9106290549452
 30
0.0
 11
954.2683093053364
 21
583.1752711223753
 31
0.0
  0
LINE
  5
407
330
1F
100
AcDbEntity
  8
0-0
  6
JWW_DASHED1
 62
   120
370
     5
100
AcDbLine
 10
914.0036672379165
 20
549.9816968668221
 30
0.0
 11
947.1972414934612
 21
583.1752711223668
 31
0.0
  0
LINE
  5
408
330
1F
100
AcDbEntity
  8
0-0
  6
JWW_DASHED1
 62
   120
370
     5
100
AcDbLine
 10
914.003667237925
 20
557.052764678698
 30
0.0
 11
940.1261736815843
 21
583.1752711223565
 31
0.0
  0
LINE
  5
409
330
1F
100
AcDbEntity
  8
0-0
  6
JWW_DASHED1
 62
   120
370
     5
100
AcDbLine
 10
914.0036672379199
 20
564.1238324905588
 30
0.0
 11
933.0551058697228
 21
583.1752711223617
 31
0.0
  0
LINE
  5
40A
330
1F
100
AcDbEntity
  8
0-0
  6
JWW_DASHED1
 62
   120
370
     5
100
AcDbLine
 10
914.0036672379148
 20
571.1949003024195
 30
0.0
 11
925.9840380578629
 21
583.1752711223676
 31
0.0
  0
LINE
  5
40B
330
1F
100
AcDbEntity
  8
0-0
  6
JWW_DASHED1
 62
   120
370
     5
100
AcDbLine
 10
914.003667237925
 20
578.2659681142964
 30
0.0
 11
918.912970245986
 21
583.1752711223583
 31
0.0
  0
LINE
  5
40C
330
1F
100
AcDbEntity
  8
0-0
  6
JWW_DASHED1
 62
   120
370
     5
100
AcDbLine
 10
1237.918379817327
 20
-391.8247288776281
 30
0.0
 11
1504.003667237908
 21
-125.7394414570477
 31
0.0
  0
LINE
  5
40D
330
1F
100
AcDbEntity
  8
0-0
  6
Continuous
 62
    92
370
    13
100
AcDbLine
 10
914.0036672379182
 20
-521.8247288776378
 30
0.0
 11
1504.003667237921
 21
-521.8247288776378
 31
0.0
  0
LINE
  5
40E
330
1F
100
AcDbEntity
  8
0-0
  6
Continuous
 62
    92
370
    13
100
AcDbLine
 10
1504.003667237921
 20
-1464.824728877637
 30
0.0
 11
1504.003667237921
 21
718.1752711223629
 31
0.0
  0
LINE
  5
40F
330
1F
100
AcDbEntity
  8
0-0
  6
Continuous
 62
    92
370
    13
100
AcDbLine
 10
-865.9963327620795
 20
-1464.824728877637
 30
0.0
 11
-865.9963327620795
 21
718.1752711223629
 31
0.0
  0
LINE
  5
410
330
1F
100
AcDbEntity
  8
0-0
  6
Continuous
 62
    92
370
    13
100
AcDbLine
 10
-1455.996332762082
 20
-1464.824728877637
 30
0.0
 11
-1455.996332762082
 21
718.1752711223629
 31
0.0
  0
LINE
  5
411
330
1F
100
AcDbEntity
  8
0-0
  6
Continuous
 62
    92
370
    13
100
AcDbLine
 10
-85.99633276207953
 20
-1464.824728877637
 30
0.0
 11
-85.99633276207953
 21
718.1752711223629
 31
0.0
  0
LINE
  5
412
330
1F
100
AcDbEntity
  8
0-0
  6
Continuous
 62
    92
370
    13
100
AcDbLine
 10
-675.9963327620818
 20
-1464.824728877637
 30
0.0
 11
-675.9963327620818
 21
718.1752711223629
 31
0.0
  0
LINE
  5
413
330
1F
100
AcDbEntity
  8
0-0
  6
Continuous
 62
    92
370
    13
100
AcDbLine
 10
724.0036672379205
 20
-1464.824728877637
 30
0.0
 11
724.0036672379205
 21
718.1752711223629
 31
0.0
  0
LINE
  5
414
330
1F
100
AcDbEntity
  8
0-0
  6
Continuous
 62
    92
370
    13
100
AcDbLine
 10
134.0036672379182
 20
-1464.824728877637
 30
0.0
 11
134.0036672379182
 21
718.1752711223629
 31
0.0
  0
LINE
  5
415
330
1F
100
AcDbEntity
  8
0-0
  6
Continuous
 62
    92
370
    13
100
AcDbLine
 10
914.0036672379182
 20
-1464.824728877637
 30
0.0
 11
914.0036672379182
 21
718.1752711223629
 31
0.0
  0
MTEXT
  5
416
330
1F
100
AcDbEntity
  8
文字
  6
Continuous
 62
     7
370
     9
100
AcDbMText
 10
-2142.99633276208
 20
1063.158421087745
 30
0.0
 40
45.71999999999998
 41
1620.0
 46
0.0
 71
     7
 72
     1
  1
{\fＭＳ ゴシック|b0|i0|c128|p49;※ＣＨは縦木目柄、ＣＹは横木目柄のデザインとなります。}
 73
     1
 44
1.0
  0
LWPOLYLINE
  5
417
330
1F
100
AcDbEntity
  8
寸法
  6
Continuous
 62
     7
370
     9
100
AcDbPolyline
 90
        4
 70
     1
 43
3.0
 10
-2041.49633276208
 20
-1484.824728877637
 42
0.4142135623731
 10
-2042.99633276208
 20
-1483.324728877637
 42
0.4142135623731
 10
-2044.49633276208
 20
-1484.824728877637
 42
0.4142135623731
 10
-2042.99633276208
 20
-1486.324728877637
 42
0.4142135623731
  0
LWPOLYLINE
  5
418
330
1F
100
AcDbEntity
  8
寸法
  6
Continuous
 62
     7
370
     9
100
AcDbPolyline
 90
        4
 70
     1
 43
3.0
 10
-1841.49633276208
 20
-1464.824728877637
 42
0.4142135623731
 10
-1842.99633276208
 20
-1463.324728877637
 42
0.4142135623731
 10
-1844.49633276208
 20
-1464.824728877637
 42
0.4142135623731
 10
-1842.99633276208
 20
-1466.324728877636
 42
0.4142135623731
  0
LINE
  5
419
330
1F
100
AcDbEntity
  8
寸法
  6
Continuous
 62
   120
370
     5
100
AcDbLine
 10
-2042.99633276208
 20
-1484.824728877637
 30
0.0
 11
-1642.996332762079
 21
-1484.824728877637
 31
0.0
  0
LINE
  5
41A
330
1F
100
AcDbEntity
  8
寸法
  6
Continuous
 62
   120
370
     5
100
AcDbLine
 10
-1842.99633276208
 20
-1464.824728877637
 30
0.0
 11
-1642.996332762079
 21
-1464.824728877637
 31
0.0
  0
LINE
  5
41B
330
1F
100
AcDbEntity
  8
寸法
  6
Continuous
 62
   120
370
     5
100
AcDbLine
 10
-1562.99633276208
 20
-1934.824728877638
 30
0.0
 11
-1562.99633276208
 21
-1534.824728877639
 31
0.0
  0
LINE
  5
41C
330
1F
100
AcDbEntity
  8
寸法
  6
Continuous
 62
   120
370
     5
100
AcDbLine
 10
-1592.99633276208
 20
-2134.824728877637
 30
0.0
 11
-1592.99633276208
 21
-1534.824728877639
 31
0.0
  0
LINE
  5
41D
330
1F
100
AcDbEntity
  8
寸法
  6
Continuous
 62
   120
370
     5
100
AcDbLine
 10
24.00366723791933
 20
-1734.824728877637
 30
0.0
 11
24.00366723791933
 21
-1534.824728877639
 31
0.0
  0
LINE
  5
41E
330
1F
100
AcDbEntity
  8
寸法
  6
Continuous
 62
   120
370
     5
100
AcDbLine
 10
-785.9963327620807
 20
-1734.824728877637
 30
0.0
 11
-785.9963327620807
 21
-1534.824728877639
 31
0.0
  0
LINE
  5
41F
330
1F
100
AcDbEntity
  8
寸法
  6
Continuous
 62
   120
370
     5
100
AcDbLine
 10
-785.9963327620807
 20
-1734.824728877637
 30
0.0
 11
834.0036672379193
 21
-1734.824728877637
 31
0.0
  0
LINE
  5
420
330
1F
100
AcDbEntity
  8
寸法
  6
Continuous
 62
   120
370
     5
100
AcDbLine
 10
-1562.99633276208
 20
-1934.824728877638
 30
0.0
 11
1611.003667237919
 21
-1934.824728877636
 31
0.0
  0
LINE
  5
421
330
1F
100
AcDbEntity
  8
寸法
  6
Continuous
 62
   120
370
     5
100
AcDbLine
 10
1611.003667237919
 20
-1934.824728877636
 30
0.0
 11
1611.003667237919
 21
-1534.824728877637
 31
0.0
  0
LINE
  5
422
330
1F
100
AcDbEntity
  8
寸法
  6
Continuous
 62
   120
370
     5
100
AcDbLine
 10
-1592.99633276208
 20
-2134.824728877637
 30
0.0
 11
1641.003667237919
 21
-2134.824728877636
 31
0.0
  0
LINE
  5
423
330
1F
100
AcDbEntity
  8
寸法
  6
Continuous
 62
   120
370
     5
100
AcDbLine
 10
1641.003667237919
 20
-2134.824728877636
 30
0.0
 11
1641.003667237919
 21
-1534.824728877637
 31
0.0
  0
LINE
  5
424
330
1F
100
AcDbEntity
  8
寸法
  6
Continuous
 62
   120
370
     5
100
AcDbLine
 10
834.0036672379193
 20
-1734.824728877637
 30
0.0
 11
834.0036672379193
 21
-1534.824728877639
 31
0.0
  0
LWPOLYLINE
  5
425
330
1F
100
AcDbEntity
  8
寸法
  6
Continuous
 62
     7
370
     9
100
AcDbPolyline
 90
        4
 70
     1
 43
3.0
 10
-1561.49633276208
 20
-1934.824728877638
 42
0.4142135623731
 10
-1562.99633276208
 20
-1933.324728877638
 42
0.4142135623731
 10
-1564.49633276208
 20
-1934.824728877638
 42
0.4142135623731
 10
-1562.99633276208
 20
-1936.324728877638
 42
0.4142135623731
  0
LWPOLYLINE
  5
426
330
1F
100
AcDbEntity
  8
寸法
  6
Continuous
 62
     7
370
     9
100
AcDbPolyline
 90
        4
 70
     1
 43
3.0
 10
-1591.49633276208
 20
-2134.824728877637
 42
0.4142135623731
 10
-1592.99633276208
 20
-2133.324728877637
 42
0.4142135623731
 10
-1594.49633276208
 20
-2134.824728877637
 42
0.4142135623731
 10
-1592.99633276208
 20
-2136.324728877637
 42
0.4142135623731
  0
LWPOLYLINE
  5
427
330
1F
100
AcDbEntity
  8
寸法
  6
Continuous
 62
     7
370
     9
100
AcDbPolyline
 90
        4
 70
     1
 43
3.0
 10
25.50366723791933
 20
-1734.824728877637
 42
0.4142135623731
 10
24.00366723791933
 20
-1733.324728877637
 42
0.4142135623731
 10
22.50366723791933
 20
-1734.824728877637
 42
0.4142135623731
 10
24.00366723791933
 20
-1736.324728877636
 42
0.4142135623731
  0
LWPOLYLINE
  5
428
330
1F
100
AcDbEntity
  8
寸法
  6
Continuous
 62
     7
370
     9
100
AcDbPolyline
 90
        4
 70
     1
 43
3.0
 10
-784.4963327620807
 20
-1734.824728877637
 42
0.4142135623731
 10
-785.9963327620807
 20
-1733.324728877637
 42
0.4142135623731
 10
-787.4963327620807
 20
-1734.824728877637
 42
0.4142135623731
 10
-785.9963327620807
 20
-1736.324728877636
 42
0.4142135623731
  0
LWPOLYLINE
  5
429
330
1F
100
AcDbEntity
  8
寸法
  6
Continuous
 62
     7
370
     9
100
AcDbPolyline
 90
        4
 70
     1
 43
3.0
 10
1612.503667237919
 20
-1934.824728877636
 42
0.4142135623731
 10
1611.003667237919
 20
-1933.324728877637
 42
0.4142135623731
 10
1609.503667237919
 20
-1934.824728877636
 42
0.4142135623731
 10
1611.003667237919
 20
-1936.324728877636
 42
0.4142135623731
  0
LWPOLYLINE
  5
42A
330
1F
100
AcDbEntity
  8
寸法
  6
Continuous
 62
     7
370
     9
100
AcDbPolyline
 90
        4
 70
     1
 43
3.0
 10
1642.503667237919
 20
-2134.824728877636
 42
0.4142135623731
 10
1641.003667237919
 20
-2133.324728877636
 42
0.4142135623731
 10
1639.503667237919
 20
-2134.824728877636
 42
0.4142135623731
 10
1641.003667237919
 20
-2136.324728877636
 42
0.4142135623731
  0
LWPOLYLINE
  5
42B
330
1F
100
AcDbEntity
  8
寸法
  6
Continuous
 62
     7
370
     9
100
AcDbPolyline
 90
        4
 70
     1
 43
3.0
 10
835.5036672379193
 20
-1734.824728877637
 42
0.4142135623731
 10
834.0036672379193
 20
-1733.324728877637
 42
0.4142135623731
 10
832.5036672379193
 20
-1734.824728877637
 42
0.4142135623731
 10
834.0036672379193
 20
-1736.324728877636
 42
0.4142135623731
  0
LINE
  5
42C
330
1F
100
AcDbEntity
  8
寸法
  6
Continuous
 62
   120
370
     5
100
AcDbLine
 10
-2042.99633276208
 20
762.1752711223638
 30
0.0
 11
-1642.996332762079
 21
762.1752711223638
 31
0.0
  0
LWPOLYLINE
  5
42D
330
1F
100
AcDbEntity
  8
寸法
  6
Continuous
 62
     7
370
     9
100
AcDbPolyline
 90
        4
 70
     1
 43
3.0
 10
-2041.49633276208
 20
762.1752711223638
 42
0.4142135623731
 10
-2042.99633276208
 20
763.6752711223638
 42
0.4142135623731
 10
-2044.49633276208
 20
762.1752711223638
 42
0.4142135623731
 10
-2042.99633276208
 20
760.6752711223638
 42
0.4142135623731
  0
LINE
  5
42E
330
1F
100
AcDbEntity
  8
寸法
  6
Continuous
 62
   120
370
     5
100
AcDbLine
 10
-2042.99633276208
 20
762.1752711223638
 30
0.0
 11
-2042.99633276208
 21
-1484.824728877637
 31
0.0
  0
LINE
  5
42F
330
1F
100
AcDbEntity
  8
寸法
  6
Continuous
 62
   120
370
     5
100
AcDbLine
 10
-1842.99633276208
 20
718.1752711223629
 30
0.0
 11
-1642.996332762079
 21
718.1752711223629
 31
0.0
  0
LWPOLYLINE
  5
430
330
1F
100
AcDbEntity
  8
寸法
  6
Continuous
 62
     7
370
     9
100
AcDbPolyline
 90
        4
 70
     1
 43
3.0
 10
-1841.49633276208
 20
718.1752711223629
 42
0.4142135623731
 10
-1842.99633276208
 20
719.6752711223629
 42
0.4142135623731
 10
-1844.49633276208
 20
718.1752711223629
 42
0.4142135623731
 10
-1842.99633276208
 20
716.6752711223629
 42
0.4142135623731
  0
LINE
  5
431
330
1F
100
AcDbEntity
  8
寸法
  6
Continuous
 62
   120
370
     5
100
AcDbLine
 10
-1842.99633276208
 20
718.1752711223629
 30
0.0
 11
-1842.99633276208
 21
-1464.824728877637
 31
0.0
  0
MTEXT
  5
432
330
1F
100
AcDbEntity
  8
寸法
  6
Continuous
 62
     7
370
    70
100
AcDbMText
 10
-2057.99633276208
 20
-585.4997288776361
 30
0.0
 40
57.14999999999999
 41
412.5
 46
0.0
 71
     7
 72
     1
  1
{\fＭＳ ゴシック|b0|i0|c128|p49;枠外＝2,247}
 11
6.123031769111886E-17
 21
1.0
 31
0.0
 73
     1
 44
1.0
  0
MTEXT
  5
433
330
1F
100
AcDbEntity
  8
寸法
  6
Continuous
 62
     7
370
    70
100
AcDbMText
 10
-1857.99633276208
 20
-591.4997288776358
 30
0.0
 40
57.14999999999999
 41
412.5
 46
0.0
 71
     7
 72
     1
  1
{\fＭＳ ゴシック|b0|i0|c128|p49;ＤＨ＝2,183}
 11
6.123031769111886E-17
 21
1.0
 31
0.0
 73
     1
 44
1.0
  0
MTEXT
  5
434
330
1F
100
AcDbEntity
  8
寸法
  6
Continuous
 62
     7
370
   211
100
AcDbMText
 10
-549.7463327620807
 20
-1728.749728877636
 30
0.0
 40
57.15
 41
337.5
 46
0.0
 71
     7
 72
     1
  1
{\fＭＳ ゴシック|b0|i0|c128|p49;ＤＷ＝810}
 73
     1
 44
1.0
  0
MTEXT
  5
435
330
1F
100
AcDbEntity
  8
寸法
  6
Continuous
 62
     7
370
   211
100
AcDbMText
 10
260.2536672379193
 20
-1728.749728877636
 30
0.0
 40
57.15
 41
337.5
 46
0.0
 71
     7
 72
     1
  1
{\fＭＳ ゴシック|b0|i0|c128|p49;ＤＷ＝810}
 73
     1
 44
1.0
  0
MTEXT
  5
436
330
1F
100
AcDbEntity
  8
寸法
  6
Continuous
 62
     7
370
   211
100
AcDbMText
 10
-182.2463327620807
 20
-1928.749728877638
 30
0.0
 40
57.14999999999999
 41
412.5
 46
0.0
 71
     7
 72
     1
  1
{\fＭＳ ゴシック|b0|i0|c128|p49;枠内＝3,174}
 73
     1
 44
1.0
  0
MTEXT
  5
437
330
1F
100
AcDbEntity
  8
寸法
  6
Continuous
 62
     7
370
   211
100
AcDbMText
 10
-182.2463327620807
 20
-2128.749728877637
 30
0.0
 40
57.14999999999999
 41
412.5
 46
0.0
 71
     7
 72
     1
  1
{\fＭＳ ゴシック|b0|i0|c128|p49;枠外＝3,234}
 73
     1
 44
1.0
  0
ENDSEC
  0
SECTION
  2
OBJECTS
  0
DICTIONARY
  5
C
330
0
100
AcDbDictionary
281
     1
  3
ACAD_GROUP
350
D
  3
ACAD_LAYOUT
350
1A
  3
ACAD_MATERIAL
350
3B
  3
ACAD_MLEADERSTYLE
350
439
  3
ACAD_MLINESTYLE
350
17
  3
ACAD_PLOTSETTINGS
350
19
  3
ACAD_PLOTSTYLENAME
350
E
  3
ACAD_TABLESTYLE
350
438
  3
ACAD_VISUALSTYLE
350
2A
  0
DICTIONARY
  5
D
102
{ACAD_REACTORS
330
C
102
}
330
C
100
AcDbDictionary
281
     1
  0
DICTIONARY
  5
1A
102
{ACAD_REACTORS
330
C
102
}
330
C
100
AcDbDictionary
281
     1
  3
Layout1
350
1E
  3
Layout2
350
26
  3
Model
350
22
  0
DICTIONARY
  5
3B
102
{ACAD_REACTORS
330
C
102
}
330
C
100
AcDbDictionary
281
     1
  3
ByBlock
350
3D
  3
ByLayer
350
3C
  3
Global
350
3E
  0
DICTIONARY
  5
439
102
{ACAD_REACTORS
330
C
102
}
330
C
100
AcDbDictionary
281
     1
  0
DICTIONARY
  5
17
102
{ACAD_REACTORS
330
C
102
}
330
C
100
AcDbDictionary
281
     1
  3
Standard
350
18
  0
DICTIONARY
  5
19
102
{ACAD_REACTORS
330
C
102
}
330
C
100
AcDbDictionary
281
     1
  0
ACDBDICTIONARYWDFLT
  5
E
102
{ACAD_REACTORS
330
C
102
}
330
C
100
AcDbDictionary
281
     1
  3
Normal
350
F
100
AcDbDictionaryWithDefault
340
F
  0
DICTIONARY
  5
438
102
{ACAD_REACTORS
330
C
102
}
330
C
100
AcDbDictionary
281
     1
  0
DICTIONARY
  5
2A
102
{ACAD_REACTORS
330
C
102
}
330
C
100
AcDbDictionary
281
     1
  3
2dWireframe
350
2F
  3
3D Hidden
350
31
  3
3dWireframe
350
30
  3
Basic
350
32
  3
Brighten
350
36
  3
ColorChange
350
3A
  3
Conceptual
350
34
  3
Dim
350
35
  3
Facepattern
350
39
  3
Flat
350
2B
  3
FlatWithEdges
350
2C
  3
Gouraud
350
2D
  3
GouraudWithEdges
350
2E
  3
Linepattern
350
38
  3
Realistic
350
33
  3
Thicken
350
37
  0
LAYOUT
  5
1E
102
{ACAD_REACTORS
330
1A
102
}
330
1A
100
AcDbPlotSettings
  1

  2
none_device
  4

  6

 40
0.0
 41
0.0
 42
0.0
 43
0.0
 44
0.0
 45
0.0
 46
0.0
 47
0.0
 48
0.0
 49
0.0
140
0.0
141
0.0
142
1.0
143
1.0
 70
   688
 72
     0
 73
     0
 74
     5
  7

 75
    16
 76
     0
 77
     5
 78
   300
147
1.0
148
0.0
149
0.0
100
AcDbLayout
  1
Layout1
 70
     1
 71
     1
 10
0.0
 20
0.0
 11
420.0
 21
297.0
 12
0.0
 22
0.0
 32
0.0
 14
1.000000000000000E+20
 24
1.000000000000000E+20
 34
1.000000000000000E+20
 15
-1.000000000000000E+20
 25
-1.000000000000000E+20
 35
-1.000000000000000E+20
146
0.0
 13
0.0
 23
0.0
 33
0.0
 16
1.0
 26
0.0
 36
0.0
 17
0.0
 27
1.0
 37
0.0
 76
     0
330
1B
  0
LAYOUT
  5
26
102
{ACAD_REACTORS
330
1A
102
}
330
1A
100
AcDbPlotSettings
  1

  2
none_device
  4

  6

 40
0.0
 41
0.0
 42
0.0
 43
0.0
 44
0.0
 45
0.0
 46
0.0
 47
0.0
 48
0.0
 49
0.0
140
0.0
141
0.0
142
1.0
143
1.0
 70
   688
 72
     0
 73
     0
 74
     5
  7

 75
    16
 76
     0
 77
     5
 78
   300
147
1.0
148
0.0
149
0.0
100
AcDbLayout
  1
Layout2
 70
     1
 71
     2
 10
0.0
 20
0.0
 11
0.0
 21
0.0
 12
0.0
 22
0.0
 32
0.0
 14
0.0
 24
0.0
 34
0.0
 15
0.0
 25
0.0
 35
0.0
146
0.0
 13
0.0
 23
0.0
 33
0.0
 16
1.0
 26
0.0
 36
0.0
 17
0.0
 27
1.0
 37
0.0
 76
     0
330
23
  0
LAYOUT
  5
22
102
{ACAD_REACTORS
330
1A
102
}
330
1A
100
AcDbPlotSettings
  1

  2
none_device
  4

  6

 40
0.0
 41
0.0
 42
0.0
 43
0.0
 44
0.0
 45
0.0
 46
0.0
 47
0.0
 48
0.0
 49
0.0
140
0.0
141
0.0
142
1.0
143
1.0
 70
  1712
 72
     0
 73
     0
 74
     0
  7

 75
     0
 76
     0
 77
     5
 78
   300
147
1.0
148
0.0
149
0.0
100
AcDbLayout
  1
Model
 70
     1
 71
     0
 10
-4455.0
 20
-3150.0
 11
4455.0
 21
3150.0
 12
0.0
 22
0.0
 32
0.0
 14
-4455.0
 24
-3150.0
 34
0.0
 15
4455.0
 25
3150.0
 35
0.0
146
0.0
 13
0.0
 23
0.0
 33
0.0
 16
1.0
 26
0.0
 36
0.0
 17
0.0
 27
1.0
 37
0.0
 76
     0
330
1F
331
29
  0
MATERIAL
  5
3D
102
{ACAD_REACTORS
330
3B
102
}
330
3B
100
AcDbMaterial
  1
ByBlock
 72
     1
 94
      127
  0
MATERIAL
  5
3C
102
{ACAD_REACTORS
330
3B
102
}
330
3B
100
AcDbMaterial
  1
ByLayer
 72
     1
 94
      127
  0
MATERIAL
  5
3E
102
{ACAD_REACTORS
330
3B
102
}
330
3B
100
AcDbMaterial
  1
Global
 72
     1
 94
      127
  0
MLINESTYLE
  5
18
102
{ACAD_REACTORS
330
17
102
}
330
17
100
AcDbMlineStyle
  2
Standard
 70
     0
  3

 62
   256
 51
90.0
 52
90.0
 71
     2
 49
0.5
 62
   256
  6
BYLAYER
 49
-0.5
 62
   256
  6
BYLAYER
  0
ACDBPLACEHOLDER
  5
F
102
{ACAD_REACTORS
330
E
102
}
330
E
  0
VISUALSTYLE
  5
2F
102
{ACAD_REACTORS
330
2A
102
}
330
2A
100
AcDbVisualStyle
  2
2dWireframe
 70
     4
177
     2
291
     0
 71
     0
176
     1
 72
     2
176
     1
 73
     0
176
     1
 90
        0
176
     1
 40
-0.6
176
     1
 41
-30.0
176
     1
 62
     5
 63
     7
421
 16777215
176
     1
 74
     1
176
     1
 91
        4
176
     1
 64
     7
176
     1
 65
   257
176
     1
 75
     1
176
     1
175
     1
176
     1
 42
1.0
176
     1
 92
        0
176
     1
 66
   257
176
     1
 43
1.0
176
     1
 76
     1
176
     1
 77
     6
176
     1
 78
     2
176
     1
 67
     7
176
     1
 79
     5
176
     1
170
     0
176
     1
171
     0
176
     1
290
     0
176
     1
 93
        1
176
     1
 44
0.0
176
     1
173
     0
176
     1
  0
VISUALSTYLE
  5
31
102
{ACAD_REACTORS
330
2A
102
}
330
2A
100
AcDbVisualStyle
  2
3D Hidden
 70
     6
177
     2
291
     0
 71
     1
176
     1
 72
     2
176
     1
 73
     2
176
     1
 90
        0
176
     1
 40
-0.6
176
     1
 41
-30.0
176
     1
 62
     5
 63
     7
421
 16777215
176
     1
 74
     2
176
     1
 91
        2
176
     1
 64
     7
176
     1
 65
   257
176
     1
 75
     2
176
     1
175
     1
176
     1
 42
40.0
176
     1
 92
        0
176
     1
 66
   257
176
     1
 43
1.0
176
     1
 76
     1
176
     1
 77
     6
176
     1
 78
     2
176
     1
 67
     7
176
     1
 79
     3
176
     1
170
     0
176
     1
171
     0
176
     1
290
     0
176
     1
 93
        1
176
     1
 44
0.0
176
     1
173
     0
176
     1
  0
VISUALSTYLE
  5
30
102
{ACAD_REACTORS
330
2A
102
}
330
2A
100
AcDbVisualStyle
  2
3dWireframe
 70
     5
177
     2
291
     0
 71
     0
176
     1
 72
     2
176
     1
 73
     0
176
     1
 90
        0
176
     1
 40
-0.6
176
     1
 41
-30.0
176
     1
 62
     5
 63
     7
421
 16777215
176
     1
 74
     1
176
     1
 91
        4
176
     1
 64
     7
176
     1
 65
   257
176
     1
 75
     1
176
     1
175
     1
176
     1
 42
1.0
176
     1
 92
        0
176
     1
 66
   257
176
     1
 43
1.0
176
     1
 76
     1
176
     1
 77
     6
176
     1
 78
     2
176
     1
 67
     7
176
     1
 79
     5
176
     1
170
     0
176
     1
171
     0
176
     1
290
     0
176
     1
 93
        1
176
     1
 44
0.0
176
     1
173
     0
176
     1
  0
VISUALSTYLE
  5
32
102
{ACAD_REACTORS
330
2A
102
}
330
2A
100
AcDbVisualStyle
  2
Basic
 70
     7
177
     2
291
     1
 71
     1
176
     1
 72
     0
176
     1
 73
     1
176
     1
 90
        0
176
     1
 40
-0.6
176
     1
 41
-30.0
176
     1
 62
     5
 63
     7
421
 16777215
176
     1
 74
     0
176
     1
 91
        4
176
     1
 64
     7
176
     1
 65
   257
176
     1
 75
     1
176
     1
175
     1
176
     1
 42
1.0
176
     1
 92
        8
176
     1
 66
     7
176
     1
 43
1.0
176
     1
 76
     1
176
     1
 77
     6
176
     1
 78
     2
176
     1
 67
     7
176
     1
 79
     5
176
     1
170
     0
176
     1
171
     0
176
     1
290
     0
176
     1
 93
        1
176
     1
 44
0.0
176
     1
173
     0
176
     1
  0
VISUALSTYLE
  5
36
102
{ACAD_REACTORS
330
2A
102
}
330
2A
100
AcDbVisualStyle
  2
Brighten
 70
    12
177
     2
291
     1
 71
     2
176
     1
 72
     2
176
     1
 73
     0
176
     1
 90
        0
176
     1
 40
-0.6
176
     1
 41
-30.0
176
     1
 62
     5
 63
     7
421
 16777215
176
     1
 74
     1
176
     1
 91
        4
176
     1
 64
     7
176
     1
 65
   257
176
     1
 75
     1
176
     1
175
     1
176
     1
 42
1.0
176
     1
 92
        8
176
     1
 66
     7
176
     1
 43
1.0
176
     1
 76
     1
176
     1
 77
     6
176
     1
 78
     2
176
     1
 67
     7
176
     1
 79
     5
176
     1
170
     0
176
     1
171
     0
176
     1
290
     0
176
     1
 93
        1
176
     1
 44
50.0
176
     1
173
     0
176
     1
  0
VISUALSTYLE
  5
3A
102
{ACAD_REACTORS
330
2A
102
}
330
2A
100
AcDbVisualStyle
  2
ColorChange
 70
    16
177
     2
291
     1
 71
     2
176
     1
 72
     2
176
     1
 73
     3
176
     1
 90
        0
176
     1
 40
-0.6
176
     1
 41
-30.0
176
     1
 62
     5
 63
     8
421
  8421504
176
     1
 74
     1
176
     1
 91
        4
176
     1
 64
     7
176
     1
 65
   257
176
     1
 75
     1
176
     1
175
     1
176
     1
 42
1.0
176
     1
 92
        8
176
     1
 66
     8
424
  8421504
176
     1
 43
1.0
176
     1
 76
     1
176
     1
 77
     6
176
     1
 78
     2
176
     1
 67
     7
176
     1
 79
     5
176
     1
170
     0
176
     1
171
     0
176
     1
290
     0
176
     1
 93
        1
176
     1
 44
0.0
176
     1
173
     0
176
     1
  0
VISUALSTYLE
  5
34
102
{ACAD_REACTORS
330
2A
102
}
330
2A
100
AcDbVisualStyle
  2
Conceptual
 70
     9
177
     2
291
     0
 71
     3
176
     1
 72
     2
176
     1
 73
     0
176
     1
 90
        0
176
     1
 40
-0.6
176
     1
 41
-30.0
176
     1
 62
     5
 63
     7
421
 16777215
176
     1
 74
     2
176
     1
 91
        2
176
     1
 64
     7
176
     1
 65
   257
176
     1
 75
     1
176
     1
175
     1
176
     1
 42
40.0
176
     1
 92
        8
176
     1
 66
     7
176
     1
 43
1.0
176
     1
 76
     1
176
     1
 77
     6
176
     1
 78
     2
176
     1
 67
     7
176
     1
 79
     3
176
     1
170
     0
176
     1
171
     0
176
     1
290
     0
176
     1
 93
        1
176
     1
 44
0.0
176
     1
173
     0
176
     1
  0
VISUALSTYLE
  5
35
102
{ACAD_REACTORS
330
2A
102
}
330
2A
100
AcDbVisualStyle
  2
Dim
 70
    11
177
     2
291
     1
 71
     2
176
     1
 72
     2
176
     1
 73
     0
176
     1
 90
        0
176
     1
 40
-0.6
176
     1
 41
-30.0
176
     1
 62
     5
 63
     7
421
 16777215
176
     1
 74
     1
176
     1
 91
        4
176
     1
 64
     7
176
     1
 65
   257
176
     1
 75
     1
176
     1
175
     1
176
     1
 42
1.0
176
     1
 92
        8
176
     1
 66
     7
176
     1
 43
1.0
176
     1
 76
     1
176
     1
 77
     6
176
     1
 78
     2
176
     1
 67
     7
176
     1
 79
     5
176
     1
170
     0
176
     1
171
     0
176
     1
290
     0
176
     1
 93
        1
176
     1
 44
-50.0
176
     1
173
     0
176
     1
  0
VISUALSTYLE
  5
39
102
{ACAD_REACTORS
330
2A
102
}
330
2A
100
AcDbVisualStyle
  2
Facepattern
 70
    15
177
     2
291
     1
 71
     2
176
     1
 72
     2
176
     1
 73
     0
176
     1
 90
        0
176
     1
 40
-0.6
176
     1
 41
-30.0
176
     1
 62
     5
 63
     7
421
 16777215
176
     1
 74
     1
176
     1
 91
        4
176
     1
 64
     7
176
     1
 65
   257
176
     1
 75
     1
176
     1
175
     1
176
     1
 42
1.0
176
     1
 92
        8
176
     1
 66
     7
176
     1
 43
1.0
176
     1
 76
     1
176
     1
 77
     6
176
     1
 78
     2
176
     1
 67
     7
176
     1
 79
     5
176
     1
170
     0
176
     1
171
     0
176
     1
290
     0
176
     1
 93
        1
176
     1
 44
0.0
176
     1
173
     0
176
     1
  0
VISUALSTYLE
  5
2B
102
{ACAD_REACTORS
330
2A
102
}
330
2A
100
AcDbVisualStyle
  2
Flat
 70
     0
177
     2
291
     1
 71
     2
176
     1
 72
     1
176
     1
 73
     1
176
     1
 90
        2
176
     1
 40
-0.6
176
     1
 41
30.0
176
     1
 62
     5
 63
     7
421
 16777215
176
     1
 74
     0
176
     1
 91
        4
176
     1
 64
     7
176
     1
 65
   257
176
     1
 75
     1
176
     1
175
     1
176
     1
 42
1.0
176
     1
 92
        8
176
     1
 66
     7
176
     1
 43
1.0
176
     1
 76
     1
176
     1
 77
     6
176
     1
 78
     2
176
     1
 67
     7
176
     1
 79
     5
176
     1
170
     0
176
     1
171
     0
176
     1
290
     0
176
     1
 93
       13
176
     1
 44
0.0
176
     1
173
     0
176
     1
  0
VISUALSTYLE
  5
2C
102
{ACAD_REACTORS
330
2A
102
}
330
2A
100
AcDbVisualStyle
  2
FlatWithEdges
 70
     1
177
     2
291
     1
 71
     2
176
     1
 72
     1
176
     1
 73
     1
176
     1
 90
        2
176
     1
 40
-0.6
176
     1
 41
30.0
176
     1
 62
     5
 63
     7
421
 16777215
176
     1
 74
     1
176
     1
 91
        4
176
     1
 64
     7
176
     1
 65
   257
176
     1
 75
     1
176
     1
175
     1
176
     1
 42
1.0
176
     1
 92
        0
176
     1
 66
   257
176
     1
 43
1.0
176
     1
 76
     1
176
     1
 77
     6
176
     1
 78
     2
176
     1
 67
     7
176
     1
 79
     5
176
     1
170
     0
176
     1
171
     0
176
     1
290
     0
176
     1
 93
       13
176
     1
 44
0.0
176
     1
173
     0
176
     1
  0
VISUALSTYLE
  5
2D
102
{ACAD_REACTORS
330
2A
102
}
330
2A
100
AcDbVisualStyle
  2
Gouraud
 70
     2
177
     2
291
     1
 71
     2
176
     1
 72
     2
176
     1
 73
     1
176
     1
 90
        2
176
     1
 40
-0.6
176
     1
 41
30.0
176
     1
 62
     5
 63
     7
421
 16777215
176
     1
 74
     0
176
     1
 91
        4
176
     1
 64
     7
176
     1
 65
   257
176
     1
 75
     1
176
     1
175
     1
176
     1
 42
1.0
176
     1
 92
        0
176
     1
 66
     7
176
     1
 43
1.0
176
     1
 76
     1
176
     1
 77
     6
176
     1
 78
     2
176
     1
 67
     7
176
     1
 79
     5
176
     1
170
     0
176
     1
171
     0
176
     1
290
     0
176
     1
 93
       13
176
     1
 44
0.0
176
     1
173
     0
176
     1
  0
VISUALSTYLE
  5
2E
102
{ACAD_REACTORS
330
2A
102
}
330
2A
100
AcDbVisualStyle
  2
GouraudWithEdges
 70
     3
177
     2
291
     1
 71
     2
176
     1
 72
     2
176
     1
 73
     1
176
     1
 90
        2
176
     1
 40
-0.6
176
     1
 41
30.0
176
     1
 62
     5
 63
     7
421
 16777215
176
     1
 74
     1
176
     1
 91
        4
176
     1
 64
     7
176
     1
 65
   257
176
     1
 75
     1
176
     1
175
     1
176
     1
 42
1.0
176
     1
 92
        0
176
     1
 66
   257
176
     1
 43
1.0
176
     1
 76
     1
176
     1
 77
     6
176
     1
 78
     2
176
     1
 67
     7
176
     1
 79
     5
176
     1
170
     0
176
     1
171
     0
176
     1
290
     0
176
     1
 93
       13
176
     1
 44
0.0
176
     1
173
     0
176
     1
  0
VISUALSTYLE
  5
38
102
{ACAD_REACTORS
330
2A
102
}
330
2A
100
AcDbVisualStyle
  2
Linepattern
 70
    14
177
     2
291
     1
 71
     2
176
     1
 72
     2
176
     1
 73
     0
176
     1
 90
        0
176
     1
 40
-0.6
176
     1
 41
-30.0
176
     1
 62
     5
 63
     7
421
 16777215
176
     1
 74
     1
176
     1
 91
        4
176
     1
 64
     7
176
     1
 65
   257
176
     1
 75
     7
176
     1
175
     7
176
     1
 42
1.0
176
     1
 92
        8
176
     1
 66
     7
176
     1
 43
1.0
176
     1
 76
     1
176
     1
 77
     6
176
     1
 78
     2
176
     1
 67
     7
176
     1
 79
     5
176
     1
170
     0
176
     1
171
     0
176
     1
290
     0
176
     1
 93
        1
176
     1
 44
0.0
176
     1
173
     0
176
     1
  0
VISUALSTYLE
  5
33
102
{ACAD_REACTORS
330
2A
102
}
330
2A
100
AcDbVisualStyle
  2
Realistic
 70
     8
177
     2
291
     0
 71
     2
176
     1
 72
     2
176
     1
 73
     0
176
     1
 90
        0
176
     1
 40
-0.6
176
     1
 41
-30.0
176
     1
 62
     5
 63
     7
421
 16777215
176
     1
 74
     1
176
     1
 91
        0
176
     1
 64
     7
176
     1
 65
   257
176
     1
 75
     1
176
     1
175
     1
176
     1
 42
1.0
176
     1
 92
        8
176
     1
 66
     8
424
  7895160
176
     1
 43
1.0
176
     1
 76
     1
176
     1
 77
     6
176
     1
 78
     2
176
     1
 67
     7
176
     1
 79
     5
176
     1
170
     0
176
     1
171
     0
176
     1
290
     0
176
     1
 93
       13
176
     1
 44
0.0
176
     1
173
     0
176
     1
  0
VISUALSTYLE
  5
37
102
{ACAD_REACTORS
330
2A
102
}
330
2A
100
AcDbVisualStyle
  2
Thicken
 70
    13
177
     2
291
     1
 71
     2
176
     1
 72
     2
176
     1
 73
     0
176
     1
 90
        0
176
     1
 40
-0.6
176
     1
 41
-30.0
176
     1
 62
     5
 63
     7
421
 16777215
176
     1
 74
     1
176
     1
 91
        4
176
     1
 64
     7
176
     1
 65
   257
176
     1
 75
     1
176
     1
175
     1
176
     1
 42
1.0
176
     1
 92
       12
176
     1
 66
     7
176
     1
 43
1.0
176
     1
 76
     1
176
     1
 77
     6
176
     1
 78
     2
176
     1
 67
     7
176
     1
 79
     5
176
     1
170
     0
176
     1
171
     0
176
     1
290
     0
176
     1
 93
        1
176
     1
 44
0.0
176
     1
173
     0
176
     1
  0
ENDSEC
  0
EOF
