  0
SECTION
  2
HEADER
  9
$ACADVER
  1
AC1024
  9
$ACADMAINTVER
 70
     6
  9
$DWGCODEPAGE
  3
ANSI_932
  9
$INSBASE
 10
0.0
 20
0.0
 30
0.0
  9
$EXTMIN
 10
-4455.0
 20
-3150.0
 30
0.0
  9
$EXTMAX
 10
4455.0
 20
3150.0
 30
0.0
  9
$LIMMIN
 10
-4455.0
 20
-3150.0
  9
$LIMMAX
 10
4455.0
 20
3150.0
  9
$ORTHOMODE
 70
     0
  9
$REGENMODE
 70
     1
  9
$FILLMODE
 70
     1
  9
$QTEXTMODE
 70
     0
  9
$MIRRTEXT
 70
     1
  9
$LTSCALE
 40
30.0
  9
$ATTMODE
 70
     1
  9
$TEXTSIZE
 40
2.5
  9
$TRACEWID
 40
1.0
  9
$TEXTSTYLE
  7
Standard
  9
$CLAYER
  8
0
  9
$CELTYPE
  6
ByLayer
  9
$CECOLOR
 62
   256
  9
$CELTSCALE
 40
1.0
  9
$DISPSILH
 70
     0
  9
$DIMSCALE
 40
1.0
  9
$DIMASZ
 40
2.5
  9
$DIMEXO
 40
0.625
  9
$DIMDLI
 40
3.75
  9
$DIMRND
 40
0.0
  9
$DIMDLE
 40
0.0
  9
$DIMEXE
 40
1.25
  9
$DIMTP
 40
0.0
  9
$DIMTM
 40
0.0
  9
$DIMTXT
 40
2.5
  9
$DIMCEN
 40
2.5
  9
$DIMTSZ
 40
0.0
  9
$DIMTOL
 70
     0
  9
$DIMLIM
 70
     0
  9
$DIMTIH
 70
     0
  9
$DIMTOH
 70
     0
  9
$DIMSE1
 70
     0
  9
$DIMSE2
 70
     0
  9
$DIMTAD
 70
     1
  9
$DIMZIN
 70
     8
  9
$DIMBLK
  1

  9
$DIMASO
 70
     1
  9
$DIMSHO
 70
     1
  9
$DIMPOST
  1

  9
$DIMAPOST
  1

  9
$DIMALT
 70
     0
  9
$DIMALTD
 70
     3
  9
$DIMALTF
 40
0.03937007874016
  9
$DIMLFAC
 40
1.0
  9
$DIMTOFL
 70
     1
  9
$DIMTVP
 40
0.0
  9
$DIMTIX
 70
     0
  9
$DIMSOXD
 70
     0
  9
$DIMSAH
 70
     0
  9
$DIMBLK1
  1

  9
$DIMBLK2
  1

  9
$DIMSTYLE
  2
ISO-25
  9
$DIMCLRD
 70
     0
  9
$DIMCLRE
 70
     0
  9
$DIMCLRT
 70
     0
  9
$DIMTFAC
 40
1.0
  9
$DIMGAP
 40
0.625
  9
$DIMJUST
 70
     0
  9
$DIMSD1
 70
     0
  9
$DIMSD2
 70
     0
  9
$DIMTOLJ
 70
     0
  9
$DIMTZIN
 70
     8
  9
$DIMALTZ
 70
     0
  9
$DIMALTTZ
 70
     0
  9
$DIMUPT
 70
     0
  9
$DIMDEC
 70
     2
  9
$DIMTDEC
 70
     2
  9
$DIMALTU
 70
     2
  9
$DIMALTTD
 70
     3
  9
$DIMTXSTY
  7
Standard
  9
$DIMAUNIT
 70
     0
  9
$DIMADEC
 70
     0
  9
$DIMALTRND
 40
0.0
  9
$DIMAZIN
 70
     0
  9
$DIMDSEP
 70
    44
  9
$DIMATFIT
 70
     3
  9
$DIMFRAC
 70
     0
  9
$DIMLDRBLK
  1

  9
$DIMLUNIT
 70
     2
  9
$DIMLWD
 70
    -2
  9
$DIMLWE
 70
    -2
  9
$DIMTMOVE
 70
     0
  9
$DIMFXL
 40
1.0
  9
$DIMFXLON
 70
     0
  9
$DIMJOGANG
 40
0.7853981633974483
  9
$DIMTFILL
 70
     0
  9
$DIMTFILLCLR
 70
     0
  9
$DIMARCSYM
 70
     0
  9
$DIMLTYPE
  6

  9
$DIMLTEX1
  6

  9
$DIMLTEX2
  6

  9
$DIMTXTDIRECTION
 70
     0
  9
$LUNITS
 70
     2
  9
$LUPREC
 70
     4
  9
$SKETCHINC
 40
1.0
  9
$FILLETRAD
 40
10.0
  9
$AUNITS
 70
     0
  9
$AUPREC
 70
     0
  9
$MENU
  1
.
  9
$ELEVATION
 40
0.0
  9
$PELEVATION
 40
0.0
  9
$THICKNESS
 40
0.0
  9
$LIMCHECK
 70
     0
  9
$CHAMFERA
 40
10.0
  9
$CHAMFERB
 40
10.0
  9
$CHAMFERC
 40
20.0
  9
$CHAMFERD
 40
0.0
  9
$SKPOLY
 70
     0
  9
$TDCREATE
 40
2457953.400726343
  9
$TDUCREATE
 40
2457953.025726343
  9
$TDUPDATE
 40
2457953.400726354
  9
$TDUUPDATE
 40
2457953.025726354
  9
$TDINDWG
 40
0.0000000116
  9
$TDUSRTIMER
 40
0.0000000116
  9
$USRTIMER
 70
     1
  9
$ANGBASE
 50
0.0
  9
$ANGDIR
 70
     0
  9
$PDMODE
 70
     0
  9
$PDSIZE
 40
0.0
  9
$PLINEWID
 40
0.0
  9
$SPLFRAME
 70
     0
  9
$SPLINETYPE
 70
     6
  9
$SPLINESEGS
 70
     8
  9
$HANDSEED
  5
2C0
  9
$SURFTAB1
 70
     6
  9
$SURFTAB2
 70
     6
  9
$SURFTYPE
 70
     6
  9
$SURFU
 70
     6
  9
$SURFV
 70
     6
  9
$UCSBASE
  2

  9
$UCSNAME
  2

  9
$UCSORG
 10
0.0
 20
0.0
 30
0.0
  9
$UCSXDIR
 10
1.0
 20
0.0
 30
0.0
  9
$UCSYDIR
 10
0.0
 20
1.0
 30
0.0
  9
$UCSORTHOREF
  2

  9
$UCSORTHOVIEW
 70
     0
  9
$UCSORGTOP
 10
0.0
 20
0.0
 30
0.0
  9
$UCSORGBOTTOM
 10
0.0
 20
0.0
 30
0.0
  9
$UCSORGLEFT
 10
0.0
 20
0.0
 30
0.0
  9
$UCSORGRIGHT
 10
0.0
 20
0.0
 30
0.0
  9
$UCSORGFRONT
 10
0.0
 20
0.0
 30
0.0
  9
$UCSORGBACK
 10
0.0
 20
0.0
 30
0.0
  9
$PUCSBASE
  2

  9
$PUCSNAME
  2

  9
$PUCSORG
 10
0.0
 20
0.0
 30
0.0
  9
$PUCSXDIR
 10
1.0
 20
0.0
 30
0.0
  9
$PUCSYDIR
 10
0.0
 20
1.0
 30
0.0
  9
$PUCSORTHOREF
  2

  9
$PUCSORTHOVIEW
 70
     0
  9
$PUCSORGTOP
 10
0.0
 20
0.0
 30
0.0
  9
$PUCSORGBOTTOM
 10
0.0
 20
0.0
 30
0.0
  9
$PUCSORGLEFT
 10
0.0
 20
0.0
 30
0.0
  9
$PUCSORGRIGHT
 10
0.0
 20
0.0
 30
0.0
  9
$PUCSORGFRONT
 10
0.0
 20
0.0
 30
0.0
  9
$PUCSORGBACK
 10
0.0
 20
0.0
 30
0.0
  9
$USERI1
 70
     0
  9
$USERI2
 70
     0
  9
$USERI3
 70
     0
  9
$USERI4
 70
     0
  9
$USERI5
 70
     0
  9
$USERR1
 40
0.0
  9
$USERR2
 40
0.0
  9
$USERR3
 40
0.0
  9
$USERR4
 40
0.0
  9
$USERR5
 40
0.0
  9
$WORLDVIEW
 70
     1
  9
$SHADEDGE
 70
     3
  9
$SHADEDIF
 70
    70
  9
$TILEMODE
 70
     1
  9
$MAXACTVP
 70
    64
  9
$PINSBASE
 10
0.0
 20
0.0
 30
0.0
  9
$PLIMCHECK
 70
     0
  9
$PEXTMIN
 10
1.000000000000000E+20
 20
1.000000000000000E+20
 30
1.000000000000000E+20
  9
$PEXTMAX
 10
-1.000000000000000E+20
 20
-1.000000000000000E+20
 30
-1.000000000000000E+20
  9
$PLIMMIN
 10
0.0
 20
0.0
  9
$PLIMMAX
 10
420.0
 20
297.0
  9
$UNITMODE
 70
     0
  9
$VISRETAIN
 70
     1
  9
$PLINEGEN
 70
     0
  9
$PSLTSCALE
 70
     1
  9
$TREEDEPTH
 70
  3020
  9
$CMLSTYLE
  2
Standard
  9
$CMLJUST
 70
     0
  9
$CMLSCALE
 40
20.0
  9
$PROXYGRAPHICS
 70
     1
  9
$MEASUREMENT
 70
     1
  9
$CELWEIGHT
370
    -1
  9
$ENDCAPS
280
     0
  9
$JOINSTYLE
280
     0
  9
$LWDISPLAY
290
     0
  9
$INSUNITS
 70
     4
  9
$HYPERLINKBASE
  1

  9
$STYLESHEET
  1

  9
$XEDIT
290
     1
  9
$CEPSNTYPE
380
     0
  9
$PSTYLEMODE
290
     1
  9
$FINGERPRINTGUID
  2
{4B676173-C8C3-4AC5-99C5-A589FD67D116}
  9
$VERSIONGUID
  2
{FAEB1C32-E019-11D5-929B-00C0DF256EC4}
  9
$EXTNAMES
290
     1
  9
$PSVPSCALE
 40
0.0
  9
$OLESTARTUP
290
     0
  9
$SORTENTS
280
   127
  9
$INDEXCTL
280
     0
  9
$HIDETEXT
280
     1
  9
$XCLIPFRAME
280
     2
  9
$HALOGAP
280
     0
  9
$OBSCOLOR
 70
   257
  9
$OBSLTYPE
280
     0
  9
$INTERSECTIONDISPLAY
280
     0
  9
$INTERSECTIONCOLOR
 70
   257
  9
$DIMASSOC
280
     2
  9
$PROJECTNAME
  1

  9
$CAMERADISPLAY
290
     0
  9
$LENSLENGTH
 40
50.0
  9
$CAMERAHEIGHT
 40
0.0
  9
$STEPSPERSEC
 40
2.0
  9
$STEPSIZE
 40
6.0
  9
$3DDWFPREC
 40
2.0
  9
$PSOLWIDTH
 40
5.0
  9
$PSOLHEIGHT
 40
80.0
  9
$LOFTANG1
 40
1.570796326794897
  9
$LOFTANG2
 40
1.570796326794897
  9
$LOFTMAG1
 40
0.0
  9
$LOFTMAG2
 40
0.0
  9
$LOFTPARAM
 70
     7
  9
$LOFTNORMALS
280
     1
  9
$LATITUDE
 40
37.795
  9
$LONGITUDE
 40
-122.394
  9
$NORTHDIRECTION
 40
0.0
  9
$TIMEZONE
 70
 -8000
  9
$LIGHTGLYPHDISPLAY
280
     1
  9
$TILEMODELIGHTSYNCH
280
     1
  9
$SOLIDHIST
280
     1
  9
$SHOWHIST
280
     1
  9
$DWFFRAME
280
     2
  9
$DGNFRAME
280
     2
  9
$REALWORLDSCALE
290
     1
  9
$INTERFERECOLOR
 62
   256
  9
$CSHADOW
280
     0
  9
$SHADOWPLANELOCATION
 40
0.0
  0
ENDSEC
  0
SECTION
  2
CLASSES
  0
CLASS
  1
ACDBDICTIONARYWDFLT
  2
AcDbDictionaryWithDefault
  3
ObjectDBX Classes
 90
        0
 91
        4
280
     0
281
     0
  0
CLASS
  1
VISUALSTYLE
  2
AcDbVisualStyle
  3
ObjectDBX Classes
 90
     4095
 91
        4
280
     0
281
     0
  0
CLASS
  1
MATERIAL
  2
AcDbMaterial
  3
ObjectDBX Classes
 90
     1153
 91
        4
280
     0
281
     0
  0
ENDSEC
  0
SECTION
  2
TABLES
  0
TABLE
  2
VPORT
  5
8
330
0
100
AcDbSymbolTable
 70
     1
  0
VPORT
  5
29
330
8
100
AcDbSymbolTableRecord
100
AcDbViewportTableRecord
  2
*Active
 70
     0
 10
0.0
 20
0.0
 11
1.0
 21
1.0
 12
0.0
 22
0.0
 13
0.0
 23
0.0
 14
10.0
 24
10.0
 15
10.0
 25
10.0
 16
0.0
 26
0.0
 36
1.0
 17
0.0
 27
0.0
 37
0.0
 40
6930.000000000001
 41
1.414285714285714
 42
50.0
 43
0.0
 44
0.0
 50
0.0
 51
0.0
 71
     0
 72
 10000
 73
     1
 74
     3
 75
     0
 76
     0
 77
     0
 78
     0
281
     0
 65
     1
110
0.0
120
0.0
130
0.0
111
1.0
121
0.0
131
0.0
112
0.0
122
1.0
132
0.0
 79
     0
146
0.0
 60
     3
 61
     5
292
     1
282
     1
141
0.0
142
0.0
 63
   250
  0
ENDTAB
  0
TABLE
  2
LTYPE
  5
5
330
0
100
AcDbSymbolTable
 70
     2
  0
LTYPE
  5
14
330
5
100
AcDbSymbolTableRecord
100
AcDbLinetypeTableRecord
  2
ByBlock
 70
     0
  3

 72
    65
 73
     0
 40
0.0
  0
LTYPE
  5
15
330
5
100
AcDbSymbolTableRecord
100
AcDbLinetypeTableRecord
  2
ByLayer
 70
     0
  3

 72
    65
 73
     0
 40
0.0
  0
LTYPE
  5
16
330
5
100
AcDbSymbolTableRecord
100
AcDbLinetypeTableRecord
  2
Continuous
 70
     0
  3
Solid line
 72
    65
 73
     0
 40
0.0
  0
LTYPE
  5
3F
330
5
100
AcDbSymbolTableRecord
100
AcDbLinetypeTableRecord
  2
JWW_DASHED1
 70
     0
  3
-  --  --  --  --  --  --  --  -
 72
    65
 73
     2
 40
1.693333333333333
 49
0.8466666666666667
 74
     0
 49
-0.8466666666666667
 74
     0
  0
ENDTAB
  0
TABLE
  2
LAYER
  5
2
330
0
100
AcDbSymbolTable
 70
     3
  0
LAYER
  5
10
330
2
100
AcDbSymbolTableRecord
100
AcDbLayerTableRecord
  2
0
 70
     0
 62
     7
  6
Continuous
370
    -3
390
F
347
3E
  0
LAYER
  5
40
330
2
100
AcDbSymbolTableRecord
100
AcDbLayerTableRecord
  2
0-0
 70
     0
 62
     7
  6
Continuous
370
    -3
390
F
347
3E
  0
LAYER
  5
41
330
2
100
AcDbSymbolTableRecord
100
AcDbLayerTableRecord
  2
寸法
 70
     0
 62
     7
  6
Continuous
370
    -3
390
F
347
3E
  0
ENDTAB
  0
TABLE
  2
STYLE
  5
3
330
0
100
AcDbSymbolTable
 70
     1
  0
STYLE
  5
11
330
3
100
AcDbSymbolTableRecord
100
AcDbTextStyleTableRecord
  2
Standard
 70
     0
 40
0.0
 41
1.0
 50
0.0
 71
     0
 42
2.5
  3
txt
  4

  0
ENDTAB
  0
TABLE
  2
VIEW
  5
6
330
0
100
AcDbSymbolTable
 70
     0
  0
ENDTAB
  0
TABLE
  2
UCS
  5
7
330
0
100
AcDbSymbolTable
 70
     0
  0
ENDTAB
  0
TABLE
  2
APPID
  5
9
330
0
100
AcDbSymbolTable
 70
     1
  0
APPID
  5
12
330
9
100
AcDbSymbolTableRecord
100
AcDbRegAppTableRecord
  2
ACAD
 70
     0
  0
ENDTAB
  0
TABLE
  2
DIMSTYLE
  5
A
330
0
100
AcDbSymbolTable
 70
     1
100
AcDbDimStyleTable
  0
DIMSTYLE
105
27
330
A
100
AcDbSymbolTableRecord
100
AcDbDimStyleTableRecord
  2
ISO-25
 70
     0
 41
2.5
 42
0.625
 43
3.75
 44
1.25
 73
     0
 74
     0
 77
     1
 78
     8
140
2.5
141
2.5
143
0.03937007874016
147
0.625
171
     3
172
     1
178
     0
271
     2
272
     2
274
     3
278
    44
283
     0
284
     8
340
11
  0
ENDTAB
  0
TABLE
  2
BLOCK_RECORD
  5
1
330
0
100
AcDbSymbolTable
 70
     1
  0
BLOCK_RECORD
  5
1F
330
1
100
AcDbSymbolTableRecord
100
AcDbBlockTableRecord
  2
*Model_Space
340
22
 70
     0
280
     1
281
     0
  0
BLOCK_RECORD
  5
1B
330
1
100
AcDbSymbolTableRecord
100
AcDbBlockTableRecord
  2
*Paper_Space
340
1E
 70
     0
280
     1
281
     0
  0
BLOCK_RECORD
  5
23
330
1
100
AcDbSymbolTableRecord
100
AcDbBlockTableRecord
  2
*Paper_Space0
340
26
 70
     0
280
     1
281
     0
  0
ENDTAB
  0
ENDSEC
  0
SECTION
  2
BLOCKS
  0
BLOCK
  5
20
330
1F
100
AcDbEntity
  8
0
100
AcDbBlockBegin
  2
*Model_Space
 70
     0
 10
0.0
 20
0.0
 30
0.0
  3
*Model_Space
  1

  0
ENDBLK
  5
21
330
1F
100
AcDbEntity
  8
0
100
AcDbBlockEnd
  0
BLOCK
  5
1C
330
1B
100
AcDbEntity
 67
     1
  8
0
100
AcDbBlockBegin
  2
*Paper_Space
 70
     0
 10
0.0
 20
0.0
 30
0.0
  3
*Paper_Space
  1

  0
ENDBLK
  5
1D
330
1B
100
AcDbEntity
 67
     1
  8
0
100
AcDbBlockEnd
  0
BLOCK
  5
24
330
23
100
AcDbEntity
  8
0
100
AcDbBlockBegin
  2
*Paper_Space0
 70
     0
 10
0.0
 20
0.0
 30
0.0
  3
*Paper_Space0
  1

  0
ENDBLK
  5
25
330
23
100
AcDbEntity
  8
0
100
AcDbBlockEnd
  0
ENDSEC
  0
SECTION
  2
ENTITIES
  0
LINE
  5
42
330
1F
100
AcDbEntity
  8
0-0
  6
Continuous
 62
    92
370
    13
100
AcDbLine
 10
1653.216976367311
 20
-1321.601337228139
 30
0.0
 11
-1580.783023632689
 21
-1321.601337228139
 31
0.0
  0
LINE
  5
43
330
1F
100
AcDbEntity
  8
0-0
  6
Continuous
 62
    92
370
    13
100
AcDbLine
 10
1623.216976367311
 20
-1306.601337228139
 30
0.0
 11
-1550.783023632689
 21
-1306.601337228139
 31
0.0
  0
ARC
  5
44
330
1F
100
AcDbEntity
  8
0-0
  6
Continuous
 62
    92
370
    13
100
AcDbCircle
 10
-34.28302363268691
 20
-284.6013372281385
 30
0.0
 40
1.5
100
AcDbArc
 50
90.0
 51
180.0
  0
LINE
  5
45
330
1F
100
AcDbEntity
  8
0-0
  6
Continuous
 62
    92
370
    13
100
AcDbLine
 10
4.71697636731172
 20
-283.101337228139
 30
0.0
 11
-34.28302363268691
 21
-283.101337228139
 31
0.0
  0
ARC
  5
46
330
1F
100
AcDbEntity
  8
0-0
  6
Continuous
 62
    92
370
    13
100
AcDbCircle
 10
4.71697636731172
 20
-284.6013372281385
 30
0.0
 40
1.5
100
AcDbArc
 50
0.0
 51
90.00000000000001
  0
LINE
  5
47
330
1F
100
AcDbEntity
  8
0-0
  6
Continuous
 62
    92
370
    13
100
AcDbLine
 10
6.216976367312061
 20
-403.6013372281386
 30
0.0
 11
6.216976367312061
 21
-284.6013372281385
 31
0.0
  0
ARC
  5
48
330
1F
100
AcDbEntity
  8
0-0
  6
Continuous
 62
    92
370
    13
100
AcDbCircle
 10
4.71697636731172
 20
-403.6013372281386
 30
0.0
 40
1.5
100
AcDbArc
 50
270.0
 51
0.0
  0
LINE
  5
49
330
1F
100
AcDbEntity
  8
0-0
  6
Continuous
 62
    92
370
    13
100
AcDbLine
 10
-34.28302363268691
 20
-405.1013372281406
 30
0.0
 11
4.71697636731172
 21
-405.1013372281406
 31
0.0
  0
LINE
  5
4A
330
1F
100
AcDbEntity
  8
0-0
  6
Continuous
 62
    92
370
    13
100
AcDbLine
 10
-35.78302363268725
 20
-403.6013372281386
 30
0.0
 11
-35.78302363268725
 21
-284.6013372281385
 31
0.0
  0
ARC
  5
4B
330
1F
100
AcDbEntity
  8
0-0
  6
Continuous
 62
    92
370
    13
100
AcDbCircle
 10
-34.28302363268691
 20
-403.6013372281386
 30
0.0
 40
1.5
100
AcDbArc
 50
180.0
 51
270.0
  0
ARC
  5
4C
330
1F
100
AcDbEntity
  8
0-0
  6
Continuous
 62
     7
370
     9
100
AcDbCircle
 10
-14.7830236326876
 20
-373.7013372281385
 30
0.0
 40
15.0
100
AcDbArc
 50
180.0
 51
0.0
  0
ARC
  5
4D
330
1F
100
AcDbEntity
  8
0-0
  6
Continuous
 62
     7
370
     9
100
AcDbCircle
 10
-14.7830236326876
 20
-314.5013372281386
 30
0.0
 40
15.0
100
AcDbArc
 50
0.0
 51
180.0
  0
LINE
  5
4E
330
1F
100
AcDbEntity
  8
0-0
  6
Continuous
 62
     7
370
     9
100
AcDbLine
 10
0.2169763673124026
 20
-373.7013372281385
 30
0.0
 11
0.2169763673124026
 21
-314.5013372281386
 31
0.0
  0
LINE
  5
4F
330
1F
100
AcDbEntity
  8
0-0
  6
Continuous
 62
     7
370
     9
100
AcDbLine
 10
-29.7830236326876
 20
-314.5013372281386
 30
0.0
 11
-29.7830236326876
 21
-373.7013372281385
 31
0.0
  0
ARC
  5
50
330
1F
100
AcDbEntity
  8
0-0
  6
Continuous
 62
    92
370
    13
100
AcDbCircle
 10
67.71697636730899
 20
-284.6013372281385
 30
0.0
 40
1.5
100
AcDbArc
 50
90.0
 51
180.0
  0
LINE
  5
51
330
1F
100
AcDbEntity
  8
0-0
  6
Continuous
 62
    92
370
    13
100
AcDbLine
 10
106.716976367311
 20
-283.101337228139
 30
0.0
 11
67.71697636730899
 21
-283.101337228139
 31
0.0
  0
ARC
  5
52
330
1F
100
AcDbEntity
  8
0-0
  6
Continuous
 62
    92
370
    13
100
AcDbCircle
 10
106.716976367311
 20
-284.6013372281385
 30
0.0
 40
1.5
100
AcDbArc
 50
0.0
 51
90.00000000000001
  0
LINE
  5
53
330
1F
100
AcDbEntity
  8
0-0
  6
Continuous
 62
    92
370
    13
100
AcDbLine
 10
108.2169763673097
 20
-403.6013372281386
 30
0.0
 11
108.2169763673097
 21
-284.6013372281385
 31
0.0
  0
ARC
  5
54
330
1F
100
AcDbEntity
  8
0-0
  6
Continuous
 62
    92
370
    13
100
AcDbCircle
 10
106.716976367311
 20
-403.6013372281386
 30
0.0
 40
1.5
100
AcDbArc
 50
270.0
 51
0.0
  0
LINE
  5
55
330
1F
100
AcDbEntity
  8
0-0
  6
Continuous
 62
    92
370
    13
100
AcDbLine
 10
67.71697636730899
 20
-405.1013372281406
 30
0.0
 11
106.716976367311
 21
-405.1013372281406
 31
0.0
  0
LINE
  5
56
330
1F
100
AcDbEntity
  8
0-0
  6
Continuous
 62
    92
370
    13
100
AcDbLine
 10
66.2169763673112
 20
-403.6013372281386
 30
0.0
 11
66.2169763673112
 21
-284.6013372281385
 31
0.0
  0
ARC
  5
57
330
1F
100
AcDbEntity
  8
0-0
  6
Continuous
 62
    92
370
    13
100
AcDbCircle
 10
67.71697636730899
 20
-403.6013372281386
 30
0.0
 40
1.5
100
AcDbArc
 50
180.0
 51
270.0
  0
ARC
  5
58
330
1F
100
AcDbEntity
  8
0-0
  6
Continuous
 62
     7
370
     9
100
AcDbCircle
 10
87.21697636731001
 20
-373.7013372281385
 30
0.0
 40
15.0
100
AcDbArc
 50
180.0
 51
0.0
  0
ARC
  5
59
330
1F
100
AcDbEntity
  8
0-0
  6
Continuous
 62
     7
370
     9
100
AcDbCircle
 10
87.21697636731001
 20
-314.5013372281386
 30
0.0
 40
15.0
100
AcDbArc
 50
0.0
 51
180.0
  0
LINE
  5
5A
330
1F
100
AcDbEntity
  8
0-0
  6
Continuous
 62
     7
370
     9
100
AcDbLine
 10
102.21697636731
 20
-373.7013372281385
 30
0.0
 11
102.21697636731
 21
-314.5013372281386
 31
0.0
  0
LINE
  5
5B
330
1F
100
AcDbEntity
  8
0-0
  6
Continuous
 62
     7
370
     9
100
AcDbLine
 10
72.21697636731001
 20
-314.5013372281386
 30
0.0
 11
72.21697636731001
 21
-373.7013372281385
 31
0.0
  0
LINE
  5
5C
330
1F
100
AcDbEntity
  8
0-0
  6
Continuous
 62
    92
370
    13
100
AcDbLine
 10
-773.7830236326888
 20
-1301.60133722814
 30
0.0
 11
36.21697636731121
 21
-1301.60133722814
 31
0.0
  0
LINE
  5
5D
330
1F
100
AcDbEntity
  8
0-0
  6
Continuous
 62
    92
370
    13
100
AcDbLine
 10
846.2169763673112
 20
-1301.60133722814
 30
0.0
 11
36.21697636731121
 21
-1301.60133722814
 31
0.0
  0
LINE
  5
5E
330
1F
100
AcDbEntity
  8
0-0
  6
Continuous
 62
     7
370
     9
100
AcDbLine
 10
-655.2830236326884
 20
-1151.60133722814
 30
0.0
 11
-670.2830236326884
 21
-1166.60133722814
 31
0.0
  0
LINE
  5
5F
330
1F
100
AcDbEntity
  8
0-0
  6
Continuous
 62
     7
370
     9
100
AcDbLine
 10
-82.28302363268931
 20
-1151.60133722814
 30
0.0
 11
-67.28302363268931
 21
-1166.60133722814
 31
0.0
  0
LINE
  5
60
330
1F
100
AcDbEntity
  8
0-0
  6
Continuous
 62
     7
370
     9
100
AcDbLine
 10
-670.2830236326884
 20
-1166.60133722814
 30
0.0
 11
-67.28302363268931
 21
-1166.60133722814
 31
0.0
  0
LINE
  5
61
330
1F
100
AcDbEntity
  8
0-0
  6
Continuous
 62
     7
370
     9
100
AcDbLine
 10
-625.2830236326884
 20
-1121.60133722814
 30
0.0
 11
-640.2830236326884
 21
-1136.60133722814
 31
0.0
  0
LINE
  5
62
330
1F
100
AcDbEntity
  8
0-0
  6
Continuous
 62
     7
370
     9
100
AcDbLine
 10
-112.2830236326893
 20
-1121.60133722814
 30
0.0
 11
-97.28302363268931
 21
-1136.60133722814
 31
0.0
  0
LINE
  5
63
330
1F
100
AcDbEntity
  8
0-0
  6
Continuous
 62
     7
370
     9
100
AcDbLine
 10
-625.2830236326884
 20
-1121.60133722814
 30
0.0
 11
-112.2830236326893
 21
-1121.60133722814
 31
0.0
  0
LINE
  5
64
330
1F
100
AcDbEntity
  8
0-0
  6
Continuous
 62
    92
370
    13
100
AcDbLine
 10
-655.2830236326884
 20
-1151.60133722814
 30
0.0
 11
-82.28302363268931
 21
-1151.60133722814
 31
0.0
  0
LINE
  5
65
330
1F
100
AcDbEntity
  8
0-0
  6
Continuous
 62
     7
370
     9
100
AcDbLine
 10
154.7169763673117
 20
-1151.60133722814
 30
0.0
 11
139.7169763673117
 21
-1166.60133722814
 31
0.0
  0
LINE
  5
66
330
1F
100
AcDbEntity
  8
0-0
  6
Continuous
 62
     7
370
     9
100
AcDbLine
 10
727.7169763673106
 20
-1151.60133722814
 30
0.0
 11
742.7169763673106
 21
-1166.60133722814
 31
0.0
  0
LINE
  5
67
330
1F
100
AcDbEntity
  8
0-0
  6
Continuous
 62
     7
370
     9
100
AcDbLine
 10
139.7169763673117
 20
-1166.60133722814
 30
0.0
 11
742.7169763673106
 21
-1166.60133722814
 31
0.0
  0
LINE
  5
68
330
1F
100
AcDbEntity
  8
0-0
  6
Continuous
 62
     7
370
     9
100
AcDbLine
 10
184.7169763673117
 20
-1121.60133722814
 30
0.0
 11
169.7169763673117
 21
-1136.60133722814
 31
0.0
  0
LINE
  5
69
330
1F
100
AcDbEntity
  8
0-0
  6
Continuous
 62
     7
370
     9
100
AcDbLine
 10
697.7169763673106
 20
-1121.60133722814
 30
0.0
 11
712.7169763673106
 21
-1136.60133722814
 31
0.0
  0
LINE
  5
6A
330
1F
100
AcDbEntity
  8
0-0
  6
Continuous
 62
     7
370
     9
100
AcDbLine
 10
184.7169763673117
 20
-1121.60133722814
 30
0.0
 11
697.7169763673106
 21
-1121.60133722814
 31
0.0
  0
LINE
  5
6B
330
1F
100
AcDbEntity
  8
0-0
  6
Continuous
 62
    92
370
    13
100
AcDbLine
 10
154.7169763673117
 20
-1151.60133722814
 30
0.0
 11
727.7169763673106
 21
-1151.60133722814
 31
0.0
  0
LINE
  5
6C
330
1F
100
AcDbEntity
  8
0-0
  6
Continuous
 62
    92
370
    13
100
AcDbLine
 10
-1580.783023632689
 20
925.3986627718609
 30
0.0
 11
1653.216976367311
 21
925.3986627718609
 31
0.0
  0
LINE
  5
6D
330
1F
100
AcDbEntity
  8
0-0
  6
Continuous
 62
    92
370
    13
100
AcDbLine
 10
-1550.783023632689
 20
889.3986627718596
 30
0.0
 11
1623.216976367311
 21
889.3986627718596
 31
0.0
  0
LINE
  5
6E
330
1F
100
AcDbEntity
  8
0-0
  6
Continuous
 62
    92
370
    13
100
AcDbLine
 10
1623.216976367311
 20
-1321.601337228139
 30
0.0
 11
1623.216976367311
 21
925.3986627718609
 31
0.0
  0
LINE
  5
6F
330
1F
100
AcDbEntity
  8
0-0
  6
Continuous
 62
    92
370
    13
100
AcDbLine
 10
-1550.783023632689
 20
-1321.601337228139
 30
0.0
 11
-1550.783023632689
 21
925.3986627718609
 31
0.0
  0
LINE
  5
70
330
1F
100
AcDbEntity
  8
0-0
  6
Continuous
 62
    92
370
    13
100
AcDbLine
 10
1653.216976367311
 20
-1321.601337228139
 30
0.0
 11
1653.216976367311
 21
925.3986627718609
 31
0.0
  0
LINE
  5
71
330
1F
100
AcDbEntity
  8
0-0
  6
Continuous
 62
    92
370
    13
100
AcDbLine
 10
-1580.783023632689
 20
-1321.601337228139
 30
0.0
 11
-1580.783023632689
 21
925.3986627718609
 31
0.0
  0
LINE
  5
72
330
1F
100
AcDbEntity
  8
0-0
  6
Continuous
 62
    92
370
    13
100
AcDbLine
 10
-773.7830236326888
 20
-1301.60133722814
 30
0.0
 11
-773.7830236326888
 21
881.39866277186
 31
0.0
  0
LINE
  5
73
330
1F
100
AcDbEntity
  8
0-0
  6
JWW_DASHED1
 62
   120
370
     5
100
AcDbLine
 10
-743.7830236326888
 20
-1301.60133722814
 30
0.0
 11
-743.7830236326888
 21
881.39866277186
 31
0.0
  0
LINE
  5
74
330
1F
100
AcDbEntity
  8
0-0
  6
Continuous
 62
    92
370
    13
100
AcDbLine
 10
-773.7830236326888
 20
881.39866277186
 30
0.0
 11
36.21697636731121
 21
881.39866277186
 31
0.0
  0
LINE
  5
75
330
1F
100
AcDbEntity
  8
0-0
  6
Continuous
 62
    92
370
    13
100
AcDbLine
 10
36.21697636731121
 20
-1301.60133722814
 30
0.0
 11
36.21697636731121
 21
881.39866277186
 31
0.0
  0
LINE
  5
76
330
1F
100
AcDbEntity
  8
0-0
  6
Continuous
 62
    92
370
    13
100
AcDbLine
 10
846.2169763673112
 20
-1301.60133722814
 30
0.0
 11
846.2169763673112
 21
881.39866277186
 31
0.0
  0
LINE
  5
77
330
1F
100
AcDbEntity
  8
0-0
  6
JWW_DASHED1
 62
   120
370
     5
100
AcDbLine
 10
816.2169763673112
 20
-1301.60133722814
 30
0.0
 11
816.2169763673112
 21
881.39866277186
 31
0.0
  0
LINE
  5
78
330
1F
100
AcDbEntity
  8
0-0
  6
Continuous
 62
    92
370
    13
100
AcDbLine
 10
846.2169763673112
 20
881.39866277186
 30
0.0
 11
36.21697636731121
 21
881.39866277186
 31
0.0
  0
LINE
  5
79
330
1F
100
AcDbEntity
  8
0-0
  6
JWW_DASHED1
 62
   120
370
     5
100
AcDbLine
 10
816.216976367312
 20
-1306.60133722814
 30
0.0
 11
816.216976367312
 21
889.3986627718596
 31
0.0
  0
LINE
  5
7A
330
1F
100
AcDbEntity
  8
0-0
  6
JWW_DASHED1
 62
   120
370
     5
100
AcDbLine
 10
846.216976367312
 20
-1306.60133722814
 30
0.0
 11
846.216976367312
 21
889.3986627718596
 31
0.0
  0
LINE
  5
7B
330
1F
100
AcDbEntity
  8
0-0
  6
JWW_DASHED1
 62
   120
370
     5
100
AcDbLine
 10
-773.783023632688
 20
-1306.60133722814
 30
0.0
 11
-773.783023632688
 21
889.3986627718596
 31
0.0
  0
LINE
  5
7C
330
1F
100
AcDbEntity
  8
0-0
  6
JWW_DASHED1
 62
   120
370
     5
100
AcDbLine
 10
-743.783023632688
 20
-1306.60133722814
 30
0.0
 11
-743.783023632688
 21
889.3986627718596
 31
0.0
  0
LINE
  5
7D
330
1F
100
AcDbEntity
  8
0-0
  6
Continuous
 62
     7
370
     9
100
AcDbLine
 10
-670.2830236326884
 20
761.3986627718605
 30
0.0
 11
-655.2830236326884
 21
746.3986627718605
 31
0.0
  0
LINE
  5
7E
330
1F
100
AcDbEntity
  8
0-0
  6
Continuous
 62
     7
370
     9
100
AcDbLine
 10
-670.2830236326884
 20
-1301.60133722814
 30
0.0
 11
-670.2830236326884
 21
881.3986627718605
 31
0.0
  0
LINE
  5
7F
330
1F
100
AcDbEntity
  8
0-0
  6
Continuous
 62
     7
370
     9
100
AcDbLine
 10
-67.28302363268931
 20
761.3986627718605
 30
0.0
 11
-82.28302363268931
 21
746.3986627718605
 31
0.0
  0
LINE
  5
80
330
1F
100
AcDbEntity
  8
0-0
  6
Continuous
 62
     7
370
     9
100
AcDbLine
 10
-67.28302363268931
 20
-1301.60133722814
 30
0.0
 11
-67.28302363268931
 21
881.3986627718605
 31
0.0
  0
LINE
  5
81
330
1F
100
AcDbEntity
  8
0-0
  6
Continuous
 62
     7
370
     9
100
AcDbLine
 10
-670.2830236326884
 20
761.3986627718605
 30
0.0
 11
-67.28302363268931
 21
761.3986627718605
 31
0.0
  0
LINE
  5
82
330
1F
100
AcDbEntity
  8
0-0
  6
Continuous
 62
     7
370
     9
100
AcDbLine
 10
-655.2830236326884
 20
-428.6013372281397
 30
0.0
 11
-670.2830236326884
 21
-443.6013372281397
 31
0.0
  0
LINE
  5
83
330
1F
100
AcDbEntity
  8
0-0
  6
Continuous
 62
     7
370
     9
100
AcDbLine
 10
-670.2830236326884
 20
-518.6013372281398
 30
0.0
 11
-655.2830236326884
 21
-533.6013372281398
 31
0.0
  0
LINE
  5
84
330
1F
100
AcDbEntity
  8
0-0
  6
Continuous
 62
     7
370
     9
100
AcDbLine
 10
-82.28302363268931
 20
-428.6013372281397
 30
0.0
 11
-67.28302363268931
 21
-443.6013372281397
 31
0.0
  0
LINE
  5
85
330
1F
100
AcDbEntity
  8
0-0
  6
Continuous
 62
     7
370
     9
100
AcDbLine
 10
-67.28302363268931
 20
-518.6013372281398
 30
0.0
 11
-82.28302363268931
 21
-533.6013372281398
 31
0.0
  0
LINE
  5
86
330
1F
100
AcDbEntity
  8
0-0
  6
Continuous
 62
     7
370
     9
100
AcDbLine
 10
-670.2830236326884
 20
-443.6013372281397
 30
0.0
 11
-67.28302363268931
 21
-443.6013372281397
 31
0.0
  0
LINE
  5
87
330
1F
100
AcDbEntity
  8
0-0
  6
Continuous
 62
     7
370
     9
100
AcDbLine
 10
-670.2830236326884
 20
-518.6013372281398
 30
0.0
 11
-67.28302363268931
 21
-518.6013372281398
 31
0.0
  0
LINE
  5
88
330
1F
100
AcDbEntity
  8
0-0
  6
Continuous
 62
     7
370
     9
100
AcDbLine
 10
-625.2830236326884
 20
-1121.60133722814
 30
0.0
 11
-625.2830236326884
 21
-563.6013372281398
 31
0.0
  0
LINE
  5
89
330
1F
100
AcDbEntity
  8
0-0
  6
Continuous
 62
     7
370
     9
100
AcDbLine
 10
-640.2830236326884
 20
-548.6013372281398
 30
0.0
 11
-625.2830236326884
 21
-563.6013372281398
 31
0.0
  0
LINE
  5
8A
330
1F
100
AcDbEntity
  8
0-0
  6
Continuous
 62
     7
370
     9
100
AcDbLine
 10
-97.28302363268931
 20
-548.6013372281398
 30
0.0
 11
-112.2830236326893
 21
-563.6013372281398
 31
0.0
  0
LINE
  5
8B
330
1F
100
AcDbEntity
  8
0-0
  6
Continuous
 62
     7
370
     9
100
AcDbLine
 10
-625.2830236326884
 20
-563.6013372281398
 30
0.0
 11
-112.2830236326893
 21
-563.6013372281398
 31
0.0
  0
LINE
  5
8C
330
1F
100
AcDbEntity
  8
0-0
  6
Continuous
 62
     7
370
     9
100
AcDbLine
 10
-112.2830236326893
 20
-1121.60133722814
 30
0.0
 11
-112.2830236326893
 21
-563.6013372281398
 31
0.0
  0
LINE
  5
8D
330
1F
100
AcDbEntity
  8
0-0
  6
Continuous
 62
    92
370
    13
100
AcDbLine
 10
-655.2830236326884
 20
746.3986627718605
 30
0.0
 11
-82.28302363268931
 21
746.3986627718605
 31
0.0
  0
LINE
  5
8E
330
1F
100
AcDbEntity
  8
0-0
  6
Continuous
 62
    92
370
    13
100
AcDbLine
 10
-655.2830236326884
 20
-428.6013372281397
 30
0.0
 11
-82.28302363268931
 21
-428.6013372281397
 31
0.0
  0
LINE
  5
8F
330
1F
100
AcDbEntity
  8
0-0
  6
Continuous
 62
    92
370
    13
100
AcDbLine
 10
-655.2830236326884
 20
-533.6013372281398
 30
0.0
 11
-82.28302363268931
 21
-533.6013372281398
 31
0.0
  0
LINE
  5
90
330
1F
100
AcDbEntity
  8
0-0
  6
Continuous
 62
    92
370
    13
100
AcDbLine
 10
-655.2830236326884
 20
-428.6013372281397
 30
0.0
 11
-655.2830236326884
 21
746.3986627718605
 31
0.0
  0
LINE
  5
91
330
1F
100
AcDbEntity
  8
0-0
  6
Continuous
 62
    92
370
    13
100
AcDbLine
 10
-655.2830236326884
 20
-1151.60133722814
 30
0.0
 11
-655.2830236326884
 21
-533.6013372281398
 31
0.0
  0
LINE
  5
92
330
1F
100
AcDbEntity
  8
0-0
  6
Continuous
 62
    92
370
    13
100
AcDbLine
 10
-82.28302363268931
 20
-428.6013372281397
 30
0.0
 11
-82.28302363268931
 21
746.3986627718605
 31
0.0
  0
LINE
  5
93
330
1F
100
AcDbEntity
  8
0-0
  6
Continuous
 62
    92
370
    13
100
AcDbLine
 10
-82.28302363268931
 20
-1151.60133722814
 30
0.0
 11
-82.28302363268931
 21
-533.6013372281398
 31
0.0
  0
LINE
  5
94
330
1F
100
AcDbEntity
  8
0-0
  6
Continuous
 62
     7
370
     9
100
AcDbLine
 10
139.7169763673117
 20
761.3986627718605
 30
0.0
 11
154.7169763673117
 21
746.3986627718605
 31
0.0
  0
LINE
  5
95
330
1F
100
AcDbEntity
  8
0-0
  6
Continuous
 62
     7
370
     9
100
AcDbLine
 10
139.7169763673117
 20
-1301.60133722814
 30
0.0
 11
139.7169763673117
 21
881.3986627718605
 31
0.0
  0
LINE
  5
96
330
1F
100
AcDbEntity
  8
0-0
  6
Continuous
 62
     7
370
     9
100
AcDbLine
 10
742.7169763673106
 20
761.3986627718605
 30
0.0
 11
727.7169763673106
 21
746.3986627718605
 31
0.0
  0
LINE
  5
97
330
1F
100
AcDbEntity
  8
0-0
  6
Continuous
 62
     7
370
     9
100
AcDbLine
 10
742.7169763673106
 20
-1301.60133722814
 30
0.0
 11
742.7169763673106
 21
881.3986627718605
 31
0.0
  0
LINE
  5
98
330
1F
100
AcDbEntity
  8
0-0
  6
Continuous
 62
     7
370
     9
100
AcDbLine
 10
139.7169763673117
 20
761.3986627718605
 30
0.0
 11
742.7169763673106
 21
761.3986627718605
 31
0.0
  0
LINE
  5
99
330
1F
100
AcDbEntity
  8
0-0
  6
Continuous
 62
     7
370
     9
100
AcDbLine
 10
154.7169763673117
 20
-428.6013372281397
 30
0.0
 11
139.7169763673117
 21
-443.6013372281397
 31
0.0
  0
LINE
  5
9A
330
1F
100
AcDbEntity
  8
0-0
  6
Continuous
 62
     7
370
     9
100
AcDbLine
 10
139.7169763673117
 20
-518.6013372281398
 30
0.0
 11
154.7169763673117
 21
-533.6013372281398
 31
0.0
  0
LINE
  5
9B
330
1F
100
AcDbEntity
  8
0-0
  6
Continuous
 62
     7
370
     9
100
AcDbLine
 10
727.7169763673106
 20
-428.6013372281397
 30
0.0
 11
742.7169763673106
 21
-443.6013372281397
 31
0.0
  0
LINE
  5
9C
330
1F
100
AcDbEntity
  8
0-0
  6
Continuous
 62
     7
370
     9
100
AcDbLine
 10
742.7169763673106
 20
-518.6013372281398
 30
0.0
 11
727.7169763673106
 21
-533.6013372281398
 31
0.0
  0
LINE
  5
9D
330
1F
100
AcDbEntity
  8
0-0
  6
Continuous
 62
     7
370
     9
100
AcDbLine
 10
139.7169763673117
 20
-443.6013372281397
 30
0.0
 11
742.7169763673106
 21
-443.6013372281397
 31
0.0
  0
LINE
  5
9E
330
1F
100
AcDbEntity
  8
0-0
  6
Continuous
 62
     7
370
     9
100
AcDbLine
 10
139.7169763673117
 20
-518.6013372281398
 30
0.0
 11
742.7169763673106
 21
-518.6013372281398
 31
0.0
  0
LINE
  5
9F
330
1F
100
AcDbEntity
  8
0-0
  6
Continuous
 62
     7
370
     9
100
AcDbLine
 10
184.7169763673117
 20
-1121.60133722814
 30
0.0
 11
184.7169763673117
 21
-563.6013372281398
 31
0.0
  0
LINE
  5
A0
330
1F
100
AcDbEntity
  8
0-0
  6
Continuous
 62
     7
370
     9
100
AcDbLine
 10
169.7169763673117
 20
-548.6013372281398
 30
0.0
 11
184.7169763673117
 21
-563.6013372281398
 31
0.0
  0
LINE
  5
A1
330
1F
100
AcDbEntity
  8
0-0
  6
Continuous
 62
     7
370
     9
100
AcDbLine
 10
712.7169763673106
 20
-548.6013372281398
 30
0.0
 11
697.7169763673106
 21
-563.6013372281398
 31
0.0
  0
LINE
  5
A2
330
1F
100
AcDbEntity
  8
0-0
  6
Continuous
 62
     7
370
     9
100
AcDbLine
 10
184.7169763673117
 20
-563.6013372281398
 30
0.0
 11
697.7169763673106
 21
-563.6013372281398
 31
0.0
  0
LINE
  5
A3
330
1F
100
AcDbEntity
  8
0-0
  6
Continuous
 62
     7
370
     9
100
AcDbLine
 10
697.7169763673106
 20
-1121.60133722814
 30
0.0
 11
697.7169763673106
 21
-563.6013372281398
 31
0.0
  0
LINE
  5
A4
330
1F
100
AcDbEntity
  8
0-0
  6
Continuous
 62
    92
370
    13
100
AcDbLine
 10
154.7169763673117
 20
746.3986627718605
 30
0.0
 11
727.7169763673106
 21
746.3986627718605
 31
0.0
  0
LINE
  5
A5
330
1F
100
AcDbEntity
  8
0-0
  6
Continuous
 62
    92
370
    13
100
AcDbLine
 10
154.7169763673117
 20
-428.6013372281397
 30
0.0
 11
727.7169763673106
 21
-428.6013372281397
 31
0.0
  0
LINE
  5
A6
330
1F
100
AcDbEntity
  8
0-0
  6
Continuous
 62
    92
370
    13
100
AcDbLine
 10
154.7169763673117
 20
-533.6013372281398
 30
0.0
 11
727.7169763673106
 21
-533.6013372281398
 31
0.0
  0
LINE
  5
A7
330
1F
100
AcDbEntity
  8
0-0
  6
Continuous
 62
    92
370
    13
100
AcDbLine
 10
154.7169763673117
 20
-428.6013372281397
 30
0.0
 11
154.7169763673117
 21
746.3986627718605
 31
0.0
  0
LINE
  5
A8
330
1F
100
AcDbEntity
  8
0-0
  6
Continuous
 62
    92
370
    13
100
AcDbLine
 10
154.7169763673117
 20
-1151.60133722814
 30
0.0
 11
154.7169763673117
 21
-533.6013372281398
 31
0.0
  0
LINE
  5
A9
330
1F
100
AcDbEntity
  8
0-0
  6
Continuous
 62
    92
370
    13
100
AcDbLine
 10
727.7169763673106
 20
-428.6013372281397
 30
0.0
 11
727.7169763673106
 21
746.3986627718605
 31
0.0
  0
LINE
  5
AA
330
1F
100
AcDbEntity
  8
0-0
  6
Continuous
 62
    92
370
    13
100
AcDbLine
 10
727.7169763673106
 20
-1151.60133722814
 30
0.0
 11
727.7169763673106
 21
-533.6013372281398
 31
0.0
  0
LINE
  5
AB
330
1F
100
AcDbEntity
  8
0-0
  6
JWW_DASHED1
 62
   120
370
     5
100
AcDbLine
 10
-655.2830236326892
 20
-427.6014855420833
 30
0.0
 11
-82.28302363268845
 21
-427.6014855420833
 31
0.0
  0
LINE
  5
AC
330
1F
100
AcDbEntity
  8
0-0
  6
JWW_DASHED1
 62
   120
370
     5
100
AcDbLine
 10
-655.2830236326892
 20
-414.6014855409837
 30
0.0
 11
-82.28302363268845
 21
-414.6014855409837
 31
0.0
  0
LINE
  5
AD
330
1F
100
AcDbEntity
  8
0-0
  6
JWW_DASHED1
 62
   120
370
     5
100
AcDbLine
 10
-655.2830236326892
 20
-413.6014855410835
 30
0.0
 11
-82.28302363268845
 21
-413.6014855410835
 31
0.0
  0
LINE
  5
AE
330
1F
100
AcDbEntity
  8
0-0
  6
JWW_DASHED1
 62
   120
370
     5
100
AcDbLine
 10
-655.2830236326892
 20
-400.6014855399839
 30
0.0
 11
-82.28302363268845
 21
-400.6014855399839
 31
0.0
  0
LINE
  5
AF
330
1F
100
AcDbEntity
  8
0-0
  6
JWW_DASHED1
 62
   120
370
     5
100
AcDbLine
 10
-655.2830236326892
 20
-399.6014855400837
 30
0.0
 11
-82.28302363268845
 21
-399.6014855400837
 31
0.0
  0
LINE
  5
B0
330
1F
100
AcDbEntity
  8
0-0
  6
JWW_DASHED1
 62
   120
370
     5
100
AcDbLine
 10
-655.2830236326892
 20
-386.6014855389841
 30
0.0
 11
-82.28302363268845
 21
-386.6014855389841
 31
0.0
  0
LINE
  5
B1
330
1F
100
AcDbEntity
  8
0-0
  6
JWW_DASHED1
 62
   120
370
     5
100
AcDbLine
 10
-655.2830236326892
 20
-385.6014855390839
 30
0.0
 11
-82.28302363268845
 21
-385.6014855390839
 31
0.0
  0
LINE
  5
B2
330
1F
100
AcDbEntity
  8
0-0
  6
JWW_DASHED1
 62
   120
370
     5
100
AcDbLine
 10
-655.2830236326892
 20
-372.6014855379843
 30
0.0
 11
-82.28302363268845
 21
-372.6014855379843
 31
0.0
  0
LINE
  5
B3
330
1F
100
AcDbEntity
  8
0-0
  6
JWW_DASHED1
 62
   120
370
     5
100
AcDbLine
 10
-655.2830236326892
 20
-371.6014855380841
 30
0.0
 11
-82.28302363268845
 21
-371.6014855380841
 31
0.0
  0
LINE
  5
B4
330
1F
100
AcDbEntity
  8
0-0
  6
JWW_DASHED1
 62
   120
370
     5
100
AcDbLine
 10
-655.2830236326892
 20
-358.6014855369845
 30
0.0
 11
-82.28302363268845
 21
-358.6014855369845
 31
0.0
  0
LINE
  5
B5
330
1F
100
AcDbEntity
  8
0-0
  6
JWW_DASHED1
 62
   120
370
     5
100
AcDbLine
 10
-655.2830236326892
 20
-357.6014855370843
 30
0.0
 11
-82.28302363268845
 21
-357.6014855370843
 31
0.0
  0
LINE
  5
B6
330
1F
100
AcDbEntity
  8
0-0
  6
JWW_DASHED1
 62
   120
370
     5
100
AcDbLine
 10
-655.2830236326892
 20
-344.6014855359847
 30
0.0
 11
-82.28302363268845
 21
-344.6014855359847
 31
0.0
  0
LINE
  5
B7
330
1F
100
AcDbEntity
  8
0-0
  6
JWW_DASHED1
 62
   120
370
     5
100
AcDbLine
 10
-655.2830236326892
 20
-343.6014855360845
 30
0.0
 11
-82.28302363268845
 21
-343.6014855360845
 31
0.0
  0
LINE
  5
B8
330
1F
100
AcDbEntity
  8
0-0
  6
JWW_DASHED1
 62
   120
370
     5
100
AcDbLine
 10
-655.2830236326892
 20
-330.6014855349849
 30
0.0
 11
-82.28302363268845
 21
-330.6014855349849
 31
0.0
  0
LINE
  5
B9
330
1F
100
AcDbEntity
  8
0-0
  6
JWW_DASHED1
 62
   120
370
     5
100
AcDbLine
 10
-655.2830236326892
 20
-329.6014855350847
 30
0.0
 11
-82.28302363268845
 21
-329.6014855350847
 31
0.0
  0
LINE
  5
BA
330
1F
100
AcDbEntity
  8
0-0
  6
JWW_DASHED1
 62
   120
370
     5
100
AcDbLine
 10
-655.2830236326892
 20
-316.6014855339852
 30
0.0
 11
-82.28302363268845
 21
-316.6014855339852
 31
0.0
  0
LINE
  5
BB
330
1F
100
AcDbEntity
  8
0-0
  6
JWW_DASHED1
 62
   120
370
     5
100
AcDbLine
 10
-655.2830236326892
 20
-315.601485534085
 30
0.0
 11
-82.28302363268845
 21
-315.601485534085
 31
0.0
  0
LINE
  5
BC
330
1F
100
AcDbEntity
  8
0-0
  6
JWW_DASHED1
 62
   120
370
     5
100
AcDbLine
 10
-655.2830236326892
 20
-302.6014855329854
 30
0.0
 11
-82.28302363268845
 21
-302.6014855329854
 31
0.0
  0
LINE
  5
BD
330
1F
100
AcDbEntity
  8
0-0
  6
JWW_DASHED1
 62
   120
370
     5
100
AcDbLine
 10
-655.2830236326892
 20
-301.6014855330852
 30
0.0
 11
-82.28302363268845
 21
-301.6014855330852
 31
0.0
  0
LINE
  5
BE
330
1F
100
AcDbEntity
  8
0-0
  6
JWW_DASHED1
 62
   120
370
     5
100
AcDbLine
 10
-655.2830236326892
 20
-288.6014855319855
 30
0.0
 11
-82.28302363268845
 21
-288.6014855319855
 31
0.0
  0
LINE
  5
BF
330
1F
100
AcDbEntity
  8
0-0
  6
JWW_DASHED1
 62
   120
370
     5
100
AcDbLine
 10
-655.2830236326892
 20
-287.6014855320853
 30
0.0
 11
-82.28302363268845
 21
-287.6014855320853
 31
0.0
  0
LINE
  5
C0
330
1F
100
AcDbEntity
  8
0-0
  6
JWW_DASHED1
 62
   120
370
     5
100
AcDbLine
 10
-655.2830236326892
 20
-274.6014855309858
 30
0.0
 11
-82.28302363268845
 21
-274.6014855309858
 31
0.0
  0
LINE
  5
C1
330
1F
100
AcDbEntity
  8
0-0
  6
JWW_DASHED1
 62
   120
370
     5
100
AcDbLine
 10
-655.2830236326892
 20
-273.6014855310856
 30
0.0
 11
-82.28302363268845
 21
-273.6014855310856
 31
0.0
  0
LINE
  5
C2
330
1F
100
AcDbEntity
  8
0-0
  6
JWW_DASHED1
 62
   120
370
     5
100
AcDbLine
 10
-655.2830236326892
 20
-260.601485529986
 30
0.0
 11
-82.28302363268845
 21
-260.601485529986
 31
0.0
  0
LINE
  5
C3
330
1F
100
AcDbEntity
  8
0-0
  6
JWW_DASHED1
 62
   120
370
     5
100
AcDbLine
 10
-655.2830236326892
 20
-259.6014855300858
 30
0.0
 11
-82.28302363268845
 21
-259.6014855300858
 31
0.0
  0
LINE
  5
C4
330
1F
100
AcDbEntity
  8
0-0
  6
JWW_DASHED1
 62
   120
370
     5
100
AcDbLine
 10
-655.2830236326892
 20
-246.6014855289862
 30
0.0
 11
-82.28302363268845
 21
-246.6014855289862
 31
0.0
  0
LINE
  5
C5
330
1F
100
AcDbEntity
  8
0-0
  6
JWW_DASHED1
 62
   120
370
     5
100
AcDbLine
 10
-655.2830236326892
 20
-245.601485529086
 30
0.0
 11
-82.28302363268845
 21
-245.601485529086
 31
0.0
  0
LINE
  5
C6
330
1F
100
AcDbEntity
  8
0-0
  6
JWW_DASHED1
 62
   120
370
     5
100
AcDbLine
 10
-655.2830236326892
 20
-232.6014855279864
 30
0.0
 11
-82.28302363268845
 21
-232.6014855279864
 31
0.0
  0
LINE
  5
C7
330
1F
100
AcDbEntity
  8
0-0
  6
JWW_DASHED1
 62
   120
370
     5
100
AcDbLine
 10
-655.2830236326892
 20
-231.6014855280862
 30
0.0
 11
-82.28302363268845
 21
-231.6014855280862
 31
0.0
  0
LINE
  5
C8
330
1F
100
AcDbEntity
  8
0-0
  6
JWW_DASHED1
 62
   120
370
     5
100
AcDbLine
 10
-655.2830236326892
 20
-218.6014855269866
 30
0.0
 11
-82.28302363268845
 21
-218.6014855269866
 31
0.0
  0
LINE
  5
C9
330
1F
100
AcDbEntity
  8
0-0
  6
JWW_DASHED1
 62
   120
370
     5
100
AcDbLine
 10
-655.2830236326892
 20
-217.6014855270864
 30
0.0
 11
-82.28302363268845
 21
-217.6014855270864
 31
0.0
  0
LINE
  5
CA
330
1F
100
AcDbEntity
  8
0-0
  6
JWW_DASHED1
 62
   120
370
     5
100
AcDbLine
 10
-655.2830236326892
 20
-204.6014855259868
 30
0.0
 11
-82.28302363268845
 21
-204.6014855259868
 31
0.0
  0
LINE
  5
CB
330
1F
100
AcDbEntity
  8
0-0
  6
JWW_DASHED1
 62
   120
370
     5
100
AcDbLine
 10
-655.2830236326892
 20
-203.6014855260866
 30
0.0
 11
-82.28302363268845
 21
-203.6014855260866
 31
0.0
  0
LINE
  5
CC
330
1F
100
AcDbEntity
  8
0-0
  6
JWW_DASHED1
 62
   120
370
     5
100
AcDbLine
 10
-655.2830236326892
 20
-190.601485524987
 30
0.0
 11
-82.28302363268845
 21
-190.601485524987
 31
0.0
  0
LINE
  5
CD
330
1F
100
AcDbEntity
  8
0-0
  6
JWW_DASHED1
 62
   120
370
     5
100
AcDbLine
 10
-655.2830236326892
 20
-189.6014855250868
 30
0.0
 11
-82.28302363268845
 21
-189.6014855250868
 31
0.0
  0
LINE
  5
CE
330
1F
100
AcDbEntity
  8
0-0
  6
JWW_DASHED1
 62
   120
370
     5
100
AcDbLine
 10
-655.2830236326892
 20
-176.6014855239872
 30
0.0
 11
-82.28302363268845
 21
-176.6014855239872
 31
0.0
  0
LINE
  5
CF
330
1F
100
AcDbEntity
  8
0-0
  6
JWW_DASHED1
 62
   120
370
     5
100
AcDbLine
 10
-655.2830236326892
 20
-175.6014855240871
 30
0.0
 11
-82.28302363268845
 21
-175.6014855240871
 31
0.0
  0
LINE
  5
D0
330
1F
100
AcDbEntity
  8
0-0
  6
JWW_DASHED1
 62
   120
370
     5
100
AcDbLine
 10
-655.2830236326892
 20
-162.6014855229874
 30
0.0
 11
-82.28302363268845
 21
-162.6014855229874
 31
0.0
  0
LINE
  5
D1
330
1F
100
AcDbEntity
  8
0-0
  6
JWW_DASHED1
 62
   120
370
     5
100
AcDbLine
 10
-655.2830236326892
 20
-161.6014855230873
 30
0.0
 11
-82.28302363268845
 21
-161.6014855230873
 31
0.0
  0
LINE
  5
D2
330
1F
100
AcDbEntity
  8
0-0
  6
JWW_DASHED1
 62
   120
370
     5
100
AcDbLine
 10
-655.2830236326892
 20
-148.6014855219877
 30
0.0
 11
-82.28302363268845
 21
-148.6014855219877
 31
0.0
  0
LINE
  5
D3
330
1F
100
AcDbEntity
  8
0-0
  6
JWW_DASHED1
 62
   120
370
     5
100
AcDbLine
 10
-655.2830236326892
 20
-147.6014855220875
 30
0.0
 11
-82.28302363268845
 21
-147.6014855220875
 31
0.0
  0
LINE
  5
D4
330
1F
100
AcDbEntity
  8
0-0
  6
JWW_DASHED1
 62
   120
370
     5
100
AcDbLine
 10
-655.2830236326892
 20
-134.6014855209879
 30
0.0
 11
-82.28302363268845
 21
-134.6014855209879
 31
0.0
  0
LINE
  5
D5
330
1F
100
AcDbEntity
  8
0-0
  6
JWW_DASHED1
 62
   120
370
     5
100
AcDbLine
 10
-655.2830236326892
 20
-133.6014855210877
 30
0.0
 11
-82.28302363268845
 21
-133.6014855210877
 31
0.0
  0
LINE
  5
D6
330
1F
100
AcDbEntity
  8
0-0
  6
JWW_DASHED1
 62
   120
370
     5
100
AcDbLine
 10
-655.2830236326892
 20
-120.6014855199881
 30
0.0
 11
-82.28302363268845
 21
-120.6014855199881
 31
0.0
  0
LINE
  5
D7
330
1F
100
AcDbEntity
  8
0-0
  6
JWW_DASHED1
 62
   120
370
     5
100
AcDbLine
 10
-655.2830236326892
 20
-119.6014855200879
 30
0.0
 11
-82.28302363268845
 21
-119.6014855200879
 31
0.0
  0
LINE
  5
D8
330
1F
100
AcDbEntity
  8
0-0
  6
JWW_DASHED1
 62
   120
370
     5
100
AcDbLine
 10
-655.2830236326892
 20
-106.6014855189883
 30
0.0
 11
-82.28302363268845
 21
-106.6014855189883
 31
0.0
  0
LINE
  5
D9
330
1F
100
AcDbEntity
  8
0-0
  6
JWW_DASHED1
 62
   120
370
     5
100
AcDbLine
 10
-655.2830236326892
 20
-105.6014855190881
 30
0.0
 11
-82.28302363268845
 21
-105.6014855190881
 31
0.0
  0
LINE
  5
DA
330
1F
100
AcDbEntity
  8
0-0
  6
JWW_DASHED1
 62
   120
370
     5
100
AcDbLine
 10
-655.2830236326892
 20
-92.6014855179885
 30
0.0
 11
-82.28302363268845
 21
-92.6014855179885
 31
0.0
  0
LINE
  5
DB
330
1F
100
AcDbEntity
  8
0-0
  6
JWW_DASHED1
 62
   120
370
     5
100
AcDbLine
 10
-655.2830236326892
 20
-91.60148551808831
 30
0.0
 11
-82.28302363268845
 21
-91.60148551808831
 31
0.0
  0
LINE
  5
DC
330
1F
100
AcDbEntity
  8
0-0
  6
JWW_DASHED1
 62
   120
370
     5
100
AcDbLine
 10
-655.2830236326892
 20
-78.6014855169887
 30
0.0
 11
-82.28302363268845
 21
-78.6014855169887
 31
0.0
  0
LINE
  5
DD
330
1F
100
AcDbEntity
  8
0-0
  6
JWW_DASHED1
 62
   120
370
     5
100
AcDbLine
 10
-655.2830236326892
 20
-77.60148551708852
 30
0.0
 11
-82.28302363268845
 21
-77.60148551708852
 31
0.0
  0
LINE
  5
DE
330
1F
100
AcDbEntity
  8
0-0
  6
JWW_DASHED1
 62
   120
370
     5
100
AcDbLine
 10
-655.2830236326892
 20
-64.60148551598891
 30
0.0
 11
-82.28302363268845
 21
-64.60148551598891
 31
0.0
  0
LINE
  5
DF
330
1F
100
AcDbEntity
  8
0-0
  6
JWW_DASHED1
 62
   120
370
     5
100
AcDbLine
 10
-655.2830236326892
 20
-63.60148551608873
 30
0.0
 11
-82.28302363268845
 21
-63.60148551608873
 31
0.0
  0
LINE
  5
E0
330
1F
100
AcDbEntity
  8
0-0
  6
JWW_DASHED1
 62
   120
370
     5
100
AcDbLine
 10
-655.2830236326892
 20
-50.60148551498912
 30
0.0
 11
-82.28302363268845
 21
-50.60148551498912
 31
0.0
  0
LINE
  5
E1
330
1F
100
AcDbEntity
  8
0-0
  6
JWW_DASHED1
 62
   120
370
     5
100
AcDbLine
 10
-655.2830236326892
 20
-49.60148551508894
 30
0.0
 11
-82.28302363268845
 21
-49.60148551508894
 31
0.0
  0
LINE
  5
E2
330
1F
100
AcDbEntity
  8
0-0
  6
JWW_DASHED1
 62
   120
370
     5
100
AcDbLine
 10
-655.2830236326892
 20
-36.60148551398933
 30
0.0
 11
-82.28302363268845
 21
-36.60148551398933
 31
0.0
  0
LINE
  5
E3
330
1F
100
AcDbEntity
  8
0-0
  6
JWW_DASHED1
 62
   120
370
     5
100
AcDbLine
 10
-655.2830236326892
 20
-35.60148551408915
 30
0.0
 11
-82.28302363268845
 21
-35.60148551408915
 31
0.0
  0
LINE
  5
E4
330
1F
100
AcDbEntity
  8
0-0
  6
JWW_DASHED1
 62
   120
370
     5
100
AcDbLine
 10
-655.2830236326892
 20
-22.60148551298954
 30
0.0
 11
-82.28302363268845
 21
-22.60148551298954
 31
0.0
  0
LINE
  5
E5
330
1F
100
AcDbEntity
  8
0-0
  6
JWW_DASHED1
 62
   120
370
     5
100
AcDbLine
 10
-655.2830236326892
 20
-21.60148551308936
 30
0.0
 11
-82.28302363268845
 21
-21.60148551308936
 31
0.0
  0
LINE
  5
E6
330
1F
100
AcDbEntity
  8
0-0
  6
JWW_DASHED1
 62
   120
370
     5
100
AcDbLine
 10
-655.2830236326892
 20
-8.60148551198975
 30
0.0
 11
-82.28302363268845
 21
-8.60148551198975
 31
0.0
  0
LINE
  5
E7
330
1F
100
AcDbEntity
  8
0-0
  6
JWW_DASHED1
 62
   120
370
     5
100
AcDbLine
 10
-655.2830236326892
 20
-7.601485512089567
 30
0.0
 11
-82.28302363268845
 21
-7.601485512089567
 31
0.0
  0
LINE
  5
E8
330
1F
100
AcDbEntity
  8
0-0
  6
JWW_DASHED1
 62
   120
370
     5
100
AcDbLine
 10
-655.2830236326892
 20
5.39851448901004
 30
0.0
 11
-82.28302363268845
 21
5.39851448901004
 31
0.0
  0
LINE
  5
E9
330
1F
100
AcDbEntity
  8
0-0
  6
JWW_DASHED1
 62
   120
370
     5
100
AcDbLine
 10
-655.2830236326892
 20
6.398514488910223
 30
0.0
 11
-82.28302363268845
 21
6.398514488910223
 31
0.0
  0
LINE
  5
EA
330
1F
100
AcDbEntity
  8
0-0
  6
JWW_DASHED1
 62
   120
370
     5
100
AcDbLine
 10
-655.2830236326892
 20
19.39851449000983
 30
0.0
 11
-82.28302363268845
 21
19.39851449000983
 31
0.0
  0
LINE
  5
EB
330
1F
100
AcDbEntity
  8
0-0
  6
JWW_DASHED1
 62
   120
370
     5
100
AcDbLine
 10
-655.2830236326892
 20
20.39851448991001
 30
0.0
 11
-82.28302363268845
 21
20.39851448991001
 31
0.0
  0
LINE
  5
EC
330
1F
100
AcDbEntity
  8
0-0
  6
JWW_DASHED1
 62
   120
370
     5
100
AcDbLine
 10
-655.2830236326892
 20
33.39851449100962
 30
0.0
 11
-82.28302363268845
 21
33.39851449100962
 31
0.0
  0
LINE
  5
ED
330
1F
100
AcDbEntity
  8
0-0
  6
JWW_DASHED1
 62
   120
370
     5
100
AcDbLine
 10
-655.2830236326892
 20
34.3985144909098
 30
0.0
 11
-82.28302363268845
 21
34.3985144909098
 31
0.0
  0
LINE
  5
EE
330
1F
100
AcDbEntity
  8
0-0
  6
JWW_DASHED1
 62
   120
370
     5
100
AcDbLine
 10
-655.2830236326892
 20
47.39851449200941
 30
0.0
 11
-82.28302363268845
 21
47.39851449200941
 31
0.0
  0
LINE
  5
EF
330
1F
100
AcDbEntity
  8
0-0
  6
JWW_DASHED1
 62
   120
370
     5
100
AcDbLine
 10
-655.2830236326892
 20
48.39851449190959
 30
0.0
 11
-82.28302363268845
 21
48.39851449190959
 31
0.0
  0
LINE
  5
F0
330
1F
100
AcDbEntity
  8
0-0
  6
JWW_DASHED1
 62
   120
370
     5
100
AcDbLine
 10
-655.2830236326892
 20
61.3985144930092
 30
0.0
 11
-82.28302363268845
 21
61.3985144930092
 31
0.0
  0
LINE
  5
F1
330
1F
100
AcDbEntity
  8
0-0
  6
JWW_DASHED1
 62
   120
370
     5
100
AcDbLine
 10
-655.2830236326892
 20
62.39851449290938
 30
0.0
 11
-82.28302363268845
 21
62.39851449290938
 31
0.0
  0
LINE
  5
F2
330
1F
100
AcDbEntity
  8
0-0
  6
JWW_DASHED1
 62
   120
370
     5
100
AcDbLine
 10
-655.2830236326892
 20
75.39851449400899
 30
0.0
 11
-82.28302363268845
 21
75.39851449400899
 31
0.0
  0
LINE
  5
F3
330
1F
100
AcDbEntity
  8
0-0
  6
JWW_DASHED1
 62
   120
370
     5
100
AcDbLine
 10
-655.2830236326892
 20
76.39851449390918
 30
0.0
 11
-82.28302363268845
 21
76.39851449390918
 31
0.0
  0
LINE
  5
F4
330
1F
100
AcDbEntity
  8
0-0
  6
JWW_DASHED1
 62
   120
370
     5
100
AcDbLine
 10
-655.2830236326892
 20
89.39851449500878
 30
0.0
 11
-82.28302363268845
 21
89.39851449500878
 31
0.0
  0
LINE
  5
F5
330
1F
100
AcDbEntity
  8
0-0
  6
JWW_DASHED1
 62
   120
370
     5
100
AcDbLine
 10
-655.2830236326892
 20
90.39851449490897
 30
0.0
 11
-82.28302363268845
 21
90.39851449490897
 31
0.0
  0
LINE
  5
F6
330
1F
100
AcDbEntity
  8
0-0
  6
JWW_DASHED1
 62
   120
370
     5
100
AcDbLine
 10
-655.2830236326892
 20
103.3985144960086
 30
0.0
 11
-82.28302363268845
 21
103.3985144960086
 31
0.0
  0
LINE
  5
F7
330
1F
100
AcDbEntity
  8
0-0
  6
JWW_DASHED1
 62
   120
370
     5
100
AcDbLine
 10
-655.2830236326892
 20
104.3985144959088
 30
0.0
 11
-82.28302363268845
 21
104.3985144959088
 31
0.0
  0
LINE
  5
F8
330
1F
100
AcDbEntity
  8
0-0
  6
JWW_DASHED1
 62
   120
370
     5
100
AcDbLine
 10
-655.2830236326892
 20
117.3985144970084
 30
0.0
 11
-82.28302363268845
 21
117.3985144970084
 31
0.0
  0
LINE
  5
F9
330
1F
100
AcDbEntity
  8
0-0
  6
JWW_DASHED1
 62
   120
370
     5
100
AcDbLine
 10
-655.2830236326892
 20
118.3985144969085
 30
0.0
 11
-82.28302363268845
 21
118.3985144969085
 31
0.0
  0
LINE
  5
FA
330
1F
100
AcDbEntity
  8
0-0
  6
JWW_DASHED1
 62
   120
370
     5
100
AcDbLine
 10
-655.2830236326892
 20
131.3985144980082
 30
0.0
 11
-82.28302363268845
 21
131.3985144980082
 31
0.0
  0
LINE
  5
FB
330
1F
100
AcDbEntity
  8
0-0
  6
JWW_DASHED1
 62
   120
370
     5
100
AcDbLine
 10
-655.2830236326892
 20
132.3985144979083
 30
0.0
 11
-82.28302363268845
 21
132.3985144979083
 31
0.0
  0
LINE
  5
FC
330
1F
100
AcDbEntity
  8
0-0
  6
JWW_DASHED1
 62
   120
370
     5
100
AcDbLine
 10
-655.2830236326892
 20
145.3985144990079
 30
0.0
 11
-82.28302363268845
 21
145.3985144990079
 31
0.0
  0
LINE
  5
FD
330
1F
100
AcDbEntity
  8
0-0
  6
JWW_DASHED1
 62
   120
370
     5
100
AcDbLine
 10
-655.2830236326892
 20
146.3985144989081
 30
0.0
 11
-82.28302363268845
 21
146.3985144989081
 31
0.0
  0
LINE
  5
FE
330
1F
100
AcDbEntity
  8
0-0
  6
JWW_DASHED1
 62
   120
370
     5
100
AcDbLine
 10
-655.2830236326892
 20
159.3985145000077
 30
0.0
 11
-82.28302363268845
 21
159.3985145000077
 31
0.0
  0
LINE
  5
FF
330
1F
100
AcDbEntity
  8
0-0
  6
JWW_DASHED1
 62
   120
370
     5
100
AcDbLine
 10
-655.2830236326892
 20
160.3985144999079
 30
0.0
 11
-82.28302363268845
 21
160.3985144999079
 31
0.0
  0
LINE
  5
100
330
1F
100
AcDbEntity
  8
0-0
  6
JWW_DASHED1
 62
   120
370
     5
100
AcDbLine
 10
-655.2830236326892
 20
173.3985145010075
 30
0.0
 11
-82.28302363268845
 21
173.3985145010075
 31
0.0
  0
LINE
  5
101
330
1F
100
AcDbEntity
  8
0-0
  6
JWW_DASHED1
 62
   120
370
     5
100
AcDbLine
 10
-655.2830236326892
 20
174.3985145009077
 30
0.0
 11
-82.28302363268845
 21
174.3985145009077
 31
0.0
  0
LINE
  5
102
330
1F
100
AcDbEntity
  8
0-0
  6
JWW_DASHED1
 62
   120
370
     5
100
AcDbLine
 10
-655.2830236326892
 20
187.3985145020073
 30
0.0
 11
-82.28302363268845
 21
187.3985145020073
 31
0.0
  0
LINE
  5
103
330
1F
100
AcDbEntity
  8
0-0
  6
JWW_DASHED1
 62
   120
370
     5
100
AcDbLine
 10
-655.2830236326892
 20
188.3985145019075
 30
0.0
 11
-82.28302363268845
 21
188.3985145019075
 31
0.0
  0
LINE
  5
104
330
1F
100
AcDbEntity
  8
0-0
  6
JWW_DASHED1
 62
   120
370
     5
100
AcDbLine
 10
-655.2830236326892
 20
201.3985145030071
 30
0.0
 11
-82.28302363268845
 21
201.3985145030071
 31
0.0
  0
LINE
  5
105
330
1F
100
AcDbEntity
  8
0-0
  6
JWW_DASHED1
 62
   120
370
     5
100
AcDbLine
 10
-655.2830236326892
 20
202.3985145029073
 30
0.0
 11
-82.28302363268845
 21
202.3985145029073
 31
0.0
  0
LINE
  5
106
330
1F
100
AcDbEntity
  8
0-0
  6
JWW_DASHED1
 62
   120
370
     5
100
AcDbLine
 10
-655.2830236326892
 20
215.3985145040069
 30
0.0
 11
-82.28302363268845
 21
215.3985145040069
 31
0.0
  0
LINE
  5
107
330
1F
100
AcDbEntity
  8
0-0
  6
JWW_DASHED1
 62
   120
370
     5
100
AcDbLine
 10
-655.2830236326892
 20
216.3985145039071
 30
0.0
 11
-82.28302363268845
 21
216.3985145039071
 31
0.0
  0
LINE
  5
108
330
1F
100
AcDbEntity
  8
0-0
  6
JWW_DASHED1
 62
   120
370
     5
100
AcDbLine
 10
-655.2830236326892
 20
229.3985145050067
 30
0.0
 11
-82.28302363268845
 21
229.3985145050067
 31
0.0
  0
LINE
  5
109
330
1F
100
AcDbEntity
  8
0-0
  6
JWW_DASHED1
 62
   120
370
     5
100
AcDbLine
 10
-655.2830236326892
 20
230.3985145049069
 30
0.0
 11
-82.28302363268845
 21
230.3985145049069
 31
0.0
  0
LINE
  5
10A
330
1F
100
AcDbEntity
  8
0-0
  6
JWW_DASHED1
 62
   120
370
     5
100
AcDbLine
 10
-655.2830236326892
 20
243.3985145060065
 30
0.0
 11
-82.28302363268845
 21
243.3985145060065
 31
0.0
  0
LINE
  5
10B
330
1F
100
AcDbEntity
  8
0-0
  6
JWW_DASHED1
 62
   120
370
     5
100
AcDbLine
 10
-655.2830236326892
 20
244.3985145059067
 30
0.0
 11
-82.28302363268845
 21
244.3985145059067
 31
0.0
  0
LINE
  5
10C
330
1F
100
AcDbEntity
  8
0-0
  6
JWW_DASHED1
 62
   120
370
     5
100
AcDbLine
 10
-655.2830236326892
 20
257.3985145070063
 30
0.0
 11
-82.28302363268845
 21
257.3985145070063
 31
0.0
  0
LINE
  5
10D
330
1F
100
AcDbEntity
  8
0-0
  6
JWW_DASHED1
 62
   120
370
     5
100
AcDbLine
 10
-655.2830236326892
 20
258.3985145069065
 30
0.0
 11
-82.28302363268845
 21
258.3985145069065
 31
0.0
  0
LINE
  5
10E
330
1F
100
AcDbEntity
  8
0-0
  6
JWW_DASHED1
 62
   120
370
     5
100
AcDbLine
 10
-655.2830236326892
 20
271.3985145080061
 30
0.0
 11
-82.28302363268845
 21
271.3985145080061
 31
0.0
  0
LINE
  5
10F
330
1F
100
AcDbEntity
  8
0-0
  6
JWW_DASHED1
 62
   120
370
     5
100
AcDbLine
 10
-655.2830236326892
 20
272.3985145079063
 30
0.0
 11
-82.28302363268845
 21
272.3985145079063
 31
0.0
  0
LINE
  5
110
330
1F
100
AcDbEntity
  8
0-0
  6
JWW_DASHED1
 62
   120
370
     5
100
AcDbLine
 10
-655.2830236326892
 20
285.3985145090058
 30
0.0
 11
-82.28302363268845
 21
285.3985145090058
 31
0.0
  0
LINE
  5
111
330
1F
100
AcDbEntity
  8
0-0
  6
JWW_DASHED1
 62
   120
370
     5
100
AcDbLine
 10
-655.2830236326892
 20
286.398514508906
 30
0.0
 11
-82.28302363268845
 21
286.398514508906
 31
0.0
  0
LINE
  5
112
330
1F
100
AcDbEntity
  8
0-0
  6
JWW_DASHED1
 62
   120
370
     5
100
AcDbLine
 10
-655.2830236326892
 20
299.3985145100056
 30
0.0
 11
-82.28302363268845
 21
299.3985145100056
 31
0.0
  0
LINE
  5
113
330
1F
100
AcDbEntity
  8
0-0
  6
JWW_DASHED1
 62
   120
370
     5
100
AcDbLine
 10
-655.2830236326892
 20
300.3985145099058
 30
0.0
 11
-82.28302363268845
 21
300.3985145099058
 31
0.0
  0
LINE
  5
114
330
1F
100
AcDbEntity
  8
0-0
  6
JWW_DASHED1
 62
   120
370
     5
100
AcDbLine
 10
-655.2830236326892
 20
313.3985145110054
 30
0.0
 11
-82.28302363268845
 21
313.3985145110054
 31
0.0
  0
LINE
  5
115
330
1F
100
AcDbEntity
  8
0-0
  6
JWW_DASHED1
 62
   120
370
     5
100
AcDbLine
 10
-655.2830236326892
 20
314.3985145109056
 30
0.0
 11
-82.28302363268845
 21
314.3985145109056
 31
0.0
  0
LINE
  5
116
330
1F
100
AcDbEntity
  8
0-0
  6
JWW_DASHED1
 62
   120
370
     5
100
AcDbLine
 10
-655.2830236326892
 20
327.3985145120052
 30
0.0
 11
-82.28302363268845
 21
327.3985145120052
 31
0.0
  0
LINE
  5
117
330
1F
100
AcDbEntity
  8
0-0
  6
JWW_DASHED1
 62
   120
370
     5
100
AcDbLine
 10
-655.2830236326892
 20
328.3985145119054
 30
0.0
 11
-82.28302363268845
 21
328.3985145119054
 31
0.0
  0
LINE
  5
118
330
1F
100
AcDbEntity
  8
0-0
  6
JWW_DASHED1
 62
   120
370
     5
100
AcDbLine
 10
-655.2830236326892
 20
341.398514513005
 30
0.0
 11
-82.28302363268845
 21
341.398514513005
 31
0.0
  0
LINE
  5
119
330
1F
100
AcDbEntity
  8
0-0
  6
JWW_DASHED1
 62
   120
370
     5
100
AcDbLine
 10
-655.2830236326892
 20
342.3985145129052
 30
0.0
 11
-82.28302363268845
 21
342.3985145129052
 31
0.0
  0
LINE
  5
11A
330
1F
100
AcDbEntity
  8
0-0
  6
JWW_DASHED1
 62
   120
370
     5
100
AcDbLine
 10
-655.2830236326892
 20
355.3985145140048
 30
0.0
 11
-82.28302363268845
 21
355.3985145140048
 31
0.0
  0
LINE
  5
11B
330
1F
100
AcDbEntity
  8
0-0
  6
JWW_DASHED1
 62
   120
370
     5
100
AcDbLine
 10
-655.2830236326892
 20
356.398514513905
 30
0.0
 11
-82.28302363268845
 21
356.398514513905
 31
0.0
  0
LINE
  5
11C
330
1F
100
AcDbEntity
  8
0-0
  6
JWW_DASHED1
 62
   120
370
     5
100
AcDbLine
 10
-655.2830236326892
 20
369.3985145150046
 30
0.0
 11
-82.28302363268845
 21
369.3985145150046
 31
0.0
  0
LINE
  5
11D
330
1F
100
AcDbEntity
  8
0-0
  6
JWW_DASHED1
 62
   120
370
     5
100
AcDbLine
 10
-655.2830236326892
 20
370.3985145149048
 30
0.0
 11
-82.28302363268845
 21
370.3985145149048
 31
0.0
  0
LINE
  5
11E
330
1F
100
AcDbEntity
  8
0-0
  6
JWW_DASHED1
 62
   120
370
     5
100
AcDbLine
 10
-655.2830236326892
 20
383.3985145160044
 30
0.0
 11
-82.28302363268845
 21
383.3985145160044
 31
0.0
  0
LINE
  5
11F
330
1F
100
AcDbEntity
  8
0-0
  6
JWW_DASHED1
 62
   120
370
     5
100
AcDbLine
 10
-655.2830236326892
 20
384.3985145159046
 30
0.0
 11
-82.28302363268845
 21
384.3985145159046
 31
0.0
  0
LINE
  5
120
330
1F
100
AcDbEntity
  8
0-0
  6
JWW_DASHED1
 62
   120
370
     5
100
AcDbLine
 10
-655.2830236326892
 20
397.3985145170042
 30
0.0
 11
-82.28302363268845
 21
397.3985145170042
 31
0.0
  0
LINE
  5
121
330
1F
100
AcDbEntity
  8
0-0
  6
JWW_DASHED1
 62
   120
370
     5
100
AcDbLine
 10
-655.2830236326892
 20
398.3985145169044
 30
0.0
 11
-82.28302363268845
 21
398.3985145169044
 31
0.0
  0
LINE
  5
122
330
1F
100
AcDbEntity
  8
0-0
  6
JWW_DASHED1
 62
   120
370
     5
100
AcDbLine
 10
-655.2830236326892
 20
411.3985145180039
 30
0.0
 11
-82.28302363268845
 21
411.3985145180039
 31
0.0
  0
LINE
  5
123
330
1F
100
AcDbEntity
  8
0-0
  6
JWW_DASHED1
 62
   120
370
     5
100
AcDbLine
 10
-655.2830236326892
 20
412.3985145179041
 30
0.0
 11
-82.28302363268845
 21
412.3985145179041
 31
0.0
  0
LINE
  5
124
330
1F
100
AcDbEntity
  8
0-0
  6
JWW_DASHED1
 62
   120
370
     5
100
AcDbLine
 10
-655.2830236326892
 20
425.3985145190038
 30
0.0
 11
-82.28302363268845
 21
425.3985145190038
 31
0.0
  0
LINE
  5
125
330
1F
100
AcDbEntity
  8
0-0
  6
JWW_DASHED1
 62
   120
370
     5
100
AcDbLine
 10
-655.2830236326892
 20
426.3985145189039
 30
0.0
 11
-82.28302363268845
 21
426.3985145189039
 31
0.0
  0
LINE
  5
126
330
1F
100
AcDbEntity
  8
0-0
  6
JWW_DASHED1
 62
   120
370
     5
100
AcDbLine
 10
-655.2830236326892
 20
439.3985145200036
 30
0.0
 11
-82.28302363268845
 21
439.3985145200036
 31
0.0
  0
LINE
  5
127
330
1F
100
AcDbEntity
  8
0-0
  6
JWW_DASHED1
 62
   120
370
     5
100
AcDbLine
 10
-655.2830236326892
 20
440.3985145199038
 30
0.0
 11
-82.28302363268845
 21
440.3985145199038
 31
0.0
  0
LINE
  5
128
330
1F
100
AcDbEntity
  8
0-0
  6
JWW_DASHED1
 62
   120
370
     5
100
AcDbLine
 10
-655.2830236326892
 20
453.3985145210033
 30
0.0
 11
-82.28302363268845
 21
453.3985145210033
 31
0.0
  0
LINE
  5
129
330
1F
100
AcDbEntity
  8
0-0
  6
JWW_DASHED1
 62
   120
370
     5
100
AcDbLine
 10
-655.2830236326892
 20
454.3985145209035
 30
0.0
 11
-82.28302363268845
 21
454.3985145209035
 31
0.0
  0
LINE
  5
12A
330
1F
100
AcDbEntity
  8
0-0
  6
JWW_DASHED1
 62
   120
370
     5
100
AcDbLine
 10
-655.2830236326892
 20
467.3985145220031
 30
0.0
 11
-82.28302363268845
 21
467.3985145220031
 31
0.0
  0
LINE
  5
12B
330
1F
100
AcDbEntity
  8
0-0
  6
JWW_DASHED1
 62
   120
370
     5
100
AcDbLine
 10
-655.2830236326892
 20
468.3985145219033
 30
0.0
 11
-82.28302363268845
 21
468.3985145219033
 31
0.0
  0
LINE
  5
12C
330
1F
100
AcDbEntity
  8
0-0
  6
JWW_DASHED1
 62
   120
370
     5
100
AcDbLine
 10
-655.2830236326892
 20
481.3985145230029
 30
0.0
 11
-82.28302363268845
 21
481.3985145230029
 31
0.0
  0
LINE
  5
12D
330
1F
100
AcDbEntity
  8
0-0
  6
JWW_DASHED1
 62
   120
370
     5
100
AcDbLine
 10
-655.2830236326892
 20
482.3985145229031
 30
0.0
 11
-82.28302363268845
 21
482.3985145229031
 31
0.0
  0
LINE
  5
12E
330
1F
100
AcDbEntity
  8
0-0
  6
JWW_DASHED1
 62
   120
370
     5
100
AcDbLine
 10
-655.2830236326892
 20
495.3985145240027
 30
0.0
 11
-82.28302363268845
 21
495.3985145240027
 31
0.0
  0
LINE
  5
12F
330
1F
100
AcDbEntity
  8
0-0
  6
JWW_DASHED1
 62
   120
370
     5
100
AcDbLine
 10
-655.2830236326892
 20
496.3985145239029
 30
0.0
 11
-82.28302363268845
 21
496.3985145239029
 31
0.0
  0
LINE
  5
130
330
1F
100
AcDbEntity
  8
0-0
  6
JWW_DASHED1
 62
   120
370
     5
100
AcDbLine
 10
-655.2830236326892
 20
509.3985145250025
 30
0.0
 11
-82.28302363268845
 21
509.3985145250025
 31
0.0
  0
LINE
  5
131
330
1F
100
AcDbEntity
  8
0-0
  6
JWW_DASHED1
 62
   120
370
     5
100
AcDbLine
 10
-655.2830236326892
 20
510.3985145249027
 30
0.0
 11
-82.28302363268845
 21
510.3985145249027
 31
0.0
  0
LINE
  5
132
330
1F
100
AcDbEntity
  8
0-0
  6
JWW_DASHED1
 62
   120
370
     5
100
AcDbLine
 10
-655.2830236326892
 20
523.3985145260023
 30
0.0
 11
-82.28302363268845
 21
523.3985145260023
 31
0.0
  0
LINE
  5
133
330
1F
100
AcDbEntity
  8
0-0
  6
JWW_DASHED1
 62
   120
370
     5
100
AcDbLine
 10
-655.2830236326892
 20
524.3985145259024
 30
0.0
 11
-82.28302363268845
 21
524.3985145259024
 31
0.0
  0
LINE
  5
134
330
1F
100
AcDbEntity
  8
0-0
  6
JWW_DASHED1
 62
   120
370
     5
100
AcDbLine
 10
-655.2830236326892
 20
537.3985145270021
 30
0.0
 11
-82.28302363268845
 21
537.3985145270021
 31
0.0
  0
LINE
  5
135
330
1F
100
AcDbEntity
  8
0-0
  6
JWW_DASHED1
 62
   120
370
     5
100
AcDbLine
 10
-655.2830236326892
 20
538.3985145269023
 30
0.0
 11
-82.28302363268845
 21
538.3985145269023
 31
0.0
  0
LINE
  5
136
330
1F
100
AcDbEntity
  8
0-0
  6
JWW_DASHED1
 62
   120
370
     5
100
AcDbLine
 10
-655.2830236326892
 20
551.3985145280019
 30
0.0
 11
-82.28302363268845
 21
551.3985145280019
 31
0.0
  0
LINE
  5
137
330
1F
100
AcDbEntity
  8
0-0
  6
JWW_DASHED1
 62
   120
370
     5
100
AcDbLine
 10
-655.2830236326892
 20
552.3985145279021
 30
0.0
 11
-82.28302363268845
 21
552.3985145279021
 31
0.0
  0
LINE
  5
138
330
1F
100
AcDbEntity
  8
0-0
  6
JWW_DASHED1
 62
   120
370
     5
100
AcDbLine
 10
-655.2830236326892
 20
565.3985145290017
 30
0.0
 11
-82.28302363268845
 21
565.3985145290017
 31
0.0
  0
LINE
  5
139
330
1F
100
AcDbEntity
  8
0-0
  6
JWW_DASHED1
 62
   120
370
     5
100
AcDbLine
 10
-655.2830236326892
 20
566.3985145289018
 30
0.0
 11
-82.28302363268845
 21
566.3985145289018
 31
0.0
  0
LINE
  5
13A
330
1F
100
AcDbEntity
  8
0-0
  6
JWW_DASHED1
 62
   120
370
     5
100
AcDbLine
 10
-655.2830236326892
 20
579.3985145300014
 30
0.0
 11
-82.28302363268845
 21
579.3985145300014
 31
0.0
  0
LINE
  5
13B
330
1F
100
AcDbEntity
  8
0-0
  6
JWW_DASHED1
 62
   120
370
     5
100
AcDbLine
 10
-655.2830236326892
 20
580.3985145299016
 30
0.0
 11
-82.28302363268845
 21
580.3985145299016
 31
0.0
  0
LINE
  5
13C
330
1F
100
AcDbEntity
  8
0-0
  6
JWW_DASHED1
 62
   120
370
     5
100
AcDbLine
 10
-655.2830236326892
 20
593.3985145310012
 30
0.0
 11
-82.28302363268845
 21
593.3985145310012
 31
0.0
  0
LINE
  5
13D
330
1F
100
AcDbEntity
  8
0-0
  6
JWW_DASHED1
 62
   120
370
     5
100
AcDbLine
 10
-655.2830236326892
 20
594.3985145309014
 30
0.0
 11
-82.28302363268845
 21
594.3985145309014
 31
0.0
  0
LINE
  5
13E
330
1F
100
AcDbEntity
  8
0-0
  6
JWW_DASHED1
 62
   120
370
     5
100
AcDbLine
 10
-655.2830236326892
 20
607.3985145320011
 30
0.0
 11
-82.28302363268845
 21
607.3985145320011
 31
0.0
  0
LINE
  5
13F
330
1F
100
AcDbEntity
  8
0-0
  6
JWW_DASHED1
 62
   120
370
     5
100
AcDbLine
 10
-655.2830236326892
 20
608.3985145319012
 30
0.0
 11
-82.28302363268845
 21
608.3985145319012
 31
0.0
  0
LINE
  5
140
330
1F
100
AcDbEntity
  8
0-0
  6
JWW_DASHED1
 62
   120
370
     5
100
AcDbLine
 10
-655.2830236326892
 20
621.3985145330008
 30
0.0
 11
-82.28302363268845
 21
621.3985145330008
 31
0.0
  0
LINE
  5
141
330
1F
100
AcDbEntity
  8
0-0
  6
JWW_DASHED1
 62
   120
370
     5
100
AcDbLine
 10
-655.2830236326892
 20
622.398514532901
 30
0.0
 11
-82.28302363268845
 21
622.398514532901
 31
0.0
  0
LINE
  5
142
330
1F
100
AcDbEntity
  8
0-0
  6
JWW_DASHED1
 62
   120
370
     5
100
AcDbLine
 10
-655.2830236326892
 20
635.3985145340006
 30
0.0
 11
-82.28302363268845
 21
635.3985145340006
 31
0.0
  0
LINE
  5
143
330
1F
100
AcDbEntity
  8
0-0
  6
JWW_DASHED1
 62
   120
370
     5
100
AcDbLine
 10
-655.2830236326892
 20
636.3985145339008
 30
0.0
 11
-82.28302363268845
 21
636.3985145339008
 31
0.0
  0
LINE
  5
144
330
1F
100
AcDbEntity
  8
0-0
  6
JWW_DASHED1
 62
   120
370
     5
100
AcDbLine
 10
-655.2830236326892
 20
649.3985145350005
 30
0.0
 11
-82.28302363268845
 21
649.3985145350005
 31
0.0
  0
LINE
  5
145
330
1F
100
AcDbEntity
  8
0-0
  6
JWW_DASHED1
 62
   120
370
     5
100
AcDbLine
 10
-655.2830236326892
 20
650.3985145349006
 30
0.0
 11
-82.28302363268845
 21
650.3985145349006
 31
0.0
  0
LINE
  5
146
330
1F
100
AcDbEntity
  8
0-0
  6
JWW_DASHED1
 62
   120
370
     5
100
AcDbLine
 10
-655.2830236326892
 20
663.3985145360002
 30
0.0
 11
-82.28302363268845
 21
663.3985145360002
 31
0.0
  0
LINE
  5
147
330
1F
100
AcDbEntity
  8
0-0
  6
JWW_DASHED1
 62
   120
370
     5
100
AcDbLine
 10
-655.2830236326892
 20
664.3985145359004
 30
0.0
 11
-82.28302363268845
 21
664.3985145359004
 31
0.0
  0
LINE
  5
148
330
1F
100
AcDbEntity
  8
0-0
  6
JWW_DASHED1
 62
   120
370
     5
100
AcDbLine
 10
-655.2830236326892
 20
677.398514537
 30
0.0
 11
-82.28302363268845
 21
677.398514537
 31
0.0
  0
LINE
  5
149
330
1F
100
AcDbEntity
  8
0-0
  6
JWW_DASHED1
 62
   120
370
     5
100
AcDbLine
 10
-655.2830236326892
 20
678.3985145369002
 30
0.0
 11
-82.28302363268845
 21
678.3985145369002
 31
0.0
  0
LINE
  5
14A
330
1F
100
AcDbEntity
  8
0-0
  6
JWW_DASHED1
 62
   120
370
     5
100
AcDbLine
 10
-649.2830051746574
 20
-428.6013372281397
 30
0.0
 11
-649.2830051746574
 21
746.3986627718605
 31
0.0
  0
LINE
  5
14B
330
1F
100
AcDbEntity
  8
0-0
  6
JWW_DASHED1
 62
   120
370
     5
100
AcDbLine
 10
-116.283005136757
 20
-428.6013372281397
 30
0.0
 11
-116.283005136757
 21
746.3986627718605
 31
0.0
  0
LINE
  5
14C
330
1F
100
AcDbEntity
  8
0-0
  6
JWW_DASHED1
 62
   120
370
     5
100
AcDbLine
 10
-117.2830051366572
 20
-428.6013372281397
 30
0.0
 11
-117.2830051366568
 21
746.3986627718605
 31
0.0
  0
LINE
  5
14D
330
1F
100
AcDbEntity
  8
0-0
  6
JWW_DASHED1
 62
   120
370
     5
100
AcDbLine
 10
-130.2830051377572
 20
-428.6013372281397
 30
0.0
 11
-130.2830051377568
 21
746.3986627718605
 31
0.0
  0
LINE
  5
14E
330
1F
100
AcDbEntity
  8
0-0
  6
JWW_DASHED1
 62
   120
370
     5
100
AcDbLine
 10
-131.283005137657
 20
-428.6013372281397
 30
0.0
 11
-131.283005137657
 21
746.3986627718605
 31
0.0
  0
LINE
  5
14F
330
1F
100
AcDbEntity
  8
0-0
  6
JWW_DASHED1
 62
   120
370
     5
100
AcDbLine
 10
-144.2830051387575
 20
-428.6013372281397
 30
0.0
 11
-144.2830051387575
 21
746.3986627718605
 31
0.0
  0
LINE
  5
150
330
1F
100
AcDbEntity
  8
0-0
  6
JWW_DASHED1
 62
   120
370
     5
100
AcDbLine
 10
-145.2830051386572
 20
-428.6013372281397
 30
0.0
 11
-145.2830051386572
 21
746.3986627718605
 31
0.0
  0
LINE
  5
151
330
1F
100
AcDbEntity
  8
0-0
  6
JWW_DASHED1
 62
   120
370
     5
100
AcDbLine
 10
-158.2830051397573
 20
-428.6013372281397
 30
0.0
 11
-158.2830051397573
 21
746.3986627718605
 31
0.0
  0
LINE
  5
152
330
1F
100
AcDbEntity
  8
0-0
  6
JWW_DASHED1
 62
   120
370
     5
100
AcDbLine
 10
-159.2830051396574
 20
-428.6013372281397
 30
0.0
 11
-159.2830051396574
 21
746.3986627718605
 31
0.0
  0
LINE
  5
153
330
1F
100
AcDbEntity
  8
0-0
  6
JWW_DASHED1
 62
   120
370
     5
100
AcDbLine
 10
-172.2830051407575
 20
-428.6013372281397
 30
0.0
 11
-172.2830051407575
 21
746.3986627718605
 31
0.0
  0
LINE
  5
154
330
1F
100
AcDbEntity
  8
0-0
  6
JWW_DASHED1
 62
   120
370
     5
100
AcDbLine
 10
-173.2830051406572
 20
-428.6013372281397
 30
0.0
 11
-173.2830051406568
 21
746.3986627718605
 31
0.0
  0
LINE
  5
155
330
1F
100
AcDbEntity
  8
0-0
  6
JWW_DASHED1
 62
   120
370
     5
100
AcDbLine
 10
-186.2830051417573
 20
-428.6013372281397
 30
0.0
 11
-186.2830051417568
 21
746.3986627718605
 31
0.0
  0
LINE
  5
156
330
1F
100
AcDbEntity
  8
0-0
  6
JWW_DASHED1
 62
   120
370
     5
100
AcDbLine
 10
-187.283005141657
 20
-428.6013372281397
 30
0.0
 11
-187.283005141657
 21
746.3986627718605
 31
0.0
  0
LINE
  5
157
330
1F
100
AcDbEntity
  8
0-0
  6
JWW_DASHED1
 62
   120
370
     5
100
AcDbLine
 10
-200.283005142757
 20
-428.6013372281397
 30
0.0
 11
-200.283005142757
 21
746.3986627718605
 31
0.0
  0
LINE
  5
158
330
1F
100
AcDbEntity
  8
0-0
  6
JWW_DASHED1
 62
   120
370
     5
100
AcDbLine
 10
-201.2830051426572
 20
-428.6013372281397
 30
0.0
 11
-201.2830051426572
 21
746.3986627718605
 31
0.0
  0
LINE
  5
159
330
1F
100
AcDbEntity
  8
0-0
  6
JWW_DASHED1
 62
   120
370
     5
100
AcDbLine
 10
-214.2830051437568
 20
-428.6013372281397
 30
0.0
 11
-214.2830051437568
 21
746.3986627718605
 31
0.0
  0
LINE
  5
15A
330
1F
100
AcDbEntity
  8
0-0
  6
JWW_DASHED1
 62
   120
370
     5
100
AcDbLine
 10
-215.283005143657
 20
-428.6013372281397
 30
0.0
 11
-215.283005143657
 21
746.3986627718605
 31
0.0
  0
LINE
  5
15B
330
1F
100
AcDbEntity
  8
0-0
  6
JWW_DASHED1
 62
   120
370
     5
100
AcDbLine
 10
-228.2830051447566
 20
-428.6013372281397
 30
0.0
 11
-228.2830051447566
 21
746.3986627718605
 31
0.0
  0
LINE
  5
15C
330
1F
100
AcDbEntity
  8
0-0
  6
JWW_DASHED1
 62
   120
370
     5
100
AcDbLine
 10
-229.2830051446568
 20
-428.6013372281397
 30
0.0
 11
-229.2830051446568
 21
746.3986627718605
 31
0.0
  0
LINE
  5
15D
330
1F
100
AcDbEntity
  8
0-0
  6
JWW_DASHED1
 62
   120
370
     5
100
AcDbLine
 10
-242.2830051457568
 20
-428.6013372281397
 30
0.0
 11
-242.2830051457568
 21
746.3986627718605
 31
0.0
  0
LINE
  5
15E
330
1F
100
AcDbEntity
  8
0-0
  6
JWW_DASHED1
 62
   120
370
     5
100
AcDbLine
 10
-243.283005145657
 20
-428.6013372281397
 30
0.0
 11
-243.283005145657
 21
746.3986627718605
 31
0.0
  0
LINE
  5
15F
330
1F
100
AcDbEntity
  8
0-0
  6
JWW_DASHED1
 62
   120
370
     5
100
AcDbLine
 10
-256.283005146757
 20
-428.6013372281397
 30
0.0
 11
-256.283005146757
 21
746.3986627718605
 31
0.0
  0
LINE
  5
160
330
1F
100
AcDbEntity
  8
0-0
  6
JWW_DASHED1
 62
   120
370
     5
100
AcDbLine
 10
-257.2830051466572
 20
-428.6013372281397
 30
0.0
 11
-257.2830051466572
 21
746.3986627718605
 31
0.0
  0
LINE
  5
161
330
1F
100
AcDbEntity
  8
0-0
  6
JWW_DASHED1
 62
   120
370
     5
100
AcDbLine
 10
-270.2830051477569
 20
-428.6013372281397
 30
0.0
 11
-270.2830051477569
 21
746.3986627718605
 31
0.0
  0
LINE
  5
162
330
1F
100
AcDbEntity
  8
0-0
  6
JWW_DASHED1
 62
   120
370
     5
100
AcDbLine
 10
-271.283005147657
 20
-428.6013372281397
 30
0.0
 11
-271.283005147657
 21
746.3986627718605
 31
0.0
  0
LINE
  5
163
330
1F
100
AcDbEntity
  8
0-0
  6
JWW_DASHED1
 62
   120
370
     5
100
AcDbLine
 10
-284.2830051487566
 20
-428.6013372281397
 30
0.0
 11
-284.2830051487566
 21
746.3986627718605
 31
0.0
  0
LINE
  5
164
330
1F
100
AcDbEntity
  8
0-0
  6
JWW_DASHED1
 62
   120
370
     5
100
AcDbLine
 10
-285.2830051486568
 20
-428.6013372281397
 30
0.0
 11
-285.2830051486568
 21
746.3986627718605
 31
0.0
  0
LINE
  5
165
330
1F
100
AcDbEntity
  8
0-0
  6
JWW_DASHED1
 62
   120
370
     5
100
AcDbLine
 10
-298.2830051497568
 20
-428.6013372281397
 30
0.0
 11
-298.2830051497568
 21
746.3986627718605
 31
0.0
  0
LINE
  5
166
330
1F
100
AcDbEntity
  8
0-0
  6
JWW_DASHED1
 62
   120
370
     5
100
AcDbLine
 10
-299.283005149657
 20
-428.6013372281397
 30
0.0
 11
-299.283005149657
 21
746.3986627718605
 31
0.0
  0
LINE
  5
167
330
1F
100
AcDbEntity
  8
0-0
  6
JWW_DASHED1
 62
   120
370
     5
100
AcDbLine
 10
-312.283005150757
 20
-428.6013372281397
 30
0.0
 11
-312.283005150757
 21
746.3986627718605
 31
0.0
  0
LINE
  5
168
330
1F
100
AcDbEntity
  8
0-0
  6
JWW_DASHED1
 62
   120
370
     5
100
AcDbLine
 10
-313.2830051506572
 20
-428.6013372281397
 30
0.0
 11
-313.2830051506572
 21
746.3986627718605
 31
0.0
  0
LINE
  5
169
330
1F
100
AcDbEntity
  8
0-0
  6
JWW_DASHED1
 62
   120
370
     5
100
AcDbLine
 10
-326.2830051517569
 20
-428.6013372281397
 30
0.0
 11
-326.2830051517569
 21
746.3986627718605
 31
0.0
  0
LINE
  5
16A
330
1F
100
AcDbEntity
  8
0-0
  6
JWW_DASHED1
 62
   120
370
     5
100
AcDbLine
 10
-327.2830051516571
 20
-428.6013372281397
 30
0.0
 11
-327.2830051516571
 21
746.3986627718605
 31
0.0
  0
LINE
  5
16B
330
1F
100
AcDbEntity
  8
0-0
  6
JWW_DASHED1
 62
   120
370
     5
100
AcDbLine
 10
-340.2830051527566
 20
-428.6013372281397
 30
0.0
 11
-340.2830051527566
 21
746.3986627718605
 31
0.0
  0
LINE
  5
16C
330
1F
100
AcDbEntity
  8
0-0
  6
JWW_DASHED1
 62
   120
370
     5
100
AcDbLine
 10
-341.2830051526573
 20
-428.6013372281397
 30
0.0
 11
-341.2830051526573
 21
746.3986627718605
 31
0.0
  0
LINE
  5
16D
330
1F
100
AcDbEntity
  8
0-0
  6
JWW_DASHED1
 62
   120
370
     5
100
AcDbLine
 10
-354.2830051537568
 20
-428.6013372281397
 30
0.0
 11
-354.2830051537568
 21
746.3986627718605
 31
0.0
  0
LINE
  5
16E
330
1F
100
AcDbEntity
  8
0-0
  6
JWW_DASHED1
 62
   120
370
     5
100
AcDbLine
 10
-355.283005153657
 20
-428.6013372281397
 30
0.0
 11
-355.283005153657
 21
746.3986627718605
 31
0.0
  0
LINE
  5
16F
330
1F
100
AcDbEntity
  8
0-0
  6
JWW_DASHED1
 62
   120
370
     5
100
AcDbLine
 10
-368.283005154757
 20
-428.6013372281397
 30
0.0
 11
-368.283005154757
 21
746.3986627718605
 31
0.0
  0
LINE
  5
170
330
1F
100
AcDbEntity
  8
0-0
  6
JWW_DASHED1
 62
   120
370
     5
100
AcDbLine
 10
-369.2830051546572
 20
-428.6013372281397
 30
0.0
 11
-369.2830051546572
 21
746.3986627718605
 31
0.0
  0
LINE
  5
171
330
1F
100
AcDbEntity
  8
0-0
  6
JWW_DASHED1
 62
   120
370
     5
100
AcDbLine
 10
-382.2830051557572
 20
-428.6013372281397
 30
0.0
 11
-382.2830051557572
 21
746.3986627718605
 31
0.0
  0
LINE
  5
172
330
1F
100
AcDbEntity
  8
0-0
  6
JWW_DASHED1
 62
   120
370
     5
100
AcDbLine
 10
-383.2830051556571
 20
-428.6013372281397
 30
0.0
 11
-383.2830051556571
 21
746.3986627718605
 31
0.0
  0
LINE
  5
173
330
1F
100
AcDbEntity
  8
0-0
  6
JWW_DASHED1
 62
   120
370
     5
100
AcDbLine
 10
-396.2830051567566
 20
-428.6013372281397
 30
0.0
 11
-396.2830051567566
 21
746.3986627718605
 31
0.0
  0
LINE
  5
174
330
1F
100
AcDbEntity
  8
0-0
  6
JWW_DASHED1
 62
   120
370
     5
100
AcDbLine
 10
-397.2830051566568
 20
-428.6013372281397
 30
0.0
 11
-397.2830051566568
 21
746.3986627718605
 31
0.0
  0
LINE
  5
175
330
1F
100
AcDbEntity
  8
0-0
  6
JWW_DASHED1
 62
   120
370
     5
100
AcDbLine
 10
-410.2830051577569
 20
-428.6013372281397
 30
0.0
 11
-410.2830051577569
 21
746.3986627718605
 31
0.0
  0
LINE
  5
176
330
1F
100
AcDbEntity
  8
0-0
  6
JWW_DASHED1
 62
   120
370
     5
100
AcDbLine
 10
-411.283005157657
 20
-428.6013372281397
 30
0.0
 11
-411.283005157657
 21
746.3986627718605
 31
0.0
  0
LINE
  5
177
330
1F
100
AcDbEntity
  8
0-0
  6
JWW_DASHED1
 62
   120
370
     5
100
AcDbLine
 10
-424.2830051587571
 20
-428.6013372281397
 30
0.0
 11
-424.2830051587571
 21
746.3986627718605
 31
0.0
  0
LINE
  5
178
330
1F
100
AcDbEntity
  8
0-0
  6
JWW_DASHED1
 62
   120
370
     5
100
AcDbLine
 10
-425.2830051586573
 20
-428.6013372281397
 30
0.0
 11
-425.2830051586573
 21
746.3986627718605
 31
0.0
  0
LINE
  5
179
330
1F
100
AcDbEntity
  8
0-0
  6
JWW_DASHED1
 62
   120
370
     5
100
AcDbLine
 10
-438.2830051597569
 20
-428.6013372281397
 30
0.0
 11
-438.2830051597569
 21
746.3986627718605
 31
0.0
  0
LINE
  5
17A
330
1F
100
AcDbEntity
  8
0-0
  6
JWW_DASHED1
 62
   120
370
     5
100
AcDbLine
 10
-439.2830051596571
 20
-428.6013372281397
 30
0.0
 11
-439.2830051596571
 21
746.3986627718605
 31
0.0
  0
LINE
  5
17B
330
1F
100
AcDbEntity
  8
0-0
  6
JWW_DASHED1
 62
   120
370
     5
100
AcDbLine
 10
-452.2830051607566
 20
-428.6013372281397
 30
0.0
 11
-452.2830051607566
 21
746.3986627718605
 31
0.0
  0
LINE
  5
17C
330
1F
100
AcDbEntity
  8
0-0
  6
JWW_DASHED1
 62
   120
370
     5
100
AcDbLine
 10
-453.2830051606568
 20
-428.6013372281397
 30
0.0
 11
-453.2830051606568
 21
746.3986627718605
 31
0.0
  0
LINE
  5
17D
330
1F
100
AcDbEntity
  8
0-0
  6
JWW_DASHED1
 62
   120
370
     5
100
AcDbLine
 10
-466.2830051617568
 20
-428.6013372281397
 30
0.0
 11
-466.2830051617568
 21
746.3986627718605
 31
0.0
  0
LINE
  5
17E
330
1F
100
AcDbEntity
  8
0-0
  6
JWW_DASHED1
 62
   120
370
     5
100
AcDbLine
 10
-467.283005161657
 20
-428.6013372281397
 30
0.0
 11
-467.283005161657
 21
746.3986627718605
 31
0.0
  0
LINE
  5
17F
330
1F
100
AcDbEntity
  8
0-0
  6
JWW_DASHED1
 62
   120
370
     5
100
AcDbLine
 10
-480.2830051627571
 20
-428.6013372281397
 30
0.0
 11
-480.2830051627571
 21
746.3986627718605
 31
0.0
  0
LINE
  5
180
330
1F
100
AcDbEntity
  8
0-0
  6
JWW_DASHED1
 62
   120
370
     5
100
AcDbLine
 10
-481.2830051626573
 20
-428.6013372281397
 30
0.0
 11
-481.2830051626573
 21
746.3986627718605
 31
0.0
  0
LINE
  5
181
330
1F
100
AcDbEntity
  8
0-0
  6
JWW_DASHED1
 62
   120
370
     5
100
AcDbLine
 10
-494.283005163757
 20
-428.6013372281397
 30
0.0
 11
-494.283005163757
 21
746.3986627718605
 31
0.0
  0
LINE
  5
182
330
1F
100
AcDbEntity
  8
0-0
  6
JWW_DASHED1
 62
   120
370
     5
100
AcDbLine
 10
-495.2830051636572
 20
-428.6013372281397
 30
0.0
 11
-495.2830051636572
 21
746.3986627718605
 31
0.0
  0
LINE
  5
183
330
1F
100
AcDbEntity
  8
0-0
  6
JWW_DASHED1
 62
   120
370
     5
100
AcDbLine
 10
-508.2830051647567
 20
-428.6013372281397
 30
0.0
 11
-508.2830051647567
 21
746.3986627718605
 31
0.0
  0
LINE
  5
184
330
1F
100
AcDbEntity
  8
0-0
  6
JWW_DASHED1
 62
   120
370
     5
100
AcDbLine
 10
-509.2830051646569
 20
-428.6013372281397
 30
0.0
 11
-509.2830051646569
 21
746.3986627718605
 31
0.0
  0
LINE
  5
185
330
1F
100
AcDbEntity
  8
0-0
  6
JWW_DASHED1
 62
   120
370
     5
100
AcDbLine
 10
-522.283005165757
 20
-428.6013372281397
 30
0.0
 11
-522.283005165757
 21
746.3986627718605
 31
0.0
  0
LINE
  5
186
330
1F
100
AcDbEntity
  8
0-0
  6
JWW_DASHED1
 62
   120
370
     5
100
AcDbLine
 10
-523.2830051656572
 20
-428.6013372281397
 30
0.0
 11
-523.2830051656572
 21
746.3986627718605
 31
0.0
  0
LINE
  5
187
330
1F
100
AcDbEntity
  8
0-0
  6
JWW_DASHED1
 62
   120
370
     5
100
AcDbLine
 10
-536.2830051667572
 20
-428.6013372281397
 30
0.0
 11
-536.2830051667572
 21
746.3986627718605
 31
0.0
  0
LINE
  5
188
330
1F
100
AcDbEntity
  8
0-0
  6
JWW_DASHED1
 62
   120
370
     5
100
AcDbLine
 10
-537.2830051666574
 20
-428.6013372281397
 30
0.0
 11
-537.2830051666574
 21
746.3986627718605
 31
0.0
  0
LINE
  5
189
330
1F
100
AcDbEntity
  8
0-0
  6
JWW_DASHED1
 62
   120
370
     5
100
AcDbLine
 10
-550.283005167757
 20
-428.6013372281397
 30
0.0
 11
-550.283005167757
 21
746.3986627718605
 31
0.0
  0
LINE
  5
18A
330
1F
100
AcDbEntity
  8
0-0
  6
JWW_DASHED1
 62
   120
370
     5
100
AcDbLine
 10
-551.2830051676572
 20
-428.6013372281397
 30
0.0
 11
-551.2830051676572
 21
746.3986627718605
 31
0.0
  0
LINE
  5
18B
330
1F
100
AcDbEntity
  8
0-0
  6
JWW_DASHED1
 62
   120
370
     5
100
AcDbLine
 10
-564.2830051687572
 20
-428.6013372281397
 30
0.0
 11
-564.2830051687572
 21
746.3986627718605
 31
0.0
  0
LINE
  5
18C
330
1F
100
AcDbEntity
  8
0-0
  6
JWW_DASHED1
 62
   120
370
     5
100
AcDbLine
 10
-565.2830051686569
 20
-428.6013372281397
 30
0.0
 11
-565.2830051686569
 21
746.3986627718605
 31
0.0
  0
LINE
  5
18D
330
1F
100
AcDbEntity
  8
0-0
  6
JWW_DASHED1
 62
   120
370
     5
100
AcDbLine
 10
-578.283005169757
 20
-428.6013372281397
 30
0.0
 11
-578.283005169757
 21
746.3986627718605
 31
0.0
  0
LINE
  5
18E
330
1F
100
AcDbEntity
  8
0-0
  6
JWW_DASHED1
 62
   120
370
     5
100
AcDbLine
 10
-579.2830051696576
 20
-428.6013372281397
 30
0.0
 11
-579.2830051696576
 21
746.3986627718605
 31
0.0
  0
LINE
  5
18F
330
1F
100
AcDbEntity
  8
0-0
  6
JWW_DASHED1
 62
   120
370
     5
100
AcDbLine
 10
-592.2830051707572
 20
-428.6013372281397
 30
0.0
 11
-592.2830051707572
 21
746.3986627718605
 31
0.0
  0
LINE
  5
190
330
1F
100
AcDbEntity
  8
0-0
  6
JWW_DASHED1
 62
   120
370
     5
100
AcDbLine
 10
-593.2830051706574
 20
-428.6013372281397
 30
0.0
 11
-593.2830051706574
 21
746.3986627718605
 31
0.0
  0
LINE
  5
191
330
1F
100
AcDbEntity
  8
0-0
  6
JWW_DASHED1
 62
   120
370
     5
100
AcDbLine
 10
-606.2830051717569
 20
-428.6013372281397
 30
0.0
 11
-606.2830051717569
 21
746.3986627718605
 31
0.0
  0
LINE
  5
192
330
1F
100
AcDbEntity
  8
0-0
  6
JWW_DASHED1
 62
   120
370
     5
100
AcDbLine
 10
-607.2830051716576
 20
-428.6013372281397
 30
0.0
 11
-607.2830051716576
 21
746.3986627718605
 31
0.0
  0
LINE
  5
193
330
1F
100
AcDbEntity
  8
0-0
  6
JWW_DASHED1
 62
   120
370
     5
100
AcDbLine
 10
-620.2830051727568
 20
-428.6013372281397
 30
0.0
 11
-620.2830051727568
 21
746.3986627718605
 31
0.0
  0
LINE
  5
194
330
1F
100
AcDbEntity
  8
0-0
  6
JWW_DASHED1
 62
   120
370
     5
100
AcDbLine
 10
-621.283005172657
 20
-428.6013372281397
 30
0.0
 11
-621.283005172657
 21
746.3986627718605
 31
0.0
  0
LINE
  5
195
330
1F
100
AcDbEntity
  8
0-0
  6
JWW_DASHED1
 62
   120
370
     5
100
AcDbLine
 10
-634.283005173757
 20
-428.6013372281397
 30
0.0
 11
-634.283005173757
 21
746.3986627718605
 31
0.0
  0
LINE
  5
196
330
1F
100
AcDbEntity
  8
0-0
  6
JWW_DASHED1
 62
   120
370
     5
100
AcDbLine
 10
-635.2830051736572
 20
-428.6013372281397
 30
0.0
 11
-635.2830051736572
 21
746.3986627718605
 31
0.0
  0
LINE
  5
197
330
1F
100
AcDbEntity
  8
0-0
  6
JWW_DASHED1
 62
   120
370
     5
100
AcDbLine
 10
-648.2830051747572
 20
-428.6013372281397
 30
0.0
 11
-648.2830051747572
 21
746.3986627718605
 31
0.0
  0
LINE
  5
198
330
1F
100
AcDbEntity
  8
0-0
  6
JWW_DASHED1
 62
   120
370
     5
100
AcDbLine
 10
-88.28300513475703
 20
-428.6013372281397
 30
0.0
 11
-88.28300513475703
 21
746.3986627718605
 31
0.0
  0
LINE
  5
199
330
1F
100
AcDbEntity
  8
0-0
  6
JWW_DASHED1
 62
   120
370
     5
100
AcDbLine
 10
-103.283005135657
 20
-428.6013372281397
 30
0.0
 11
-103.283005135657
 21
746.3986627718605
 31
0.0
  0
LINE
  5
19A
330
1F
100
AcDbEntity
  8
0-0
  6
JWW_DASHED1
 62
   120
370
     5
100
AcDbLine
 10
-89.28300513465722
 20
-428.6013372281397
 30
0.0
 11
-89.28300513465722
 21
746.3986627718605
 31
0.0
  0
LINE
  5
19B
330
1F
100
AcDbEntity
  8
0-0
  6
JWW_DASHED1
 62
   120
370
     5
100
AcDbLine
 10
-102.2830051357573
 20
-428.6013372281397
 30
0.0
 11
-102.2830051357573
 21
746.3986627718605
 31
0.0
  0
LINE
  5
19C
330
1F
100
AcDbEntity
  8
0-0
  6
JWW_DASHED1
 62
   120
370
     5
100
AcDbLine
 10
-655.2830236326884
 20
734.3985145408993
 30
0.0
 11
-82.28302363268931
 21
734.3985145408993
 31
0.0
  0
LINE
  5
19D
330
1F
100
AcDbEntity
  8
0-0
  6
JWW_DASHED1
 62
   120
370
     5
100
AcDbLine
 10
-655.2830236326884
 20
691.3985145379997
 30
0.0
 11
-82.28302363268931
 21
691.3985145379997
 31
0.0
  0
LINE
  5
19E
330
1F
100
AcDbEntity
  8
0-0
  6
JWW_DASHED1
 62
   120
370
     5
100
AcDbLine
 10
-655.2830236326884
 20
692.3985145378999
 30
0.0
 11
-82.28302363268931
 21
692.3985145378999
 31
0.0
  0
LINE
  5
19F
330
1F
100
AcDbEntity
  8
0-0
  6
JWW_DASHED1
 62
   120
370
     5
100
AcDbLine
 10
-655.2830236326884
 20
705.3985145389995
 30
0.0
 11
-82.28302363268931
 21
705.3985145389995
 31
0.0
  0
LINE
  5
1A0
330
1F
100
AcDbEntity
  8
0-0
  6
JWW_DASHED1
 62
   120
370
     5
100
AcDbLine
 10
-655.2830236326884
 20
706.3985145388997
 30
0.0
 11
-82.28302363268931
 21
706.3985145388997
 31
0.0
  0
LINE
  5
1A1
330
1F
100
AcDbEntity
  8
0-0
  6
JWW_DASHED1
 62
   120
370
     5
100
AcDbLine
 10
-655.2830236326884
 20
719.3985145399994
 30
0.0
 11
-82.28302363268931
 21
719.3985145399994
 31
0.0
  0
LINE
  5
1A2
330
1F
100
AcDbEntity
  8
0-0
  6
JWW_DASHED1
 62
   120
370
     5
100
AcDbLine
 10
-655.2830236326884
 20
720.3985145398996
 30
0.0
 11
-82.28302363268931
 21
720.3985145398996
 31
0.0
  0
LINE
  5
1A3
330
1F
100
AcDbEntity
  8
0-0
  6
JWW_DASHED1
 62
   120
370
     5
100
AcDbLine
 10
-655.2830236326884
 20
733.3985145409991
 30
0.0
 11
-82.28302363268931
 21
733.3985145409991
 31
0.0
  0
LINE
  5
1A4
330
1F
100
AcDbEntity
  8
0-0
  6
JWW_DASHED1
 62
   120
370
     5
100
AcDbLine
 10
154.7169763673109
 20
-427.6014855420833
 30
0.0
 11
727.7169763673115
 21
-427.6014855420833
 31
0.0
  0
LINE
  5
1A5
330
1F
100
AcDbEntity
  8
0-0
  6
JWW_DASHED1
 62
   120
370
     5
100
AcDbLine
 10
154.7169763673109
 20
-414.6014855409837
 30
0.0
 11
727.7169763673115
 21
-414.6014855409837
 31
0.0
  0
LINE
  5
1A6
330
1F
100
AcDbEntity
  8
0-0
  6
JWW_DASHED1
 62
   120
370
     5
100
AcDbLine
 10
154.7169763673109
 20
-413.6014855410835
 30
0.0
 11
727.7169763673115
 21
-413.6014855410835
 31
0.0
  0
LINE
  5
1A7
330
1F
100
AcDbEntity
  8
0-0
  6
JWW_DASHED1
 62
   120
370
     5
100
AcDbLine
 10
154.7169763673109
 20
-400.6014855399839
 30
0.0
 11
727.7169763673115
 21
-400.6014855399839
 31
0.0
  0
LINE
  5
1A8
330
1F
100
AcDbEntity
  8
0-0
  6
JWW_DASHED1
 62
   120
370
     5
100
AcDbLine
 10
154.7169763673109
 20
-399.6014855400837
 30
0.0
 11
727.7169763673115
 21
-399.6014855400837
 31
0.0
  0
LINE
  5
1A9
330
1F
100
AcDbEntity
  8
0-0
  6
JWW_DASHED1
 62
   120
370
     5
100
AcDbLine
 10
154.7169763673109
 20
-386.6014855389841
 30
0.0
 11
727.7169763673115
 21
-386.6014855389841
 31
0.0
  0
LINE
  5
1AA
330
1F
100
AcDbEntity
  8
0-0
  6
JWW_DASHED1
 62
   120
370
     5
100
AcDbLine
 10
154.7169763673109
 20
-385.6014855390839
 30
0.0
 11
727.7169763673115
 21
-385.6014855390839
 31
0.0
  0
LINE
  5
1AB
330
1F
100
AcDbEntity
  8
0-0
  6
JWW_DASHED1
 62
   120
370
     5
100
AcDbLine
 10
154.7169763673109
 20
-372.6014855379843
 30
0.0
 11
727.7169763673115
 21
-372.6014855379843
 31
0.0
  0
LINE
  5
1AC
330
1F
100
AcDbEntity
  8
0-0
  6
JWW_DASHED1
 62
   120
370
     5
100
AcDbLine
 10
154.7169763673109
 20
-371.6014855380841
 30
0.0
 11
727.7169763673115
 21
-371.6014855380841
 31
0.0
  0
LINE
  5
1AD
330
1F
100
AcDbEntity
  8
0-0
  6
JWW_DASHED1
 62
   120
370
     5
100
AcDbLine
 10
154.7169763673109
 20
-358.6014855369845
 30
0.0
 11
727.7169763673115
 21
-358.6014855369845
 31
0.0
  0
LINE
  5
1AE
330
1F
100
AcDbEntity
  8
0-0
  6
JWW_DASHED1
 62
   120
370
     5
100
AcDbLine
 10
154.7169763673109
 20
-357.6014855370843
 30
0.0
 11
727.7169763673115
 21
-357.6014855370843
 31
0.0
  0
LINE
  5
1AF
330
1F
100
AcDbEntity
  8
0-0
  6
JWW_DASHED1
 62
   120
370
     5
100
AcDbLine
 10
154.7169763673109
 20
-344.6014855359847
 30
0.0
 11
727.7169763673115
 21
-344.6014855359847
 31
0.0
  0
LINE
  5
1B0
330
1F
100
AcDbEntity
  8
0-0
  6
JWW_DASHED1
 62
   120
370
     5
100
AcDbLine
 10
154.7169763673109
 20
-343.6014855360845
 30
0.0
 11
727.7169763673115
 21
-343.6014855360845
 31
0.0
  0
LINE
  5
1B1
330
1F
100
AcDbEntity
  8
0-0
  6
JWW_DASHED1
 62
   120
370
     5
100
AcDbLine
 10
154.7169763673109
 20
-330.6014855349849
 30
0.0
 11
727.7169763673115
 21
-330.6014855349849
 31
0.0
  0
LINE
  5
1B2
330
1F
100
AcDbEntity
  8
0-0
  6
JWW_DASHED1
 62
   120
370
     5
100
AcDbLine
 10
154.7169763673109
 20
-329.6014855350847
 30
0.0
 11
727.7169763673115
 21
-329.6014855350847
 31
0.0
  0
LINE
  5
1B3
330
1F
100
AcDbEntity
  8
0-0
  6
JWW_DASHED1
 62
   120
370
     5
100
AcDbLine
 10
154.7169763673109
 20
-316.6014855339852
 30
0.0
 11
727.7169763673115
 21
-316.6014855339852
 31
0.0
  0
LINE
  5
1B4
330
1F
100
AcDbEntity
  8
0-0
  6
JWW_DASHED1
 62
   120
370
     5
100
AcDbLine
 10
154.7169763673109
 20
-315.601485534085
 30
0.0
 11
727.7169763673115
 21
-315.601485534085
 31
0.0
  0
LINE
  5
1B5
330
1F
100
AcDbEntity
  8
0-0
  6
JWW_DASHED1
 62
   120
370
     5
100
AcDbLine
 10
154.7169763673109
 20
-302.6014855329854
 30
0.0
 11
727.7169763673115
 21
-302.6014855329854
 31
0.0
  0
LINE
  5
1B6
330
1F
100
AcDbEntity
  8
0-0
  6
JWW_DASHED1
 62
   120
370
     5
100
AcDbLine
 10
154.7169763673109
 20
-301.6014855330852
 30
0.0
 11
727.7169763673115
 21
-301.6014855330852
 31
0.0
  0
LINE
  5
1B7
330
1F
100
AcDbEntity
  8
0-0
  6
JWW_DASHED1
 62
   120
370
     5
100
AcDbLine
 10
154.7169763673109
 20
-288.6014855319855
 30
0.0
 11
727.7169763673115
 21
-288.6014855319855
 31
0.0
  0
LINE
  5
1B8
330
1F
100
AcDbEntity
  8
0-0
  6
JWW_DASHED1
 62
   120
370
     5
100
AcDbLine
 10
154.7169763673109
 20
-287.6014855320853
 30
0.0
 11
727.7169763673115
 21
-287.6014855320853
 31
0.0
  0
LINE
  5
1B9
330
1F
100
AcDbEntity
  8
0-0
  6
JWW_DASHED1
 62
   120
370
     5
100
AcDbLine
 10
154.7169763673109
 20
-274.6014855309858
 30
0.0
 11
727.7169763673115
 21
-274.6014855309858
 31
0.0
  0
LINE
  5
1BA
330
1F
100
AcDbEntity
  8
0-0
  6
JWW_DASHED1
 62
   120
370
     5
100
AcDbLine
 10
154.7169763673109
 20
-273.6014855310856
 30
0.0
 11
727.7169763673115
 21
-273.6014855310856
 31
0.0
  0
LINE
  5
1BB
330
1F
100
AcDbEntity
  8
0-0
  6
JWW_DASHED1
 62
   120
370
     5
100
AcDbLine
 10
154.7169763673109
 20
-260.601485529986
 30
0.0
 11
727.7169763673115
 21
-260.601485529986
 31
0.0
  0
LINE
  5
1BC
330
1F
100
AcDbEntity
  8
0-0
  6
JWW_DASHED1
 62
   120
370
     5
100
AcDbLine
 10
154.7169763673109
 20
-259.6014855300858
 30
0.0
 11
727.7169763673115
 21
-259.6014855300858
 31
0.0
  0
LINE
  5
1BD
330
1F
100
AcDbEntity
  8
0-0
  6
JWW_DASHED1
 62
   120
370
     5
100
AcDbLine
 10
154.7169763673109
 20
-246.6014855289862
 30
0.0
 11
727.7169763673115
 21
-246.6014855289862
 31
0.0
  0
LINE
  5
1BE
330
1F
100
AcDbEntity
  8
0-0
  6
JWW_DASHED1
 62
   120
370
     5
100
AcDbLine
 10
154.7169763673109
 20
-245.601485529086
 30
0.0
 11
727.7169763673115
 21
-245.601485529086
 31
0.0
  0
LINE
  5
1BF
330
1F
100
AcDbEntity
  8
0-0
  6
JWW_DASHED1
 62
   120
370
     5
100
AcDbLine
 10
154.7169763673109
 20
-232.6014855279864
 30
0.0
 11
727.7169763673115
 21
-232.6014855279864
 31
0.0
  0
LINE
  5
1C0
330
1F
100
AcDbEntity
  8
0-0
  6
JWW_DASHED1
 62
   120
370
     5
100
AcDbLine
 10
154.7169763673109
 20
-231.6014855280862
 30
0.0
 11
727.7169763673115
 21
-231.6014855280862
 31
0.0
  0
LINE
  5
1C1
330
1F
100
AcDbEntity
  8
0-0
  6
JWW_DASHED1
 62
   120
370
     5
100
AcDbLine
 10
154.7169763673109
 20
-218.6014855269866
 30
0.0
 11
727.7169763673115
 21
-218.6014855269866
 31
0.0
  0
LINE
  5
1C2
330
1F
100
AcDbEntity
  8
0-0
  6
JWW_DASHED1
 62
   120
370
     5
100
AcDbLine
 10
154.7169763673109
 20
-217.6014855270864
 30
0.0
 11
727.7169763673115
 21
-217.6014855270864
 31
0.0
  0
LINE
  5
1C3
330
1F
100
AcDbEntity
  8
0-0
  6
JWW_DASHED1
 62
   120
370
     5
100
AcDbLine
 10
154.7169763673109
 20
-204.6014855259868
 30
0.0
 11
727.7169763673115
 21
-204.6014855259868
 31
0.0
  0
LINE
  5
1C4
330
1F
100
AcDbEntity
  8
0-0
  6
JWW_DASHED1
 62
   120
370
     5
100
AcDbLine
 10
154.7169763673109
 20
-203.6014855260866
 30
0.0
 11
727.7169763673115
 21
-203.6014855260866
 31
0.0
  0
LINE
  5
1C5
330
1F
100
AcDbEntity
  8
0-0
  6
JWW_DASHED1
 62
   120
370
     5
100
AcDbLine
 10
154.7169763673109
 20
-190.601485524987
 30
0.0
 11
727.7169763673115
 21
-190.601485524987
 31
0.0
  0
LINE
  5
1C6
330
1F
100
AcDbEntity
  8
0-0
  6
JWW_DASHED1
 62
   120
370
     5
100
AcDbLine
 10
154.7169763673109
 20
-189.6014855250868
 30
0.0
 11
727.7169763673115
 21
-189.6014855250868
 31
0.0
  0
LINE
  5
1C7
330
1F
100
AcDbEntity
  8
0-0
  6
JWW_DASHED1
 62
   120
370
     5
100
AcDbLine
 10
154.7169763673109
 20
-176.6014855239872
 30
0.0
 11
727.7169763673115
 21
-176.6014855239872
 31
0.0
  0
LINE
  5
1C8
330
1F
100
AcDbEntity
  8
0-0
  6
JWW_DASHED1
 62
   120
370
     5
100
AcDbLine
 10
154.7169763673109
 20
-175.6014855240871
 30
0.0
 11
727.7169763673115
 21
-175.6014855240871
 31
0.0
  0
LINE
  5
1C9
330
1F
100
AcDbEntity
  8
0-0
  6
JWW_DASHED1
 62
   120
370
     5
100
AcDbLine
 10
154.7169763673109
 20
-162.6014855229874
 30
0.0
 11
727.7169763673115
 21
-162.6014855229874
 31
0.0
  0
LINE
  5
1CA
330
1F
100
AcDbEntity
  8
0-0
  6
JWW_DASHED1
 62
   120
370
     5
100
AcDbLine
 10
154.7169763673109
 20
-161.6014855230873
 30
0.0
 11
727.7169763673115
 21
-161.6014855230873
 31
0.0
  0
LINE
  5
1CB
330
1F
100
AcDbEntity
  8
0-0
  6
JWW_DASHED1
 62
   120
370
     5
100
AcDbLine
 10
154.7169763673109
 20
-148.6014855219877
 30
0.0
 11
727.7169763673115
 21
-148.6014855219877
 31
0.0
  0
LINE
  5
1CC
330
1F
100
AcDbEntity
  8
0-0
  6
JWW_DASHED1
 62
   120
370
     5
100
AcDbLine
 10
154.7169763673109
 20
-147.6014855220875
 30
0.0
 11
727.7169763673115
 21
-147.6014855220875
 31
0.0
  0
LINE
  5
1CD
330
1F
100
AcDbEntity
  8
0-0
  6
JWW_DASHED1
 62
   120
370
     5
100
AcDbLine
 10
154.7169763673109
 20
-134.6014855209879
 30
0.0
 11
727.7169763673115
 21
-134.6014855209879
 31
0.0
  0
LINE
  5
1CE
330
1F
100
AcDbEntity
  8
0-0
  6
JWW_DASHED1
 62
   120
370
     5
100
AcDbLine
 10
154.7169763673109
 20
-133.6014855210877
 30
0.0
 11
727.7169763673115
 21
-133.6014855210877
 31
0.0
  0
LINE
  5
1CF
330
1F
100
AcDbEntity
  8
0-0
  6
JWW_DASHED1
 62
   120
370
     5
100
AcDbLine
 10
154.7169763673109
 20
-120.6014855199881
 30
0.0
 11
727.7169763673115
 21
-120.6014855199881
 31
0.0
  0
LINE
  5
1D0
330
1F
100
AcDbEntity
  8
0-0
  6
JWW_DASHED1
 62
   120
370
     5
100
AcDbLine
 10
154.7169763673109
 20
-119.6014855200879
 30
0.0
 11
727.7169763673115
 21
-119.6014855200879
 31
0.0
  0
LINE
  5
1D1
330
1F
100
AcDbEntity
  8
0-0
  6
JWW_DASHED1
 62
   120
370
     5
100
AcDbLine
 10
154.7169763673109
 20
-106.6014855189883
 30
0.0
 11
727.7169763673115
 21
-106.6014855189883
 31
0.0
  0
LINE
  5
1D2
330
1F
100
AcDbEntity
  8
0-0
  6
JWW_DASHED1
 62
   120
370
     5
100
AcDbLine
 10
154.7169763673109
 20
-105.6014855190881
 30
0.0
 11
727.7169763673115
 21
-105.6014855190881
 31
0.0
  0
LINE
  5
1D3
330
1F
100
AcDbEntity
  8
0-0
  6
JWW_DASHED1
 62
   120
370
     5
100
AcDbLine
 10
154.7169763673109
 20
-92.6014855179885
 30
0.0
 11
727.7169763673115
 21
-92.6014855179885
 31
0.0
  0
LINE
  5
1D4
330
1F
100
AcDbEntity
  8
0-0
  6
JWW_DASHED1
 62
   120
370
     5
100
AcDbLine
 10
154.7169763673109
 20
-91.60148551808831
 30
0.0
 11
727.7169763673115
 21
-91.60148551808831
 31
0.0
  0
LINE
  5
1D5
330
1F
100
AcDbEntity
  8
0-0
  6
JWW_DASHED1
 62
   120
370
     5
100
AcDbLine
 10
154.7169763673109
 20
-78.6014855169887
 30
0.0
 11
727.7169763673115
 21
-78.6014855169887
 31
0.0
  0
LINE
  5
1D6
330
1F
100
AcDbEntity
  8
0-0
  6
JWW_DASHED1
 62
   120
370
     5
100
AcDbLine
 10
154.7169763673109
 20
-77.60148551708852
 30
0.0
 11
727.7169763673115
 21
-77.60148551708852
 31
0.0
  0
LINE
  5
1D7
330
1F
100
AcDbEntity
  8
0-0
  6
JWW_DASHED1
 62
   120
370
     5
100
AcDbLine
 10
154.7169763673109
 20
-64.60148551598891
 30
0.0
 11
727.7169763673115
 21
-64.60148551598891
 31
0.0
  0
LINE
  5
1D8
330
1F
100
AcDbEntity
  8
0-0
  6
JWW_DASHED1
 62
   120
370
     5
100
AcDbLine
 10
154.7169763673109
 20
-63.60148551608873
 30
0.0
 11
727.7169763673115
 21
-63.60148551608873
 31
0.0
  0
LINE
  5
1D9
330
1F
100
AcDbEntity
  8
0-0
  6
JWW_DASHED1
 62
   120
370
     5
100
AcDbLine
 10
154.7169763673109
 20
-50.60148551498912
 30
0.0
 11
727.7169763673115
 21
-50.60148551498912
 31
0.0
  0
LINE
  5
1DA
330
1F
100
AcDbEntity
  8
0-0
  6
JWW_DASHED1
 62
   120
370
     5
100
AcDbLine
 10
154.7169763673109
 20
-49.60148551508894
 30
0.0
 11
727.7169763673115
 21
-49.60148551508894
 31
0.0
  0
LINE
  5
1DB
330
1F
100
AcDbEntity
  8
0-0
  6
JWW_DASHED1
 62
   120
370
     5
100
AcDbLine
 10
154.7169763673109
 20
-36.60148551398933
 30
0.0
 11
727.7169763673115
 21
-36.60148551398933
 31
0.0
  0
LINE
  5
1DC
330
1F
100
AcDbEntity
  8
0-0
  6
JWW_DASHED1
 62
   120
370
     5
100
AcDbLine
 10
154.7169763673109
 20
-35.60148551408915
 30
0.0
 11
727.7169763673115
 21
-35.60148551408915
 31
0.0
  0
LINE
  5
1DD
330
1F
100
AcDbEntity
  8
0-0
  6
JWW_DASHED1
 62
   120
370
     5
100
AcDbLine
 10
154.7169763673109
 20
-22.60148551298954
 30
0.0
 11
727.7169763673115
 21
-22.60148551298954
 31
0.0
  0
LINE
  5
1DE
330
1F
100
AcDbEntity
  8
0-0
  6
JWW_DASHED1
 62
   120
370
     5
100
AcDbLine
 10
154.7169763673109
 20
-21.60148551308936
 30
0.0
 11
727.7169763673115
 21
-21.60148551308936
 31
0.0
  0
LINE
  5
1DF
330
1F
100
AcDbEntity
  8
0-0
  6
JWW_DASHED1
 62
   120
370
     5
100
AcDbLine
 10
154.7169763673109
 20
-8.60148551198975
 30
0.0
 11
727.7169763673115
 21
-8.60148551198975
 31
0.0
  0
LINE
  5
1E0
330
1F
100
AcDbEntity
  8
0-0
  6
JWW_DASHED1
 62
   120
370
     5
100
AcDbLine
 10
154.7169763673109
 20
-7.601485512089567
 30
0.0
 11
727.7169763673115
 21
-7.601485512089567
 31
0.0
  0
LINE
  5
1E1
330
1F
100
AcDbEntity
  8
0-0
  6
JWW_DASHED1
 62
   120
370
     5
100
AcDbLine
 10
154.7169763673109
 20
5.39851448901004
 30
0.0
 11
727.7169763673115
 21
5.39851448901004
 31
0.0
  0
LINE
  5
1E2
330
1F
100
AcDbEntity
  8
0-0
  6
JWW_DASHED1
 62
   120
370
     5
100
AcDbLine
 10
154.7169763673109
 20
6.398514488910223
 30
0.0
 11
727.7169763673115
 21
6.398514488910223
 31
0.0
  0
LINE
  5
1E3
330
1F
100
AcDbEntity
  8
0-0
  6
JWW_DASHED1
 62
   120
370
     5
100
AcDbLine
 10
154.7169763673109
 20
19.39851449000983
 30
0.0
 11
727.7169763673115
 21
19.39851449000983
 31
0.0
  0
LINE
  5
1E4
330
1F
100
AcDbEntity
  8
0-0
  6
JWW_DASHED1
 62
   120
370
     5
100
AcDbLine
 10
154.7169763673109
 20
20.39851448991001
 30
0.0
 11
727.7169763673115
 21
20.39851448991001
 31
0.0
  0
LINE
  5
1E5
330
1F
100
AcDbEntity
  8
0-0
  6
JWW_DASHED1
 62
   120
370
     5
100
AcDbLine
 10
154.7169763673109
 20
33.39851449100962
 30
0.0
 11
727.7169763673115
 21
33.39851449100962
 31
0.0
  0
LINE
  5
1E6
330
1F
100
AcDbEntity
  8
0-0
  6
JWW_DASHED1
 62
   120
370
     5
100
AcDbLine
 10
154.7169763673109
 20
34.3985144909098
 30
0.0
 11
727.7169763673115
 21
34.3985144909098
 31
0.0
  0
LINE
  5
1E7
330
1F
100
AcDbEntity
  8
0-0
  6
JWW_DASHED1
 62
   120
370
     5
100
AcDbLine
 10
154.7169763673109
 20
47.39851449200941
 30
0.0
 11
727.7169763673115
 21
47.39851449200941
 31
0.0
  0
LINE
  5
1E8
330
1F
100
AcDbEntity
  8
0-0
  6
JWW_DASHED1
 62
   120
370
     5
100
AcDbLine
 10
154.7169763673109
 20
48.39851449190959
 30
0.0
 11
727.7169763673115
 21
48.39851449190959
 31
0.0
  0
LINE
  5
1E9
330
1F
100
AcDbEntity
  8
0-0
  6
JWW_DASHED1
 62
   120
370
     5
100
AcDbLine
 10
154.7169763673109
 20
61.3985144930092
 30
0.0
 11
727.7169763673115
 21
61.3985144930092
 31
0.0
  0
LINE
  5
1EA
330
1F
100
AcDbEntity
  8
0-0
  6
JWW_DASHED1
 62
   120
370
     5
100
AcDbLine
 10
154.7169763673109
 20
62.39851449290938
 30
0.0
 11
727.7169763673115
 21
62.39851449290938
 31
0.0
  0
LINE
  5
1EB
330
1F
100
AcDbEntity
  8
0-0
  6
JWW_DASHED1
 62
   120
370
     5
100
AcDbLine
 10
154.7169763673109
 20
75.39851449400899
 30
0.0
 11
727.7169763673115
 21
75.39851449400899
 31
0.0
  0
LINE
  5
1EC
330
1F
100
AcDbEntity
  8
0-0
  6
JWW_DASHED1
 62
   120
370
     5
100
AcDbLine
 10
154.7169763673109
 20
76.39851449390918
 30
0.0
 11
727.7169763673115
 21
76.39851449390918
 31
0.0
  0
LINE
  5
1ED
330
1F
100
AcDbEntity
  8
0-0
  6
JWW_DASHED1
 62
   120
370
     5
100
AcDbLine
 10
154.7169763673109
 20
89.39851449500878
 30
0.0
 11
727.7169763673115
 21
89.39851449500878
 31
0.0
  0
LINE
  5
1EE
330
1F
100
AcDbEntity
  8
0-0
  6
JWW_DASHED1
 62
   120
370
     5
100
AcDbLine
 10
154.7169763673109
 20
90.39851449490897
 30
0.0
 11
727.7169763673115
 21
90.39851449490897
 31
0.0
  0
LINE
  5
1EF
330
1F
100
AcDbEntity
  8
0-0
  6
JWW_DASHED1
 62
   120
370
     5
100
AcDbLine
 10
154.7169763673109
 20
103.3985144960086
 30
0.0
 11
727.7169763673115
 21
103.3985144960086
 31
0.0
  0
LINE
  5
1F0
330
1F
100
AcDbEntity
  8
0-0
  6
JWW_DASHED1
 62
   120
370
     5
100
AcDbLine
 10
154.7169763673109
 20
104.3985144959088
 30
0.0
 11
727.7169763673115
 21
104.3985144959088
 31
0.0
  0
LINE
  5
1F1
330
1F
100
AcDbEntity
  8
0-0
  6
JWW_DASHED1
 62
   120
370
     5
100
AcDbLine
 10
154.7169763673109
 20
117.3985144970084
 30
0.0
 11
727.7169763673115
 21
117.3985144970084
 31
0.0
  0
LINE
  5
1F2
330
1F
100
AcDbEntity
  8
0-0
  6
JWW_DASHED1
 62
   120
370
     5
100
AcDbLine
 10
154.7169763673109
 20
118.3985144969085
 30
0.0
 11
727.7169763673115
 21
118.3985144969085
 31
0.0
  0
LINE
  5
1F3
330
1F
100
AcDbEntity
  8
0-0
  6
JWW_DASHED1
 62
   120
370
     5
100
AcDbLine
 10
154.7169763673109
 20
131.3985144980082
 30
0.0
 11
727.7169763673115
 21
131.3985144980082
 31
0.0
  0
LINE
  5
1F4
330
1F
100
AcDbEntity
  8
0-0
  6
JWW_DASHED1
 62
   120
370
     5
100
AcDbLine
 10
154.7169763673109
 20
132.3985144979083
 30
0.0
 11
727.7169763673115
 21
132.3985144979083
 31
0.0
  0
LINE
  5
1F5
330
1F
100
AcDbEntity
  8
0-0
  6
JWW_DASHED1
 62
   120
370
     5
100
AcDbLine
 10
154.7169763673109
 20
145.3985144990079
 30
0.0
 11
727.7169763673115
 21
145.3985144990079
 31
0.0
  0
LINE
  5
1F6
330
1F
100
AcDbEntity
  8
0-0
  6
JWW_DASHED1
 62
   120
370
     5
100
AcDbLine
 10
154.7169763673109
 20
146.3985144989081
 30
0.0
 11
727.7169763673115
 21
146.3985144989081
 31
0.0
  0
LINE
  5
1F7
330
1F
100
AcDbEntity
  8
0-0
  6
JWW_DASHED1
 62
   120
370
     5
100
AcDbLine
 10
154.7169763673109
 20
159.3985145000077
 30
0.0
 11
727.7169763673115
 21
159.3985145000077
 31
0.0
  0
LINE
  5
1F8
330
1F
100
AcDbEntity
  8
0-0
  6
JWW_DASHED1
 62
   120
370
     5
100
AcDbLine
 10
154.7169763673109
 20
160.3985144999079
 30
0.0
 11
727.7169763673115
 21
160.3985144999079
 31
0.0
  0
LINE
  5
1F9
330
1F
100
AcDbEntity
  8
0-0
  6
JWW_DASHED1
 62
   120
370
     5
100
AcDbLine
 10
154.7169763673109
 20
173.3985145010075
 30
0.0
 11
727.7169763673115
 21
173.3985145010075
 31
0.0
  0
LINE
  5
1FA
330
1F
100
AcDbEntity
  8
0-0
  6
JWW_DASHED1
 62
   120
370
     5
100
AcDbLine
 10
154.7169763673109
 20
174.3985145009077
 30
0.0
 11
727.7169763673115
 21
174.3985145009077
 31
0.0
  0
LINE
  5
1FB
330
1F
100
AcDbEntity
  8
0-0
  6
JWW_DASHED1
 62
   120
370
     5
100
AcDbLine
 10
154.7169763673109
 20
187.3985145020073
 30
0.0
 11
727.7169763673115
 21
187.3985145020073
 31
0.0
  0
LINE
  5
1FC
330
1F
100
AcDbEntity
  8
0-0
  6
JWW_DASHED1
 62
   120
370
     5
100
AcDbLine
 10
154.7169763673109
 20
188.3985145019075
 30
0.0
 11
727.7169763673115
 21
188.3985145019075
 31
0.0
  0
LINE
  5
1FD
330
1F
100
AcDbEntity
  8
0-0
  6
JWW_DASHED1
 62
   120
370
     5
100
AcDbLine
 10
154.7169763673109
 20
201.3985145030071
 30
0.0
 11
727.7169763673115
 21
201.3985145030071
 31
0.0
  0
LINE
  5
1FE
330
1F
100
AcDbEntity
  8
0-0
  6
JWW_DASHED1
 62
   120
370
     5
100
AcDbLine
 10
154.7169763673109
 20
202.3985145029073
 30
0.0
 11
727.7169763673115
 21
202.3985145029073
 31
0.0
  0
LINE
  5
1FF
330
1F
100
AcDbEntity
  8
0-0
  6
JWW_DASHED1
 62
   120
370
     5
100
AcDbLine
 10
154.7169763673109
 20
215.3985145040069
 30
0.0
 11
727.7169763673115
 21
215.3985145040069
 31
0.0
  0
LINE
  5
200
330
1F
100
AcDbEntity
  8
0-0
  6
JWW_DASHED1
 62
   120
370
     5
100
AcDbLine
 10
154.7169763673109
 20
216.3985145039071
 30
0.0
 11
727.7169763673115
 21
216.3985145039071
 31
0.0
  0
LINE
  5
201
330
1F
100
AcDbEntity
  8
0-0
  6
JWW_DASHED1
 62
   120
370
     5
100
AcDbLine
 10
154.7169763673109
 20
229.3985145050067
 30
0.0
 11
727.7169763673115
 21
229.3985145050067
 31
0.0
  0
LINE
  5
202
330
1F
100
AcDbEntity
  8
0-0
  6
JWW_DASHED1
 62
   120
370
     5
100
AcDbLine
 10
154.7169763673109
 20
230.3985145049069
 30
0.0
 11
727.7169763673115
 21
230.3985145049069
 31
0.0
  0
LINE
  5
203
330
1F
100
AcDbEntity
  8
0-0
  6
JWW_DASHED1
 62
   120
370
     5
100
AcDbLine
 10
154.7169763673109
 20
243.3985145060065
 30
0.0
 11
727.7169763673115
 21
243.3985145060065
 31
0.0
  0
LINE
  5
204
330
1F
100
AcDbEntity
  8
0-0
  6
JWW_DASHED1
 62
   120
370
     5
100
AcDbLine
 10
154.7169763673109
 20
244.3985145059067
 30
0.0
 11
727.7169763673115
 21
244.3985145059067
 31
0.0
  0
LINE
  5
205
330
1F
100
AcDbEntity
  8
0-0
  6
JWW_DASHED1
 62
   120
370
     5
100
AcDbLine
 10
154.7169763673109
 20
257.3985145070063
 30
0.0
 11
727.7169763673115
 21
257.3985145070063
 31
0.0
  0
LINE
  5
206
330
1F
100
AcDbEntity
  8
0-0
  6
JWW_DASHED1
 62
   120
370
     5
100
AcDbLine
 10
154.7169763673109
 20
258.3985145069065
 30
0.0
 11
727.7169763673115
 21
258.3985145069065
 31
0.0
  0
LINE
  5
207
330
1F
100
AcDbEntity
  8
0-0
  6
JWW_DASHED1
 62
   120
370
     5
100
AcDbLine
 10
154.7169763673109
 20
271.3985145080061
 30
0.0
 11
727.7169763673115
 21
271.3985145080061
 31
0.0
  0
LINE
  5
208
330
1F
100
AcDbEntity
  8
0-0
  6
JWW_DASHED1
 62
   120
370
     5
100
AcDbLine
 10
154.7169763673109
 20
272.3985145079063
 30
0.0
 11
727.7169763673115
 21
272.3985145079063
 31
0.0
  0
LINE
  5
209
330
1F
100
AcDbEntity
  8
0-0
  6
JWW_DASHED1
 62
   120
370
     5
100
AcDbLine
 10
154.7169763673109
 20
285.3985145090058
 30
0.0
 11
727.7169763673115
 21
285.3985145090058
 31
0.0
  0
LINE
  5
20A
330
1F
100
AcDbEntity
  8
0-0
  6
JWW_DASHED1
 62
   120
370
     5
100
AcDbLine
 10
154.7169763673109
 20
286.398514508906
 30
0.0
 11
727.7169763673115
 21
286.398514508906
 31
0.0
  0
LINE
  5
20B
330
1F
100
AcDbEntity
  8
0-0
  6
JWW_DASHED1
 62
   120
370
     5
100
AcDbLine
 10
154.7169763673109
 20
299.3985145100056
 30
0.0
 11
727.7169763673115
 21
299.3985145100056
 31
0.0
  0
LINE
  5
20C
330
1F
100
AcDbEntity
  8
0-0
  6
JWW_DASHED1
 62
   120
370
     5
100
AcDbLine
 10
154.7169763673109
 20
300.3985145099058
 30
0.0
 11
727.7169763673115
 21
300.3985145099058
 31
0.0
  0
LINE
  5
20D
330
1F
100
AcDbEntity
  8
0-0
  6
JWW_DASHED1
 62
   120
370
     5
100
AcDbLine
 10
154.7169763673109
 20
313.3985145110054
 30
0.0
 11
727.7169763673115
 21
313.3985145110054
 31
0.0
  0
LINE
  5
20E
330
1F
100
AcDbEntity
  8
0-0
  6
JWW_DASHED1
 62
   120
370
     5
100
AcDbLine
 10
154.7169763673109
 20
314.3985145109056
 30
0.0
 11
727.7169763673115
 21
314.3985145109056
 31
0.0
  0
LINE
  5
20F
330
1F
100
AcDbEntity
  8
0-0
  6
JWW_DASHED1
 62
   120
370
     5
100
AcDbLine
 10
154.7169763673109
 20
327.3985145120052
 30
0.0
 11
727.7169763673115
 21
327.3985145120052
 31
0.0
  0
LINE
  5
210
330
1F
100
AcDbEntity
  8
0-0
  6
JWW_DASHED1
 62
   120
370
     5
100
AcDbLine
 10
154.7169763673109
 20
328.3985145119054
 30
0.0
 11
727.7169763673115
 21
328.3985145119054
 31
0.0
  0
LINE
  5
211
330
1F
100
AcDbEntity
  8
0-0
  6
JWW_DASHED1
 62
   120
370
     5
100
AcDbLine
 10
154.7169763673109
 20
341.398514513005
 30
0.0
 11
727.7169763673115
 21
341.398514513005
 31
0.0
  0
LINE
  5
212
330
1F
100
AcDbEntity
  8
0-0
  6
JWW_DASHED1
 62
   120
370
     5
100
AcDbLine
 10
154.7169763673109
 20
342.3985145129052
 30
0.0
 11
727.7169763673115
 21
342.3985145129052
 31
0.0
  0
LINE
  5
213
330
1F
100
AcDbEntity
  8
0-0
  6
JWW_DASHED1
 62
   120
370
     5
100
AcDbLine
 10
154.7169763673109
 20
355.3985145140048
 30
0.0
 11
727.7169763673115
 21
355.3985145140048
 31
0.0
  0
LINE
  5
214
330
1F
100
AcDbEntity
  8
0-0
  6
JWW_DASHED1
 62
   120
370
     5
100
AcDbLine
 10
154.7169763673109
 20
356.398514513905
 30
0.0
 11
727.7169763673115
 21
356.398514513905
 31
0.0
  0
LINE
  5
215
330
1F
100
AcDbEntity
  8
0-0
  6
JWW_DASHED1
 62
   120
370
     5
100
AcDbLine
 10
154.7169763673109
 20
369.3985145150046
 30
0.0
 11
727.7169763673115
 21
369.3985145150046
 31
0.0
  0
LINE
  5
216
330
1F
100
AcDbEntity
  8
0-0
  6
JWW_DASHED1
 62
   120
370
     5
100
AcDbLine
 10
154.7169763673109
 20
370.3985145149048
 30
0.0
 11
727.7169763673115
 21
370.3985145149048
 31
0.0
  0
LINE
  5
217
330
1F
100
AcDbEntity
  8
0-0
  6
JWW_DASHED1
 62
   120
370
     5
100
AcDbLine
 10
154.7169763673109
 20
383.3985145160044
 30
0.0
 11
727.7169763673115
 21
383.3985145160044
 31
0.0
  0
LINE
  5
218
330
1F
100
AcDbEntity
  8
0-0
  6
JWW_DASHED1
 62
   120
370
     5
100
AcDbLine
 10
154.7169763673109
 20
384.3985145159046
 30
0.0
 11
727.7169763673115
 21
384.3985145159046
 31
0.0
  0
LINE
  5
219
330
1F
100
AcDbEntity
  8
0-0
  6
JWW_DASHED1
 62
   120
370
     5
100
AcDbLine
 10
154.7169763673109
 20
397.3985145170042
 30
0.0
 11
727.7169763673115
 21
397.3985145170042
 31
0.0
  0
LINE
  5
21A
330
1F
100
AcDbEntity
  8
0-0
  6
JWW_DASHED1
 62
   120
370
     5
100
AcDbLine
 10
154.7169763673109
 20
398.3985145169044
 30
0.0
 11
727.7169763673115
 21
398.3985145169044
 31
0.0
  0
LINE
  5
21B
330
1F
100
AcDbEntity
  8
0-0
  6
JWW_DASHED1
 62
   120
370
     5
100
AcDbLine
 10
154.7169763673109
 20
411.3985145180039
 30
0.0
 11
727.7169763673115
 21
411.3985145180039
 31
0.0
  0
LINE
  5
21C
330
1F
100
AcDbEntity
  8
0-0
  6
JWW_DASHED1
 62
   120
370
     5
100
AcDbLine
 10
154.7169763673109
 20
412.3985145179041
 30
0.0
 11
727.7169763673115
 21
412.3985145179041
 31
0.0
  0
LINE
  5
21D
330
1F
100
AcDbEntity
  8
0-0
  6
JWW_DASHED1
 62
   120
370
     5
100
AcDbLine
 10
154.7169763673109
 20
425.3985145190038
 30
0.0
 11
727.7169763673115
 21
425.3985145190038
 31
0.0
  0
LINE
  5
21E
330
1F
100
AcDbEntity
  8
0-0
  6
JWW_DASHED1
 62
   120
370
     5
100
AcDbLine
 10
154.7169763673109
 20
426.3985145189039
 30
0.0
 11
727.7169763673115
 21
426.3985145189039
 31
0.0
  0
LINE
  5
21F
330
1F
100
AcDbEntity
  8
0-0
  6
JWW_DASHED1
 62
   120
370
     5
100
AcDbLine
 10
154.7169763673109
 20
439.3985145200036
 30
0.0
 11
727.7169763673115
 21
439.3985145200036
 31
0.0
  0
LINE
  5
220
330
1F
100
AcDbEntity
  8
0-0
  6
JWW_DASHED1
 62
   120
370
     5
100
AcDbLine
 10
154.7169763673109
 20
440.3985145199038
 30
0.0
 11
727.7169763673115
 21
440.3985145199038
 31
0.0
  0
LINE
  5
221
330
1F
100
AcDbEntity
  8
0-0
  6
JWW_DASHED1
 62
   120
370
     5
100
AcDbLine
 10
154.7169763673109
 20
453.3985145210033
 30
0.0
 11
727.7169763673115
 21
453.3985145210033
 31
0.0
  0
LINE
  5
222
330
1F
100
AcDbEntity
  8
0-0
  6
JWW_DASHED1
 62
   120
370
     5
100
AcDbLine
 10
154.7169763673109
 20
454.3985145209035
 30
0.0
 11
727.7169763673115
 21
454.3985145209035
 31
0.0
  0
LINE
  5
223
330
1F
100
AcDbEntity
  8
0-0
  6
JWW_DASHED1
 62
   120
370
     5
100
AcDbLine
 10
154.7169763673109
 20
467.3985145220031
 30
0.0
 11
727.7169763673115
 21
467.3985145220031
 31
0.0
  0
LINE
  5
224
330
1F
100
AcDbEntity
  8
0-0
  6
JWW_DASHED1
 62
   120
370
     5
100
AcDbLine
 10
154.7169763673109
 20
468.3985145219033
 30
0.0
 11
727.7169763673115
 21
468.3985145219033
 31
0.0
  0
LINE
  5
225
330
1F
100
AcDbEntity
  8
0-0
  6
JWW_DASHED1
 62
   120
370
     5
100
AcDbLine
 10
154.7169763673109
 20
481.3985145230029
 30
0.0
 11
727.7169763673115
 21
481.3985145230029
 31
0.0
  0
LINE
  5
226
330
1F
100
AcDbEntity
  8
0-0
  6
JWW_DASHED1
 62
   120
370
     5
100
AcDbLine
 10
154.7169763673109
 20
482.3985145229031
 30
0.0
 11
727.7169763673115
 21
482.3985145229031
 31
0.0
  0
LINE
  5
227
330
1F
100
AcDbEntity
  8
0-0
  6
JWW_DASHED1
 62
   120
370
     5
100
AcDbLine
 10
154.7169763673109
 20
495.3985145240027
 30
0.0
 11
727.7169763673115
 21
495.3985145240027
 31
0.0
  0
LINE
  5
228
330
1F
100
AcDbEntity
  8
0-0
  6
JWW_DASHED1
 62
   120
370
     5
100
AcDbLine
 10
154.7169763673109
 20
496.3985145239029
 30
0.0
 11
727.7169763673115
 21
496.3985145239029
 31
0.0
  0
LINE
  5
229
330
1F
100
AcDbEntity
  8
0-0
  6
JWW_DASHED1
 62
   120
370
     5
100
AcDbLine
 10
154.7169763673109
 20
509.3985145250025
 30
0.0
 11
727.7169763673115
 21
509.3985145250025
 31
0.0
  0
LINE
  5
22A
330
1F
100
AcDbEntity
  8
0-0
  6
JWW_DASHED1
 62
   120
370
     5
100
AcDbLine
 10
154.7169763673109
 20
510.3985145249027
 30
0.0
 11
727.7169763673115
 21
510.3985145249027
 31
0.0
  0
LINE
  5
22B
330
1F
100
AcDbEntity
  8
0-0
  6
JWW_DASHED1
 62
   120
370
     5
100
AcDbLine
 10
154.7169763673109
 20
523.3985145260023
 30
0.0
 11
727.7169763673115
 21
523.3985145260023
 31
0.0
  0
LINE
  5
22C
330
1F
100
AcDbEntity
  8
0-0
  6
JWW_DASHED1
 62
   120
370
     5
100
AcDbLine
 10
154.7169763673109
 20
524.3985145259024
 30
0.0
 11
727.7169763673115
 21
524.3985145259024
 31
0.0
  0
LINE
  5
22D
330
1F
100
AcDbEntity
  8
0-0
  6
JWW_DASHED1
 62
   120
370
     5
100
AcDbLine
 10
154.7169763673109
 20
537.3985145270021
 30
0.0
 11
727.7169763673115
 21
537.3985145270021
 31
0.0
  0
LINE
  5
22E
330
1F
100
AcDbEntity
  8
0-0
  6
JWW_DASHED1
 62
   120
370
     5
100
AcDbLine
 10
154.7169763673109
 20
538.3985145269023
 30
0.0
 11
727.7169763673115
 21
538.3985145269023
 31
0.0
  0
LINE
  5
22F
330
1F
100
AcDbEntity
  8
0-0
  6
JWW_DASHED1
 62
   120
370
     5
100
AcDbLine
 10
154.7169763673109
 20
551.3985145280019
 30
0.0
 11
727.7169763673115
 21
551.3985145280019
 31
0.0
  0
LINE
  5
230
330
1F
100
AcDbEntity
  8
0-0
  6
JWW_DASHED1
 62
   120
370
     5
100
AcDbLine
 10
154.7169763673109
 20
552.3985145279021
 30
0.0
 11
727.7169763673115
 21
552.3985145279021
 31
0.0
  0
LINE
  5
231
330
1F
100
AcDbEntity
  8
0-0
  6
JWW_DASHED1
 62
   120
370
     5
100
AcDbLine
 10
154.7169763673109
 20
565.3985145290017
 30
0.0
 11
727.7169763673115
 21
565.3985145290017
 31
0.0
  0
LINE
  5
232
330
1F
100
AcDbEntity
  8
0-0
  6
JWW_DASHED1
 62
   120
370
     5
100
AcDbLine
 10
154.7169763673109
 20
566.3985145289018
 30
0.0
 11
727.7169763673115
 21
566.3985145289018
 31
0.0
  0
LINE
  5
233
330
1F
100
AcDbEntity
  8
0-0
  6
JWW_DASHED1
 62
   120
370
     5
100
AcDbLine
 10
154.7169763673109
 20
579.3985145300014
 30
0.0
 11
727.7169763673115
 21
579.3985145300014
 31
0.0
  0
LINE
  5
234
330
1F
100
AcDbEntity
  8
0-0
  6
JWW_DASHED1
 62
   120
370
     5
100
AcDbLine
 10
154.7169763673109
 20
580.3985145299016
 30
0.0
 11
727.7169763673115
 21
580.3985145299016
 31
0.0
  0
LINE
  5
235
330
1F
100
AcDbEntity
  8
0-0
  6
JWW_DASHED1
 62
   120
370
     5
100
AcDbLine
 10
154.7169763673109
 20
593.3985145310012
 30
0.0
 11
727.7169763673115
 21
593.3985145310012
 31
0.0
  0
LINE
  5
236
330
1F
100
AcDbEntity
  8
0-0
  6
JWW_DASHED1
 62
   120
370
     5
100
AcDbLine
 10
154.7169763673109
 20
594.3985145309014
 30
0.0
 11
727.7169763673115
 21
594.3985145309014
 31
0.0
  0
LINE
  5
237
330
1F
100
AcDbEntity
  8
0-0
  6
JWW_DASHED1
 62
   120
370
     5
100
AcDbLine
 10
154.7169763673109
 20
607.3985145320011
 30
0.0
 11
727.7169763673115
 21
607.3985145320011
 31
0.0
  0
LINE
  5
238
330
1F
100
AcDbEntity
  8
0-0
  6
JWW_DASHED1
 62
   120
370
     5
100
AcDbLine
 10
154.7169763673109
 20
608.3985145319012
 30
0.0
 11
727.7169763673115
 21
608.3985145319012
 31
0.0
  0
LINE
  5
239
330
1F
100
AcDbEntity
  8
0-0
  6
JWW_DASHED1
 62
   120
370
     5
100
AcDbLine
 10
154.7169763673109
 20
621.3985145330008
 30
0.0
 11
727.7169763673115
 21
621.3985145330008
 31
0.0
  0
LINE
  5
23A
330
1F
100
AcDbEntity
  8
0-0
  6
JWW_DASHED1
 62
   120
370
     5
100
AcDbLine
 10
154.7169763673109
 20
622.398514532901
 30
0.0
 11
727.7169763673115
 21
622.398514532901
 31
0.0
  0
LINE
  5
23B
330
1F
100
AcDbEntity
  8
0-0
  6
JWW_DASHED1
 62
   120
370
     5
100
AcDbLine
 10
154.7169763673109
 20
635.3985145340006
 30
0.0
 11
727.7169763673115
 21
635.3985145340006
 31
0.0
  0
LINE
  5
23C
330
1F
100
AcDbEntity
  8
0-0
  6
JWW_DASHED1
 62
   120
370
     5
100
AcDbLine
 10
154.7169763673109
 20
636.3985145339008
 30
0.0
 11
727.7169763673115
 21
636.3985145339008
 31
0.0
  0
LINE
  5
23D
330
1F
100
AcDbEntity
  8
0-0
  6
JWW_DASHED1
 62
   120
370
     5
100
AcDbLine
 10
154.7169763673109
 20
649.3985145350005
 30
0.0
 11
727.7169763673115
 21
649.3985145350005
 31
0.0
  0
LINE
  5
23E
330
1F
100
AcDbEntity
  8
0-0
  6
JWW_DASHED1
 62
   120
370
     5
100
AcDbLine
 10
154.7169763673109
 20
650.3985145349006
 30
0.0
 11
727.7169763673115
 21
650.3985145349006
 31
0.0
  0
LINE
  5
23F
330
1F
100
AcDbEntity
  8
0-0
  6
JWW_DASHED1
 62
   120
370
     5
100
AcDbLine
 10
154.7169763673109
 20
663.3985145360002
 30
0.0
 11
727.7169763673115
 21
663.3985145360002
 31
0.0
  0
LINE
  5
240
330
1F
100
AcDbEntity
  8
0-0
  6
JWW_DASHED1
 62
   120
370
     5
100
AcDbLine
 10
154.7169763673109
 20
664.3985145359004
 30
0.0
 11
727.7169763673115
 21
664.3985145359004
 31
0.0
  0
LINE
  5
241
330
1F
100
AcDbEntity
  8
0-0
  6
JWW_DASHED1
 62
   120
370
     5
100
AcDbLine
 10
154.7169763673109
 20
677.398514537
 30
0.0
 11
727.7169763673115
 21
677.398514537
 31
0.0
  0
LINE
  5
242
330
1F
100
AcDbEntity
  8
0-0
  6
JWW_DASHED1
 62
   120
370
     5
100
AcDbLine
 10
154.7169763673109
 20
678.3985145369002
 30
0.0
 11
727.7169763673115
 21
678.3985145369002
 31
0.0
  0
LINE
  5
243
330
1F
100
AcDbEntity
  8
0-0
  6
JWW_DASHED1
 62
   120
370
     5
100
AcDbLine
 10
160.7169948253427
 20
-428.6013372281397
 30
0.0
 11
160.7169948253427
 21
746.3986627718605
 31
0.0
  0
LINE
  5
244
330
1F
100
AcDbEntity
  8
0-0
  6
JWW_DASHED1
 62
   120
370
     5
100
AcDbLine
 10
693.7169948632429
 20
-428.6013372281397
 30
0.0
 11
693.7169948632429
 21
746.3986627718605
 31
0.0
  0
LINE
  5
245
330
1F
100
AcDbEntity
  8
0-0
  6
JWW_DASHED1
 62
   120
370
     5
100
AcDbLine
 10
692.7169948633427
 20
-428.6013372281397
 30
0.0
 11
692.7169948633432
 21
746.3986627718605
 31
0.0
  0
LINE
  5
246
330
1F
100
AcDbEntity
  8
0-0
  6
JWW_DASHED1
 62
   120
370
     5
100
AcDbLine
 10
679.7169948622427
 20
-428.6013372281397
 30
0.0
 11
679.7169948622432
 21
746.3986627718605
 31
0.0
  0
LINE
  5
247
330
1F
100
AcDbEntity
  8
0-0
  6
JWW_DASHED1
 62
   120
370
     5
100
AcDbLine
 10
678.716994862343
 20
-428.6013372281397
 30
0.0
 11
678.716994862343
 21
746.3986627718605
 31
0.0
  0
LINE
  5
248
330
1F
100
AcDbEntity
  8
0-0
  6
JWW_DASHED1
 62
   120
370
     5
100
AcDbLine
 10
665.7169948612425
 20
-428.6013372281397
 30
0.0
 11
665.7169948612425
 21
746.3986627718605
 31
0.0
  0
LINE
  5
249
330
1F
100
AcDbEntity
  8
0-0
  6
JWW_DASHED1
 62
   120
370
     5
100
AcDbLine
 10
664.7169948613428
 20
-428.6013372281397
 30
0.0
 11
664.7169948613428
 21
746.3986627718605
 31
0.0
  0
LINE
  5
24A
330
1F
100
AcDbEntity
  8
0-0
  6
JWW_DASHED1
 62
   120
370
     5
100
AcDbLine
 10
651.7169948602427
 20
-428.6013372281397
 30
0.0
 11
651.7169948602427
 21
746.3986627718605
 31
0.0
  0
LINE
  5
24B
330
1F
100
AcDbEntity
  8
0-0
  6
JWW_DASHED1
 62
   120
370
     5
100
AcDbLine
 10
650.7169948603425
 20
-428.6013372281397
 30
0.0
 11
650.7169948603425
 21
746.3986627718605
 31
0.0
  0
LINE
  5
24C
330
1F
100
AcDbEntity
  8
0-0
  6
JWW_DASHED1
 62
   120
370
     5
100
AcDbLine
 10
637.7169948592425
 20
-428.6013372281397
 30
0.0
 11
637.7169948592425
 21
746.3986627718605
 31
0.0
  0
LINE
  5
24D
330
1F
100
AcDbEntity
  8
0-0
  6
JWW_DASHED1
 62
   120
370
     5
100
AcDbLine
 10
636.7169948593428
 20
-428.6013372281397
 30
0.0
 11
636.7169948593431
 21
746.3986627718605
 31
0.0
  0
LINE
  5
24E
330
1F
100
AcDbEntity
  8
0-0
  6
JWW_DASHED1
 62
   120
370
     5
100
AcDbLine
 10
623.7169948582427
 20
-428.6013372281397
 30
0.0
 11
623.7169948582431
 21
746.3986627718605
 31
0.0
  0
LINE
  5
24F
330
1F
100
AcDbEntity
  8
0-0
  6
JWW_DASHED1
 62
   120
370
     5
100
AcDbLine
 10
622.7169948583429
 20
-428.6013372281397
 30
0.0
 11
622.7169948583429
 21
746.3986627718605
 31
0.0
  0
LINE
  5
250
330
1F
100
AcDbEntity
  8
0-0
  6
JWW_DASHED1
 62
   120
370
     5
100
AcDbLine
 10
609.7169948572429
 20
-428.6013372281397
 30
0.0
 11
609.7169948572429
 21
746.3986627718605
 31
0.0
  0
LINE
  5
251
330
1F
100
AcDbEntity
  8
0-0
  6
JWW_DASHED1
 62
   120
370
     5
100
AcDbLine
 10
608.7169948573427
 20
-428.6013372281397
 30
0.0
 11
608.7169948573427
 21
746.3986627718605
 31
0.0
  0
LINE
  5
252
330
1F
100
AcDbEntity
  8
0-0
  6
JWW_DASHED1
 62
   120
370
     5
100
AcDbLine
 10
595.7169948562431
 20
-428.6013372281397
 30
0.0
 11
595.7169948562431
 21
746.3986627718605
 31
0.0
  0
LINE
  5
253
330
1F
100
AcDbEntity
  8
0-0
  6
JWW_DASHED1
 62
   120
370
     5
100
AcDbLine
 10
594.7169948563429
 20
-428.6013372281397
 30
0.0
 11
594.7169948563429
 21
746.3986627718605
 31
0.0
  0
LINE
  5
254
330
1F
100
AcDbEntity
  8
0-0
  6
JWW_DASHED1
 62
   120
370
     5
100
AcDbLine
 10
581.7169948552433
 20
-428.6013372281397
 30
0.0
 11
581.7169948552433
 21
746.3986627718605
 31
0.0
  0
LINE
  5
255
330
1F
100
AcDbEntity
  8
0-0
  6
JWW_DASHED1
 62
   120
370
     5
100
AcDbLine
 10
580.7169948553432
 20
-428.6013372281397
 30
0.0
 11
580.7169948553432
 21
746.3986627718605
 31
0.0
  0
LINE
  5
256
330
1F
100
AcDbEntity
  8
0-0
  6
JWW_DASHED1
 62
   120
370
     5
100
AcDbLine
 10
567.7169948542431
 20
-428.6013372281397
 30
0.0
 11
567.7169948542431
 21
746.3986627718605
 31
0.0
  0
LINE
  5
257
330
1F
100
AcDbEntity
  8
0-0
  6
JWW_DASHED1
 62
   120
370
     5
100
AcDbLine
 10
566.7169948543429
 20
-428.6013372281397
 30
0.0
 11
566.7169948543429
 21
746.3986627718605
 31
0.0
  0
LINE
  5
258
330
1F
100
AcDbEntity
  8
0-0
  6
JWW_DASHED1
 62
   120
370
     5
100
AcDbLine
 10
553.7169948532429
 20
-428.6013372281397
 30
0.0
 11
553.7169948532429
 21
746.3986627718605
 31
0.0
  0
LINE
  5
259
330
1F
100
AcDbEntity
  8
0-0
  6
JWW_DASHED1
 62
   120
370
     5
100
AcDbLine
 10
552.7169948533427
 20
-428.6013372281397
 30
0.0
 11
552.7169948533427
 21
746.3986627718605
 31
0.0
  0
LINE
  5
25A
330
1F
100
AcDbEntity
  8
0-0
  6
JWW_DASHED1
 62
   120
370
     5
100
AcDbLine
 10
539.7169948522431
 20
-428.6013372281397
 30
0.0
 11
539.7169948522431
 21
746.3986627718605
 31
0.0
  0
LINE
  5
25B
330
1F
100
AcDbEntity
  8
0-0
  6
JWW_DASHED1
 62
   120
370
     5
100
AcDbLine
 10
538.716994852343
 20
-428.6013372281397
 30
0.0
 11
538.716994852343
 21
746.3986627718605
 31
0.0
  0
LINE
  5
25C
330
1F
100
AcDbEntity
  8
0-0
  6
JWW_DASHED1
 62
   120
370
     5
100
AcDbLine
 10
525.7169948512433
 20
-428.6013372281397
 30
0.0
 11
525.7169948512433
 21
746.3986627718605
 31
0.0
  0
LINE
  5
25D
330
1F
100
AcDbEntity
  8
0-0
  6
JWW_DASHED1
 62
   120
370
     5
100
AcDbLine
 10
524.7169948513431
 20
-428.6013372281397
 30
0.0
 11
524.7169948513431
 21
746.3986627718605
 31
0.0
  0
LINE
  5
25E
330
1F
100
AcDbEntity
  8
0-0
  6
JWW_DASHED1
 62
   120
370
     5
100
AcDbLine
 10
511.7169948502431
 20
-428.6013372281397
 30
0.0
 11
511.7169948502431
 21
746.3986627718605
 31
0.0
  0
LINE
  5
25F
330
1F
100
AcDbEntity
  8
0-0
  6
JWW_DASHED1
 62
   120
370
     5
100
AcDbLine
 10
510.7169948503429
 20
-428.6013372281397
 30
0.0
 11
510.7169948503429
 21
746.3986627718605
 31
0.0
  0
LINE
  5
260
330
1F
100
AcDbEntity
  8
0-0
  6
JWW_DASHED1
 62
   120
370
     5
100
AcDbLine
 10
497.7169948492429
 20
-428.6013372281397
 30
0.0
 11
497.7169948492429
 21
746.3986627718605
 31
0.0
  0
LINE
  5
261
330
1F
100
AcDbEntity
  8
0-0
  6
JWW_DASHED1
 62
   120
370
     5
100
AcDbLine
 10
496.7169948493427
 20
-428.6013372281397
 30
0.0
 11
496.7169948493427
 21
746.3986627718605
 31
0.0
  0
LINE
  5
262
330
1F
100
AcDbEntity
  8
0-0
  6
JWW_DASHED1
 62
   120
370
     5
100
AcDbLine
 10
483.7169948482431
 20
-428.6013372281397
 30
0.0
 11
483.7169948482431
 21
746.3986627718605
 31
0.0
  0
LINE
  5
263
330
1F
100
AcDbEntity
  8
0-0
  6
JWW_DASHED1
 62
   120
370
     5
100
AcDbLine
 10
482.7169948483429
 20
-428.6013372281397
 30
0.0
 11
482.7169948483429
 21
746.3986627718605
 31
0.0
  0
LINE
  5
264
330
1F
100
AcDbEntity
  8
0-0
  6
JWW_DASHED1
 62
   120
370
     5
100
AcDbLine
 10
469.7169948472434
 20
-428.6013372281397
 30
0.0
 11
469.7169948472434
 21
746.3986627718605
 31
0.0
  0
LINE
  5
265
330
1F
100
AcDbEntity
  8
0-0
  6
JWW_DASHED1
 62
   120
370
     5
100
AcDbLine
 10
468.7169948473427
 20
-428.6013372281397
 30
0.0
 11
468.7169948473427
 21
746.3986627718605
 31
0.0
  0
LINE
  5
266
330
1F
100
AcDbEntity
  8
0-0
  6
JWW_DASHED1
 62
   120
370
     5
100
AcDbLine
 10
455.7169948462432
 20
-428.6013372281397
 30
0.0
 11
455.7169948462432
 21
746.3986627718605
 31
0.0
  0
LINE
  5
267
330
1F
100
AcDbEntity
  8
0-0
  6
JWW_DASHED1
 62
   120
370
     5
100
AcDbLine
 10
454.716994846343
 20
-428.6013372281397
 30
0.0
 11
454.716994846343
 21
746.3986627718605
 31
0.0
  0
LINE
  5
268
330
1F
100
AcDbEntity
  8
0-0
  6
JWW_DASHED1
 62
   120
370
     5
100
AcDbLine
 10
441.7169948452429
 20
-428.6013372281397
 30
0.0
 11
441.7169948452429
 21
746.3986627718605
 31
0.0
  0
LINE
  5
269
330
1F
100
AcDbEntity
  8
0-0
  6
JWW_DASHED1
 62
   120
370
     5
100
AcDbLine
 10
440.7169948453428
 20
-428.6013372281397
 30
0.0
 11
440.7169948453428
 21
746.3986627718605
 31
0.0
  0
LINE
  5
26A
330
1F
100
AcDbEntity
  8
0-0
  6
JWW_DASHED1
 62
   120
370
     5
100
AcDbLine
 10
427.7169948442427
 20
-428.6013372281397
 30
0.0
 11
427.7169948442427
 21
746.3986627718605
 31
0.0
  0
LINE
  5
26B
330
1F
100
AcDbEntity
  8
0-0
  6
JWW_DASHED1
 62
   120
370
     5
100
AcDbLine
 10
426.7169948443429
 20
-428.6013372281397
 30
0.0
 11
426.7169948443429
 21
746.3986627718605
 31
0.0
  0
LINE
  5
26C
330
1F
100
AcDbEntity
  8
0-0
  6
JWW_DASHED1
 62
   120
370
     5
100
AcDbLine
 10
413.7169948432434
 20
-428.6013372281397
 30
0.0
 11
413.7169948432434
 21
746.3986627718605
 31
0.0
  0
LINE
  5
26D
330
1F
100
AcDbEntity
  8
0-0
  6
JWW_DASHED1
 62
   120
370
     5
100
AcDbLine
 10
412.7169948433432
 20
-428.6013372281397
 30
0.0
 11
412.7169948433432
 21
746.3986627718605
 31
0.0
  0
LINE
  5
26E
330
1F
100
AcDbEntity
  8
0-0
  6
JWW_DASHED1
 62
   120
370
     5
100
AcDbLine
 10
399.7169948422431
 20
-428.6013372281397
 30
0.0
 11
399.7169948422431
 21
746.3986627718605
 31
0.0
  0
LINE
  5
26F
330
1F
100
AcDbEntity
  8
0-0
  6
JWW_DASHED1
 62
   120
370
     5
100
AcDbLine
 10
398.716994842343
 20
-428.6013372281397
 30
0.0
 11
398.716994842343
 21
746.3986627718605
 31
0.0
  0
LINE
  5
270
330
1F
100
AcDbEntity
  8
0-0
  6
JWW_DASHED1
 62
   120
370
     5
100
AcDbLine
 10
385.7169948412429
 20
-428.6013372281397
 30
0.0
 11
385.7169948412429
 21
746.3986627718605
 31
0.0
  0
LINE
  5
271
330
1F
100
AcDbEntity
  8
0-0
  6
JWW_DASHED1
 62
   120
370
     5
100
AcDbLine
 10
384.7169948413427
 20
-428.6013372281397
 30
0.0
 11
384.7169948413427
 21
746.3986627718605
 31
0.0
  0
LINE
  5
272
330
1F
100
AcDbEntity
  8
0-0
  6
JWW_DASHED1
 62
   120
370
     5
100
AcDbLine
 10
371.7169948402431
 20
-428.6013372281397
 30
0.0
 11
371.7169948402431
 21
746.3986627718605
 31
0.0
  0
LINE
  5
273
330
1F
100
AcDbEntity
  8
0-0
  6
JWW_DASHED1
 62
   120
370
     5
100
AcDbLine
 10
370.7169948403429
 20
-428.6013372281397
 30
0.0
 11
370.7169948403429
 21
746.3986627718605
 31
0.0
  0
LINE
  5
274
330
1F
100
AcDbEntity
  8
0-0
  6
JWW_DASHED1
 62
   120
370
     5
100
AcDbLine
 10
357.7169948392433
 20
-428.6013372281397
 30
0.0
 11
357.7169948392433
 21
746.3986627718605
 31
0.0
  0
LINE
  5
275
330
1F
100
AcDbEntity
  8
0-0
  6
JWW_DASHED1
 62
   120
370
     5
100
AcDbLine
 10
356.7169948393432
 20
-428.6013372281397
 30
0.0
 11
356.7169948393432
 21
746.3986627718605
 31
0.0
  0
LINE
  5
276
330
1F
100
AcDbEntity
  8
0-0
  6
JWW_DASHED1
 62
   120
370
     5
100
AcDbLine
 10
343.7169948382431
 20
-428.6013372281397
 30
0.0
 11
343.7169948382431
 21
746.3986627718605
 31
0.0
  0
LINE
  5
277
330
1F
100
AcDbEntity
  8
0-0
  6
JWW_DASHED1
 62
   120
370
     5
100
AcDbLine
 10
342.7169948383429
 20
-428.6013372281397
 30
0.0
 11
342.7169948383429
 21
746.3986627718605
 31
0.0
  0
LINE
  5
278
330
1F
100
AcDbEntity
  8
0-0
  6
JWW_DASHED1
 62
   120
370
     5
100
AcDbLine
 10
329.7169948372429
 20
-428.6013372281397
 30
0.0
 11
329.7169948372429
 21
746.3986627718605
 31
0.0
  0
LINE
  5
279
330
1F
100
AcDbEntity
  8
0-0
  6
JWW_DASHED1
 62
   120
370
     5
100
AcDbLine
 10
328.7169948373427
 20
-428.6013372281397
 30
0.0
 11
328.7169948373427
 21
746.3986627718605
 31
0.0
  0
LINE
  5
27A
330
1F
100
AcDbEntity
  8
0-0
  6
JWW_DASHED1
 62
   120
370
     5
100
AcDbLine
 10
315.7169948362431
 20
-428.6013372281397
 30
0.0
 11
315.7169948362431
 21
746.3986627718605
 31
0.0
  0
LINE
  5
27B
330
1F
100
AcDbEntity
  8
0-0
  6
JWW_DASHED1
 62
   120
370
     5
100
AcDbLine
 10
314.7169948363429
 20
-428.6013372281397
 30
0.0
 11
314.7169948363429
 21
746.3986627718605
 31
0.0
  0
LINE
  5
27C
330
1F
100
AcDbEntity
  8
0-0
  6
JWW_DASHED1
 62
   120
370
     5
100
AcDbLine
 10
301.7169948352433
 20
-428.6013372281397
 30
0.0
 11
301.7169948352433
 21
746.3986627718605
 31
0.0
  0
LINE
  5
27D
330
1F
100
AcDbEntity
  8
0-0
  6
JWW_DASHED1
 62
   120
370
     5
100
AcDbLine
 10
300.7169948353431
 20
-428.6013372281397
 30
0.0
 11
300.7169948353431
 21
746.3986627718605
 31
0.0
  0
LINE
  5
27E
330
1F
100
AcDbEntity
  8
0-0
  6
JWW_DASHED1
 62
   120
370
     5
100
AcDbLine
 10
287.7169948342431
 20
-428.6013372281397
 30
0.0
 11
287.7169948342431
 21
746.3986627718605
 31
0.0
  0
LINE
  5
27F
330
1F
100
AcDbEntity
  8
0-0
  6
JWW_DASHED1
 62
   120
370
     5
100
AcDbLine
 10
286.7169948343429
 20
-428.6013372281397
 30
0.0
 11
286.7169948343429
 21
746.3986627718605
 31
0.0
  0
LINE
  5
280
330
1F
100
AcDbEntity
  8
0-0
  6
JWW_DASHED1
 62
   120
370
     5
100
AcDbLine
 10
273.7169948332429
 20
-428.6013372281397
 30
0.0
 11
273.7169948332429
 21
746.3986627718605
 31
0.0
  0
LINE
  5
281
330
1F
100
AcDbEntity
  8
0-0
  6
JWW_DASHED1
 62
   120
370
     5
100
AcDbLine
 10
272.7169948333427
 20
-428.6013372281397
 30
0.0
 11
272.7169948333427
 21
746.3986627718605
 31
0.0
  0
LINE
  5
282
330
1F
100
AcDbEntity
  8
0-0
  6
JWW_DASHED1
 62
   120
370
     5
100
AcDbLine
 10
259.7169948322431
 20
-428.6013372281397
 30
0.0
 11
259.7169948322431
 21
746.3986627718605
 31
0.0
  0
LINE
  5
283
330
1F
100
AcDbEntity
  8
0-0
  6
JWW_DASHED1
 62
   120
370
     5
100
AcDbLine
 10
258.7169948323429
 20
-428.6013372281397
 30
0.0
 11
258.7169948323429
 21
746.3986627718605
 31
0.0
  0
LINE
  5
284
330
1F
100
AcDbEntity
  8
0-0
  6
JWW_DASHED1
 62
   120
370
     5
100
AcDbLine
 10
245.7169948312429
 20
-428.6013372281397
 30
0.0
 11
245.7169948312429
 21
746.3986627718605
 31
0.0
  0
LINE
  5
285
330
1F
100
AcDbEntity
  8
0-0
  6
JWW_DASHED1
 62
   120
370
     5
100
AcDbLine
 10
244.7169948313431
 20
-428.6013372281397
 30
0.0
 11
244.7169948313431
 21
746.3986627718605
 31
0.0
  0
LINE
  5
286
330
1F
100
AcDbEntity
  8
0-0
  6
JWW_DASHED1
 62
   120
370
     5
100
AcDbLine
 10
231.7169948302431
 20
-428.6013372281397
 30
0.0
 11
231.7169948302431
 21
746.3986627718605
 31
0.0
  0
LINE
  5
287
330
1F
100
AcDbEntity
  8
0-0
  6
JWW_DASHED1
 62
   120
370
     5
100
AcDbLine
 10
230.7169948303425
 20
-428.6013372281397
 30
0.0
 11
230.7169948303425
 21
746.3986627718605
 31
0.0
  0
LINE
  5
288
330
1F
100
AcDbEntity
  8
0-0
  6
JWW_DASHED1
 62
   120
370
     5
100
AcDbLine
 10
217.7169948292429
 20
-428.6013372281397
 30
0.0
 11
217.7169948292429
 21
746.3986627718605
 31
0.0
  0
LINE
  5
289
330
1F
100
AcDbEntity
  8
0-0
  6
JWW_DASHED1
 62
   120
370
     5
100
AcDbLine
 10
216.7169948293427
 20
-428.6013372281397
 30
0.0
 11
216.7169948293427
 21
746.3986627718605
 31
0.0
  0
LINE
  5
28A
330
1F
100
AcDbEntity
  8
0-0
  6
JWW_DASHED1
 62
   120
370
     5
100
AcDbLine
 10
203.7169948282431
 20
-428.6013372281397
 30
0.0
 11
203.7169948282431
 21
746.3986627718605
 31
0.0
  0
LINE
  5
28B
330
1F
100
AcDbEntity
  8
0-0
  6
JWW_DASHED1
 62
   120
370
     5
100
AcDbLine
 10
202.7169948283425
 20
-428.6013372281397
 30
0.0
 11
202.7169948283425
 21
746.3986627718605
 31
0.0
  0
LINE
  5
28C
330
1F
100
AcDbEntity
  8
0-0
  6
JWW_DASHED1
 62
   120
370
     5
100
AcDbLine
 10
189.7169948272433
 20
-428.6013372281397
 30
0.0
 11
189.7169948272433
 21
746.3986627718605
 31
0.0
  0
LINE
  5
28D
330
1F
100
AcDbEntity
  8
0-0
  6
JWW_DASHED1
 62
   120
370
     5
100
AcDbLine
 10
188.7169948273431
 20
-428.6013372281397
 30
0.0
 11
188.7169948273431
 21
746.3986627718605
 31
0.0
  0
LINE
  5
28E
330
1F
100
AcDbEntity
  8
0-0
  6
JWW_DASHED1
 62
   120
370
     5
100
AcDbLine
 10
175.7169948262431
 20
-428.6013372281397
 30
0.0
 11
175.7169948262431
 21
746.3986627718605
 31
0.0
  0
LINE
  5
28F
330
1F
100
AcDbEntity
  8
0-0
  6
JWW_DASHED1
 62
   120
370
     5
100
AcDbLine
 10
174.7169948263429
 20
-428.6013372281397
 30
0.0
 11
174.7169948263429
 21
746.3986627718605
 31
0.0
  0
LINE
  5
290
330
1F
100
AcDbEntity
  8
0-0
  6
JWW_DASHED1
 62
   120
370
     5
100
AcDbLine
 10
161.7169948252428
 20
-428.6013372281397
 30
0.0
 11
161.7169948252428
 21
746.3986627718605
 31
0.0
  0
LINE
  5
291
330
1F
100
AcDbEntity
  8
0-0
  6
JWW_DASHED1
 62
   120
370
     5
100
AcDbLine
 10
721.7169948652429
 20
-428.6013372281397
 30
0.0
 11
721.7169948652429
 21
746.3986627718605
 31
0.0
  0
LINE
  5
292
330
1F
100
AcDbEntity
  8
0-0
  6
JWW_DASHED1
 62
   120
370
     5
100
AcDbLine
 10
706.716994864343
 20
-428.6013372281397
 30
0.0
 11
706.716994864343
 21
746.3986627718605
 31
0.0
  0
LINE
  5
293
330
1F
100
AcDbEntity
  8
0-0
  6
JWW_DASHED1
 62
   120
370
     5
100
AcDbLine
 10
720.7169948653427
 20
-428.6013372281397
 30
0.0
 11
720.7169948653427
 21
746.3986627718605
 31
0.0
  0
LINE
  5
294
330
1F
100
AcDbEntity
  8
0-0
  6
JWW_DASHED1
 62
   120
370
     5
100
AcDbLine
 10
707.7169948642427
 20
-428.6013372281397
 30
0.0
 11
707.7169948642427
 21
746.3986627718605
 31
0.0
  0
LINE
  5
295
330
1F
100
AcDbEntity
  8
0-0
  6
JWW_DASHED1
 62
   120
370
     5
100
AcDbLine
 10
154.7169763673117
 20
734.3985145408993
 30
0.0
 11
727.7169763673106
 21
734.3985145408993
 31
0.0
  0
LINE
  5
296
330
1F
100
AcDbEntity
  8
0-0
  6
JWW_DASHED1
 62
   120
370
     5
100
AcDbLine
 10
154.7169763673117
 20
691.3985145379997
 30
0.0
 11
727.7169763673106
 21
691.3985145379997
 31
0.0
  0
LINE
  5
297
330
1F
100
AcDbEntity
  8
0-0
  6
JWW_DASHED1
 62
   120
370
     5
100
AcDbLine
 10
154.7169763673117
 20
692.3985145378999
 30
0.0
 11
727.7169763673106
 21
692.3985145378999
 31
0.0
  0
LINE
  5
298
330
1F
100
AcDbEntity
  8
0-0
  6
JWW_DASHED1
 62
   120
370
     5
100
AcDbLine
 10
154.7169763673117
 20
705.3985145389995
 30
0.0
 11
727.7169763673106
 21
705.3985145389995
 31
0.0
  0
LINE
  5
299
330
1F
100
AcDbEntity
  8
0-0
  6
JWW_DASHED1
 62
   120
370
     5
100
AcDbLine
 10
154.7169763673117
 20
706.3985145388997
 30
0.0
 11
727.7169763673106
 21
706.3985145388997
 31
0.0
  0
LINE
  5
29A
330
1F
100
AcDbEntity
  8
0-0
  6
JWW_DASHED1
 62
   120
370
     5
100
AcDbLine
 10
154.7169763673117
 20
719.3985145399994
 30
0.0
 11
727.7169763673106
 21
719.3985145399994
 31
0.0
  0
LINE
  5
29B
330
1F
100
AcDbEntity
  8
0-0
  6
JWW_DASHED1
 62
   120
370
     5
100
AcDbLine
 10
154.7169763673117
 20
720.3985145398996
 30
0.0
 11
727.7169763673106
 21
720.3985145398996
 31
0.0
  0
LINE
  5
29C
330
1F
100
AcDbEntity
  8
0-0
  6
JWW_DASHED1
 62
   120
370
     5
100
AcDbLine
 10
154.7169763673117
 20
733.3985145409991
 30
0.0
 11
727.7169763673106
 21
733.3985145409991
 31
0.0
  0
LINE
  5
29D
330
1F
100
AcDbEntity
  8
寸法
  6
Continuous
 62
   120
370
     5
100
AcDbLine
 10
-2030.783023632689
 20
-1321.601337228139
 30
0.0
 11
-1630.783023632689
 21
-1321.601337228139
 31
0.0
  0
LINE
  5
29E
330
1F
100
AcDbEntity
  8
寸法
  6
Continuous
 62
   120
370
     5
100
AcDbLine
 10
-1830.783023632688
 20
-1301.601337228139
 30
0.0
 11
-1630.783023632689
 21
-1301.601337228139
 31
0.0
  0
LWPOLYLINE
  5
29F
330
1F
100
AcDbEntity
  8
寸法
  6
Continuous
 62
     7
370
     9
100
AcDbPolyline
 90
        4
 70
     1
 43
3.0
 10
-2029.283023632689
 20
-1321.601337228139
 42
0.4142135623731
 10
-2030.783023632689
 20
-1320.101337228139
 42
0.4142135623731
 10
-2032.283023632689
 20
-1321.601337228139
 42
0.4142135623731
 10
-2030.783023632689
 20
-1323.101337228139
 42
0.4142135623731
  0
LWPOLYLINE
  5
2A0
330
1F
100
AcDbEntity
  8
寸法
  6
Continuous
 62
     7
370
     9
100
AcDbPolyline
 90
        4
 70
     1
 43
3.0
 10
-1829.283023632688
 20
-1301.601337228139
 42
0.4142135623731
 10
-1830.783023632688
 20
-1300.101337228139
 42
0.4142135623731
 10
-1832.283023632688
 20
-1301.601337228139
 42
0.4142135623731
 10
-1830.783023632688
 20
-1303.101337228139
 42
0.4142135623731
  0
LINE
  5
2A1
330
1F
100
AcDbEntity
  8
寸法
  6
Continuous
 62
   120
370
     5
100
AcDbLine
 10
-1550.783023632689
 20
-1771.601337228139
 30
0.0
 11
-1550.783023632689
 21
-1371.60133722814
 31
0.0
  0
LINE
  5
2A2
330
1F
100
AcDbEntity
  8
寸法
  6
Continuous
 62
   120
370
     5
100
AcDbLine
 10
-1580.783023632689
 20
-1971.60133722814
 30
0.0
 11
-1580.783023632689
 21
-1371.60133722814
 31
0.0
  0
LINE
  5
2A3
330
1F
100
AcDbEntity
  8
寸法
  6
Continuous
 62
   120
370
     5
100
AcDbLine
 10
36.21697636731121
 20
-1571.601337228139
 30
0.0
 11
36.21697636731121
 21
-1371.60133722814
 31
0.0
  0
LINE
  5
2A4
330
1F
100
AcDbEntity
  8
寸法
  6
Continuous
 62
   120
370
     5
100
AcDbLine
 10
-773.7830236326888
 20
-1571.601337228139
 30
0.0
 11
-773.7830236326888
 21
-1371.60133722814
 31
0.0
  0
LINE
  5
2A5
330
1F
100
AcDbEntity
  8
寸法
  6
Continuous
 62
   120
370
     5
100
AcDbLine
 10
-773.7830236326888
 20
-1571.601337228139
 30
0.0
 11
846.2169763673112
 21
-1571.601337228139
 31
0.0
  0
LINE
  5
2A6
330
1F
100
AcDbEntity
  8
寸法
  6
Continuous
 62
   120
370
     5
100
AcDbLine
 10
-1550.783023632689
 20
-1771.601337228139
 30
0.0
 11
1623.216976367311
 21
-1771.601337228139
 31
0.0
  0
LINE
  5
2A7
330
1F
100
AcDbEntity
  8
寸法
  6
Continuous
 62
   120
370
     5
100
AcDbLine
 10
1623.216976367311
 20
-1771.601337228139
 30
0.0
 11
1623.216976367311
 21
-1371.60133722814
 31
0.0
  0
LINE
  5
2A8
330
1F
100
AcDbEntity
  8
寸法
  6
Continuous
 62
   120
370
     5
100
AcDbLine
 10
-1580.783023632689
 20
-1971.60133722814
 30
0.0
 11
1653.216976367311
 21
-1971.601337228139
 31
0.0
  0
LINE
  5
2A9
330
1F
100
AcDbEntity
  8
寸法
  6
Continuous
 62
   120
370
     5
100
AcDbLine
 10
1653.216976367311
 20
-1971.601337228139
 30
0.0
 11
1653.216976367311
 21
-1371.60133722814
 31
0.0
  0
LINE
  5
2AA
330
1F
100
AcDbEntity
  8
寸法
  6
Continuous
 62
   120
370
     5
100
AcDbLine
 10
846.2169763673112
 20
-1571.601337228139
 30
0.0
 11
846.2169763673112
 21
-1371.60133722814
 31
0.0
  0
LWPOLYLINE
  5
2AB
330
1F
100
AcDbEntity
  8
寸法
  6
Continuous
 62
     7
370
     9
100
AcDbPolyline
 90
        4
 70
     1
 43
3.0
 10
-1549.283023632689
 20
-1771.601337228139
 42
0.4142135623731
 10
-1550.783023632689
 20
-1770.101337228139
 42
0.4142135623731
 10
-1552.283023632689
 20
-1771.601337228139
 42
0.4142135623731
 10
-1550.783023632689
 20
-1773.101337228139
 42
0.4142135623731
  0
LWPOLYLINE
  5
2AC
330
1F
100
AcDbEntity
  8
寸法
  6
Continuous
 62
     7
370
     9
100
AcDbPolyline
 90
        4
 70
     1
 43
3.0
 10
-1579.283023632689
 20
-1971.60133722814
 42
0.4142135623731
 10
-1580.783023632689
 20
-1970.10133722814
 42
0.4142135623731
 10
-1582.283023632689
 20
-1971.60133722814
 42
0.4142135623731
 10
-1580.783023632689
 20
-1973.10133722814
 42
0.4142135623731
  0
LWPOLYLINE
  5
2AD
330
1F
100
AcDbEntity
  8
寸法
  6
Continuous
 62
     7
370
     9
100
AcDbPolyline
 90
        4
 70
     1
 43
3.0
 10
37.71697636731121
 20
-1571.601337228139
 42
0.4142135623731
 10
36.21697636731121
 20
-1570.101337228139
 42
0.4142135623731
 10
34.7169763673112
 20
-1571.601337228139
 42
0.4142135623731
 10
36.21697636731121
 20
-1573.101337228139
 42
0.4142135623731
  0
LWPOLYLINE
  5
2AE
330
1F
100
AcDbEntity
  8
寸法
  6
Continuous
 62
     7
370
     9
100
AcDbPolyline
 90
        4
 70
     1
 43
3.0
 10
-772.2830236326888
 20
-1571.601337228139
 42
0.4142135623731
 10
-773.7830236326888
 20
-1570.101337228139
 42
0.4142135623731
 10
-775.2830236326888
 20
-1571.601337228139
 42
0.4142135623731
 10
-773.7830236326888
 20
-1573.101337228139
 42
0.4142135623731
  0
LWPOLYLINE
  5
2AF
330
1F
100
AcDbEntity
  8
寸法
  6
Continuous
 62
     7
370
     9
100
AcDbPolyline
 90
        4
 70
     1
 43
3.0
 10
1624.716976367311
 20
-1771.601337228139
 42
0.4142135623731
 10
1623.216976367311
 20
-1770.101337228139
 42
0.4142135623731
 10
1621.716976367311
 20
-1771.601337228139
 42
0.4142135623731
 10
1623.216976367311
 20
-1773.101337228139
 42
0.4142135623731
  0
LWPOLYLINE
  5
2B0
330
1F
100
AcDbEntity
  8
寸法
  6
Continuous
 62
     7
370
     9
100
AcDbPolyline
 90
        4
 70
     1
 43
3.0
 10
1654.716976367311
 20
-1971.601337228139
 42
0.4142135623731
 10
1653.216976367311
 20
-1970.101337228139
 42
0.4142135623731
 10
1651.716976367311
 20
-1971.601337228139
 42
0.4142135623731
 10
1653.216976367311
 20
-1973.101337228139
 42
0.4142135623731
  0
LWPOLYLINE
  5
2B1
330
1F
100
AcDbEntity
  8
寸法
  6
Continuous
 62
     7
370
     9
100
AcDbPolyline
 90
        4
 70
     1
 43
3.0
 10
847.7169763673112
 20
-1571.601337228139
 42
0.4142135623731
 10
846.2169763673112
 20
-1570.101337228139
 42
0.4142135623731
 10
844.7169763673112
 20
-1571.601337228139
 42
0.4142135623731
 10
846.2169763673112
 20
-1573.101337228139
 42
0.4142135623731
  0
MTEXT
  5
2B2
330
1F
100
AcDbEntity
  8
寸法
  6
Continuous
 62
     7
370
   211
100
AcDbMText
 10
-537.5330236326888
 20
-1565.526337228139
 30
0.0
 40
57.15
 41
337.5
 46
0.0
 71
     7
 72
     1
  1
{\fＭＳ ゴシック|b0|i0|c128|p49;ＤＷ＝810}
 73
     1
 44
1.0
  0
MTEXT
  5
2B3
330
1F
100
AcDbEntity
  8
寸法
  6
Continuous
 62
     7
370
   211
100
AcDbMText
 10
272.4669763673112
 20
-1565.526337228139
 30
0.0
 40
57.15
 41
337.5
 46
0.0
 71
     7
 72
     1
  1
{\fＭＳ ゴシック|b0|i0|c128|p49;ＤＷ＝810}
 73
     1
 44
1.0
  0
MTEXT
  5
2B4
330
1F
100
AcDbEntity
  8
寸法
  6
Continuous
 62
     7
370
   211
100
AcDbMText
 10
-170.0330236326896
 20
-1765.526337228139
 30
0.0
 40
57.14999999999999
 41
412.5
 46
0.0
 71
     7
 72
     1
  1
{\fＭＳ ゴシック|b0|i0|c128|p49;枠内＝3,174}
 73
     1
 44
1.0
  0
MTEXT
  5
2B5
330
1F
100
AcDbEntity
  8
寸法
  6
Continuous
 62
     7
370
   211
100
AcDbMText
 10
-170.0330236326896
 20
-1965.52633722814
 30
0.0
 40
57.14999999999999
 41
412.5
 46
0.0
 71
     7
 72
     1
  1
{\fＭＳ ゴシック|b0|i0|c128|p49;枠外＝3,234}
 73
     1
 44
1.0
  0
LWPOLYLINE
  5
2B6
330
1F
100
AcDbEntity
  8
寸法
  6
Continuous
 62
     7
370
     9
100
AcDbPolyline
 90
        4
 70
     1
 43
3.0
 10
-2029.283023632689
 20
925.3986627718609
 42
0.4142135623731
 10
-2030.783023632689
 20
926.8986627718609
 42
0.4142135623731
 10
-2032.283023632689
 20
925.3986627718609
 42
0.4142135623731
 10
-2030.783023632689
 20
923.8986627718609
 42
0.4142135623731
  0
LINE
  5
2B7
330
1F
100
AcDbEntity
  8
寸法
  6
Continuous
 62
   120
370
     5
100
AcDbLine
 10
-2030.783023632689
 20
925.3986627718609
 30
0.0
 11
-1630.783023632689
 21
925.3986627718609
 31
0.0
  0
LINE
  5
2B8
330
1F
100
AcDbEntity
  8
寸法
  6
Continuous
 62
   120
370
     5
100
AcDbLine
 10
-2030.783023632689
 20
925.3986627718609
 30
0.0
 11
-2030.783023632689
 21
-1321.601337228139
 31
0.0
  0
LWPOLYLINE
  5
2B9
330
1F
100
AcDbEntity
  8
寸法
  6
Continuous
 62
     7
370
     9
100
AcDbPolyline
 90
        4
 70
     1
 43
3.0
 10
-1829.283023632688
 20
881.39866277186
 42
0.4142135623731
 10
-1830.783023632688
 20
882.89866277186
 42
0.4142135623731
 10
-1832.283023632688
 20
881.39866277186
 42
0.4142135623731
 10
-1830.783023632688
 20
879.89866277186
 42
0.4142135623731
  0
LINE
  5
2BA
330
1F
100
AcDbEntity
  8
寸法
  6
Continuous
 62
   120
370
     5
100
AcDbLine
 10
-1830.783023632688
 20
881.39866277186
 30
0.0
 11
-1830.783023632688
 21
-1301.601337228139
 31
0.0
  0
LINE
  5
2BB
330
1F
100
AcDbEntity
  8
寸法
  6
Continuous
 62
   120
370
     5
100
AcDbLine
 10
-1830.783023632688
 20
881.39866277186
 30
0.0
 11
-1630.783023632689
 21
881.39866277186
 31
0.0
  0
MTEXT
  5
2BC
330
1F
100
AcDbEntity
  8
寸法
  6
Continuous
 62
     7
370
    70
100
AcDbMText
 10
-2045.783023632689
 20
-425.2763372281393
 30
0.0
 40
57.14999999999999
 41
412.5
 46
0.0
 71
     7
 72
     1
  1
{\fＭＳ ゴシック|b0|i0|c128|p49;枠外＝2,247}
 11
6.123031769111886E-17
 21
1.0
 31
0.0
 73
     1
 44
1.0
  0
MTEXT
  5
2BD
330
1F
100
AcDbEntity
  8
寸法
  6
Continuous
 62
     7
370
    70
100
AcDbMText
 10
-1845.783023632688
 20
-425.2763372281393
 30
0.0
 40
57.14999999999999
 41
412.5
 46
0.0
 71
     7
 72
     1
  1
{\fＭＳ ゴシック|b0|i0|c128|p49;ＤＨ＝2,183}
 11
6.123031769111886E-17
 21
1.0
 31
0.0
 73
     1
 44
1.0
  0
ENDSEC
  0
SECTION
  2
OBJECTS
  0
DICTIONARY
  5
C
330
0
100
AcDbDictionary
281
     1
  3
ACAD_GROUP
350
D
  3
ACAD_LAYOUT
350
1A
  3
ACAD_MATERIAL
350
3B
  3
ACAD_MLEADERSTYLE
350
2BF
  3
ACAD_MLINESTYLE
350
17
  3
ACAD_PLOTSETTINGS
350
19
  3
ACAD_PLOTSTYLENAME
350
E
  3
ACAD_TABLESTYLE
350
2BE
  3
ACAD_VISUALSTYLE
350
2A
  0
DICTIONARY
  5
D
102
{ACAD_REACTORS
330
C
102
}
330
C
100
AcDbDictionary
281
     1
  0
DICTIONARY
  5
1A
102
{ACAD_REACTORS
330
C
102
}
330
C
100
AcDbDictionary
281
     1
  3
Layout1
350
1E
  3
Layout2
350
26
  3
Model
350
22
  0
DICTIONARY
  5
3B
102
{ACAD_REACTORS
330
C
102
}
330
C
100
AcDbDictionary
281
     1
  3
ByBlock
350
3D
  3
ByLayer
350
3C
  3
Global
350
3E
  0
DICTIONARY
  5
2BF
102
{ACAD_REACTORS
330
C
102
}
330
C
100
AcDbDictionary
281
     1
  0
DICTIONARY
  5
17
102
{ACAD_REACTORS
330
C
102
}
330
C
100
AcDbDictionary
281
     1
  3
Standard
350
18
  0
DICTIONARY
  5
19
102
{ACAD_REACTORS
330
C
102
}
330
C
100
AcDbDictionary
281
     1
  0
ACDBDICTIONARYWDFLT
  5
E
102
{ACAD_REACTORS
330
C
102
}
330
C
100
AcDbDictionary
281
     1
  3
Normal
350
F
100
AcDbDictionaryWithDefault
340
F
  0
DICTIONARY
  5
2BE
102
{ACAD_REACTORS
330
C
102
}
330
C
100
AcDbDictionary
281
     1
  0
DICTIONARY
  5
2A
102
{ACAD_REACTORS
330
C
102
}
330
C
100
AcDbDictionary
281
     1
  3
2dWireframe
350
2F
  3
3D Hidden
350
31
  3
3dWireframe
350
30
  3
Basic
350
32
  3
Brighten
350
36
  3
ColorChange
350
3A
  3
Conceptual
350
34
  3
Dim
350
35
  3
Facepattern
350
39
  3
Flat
350
2B
  3
FlatWithEdges
350
2C
  3
Gouraud
350
2D
  3
GouraudWithEdges
350
2E
  3
Linepattern
350
38
  3
Realistic
350
33
  3
Thicken
350
37
  0
LAYOUT
  5
1E
102
{ACAD_REACTORS
330
1A
102
}
330
1A
100
AcDbPlotSettings
  1

  2
none_device
  4

  6

 40
0.0
 41
0.0
 42
0.0
 43
0.0
 44
0.0
 45
0.0
 46
0.0
 47
0.0
 48
0.0
 49
0.0
140
0.0
141
0.0
142
1.0
143
1.0
 70
   688
 72
     0
 73
     0
 74
     5
  7

 75
    16
 76
     0
 77
     5
 78
   300
147
1.0
148
0.0
149
0.0
100
AcDbLayout
  1
Layout1
 70
     1
 71
     1
 10
0.0
 20
0.0
 11
420.0
 21
297.0
 12
0.0
 22
0.0
 32
0.0
 14
1.000000000000000E+20
 24
1.000000000000000E+20
 34
1.000000000000000E+20
 15
-1.000000000000000E+20
 25
-1.000000000000000E+20
 35
-1.000000000000000E+20
146
0.0
 13
0.0
 23
0.0
 33
0.0
 16
1.0
 26
0.0
 36
0.0
 17
0.0
 27
1.0
 37
0.0
 76
     0
330
1B
  0
LAYOUT
  5
26
102
{ACAD_REACTORS
330
1A
102
}
330
1A
100
AcDbPlotSettings
  1

  2
none_device
  4

  6

 40
0.0
 41
0.0
 42
0.0
 43
0.0
 44
0.0
 45
0.0
 46
0.0
 47
0.0
 48
0.0
 49
0.0
140
0.0
141
0.0
142
1.0
143
1.0
 70
   688
 72
     0
 73
     0
 74
     5
  7

 75
    16
 76
     0
 77
     5
 78
   300
147
1.0
148
0.0
149
0.0
100
AcDbLayout
  1
Layout2
 70
     1
 71
     2
 10
0.0
 20
0.0
 11
0.0
 21
0.0
 12
0.0
 22
0.0
 32
0.0
 14
0.0
 24
0.0
 34
0.0
 15
0.0
 25
0.0
 35
0.0
146
0.0
 13
0.0
 23
0.0
 33
0.0
 16
1.0
 26
0.0
 36
0.0
 17
0.0
 27
1.0
 37
0.0
 76
     0
330
23
  0
LAYOUT
  5
22
102
{ACAD_REACTORS
330
1A
102
}
330
1A
100
AcDbPlotSettings
  1

  2
none_device
  4

  6

 40
0.0
 41
0.0
 42
0.0
 43
0.0
 44
0.0
 45
0.0
 46
0.0
 47
0.0
 48
0.0
 49
0.0
140
0.0
141
0.0
142
1.0
143
1.0
 70
  1712
 72
     0
 73
     0
 74
     0
  7

 75
     0
 76
     0
 77
     5
 78
   300
147
1.0
148
0.0
149
0.0
100
AcDbLayout
  1
Model
 70
     1
 71
     0
 10
-4455.0
 20
-3150.0
 11
4455.0
 21
3150.0
 12
0.0
 22
0.0
 32
0.0
 14
-4455.0
 24
-3150.0
 34
0.0
 15
4455.0
 25
3150.0
 35
0.0
146
0.0
 13
0.0
 23
0.0
 33
0.0
 16
1.0
 26
0.0
 36
0.0
 17
0.0
 27
1.0
 37
0.0
 76
     0
330
1F
331
29
  0
MATERIAL
  5
3D
102
{ACAD_REACTORS
330
3B
102
}
330
3B
100
AcDbMaterial
  1
ByBlock
 72
     1
 94
      127
  0
MATERIAL
  5
3C
102
{ACAD_REACTORS
330
3B
102
}
330
3B
100
AcDbMaterial
  1
ByLayer
 72
     1
 94
      127
  0
MATERIAL
  5
3E
102
{ACAD_REACTORS
330
3B
102
}
330
3B
100
AcDbMaterial
  1
Global
 72
     1
 94
      127
  0
MLINESTYLE
  5
18
102
{ACAD_REACTORS
330
17
102
}
330
17
100
AcDbMlineStyle
  2
Standard
 70
     0
  3

 62
   256
 51
90.0
 52
90.0
 71
     2
 49
0.5
 62
   256
  6
BYLAYER
 49
-0.5
 62
   256
  6
BYLAYER
  0
ACDBPLACEHOLDER
  5
F
102
{ACAD_REACTORS
330
E
102
}
330
E
  0
VISUALSTYLE
  5
2F
102
{ACAD_REACTORS
330
2A
102
}
330
2A
100
AcDbVisualStyle
  2
2dWireframe
 70
     4
177
     2
291
     0
 71
     0
176
     1
 72
     2
176
     1
 73
     0
176
     1
 90
        0
176
     1
 40
-0.6
176
     1
 41
-30.0
176
     1
 62
     5
 63
     7
421
 16777215
176
     1
 74
     1
176
     1
 91
        4
176
     1
 64
     7
176
     1
 65
   257
176
     1
 75
     1
176
     1
175
     1
176
     1
 42
1.0
176
     1
 92
        0
176
     1
 66
   257
176
     1
 43
1.0
176
     1
 76
     1
176
     1
 77
     6
176
     1
 78
     2
176
     1
 67
     7
176
     1
 79
     5
176
     1
170
     0
176
     1
171
     0
176
     1
290
     0
176
     1
 93
        1
176
     1
 44
0.0
176
     1
173
     0
176
     1
  0
VISUALSTYLE
  5
31
102
{ACAD_REACTORS
330
2A
102
}
330
2A
100
AcDbVisualStyle
  2
3D Hidden
 70
     6
177
     2
291
     0
 71
     1
176
     1
 72
     2
176
     1
 73
     2
176
     1
 90
        0
176
     1
 40
-0.6
176
     1
 41
-30.0
176
     1
 62
     5
 63
     7
421
 16777215
176
     1
 74
     2
176
     1
 91
        2
176
     1
 64
     7
176
     1
 65
   257
176
     1
 75
     2
176
     1
175
     1
176
     1
 42
40.0
176
     1
 92
        0
176
     1
 66
   257
176
     1
 43
1.0
176
     1
 76
     1
176
     1
 77
     6
176
     1
 78
     2
176
     1
 67
     7
176
     1
 79
     3
176
     1
170
     0
176
     1
171
     0
176
     1
290
     0
176
     1
 93
        1
176
     1
 44
0.0
176
     1
173
     0
176
     1
  0
VISUALSTYLE
  5
30
102
{ACAD_REACTORS
330
2A
102
}
330
2A
100
AcDbVisualStyle
  2
3dWireframe
 70
     5
177
     2
291
     0
 71
     0
176
     1
 72
     2
176
     1
 73
     0
176
     1
 90
        0
176
     1
 40
-0.6
176
     1
 41
-30.0
176
     1
 62
     5
 63
     7
421
 16777215
176
     1
 74
     1
176
     1
 91
        4
176
     1
 64
     7
176
     1
 65
   257
176
     1
 75
     1
176
     1
175
     1
176
     1
 42
1.0
176
     1
 92
        0
176
     1
 66
   257
176
     1
 43
1.0
176
     1
 76
     1
176
     1
 77
     6
176
     1
 78
     2
176
     1
 67
     7
176
     1
 79
     5
176
     1
170
     0
176
     1
171
     0
176
     1
290
     0
176
     1
 93
        1
176
     1
 44
0.0
176
     1
173
     0
176
     1
  0
VISUALSTYLE
  5
32
102
{ACAD_REACTORS
330
2A
102
}
330
2A
100
AcDbVisualStyle
  2
Basic
 70
     7
177
     2
291
     1
 71
     1
176
     1
 72
     0
176
     1
 73
     1
176
     1
 90
        0
176
     1
 40
-0.6
176
     1
 41
-30.0
176
     1
 62
     5
 63
     7
421
 16777215
176
     1
 74
     0
176
     1
 91
        4
176
     1
 64
     7
176
     1
 65
   257
176
     1
 75
     1
176
     1
175
     1
176
     1
 42
1.0
176
     1
 92
        8
176
     1
 66
     7
176
     1
 43
1.0
176
     1
 76
     1
176
     1
 77
     6
176
     1
 78
     2
176
     1
 67
     7
176
     1
 79
     5
176
     1
170
     0
176
     1
171
     0
176
     1
290
     0
176
     1
 93
        1
176
     1
 44
0.0
176
     1
173
     0
176
     1
  0
VISUALSTYLE
  5
36
102
{ACAD_REACTORS
330
2A
102
}
330
2A
100
AcDbVisualStyle
  2
Brighten
 70
    12
177
     2
291
     1
 71
     2
176
     1
 72
     2
176
     1
 73
     0
176
     1
 90
        0
176
     1
 40
-0.6
176
     1
 41
-30.0
176
     1
 62
     5
 63
     7
421
 16777215
176
     1
 74
     1
176
     1
 91
        4
176
     1
 64
     7
176
     1
 65
   257
176
     1
 75
     1
176
     1
175
     1
176
     1
 42
1.0
176
     1
 92
        8
176
     1
 66
     7
176
     1
 43
1.0
176
     1
 76
     1
176
     1
 77
     6
176
     1
 78
     2
176
     1
 67
     7
176
     1
 79
     5
176
     1
170
     0
176
     1
171
     0
176
     1
290
     0
176
     1
 93
        1
176
     1
 44
50.0
176
     1
173
     0
176
     1
  0
VISUALSTYLE
  5
3A
102
{ACAD_REACTORS
330
2A
102
}
330
2A
100
AcDbVisualStyle
  2
ColorChange
 70
    16
177
     2
291
     1
 71
     2
176
     1
 72
     2
176
     1
 73
     3
176
     1
 90
        0
176
     1
 40
-0.6
176
     1
 41
-30.0
176
     1
 62
     5
 63
     8
421
  8421504
176
     1
 74
     1
176
     1
 91
        4
176
     1
 64
     7
176
     1
 65
   257
176
     1
 75
     1
176
     1
175
     1
176
     1
 42
1.0
176
     1
 92
        8
176
     1
 66
     8
424
  8421504
176
     1
 43
1.0
176
     1
 76
     1
176
     1
 77
     6
176
     1
 78
     2
176
     1
 67
     7
176
     1
 79
     5
176
     1
170
     0
176
     1
171
     0
176
     1
290
     0
176
     1
 93
        1
176
     1
 44
0.0
176
     1
173
     0
176
     1
  0
VISUALSTYLE
  5
34
102
{ACAD_REACTORS
330
2A
102
}
330
2A
100
AcDbVisualStyle
  2
Conceptual
 70
     9
177
     2
291
     0
 71
     3
176
     1
 72
     2
176
     1
 73
     0
176
     1
 90
        0
176
     1
 40
-0.6
176
     1
 41
-30.0
176
     1
 62
     5
 63
     7
421
 16777215
176
     1
 74
     2
176
     1
 91
        2
176
     1
 64
     7
176
     1
 65
   257
176
     1
 75
     1
176
     1
175
     1
176
     1
 42
40.0
176
     1
 92
        8
176
     1
 66
     7
176
     1
 43
1.0
176
     1
 76
     1
176
     1
 77
     6
176
     1
 78
     2
176
     1
 67
     7
176
     1
 79
     3
176
     1
170
     0
176
     1
171
     0
176
     1
290
     0
176
     1
 93
        1
176
     1
 44
0.0
176
     1
173
     0
176
     1
  0
VISUALSTYLE
  5
35
102
{ACAD_REACTORS
330
2A
102
}
330
2A
100
AcDbVisualStyle
  2
Dim
 70
    11
177
     2
291
     1
 71
     2
176
     1
 72
     2
176
     1
 73
     0
176
     1
 90
        0
176
     1
 40
-0.6
176
     1
 41
-30.0
176
     1
 62
     5
 63
     7
421
 16777215
176
     1
 74
     1
176
     1
 91
        4
176
     1
 64
     7
176
     1
 65
   257
176
     1
 75
     1
176
     1
175
     1
176
     1
 42
1.0
176
     1
 92
        8
176
     1
 66
     7
176
     1
 43
1.0
176
     1
 76
     1
176
     1
 77
     6
176
     1
 78
     2
176
     1
 67
     7
176
     1
 79
     5
176
     1
170
     0
176
     1
171
     0
176
     1
290
     0
176
     1
 93
        1
176
     1
 44
-50.0
176
     1
173
     0
176
     1
  0
VISUALSTYLE
  5
39
102
{ACAD_REACTORS
330
2A
102
}
330
2A
100
AcDbVisualStyle
  2
Facepattern
 70
    15
177
     2
291
     1
 71
     2
176
     1
 72
     2
176
     1
 73
     0
176
     1
 90
        0
176
     1
 40
-0.6
176
     1
 41
-30.0
176
     1
 62
     5
 63
     7
421
 16777215
176
     1
 74
     1
176
     1
 91
        4
176
     1
 64
     7
176
     1
 65
   257
176
     1
 75
     1
176
     1
175
     1
176
     1
 42
1.0
176
     1
 92
        8
176
     1
 66
     7
176
     1
 43
1.0
176
     1
 76
     1
176
     1
 77
     6
176
     1
 78
     2
176
     1
 67
     7
176
     1
 79
     5
176
     1
170
     0
176
     1
171
     0
176
     1
290
     0
176
     1
 93
        1
176
     1
 44
0.0
176
     1
173
     0
176
     1
  0
VISUALSTYLE
  5
2B
102
{ACAD_REACTORS
330
2A
102
}
330
2A
100
AcDbVisualStyle
  2
Flat
 70
     0
177
     2
291
     1
 71
     2
176
     1
 72
     1
176
     1
 73
     1
176
     1
 90
        2
176
     1
 40
-0.6
176
     1
 41
30.0
176
     1
 62
     5
 63
     7
421
 16777215
176
     1
 74
     0
176
     1
 91
        4
176
     1
 64
     7
176
     1
 65
   257
176
     1
 75
     1
176
     1
175
     1
176
     1
 42
1.0
176
     1
 92
        8
176
     1
 66
     7
176
     1
 43
1.0
176
     1
 76
     1
176
     1
 77
     6
176
     1
 78
     2
176
     1
 67
     7
176
     1
 79
     5
176
     1
170
     0
176
     1
171
     0
176
     1
290
     0
176
     1
 93
       13
176
     1
 44
0.0
176
     1
173
     0
176
     1
  0
VISUALSTYLE
  5
2C
102
{ACAD_REACTORS
330
2A
102
}
330
2A
100
AcDbVisualStyle
  2
FlatWithEdges
 70
     1
177
     2
291
     1
 71
     2
176
     1
 72
     1
176
     1
 73
     1
176
     1
 90
        2
176
     1
 40
-0.6
176
     1
 41
30.0
176
     1
 62
     5
 63
     7
421
 16777215
176
     1
 74
     1
176
     1
 91
        4
176
     1
 64
     7
176
     1
 65
   257
176
     1
 75
     1
176
     1
175
     1
176
     1
 42
1.0
176
     1
 92
        0
176
     1
 66
   257
176
     1
 43
1.0
176
     1
 76
     1
176
     1
 77
     6
176
     1
 78
     2
176
     1
 67
     7
176
     1
 79
     5
176
     1
170
     0
176
     1
171
     0
176
     1
290
     0
176
     1
 93
       13
176
     1
 44
0.0
176
     1
173
     0
176
     1
  0
VISUALSTYLE
  5
2D
102
{ACAD_REACTORS
330
2A
102
}
330
2A
100
AcDbVisualStyle
  2
Gouraud
 70
     2
177
     2
291
     1
 71
     2
176
     1
 72
     2
176
     1
 73
     1
176
     1
 90
        2
176
     1
 40
-0.6
176
     1
 41
30.0
176
     1
 62
     5
 63
     7
421
 16777215
176
     1
 74
     0
176
     1
 91
        4
176
     1
 64
     7
176
     1
 65
   257
176
     1
 75
     1
176
     1
175
     1
176
     1
 42
1.0
176
     1
 92
        0
176
     1
 66
     7
176
     1
 43
1.0
176
     1
 76
     1
176
     1
 77
     6
176
     1
 78
     2
176
     1
 67
     7
176
     1
 79
     5
176
     1
170
     0
176
     1
171
     0
176
     1
290
     0
176
     1
 93
       13
176
     1
 44
0.0
176
     1
173
     0
176
     1
  0
VISUALSTYLE
  5
2E
102
{ACAD_REACTORS
330
2A
102
}
330
2A
100
AcDbVisualStyle
  2
GouraudWithEdges
 70
     3
177
     2
291
     1
 71
     2
176
     1
 72
     2
176
     1
 73
     1
176
     1
 90
        2
176
     1
 40
-0.6
176
     1
 41
30.0
176
     1
 62
     5
 63
     7
421
 16777215
176
     1
 74
     1
176
     1
 91
        4
176
     1
 64
     7
176
     1
 65
   257
176
     1
 75
     1
176
     1
175
     1
176
     1
 42
1.0
176
     1
 92
        0
176
     1
 66
   257
176
     1
 43
1.0
176
     1
 76
     1
176
     1
 77
     6
176
     1
 78
     2
176
     1
 67
     7
176
     1
 79
     5
176
     1
170
     0
176
     1
171
     0
176
     1
290
     0
176
     1
 93
       13
176
     1
 44
0.0
176
     1
173
     0
176
     1
  0
VISUALSTYLE
  5
38
102
{ACAD_REACTORS
330
2A
102
}
330
2A
100
AcDbVisualStyle
  2
Linepattern
 70
    14
177
     2
291
     1
 71
     2
176
     1
 72
     2
176
     1
 73
     0
176
     1
 90
        0
176
     1
 40
-0.6
176
     1
 41
-30.0
176
     1
 62
     5
 63
     7
421
 16777215
176
     1
 74
     1
176
     1
 91
        4
176
     1
 64
     7
176
     1
 65
   257
176
     1
 75
     7
176
     1
175
     7
176
     1
 42
1.0
176
     1
 92
        8
176
     1
 66
     7
176
     1
 43
1.0
176
     1
 76
     1
176
     1
 77
     6
176
     1
 78
     2
176
     1
 67
     7
176
     1
 79
     5
176
     1
170
     0
176
     1
171
     0
176
     1
290
     0
176
     1
 93
        1
176
     1
 44
0.0
176
     1
173
     0
176
     1
  0
VISUALSTYLE
  5
33
102
{ACAD_REACTORS
330
2A
102
}
330
2A
100
AcDbVisualStyle
  2
Realistic
 70
     8
177
     2
291
     0
 71
     2
176
     1
 72
     2
176
     1
 73
     0
176
     1
 90
        0
176
     1
 40
-0.6
176
     1
 41
-30.0
176
     1
 62
     5
 63
     7
421
 16777215
176
     1
 74
     1
176
     1
 91
        0
176
     1
 64
     7
176
     1
 65
   257
176
     1
 75
     1
176
     1
175
     1
176
     1
 42
1.0
176
     1
 92
        8
176
     1
 66
     8
424
  7895160
176
     1
 43
1.0
176
     1
 76
     1
176
     1
 77
     6
176
     1
 78
     2
176
     1
 67
     7
176
     1
 79
     5
176
     1
170
     0
176
     1
171
     0
176
     1
290
     0
176
     1
 93
       13
176
     1
 44
0.0
176
     1
173
     0
176
     1
  0
VISUALSTYLE
  5
37
102
{ACAD_REACTORS
330
2A
102
}
330
2A
100
AcDbVisualStyle
  2
Thicken
 70
    13
177
     2
291
     1
 71
     2
176
     1
 72
     2
176
     1
 73
     0
176
     1
 90
        0
176
     1
 40
-0.6
176
     1
 41
-30.0
176
     1
 62
     5
 63
     7
421
 16777215
176
     1
 74
     1
176
     1
 91
        4
176
     1
 64
     7
176
     1
 65
   257
176
     1
 75
     1
176
     1
175
     1
176
     1
 42
1.0
176
     1
 92
       12
176
     1
 66
     7
176
     1
 43
1.0
176
     1
 76
     1
176
     1
 77
     6
176
     1
 78
     2
176
     1
 67
     7
176
     1
 79
     5
176
     1
170
     0
176
     1
171
     0
176
     1
290
     0
176
     1
 93
        1
176
     1
 44
0.0
176
     1
173
     0
176
     1
  0
ENDSEC
  0
EOF
