  0
SECTION
  2
HEADER
  9
$ACADVER
  1
AC1024
  9
$ACADMAINTVER
 70
     6
  9
$DWGCODEPAGE
  3
ANSI_932
  9
$INSBASE
 10
0.0
 20
0.0
 30
0.0
  9
$EXTMIN
 10
-4455.0
 20
-3150.0
 30
0.0
  9
$EXTMAX
 10
4455.0
 20
3150.0
 30
0.0
  9
$LIMMIN
 10
-4455.0
 20
-3150.0
  9
$LIMMAX
 10
4455.0
 20
3150.0
  9
$ORTHOMODE
 70
     0
  9
$REGENMODE
 70
     1
  9
$FILLMODE
 70
     1
  9
$QTEXTMODE
 70
     0
  9
$MIRRTEXT
 70
     1
  9
$LTSCALE
 40
30.0
  9
$ATTMODE
 70
     1
  9
$TEXTSIZE
 40
2.5
  9
$TRACEWID
 40
1.0
  9
$TEXTSTYLE
  7
Standard
  9
$CLAYER
  8
0
  9
$CELTYPE
  6
ByLayer
  9
$CECOLOR
 62
   256
  9
$CELTSCALE
 40
1.0
  9
$DISPSILH
 70
     0
  9
$DIMSCALE
 40
1.0
  9
$DIMASZ
 40
2.5
  9
$DIMEXO
 40
0.625
  9
$DIMDLI
 40
3.75
  9
$DIMRND
 40
0.0
  9
$DIMDLE
 40
0.0
  9
$DIMEXE
 40
1.25
  9
$DIMTP
 40
0.0
  9
$DIMTM
 40
0.0
  9
$DIMTXT
 40
2.5
  9
$DIMCEN
 40
2.5
  9
$DIMTSZ
 40
0.0
  9
$DIMTOL
 70
     0
  9
$DIMLIM
 70
     0
  9
$DIMTIH
 70
     0
  9
$DIMTOH
 70
     0
  9
$DIMSE1
 70
     0
  9
$DIMSE2
 70
     0
  9
$DIMTAD
 70
     1
  9
$DIMZIN
 70
     8
  9
$DIMBLK
  1

  9
$DIMASO
 70
     1
  9
$DIMSHO
 70
     1
  9
$DIMPOST
  1

  9
$DIMAPOST
  1

  9
$DIMALT
 70
     0
  9
$DIMALTD
 70
     3
  9
$DIMALTF
 40
0.03937007874016
  9
$DIMLFAC
 40
1.0
  9
$DIMTOFL
 70
     1
  9
$DIMTVP
 40
0.0
  9
$DIMTIX
 70
     0
  9
$DIMSOXD
 70
     0
  9
$DIMSAH
 70
     0
  9
$DIMBLK1
  1

  9
$DIMBLK2
  1

  9
$DIMSTYLE
  2
ISO-25
  9
$DIMCLRD
 70
     0
  9
$DIMCLRE
 70
     0
  9
$DIMCLRT
 70
     0
  9
$DIMTFAC
 40
1.0
  9
$DIMGAP
 40
0.625
  9
$DIMJUST
 70
     0
  9
$DIMSD1
 70
     0
  9
$DIMSD2
 70
     0
  9
$DIMTOLJ
 70
     0
  9
$DIMTZIN
 70
     8
  9
$DIMALTZ
 70
     0
  9
$DIMALTTZ
 70
     0
  9
$DIMUPT
 70
     0
  9
$DIMDEC
 70
     2
  9
$DIMTDEC
 70
     2
  9
$DIMALTU
 70
     2
  9
$DIMALTTD
 70
     3
  9
$DIMTXSTY
  7
Standard
  9
$DIMAUNIT
 70
     0
  9
$DIMADEC
 70
     0
  9
$DIMALTRND
 40
0.0
  9
$DIMAZIN
 70
     0
  9
$DIMDSEP
 70
    44
  9
$DIMATFIT
 70
     3
  9
$DIMFRAC
 70
     0
  9
$DIMLDRBLK
  1

  9
$DIMLUNIT
 70
     2
  9
$DIMLWD
 70
    -2
  9
$DIMLWE
 70
    -2
  9
$DIMTMOVE
 70
     0
  9
$DIMFXL
 40
1.0
  9
$DIMFXLON
 70
     0
  9
$DIMJOGANG
 40
0.7853981633974483
  9
$DIMTFILL
 70
     0
  9
$DIMTFILLCLR
 70
     0
  9
$DIMARCSYM
 70
     0
  9
$DIMLTYPE
  6

  9
$DIMLTEX1
  6

  9
$DIMLTEX2
  6

  9
$DIMTXTDIRECTION
 70
     0
  9
$LUNITS
 70
     2
  9
$LUPREC
 70
     4
  9
$SKETCHINC
 40
1.0
  9
$FILLETRAD
 40
10.0
  9
$AUNITS
 70
     0
  9
$AUPREC
 70
     0
  9
$MENU
  1
.
  9
$ELEVATION
 40
0.0
  9
$PELEVATION
 40
0.0
  9
$THICKNESS
 40
0.0
  9
$LIMCHECK
 70
     0
  9
$CHAMFERA
 40
10.0
  9
$CHAMFERB
 40
10.0
  9
$CHAMFERC
 40
20.0
  9
$CHAMFERD
 40
0.0
  9
$SKPOLY
 70
     0
  9
$TDCREATE
 40
2457953.400701019
  9
$TDUCREATE
 40
2457953.025701019
  9
$TDUPDATE
 40
2457953.40070103
  9
$TDUUPDATE
 40
2457953.02570103
  9
$TDINDWG
 40
0.0000000116
  9
$TDUSRTIMER
 40
0.0000000116
  9
$USRTIMER
 70
     1
  9
$ANGBASE
 50
0.0
  9
$ANGDIR
 70
     0
  9
$PDMODE
 70
     0
  9
$PDSIZE
 40
0.0
  9
$PLINEWID
 40
0.0
  9
$SPLFRAME
 70
     0
  9
$SPLINETYPE
 70
     6
  9
$SPLINESEGS
 70
     8
  9
$HANDSEED
  5
434
  9
$SURFTAB1
 70
     6
  9
$SURFTAB2
 70
     6
  9
$SURFTYPE
 70
     6
  9
$SURFU
 70
     6
  9
$SURFV
 70
     6
  9
$UCSBASE
  2

  9
$UCSNAME
  2

  9
$UCSORG
 10
0.0
 20
0.0
 30
0.0
  9
$UCSXDIR
 10
1.0
 20
0.0
 30
0.0
  9
$UCSYDIR
 10
0.0
 20
1.0
 30
0.0
  9
$UCSORTHOREF
  2

  9
$UCSORTHOVIEW
 70
     0
  9
$UCSORGTOP
 10
0.0
 20
0.0
 30
0.0
  9
$UCSORGBOTTOM
 10
0.0
 20
0.0
 30
0.0
  9
$UCSORGLEFT
 10
0.0
 20
0.0
 30
0.0
  9
$UCSORGRIGHT
 10
0.0
 20
0.0
 30
0.0
  9
$UCSORGFRONT
 10
0.0
 20
0.0
 30
0.0
  9
$UCSORGBACK
 10
0.0
 20
0.0
 30
0.0
  9
$PUCSBASE
  2

  9
$PUCSNAME
  2

  9
$PUCSORG
 10
0.0
 20
0.0
 30
0.0
  9
$PUCSXDIR
 10
1.0
 20
0.0
 30
0.0
  9
$PUCSYDIR
 10
0.0
 20
1.0
 30
0.0
  9
$PUCSORTHOREF
  2

  9
$PUCSORTHOVIEW
 70
     0
  9
$PUCSORGTOP
 10
0.0
 20
0.0
 30
0.0
  9
$PUCSORGBOTTOM
 10
0.0
 20
0.0
 30
0.0
  9
$PUCSORGLEFT
 10
0.0
 20
0.0
 30
0.0
  9
$PUCSORGRIGHT
 10
0.0
 20
0.0
 30
0.0
  9
$PUCSORGFRONT
 10
0.0
 20
0.0
 30
0.0
  9
$PUCSORGBACK
 10
0.0
 20
0.0
 30
0.0
  9
$USERI1
 70
     0
  9
$USERI2
 70
     0
  9
$USERI3
 70
     0
  9
$USERI4
 70
     0
  9
$USERI5
 70
     0
  9
$USERR1
 40
0.0
  9
$USERR2
 40
0.0
  9
$USERR3
 40
0.0
  9
$USERR4
 40
0.0
  9
$USERR5
 40
0.0
  9
$WORLDVIEW
 70
     1
  9
$SHADEDGE
 70
     3
  9
$SHADEDIF
 70
    70
  9
$TILEMODE
 70
     1
  9
$MAXACTVP
 70
    64
  9
$PINSBASE
 10
0.0
 20
0.0
 30
0.0
  9
$PLIMCHECK
 70
     0
  9
$PEXTMIN
 10
1.000000000000000E+20
 20
1.000000000000000E+20
 30
1.000000000000000E+20
  9
$PEXTMAX
 10
-1.000000000000000E+20
 20
-1.000000000000000E+20
 30
-1.000000000000000E+20
  9
$PLIMMIN
 10
0.0
 20
0.0
  9
$PLIMMAX
 10
420.0
 20
297.0
  9
$UNITMODE
 70
     0
  9
$VISRETAIN
 70
     1
  9
$PLINEGEN
 70
     0
  9
$PSLTSCALE
 70
     1
  9
$TREEDEPTH
 70
  3020
  9
$CMLSTYLE
  2
Standard
  9
$CMLJUST
 70
     0
  9
$CMLSCALE
 40
20.0
  9
$PROXYGRAPHICS
 70
     1
  9
$MEASUREMENT
 70
     1
  9
$CELWEIGHT
370
    -1
  9
$ENDCAPS
280
     0
  9
$JOINSTYLE
280
     0
  9
$LWDISPLAY
290
     0
  9
$INSUNITS
 70
     4
  9
$HYPERLINKBASE
  1

  9
$STYLESHEET
  1

  9
$XEDIT
290
     1
  9
$CEPSNTYPE
380
     0
  9
$PSTYLEMODE
290
     1
  9
$FINGERPRINTGUID
  2
{BC018412-1993-426A-8A75-95D77EFCBFF3}
  9
$VERSIONGUID
  2
{FAEB1C32-E019-11D5-929B-00C0DF256EC4}
  9
$EXTNAMES
290
     1
  9
$PSVPSCALE
 40
0.0
  9
$OLESTARTUP
290
     0
  9
$SORTENTS
280
   127
  9
$INDEXCTL
280
     0
  9
$HIDETEXT
280
     1
  9
$XCLIPFRAME
280
     2
  9
$HALOGAP
280
     0
  9
$OBSCOLOR
 70
   257
  9
$OBSLTYPE
280
     0
  9
$INTERSECTIONDISPLAY
280
     0
  9
$INTERSECTIONCOLOR
 70
   257
  9
$DIMASSOC
280
     2
  9
$PROJECTNAME
  1

  9
$CAMERADISPLAY
290
     0
  9
$LENSLENGTH
 40
50.0
  9
$CAMERAHEIGHT
 40
0.0
  9
$STEPSPERSEC
 40
2.0
  9
$STEPSIZE
 40
6.0
  9
$3DDWFPREC
 40
2.0
  9
$PSOLWIDTH
 40
5.0
  9
$PSOLHEIGHT
 40
80.0
  9
$LOFTANG1
 40
1.570796326794897
  9
$LOFTANG2
 40
1.570796326794897
  9
$LOFTMAG1
 40
0.0
  9
$LOFTMAG2
 40
0.0
  9
$LOFTPARAM
 70
     7
  9
$LOFTNORMALS
280
     1
  9
$LATITUDE
 40
37.795
  9
$LONGITUDE
 40
-122.394
  9
$NORTHDIRECTION
 40
0.0
  9
$TIMEZONE
 70
 -8000
  9
$LIGHTGLYPHDISPLAY
280
     1
  9
$TILEMODELIGHTSYNCH
280
     1
  9
$SOLIDHIST
280
     1
  9
$SHOWHIST
280
     1
  9
$DWFFRAME
280
     2
  9
$DGNFRAME
280
     2
  9
$REALWORLDSCALE
290
     1
  9
$INTERFERECOLOR
 62
   256
  9
$CSHADOW
280
     0
  9
$SHADOWPLANELOCATION
 40
0.0
  0
ENDSEC
  0
SECTION
  2
CLASSES
  0
CLASS
  1
ACDBDICTIONARYWDFLT
  2
AcDbDictionaryWithDefault
  3
ObjectDBX Classes
 90
        0
 91
        4
280
     0
281
     0
  0
CLASS
  1
VISUALSTYLE
  2
AcDbVisualStyle
  3
ObjectDBX Classes
 90
     4095
 91
        4
280
     0
281
     0
  0
CLASS
  1
MATERIAL
  2
AcDbMaterial
  3
ObjectDBX Classes
 90
     1153
 91
        4
280
     0
281
     0
  0
ENDSEC
  0
SECTION
  2
TABLES
  0
TABLE
  2
VPORT
  5
8
330
0
100
AcDbSymbolTable
 70
     1
  0
VPORT
  5
29
330
8
100
AcDbSymbolTableRecord
100
AcDbViewportTableRecord
  2
*Active
 70
     0
 10
0.0
 20
0.0
 11
1.0
 21
1.0
 12
0.0
 22
0.0
 13
0.0
 23
0.0
 14
10.0
 24
10.0
 15
10.0
 25
10.0
 16
0.0
 26
0.0
 36
1.0
 17
0.0
 27
0.0
 37
0.0
 40
6930.000000000001
 41
1.414285714285714
 42
50.0
 43
0.0
 44
0.0
 50
0.0
 51
0.0
 71
     0
 72
 10000
 73
     1
 74
     3
 75
     0
 76
     0
 77
     0
 78
     0
281
     0
 65
     1
110
0.0
120
0.0
130
0.0
111
1.0
121
0.0
131
0.0
112
0.0
122
1.0
132
0.0
 79
     0
146
0.0
 60
     3
 61
     5
292
     1
282
     1
141
0.0
142
0.0
 63
   250
  0
ENDTAB
  0
TABLE
  2
LTYPE
  5
5
330
0
100
AcDbSymbolTable
 70
     2
  0
LTYPE
  5
14
330
5
100
AcDbSymbolTableRecord
100
AcDbLinetypeTableRecord
  2
ByBlock
 70
     0
  3

 72
    65
 73
     0
 40
0.0
  0
LTYPE
  5
15
330
5
100
AcDbSymbolTableRecord
100
AcDbLinetypeTableRecord
  2
ByLayer
 70
     0
  3

 72
    65
 73
     0
 40
0.0
  0
LTYPE
  5
16
330
5
100
AcDbSymbolTableRecord
100
AcDbLinetypeTableRecord
  2
Continuous
 70
     0
  3
Solid line
 72
    65
 73
     0
 40
0.0
  0
LTYPE
  5
3F
330
5
100
AcDbSymbolTableRecord
100
AcDbLinetypeTableRecord
  2
JWW_DASHED1
 70
     0
  3
-  --  --  --  --  --  --  --  -
 72
    65
 73
     2
 40
1.693333333333333
 49
0.8466666666666667
 74
     0
 49
-0.8466666666666667
 74
     0
  0
ENDTAB
  0
TABLE
  2
LAYER
  5
2
330
0
100
AcDbSymbolTable
 70
     3
  0
LAYER
  5
10
330
2
100
AcDbSymbolTableRecord
100
AcDbLayerTableRecord
  2
0
 70
     0
 62
     7
  6
Continuous
370
    -3
390
F
347
3E
  0
LAYER
  5
40
330
2
100
AcDbSymbolTableRecord
100
AcDbLayerTableRecord
  2
0-0
 70
     0
 62
     7
  6
Continuous
370
    -3
390
F
347
3E
  0
LAYER
  5
41
330
2
100
AcDbSymbolTableRecord
100
AcDbLayerTableRecord
  2
寸法
 70
     0
 62
     7
  6
Continuous
370
    -3
390
F
347
3E
  0
ENDTAB
  0
TABLE
  2
STYLE
  5
3
330
0
100
AcDbSymbolTable
 70
     1
  0
STYLE
  5
11
330
3
100
AcDbSymbolTableRecord
100
AcDbTextStyleTableRecord
  2
Standard
 70
     0
 40
0.0
 41
1.0
 50
0.0
 71
     0
 42
2.5
  3
txt
  4

  0
ENDTAB
  0
TABLE
  2
VIEW
  5
6
330
0
100
AcDbSymbolTable
 70
     0
  0
ENDTAB
  0
TABLE
  2
UCS
  5
7
330
0
100
AcDbSymbolTable
 70
     0
  0
ENDTAB
  0
TABLE
  2
APPID
  5
9
330
0
100
AcDbSymbolTable
 70
     1
  0
APPID
  5
12
330
9
100
AcDbSymbolTableRecord
100
AcDbRegAppTableRecord
  2
ACAD
 70
     0
  0
ENDTAB
  0
TABLE
  2
DIMSTYLE
  5
A
330
0
100
AcDbSymbolTable
 70
     1
100
AcDbDimStyleTable
  0
DIMSTYLE
105
27
330
A
100
AcDbSymbolTableRecord
100
AcDbDimStyleTableRecord
  2
ISO-25
 70
     0
 41
2.5
 42
0.625
 43
3.75
 44
1.25
 73
     0
 74
     0
 77
     1
 78
     8
140
2.5
141
2.5
143
0.03937007874016
147
0.625
171
     3
172
     1
178
     0
271
     2
272
     2
274
     3
278
    44
283
     0
284
     8
340
11
  0
ENDTAB
  0
TABLE
  2
BLOCK_RECORD
  5
1
330
0
100
AcDbSymbolTable
 70
     1
  0
BLOCK_RECORD
  5
1F
330
1
100
AcDbSymbolTableRecord
100
AcDbBlockTableRecord
  2
*Model_Space
340
22
 70
     0
280
     1
281
     0
  0
BLOCK_RECORD
  5
1B
330
1
100
AcDbSymbolTableRecord
100
AcDbBlockTableRecord
  2
*Paper_Space
340
1E
 70
     0
280
     1
281
     0
  0
BLOCK_RECORD
  5
23
330
1
100
AcDbSymbolTableRecord
100
AcDbBlockTableRecord
  2
*Paper_Space0
340
26
 70
     0
280
     1
281
     0
  0
ENDTAB
  0
ENDSEC
  0
SECTION
  2
BLOCKS
  0
BLOCK
  5
20
330
1F
100
AcDbEntity
  8
0
100
AcDbBlockBegin
  2
*Model_Space
 70
     0
 10
0.0
 20
0.0
 30
0.0
  3
*Model_Space
  1

  0
ENDBLK
  5
21
330
1F
100
AcDbEntity
  8
0
100
AcDbBlockEnd
  0
BLOCK
  5
1C
330
1B
100
AcDbEntity
 67
     1
  8
0
100
AcDbBlockBegin
  2
*Paper_Space
 70
     0
 10
0.0
 20
0.0
 30
0.0
  3
*Paper_Space
  1

  0
ENDBLK
  5
1D
330
1B
100
AcDbEntity
 67
     1
  8
0
100
AcDbBlockEnd
  0
BLOCK
  5
24
330
23
100
AcDbEntity
  8
0
100
AcDbBlockBegin
  2
*Paper_Space0
 70
     0
 10
0.0
 20
0.0
 30
0.0
  3
*Paper_Space0
  1

  0
ENDBLK
  5
25
330
23
100
AcDbEntity
  8
0
100
AcDbBlockEnd
  0
ENDSEC
  0
SECTION
  2
ENTITIES
  0
LINE
  5
42
330
1F
100
AcDbEntity
  8
0-0
  6
Continuous
 62
    92
370
    13
100
AcDbLine
 10
1639.808669581683
 20
-1071.973356370268
 30
0.0
 11
-1594.191330418315
 21
-1071.973356370268
 31
0.0
  0
LINE
  5
43
330
1F
100
AcDbEntity
  8
0-0
  6
Continuous
 62
    92
370
    13
100
AcDbLine
 10
1609.808669581683
 20
-1056.973356370268
 30
0.0
 11
-1564.191330418315
 21
-1056.973356370268
 31
0.0
  0
ARC
  5
44
330
1F
100
AcDbEntity
  8
0-0
  6
Continuous
 62
    92
370
    13
100
AcDbCircle
 10
-1535.691330418314
 20
-34.97335637026779
 30
0.0
 40
1.5
100
AcDbArc
 50
90.0
 51
180.0
  0
LINE
  5
45
330
1F
100
AcDbEntity
  8
0-0
  6
Continuous
 62
    92
370
    13
100
AcDbLine
 10
-1496.691330418315
 20
-33.47335637026745
 30
0.0
 11
-1535.691330418314
 21
-33.47335637026745
 31
0.0
  0
ARC
  5
46
330
1F
100
AcDbEntity
  8
0-0
  6
Continuous
 62
    92
370
    13
100
AcDbCircle
 10
-1496.691330418315
 20
-34.97335637026779
 30
0.0
 40
1.5
100
AcDbArc
 50
0.0
 51
90.00000000000001
  0
LINE
  5
47
330
1F
100
AcDbEntity
  8
0-0
  6
Continuous
 62
    92
370
    13
100
AcDbLine
 10
-1495.191330418315
 20
-153.973356370267
 30
0.0
 11
-1495.191330418315
 21
-34.97335637026779
 31
0.0
  0
ARC
  5
48
330
1F
100
AcDbEntity
  8
0-0
  6
Continuous
 62
    92
370
    13
100
AcDbCircle
 10
-1496.691330418315
 20
-153.973356370267
 30
0.0
 40
1.5
100
AcDbArc
 50
270.0
 51
0.0
  0
LINE
  5
49
330
1F
100
AcDbEntity
  8
0-0
  6
Continuous
 62
    92
370
    13
100
AcDbLine
 10
-1535.691330418314
 20
-155.473356370269
 30
0.0
 11
-1496.691330418315
 21
-155.473356370269
 31
0.0
  0
LINE
  5
4A
330
1F
100
AcDbEntity
  8
0-0
  6
Continuous
 62
    92
370
    13
100
AcDbLine
 10
-1537.191330418314
 20
-153.973356370267
 30
0.0
 11
-1537.191330418314
 21
-34.97335637026779
 31
0.0
  0
ARC
  5
4B
330
1F
100
AcDbEntity
  8
0-0
  6
Continuous
 62
    92
370
    13
100
AcDbCircle
 10
-1535.691330418314
 20
-153.973356370267
 30
0.0
 40
1.5
100
AcDbArc
 50
180.0
 51
270.0
  0
ARC
  5
4C
330
1F
100
AcDbEntity
  8
0-0
  6
Continuous
 62
     7
370
     9
100
AcDbCircle
 10
-1516.191330418314
 20
-124.0733563702669
 30
0.0
 40
15.0
100
AcDbArc
 50
180.0
 51
0.0
  0
ARC
  5
4D
330
1F
100
AcDbEntity
  8
0-0
  6
Continuous
 62
     7
370
     9
100
AcDbCircle
 10
-1516.191330418314
 20
-64.87335637026703
 30
0.0
 40
15.0
100
AcDbArc
 50
0.0
 51
180.0
  0
LINE
  5
4E
330
1F
100
AcDbEntity
  8
0-0
  6
Continuous
 62
     7
370
     9
100
AcDbLine
 10
-1501.191330418314
 20
-124.0733563702669
 30
0.0
 11
-1501.191330418314
 21
-64.87335637026703
 31
0.0
  0
LINE
  5
4F
330
1F
100
AcDbEntity
  8
0-0
  6
Continuous
 62
     7
370
     9
100
AcDbLine
 10
-1531.191330418314
 20
-64.87335637026703
 30
0.0
 11
-1531.191330418314
 21
-124.0733563702669
 31
0.0
  0
ARC
  5
50
330
1F
100
AcDbEntity
  8
0-0
  6
Continuous
 62
    92
370
    13
100
AcDbCircle
 10
-47.6913304183131
 20
-34.97335637026779
 30
0.0
 40
1.5
100
AcDbArc
 50
90.0
 51
180.0
  0
LINE
  5
51
330
1F
100
AcDbEntity
  8
0-0
  6
Continuous
 62
    92
370
    13
100
AcDbLine
 10
-8.691330418314465
 20
-33.47335637026745
 30
0.0
 11
-47.6913304183131
 21
-33.47335637026745
 31
0.0
  0
ARC
  5
52
330
1F
100
AcDbEntity
  8
0-0
  6
Continuous
 62
    92
370
    13
100
AcDbCircle
 10
-8.691330418314465
 20
-34.97335637026779
 30
0.0
 40
1.5
100
AcDbArc
 50
0.0
 51
90.00000000000001
  0
LINE
  5
53
330
1F
100
AcDbEntity
  8
0-0
  6
Continuous
 62
    92
370
    13
100
AcDbLine
 10
-7.191330418314124
 20
-153.973356370267
 30
0.0
 11
-7.191330418314124
 21
-34.97335637026779
 31
0.0
  0
ARC
  5
54
330
1F
100
AcDbEntity
  8
0-0
  6
Continuous
 62
    92
370
    13
100
AcDbCircle
 10
-8.691330418314465
 20
-153.973356370267
 30
0.0
 40
1.5
100
AcDbArc
 50
270.0
 51
0.0
  0
LINE
  5
55
330
1F
100
AcDbEntity
  8
0-0
  6
Continuous
 62
    92
370
    13
100
AcDbLine
 10
-47.6913304183131
 20
-155.473356370269
 30
0.0
 11
-8.691330418314465
 21
-155.473356370269
 31
0.0
  0
LINE
  5
56
330
1F
100
AcDbEntity
  8
0-0
  6
Continuous
 62
    92
370
    13
100
AcDbLine
 10
-49.19133041831344
 20
-153.973356370267
 30
0.0
 11
-49.19133041831344
 21
-34.97335637026779
 31
0.0
  0
ARC
  5
57
330
1F
100
AcDbEntity
  8
0-0
  6
Continuous
 62
    92
370
    13
100
AcDbCircle
 10
-47.6913304183131
 20
-153.973356370267
 30
0.0
 40
1.5
100
AcDbArc
 50
180.0
 51
270.0
  0
ARC
  5
58
330
1F
100
AcDbEntity
  8
0-0
  6
Continuous
 62
     7
370
     9
100
AcDbCircle
 10
-28.19133041831378
 20
-124.0733563702669
 30
0.0
 40
15.0
100
AcDbArc
 50
180.0
 51
0.0
  0
ARC
  5
59
330
1F
100
AcDbEntity
  8
0-0
  6
Continuous
 62
     7
370
     9
100
AcDbCircle
 10
-28.19133041831378
 20
-64.87335637026703
 30
0.0
 40
15.0
100
AcDbArc
 50
0.0
 51
180.0
  0
LINE
  5
5A
330
1F
100
AcDbEntity
  8
0-0
  6
Continuous
 62
     7
370
     9
100
AcDbLine
 10
-13.19133041831378
 20
-124.0733563702669
 30
0.0
 11
-13.19133041831378
 21
-64.87335637026703
 31
0.0
  0
LINE
  5
5B
330
1F
100
AcDbEntity
  8
0-0
  6
Continuous
 62
     7
370
     9
100
AcDbLine
 10
-43.19133041831378
 20
-64.87335637026703
 30
0.0
 11
-43.19133041831378
 21
-124.0733563702669
 31
0.0
  0
ARC
  5
5C
330
1F
100
AcDbEntity
  8
0-0
  6
Continuous
 62
    92
370
    13
100
AcDbCircle
 10
54.30866958168281
 20
-34.97335637026779
 30
0.0
 40
1.5
100
AcDbArc
 50
90.0
 51
180.0
  0
LINE
  5
5D
330
1F
100
AcDbEntity
  8
0-0
  6
Continuous
 62
    92
370
    13
100
AcDbLine
 10
93.30866958168144
 20
-33.47335637026745
 30
0.0
 11
54.30866958168281
 21
-33.47335637026745
 31
0.0
  0
ARC
  5
5E
330
1F
100
AcDbEntity
  8
0-0
  6
Continuous
 62
    92
370
    13
100
AcDbCircle
 10
93.30866958168144
 20
-34.97335637026779
 30
0.0
 40
1.5
100
AcDbArc
 50
0.0
 51
90.00000000000001
  0
LINE
  5
5F
330
1F
100
AcDbEntity
  8
0-0
  6
Continuous
 62
    92
370
    13
100
AcDbLine
 10
94.80866958168178
 20
-153.973356370267
 30
0.0
 11
94.80866958168178
 21
-34.97335637026779
 31
0.0
  0
ARC
  5
60
330
1F
100
AcDbEntity
  8
0-0
  6
Continuous
 62
    92
370
    13
100
AcDbCircle
 10
93.30866958168144
 20
-153.973356370267
 30
0.0
 40
1.5
100
AcDbArc
 50
270.0
 51
0.0
  0
LINE
  5
61
330
1F
100
AcDbEntity
  8
0-0
  6
Continuous
 62
    92
370
    13
100
AcDbLine
 10
54.30866958168281
 20
-155.473356370269
 30
0.0
 11
93.30866958168144
 21
-155.473356370269
 31
0.0
  0
LINE
  5
62
330
1F
100
AcDbEntity
  8
0-0
  6
Continuous
 62
    92
370
    13
100
AcDbLine
 10
52.80866958168247
 20
-153.973356370267
 30
0.0
 11
52.80866958168247
 21
-34.97335637026779
 31
0.0
  0
ARC
  5
63
330
1F
100
AcDbEntity
  8
0-0
  6
Continuous
 62
    92
370
    13
100
AcDbCircle
 10
54.30866958168281
 20
-153.973356370267
 30
0.0
 40
1.5
100
AcDbArc
 50
180.0
 51
270.0
  0
ARC
  5
64
330
1F
100
AcDbEntity
  8
0-0
  6
Continuous
 62
     7
370
     9
100
AcDbCircle
 10
73.80866958168212
 20
-124.0733563702669
 30
0.0
 40
15.0
100
AcDbArc
 50
180.0
 51
0.0
  0
ARC
  5
65
330
1F
100
AcDbEntity
  8
0-0
  6
Continuous
 62
     7
370
     9
100
AcDbCircle
 10
73.80866958168212
 20
-64.87335637026703
 30
0.0
 40
15.0
100
AcDbArc
 50
0.0
 51
180.0
  0
LINE
  5
66
330
1F
100
AcDbEntity
  8
0-0
  6
Continuous
 62
     7
370
     9
100
AcDbLine
 10
88.80866958168212
 20
-124.0733563702669
 30
0.0
 11
88.80866958168212
 21
-64.87335637026703
 31
0.0
  0
LINE
  5
67
330
1F
100
AcDbEntity
  8
0-0
  6
Continuous
 62
     7
370
     9
100
AcDbLine
 10
58.80866958168212
 20
-64.87335637026703
 30
0.0
 11
58.80866958168212
 21
-124.0733563702669
 31
0.0
  0
ARC
  5
68
330
1F
100
AcDbEntity
  8
0-0
  6
Continuous
 62
    92
370
    13
100
AcDbCircle
 10
1542.308669581686
 20
-34.97335637026779
 30
0.0
 40
1.5
100
AcDbArc
 50
90.0
 51
180.0
  0
LINE
  5
69
330
1F
100
AcDbEntity
  8
0-0
  6
Continuous
 62
    92
370
    13
100
AcDbLine
 10
1581.308669581686
 20
-33.47335637026745
 30
0.0
 11
1542.308669581686
 21
-33.47335637026745
 31
0.0
  0
ARC
  5
6A
330
1F
100
AcDbEntity
  8
0-0
  6
Continuous
 62
    92
370
    13
100
AcDbCircle
 10
1581.308669581686
 20
-34.97335637026779
 30
0.0
 40
1.5
100
AcDbArc
 50
0.0
 51
90.00000000000001
  0
LINE
  5
6B
330
1F
100
AcDbEntity
  8
0-0
  6
Continuous
 62
    92
370
    13
100
AcDbLine
 10
1582.808669581686
 20
-153.973356370267
 30
0.0
 11
1582.808669581686
 21
-34.97335637026779
 31
0.0
  0
ARC
  5
6C
330
1F
100
AcDbEntity
  8
0-0
  6
Continuous
 62
    92
370
    13
100
AcDbCircle
 10
1581.308669581686
 20
-153.973356370267
 30
0.0
 40
1.5
100
AcDbArc
 50
270.0
 51
0.0
  0
LINE
  5
6D
330
1F
100
AcDbEntity
  8
0-0
  6
Continuous
 62
    92
370
    13
100
AcDbLine
 10
1542.308669581686
 20
-155.473356370269
 30
0.0
 11
1581.308669581686
 21
-155.473356370269
 31
0.0
  0
LINE
  5
6E
330
1F
100
AcDbEntity
  8
0-0
  6
Continuous
 62
    92
370
    13
100
AcDbLine
 10
1540.808669581686
 20
-153.973356370267
 30
0.0
 11
1540.808669581686
 21
-34.97335637026779
 31
0.0
  0
ARC
  5
6F
330
1F
100
AcDbEntity
  8
0-0
  6
Continuous
 62
    92
370
    13
100
AcDbCircle
 10
1542.308669581686
 20
-153.973356370267
 30
0.0
 40
1.5
100
AcDbArc
 50
180.0
 51
270.0
  0
ARC
  5
70
330
1F
100
AcDbEntity
  8
0-0
  6
Continuous
 62
     7
370
     9
100
AcDbCircle
 10
1561.808669581686
 20
-124.0733563702669
 30
0.0
 40
15.0
100
AcDbArc
 50
180.0
 51
0.0
  0
ARC
  5
71
330
1F
100
AcDbEntity
  8
0-0
  6
Continuous
 62
     7
370
     9
100
AcDbCircle
 10
1561.808669581686
 20
-64.87335637026703
 30
0.0
 40
15.0
100
AcDbArc
 50
0.0
 51
180.0
  0
LINE
  5
72
330
1F
100
AcDbEntity
  8
0-0
  6
Continuous
 62
     7
370
     9
100
AcDbLine
 10
1576.808669581686
 20
-124.0733563702669
 30
0.0
 11
1576.808669581686
 21
-64.87335637026703
 31
0.0
  0
LINE
  5
73
330
1F
100
AcDbEntity
  8
0-0
  6
Continuous
 62
     7
370
     9
100
AcDbLine
 10
1546.808669581686
 20
-64.87335637026703
 30
0.0
 11
1546.808669581686
 21
-124.0733563702669
 31
0.0
  0
LINE
  5
74
330
1F
100
AcDbEntity
  8
0-0
  6
Continuous
 62
    92
370
    13
100
AcDbLine
 10
-1564.191330418315
 20
-1051.973356370268
 30
0.0
 11
22.80866958168417
 21
-1051.973356370268
 31
0.0
  0
LINE
  5
75
330
1F
100
AcDbEntity
  8
0-0
  6
Continuous
 62
    92
370
    13
100
AcDbLine
 10
1609.808669581683
 20
-1051.973356370268
 30
0.0
 11
22.80866958168417
 21
-1051.973356370268
 31
0.0
  0
LINE
  5
76
330
1F
100
AcDbEntity
  8
0-0
  6
JWW_DASHED1
 62
   120
370
     5
100
AcDbLine
 10
-1564.191330418315
 20
-1051.973356370268
 30
0.0
 11
-1567.191330418316
 21
-1051.973356370268
 31
0.0
  0
LINE
  5
77
330
1F
100
AcDbEntity
  8
0-0
  6
JWW_DASHED1
 62
   120
370
     5
100
AcDbLine
 10
1609.808669581683
 20
-1051.973356370268
 30
0.0
 11
1612.808669581684
 21
-1051.973356370268
 31
0.0
  0
LINE
  5
78
330
1F
100
AcDbEntity
  8
0-0
  6
Continuous
 62
    92
370
    13
100
AcDbLine
 10
-1594.191330418315
 20
1175.026643629732
 30
0.0
 11
1639.808669581683
 21
1175.026643629732
 31
0.0
  0
LINE
  5
79
330
1F
100
AcDbEntity
  8
0-0
  6
Continuous
 62
    92
370
    13
100
AcDbLine
 10
-1564.191330418315
 20
1139.026643629731
 30
0.0
 11
1609.808669581683
 21
1139.026643629731
 31
0.0
  0
LINE
  5
7A
330
1F
100
AcDbEntity
  8
0-0
  6
Continuous
 62
    92
370
    13
100
AcDbLine
 10
1609.808669581683
 20
-1071.973356370268
 30
0.0
 11
1609.808669581683
 21
1175.026643629732
 31
0.0
  0
LINE
  5
7B
330
1F
100
AcDbEntity
  8
0-0
  6
Continuous
 62
    92
370
    13
100
AcDbLine
 10
-1564.191330418315
 20
-1071.973356370268
 30
0.0
 11
-1564.191330418315
 21
1175.026643629732
 31
0.0
  0
LINE
  5
7C
330
1F
100
AcDbEntity
  8
0-0
  6
Continuous
 62
    92
370
    13
100
AcDbLine
 10
1639.808669581683
 20
-1071.973356370268
 30
0.0
 11
1639.808669581683
 21
1175.026643629732
 31
0.0
  0
LINE
  5
7D
330
1F
100
AcDbEntity
  8
0-0
  6
Continuous
 62
    92
370
    13
100
AcDbLine
 10
-1594.191330418315
 20
-1071.973356370268
 30
0.0
 11
-1594.191330418315
 21
1175.026643629732
 31
0.0
  0
LINE
  5
7E
330
1F
100
AcDbEntity
  8
0-0
  6
Continuous
 62
    92
370
    13
100
AcDbLine
 10
-787.1913304183158
 20
-1051.973356370268
 30
0.0
 11
-787.1913304183158
 21
1131.026643629732
 31
0.0
  0
LINE
  5
7F
330
1F
100
AcDbEntity
  8
0-0
  6
JWW_DASHED1
 62
   120
370
     5
100
AcDbLine
 10
-757.1913304183158
 20
-1051.973356370268
 30
0.0
 11
-757.1913304183158
 21
1131.026643629732
 31
0.0
  0
LINE
  5
80
330
1F
100
AcDbEntity
  8
0-0
  6
Continuous
 62
    92
370
    13
100
AcDbLine
 10
-1564.191330418315
 20
1131.026643629732
 30
0.0
 11
22.80866958168417
 21
1131.026643629732
 31
0.0
  0
LINE
  5
81
330
1F
100
AcDbEntity
  8
0-0
  6
Continuous
 62
    92
370
    13
100
AcDbLine
 10
22.80866958168417
 20
-1051.973356370268
 30
0.0
 11
22.80866958168417
 21
1131.026643629732
 31
0.0
  0
LINE
  5
82
330
1F
100
AcDbEntity
  8
0-0
  6
Continuous
 62
    92
370
    13
100
AcDbLine
 10
832.8086695816842
 20
-1051.973356370268
 30
0.0
 11
832.8086695816842
 21
1131.026643629732
 31
0.0
  0
LINE
  5
83
330
1F
100
AcDbEntity
  8
0-0
  6
JWW_DASHED1
 62
   120
370
     5
100
AcDbLine
 10
802.8086695816842
 20
-1051.973356370268
 30
0.0
 11
802.8086695816842
 21
1131.026643629732
 31
0.0
  0
LINE
  5
84
330
1F
100
AcDbEntity
  8
0-0
  6
Continuous
 62
    92
370
    13
100
AcDbLine
 10
1609.808669581683
 20
1131.026643629732
 30
0.0
 11
22.80866958168417
 21
1131.026643629732
 31
0.0
  0
LINE
  5
85
330
1F
100
AcDbEntity
  8
0-0
  6
JWW_DASHED1
 62
   120
370
     5
100
AcDbLine
 10
-1567.191330418316
 20
-1051.973356370268
 30
0.0
 11
-1567.191330418316
 21
1131.026643629732
 31
0.0
  0
LINE
  5
86
330
1F
100
AcDbEntity
  8
0-0
  6
JWW_DASHED1
 62
   120
370
     5
100
AcDbLine
 10
-1567.191330418316
 20
1131.026643629732
 30
0.0
 11
-1564.191330418315
 21
1131.026643629732
 31
0.0
  0
LINE
  5
87
330
1F
100
AcDbEntity
  8
0-0
  6
JWW_DASHED1
 62
   120
370
     5
100
AcDbLine
 10
1612.808669581684
 20
-1051.973356370268
 30
0.0
 11
1612.808669581684
 21
1131.026643629732
 31
0.0
  0
LINE
  5
88
330
1F
100
AcDbEntity
  8
0-0
  6
JWW_DASHED1
 62
   120
370
     5
100
AcDbLine
 10
1612.808669581684
 20
1131.026643629732
 30
0.0
 11
1609.808669581683
 21
1131.026643629732
 31
0.0
  0
LINE
  5
89
330
1F
100
AcDbEntity
  8
0-0
  6
Continuous
 62
     7
370
     9
100
AcDbLine
 10
-1181.191330418318
 20
-1043.973356370268
 30
0.0
 11
-1143.191330418318
 21
-1043.973356370268
 31
0.0
  0
LINE
  5
8A
330
1F
100
AcDbEntity
  8
0-0
  6
JWW_DASHED1
 62
   120
370
     5
100
AcDbLine
 10
-1181.191330418318
 20
-1007.176057208855
 30
0.0
 11
-1143.191330418321
 21
-969.1760572088548
 31
0.0
  0
LINE
  5
8B
330
1F
100
AcDbEntity
  8
0-0
  6
JWW_DASHED1
 62
   120
370
     5
100
AcDbLine
 10
-1181.191330418318
 20
-997.276562273693
 30
0.0
 11
-1143.191330418318
 21
-959.27656227369
 31
0.0
  0
LINE
  5
8C
330
1F
100
AcDbEntity
  8
0-0
  6
JWW_DASHED1
 62
   120
370
     5
100
AcDbLine
 10
-1181.191330418318
 20
-987.3770673384745
 30
0.0
 11
-1143.191330418311
 21
-949.3770673384661
 31
0.0
  0
LINE
  5
8D
330
1F
100
AcDbEntity
  8
0-0
  6
JWW_DASHED1
 62
   120
370
     5
100
AcDbLine
 10
-1181.191330418318
 20
-977.4775724032622
 30
0.0
 11
-1143.191330418318
 21
-939.4775724032578
 31
0.0
  0
LINE
  5
8E
330
1F
100
AcDbEntity
  8
0-0
  6
JWW_DASHED1
 62
   120
370
     5
100
AcDbLine
 10
-1181.191330418318
 20
-967.5780774680936
 30
0.0
 11
-1143.191330418314
 21
-929.578077468093
 31
0.0
  0
LINE
  5
8F
330
1F
100
AcDbEntity
  8
0-0
  6
JWW_DASHED1
 62
   120
370
     5
100
AcDbLine
 10
-1181.191330418318
 20
-957.6785825328797
 30
0.0
 11
-1143.191330418324
 21
-919.6785825328848
 31
0.0
  0
LINE
  5
90
330
1F
100
AcDbEntity
  8
0-0
  6
JWW_DASHED1
 62
   120
370
     5
100
AcDbLine
 10
-1181.191330418318
 20
-947.7790875976611
 30
0.0
 11
-1143.191330418314
 21
-909.7790875976609
 31
0.0
  0
LINE
  5
91
330
1F
100
AcDbEntity
  8
0-0
  6
JWW_DASHED1
 62
   120
370
     5
100
AcDbLine
 10
-1181.191330418318
 20
-937.8795926625
 30
0.0
 11
-1143.191330418311
 21
-899.879592662496
 31
0.0
  0
LINE
  5
92
330
1F
100
AcDbEntity
  8
0-0
  6
JWW_DASHED1
 62
   120
370
     5
100
AcDbLine
 10
-1181.191330418318
 20
-927.9800977272862
 30
0.0
 11
-1143.191330418321
 21
-889.9800977272879
 31
0.0
  0
LINE
  5
93
330
1F
100
AcDbEntity
  8
0-0
  6
JWW_DASHED1
 62
   120
370
     5
100
AcDbLine
 10
-1181.191330418318
 20
-918.0806027920688
 30
0.0
 11
-1143.191330418311
 21
-880.0806027920639
 31
0.0
  0
LINE
  5
94
330
1F
100
AcDbEntity
  8
0-0
  6
JWW_DASHED1
 62
   120
370
     5
100
AcDbLine
 10
-1181.191330418318
 20
-908.1811078569061
 30
0.0
 11
-1143.191330418324
 21
-870.1811078569149
 31
0.0
  0
LINE
  5
95
330
1F
100
AcDbEntity
  8
0-0
  6
JWW_DASHED1
 62
   120
370
     5
100
AcDbLine
 10
-1181.191330418318
 20
-898.2816129216926
 30
0.0
 11
-1143.191330418318
 21
-860.2816129216912
 31
0.0
  0
LINE
  5
96
330
1F
100
AcDbEntity
  8
0-0
  6
JWW_DASHED1
 62
   120
370
     5
100
AcDbLine
 10
-1181.191330418318
 20
-888.3821179864785
 30
0.0
 11
-1143.191330418311
 21
-850.3821179864673
 31
0.0
  0
LINE
  5
97
330
1F
100
AcDbEntity
  8
0-0
  6
JWW_DASHED1
 62
   120
370
     5
100
AcDbLine
 10
-1181.191330418318
 20
-878.4826230513153
 30
0.0
 11
-1143.191330418324
 21
-840.4826230513181
 31
0.0
  0
LINE
  5
98
330
1F
100
AcDbEntity
  8
0-0
  6
JWW_DASHED1
 62
   120
370
     5
100
AcDbLine
 10
-1181.191330418318
 20
-868.583128116103
 30
0.0
 11
-1143.191330418318
 21
-830.583128116094
 31
0.0
  0
LINE
  5
99
330
1F
100
AcDbEntity
  8
0-0
  6
JWW_DASHED1
 62
   120
370
     5
100
AcDbLine
 10
-1181.191330418318
 20
-858.6836331809299
 30
0.0
 11
-1143.191330418311
 21
-820.6836331809295
 31
0.0
  0
LINE
  5
9A
330
1F
100
AcDbEntity
  8
0-0
  6
JWW_DASHED1
 62
   120
370
     5
100
AcDbLine
 10
-1181.191330418318
 20
-848.7841382457148
 30
0.0
 11
-1143.191330418321
 21
-810.784138245721
 31
0.0
  0
LINE
  5
9B
330
1F
100
AcDbEntity
  8
0-0
  6
JWW_DASHED1
 62
   120
370
     5
100
AcDbLine
 10
-1181.191330418318
 20
-838.8846433105025
 30
0.0
 11
-1143.191330418314
 21
-800.8846433104973
 31
0.0
  0
LINE
  5
9C
330
1F
100
AcDbEntity
  8
0-0
  6
JWW_DASHED1
 62
   120
370
     5
100
AcDbLine
 10
-1181.191330418318
 20
-828.9851483753407
 30
0.0
 11
-1143.191330418311
 21
-790.9851483753321
 31
0.0
  0
LINE
  5
9D
330
1F
100
AcDbEntity
  8
0-0
  6
JWW_DASHED1
 62
   120
370
     5
100
AcDbLine
 10
-1181.191330418318
 20
-819.0856534401207
 30
0.0
 11
-1143.191330418318
 21
-781.0856534401242
 31
0.0
  0
LINE
  5
9E
330
1F
100
AcDbEntity
  8
0-0
  6
JWW_DASHED1
 62
   120
370
     5
100
AcDbLine
 10
-1181.191330418318
 20
-809.1861585049091
 30
0.0
 11
-1143.191330418311
 21
-771.1861585049004
 31
0.0
  0
LINE
  5
9F
330
1F
100
AcDbEntity
  8
0-0
  6
JWW_DASHED1
 62
   120
370
     5
100
AcDbLine
 10
-1181.191330418318
 20
-799.286663569746
 30
0.0
 11
-1143.191330418324
 21
-761.2866635697512
 31
0.0
  0
LINE
  5
A0
330
1F
100
AcDbEntity
  8
0-0
  6
JWW_DASHED1
 62
   120
370
     5
100
AcDbLine
 10
-1181.191330418318
 20
-789.3871686345318
 30
0.0
 11
-1143.191330418318
 21
-751.3871686345274
 31
0.0
  0
LINE
  5
A1
330
1F
100
AcDbEntity
  8
0-0
  6
JWW_DASHED1
 62
   120
370
     5
100
AcDbLine
 10
-1181.191330418318
 20
-779.4876736993164
 30
0.0
 11
-1143.191330418324
 21
-741.4876736993193
 31
0.0
  0
LINE
  5
A2
330
1F
100
AcDbEntity
  8
0-0
  6
JWW_DASHED1
 62
   120
370
     5
100
AcDbLine
 10
-1181.191330418318
 20
-769.5881787641526
 30
0.0
 11
-1143.191330418321
 21
-731.5881787641543
 31
0.0
  0
LINE
  5
A3
330
1F
100
AcDbEntity
  8
0-0
  6
JWW_DASHED1
 62
   120
370
     5
100
AcDbLine
 10
-1181.191330418318
 20
-759.688683828938
 30
0.0
 11
-1143.191330418314
 21
-721.6886838289305
 31
0.0
  0
LINE
  5
A4
330
1F
100
AcDbEntity
  8
0-0
  6
JWW_DASHED1
 62
   120
370
     5
100
AcDbLine
 10
-1181.191330418318
 20
-749.789188893721
 30
0.0
 11
-1143.191330418321
 21
-711.7891888937222
 31
0.0
  0
LINE
  5
A5
330
1F
100
AcDbEntity
  8
0-0
  6
JWW_DASHED1
 62
   120
370
     5
100
AcDbLine
 10
-1181.191330418318
 20
-739.8896939585516
 30
0.0
 11
-1143.191330418318
 21
-701.8896939585575
 31
0.0
  0
LINE
  5
A6
330
1F
100
AcDbEntity
  8
0-0
  6
JWW_DASHED1
 62
   120
370
     5
100
AcDbLine
 10
-1181.191330418318
 20
-729.9901990233448
 30
0.0
 11
-1143.191330418311
 21
-691.9901990233335
 31
0.0
  0
LINE
  5
A7
330
1F
100
AcDbEntity
  8
0-0
  6
JWW_DASHED1
 62
   120
370
     5
100
AcDbLine
 10
-1181.191330418318
 20
-720.0907040881201
 30
0.0
 11
-1143.191330418318
 21
-682.0907040881254
 31
0.0
  0
LINE
  5
A8
330
1F
100
AcDbEntity
  8
0-0
  6
JWW_DASHED1
 62
   120
370
     5
100
AcDbLine
 10
-1181.191330418318
 20
-710.1912091529621
 30
0.0
 11
-1143.191330418318
 21
-672.1912091529605
 31
0.0
  0
LINE
  5
A9
330
1F
100
AcDbEntity
  8
0-0
  6
JWW_DASHED1
 62
   120
370
     5
100
AcDbLine
 10
-1181.191330418318
 20
-700.2917142177479
 30
0.0
 11
-1143.191330418311
 21
-662.2917142177366
 31
0.0
  0
LINE
  5
AA
330
1F
100
AcDbEntity
  8
0-0
  6
JWW_DASHED1
 62
   120
370
     5
100
AcDbLine
 10
-1181.191330418318
 20
-690.39221928253
 30
0.0
 11
-1143.191330418318
 21
-652.3922192825283
 31
0.0
  0
LINE
  5
AB
330
1F
100
AcDbEntity
  8
0-0
  6
JWW_DASHED1
 62
   120
370
     5
100
AcDbLine
 10
-1181.191330418318
 20
-680.4927243473687
 30
0.0
 11
-1143.191330418314
 21
-642.4927243473636
 31
0.0
  0
LINE
  5
AC
330
1F
100
AcDbEntity
  8
0-0
  6
JWW_DASHED1
 62
   120
370
     5
100
AcDbLine
 10
-1181.191330418318
 20
-670.5932294121494
 30
0.0
 11
-1143.191330418321
 21
-632.5932294121556
 31
0.0
  0
LINE
  5
AD
330
1F
100
AcDbEntity
  8
0-0
  6
JWW_DASHED1
 62
   120
370
     5
100
AcDbLine
 10
-1181.191330418318
 20
-660.6937344769367
 30
0.0
 11
-1143.191330418314
 21
-622.6937344769316
 31
0.0
  0
LINE
  5
AE
330
1F
100
AcDbEntity
  8
0-0
  6
JWW_DASHED1
 62
   120
370
     5
100
AcDbLine
 10
-1181.191330418318
 20
-650.794239541775
 30
0.0
 11
-1143.191330418311
 21
-612.7942395417666
 31
0.0
  0
LINE
  5
AF
330
1F
100
AcDbEntity
  8
0-0
  6
JWW_DASHED1
 62
   120
370
     5
100
AcDbLine
 10
-1181.191330418318
 20
-640.8947446065557
 30
0.0
 11
-1143.191330418318
 21
-602.8947446065586
 31
0.0
  0
LINE
  5
B0
330
1F
100
AcDbEntity
  8
0-0
  6
JWW_DASHED1
 62
   120
370
     5
100
AcDbLine
 10
-1181.191330418318
 20
-630.9952496713357
 30
0.0
 11
-1143.191330418311
 21
-592.9952496713349
 31
0.0
  0
LINE
  5
B1
330
1F
100
AcDbEntity
  8
0-0
  6
JWW_DASHED1
 62
   120
370
     5
100
AcDbLine
 10
-1181.191330418318
 20
-621.0957547361832
 30
0.0
 11
-1143.191330418324
 21
-583.0957547361855
 31
0.0
  0
LINE
  5
B2
330
1F
100
AcDbEntity
  8
0-0
  6
JWW_DASHED1
 62
   120
370
     5
100
AcDbLine
 10
-1181.191330418318
 20
-611.1962598009661
 30
0.0
 11
-1143.191330418318
 21
-573.1962598009617
 31
0.0
  0
LINE
  5
B3
330
1F
100
AcDbEntity
  8
0-0
  6
JWW_DASHED1
 62
   120
370
     5
100
AcDbLine
 10
-1181.191330418318
 20
-601.2967648657464
 30
0.0
 11
-1143.191330418311
 21
-563.2967648657375
 31
0.0
  0
LINE
  5
B4
330
1F
100
AcDbEntity
  8
0-0
  6
JWW_DASHED1
 62
   120
370
     5
100
AcDbLine
 10
-1181.191330418318
 20
-591.397269930586
 30
0.0
 11
-1143.191330418324
 21
-553.3972699305884
 31
0.0
  0
LINE
  5
B5
330
1F
100
AcDbEntity
  8
0-0
  6
JWW_DASHED1
 62
   120
370
     5
100
AcDbLine
 10
-1181.191330418318
 20
-581.4977749953665
 30
0.0
 11
-1143.191330418314
 21
-543.4977749953645
 31
0.0
  0
LINE
  5
B6
330
1F
100
AcDbEntity
  8
0-0
  6
JWW_DASHED1
 62
   120
370
     5
100
AcDbLine
 10
-1181.191330418318
 20
-571.5982800601519
 30
0.0
 11
-1143.191330418324
 21
-533.5982800601566
 31
0.0
  0
LINE
  5
B7
330
1F
100
AcDbEntity
  8
0-0
  6
JWW_DASHED1
 62
   120
370
     5
100
AcDbLine
 10
-1181.191330418318
 20
-561.6987851249862
 30
0.0
 11
-1143.191330418318
 21
-523.6987851249914
 31
0.0
  0
LINE
  5
B8
330
1F
100
AcDbEntity
  8
0-0
  6
JWW_DASHED1
 62
   120
370
     5
100
AcDbLine
 10
-1181.191330418318
 20
-551.799290189772
 30
0.0
 11
-1143.191330418311
 21
-513.7992901897683
 31
0.0
  0
LINE
  5
B9
330
1F
100
AcDbEntity
  8
0-0
  6
JWW_DASHED1
 62
   120
370
     5
100
AcDbLine
 10
-1181.191330418318
 20
-541.8997952545578
 30
0.0
 11
-1143.191330418321
 21
-503.89979525456
 31
0.0
  0
LINE
  5
BA
330
1F
100
AcDbEntity
  8
0-0
  6
JWW_DASHED1
 62
   120
370
     5
100
AcDbLine
 10
-1181.191330418318
 20
-532.000300319396
 30
0.0
 11
-1143.191330418318
 21
-494.0003003193948
 31
0.0
  0
LINE
  5
BB
330
1F
100
AcDbEntity
  8
0-0
  6
JWW_DASHED1
 62
   120
370
     5
100
AcDbLine
 10
-1181.191330418318
 20
-522.1008053841767
 30
0.0
 11
-1143.191330418324
 21
-484.1008053841865
 31
0.0
  0
LINE
  5
BC
330
1F
100
AcDbEntity
  8
0-0
  6
JWW_DASHED1
 62
   120
370
     5
100
AcDbLine
 10
-1181.191330418318
 20
-512.2013104489643
 30
0.0
 11
-1143.191330418318
 21
-474.2013104489629
 31
0.0
  0
LINE
  5
BD
330
1F
100
AcDbEntity
  8
0-0
  6
JWW_DASHED1
 62
   120
370
     5
100
AcDbLine
 10
-1181.191330418318
 20
-502.301815513802
 30
0.0
 11
-1143.191330418314
 21
-464.3018155137981
 31
0.0
  0
LINE
  5
BE
330
1F
100
AcDbEntity
  8
0-0
  6
JWW_DASHED1
 62
   120
370
     5
100
AcDbLine
 10
-1181.191330418318
 20
-492.4023205785886
 30
0.0
 11
-1143.191330418324
 21
-454.4023205785895
 31
0.0
  0
LINE
  5
BF
330
1F
100
AcDbEntity
  8
0-0
  6
JWW_DASHED1
 62
   120
370
     5
100
AcDbLine
 10
-1181.191330418318
 20
-482.502825643368
 30
0.0
 11
-1143.191330418318
 21
-444.5028256433659
 31
0.0
  0
LINE
  5
C0
330
1F
100
AcDbEntity
  8
0-0
  6
JWW_DASHED1
 62
   120
370
     5
100
AcDbLine
 10
-1181.191330418318
 20
-472.603330708202
 30
0.0
 11
-1143.191330418311
 21
-434.6033307082012
 31
0.0
  0
LINE
  5
C1
330
1F
100
AcDbEntity
  8
0-0
  6
JWW_DASHED1
 62
   120
370
     5
100
AcDbLine
 10
-1181.191330418318
 20
-462.7038357729868
 30
0.0
 11
-1143.191330418321
 21
-424.7038357729933
 31
0.0
  0
LINE
  5
C2
330
1F
100
AcDbEntity
  8
0-0
  6
JWW_DASHED1
 62
   120
370
     5
100
AcDbLine
 10
-1181.191330418318
 20
-452.8043408377739
 30
0.0
 11
-1143.191330418314
 21
-414.8043408377692
 31
0.0
  0
LINE
  5
C3
330
1F
100
AcDbEntity
  8
0-0
  6
JWW_DASHED1
 62
   120
370
     5
100
AcDbLine
 10
-1181.191330418318
 20
-442.904845902613
 30
0.0
 11
-1143.191330418311
 21
-404.9048459026041
 31
0.0
  0
LINE
  5
C4
330
1F
100
AcDbEntity
  8
0-0
  6
JWW_DASHED1
 62
   120
370
     5
100
AcDbLine
 10
-1181.191330418318
 20
-433.0053509673933
 30
0.0
 11
-1143.191330418318
 21
-395.0053509673962
 31
0.0
  0
LINE
  5
C5
330
1F
100
AcDbEntity
  8
0-0
  6
JWW_DASHED1
 62
   120
370
     5
100
AcDbLine
 10
-1181.191330418318
 20
-423.1058560321811
 30
0.0
 11
-1143.191330418311
 21
-385.1058560321723
 31
0.0
  0
LINE
  5
C6
330
1F
100
AcDbEntity
  8
0-0
  6
JWW_DASHED1
 62
   120
370
     5
100
AcDbLine
 10
-1181.191330418318
 20
-413.2063610970134
 30
0.0
 11
-1143.191330418318
 21
-375.2063610970177
 31
0.0
  0
LINE
  5
C7
330
1F
100
AcDbEntity
  8
0-0
  6
JWW_DASHED1
 62
   120
370
     5
100
AcDbLine
 10
-1181.191330418318
 20
-403.306866161803
 30
0.0
 11
-1143.191330418318
 21
-365.3068661617992
 31
0.0
  0
LINE
  5
C8
330
1F
100
AcDbEntity
  8
0-0
  6
JWW_DASHED1
 62
   120
370
     5
100
AcDbLine
 10
-1181.191330418318
 20
-393.4073712265892
 30
0.0
 11
-1143.191330418324
 21
-355.407371226591
 31
0.0
  0
LINE
  5
C9
330
1F
100
AcDbEntity
  8
0-0
  6
JWW_DASHED1
 62
   120
370
     5
100
AcDbLine
 10
-1181.191330418318
 20
-383.5078762914249
 30
0.0
 11
-1143.191330418321
 21
-345.5078762914262
 31
0.0
  0
LINE
  5
CA
330
1F
100
AcDbEntity
  8
0-0
  6
JWW_DASHED1
 62
   120
370
     5
100
AcDbLine
 10
-1181.191330418318
 20
-373.6083813562026
 30
0.0
 11
-1143.191330418314
 21
-335.6083813562021
 31
0.0
  0
LINE
  5
CB
330
1F
100
AcDbEntity
  8
0-0
  6
JWW_DASHED1
 62
   120
370
     5
100
AcDbLine
 10
-1181.191330418318
 20
-363.7088864209879
 30
0.0
 11
-1143.191330418321
 21
-325.7088864209943
 31
0.0
  0
LINE
  5
CC
330
1F
100
AcDbEntity
  8
0-0
  6
JWW_DASHED1
 62
   120
370
     5
100
AcDbLine
 10
-1181.191330418318
 20
-353.809391485824
 30
0.0
 11
-1143.191330418318
 21
-315.8093914858291
 31
0.0
  0
LINE
  5
CD
330
1F
100
AcDbEntity
  8
0-0
  6
JWW_DASHED1
 62
   120
370
     5
100
AcDbLine
 10
-1181.191330418318
 20
-343.9098965506157
 30
0.0
 11
-1143.191330418311
 21
-305.9098965506051
 31
0.0
  0
LINE
  5
CE
330
1F
100
AcDbEntity
  8
0-0
  6
JWW_DASHED1
 62
   120
370
     5
100
AcDbLine
 10
-1181.191330418318
 20
-334.0104016153921
 30
0.0
 11
-1143.191330418318
 21
-296.0104016153973
 31
0.0
  0
LINE
  5
CF
330
1F
100
AcDbEntity
  8
0-0
  6
JWW_DASHED1
 62
   120
370
     5
100
AcDbLine
 10
-1181.191330418318
 20
-324.1109066802342
 30
0.0
 11
-1143.191330418318
 21
-286.1109066802321
 31
0.0
  0
LINE
  5
D0
330
1F
100
AcDbEntity
  8
0-0
  6
JWW_DASHED1
 62
   120
370
     5
100
AcDbLine
 10
-1181.191330418318
 20
-314.2114117450208
 30
0.0
 11
-1143.191330418311
 21
-276.211411745008
 31
0.0
  0
LINE
  5
D1
330
1F
100
AcDbEntity
  8
0-0
  6
JWW_DASHED1
 62
   120
370
     5
100
AcDbLine
 10
-1181.191330418318
 20
-304.3119168098024
 30
0.0
 11
-1143.191330418318
 21
-266.3119168098002
 31
0.0
  0
LINE
  5
D2
330
1F
100
AcDbEntity
  8
0-0
  6
JWW_DASHED1
 62
   120
370
     5
100
AcDbLine
 10
-1181.191330418318
 20
-294.4124218746406
 30
0.0
 11
-1143.191330418314
 21
-256.412421874635
 31
0.0
  0
LINE
  5
D3
330
1F
100
AcDbEntity
  8
0-0
  6
JWW_DASHED1
 62
   120
370
     5
100
AcDbLine
 10
-1181.191330418318
 20
-284.5129269394208
 30
0.0
 11
-1143.191330418321
 21
-246.5129269394272
 31
0.0
  0
LINE
  5
D4
330
1F
100
AcDbEntity
  8
0-0
  6
JWW_DASHED1
 62
   120
370
     5
100
AcDbLine
 10
-1181.191330418318
 20
-274.6134320042369
 30
0.0
 11
-1143.191330418318
 21
-236.613432004233
 31
0.0
  0
LINE
  5
D5
330
1F
100
AcDbEntity
  8
0-0
  6
JWW_DASHED1
 62
   120
370
     5
100
AcDbLine
 10
-1181.191330418318
 20
-264.7139370690393
 30
0.0
 11
-1143.191330418311
 21
-226.7139370690384
 31
0.0
  0
LINE
  5
D6
330
1F
100
AcDbEntity
  8
0-0
  6
JWW_DASHED1
 62
   120
370
     5
100
AcDbLine
 10
-1181.191330418318
 20
-254.8144421338263
 30
0.0
 11
-1143.191330418318
 21
-216.8144421338306
 31
0.0
  0
LINE
  5
D7
330
1F
100
AcDbEntity
  8
0-0
  6
JWW_DASHED1
 62
   120
370
     5
100
AcDbLine
 10
-1181.191330418318
 20
-244.9149471986364
 30
0.0
 11
-1143.191330418314
 21
-206.914947198636
 31
0.0
  0
LINE
  5
D8
330
1F
100
AcDbEntity
  8
0-0
  6
JWW_DASHED1
 62
   120
370
     5
100
AcDbLine
 10
-1181.191330418318
 20
-235.0154522634541
 30
0.0
 11
-1143.191330418324
 21
-197.0154522634571
 31
0.0
  0
LINE
  5
D9
330
1F
100
AcDbEntity
  8
0-0
  6
JWW_DASHED1
 62
   120
370
     5
100
AcDbLine
 10
-1181.191330418318
 20
-225.1159573282391
 30
0.0
 11
-1143.191330418318
 21
-187.1159573282331
 31
0.0
  0
LINE
  5
DA
330
1F
100
AcDbEntity
  8
0-0
  6
JWW_DASHED1
 62
   120
370
     5
100
AcDbLine
 10
-1181.191330418318
 20
-215.2164623930692
 30
0.0
 11
-1143.191330418314
 21
-177.2164623930688
 31
0.0
  0
LINE
  5
DB
330
1F
100
AcDbEntity
  8
0-0
  6
JWW_DASHED1
 62
   120
370
     5
100
AcDbLine
 10
-1181.191330418318
 20
-205.3169674578592
 30
0.0
 11
-1143.191330418324
 21
-167.3169674578601
 31
0.0
  0
LINE
  5
DC
330
1F
100
AcDbEntity
  8
0-0
  6
JWW_DASHED1
 62
   120
370
     5
100
AcDbLine
 10
-1181.191330418318
 20
-195.4174725226373
 30
0.0
 11
-1143.191330418314
 21
-157.4174725226369
 31
0.0
  0
LINE
  5
DD
330
1F
100
AcDbEntity
  8
0-0
  6
JWW_DASHED1
 62
   120
370
     5
100
AcDbLine
 10
-1181.191330418318
 20
-185.5179775874755
 30
0.0
 11
-1143.191330418311
 21
-147.5179775874717
 31
0.0
  0
LINE
  5
DE
330
1F
100
AcDbEntity
  8
0-0
  6
JWW_DASHED1
 62
   120
370
     5
100
AcDbLine
 10
-1181.191330418318
 20
-175.6184826522609
 30
0.0
 11
-1143.191330418321
 21
-137.6184826522639
 31
0.0
  0
LINE
  5
DF
330
1F
100
AcDbEntity
  8
0-0
  6
JWW_DASHED1
 62
   120
370
     5
100
AcDbLine
 10
-1181.191330418318
 20
-165.7189877170437
 30
0.0
 11
-1143.191330418311
 21
-127.7189877170399
 31
0.0
  0
LINE
  5
E0
330
1F
100
AcDbEntity
  8
0-0
  6
JWW_DASHED1
 62
   120
370
     5
100
AcDbLine
 10
-1181.191330418318
 20
-155.8194927818853
 30
0.0
 11
-1143.191330418311
 21
-117.8194927818747
 31
0.0
  0
LINE
  5
E1
330
1F
100
AcDbEntity
  8
0-0
  6
JWW_DASHED1
 62
   120
370
     5
100
AcDbLine
 10
-1181.191330418318
 20
-145.9199978466673
 30
0.0
 11
-1143.191330418318
 21
-107.9199978466669
 31
0.0
  0
LINE
  5
E2
330
1F
100
AcDbEntity
  8
0-0
  6
JWW_DASHED1
 62
   120
370
     5
100
AcDbLine
 10
-1181.191330418318
 20
-136.0205029114535
 30
0.0
 11
-1143.191330418311
 21
-98.02050291144283
 31
0.0
  0
LINE
  5
E3
330
1F
100
AcDbEntity
  8
0-0
  6
JWW_DASHED1
 62
   120
370
     5
100
AcDbLine
 10
-1181.191330418318
 20
-126.1210079762866
 30
0.0
 11
-1143.191330418314
 21
-88.12100797628617
 31
0.0
  0
LINE
  5
E4
330
1F
100
AcDbEntity
  8
0-0
  6
JWW_DASHED1
 62
   120
370
     5
100
AcDbLine
 10
-1181.191330418318
 20
-116.2215130410753
 30
0.0
 11
-1143.191330418314
 21
-78.22151304106981
 31
0.0
  0
LINE
  5
E5
330
1F
100
AcDbEntity
  8
0-0
  6
JWW_DASHED1
 62
   120
370
     5
100
AcDbLine
 10
-1181.191330418318
 20
-106.322018105859
 30
0.0
 11
-1143.191330418324
 21
-68.32201810586199
 31
0.0
  0
LINE
  5
E6
330
1F
100
AcDbEntity
  8
0-0
  6
JWW_DASHED1
 62
   120
370
     5
100
AcDbLine
 10
-1181.191330418318
 20
-96.42252317069037
 30
0.0
 11
-1143.191330418321
 21
-58.42252317069679
 31
0.0
  0
LINE
  5
E7
330
1F
100
AcDbEntity
  8
0-0
  6
JWW_DASHED1
 62
   120
370
     5
100
AcDbLine
 10
-1181.191330418318
 20
-86.52302823547444
 30
0.0
 11
-1143.191330418311
 21
-48.52302823547276
 31
0.0
  0
LINE
  5
E8
330
1F
100
AcDbEntity
  8
0-0
  6
JWW_DASHED1
 62
   120
370
     5
100
AcDbLine
 10
-1181.191330418318
 20
-76.62353330025852
 30
0.0
 11
-1143.191330418321
 21
-38.62353330026494
 31
0.0
  0
LINE
  5
E9
330
1F
100
AcDbEntity
  8
0-0
  6
JWW_DASHED1
 62
   120
370
     5
100
AcDbLine
 10
-1181.191330418318
 20
-66.72403836510483
 30
0.0
 11
-1143.191330418318
 21
-28.72403836509974
 31
0.0
  0
LINE
  5
EA
330
1F
100
AcDbEntity
  8
0-0
  6
JWW_DASHED1
 62
   120
370
     5
100
AcDbLine
 10
-1181.191330418318
 20
-56.82454342988422
 30
0.0
 11
-1143.191330418311
 21
-18.82454342987614
 31
0.0
  0
LINE
  5
EB
330
1F
100
AcDbEntity
  8
0-0
  6
JWW_DASHED1
 62
   120
370
     5
100
AcDbLine
 10
-1181.191330418318
 20
-46.92504849466488
 30
0.0
 11
-1143.191330418318
 21
-8.925048494667891
 31
0.0
  0
LINE
  5
EC
330
1F
100
AcDbEntity
  8
0-0
  6
JWW_DASHED1
 62
   120
370
     5
100
AcDbLine
 10
-1181.191330418318
 20
-37.02555355950693
 30
0.0
 11
-1143.191330418318
 21
0.9744464404968767
 31
0.0
  0
LINE
  5
ED
330
1F
100
AcDbEntity
  8
0-0
  6
JWW_DASHED1
 62
   120
370
     5
100
AcDbLine
 10
-1181.191330418318
 20
-27.12605862429058
 30
0.0
 11
-1143.191330418308
 21
10.8739413757209
 31
0.0
  0
LINE
  5
EE
330
1F
100
AcDbEntity
  8
0-0
  6
JWW_DASHED1
 62
   120
370
     5
100
AcDbLine
 10
-1181.191330418318
 20
-17.22656368907465
 30
0.0
 11
-1143.191330418318
 21
20.77343631092916
 31
0.0
  0
LINE
  5
EF
330
1F
100
AcDbEntity
  8
0-0
  6
JWW_DASHED1
 62
   120
370
     5
100
AcDbLine
 10
-1181.191330418318
 20
-7.327068753913295
 30
0.0
 11
-1143.191330418314
 21
30.67293124609392
 31
0.0
  0
LINE
  5
F0
330
1F
100
AcDbEntity
  8
0-0
  6
JWW_DASHED1
 62
   120
370
     5
100
AcDbLine
 10
-1181.191330418318
 20
2.572426181303484
 30
0.0
 11
-1143.191330418321
 21
40.57242618130218
 31
0.0
  0
LINE
  5
F1
330
1F
100
AcDbEntity
  8
0-0
  6
JWW_DASHED1
 62
   120
370
     5
100
AcDbLine
 10
-1181.191330418318
 20
12.47192111652538
 30
0.0
 11
-1143.191330418314
 21
50.47192111652578
 31
0.0
  0
LINE
  5
F2
330
1F
100
AcDbEntity
  8
0-0
  6
JWW_DASHED1
 62
   120
370
     5
100
AcDbLine
 10
-1181.191330418318
 20
22.37141605167906
 30
0.0
 11
-1143.191330418311
 21
60.37141605169097
 31
0.0
  0
LINE
  5
F3
330
1F
100
AcDbEntity
  8
0-0
  6
JWW_DASHED1
 62
   120
370
     5
100
AcDbLine
 10
-1181.191330418318
 20
32.27091098690479
 30
0.0
 11
-1143.191330418318
 21
70.2709109868988
 31
0.0
  0
LINE
  5
F4
330
1F
100
AcDbEntity
  8
0-0
  6
JWW_DASHED1
 62
   120
370
     5
100
AcDbLine
 10
-1181.191330418318
 20
42.17040592211816
 30
0.0
 11
-1143.191330418311
 21
80.17040592212282
 31
0.0
  0
LINE
  5
F5
330
1F
100
AcDbEntity
  8
0-0
  6
JWW_DASHED1
 62
   120
370
     5
100
AcDbLine
 10
-1181.191330418318
 20
52.06990085727398
 30
0.0
 11
-1143.191330418324
 21
90.06990085727224
 31
0.0
  0
LINE
  5
F6
330
1F
100
AcDbEntity
  8
0-0
  6
JWW_DASHED1
 62
   120
370
     5
100
AcDbLine
 10
-1181.191330418318
 20
61.96939579249459
 30
0.0
 11
-1143.191330418318
 21
99.96939579249585
 31
0.0
  0
LINE
  5
F7
330
1F
100
AcDbEntity
  8
0-0
  6
JWW_DASHED1
 62
   120
370
     5
100
AcDbLine
 10
-1181.191330418318
 20
71.86889072770882
 30
0.0
 11
-1143.191330418311
 21
109.8688907277194
 31
0.0
  0
LINE
  5
F8
330
1F
100
AcDbEntity
  8
0-0
  6
JWW_DASHED1
 62
   120
370
     5
100
AcDbLine
 10
-1181.191330418318
 20
81.76838566287486
 30
0.0
 11
-1143.191330418321
 21
119.7683856628693
 31
0.0
  0
LINE
  5
F9
330
1F
100
AcDbEntity
  8
0-0
  6
JWW_DASHED1
 62
   120
370
     5
100
AcDbLine
 10
-1181.191330418318
 20
91.66788059808738
 30
0.0
 11
-1143.191330418314
 21
129.6678805980929
 31
0.0
  0
LINE
  5
FA
330
1F
100
AcDbEntity
  8
0-0
  6
JWW_DASHED1
 62
   120
370
     5
100
AcDbLine
 10
-1181.191330418318
 20
101.5673755333059
 30
0.0
 11
-1143.191330418311
 21
139.5673755333105
 31
0.0
  0
LINE
  5
FB
330
1F
100
AcDbEntity
  8
0-0
  6
JWW_DASHED1
 62
   120
370
     5
100
AcDbLine
 10
-1181.191330418318
 20
111.4668704684681
 30
0.0
 11
-1143.191330418318
 21
149.4668704684659
 31
0.0
  0
LINE
  5
FC
330
1F
100
AcDbEntity
  8
0-0
  6
JWW_DASHED1
 62
   120
370
     5
100
AcDbLine
 10
-1181.191330418318
 20
121.3663654036887
 30
0.0
 11
-1143.191330418311
 21
159.3663654036895
 31
0.0
  0
LINE
  5
FD
330
1F
100
AcDbEntity
  8
0-0
  6
JWW_DASHED1
 62
   120
370
     5
100
AcDbLine
 10
-1181.191330418318
 20
131.2658603388961
 30
0.0
 11
-1143.191330418321
 21
169.2658603388978
 31
0.0
  0
LINE
  5
FE
330
1F
100
AcDbEntity
  8
0-0
  6
JWW_DASHED1
 62
   120
370
     5
100
AcDbLine
 10
-1181.191330418318
 20
141.1653552740587
 30
0.0
 11
-1143.191330418318
 21
179.1653552740625
 31
0.0
  0
LINE
  5
FF
330
1F
100
AcDbEntity
  8
0-0
  6
JWW_DASHED1
 62
   120
370
     5
100
AcDbLine
 10
-1181.191330418318
 20
151.0648502092806
 30
0.0
 11
-1143.191330418324
 21
189.0648502092708
 31
0.0
  0
LINE
  5
100
330
1F
100
AcDbEntity
  8
0-0
  6
JWW_DASHED1
 62
   120
370
     5
100
AcDbLine
 10
-1181.191330418318
 20
160.9643451444906
 30
0.0
 11
-1143.191330418318
 21
198.9643451444944
 31
0.0
  0
LINE
  5
101
330
1F
100
AcDbEntity
  8
0-0
  6
JWW_DASHED1
 62
   120
370
     5
100
AcDbLine
 10
-1181.191330418318
 20
170.8638400796592
 30
0.0
 11
-1143.191330418314
 21
208.8638400796596
 31
0.0
  0
LINE
  5
102
330
1F
100
AcDbEntity
  8
0-0
  6
JWW_DASHED1
 62
   120
370
     5
100
AcDbLine
 10
-1181.191330418318
 20
180.7633350148704
 30
0.0
 11
-1143.191330418324
 21
218.7633350148674
 31
0.0
  0
LINE
  5
103
330
1F
100
AcDbEntity
  8
0-0
  6
JWW_DASHED1
 62
   120
370
     5
100
AcDbLine
 10
-1181.191330418318
 20
190.662829950091
 30
0.0
 11
-1143.191330418314
 21
228.6628299500914
 31
0.0
  0
LINE
  5
104
330
1F
100
AcDbEntity
  8
0-0
  6
JWW_DASHED1
 62
   120
370
     5
100
AcDbLine
 10
-1181.191330418318
 20
200.562324885252
 30
0.0
 11
-1143.191330418311
 21
238.5623248852566
 31
0.0
  0
LINE
  5
105
330
1F
100
AcDbEntity
  8
0-0
  6
JWW_DASHED1
 62
   120
370
     5
100
AcDbLine
 10
-1181.191330418318
 20
210.4618198204666
 30
0.0
 11
-1143.191330418321
 21
248.4618198204645
 31
0.0
  0
LINE
  5
106
330
1F
100
AcDbEntity
  8
0-0
  6
JWW_DASHED1
 62
   120
370
     5
100
AcDbLine
 10
-1181.191330418318
 20
220.3613147556847
 30
0.0
 11
-1143.191330418311
 21
258.3613147556885
 31
0.0
  0
LINE
  5
107
330
1F
100
AcDbEntity
  8
0-0
  6
JWW_DASHED1
 62
   120
370
     5
100
AcDbLine
 10
-1181.191330418318
 20
230.2608096908418
 30
0.0
 11
-1143.191330418311
 21
268.2608096908536
 31
0.0
  0
LINE
  5
108
330
1F
100
AcDbEntity
  8
0-0
  6
JWW_DASHED1
 62
   120
370
     5
100
AcDbLine
 10
-1181.191330418318
 20
240.1603046260594
 30
0.0
 11
-1143.191330418318
 21
278.1603046260615
 31
0.0
  0
LINE
  5
109
330
1F
100
AcDbEntity
  8
0-0
  6
JWW_DASHED1
 62
   120
370
     5
100
AcDbLine
 10
-1181.191330418318
 20
250.0597995612736
 30
0.0
 11
-1143.191330418311
 21
288.0597995612856
 31
0.0
  0
LINE
  5
10A
330
1F
100
AcDbEntity
  8
0-0
  6
JWW_DASHED1
 62
   120
370
     5
100
AcDbLine
 10
-1181.191330418318
 20
259.9592944964431
 30
0.0
 11
-1143.191330418308
 21
297.9592944964503
 31
0.0
  0
LINE
  5
10B
330
1F
100
AcDbEntity
  8
0-0
  6
JWW_DASHED1
 62
   120
370
     5
100
AcDbLine
 10
-1181.191330418318
 20
269.858789431653
 30
0.0
 11
-1143.191330418314
 21
307.8587894316586
 31
0.0
  0
LINE
  5
10C
330
1F
100
AcDbEntity
  8
0-0
  6
JWW_DASHED1
 62
   120
370
     5
100
AcDbLine
 10
-1181.191330418318
 20
279.7582843668694
 30
0.0
 11
-1143.191330418324
 21
317.7582843668664
 31
0.0
  0
LINE
  5
10D
330
1F
100
AcDbEntity
  8
0-0
  6
JWW_DASHED1
 62
   120
370
     5
100
AcDbLine
 10
-1181.191330418318
 20
289.6577793020311
 30
0.0
 11
-1143.191330418321
 21
327.6577793020316
 31
0.0
  0
LINE
  5
10E
330
1F
100
AcDbEntity
  8
0-0
  6
JWW_DASHED1
 62
   120
370
     5
100
AcDbLine
 10
-1181.191330418318
 20
299.5572742372543
 30
0.0
 11
-1143.191330418311
 21
337.5572742372552
 31
0.0
  0
LINE
  5
10F
330
1F
100
AcDbEntity
  8
0-0
  6
JWW_DASHED1
 62
   120
370
     5
100
AcDbLine
 10
-1181.191330418318
 20
309.4567691724699
 30
0.0
 11
-1143.191330418321
 21
347.4567691724634
 31
0.0
  0
LINE
  5
110
330
1F
100
AcDbEntity
  8
0-0
  6
JWW_DASHED1
 62
   120
370
     5
100
AcDbLine
 10
-1181.191330418318
 20
319.3562641076252
 30
0.0
 11
-1143.191330418318
 21
357.3562641076282
 31
0.0
  0
LINE
  5
111
330
1F
100
AcDbEntity
  8
0-0
  6
JWW_DASHED1
 62
   120
370
     5
100
AcDbLine
 10
-1181.191330418318
 20
329.2557590428441
 30
0.0
 11
-1143.191330418311
 21
367.2557590428522
 31
0.0
  0
LINE
  5
112
330
1F
100
AcDbEntity
  8
0-0
  6
JWW_DASHED1
 62
   120
370
     5
100
AcDbLine
 10
-1181.191330418318
 20
339.1552539780371
 30
0.0
 11
-1143.191330418321
 21
377.1552539780306
 31
0.0
  0
LINE
  5
113
330
1F
100
AcDbEntity
  8
0-0
  6
JWW_DASHED1
 62
   120
370
     5
100
AcDbLine
 10
-1181.191330418318
 20
349.0547489132214
 30
0.0
 11
-1143.191330418318
 21
387.0547489132252
 31
0.0
  0
LINE
  5
114
330
1F
100
AcDbEntity
  8
0-0
  6
JWW_DASHED1
 62
   120
370
     5
100
AcDbLine
 10
-1181.191330418318
 20
358.9542438484369
 30
0.0
 11
-1143.191330418308
 21
396.9542438484493
 31
0.0
  0
LINE
  5
115
330
1F
100
AcDbEntity
  8
0-0
  6
JWW_DASHED1
 62
   120
370
     5
100
AcDbLine
 10
-1181.191330418318
 20
368.8537387836038
 30
0.0
 11
-1143.191330418321
 21
406.8537387835983
 31
0.0
  0
LINE
  5
116
330
1F
100
AcDbEntity
  8
0-0
  6
JWW_DASHED1
 62
   120
370
     5
100
AcDbLine
 10
-1181.191330418318
 20
378.7532337188138
 30
0.0
 11
-1143.191330418314
 21
416.7532337188223
 31
0.0
  0
LINE
  5
117
330
1F
100
AcDbEntity
  8
0-0
  6
JWW_DASHED1
 62
   120
370
     5
100
AcDbLine
 10
-1181.191330418318
 20
388.6527286540323
 30
0.0
 11
-1143.191330418321
 21
426.6527286540301
 31
0.0
  0
LINE
  5
118
330
1F
100
AcDbEntity
  8
0-0
  6
JWW_DASHED1
 62
   120
370
     5
100
AcDbLine
 10
-1181.191330418318
 20
398.5522235892005
 30
0.0
 11
-1143.191330418318
 21
436.5522235891953
 31
0.0
  0
LINE
  5
119
330
1F
100
AcDbEntity
  8
0-0
  6
JWW_DASHED1
 62
   120
370
     5
100
AcDbLine
 10
-1181.191330418318
 20
408.4517185244083
 30
0.0
 11
-1143.191330418311
 21
446.4517185244189
 31
0.0
  0
LINE
  5
11A
330
1F
100
AcDbEntity
  8
0-0
  6
JWW_DASHED1
 62
   120
370
     5
100
AcDbLine
 10
-1181.191330418318
 20
418.3512134596332
 30
0.0
 11
-1143.191330418318
 21
456.3512134596272
 31
0.0
  0
LINE
  5
11B
330
1F
100
AcDbEntity
  8
0-0
  6
JWW_DASHED1
 62
   120
370
     5
100
AcDbLine
 10
-1181.191330418318
 20
428.2507083947834
 30
0.0
 11
-1143.191330418318
 21
466.2507083947919
 31
0.0
  0
LINE
  5
11C
330
1F
100
AcDbEntity
  8
0-0
  6
JWW_DASHED1
 62
   120
370
     5
100
AcDbLine
 10
-1181.191330418318
 20
438.1502033300032
 30
0.0
 11
-1143.191330418324
 21
476.1502033300002
 31
0.0
  0
LINE
  5
11D
330
1F
100
AcDbEntity
  8
0-0
  6
JWW_DASHED1
 62
   120
370
     5
100
AcDbLine
 10
-1181.191330418318
 20
448.0496982652226
 30
0.0
 11
-1143.191330418318
 21
486.0496982652238
 31
0.0
  0
LINE
  5
11E
330
1F
100
AcDbEntity
  8
0-0
  6
JWW_DASHED1
 62
   120
370
     5
100
AcDbLine
 10
-1181.191330418318
 20
457.9491932003843
 30
0.0
 11
-1143.191330418314
 21
495.949193200389
 31
0.0
  0
LINE
  5
11F
330
1F
100
AcDbEntity
  8
0-0
  6
JWW_DASHED1
 62
   120
370
     5
100
AcDbLine
 10
-1181.191330418318
 20
467.8486881356028
 30
0.0
 11
-1143.191330418321
 21
505.8486881355972
 31
0.0
  0
LINE
  5
120
330
1F
100
AcDbEntity
  8
0-0
  6
JWW_DASHED1
 62
   120
370
     5
100
AcDbLine
 10
-1181.191330418318
 20
477.7481830708153
 30
0.0
 11
-1143.191330418314
 21
515.7481830708208
 31
0.0
  0
LINE
  5
121
330
1F
100
AcDbEntity
  8
0-0
  6
JWW_DASHED1
 62
   120
370
     5
100
AcDbLine
 10
-1181.191330418318
 20
487.6476780059771
 30
0.0
 11
-1143.191330418311
 21
525.647678005986
 31
0.0
  0
LINE
  5
122
330
1F
100
AcDbEntity
  8
0-0
  6
JWW_DASHED1
 62
   120
370
     5
100
AcDbLine
 10
-1181.191330418318
 20
497.5471729411969
 30
0.0
 11
-1143.191330418318
 21
535.5471729411938
 31
0.0
  0
LINE
  5
123
330
1F
100
AcDbEntity
  8
0-0
  6
JWW_DASHED1
 62
   120
370
     5
100
AcDbLine
 10
-1181.191330418318
 20
507.4466678764157
 30
0.0
 11
-1143.191330418311
 21
545.4466678764179
 31
0.0
  0
LINE
  5
124
330
1F
100
AcDbEntity
  8
0-0
  6
JWW_DASHED1
 62
   120
370
     5
100
AcDbLine
 10
-1181.191330418318
 20
517.3461628115673
 30
0.0
 11
-1143.191330418311
 21
555.3461628115826
 31
0.0
  0
LINE
  5
125
330
1F
100
AcDbEntity
  8
0-0
  6
JWW_DASHED1
 62
   120
370
     5
100
AcDbLine
 10
-1181.191330418318
 20
527.2456577467871
 30
0.0
 11
-1143.191330418318
 21
565.2456577467909
 31
0.0
  0
LINE
  5
126
330
1F
100
AcDbEntity
  8
0-0
  6
JWW_DASHED1
 62
   120
370
     5
100
AcDbLine
 10
-1181.191330418318
 20
537.145152682006
 30
0.0
 11
-1143.191330418311
 21
575.1451526820149
 31
0.0
  0
LINE
  5
127
330
1F
100
AcDbEntity
  8
0-0
  6
JWW_DASHED1
 62
   120
370
     5
100
AcDbLine
 10
-1181.191330418318
 20
547.0446476171652
 30
0.0
 11
-1143.191330418308
 21
585.0446476171776
 31
0.0
  0
LINE
  5
128
330
1F
100
AcDbEntity
  8
0-0
  6
JWW_DASHED1
 62
   120
370
     5
100
AcDbLine
 10
-1181.191330418318
 20
556.9441425523867
 30
0.0
 11
-1143.191330418314
 21
594.9441425523879
 31
0.0
  0
LINE
  5
129
330
1F
100
AcDbEntity
  8
0-0
  6
JWW_DASHED1
 62
   120
370
     5
100
AcDbLine
 10
-1181.191330418318
 20
566.8436374875988
 30
0.0
 11
-1143.191330418324
 21
604.8436374875957
 31
0.0
  0
LINE
  5
12A
330
1F
100
AcDbEntity
  8
0-0
  6
JWW_DASHED1
 62
   120
370
     5
100
AcDbLine
 10
-1181.191330418318
 20
576.7431324227662
 30
0.0
 11
-1143.191330418318
 21
614.7431324227609
 31
0.0
  0
LINE
  5
12B
330
1F
100
AcDbEntity
  8
0-0
  6
JWW_DASHED1
 62
   120
370
     5
100
AcDbLine
 10
-1181.191330418318
 20
586.6426273579807
 30
0.0
 11
-1143.191330418311
 21
624.6426273579846
 31
0.0
  0
LINE
  5
12C
330
1F
100
AcDbEntity
  8
0-0
  6
JWW_DASHED1
 62
   120
370
     5
100
AcDbLine
 10
-1181.191330418318
 20
596.5421222931924
 30
0.0
 11
-1143.191330418321
 21
634.5421222931928
 31
0.0
  0
LINE
  5
12D
330
1F
100
AcDbEntity
  8
0-0
  6
JWW_DASHED1
 62
   120
370
     5
100
AcDbLine
 10
-1181.191330418318
 20
606.4416172283563
 30
0.0
 11
-1143.191330418318
 21
644.4416172283571
 31
0.0
  0
LINE
  5
12E
330
1F
100
AcDbEntity
  8
0-0
  6
JWW_DASHED1
 62
   120
370
     5
100
AcDbLine
 10
-1181.191330418318
 20
616.3411121635705
 30
0.0
 11
-1143.191330418311
 21
654.3411121635816
 31
0.0
  0
LINE
  5
12F
330
1F
100
AcDbEntity
  8
0-0
  6
JWW_DASHED1
 62
   120
370
     5
100
AcDbLine
 10
-1181.191330418318
 20
626.2406070987878
 30
0.0
 11
-1143.191330418318
 21
664.2406070987898
 31
0.0
  0
LINE
  5
130
330
1F
100
AcDbEntity
  8
0-0
  6
JWW_DASHED1
 62
   120
370
     5
100
AcDbLine
 10
-1181.191330418318
 20
636.1401020339499
 30
0.0
 11
-1143.191330418314
 21
674.1401020339547
 31
0.0
  0
LINE
  5
131
330
1F
100
AcDbEntity
  8
0-0
  6
JWW_DASHED1
 62
   120
370
     5
100
AcDbLine
 10
-1181.191330418318
 20
646.039596969171
 30
0.0
 11
-1143.191330418308
 21
684.0395969691782
 31
0.0
  0
LINE
  5
132
330
1F
100
AcDbEntity
  8
0-0
  6
JWW_DASHED1
 62
   120
370
     5
100
AcDbLine
 10
-1181.191330418318
 20
655.939091904378
 30
0.0
 11
-1143.191330418318
 21
693.9390919043865
 31
0.0
  0
LINE
  5
133
330
1F
100
AcDbEntity
  8
0-0
  6
JWW_DASHED1
 62
   120
370
     5
100
AcDbLine
 10
-1181.191330418318
 20
665.83858683955
 30
0.0
 11
-1143.191330418311
 21
703.8385868395517
 31
0.0
  0
LINE
  5
134
330
1F
100
AcDbEntity
  8
0-0
  6
JWW_DASHED1
 62
   120
370
     5
100
AcDbLine
 10
-1181.191330418318
 20
675.738081774766
 30
0.0
 11
-1143.191330418321
 21
713.738081774759
 31
0.0
  0
LINE
  5
135
330
1F
100
AcDbEntity
  8
0-0
  6
JWW_DASHED1
 62
   120
370
     5
100
AcDbLine
 10
-1181.191330418318
 20
685.6375767099827
 30
0.0
 11
-1143.191330418311
 21
723.6375767099835
 31
0.0
  0
LINE
  5
136
330
1F
100
AcDbEntity
  8
0-0
  6
JWW_DASHED1
 62
   120
370
     5
100
AcDbLine
 10
-1181.191330418318
 20
695.5370716451403
 30
0.0
 11
-1143.191330418311
 21
733.5370716451483
 31
0.0
  0
LINE
  5
137
330
1F
100
AcDbEntity
  8
0-0
  6
JWW_DASHED1
 62
   120
370
     5
100
AcDbLine
 10
-1181.191330418318
 20
705.4365665803596
 30
0.0
 11
-1143.191330418318
 21
743.4365665803566
 31
0.0
  0
LINE
  5
138
330
1F
100
AcDbEntity
  8
0-0
  6
JWW_DASHED1
 62
   120
370
     5
100
AcDbLine
 10
-1181.191330418318
 20
715.336061515572
 30
0.0
 11
-1143.191330418311
 21
753.3360615155801
 31
0.0
  0
LINE
  5
139
330
1F
100
AcDbEntity
  8
0-0
  6
JWW_DASHED1
 62
   120
370
     5
100
AcDbLine
 10
-1181.191330418318
 20
725.2355564507321
 30
0.0
 11
-1143.191330418324
 21
763.2355564507295
 31
0.0
  0
LINE
  5
13A
330
1F
100
AcDbEntity
  8
0-0
  6
JWW_DASHED1
 62
   120
370
     5
100
AcDbLine
 10
-1181.191330418318
 20
735.1350513859485
 30
0.0
 11
-1143.191330418318
 21
773.1350513859536
 31
0.0
  0
LINE
  5
13B
330
1F
100
AcDbEntity
  8
0-0
  6
JWW_DASHED1
 62
   120
370
     5
100
AcDbLine
 10
-1181.191330418318
 20
745.0345463211657
 30
0.0
 11
-1143.191330418308
 21
783.0345463211772
 31
0.0
  0
LINE
  5
13C
330
1F
100
AcDbEntity
  8
0-0
  6
JWW_DASHED1
 62
   120
370
     5
100
AcDbLine
 10
-1181.191330418318
 20
754.9340412563326
 30
0.0
 11
-1143.191330418321
 21
792.9340412563262
 31
0.0
  0
LINE
  5
13D
330
1F
100
AcDbEntity
  8
0-0
  6
JWW_DASHED1
 62
   120
370
     5
100
AcDbLine
 10
-1181.191330418318
 20
764.833536191543
 30
0.0
 11
-1143.191330418314
 21
802.8335361915503
 31
0.0
  0
LINE
  5
13E
330
1F
100
AcDbEntity
  8
0-0
  6
JWW_DASHED1
 62
   120
370
     5
100
AcDbLine
 10
-1181.191330418318
 20
774.7330311267654
 30
0.0
 11
-1143.191330418304
 21
812.7330311267738
 31
0.0
  0
LINE
  5
13F
330
1F
100
AcDbEntity
  8
0-0
  6
JWW_DASHED1
 62
   120
370
     5
100
AcDbLine
 10
-1181.191330418318
 20
784.6325260619292
 30
0.0
 11
-1143.191330418318
 21
822.6325260619233
 31
0.0
  0
LINE
  5
140
330
1F
100
AcDbEntity
  8
0-0
  6
JWW_DASHED1
 62
   120
370
     5
100
AcDbLine
 10
-1181.191330418318
 20
794.5320209971367
 30
0.0
 11
-1143.191330418311
 21
832.5320209971472
 31
0.0
  0
LINE
  5
141
330
1F
100
AcDbEntity
  8
0-0
  6
JWW_DASHED1
 62
   120
370
     5
100
AcDbLine
 10
-1181.191330418318
 20
804.4315159323606
 30
0.0
 11
-1143.191330418318
 21
842.4315159323551
 31
0.0
  0
LINE
  5
142
330
1F
100
AcDbEntity
  8
0-0
  6
JWW_DASHED1
 62
   120
370
     5
100
AcDbLine
 10
-1181.191330418318
 20
824.2305058027409
 30
0.0
 11
-1143.191330418318
 21
862.2305058027298
 31
0.0
  0
LINE
  5
143
330
1F
100
AcDbEntity
  8
0-0
  6
JWW_DASHED1
 62
   120
370
     5
100
AcDbLine
 10
-1181.191330418318
 20
814.3310108675224
 30
0.0
 11
-1143.191330418318
 21
852.331010867516
 31
0.0
  0
LINE
  5
144
330
1F
100
AcDbEntity
  8
0-0
  6
JWW_DASHED1
 62
   120
370
     5
100
AcDbLine
 10
-1181.191330418318
 20
-1017.07555214402
 30
0.0
 11
-1143.191330418321
 21
-979.0755521440196
 31
0.0
  0
LINE
  5
145
330
1F
100
AcDbEntity
  8
0-0
  6
JWW_DASHED1
 62
   120
370
     5
100
AcDbLine
 10
-1181.191330418318
 20
-1026.975047079184
 30
0.0
 11
-1143.191330418321
 21
-988.9750470791844
 31
0.0
  0
LINE
  5
146
330
1F
100
AcDbEntity
  8
0-0
  6
JWW_DASHED1
 62
   120
370
     5
100
AcDbLine
 10
-1181.191330418318
 20
-1036.874542014349
 30
0.0
 11
-1143.191330418321
 21
-998.8745420143491
 31
0.0
  0
LINE
  5
147
330
1F
100
AcDbEntity
  8
0-0
  6
JWW_DASHED1
 62
   120
370
     5
100
AcDbLine
 10
-1178.390649839073
 20
-1043.973356370268
 30
0.0
 11
-1143.191330418321
 21
-1008.774036949514
 31
0.0
  0
LINE
  5
148
330
1F
100
AcDbEntity
  8
0-0
  6
JWW_DASHED1
 62
   120
370
     5
100
AcDbLine
 10
-1148.692165033581
 20
-1043.973356370268
 30
0.0
 11
-1143.191330418321
 21
-1038.472521755008
 31
0.0
  0
LINE
  5
149
330
1F
100
AcDbEntity
  8
0-0
  6
JWW_DASHED1
 62
   120
370
     5
100
AcDbLine
 10
-1168.491154903909
 20
-1043.973356370268
 30
0.0
 11
-1143.191330418321
 21
-1018.673531884679
 31
0.0
  0
LINE
  5
14A
330
1F
100
AcDbEntity
  8
0-0
  6
JWW_DASHED1
 62
   120
370
     5
100
AcDbLine
 10
-1158.591659968744
 20
-1043.973356370268
 30
0.0
 11
-1143.191330418321
 21
-1028.573026819843
 31
0.0
  0
LINE
  5
14B
330
1F
100
AcDbEntity
  8
0-0
  6
JWW_DASHED1
 62
   120
370
     5
100
AcDbLine
 10
-1181.191330418318
 20
834.1300007379594
 30
0.0
 11
-1143.191330418318
 21
872.1300007379483
 31
0.0
  0
LINE
  5
14C
330
1F
100
AcDbEntity
  8
0-0
  6
JWW_DASHED1
 62
   120
370
     5
100
AcDbLine
 10
-1181.191330418318
 20
844.029495673178
 30
0.0
 11
-1143.191330418318
 21
882.0294956731668
 31
0.0
  0
LINE
  5
14D
330
1F
100
AcDbEntity
  8
0-0
  6
JWW_DASHED1
 62
   120
370
     5
100
AcDbLine
 10
-1181.191330418318
 20
853.9289906083964
 30
0.0
 11
-1143.191330418318
 21
891.9289906083852
 31
0.0
  0
LINE
  5
14E
330
1F
100
AcDbEntity
  8
0-0
  6
JWW_DASHED1
 62
   120
370
     5
100
AcDbLine
 10
-1181.191330418318
 20
863.8284855436144
 30
0.0
 11
-1143.191330418318
 21
901.8284855436037
 31
0.0
  0
LINE
  5
14F
330
1F
100
AcDbEntity
  8
0-0
  6
JWW_DASHED1
 62
   120
370
     5
100
AcDbLine
 10
-1181.191330418318
 20
873.7279804788334
 30
0.0
 11
-1143.191330418318
 21
911.7279804788222
 31
0.0
  0
LINE
  5
150
330
1F
100
AcDbEntity
  8
0-0
  6
Continuous
 62
    92
370
    13
100
AcDbLine
 10
-1181.191330418318
 20
1131.026643629733
 30
0.0
 11
-1181.191330418318
 21
-1051.973356370268
 31
0.0
  0
LINE
  5
151
330
1F
100
AcDbEntity
  8
0-0
  6
Continuous
 62
    92
370
    13
100
AcDbLine
 10
-1143.191330418318
 20
1131.026643629733
 30
0.0
 11
-1143.191330418318
 21
-1051.973356370268
 31
0.0
  0
LINE
  5
152
330
1F
100
AcDbEntity
  8
0-0
  6
Continuous
 62
     7
370
     9
100
AcDbLine
 10
-1181.191330418318
 20
1123.026643629735
 30
0.0
 11
-1143.191330418318
 21
1123.026643629735
 31
0.0
  0
LINE
  5
153
330
1F
100
AcDbEntity
  8
0-0
  6
JWW_DASHED1
 62
   120
370
     5
100
AcDbLine
 10
-1181.191330418318
 20
883.6274754140518
 30
0.0
 11
-1143.191330418318
 21
921.6274754140408
 31
0.0
  0
LINE
  5
154
330
1F
100
AcDbEntity
  8
0-0
  6
JWW_DASHED1
 62
   120
370
     5
100
AcDbLine
 10
-1181.191330418318
 20
913.3259602197073
 30
0.0
 11
-1143.191330418318
 21
951.3259602196962
 31
0.0
  0
LINE
  5
155
330
1F
100
AcDbEntity
  8
0-0
  6
JWW_DASHED1
 62
   120
370
     5
100
AcDbLine
 10
-1181.191330418318
 20
893.5269703492703
 30
0.0
 11
-1143.191330418318
 21
931.5269703492593
 31
0.0
  0
LINE
  5
156
330
1F
100
AcDbEntity
  8
0-0
  6
JWW_DASHED1
 62
   120
370
     5
100
AcDbLine
 10
-1181.191330418318
 20
903.4264652844888
 30
0.0
 11
-1143.191330418318
 21
941.4264652844777
 31
0.0
  0
LINE
  5
157
330
1F
100
AcDbEntity
  8
0-0
  6
JWW_DASHED1
 62
   120
370
     5
100
AcDbLine
 10
-1181.191330418318
 20
933.1249500901442
 30
0.0
 11
-1143.191330418318
 21
971.1249500901331
 31
0.0
  0
LINE
  5
158
330
1F
100
AcDbEntity
  8
0-0
  6
JWW_DASHED1
 62
   120
370
     5
100
AcDbLine
 10
-1181.191330418318
 20
923.2254551549258
 30
0.0
 11
-1143.191330418318
 21
961.2254551549147
 31
0.0
  0
LINE
  5
159
330
1F
100
AcDbEntity
  8
0-0
  6
JWW_DASHED1
 62
   120
370
     5
100
AcDbLine
 10
-1181.191330418318
 20
952.9239399605813
 30
0.0
 11
-1143.191330418318
 21
990.9239399605701
 31
0.0
  0
LINE
  5
15A
330
1F
100
AcDbEntity
  8
0-0
  6
JWW_DASHED1
 62
   120
370
     5
100
AcDbLine
 10
-1181.191330418318
 20
943.0244450253628
 30
0.0
 11
-1143.191330418318
 21
981.0244450253516
 31
0.0
  0
LINE
  5
15B
330
1F
100
AcDbEntity
  8
0-0
  6
JWW_DASHED1
 62
   120
370
     5
100
AcDbLine
 10
-1181.191330418318
 20
972.7229298310182
 30
0.0
 11
-1143.191330418318
 21
1010.722929831007
 31
0.0
  0
LINE
  5
15C
330
1F
100
AcDbEntity
  8
0-0
  6
JWW_DASHED1
 62
   120
370
     5
100
AcDbLine
 10
-1181.191330418318
 20
962.8234348957997
 30
0.0
 11
-1143.191330418318
 21
1000.823434895789
 31
0.0
  0
LINE
  5
15D
330
1F
100
AcDbEntity
  8
0-0
  6
JWW_DASHED1
 62
   120
370
     5
100
AcDbLine
 10
-1181.191330418318
 20
992.5219197014552
 30
0.0
 11
-1143.191330418318
 21
1030.521919701444
 31
0.0
  0
LINE
  5
15E
330
1F
100
AcDbEntity
  8
0-0
  6
JWW_DASHED1
 62
   120
370
     5
100
AcDbLine
 10
-1181.191330418318
 20
982.6224247662367
 30
0.0
 11
-1143.191330418318
 21
1020.622424766225
 31
0.0
  0
LINE
  5
15F
330
1F
100
AcDbEntity
  8
0-0
  6
JWW_DASHED1
 62
   120
370
     5
100
AcDbLine
 10
-1181.191330418318
 20
1012.320909571892
 30
0.0
 11
-1143.191330418318
 21
1050.320909571881
 31
0.0
  0
LINE
  5
160
330
1F
100
AcDbEntity
  8
0-0
  6
JWW_DASHED1
 62
   120
370
     5
100
AcDbLine
 10
-1181.191330418318
 20
1002.421414636674
 30
0.0
 11
-1143.191330418318
 21
1040.421414636663
 31
0.0
  0
LINE
  5
161
330
1F
100
AcDbEntity
  8
0-0
  6
JWW_DASHED1
 62
   120
370
     5
100
AcDbLine
 10
-1181.191330418318
 20
1032.119899442329
 30
0.0
 11
-1143.191330418318
 21
1070.119899442318
 31
0.0
  0
LINE
  5
162
330
1F
100
AcDbEntity
  8
0-0
  6
JWW_DASHED1
 62
   120
370
     5
100
AcDbLine
 10
-1181.191330418318
 20
1022.220404507111
 30
0.0
 11
-1143.191330418318
 21
1060.2204045071
 31
0.0
  0
LINE
  5
163
330
1F
100
AcDbEntity
  8
0-0
  6
JWW_DASHED1
 62
   120
370
     5
100
AcDbLine
 10
-1181.191330418318
 20
1051.918889312766
 30
0.0
 11
-1143.191330418318
 21
1089.918889312755
 31
0.0
  0
LINE
  5
164
330
1F
100
AcDbEntity
  8
0-0
  6
JWW_DASHED1
 62
   120
370
     5
100
AcDbLine
 10
-1181.191330418318
 20
1042.019394377548
 30
0.0
 11
-1143.191330418318
 21
1080.019394377536
 31
0.0
  0
LINE
  5
165
330
1F
100
AcDbEntity
  8
0-0
  6
JWW_DASHED1
 62
   120
370
     5
100
AcDbLine
 10
-1181.191330418318
 20
1071.717879183203
 30
0.0
 11
-1143.191330418318
 21
1109.717879183192
 31
0.0
  0
LINE
  5
166
330
1F
100
AcDbEntity
  8
0-0
  6
JWW_DASHED1
 62
   120
370
     5
100
AcDbLine
 10
-1181.191330418318
 20
1061.818384247984
 30
0.0
 11
-1143.191330418318
 21
1099.818384247973
 31
0.0
  0
LINE
  5
167
330
1F
100
AcDbEntity
  8
0-0
  6
JWW_DASHED1
 62
   120
370
     5
100
AcDbLine
 10
-1181.191330418318
 20
1081.617374118422
 30
0.0
 11
-1143.191330418318
 21
1119.61737411841
 31
0.0
  0
LINE
  5
168
330
1F
100
AcDbEntity
  8
0-0
  6
JWW_DASHED1
 62
   120
370
     5
100
AcDbLine
 10
-1181.191330418318
 20
1111.315858924077
 30
0.0
 11
-1169.480545712657
 21
1123.026643629735
 31
0.0
  0
LINE
  5
169
330
1F
100
AcDbEntity
  8
0-0
  6
JWW_DASHED1
 62
   120
370
     5
100
AcDbLine
 10
-1181.191330418318
 20
1091.51686905364
 30
0.0
 11
-1149.681555842214
 21
1123.026643629735
 31
0.0
  0
LINE
  5
16A
330
1F
100
AcDbEntity
  8
0-0
  6
JWW_DASHED1
 62
   120
370
     5
100
AcDbLine
 10
-1181.191330418318
 20
1101.416363988858
 30
0.0
 11
-1159.581050777435
 21
1123.026643629735
 31
0.0
  0
LINE
  5
16B
330
1F
100
AcDbEntity
  8
0-0
  6
Continuous
 62
     7
370
     9
100
AcDbLine
 10
-401.1913304183182
 20
-1043.973356370268
 30
0.0
 11
-363.1913304183178
 21
-1043.973356370268
 31
0.0
  0
LINE
  5
16C
330
1F
100
AcDbEntity
  8
0-0
  6
JWW_DASHED1
 62
   120
370
     5
100
AcDbLine
 10
-401.1913304183182
 20
-1007.176057208855
 30
0.0
 11
-363.1913304183212
 21
-969.1760572088548
 31
0.0
  0
LINE
  5
16D
330
1F
100
AcDbEntity
  8
0-0
  6
JWW_DASHED1
 62
   120
370
     5
100
AcDbLine
 10
-401.1913304183182
 20
-997.276562273693
 30
0.0
 11
-363.1913304183178
 21
-959.27656227369
 31
0.0
  0
LINE
  5
16E
330
1F
100
AcDbEntity
  8
0-0
  6
JWW_DASHED1
 62
   120
370
     5
100
AcDbLine
 10
-401.1913304183182
 20
-987.3770673384745
 30
0.0
 11
-363.1913304183109
 21
-949.3770673384661
 31
0.0
  0
LINE
  5
16F
330
1F
100
AcDbEntity
  8
0-0
  6
JWW_DASHED1
 62
   120
370
     5
100
AcDbLine
 10
-401.1913304183182
 20
-977.4775724032622
 30
0.0
 11
-363.1913304183178
 21
-939.4775724032578
 31
0.0
  0
LINE
  5
170
330
1F
100
AcDbEntity
  8
0-0
  6
JWW_DASHED1
 62
   120
370
     5
100
AcDbLine
 10
-401.1913304183182
 20
-967.5780774680936
 30
0.0
 11
-363.1913304183144
 21
-929.578077468093
 31
0.0
  0
LINE
  5
171
330
1F
100
AcDbEntity
  8
0-0
  6
JWW_DASHED1
 62
   120
370
     5
100
AcDbLine
 10
-401.1913304183182
 20
-957.6785825328797
 30
0.0
 11
-363.1913304183246
 21
-919.6785825328848
 31
0.0
  0
LINE
  5
172
330
1F
100
AcDbEntity
  8
0-0
  6
JWW_DASHED1
 62
   120
370
     5
100
AcDbLine
 10
-401.1913304183182
 20
-947.7790875976611
 30
0.0
 11
-363.1913304183144
 21
-909.7790875976609
 31
0.0
  0
LINE
  5
173
330
1F
100
AcDbEntity
  8
0-0
  6
JWW_DASHED1
 62
   120
370
     5
100
AcDbLine
 10
-401.1913304183182
 20
-937.8795926625
 30
0.0
 11
-363.1913304183109
 21
-899.879592662496
 31
0.0
  0
LINE
  5
174
330
1F
100
AcDbEntity
  8
0-0
  6
JWW_DASHED1
 62
   120
370
     5
100
AcDbLine
 10
-401.1913304183182
 20
-927.9800977272862
 30
0.0
 11
-363.1913304183212
 21
-889.9800977272879
 31
0.0
  0
LINE
  5
175
330
1F
100
AcDbEntity
  8
0-0
  6
JWW_DASHED1
 62
   120
370
     5
100
AcDbLine
 10
-401.1913304183182
 20
-918.0806027920688
 30
0.0
 11
-363.1913304183109
 21
-880.0806027920639
 31
0.0
  0
LINE
  5
176
330
1F
100
AcDbEntity
  8
0-0
  6
JWW_DASHED1
 62
   120
370
     5
100
AcDbLine
 10
-401.1913304183182
 20
-908.1811078569061
 30
0.0
 11
-363.1913304183246
 21
-870.1811078569149
 31
0.0
  0
LINE
  5
177
330
1F
100
AcDbEntity
  8
0-0
  6
JWW_DASHED1
 62
   120
370
     5
100
AcDbLine
 10
-401.1913304183182
 20
-898.2816129216926
 30
0.0
 11
-363.1913304183178
 21
-860.2816129216912
 31
0.0
  0
LINE
  5
178
330
1F
100
AcDbEntity
  8
0-0
  6
JWW_DASHED1
 62
   120
370
     5
100
AcDbLine
 10
-401.1913304183182
 20
-888.3821179864785
 30
0.0
 11
-363.1913304183109
 21
-850.3821179864673
 31
0.0
  0
LINE
  5
179
330
1F
100
AcDbEntity
  8
0-0
  6
JWW_DASHED1
 62
   120
370
     5
100
AcDbLine
 10
-401.1913304183182
 20
-878.4826230513153
 30
0.0
 11
-363.1913304183246
 21
-840.4826230513181
 31
0.0
  0
LINE
  5
17A
330
1F
100
AcDbEntity
  8
0-0
  6
JWW_DASHED1
 62
   120
370
     5
100
AcDbLine
 10
-401.1913304183182
 20
-868.583128116103
 30
0.0
 11
-363.1913304183178
 21
-830.583128116094
 31
0.0
  0
LINE
  5
17B
330
1F
100
AcDbEntity
  8
0-0
  6
JWW_DASHED1
 62
   120
370
     5
100
AcDbLine
 10
-401.1913304183182
 20
-858.6836331809299
 30
0.0
 11
-363.1913304183109
 21
-820.6836331809295
 31
0.0
  0
LINE
  5
17C
330
1F
100
AcDbEntity
  8
0-0
  6
JWW_DASHED1
 62
   120
370
     5
100
AcDbLine
 10
-401.1913304183182
 20
-848.7841382457148
 30
0.0
 11
-363.1913304183212
 21
-810.784138245721
 31
0.0
  0
LINE
  5
17D
330
1F
100
AcDbEntity
  8
0-0
  6
JWW_DASHED1
 62
   120
370
     5
100
AcDbLine
 10
-401.1913304183182
 20
-838.8846433105025
 30
0.0
 11
-363.1913304183144
 21
-800.8846433104973
 31
0.0
  0
LINE
  5
17E
330
1F
100
AcDbEntity
  8
0-0
  6
JWW_DASHED1
 62
   120
370
     5
100
AcDbLine
 10
-401.1913304183182
 20
-828.9851483753407
 30
0.0
 11
-363.1913304183109
 21
-790.9851483753321
 31
0.0
  0
LINE
  5
17F
330
1F
100
AcDbEntity
  8
0-0
  6
JWW_DASHED1
 62
   120
370
     5
100
AcDbLine
 10
-401.1913304183182
 20
-819.0856534401207
 30
0.0
 11
-363.1913304183178
 21
-781.0856534401242
 31
0.0
  0
LINE
  5
180
330
1F
100
AcDbEntity
  8
0-0
  6
JWW_DASHED1
 62
   120
370
     5
100
AcDbLine
 10
-401.1913304183182
 20
-809.1861585049091
 30
0.0
 11
-363.1913304183109
 21
-771.1861585049004
 31
0.0
  0
LINE
  5
181
330
1F
100
AcDbEntity
  8
0-0
  6
JWW_DASHED1
 62
   120
370
     5
100
AcDbLine
 10
-401.1913304183182
 20
-799.286663569746
 30
0.0
 11
-363.1913304183246
 21
-761.2866635697512
 31
0.0
  0
LINE
  5
182
330
1F
100
AcDbEntity
  8
0-0
  6
JWW_DASHED1
 62
   120
370
     5
100
AcDbLine
 10
-401.1913304183182
 20
-789.3871686345318
 30
0.0
 11
-363.1913304183178
 21
-751.3871686345274
 31
0.0
  0
LINE
  5
183
330
1F
100
AcDbEntity
  8
0-0
  6
JWW_DASHED1
 62
   120
370
     5
100
AcDbLine
 10
-401.1913304183182
 20
-779.4876736993164
 30
0.0
 11
-363.1913304183246
 21
-741.4876736993193
 31
0.0
  0
LINE
  5
184
330
1F
100
AcDbEntity
  8
0-0
  6
JWW_DASHED1
 62
   120
370
     5
100
AcDbLine
 10
-401.1913304183182
 20
-769.5881787641526
 30
0.0
 11
-363.1913304183212
 21
-731.5881787641543
 31
0.0
  0
LINE
  5
185
330
1F
100
AcDbEntity
  8
0-0
  6
JWW_DASHED1
 62
   120
370
     5
100
AcDbLine
 10
-401.1913304183182
 20
-759.688683828938
 30
0.0
 11
-363.1913304183144
 21
-721.6886838289305
 31
0.0
  0
LINE
  5
186
330
1F
100
AcDbEntity
  8
0-0
  6
JWW_DASHED1
 62
   120
370
     5
100
AcDbLine
 10
-401.1913304183182
 20
-749.789188893721
 30
0.0
 11
-363.1913304183212
 21
-711.7891888937222
 31
0.0
  0
LINE
  5
187
330
1F
100
AcDbEntity
  8
0-0
  6
JWW_DASHED1
 62
   120
370
     5
100
AcDbLine
 10
-401.1913304183182
 20
-739.8896939585516
 30
0.0
 11
-363.1913304183178
 21
-701.8896939585575
 31
0.0
  0
LINE
  5
188
330
1F
100
AcDbEntity
  8
0-0
  6
JWW_DASHED1
 62
   120
370
     5
100
AcDbLine
 10
-401.1913304183182
 20
-729.9901990233448
 30
0.0
 11
-363.1913304183109
 21
-691.9901990233335
 31
0.0
  0
LINE
  5
189
330
1F
100
AcDbEntity
  8
0-0
  6
JWW_DASHED1
 62
   120
370
     5
100
AcDbLine
 10
-401.1913304183182
 20
-720.0907040881201
 30
0.0
 11
-363.1913304183178
 21
-682.0907040881254
 31
0.0
  0
LINE
  5
18A
330
1F
100
AcDbEntity
  8
0-0
  6
JWW_DASHED1
 62
   120
370
     5
100
AcDbLine
 10
-401.1913304183182
 20
-710.1912091529621
 30
0.0
 11
-363.1913304183178
 21
-672.1912091529605
 31
0.0
  0
LINE
  5
18B
330
1F
100
AcDbEntity
  8
0-0
  6
JWW_DASHED1
 62
   120
370
     5
100
AcDbLine
 10
-401.1913304183182
 20
-700.2917142177479
 30
0.0
 11
-363.1913304183109
 21
-662.2917142177366
 31
0.0
  0
LINE
  5
18C
330
1F
100
AcDbEntity
  8
0-0
  6
JWW_DASHED1
 62
   120
370
     5
100
AcDbLine
 10
-401.1913304183182
 20
-690.39221928253
 30
0.0
 11
-363.1913304183178
 21
-652.3922192825283
 31
0.0
  0
LINE
  5
18D
330
1F
100
AcDbEntity
  8
0-0
  6
JWW_DASHED1
 62
   120
370
     5
100
AcDbLine
 10
-401.1913304183182
 20
-680.4927243473687
 30
0.0
 11
-363.1913304183144
 21
-642.4927243473636
 31
0.0
  0
LINE
  5
18E
330
1F
100
AcDbEntity
  8
0-0
  6
JWW_DASHED1
 62
   120
370
     5
100
AcDbLine
 10
-401.1913304183182
 20
-670.5932294121494
 30
0.0
 11
-363.1913304183212
 21
-632.5932294121556
 31
0.0
  0
LINE
  5
18F
330
1F
100
AcDbEntity
  8
0-0
  6
JWW_DASHED1
 62
   120
370
     5
100
AcDbLine
 10
-401.1913304183182
 20
-660.6937344769367
 30
0.0
 11
-363.1913304183144
 21
-622.6937344769316
 31
0.0
  0
LINE
  5
190
330
1F
100
AcDbEntity
  8
0-0
  6
JWW_DASHED1
 62
   120
370
     5
100
AcDbLine
 10
-401.1913304183182
 20
-650.794239541775
 30
0.0
 11
-363.1913304183109
 21
-612.7942395417666
 31
0.0
  0
LINE
  5
191
330
1F
100
AcDbEntity
  8
0-0
  6
JWW_DASHED1
 62
   120
370
     5
100
AcDbLine
 10
-401.1913304183182
 20
-640.8947446065557
 30
0.0
 11
-363.1913304183178
 21
-602.8947446065586
 31
0.0
  0
LINE
  5
192
330
1F
100
AcDbEntity
  8
0-0
  6
JWW_DASHED1
 62
   120
370
     5
100
AcDbLine
 10
-401.1913304183182
 20
-630.9952496713357
 30
0.0
 11
-363.1913304183109
 21
-592.9952496713349
 31
0.0
  0
LINE
  5
193
330
1F
100
AcDbEntity
  8
0-0
  6
JWW_DASHED1
 62
   120
370
     5
100
AcDbLine
 10
-401.1913304183182
 20
-621.0957547361832
 30
0.0
 11
-363.1913304183246
 21
-583.0957547361855
 31
0.0
  0
LINE
  5
194
330
1F
100
AcDbEntity
  8
0-0
  6
JWW_DASHED1
 62
   120
370
     5
100
AcDbLine
 10
-401.1913304183182
 20
-611.1962598009661
 30
0.0
 11
-363.1913304183178
 21
-573.1962598009617
 31
0.0
  0
LINE
  5
195
330
1F
100
AcDbEntity
  8
0-0
  6
JWW_DASHED1
 62
   120
370
     5
100
AcDbLine
 10
-401.1913304183182
 20
-601.2967648657464
 30
0.0
 11
-363.1913304183109
 21
-563.2967648657375
 31
0.0
  0
LINE
  5
196
330
1F
100
AcDbEntity
  8
0-0
  6
JWW_DASHED1
 62
   120
370
     5
100
AcDbLine
 10
-401.1913304183182
 20
-591.397269930586
 30
0.0
 11
-363.1913304183246
 21
-553.3972699305884
 31
0.0
  0
LINE
  5
197
330
1F
100
AcDbEntity
  8
0-0
  6
JWW_DASHED1
 62
   120
370
     5
100
AcDbLine
 10
-401.1913304183182
 20
-581.4977749953665
 30
0.0
 11
-363.1913304183144
 21
-543.4977749953645
 31
0.0
  0
LINE
  5
198
330
1F
100
AcDbEntity
  8
0-0
  6
JWW_DASHED1
 62
   120
370
     5
100
AcDbLine
 10
-401.1913304183182
 20
-571.5982800601519
 30
0.0
 11
-363.1913304183246
 21
-533.5982800601566
 31
0.0
  0
LINE
  5
199
330
1F
100
AcDbEntity
  8
0-0
  6
JWW_DASHED1
 62
   120
370
     5
100
AcDbLine
 10
-401.1913304183182
 20
-561.6987851249862
 30
0.0
 11
-363.1913304183178
 21
-523.6987851249914
 31
0.0
  0
LINE
  5
19A
330
1F
100
AcDbEntity
  8
0-0
  6
JWW_DASHED1
 62
   120
370
     5
100
AcDbLine
 10
-401.1913304183182
 20
-551.799290189772
 30
0.0
 11
-363.1913304183109
 21
-513.7992901897683
 31
0.0
  0
LINE
  5
19B
330
1F
100
AcDbEntity
  8
0-0
  6
JWW_DASHED1
 62
   120
370
     5
100
AcDbLine
 10
-401.1913304183182
 20
-541.8997952545578
 30
0.0
 11
-363.1913304183212
 21
-503.89979525456
 31
0.0
  0
LINE
  5
19C
330
1F
100
AcDbEntity
  8
0-0
  6
JWW_DASHED1
 62
   120
370
     5
100
AcDbLine
 10
-401.1913304183182
 20
-532.000300319396
 30
0.0
 11
-363.1913304183178
 21
-494.0003003193948
 31
0.0
  0
LINE
  5
19D
330
1F
100
AcDbEntity
  8
0-0
  6
JWW_DASHED1
 62
   120
370
     5
100
AcDbLine
 10
-401.1913304183182
 20
-522.1008053841767
 30
0.0
 11
-363.1913304183246
 21
-484.1008053841865
 31
0.0
  0
LINE
  5
19E
330
1F
100
AcDbEntity
  8
0-0
  6
JWW_DASHED1
 62
   120
370
     5
100
AcDbLine
 10
-401.1913304183182
 20
-512.2013104489643
 30
0.0
 11
-363.1913304183178
 21
-474.2013104489629
 31
0.0
  0
LINE
  5
19F
330
1F
100
AcDbEntity
  8
0-0
  6
JWW_DASHED1
 62
   120
370
     5
100
AcDbLine
 10
-401.1913304183182
 20
-502.301815513802
 30
0.0
 11
-363.1913304183144
 21
-464.3018155137981
 31
0.0
  0
LINE
  5
1A0
330
1F
100
AcDbEntity
  8
0-0
  6
JWW_DASHED1
 62
   120
370
     5
100
AcDbLine
 10
-401.1913304183182
 20
-492.4023205785886
 30
0.0
 11
-363.1913304183246
 21
-454.4023205785895
 31
0.0
  0
LINE
  5
1A1
330
1F
100
AcDbEntity
  8
0-0
  6
JWW_DASHED1
 62
   120
370
     5
100
AcDbLine
 10
-401.1913304183182
 20
-482.502825643368
 30
0.0
 11
-363.1913304183178
 21
-444.5028256433659
 31
0.0
  0
LINE
  5
1A2
330
1F
100
AcDbEntity
  8
0-0
  6
JWW_DASHED1
 62
   120
370
     5
100
AcDbLine
 10
-401.1913304183182
 20
-472.603330708202
 30
0.0
 11
-363.1913304183109
 21
-434.6033307082012
 31
0.0
  0
LINE
  5
1A3
330
1F
100
AcDbEntity
  8
0-0
  6
JWW_DASHED1
 62
   120
370
     5
100
AcDbLine
 10
-401.1913304183182
 20
-462.7038357729868
 30
0.0
 11
-363.1913304183212
 21
-424.7038357729933
 31
0.0
  0
LINE
  5
1A4
330
1F
100
AcDbEntity
  8
0-0
  6
JWW_DASHED1
 62
   120
370
     5
100
AcDbLine
 10
-401.1913304183182
 20
-452.8043408377739
 30
0.0
 11
-363.1913304183144
 21
-414.8043408377692
 31
0.0
  0
LINE
  5
1A5
330
1F
100
AcDbEntity
  8
0-0
  6
JWW_DASHED1
 62
   120
370
     5
100
AcDbLine
 10
-401.1913304183182
 20
-442.904845902613
 30
0.0
 11
-363.1913304183109
 21
-404.9048459026041
 31
0.0
  0
LINE
  5
1A6
330
1F
100
AcDbEntity
  8
0-0
  6
JWW_DASHED1
 62
   120
370
     5
100
AcDbLine
 10
-401.1913304183182
 20
-433.0053509673933
 30
0.0
 11
-363.1913304183178
 21
-395.0053509673962
 31
0.0
  0
LINE
  5
1A7
330
1F
100
AcDbEntity
  8
0-0
  6
JWW_DASHED1
 62
   120
370
     5
100
AcDbLine
 10
-401.1913304183182
 20
-423.1058560321811
 30
0.0
 11
-363.1913304183109
 21
-385.1058560321723
 31
0.0
  0
LINE
  5
1A8
330
1F
100
AcDbEntity
  8
0-0
  6
JWW_DASHED1
 62
   120
370
     5
100
AcDbLine
 10
-401.1913304183182
 20
-413.2063610970134
 30
0.0
 11
-363.1913304183178
 21
-375.2063610970177
 31
0.0
  0
LINE
  5
1A9
330
1F
100
AcDbEntity
  8
0-0
  6
JWW_DASHED1
 62
   120
370
     5
100
AcDbLine
 10
-401.1913304183182
 20
-403.306866161803
 30
0.0
 11
-363.1913304183178
 21
-365.3068661617992
 31
0.0
  0
LINE
  5
1AA
330
1F
100
AcDbEntity
  8
0-0
  6
JWW_DASHED1
 62
   120
370
     5
100
AcDbLine
 10
-401.1913304183182
 20
-393.4073712265892
 30
0.0
 11
-363.1913304183246
 21
-355.407371226591
 31
0.0
  0
LINE
  5
1AB
330
1F
100
AcDbEntity
  8
0-0
  6
JWW_DASHED1
 62
   120
370
     5
100
AcDbLine
 10
-401.1913304183182
 20
-383.5078762914249
 30
0.0
 11
-363.1913304183212
 21
-345.5078762914262
 31
0.0
  0
LINE
  5
1AC
330
1F
100
AcDbEntity
  8
0-0
  6
JWW_DASHED1
 62
   120
370
     5
100
AcDbLine
 10
-401.1913304183182
 20
-373.6083813562026
 30
0.0
 11
-363.1913304183144
 21
-335.6083813562021
 31
0.0
  0
LINE
  5
1AD
330
1F
100
AcDbEntity
  8
0-0
  6
JWW_DASHED1
 62
   120
370
     5
100
AcDbLine
 10
-401.1913304183182
 20
-363.7088864209879
 30
0.0
 11
-363.1913304183212
 21
-325.7088864209943
 31
0.0
  0
LINE
  5
1AE
330
1F
100
AcDbEntity
  8
0-0
  6
JWW_DASHED1
 62
   120
370
     5
100
AcDbLine
 10
-401.1913304183182
 20
-353.809391485824
 30
0.0
 11
-363.1913304183178
 21
-315.8093914858291
 31
0.0
  0
LINE
  5
1AF
330
1F
100
AcDbEntity
  8
0-0
  6
JWW_DASHED1
 62
   120
370
     5
100
AcDbLine
 10
-401.1913304183182
 20
-343.9098965506157
 30
0.0
 11
-363.1913304183109
 21
-305.9098965506051
 31
0.0
  0
LINE
  5
1B0
330
1F
100
AcDbEntity
  8
0-0
  6
JWW_DASHED1
 62
   120
370
     5
100
AcDbLine
 10
-401.1913304183182
 20
-334.0104016153921
 30
0.0
 11
-363.1913304183178
 21
-296.0104016153973
 31
0.0
  0
LINE
  5
1B1
330
1F
100
AcDbEntity
  8
0-0
  6
JWW_DASHED1
 62
   120
370
     5
100
AcDbLine
 10
-401.1913304183182
 20
-324.1109066802342
 30
0.0
 11
-363.1913304183178
 21
-286.1109066802321
 31
0.0
  0
LINE
  5
1B2
330
1F
100
AcDbEntity
  8
0-0
  6
JWW_DASHED1
 62
   120
370
     5
100
AcDbLine
 10
-401.1913304183182
 20
-314.2114117450208
 30
0.0
 11
-363.1913304183109
 21
-276.211411745008
 31
0.0
  0
LINE
  5
1B3
330
1F
100
AcDbEntity
  8
0-0
  6
JWW_DASHED1
 62
   120
370
     5
100
AcDbLine
 10
-401.1913304183182
 20
-304.3119168098024
 30
0.0
 11
-363.1913304183178
 21
-266.3119168098002
 31
0.0
  0
LINE
  5
1B4
330
1F
100
AcDbEntity
  8
0-0
  6
JWW_DASHED1
 62
   120
370
     5
100
AcDbLine
 10
-401.1913304183182
 20
-294.4124218746406
 30
0.0
 11
-363.1913304183144
 21
-256.412421874635
 31
0.0
  0
LINE
  5
1B5
330
1F
100
AcDbEntity
  8
0-0
  6
JWW_DASHED1
 62
   120
370
     5
100
AcDbLine
 10
-401.1913304183182
 20
-284.5129269394208
 30
0.0
 11
-363.1913304183212
 21
-246.5129269394272
 31
0.0
  0
LINE
  5
1B6
330
1F
100
AcDbEntity
  8
0-0
  6
JWW_DASHED1
 62
   120
370
     5
100
AcDbLine
 10
-401.1913304183182
 20
-274.6134320042369
 30
0.0
 11
-363.1913304183178
 21
-236.613432004233
 31
0.0
  0
LINE
  5
1B7
330
1F
100
AcDbEntity
  8
0-0
  6
JWW_DASHED1
 62
   120
370
     5
100
AcDbLine
 10
-401.1913304183182
 20
-264.7139370690393
 30
0.0
 11
-363.1913304183109
 21
-226.7139370690384
 31
0.0
  0
LINE
  5
1B8
330
1F
100
AcDbEntity
  8
0-0
  6
JWW_DASHED1
 62
   120
370
     5
100
AcDbLine
 10
-401.1913304183182
 20
-254.8144421338263
 30
0.0
 11
-363.1913304183178
 21
-216.8144421338306
 31
0.0
  0
LINE
  5
1B9
330
1F
100
AcDbEntity
  8
0-0
  6
JWW_DASHED1
 62
   120
370
     5
100
AcDbLine
 10
-401.1913304183182
 20
-244.9149471986364
 30
0.0
 11
-363.1913304183144
 21
-206.914947198636
 31
0.0
  0
LINE
  5
1BA
330
1F
100
AcDbEntity
  8
0-0
  6
JWW_DASHED1
 62
   120
370
     5
100
AcDbLine
 10
-401.1913304183182
 20
-235.0154522634541
 30
0.0
 11
-363.1913304183246
 21
-197.0154522634571
 31
0.0
  0
LINE
  5
1BB
330
1F
100
AcDbEntity
  8
0-0
  6
JWW_DASHED1
 62
   120
370
     5
100
AcDbLine
 10
-401.1913304183182
 20
-225.1159573282391
 30
0.0
 11
-363.1913304183178
 21
-187.1159573282331
 31
0.0
  0
LINE
  5
1BC
330
1F
100
AcDbEntity
  8
0-0
  6
JWW_DASHED1
 62
   120
370
     5
100
AcDbLine
 10
-401.1913304183182
 20
-215.2164623930692
 30
0.0
 11
-363.1913304183144
 21
-177.2164623930688
 31
0.0
  0
LINE
  5
1BD
330
1F
100
AcDbEntity
  8
0-0
  6
JWW_DASHED1
 62
   120
370
     5
100
AcDbLine
 10
-401.1913304183182
 20
-205.3169674578592
 30
0.0
 11
-363.1913304183246
 21
-167.3169674578601
 31
0.0
  0
LINE
  5
1BE
330
1F
100
AcDbEntity
  8
0-0
  6
JWW_DASHED1
 62
   120
370
     5
100
AcDbLine
 10
-401.1913304183182
 20
-195.4174725226373
 30
0.0
 11
-363.1913304183144
 21
-157.4174725226369
 31
0.0
  0
LINE
  5
1BF
330
1F
100
AcDbEntity
  8
0-0
  6
JWW_DASHED1
 62
   120
370
     5
100
AcDbLine
 10
-401.1913304183182
 20
-185.5179775874755
 30
0.0
 11
-363.1913304183109
 21
-147.5179775874717
 31
0.0
  0
LINE
  5
1C0
330
1F
100
AcDbEntity
  8
0-0
  6
JWW_DASHED1
 62
   120
370
     5
100
AcDbLine
 10
-401.1913304183182
 20
-175.6184826522609
 30
0.0
 11
-363.1913304183212
 21
-137.6184826522639
 31
0.0
  0
LINE
  5
1C1
330
1F
100
AcDbEntity
  8
0-0
  6
JWW_DASHED1
 62
   120
370
     5
100
AcDbLine
 10
-401.1913304183182
 20
-165.7189877170437
 30
0.0
 11
-363.1913304183109
 21
-127.7189877170399
 31
0.0
  0
LINE
  5
1C2
330
1F
100
AcDbEntity
  8
0-0
  6
JWW_DASHED1
 62
   120
370
     5
100
AcDbLine
 10
-401.1913304183182
 20
-155.8194927818853
 30
0.0
 11
-363.1913304183109
 21
-117.8194927818747
 31
0.0
  0
LINE
  5
1C3
330
1F
100
AcDbEntity
  8
0-0
  6
JWW_DASHED1
 62
   120
370
     5
100
AcDbLine
 10
-401.1913304183182
 20
-145.9199978466673
 30
0.0
 11
-363.1913304183178
 21
-107.9199978466669
 31
0.0
  0
LINE
  5
1C4
330
1F
100
AcDbEntity
  8
0-0
  6
JWW_DASHED1
 62
   120
370
     5
100
AcDbLine
 10
-401.1913304183182
 20
-136.0205029114535
 30
0.0
 11
-363.1913304183109
 21
-98.02050291144283
 31
0.0
  0
LINE
  5
1C5
330
1F
100
AcDbEntity
  8
0-0
  6
JWW_DASHED1
 62
   120
370
     5
100
AcDbLine
 10
-401.1913304183182
 20
-126.1210079762866
 30
0.0
 11
-363.1913304183144
 21
-88.12100797628617
 31
0.0
  0
LINE
  5
1C6
330
1F
100
AcDbEntity
  8
0-0
  6
JWW_DASHED1
 62
   120
370
     5
100
AcDbLine
 10
-401.1913304183182
 20
-116.2215130410753
 30
0.0
 11
-363.1913304183144
 21
-78.22151304106981
 31
0.0
  0
LINE
  5
1C7
330
1F
100
AcDbEntity
  8
0-0
  6
JWW_DASHED1
 62
   120
370
     5
100
AcDbLine
 10
-401.1913304183182
 20
-106.322018105859
 30
0.0
 11
-363.1913304183246
 21
-68.32201810586199
 31
0.0
  0
LINE
  5
1C8
330
1F
100
AcDbEntity
  8
0-0
  6
JWW_DASHED1
 62
   120
370
     5
100
AcDbLine
 10
-401.1913304183182
 20
-96.42252317069037
 30
0.0
 11
-363.1913304183212
 21
-58.42252317069679
 31
0.0
  0
LINE
  5
1C9
330
1F
100
AcDbEntity
  8
0-0
  6
JWW_DASHED1
 62
   120
370
     5
100
AcDbLine
 10
-401.1913304183182
 20
-86.52302823547444
 30
0.0
 11
-363.1913304183109
 21
-48.52302823547276
 31
0.0
  0
LINE
  5
1CA
330
1F
100
AcDbEntity
  8
0-0
  6
JWW_DASHED1
 62
   120
370
     5
100
AcDbLine
 10
-401.1913304183182
 20
-76.62353330025852
 30
0.0
 11
-363.1913304183212
 21
-38.62353330026494
 31
0.0
  0
LINE
  5
1CB
330
1F
100
AcDbEntity
  8
0-0
  6
JWW_DASHED1
 62
   120
370
     5
100
AcDbLine
 10
-401.1913304183182
 20
-66.72403836510483
 30
0.0
 11
-363.1913304183178
 21
-28.72403836509974
 31
0.0
  0
LINE
  5
1CC
330
1F
100
AcDbEntity
  8
0-0
  6
JWW_DASHED1
 62
   120
370
     5
100
AcDbLine
 10
-401.1913304183182
 20
-56.82454342988422
 30
0.0
 11
-363.1913304183109
 21
-18.82454342987614
 31
0.0
  0
LINE
  5
1CD
330
1F
100
AcDbEntity
  8
0-0
  6
JWW_DASHED1
 62
   120
370
     5
100
AcDbLine
 10
-401.1913304183182
 20
-46.92504849466488
 30
0.0
 11
-363.1913304183178
 21
-8.925048494667891
 31
0.0
  0
LINE
  5
1CE
330
1F
100
AcDbEntity
  8
0-0
  6
JWW_DASHED1
 62
   120
370
     5
100
AcDbLine
 10
-401.1913304183182
 20
-37.02555355950693
 30
0.0
 11
-363.1913304183178
 21
0.9744464404968767
 31
0.0
  0
LINE
  5
1CF
330
1F
100
AcDbEntity
  8
0-0
  6
JWW_DASHED1
 62
   120
370
     5
100
AcDbLine
 10
-401.1913304183182
 20
-27.12605862429058
 30
0.0
 11
-363.1913304183075
 21
10.8739413757209
 31
0.0
  0
LINE
  5
1D0
330
1F
100
AcDbEntity
  8
0-0
  6
JWW_DASHED1
 62
   120
370
     5
100
AcDbLine
 10
-401.1913304183182
 20
-17.22656368907465
 30
0.0
 11
-363.1913304183178
 21
20.77343631092916
 31
0.0
  0
LINE
  5
1D1
330
1F
100
AcDbEntity
  8
0-0
  6
JWW_DASHED1
 62
   120
370
     5
100
AcDbLine
 10
-401.1913304183182
 20
-7.327068753913295
 30
0.0
 11
-363.1913304183144
 21
30.67293124609392
 31
0.0
  0
LINE
  5
1D2
330
1F
100
AcDbEntity
  8
0-0
  6
JWW_DASHED1
 62
   120
370
     5
100
AcDbLine
 10
-401.1913304183182
 20
2.572426181303484
 30
0.0
 11
-363.1913304183212
 21
40.57242618130218
 31
0.0
  0
LINE
  5
1D3
330
1F
100
AcDbEntity
  8
0-0
  6
JWW_DASHED1
 62
   120
370
     5
100
AcDbLine
 10
-401.1913304183182
 20
12.47192111652538
 30
0.0
 11
-363.1913304183144
 21
50.47192111652578
 31
0.0
  0
LINE
  5
1D4
330
1F
100
AcDbEntity
  8
0-0
  6
JWW_DASHED1
 62
   120
370
     5
100
AcDbLine
 10
-401.1913304183182
 20
22.37141605167906
 30
0.0
 11
-363.1913304183109
 21
60.37141605169097
 31
0.0
  0
LINE
  5
1D5
330
1F
100
AcDbEntity
  8
0-0
  6
JWW_DASHED1
 62
   120
370
     5
100
AcDbLine
 10
-401.1913304183182
 20
32.27091098690479
 30
0.0
 11
-363.1913304183178
 21
70.2709109868988
 31
0.0
  0
LINE
  5
1D6
330
1F
100
AcDbEntity
  8
0-0
  6
JWW_DASHED1
 62
   120
370
     5
100
AcDbLine
 10
-401.1913304183182
 20
42.17040592211816
 30
0.0
 11
-363.1913304183109
 21
80.17040592212282
 31
0.0
  0
LINE
  5
1D7
330
1F
100
AcDbEntity
  8
0-0
  6
JWW_DASHED1
 62
   120
370
     5
100
AcDbLine
 10
-401.1913304183182
 20
52.06990085727398
 30
0.0
 11
-363.1913304183246
 21
90.06990085727224
 31
0.0
  0
LINE
  5
1D8
330
1F
100
AcDbEntity
  8
0-0
  6
JWW_DASHED1
 62
   120
370
     5
100
AcDbLine
 10
-401.1913304183182
 20
61.96939579249459
 30
0.0
 11
-363.1913304183178
 21
99.96939579249585
 31
0.0
  0
LINE
  5
1D9
330
1F
100
AcDbEntity
  8
0-0
  6
JWW_DASHED1
 62
   120
370
     5
100
AcDbLine
 10
-401.1913304183182
 20
71.86889072770882
 30
0.0
 11
-363.1913304183109
 21
109.8688907277194
 31
0.0
  0
LINE
  5
1DA
330
1F
100
AcDbEntity
  8
0-0
  6
JWW_DASHED1
 62
   120
370
     5
100
AcDbLine
 10
-401.1913304183182
 20
81.76838566287486
 30
0.0
 11
-363.1913304183212
 21
119.7683856628693
 31
0.0
  0
LINE
  5
1DB
330
1F
100
AcDbEntity
  8
0-0
  6
JWW_DASHED1
 62
   120
370
     5
100
AcDbLine
 10
-401.1913304183182
 20
91.66788059808738
 30
0.0
 11
-363.1913304183144
 21
129.6678805980929
 31
0.0
  0
LINE
  5
1DC
330
1F
100
AcDbEntity
  8
0-0
  6
JWW_DASHED1
 62
   120
370
     5
100
AcDbLine
 10
-401.1913304183182
 20
101.5673755333059
 30
0.0
 11
-363.1913304183109
 21
139.5673755333105
 31
0.0
  0
LINE
  5
1DD
330
1F
100
AcDbEntity
  8
0-0
  6
JWW_DASHED1
 62
   120
370
     5
100
AcDbLine
 10
-401.1913304183182
 20
111.4668704684681
 30
0.0
 11
-363.1913304183178
 21
149.4668704684659
 31
0.0
  0
LINE
  5
1DE
330
1F
100
AcDbEntity
  8
0-0
  6
JWW_DASHED1
 62
   120
370
     5
100
AcDbLine
 10
-401.1913304183182
 20
121.3663654036887
 30
0.0
 11
-363.1913304183109
 21
159.3663654036895
 31
0.0
  0
LINE
  5
1DF
330
1F
100
AcDbEntity
  8
0-0
  6
JWW_DASHED1
 62
   120
370
     5
100
AcDbLine
 10
-401.1913304183182
 20
131.2658603388961
 30
0.0
 11
-363.1913304183212
 21
169.2658603388978
 31
0.0
  0
LINE
  5
1E0
330
1F
100
AcDbEntity
  8
0-0
  6
JWW_DASHED1
 62
   120
370
     5
100
AcDbLine
 10
-401.1913304183182
 20
141.1653552740587
 30
0.0
 11
-363.1913304183178
 21
179.1653552740625
 31
0.0
  0
LINE
  5
1E1
330
1F
100
AcDbEntity
  8
0-0
  6
JWW_DASHED1
 62
   120
370
     5
100
AcDbLine
 10
-401.1913304183182
 20
151.0648502092806
 30
0.0
 11
-363.1913304183246
 21
189.0648502092708
 31
0.0
  0
LINE
  5
1E2
330
1F
100
AcDbEntity
  8
0-0
  6
JWW_DASHED1
 62
   120
370
     5
100
AcDbLine
 10
-401.1913304183182
 20
160.9643451444906
 30
0.0
 11
-363.1913304183178
 21
198.9643451444944
 31
0.0
  0
LINE
  5
1E3
330
1F
100
AcDbEntity
  8
0-0
  6
JWW_DASHED1
 62
   120
370
     5
100
AcDbLine
 10
-401.1913304183182
 20
170.8638400796592
 30
0.0
 11
-363.1913304183144
 21
208.8638400796596
 31
0.0
  0
LINE
  5
1E4
330
1F
100
AcDbEntity
  8
0-0
  6
JWW_DASHED1
 62
   120
370
     5
100
AcDbLine
 10
-401.1913304183182
 20
180.7633350148704
 30
0.0
 11
-363.1913304183246
 21
218.7633350148674
 31
0.0
  0
LINE
  5
1E5
330
1F
100
AcDbEntity
  8
0-0
  6
JWW_DASHED1
 62
   120
370
     5
100
AcDbLine
 10
-401.1913304183182
 20
190.662829950091
 30
0.0
 11
-363.1913304183144
 21
228.6628299500914
 31
0.0
  0
LINE
  5
1E6
330
1F
100
AcDbEntity
  8
0-0
  6
JWW_DASHED1
 62
   120
370
     5
100
AcDbLine
 10
-401.1913304183182
 20
200.562324885252
 30
0.0
 11
-363.1913304183109
 21
238.5623248852566
 31
0.0
  0
LINE
  5
1E7
330
1F
100
AcDbEntity
  8
0-0
  6
JWW_DASHED1
 62
   120
370
     5
100
AcDbLine
 10
-401.1913304183182
 20
210.4618198204666
 30
0.0
 11
-363.1913304183212
 21
248.4618198204645
 31
0.0
  0
LINE
  5
1E8
330
1F
100
AcDbEntity
  8
0-0
  6
JWW_DASHED1
 62
   120
370
     5
100
AcDbLine
 10
-401.1913304183182
 20
220.3613147556847
 30
0.0
 11
-363.1913304183109
 21
258.3613147556885
 31
0.0
  0
LINE
  5
1E9
330
1F
100
AcDbEntity
  8
0-0
  6
JWW_DASHED1
 62
   120
370
     5
100
AcDbLine
 10
-401.1913304183182
 20
230.2608096908418
 30
0.0
 11
-363.1913304183109
 21
268.2608096908536
 31
0.0
  0
LINE
  5
1EA
330
1F
100
AcDbEntity
  8
0-0
  6
JWW_DASHED1
 62
   120
370
     5
100
AcDbLine
 10
-401.1913304183182
 20
240.1603046260594
 30
0.0
 11
-363.1913304183178
 21
278.1603046260615
 31
0.0
  0
LINE
  5
1EB
330
1F
100
AcDbEntity
  8
0-0
  6
JWW_DASHED1
 62
   120
370
     5
100
AcDbLine
 10
-401.1913304183182
 20
250.0597995612736
 30
0.0
 11
-363.1913304183109
 21
288.0597995612856
 31
0.0
  0
LINE
  5
1EC
330
1F
100
AcDbEntity
  8
0-0
  6
JWW_DASHED1
 62
   120
370
     5
100
AcDbLine
 10
-401.1913304183182
 20
259.9592944964431
 30
0.0
 11
-363.1913304183075
 21
297.9592944964503
 31
0.0
  0
LINE
  5
1ED
330
1F
100
AcDbEntity
  8
0-0
  6
JWW_DASHED1
 62
   120
370
     5
100
AcDbLine
 10
-401.1913304183182
 20
269.858789431653
 30
0.0
 11
-363.1913304183144
 21
307.8587894316586
 31
0.0
  0
LINE
  5
1EE
330
1F
100
AcDbEntity
  8
0-0
  6
JWW_DASHED1
 62
   120
370
     5
100
AcDbLine
 10
-401.1913304183182
 20
279.7582843668694
 30
0.0
 11
-363.1913304183246
 21
317.7582843668664
 31
0.0
  0
LINE
  5
1EF
330
1F
100
AcDbEntity
  8
0-0
  6
JWW_DASHED1
 62
   120
370
     5
100
AcDbLine
 10
-401.1913304183182
 20
289.6577793020311
 30
0.0
 11
-363.1913304183212
 21
327.6577793020316
 31
0.0
  0
LINE
  5
1F0
330
1F
100
AcDbEntity
  8
0-0
  6
JWW_DASHED1
 62
   120
370
     5
100
AcDbLine
 10
-401.1913304183182
 20
299.5572742372543
 30
0.0
 11
-363.1913304183109
 21
337.5572742372552
 31
0.0
  0
LINE
  5
1F1
330
1F
100
AcDbEntity
  8
0-0
  6
JWW_DASHED1
 62
   120
370
     5
100
AcDbLine
 10
-401.1913304183182
 20
309.4567691724699
 30
0.0
 11
-363.1913304183212
 21
347.4567691724634
 31
0.0
  0
LINE
  5
1F2
330
1F
100
AcDbEntity
  8
0-0
  6
JWW_DASHED1
 62
   120
370
     5
100
AcDbLine
 10
-401.1913304183182
 20
319.3562641076252
 30
0.0
 11
-363.1913304183178
 21
357.3562641076282
 31
0.0
  0
LINE
  5
1F3
330
1F
100
AcDbEntity
  8
0-0
  6
JWW_DASHED1
 62
   120
370
     5
100
AcDbLine
 10
-401.1913304183182
 20
329.2557590428441
 30
0.0
 11
-363.1913304183109
 21
367.2557590428522
 31
0.0
  0
LINE
  5
1F4
330
1F
100
AcDbEntity
  8
0-0
  6
JWW_DASHED1
 62
   120
370
     5
100
AcDbLine
 10
-401.1913304183182
 20
339.1552539780371
 30
0.0
 11
-363.1913304183212
 21
377.1552539780306
 31
0.0
  0
LINE
  5
1F5
330
1F
100
AcDbEntity
  8
0-0
  6
JWW_DASHED1
 62
   120
370
     5
100
AcDbLine
 10
-401.1913304183182
 20
349.0547489132214
 30
0.0
 11
-363.1913304183178
 21
387.0547489132252
 31
0.0
  0
LINE
  5
1F6
330
1F
100
AcDbEntity
  8
0-0
  6
JWW_DASHED1
 62
   120
370
     5
100
AcDbLine
 10
-401.1913304183182
 20
358.9542438484369
 30
0.0
 11
-363.1913304183075
 21
396.9542438484493
 31
0.0
  0
LINE
  5
1F7
330
1F
100
AcDbEntity
  8
0-0
  6
JWW_DASHED1
 62
   120
370
     5
100
AcDbLine
 10
-401.1913304183182
 20
368.8537387836038
 30
0.0
 11
-363.1913304183212
 21
406.8537387835983
 31
0.0
  0
LINE
  5
1F8
330
1F
100
AcDbEntity
  8
0-0
  6
JWW_DASHED1
 62
   120
370
     5
100
AcDbLine
 10
-401.1913304183182
 20
378.7532337188138
 30
0.0
 11
-363.1913304183144
 21
416.7532337188223
 31
0.0
  0
LINE
  5
1F9
330
1F
100
AcDbEntity
  8
0-0
  6
JWW_DASHED1
 62
   120
370
     5
100
AcDbLine
 10
-401.1913304183182
 20
388.6527286540323
 30
0.0
 11
-363.1913304183212
 21
426.6527286540301
 31
0.0
  0
LINE
  5
1FA
330
1F
100
AcDbEntity
  8
0-0
  6
JWW_DASHED1
 62
   120
370
     5
100
AcDbLine
 10
-401.1913304183182
 20
398.5522235892005
 30
0.0
 11
-363.1913304183178
 21
436.5522235891953
 31
0.0
  0
LINE
  5
1FB
330
1F
100
AcDbEntity
  8
0-0
  6
JWW_DASHED1
 62
   120
370
     5
100
AcDbLine
 10
-401.1913304183182
 20
408.4517185244083
 30
0.0
 11
-363.1913304183109
 21
446.4517185244189
 31
0.0
  0
LINE
  5
1FC
330
1F
100
AcDbEntity
  8
0-0
  6
JWW_DASHED1
 62
   120
370
     5
100
AcDbLine
 10
-401.1913304183182
 20
418.3512134596332
 30
0.0
 11
-363.1913304183178
 21
456.3512134596272
 31
0.0
  0
LINE
  5
1FD
330
1F
100
AcDbEntity
  8
0-0
  6
JWW_DASHED1
 62
   120
370
     5
100
AcDbLine
 10
-401.1913304183182
 20
428.2507083947834
 30
0.0
 11
-363.1913304183178
 21
466.2507083947919
 31
0.0
  0
LINE
  5
1FE
330
1F
100
AcDbEntity
  8
0-0
  6
JWW_DASHED1
 62
   120
370
     5
100
AcDbLine
 10
-401.1913304183182
 20
438.1502033300032
 30
0.0
 11
-363.1913304183246
 21
476.1502033300002
 31
0.0
  0
LINE
  5
1FF
330
1F
100
AcDbEntity
  8
0-0
  6
JWW_DASHED1
 62
   120
370
     5
100
AcDbLine
 10
-401.1913304183182
 20
448.0496982652226
 30
0.0
 11
-363.1913304183178
 21
486.0496982652238
 31
0.0
  0
LINE
  5
200
330
1F
100
AcDbEntity
  8
0-0
  6
JWW_DASHED1
 62
   120
370
     5
100
AcDbLine
 10
-401.1913304183182
 20
457.9491932003843
 30
0.0
 11
-363.1913304183144
 21
495.949193200389
 31
0.0
  0
LINE
  5
201
330
1F
100
AcDbEntity
  8
0-0
  6
JWW_DASHED1
 62
   120
370
     5
100
AcDbLine
 10
-401.1913304183182
 20
467.8486881356028
 30
0.0
 11
-363.1913304183212
 21
505.8486881355972
 31
0.0
  0
LINE
  5
202
330
1F
100
AcDbEntity
  8
0-0
  6
JWW_DASHED1
 62
   120
370
     5
100
AcDbLine
 10
-401.1913304183182
 20
477.7481830708153
 30
0.0
 11
-363.1913304183144
 21
515.7481830708208
 31
0.0
  0
LINE
  5
203
330
1F
100
AcDbEntity
  8
0-0
  6
JWW_DASHED1
 62
   120
370
     5
100
AcDbLine
 10
-401.1913304183182
 20
487.6476780059771
 30
0.0
 11
-363.1913304183109
 21
525.647678005986
 31
0.0
  0
LINE
  5
204
330
1F
100
AcDbEntity
  8
0-0
  6
JWW_DASHED1
 62
   120
370
     5
100
AcDbLine
 10
-401.1913304183182
 20
497.5471729411969
 30
0.0
 11
-363.1913304183178
 21
535.5471729411938
 31
0.0
  0
LINE
  5
205
330
1F
100
AcDbEntity
  8
0-0
  6
JWW_DASHED1
 62
   120
370
     5
100
AcDbLine
 10
-401.1913304183182
 20
507.4466678764157
 30
0.0
 11
-363.1913304183109
 21
545.4466678764179
 31
0.0
  0
LINE
  5
206
330
1F
100
AcDbEntity
  8
0-0
  6
JWW_DASHED1
 62
   120
370
     5
100
AcDbLine
 10
-401.1913304183182
 20
517.3461628115673
 30
0.0
 11
-363.1913304183109
 21
555.3461628115826
 31
0.0
  0
LINE
  5
207
330
1F
100
AcDbEntity
  8
0-0
  6
JWW_DASHED1
 62
   120
370
     5
100
AcDbLine
 10
-401.1913304183182
 20
527.2456577467871
 30
0.0
 11
-363.1913304183178
 21
565.2456577467909
 31
0.0
  0
LINE
  5
208
330
1F
100
AcDbEntity
  8
0-0
  6
JWW_DASHED1
 62
   120
370
     5
100
AcDbLine
 10
-401.1913304183182
 20
537.145152682006
 30
0.0
 11
-363.1913304183109
 21
575.1451526820149
 31
0.0
  0
LINE
  5
209
330
1F
100
AcDbEntity
  8
0-0
  6
JWW_DASHED1
 62
   120
370
     5
100
AcDbLine
 10
-401.1913304183182
 20
547.0446476171652
 30
0.0
 11
-363.1913304183075
 21
585.0446476171776
 31
0.0
  0
LINE
  5
20A
330
1F
100
AcDbEntity
  8
0-0
  6
JWW_DASHED1
 62
   120
370
     5
100
AcDbLine
 10
-401.1913304183182
 20
556.9441425523867
 30
0.0
 11
-363.1913304183144
 21
594.9441425523879
 31
0.0
  0
LINE
  5
20B
330
1F
100
AcDbEntity
  8
0-0
  6
JWW_DASHED1
 62
   120
370
     5
100
AcDbLine
 10
-401.1913304183182
 20
566.8436374875988
 30
0.0
 11
-363.1913304183246
 21
604.8436374875957
 31
0.0
  0
LINE
  5
20C
330
1F
100
AcDbEntity
  8
0-0
  6
JWW_DASHED1
 62
   120
370
     5
100
AcDbLine
 10
-401.1913304183182
 20
576.7431324227662
 30
0.0
 11
-363.1913304183178
 21
614.7431324227609
 31
0.0
  0
LINE
  5
20D
330
1F
100
AcDbEntity
  8
0-0
  6
JWW_DASHED1
 62
   120
370
     5
100
AcDbLine
 10
-401.1913304183182
 20
586.6426273579807
 30
0.0
 11
-363.1913304183109
 21
624.6426273579846
 31
0.0
  0
LINE
  5
20E
330
1F
100
AcDbEntity
  8
0-0
  6
JWW_DASHED1
 62
   120
370
     5
100
AcDbLine
 10
-401.1913304183182
 20
596.5421222931924
 30
0.0
 11
-363.1913304183212
 21
634.5421222931928
 31
0.0
  0
LINE
  5
20F
330
1F
100
AcDbEntity
  8
0-0
  6
JWW_DASHED1
 62
   120
370
     5
100
AcDbLine
 10
-401.1913304183182
 20
606.4416172283563
 30
0.0
 11
-363.1913304183178
 21
644.4416172283571
 31
0.0
  0
LINE
  5
210
330
1F
100
AcDbEntity
  8
0-0
  6
JWW_DASHED1
 62
   120
370
     5
100
AcDbLine
 10
-401.1913304183182
 20
616.3411121635705
 30
0.0
 11
-363.1913304183109
 21
654.3411121635816
 31
0.0
  0
LINE
  5
211
330
1F
100
AcDbEntity
  8
0-0
  6
JWW_DASHED1
 62
   120
370
     5
100
AcDbLine
 10
-401.1913304183182
 20
626.2406070987878
 30
0.0
 11
-363.1913304183178
 21
664.2406070987898
 31
0.0
  0
LINE
  5
212
330
1F
100
AcDbEntity
  8
0-0
  6
JWW_DASHED1
 62
   120
370
     5
100
AcDbLine
 10
-401.1913304183182
 20
636.1401020339499
 30
0.0
 11
-363.1913304183144
 21
674.1401020339547
 31
0.0
  0
LINE
  5
213
330
1F
100
AcDbEntity
  8
0-0
  6
JWW_DASHED1
 62
   120
370
     5
100
AcDbLine
 10
-401.1913304183182
 20
646.039596969171
 30
0.0
 11
-363.1913304183075
 21
684.0395969691782
 31
0.0
  0
LINE
  5
214
330
1F
100
AcDbEntity
  8
0-0
  6
JWW_DASHED1
 62
   120
370
     5
100
AcDbLine
 10
-401.1913304183182
 20
655.939091904378
 30
0.0
 11
-363.1913304183178
 21
693.9390919043865
 31
0.0
  0
LINE
  5
215
330
1F
100
AcDbEntity
  8
0-0
  6
JWW_DASHED1
 62
   120
370
     5
100
AcDbLine
 10
-401.1913304183182
 20
665.83858683955
 30
0.0
 11
-363.1913304183109
 21
703.8385868395517
 31
0.0
  0
LINE
  5
216
330
1F
100
AcDbEntity
  8
0-0
  6
JWW_DASHED1
 62
   120
370
     5
100
AcDbLine
 10
-401.1913304183182
 20
675.738081774766
 30
0.0
 11
-363.1913304183212
 21
713.738081774759
 31
0.0
  0
LINE
  5
217
330
1F
100
AcDbEntity
  8
0-0
  6
JWW_DASHED1
 62
   120
370
     5
100
AcDbLine
 10
-401.1913304183182
 20
685.6375767099827
 30
0.0
 11
-363.1913304183109
 21
723.6375767099835
 31
0.0
  0
LINE
  5
218
330
1F
100
AcDbEntity
  8
0-0
  6
JWW_DASHED1
 62
   120
370
     5
100
AcDbLine
 10
-401.1913304183182
 20
695.5370716451403
 30
0.0
 11
-363.1913304183109
 21
733.5370716451483
 31
0.0
  0
LINE
  5
219
330
1F
100
AcDbEntity
  8
0-0
  6
JWW_DASHED1
 62
   120
370
     5
100
AcDbLine
 10
-401.1913304183182
 20
705.4365665803596
 30
0.0
 11
-363.1913304183178
 21
743.4365665803566
 31
0.0
  0
LINE
  5
21A
330
1F
100
AcDbEntity
  8
0-0
  6
JWW_DASHED1
 62
   120
370
     5
100
AcDbLine
 10
-401.1913304183182
 20
715.336061515572
 30
0.0
 11
-363.1913304183109
 21
753.3360615155801
 31
0.0
  0
LINE
  5
21B
330
1F
100
AcDbEntity
  8
0-0
  6
JWW_DASHED1
 62
   120
370
     5
100
AcDbLine
 10
-401.1913304183182
 20
725.2355564507321
 30
0.0
 11
-363.1913304183246
 21
763.2355564507295
 31
0.0
  0
LINE
  5
21C
330
1F
100
AcDbEntity
  8
0-0
  6
JWW_DASHED1
 62
   120
370
     5
100
AcDbLine
 10
-401.1913304183182
 20
735.1350513859485
 30
0.0
 11
-363.1913304183178
 21
773.1350513859536
 31
0.0
  0
LINE
  5
21D
330
1F
100
AcDbEntity
  8
0-0
  6
JWW_DASHED1
 62
   120
370
     5
100
AcDbLine
 10
-401.1913304183182
 20
745.0345463211657
 30
0.0
 11
-363.1913304183075
 21
783.0345463211772
 31
0.0
  0
LINE
  5
21E
330
1F
100
AcDbEntity
  8
0-0
  6
JWW_DASHED1
 62
   120
370
     5
100
AcDbLine
 10
-401.1913304183182
 20
754.9340412563326
 30
0.0
 11
-363.1913304183212
 21
792.9340412563262
 31
0.0
  0
LINE
  5
21F
330
1F
100
AcDbEntity
  8
0-0
  6
JWW_DASHED1
 62
   120
370
     5
100
AcDbLine
 10
-401.1913304183182
 20
764.833536191543
 30
0.0
 11
-363.1913304183144
 21
802.8335361915503
 31
0.0
  0
LINE
  5
220
330
1F
100
AcDbEntity
  8
0-0
  6
JWW_DASHED1
 62
   120
370
     5
100
AcDbLine
 10
-401.1913304183182
 20
774.7330311267654
 30
0.0
 11
-363.1913304183041
 21
812.7330311267738
 31
0.0
  0
LINE
  5
221
330
1F
100
AcDbEntity
  8
0-0
  6
JWW_DASHED1
 62
   120
370
     5
100
AcDbLine
 10
-401.1913304183182
 20
784.6325260619292
 30
0.0
 11
-363.1913304183178
 21
822.6325260619233
 31
0.0
  0
LINE
  5
222
330
1F
100
AcDbEntity
  8
0-0
  6
JWW_DASHED1
 62
   120
370
     5
100
AcDbLine
 10
-401.1913304183182
 20
794.5320209971367
 30
0.0
 11
-363.1913304183109
 21
832.5320209971472
 31
0.0
  0
LINE
  5
223
330
1F
100
AcDbEntity
  8
0-0
  6
JWW_DASHED1
 62
   120
370
     5
100
AcDbLine
 10
-401.1913304183182
 20
804.4315159323606
 30
0.0
 11
-363.1913304183178
 21
842.4315159323551
 31
0.0
  0
LINE
  5
224
330
1F
100
AcDbEntity
  8
0-0
  6
JWW_DASHED1
 62
   120
370
     5
100
AcDbLine
 10
-401.1913304183182
 20
824.2305058027409
 30
0.0
 11
-363.1913304183178
 21
862.2305058027298
 31
0.0
  0
LINE
  5
225
330
1F
100
AcDbEntity
  8
0-0
  6
JWW_DASHED1
 62
   120
370
     5
100
AcDbLine
 10
-401.1913304183182
 20
814.3310108675224
 30
0.0
 11
-363.1913304183178
 21
852.331010867516
 31
0.0
  0
LINE
  5
226
330
1F
100
AcDbEntity
  8
0-0
  6
JWW_DASHED1
 62
   120
370
     5
100
AcDbLine
 10
-401.1913304183182
 20
-1017.07555214402
 30
0.0
 11
-363.1913304183212
 21
-979.0755521440196
 31
0.0
  0
LINE
  5
227
330
1F
100
AcDbEntity
  8
0-0
  6
JWW_DASHED1
 62
   120
370
     5
100
AcDbLine
 10
-401.1913304183182
 20
-1026.975047079184
 30
0.0
 11
-363.1913304183212
 21
-988.9750470791844
 31
0.0
  0
LINE
  5
228
330
1F
100
AcDbEntity
  8
0-0
  6
JWW_DASHED1
 62
   120
370
     5
100
AcDbLine
 10
-401.1913304183182
 20
-1036.874542014349
 30
0.0
 11
-363.1913304183212
 21
-998.8745420143491
 31
0.0
  0
LINE
  5
229
330
1F
100
AcDbEntity
  8
0-0
  6
JWW_DASHED1
 62
   120
370
     5
100
AcDbLine
 10
-398.3906498390729
 20
-1043.973356370268
 30
0.0
 11
-363.1913304183212
 21
-1008.774036949514
 31
0.0
  0
LINE
  5
22A
330
1F
100
AcDbEntity
  8
0-0
  6
JWW_DASHED1
 62
   120
370
     5
100
AcDbLine
 10
-368.6921650335807
 20
-1043.973356370268
 30
0.0
 11
-363.1913304183212
 21
-1038.472521755008
 31
0.0
  0
LINE
  5
22B
330
1F
100
AcDbEntity
  8
0-0
  6
JWW_DASHED1
 62
   120
370
     5
100
AcDbLine
 10
-388.4911549039086
 20
-1043.973356370268
 30
0.0
 11
-363.1913304183212
 21
-1018.673531884679
 31
0.0
  0
LINE
  5
22C
330
1F
100
AcDbEntity
  8
0-0
  6
JWW_DASHED1
 62
   120
370
     5
100
AcDbLine
 10
-378.5916599687442
 20
-1043.973356370268
 30
0.0
 11
-363.1913304183212
 21
-1028.573026819843
 31
0.0
  0
LINE
  5
22D
330
1F
100
AcDbEntity
  8
0-0
  6
JWW_DASHED1
 62
   120
370
     5
100
AcDbLine
 10
-401.1913304183182
 20
834.1300007379594
 30
0.0
 11
-363.1913304183178
 21
872.1300007379483
 31
0.0
  0
LINE
  5
22E
330
1F
100
AcDbEntity
  8
0-0
  6
JWW_DASHED1
 62
   120
370
     5
100
AcDbLine
 10
-401.1913304183182
 20
844.029495673178
 30
0.0
 11
-363.1913304183178
 21
882.0294956731668
 31
0.0
  0
LINE
  5
22F
330
1F
100
AcDbEntity
  8
0-0
  6
JWW_DASHED1
 62
   120
370
     5
100
AcDbLine
 10
-401.1913304183182
 20
853.9289906083964
 30
0.0
 11
-363.1913304183178
 21
891.9289906083852
 31
0.0
  0
LINE
  5
230
330
1F
100
AcDbEntity
  8
0-0
  6
JWW_DASHED1
 62
   120
370
     5
100
AcDbLine
 10
-401.1913304183182
 20
863.8284855436144
 30
0.0
 11
-363.1913304183178
 21
901.8284855436037
 31
0.0
  0
LINE
  5
231
330
1F
100
AcDbEntity
  8
0-0
  6
JWW_DASHED1
 62
   120
370
     5
100
AcDbLine
 10
-401.1913304183182
 20
873.7279804788334
 30
0.0
 11
-363.1913304183178
 21
911.7279804788222
 31
0.0
  0
LINE
  5
232
330
1F
100
AcDbEntity
  8
0-0
  6
Continuous
 62
    92
370
    13
100
AcDbLine
 10
-401.1913304183182
 20
1131.026643629733
 30
0.0
 11
-401.1913304183182
 21
-1051.973356370268
 31
0.0
  0
LINE
  5
233
330
1F
100
AcDbEntity
  8
0-0
  6
Continuous
 62
    92
370
    13
100
AcDbLine
 10
-363.1913304183178
 20
1131.026643629733
 30
0.0
 11
-363.1913304183178
 21
-1051.973356370268
 31
0.0
  0
LINE
  5
234
330
1F
100
AcDbEntity
  8
0-0
  6
Continuous
 62
     7
370
     9
100
AcDbLine
 10
-401.1913304183182
 20
1123.026643629735
 30
0.0
 11
-363.1913304183178
 21
1123.026643629735
 31
0.0
  0
LINE
  5
235
330
1F
100
AcDbEntity
  8
0-0
  6
JWW_DASHED1
 62
   120
370
     5
100
AcDbLine
 10
-401.1913304183182
 20
883.6274754140518
 30
0.0
 11
-363.1913304183178
 21
921.6274754140408
 31
0.0
  0
LINE
  5
236
330
1F
100
AcDbEntity
  8
0-0
  6
JWW_DASHED1
 62
   120
370
     5
100
AcDbLine
 10
-401.1913304183182
 20
913.3259602197073
 30
0.0
 11
-363.1913304183178
 21
951.3259602196962
 31
0.0
  0
LINE
  5
237
330
1F
100
AcDbEntity
  8
0-0
  6
JWW_DASHED1
 62
   120
370
     5
100
AcDbLine
 10
-401.1913304183182
 20
893.5269703492703
 30
0.0
 11
-363.1913304183178
 21
931.5269703492593
 31
0.0
  0
LINE
  5
238
330
1F
100
AcDbEntity
  8
0-0
  6
JWW_DASHED1
 62
   120
370
     5
100
AcDbLine
 10
-401.1913304183182
 20
903.4264652844888
 30
0.0
 11
-363.1913304183178
 21
941.4264652844777
 31
0.0
  0
LINE
  5
239
330
1F
100
AcDbEntity
  8
0-0
  6
JWW_DASHED1
 62
   120
370
     5
100
AcDbLine
 10
-401.1913304183182
 20
933.1249500901442
 30
0.0
 11
-363.1913304183178
 21
971.1249500901331
 31
0.0
  0
LINE
  5
23A
330
1F
100
AcDbEntity
  8
0-0
  6
JWW_DASHED1
 62
   120
370
     5
100
AcDbLine
 10
-401.1913304183182
 20
923.2254551549258
 30
0.0
 11
-363.1913304183178
 21
961.2254551549147
 31
0.0
  0
LINE
  5
23B
330
1F
100
AcDbEntity
  8
0-0
  6
JWW_DASHED1
 62
   120
370
     5
100
AcDbLine
 10
-401.1913304183182
 20
952.9239399605813
 30
0.0
 11
-363.1913304183178
 21
990.9239399605701
 31
0.0
  0
LINE
  5
23C
330
1F
100
AcDbEntity
  8
0-0
  6
JWW_DASHED1
 62
   120
370
     5
100
AcDbLine
 10
-401.1913304183182
 20
943.0244450253628
 30
0.0
 11
-363.1913304183178
 21
981.0244450253516
 31
0.0
  0
LINE
  5
23D
330
1F
100
AcDbEntity
  8
0-0
  6
JWW_DASHED1
 62
   120
370
     5
100
AcDbLine
 10
-401.1913304183182
 20
972.7229298310182
 30
0.0
 11
-363.1913304183178
 21
1010.722929831007
 31
0.0
  0
LINE
  5
23E
330
1F
100
AcDbEntity
  8
0-0
  6
JWW_DASHED1
 62
   120
370
     5
100
AcDbLine
 10
-401.1913304183182
 20
962.8234348957997
 30
0.0
 11
-363.1913304183178
 21
1000.823434895789
 31
0.0
  0
LINE
  5
23F
330
1F
100
AcDbEntity
  8
0-0
  6
JWW_DASHED1
 62
   120
370
     5
100
AcDbLine
 10
-401.1913304183182
 20
992.5219197014552
 30
0.0
 11
-363.1913304183178
 21
1030.521919701444
 31
0.0
  0
LINE
  5
240
330
1F
100
AcDbEntity
  8
0-0
  6
JWW_DASHED1
 62
   120
370
     5
100
AcDbLine
 10
-401.1913304183182
 20
982.6224247662367
 30
0.0
 11
-363.1913304183178
 21
1020.622424766225
 31
0.0
  0
LINE
  5
241
330
1F
100
AcDbEntity
  8
0-0
  6
JWW_DASHED1
 62
   120
370
     5
100
AcDbLine
 10
-401.1913304183182
 20
1012.320909571892
 30
0.0
 11
-363.1913304183178
 21
1050.320909571881
 31
0.0
  0
LINE
  5
242
330
1F
100
AcDbEntity
  8
0-0
  6
JWW_DASHED1
 62
   120
370
     5
100
AcDbLine
 10
-401.1913304183182
 20
1002.421414636674
 30
0.0
 11
-363.1913304183178
 21
1040.421414636663
 31
0.0
  0
LINE
  5
243
330
1F
100
AcDbEntity
  8
0-0
  6
JWW_DASHED1
 62
   120
370
     5
100
AcDbLine
 10
-401.1913304183182
 20
1032.119899442329
 30
0.0
 11
-363.1913304183178
 21
1070.119899442318
 31
0.0
  0
LINE
  5
244
330
1F
100
AcDbEntity
  8
0-0
  6
JWW_DASHED1
 62
   120
370
     5
100
AcDbLine
 10
-401.1913304183182
 20
1022.220404507111
 30
0.0
 11
-363.1913304183178
 21
1060.2204045071
 31
0.0
  0
LINE
  5
245
330
1F
100
AcDbEntity
  8
0-0
  6
JWW_DASHED1
 62
   120
370
     5
100
AcDbLine
 10
-401.1913304183182
 20
1051.918889312766
 30
0.0
 11
-363.1913304183178
 21
1089.918889312755
 31
0.0
  0
LINE
  5
246
330
1F
100
AcDbEntity
  8
0-0
  6
JWW_DASHED1
 62
   120
370
     5
100
AcDbLine
 10
-401.1913304183182
 20
1042.019394377548
 30
0.0
 11
-363.1913304183178
 21
1080.019394377536
 31
0.0
  0
LINE
  5
247
330
1F
100
AcDbEntity
  8
0-0
  6
JWW_DASHED1
 62
   120
370
     5
100
AcDbLine
 10
-401.1913304183182
 20
1071.717879183203
 30
0.0
 11
-363.1913304183178
 21
1109.717879183192
 31
0.0
  0
LINE
  5
248
330
1F
100
AcDbEntity
  8
0-0
  6
JWW_DASHED1
 62
   120
370
     5
100
AcDbLine
 10
-401.1913304183182
 20
1061.818384247984
 30
0.0
 11
-363.1913304183178
 21
1099.818384247973
 31
0.0
  0
LINE
  5
249
330
1F
100
AcDbEntity
  8
0-0
  6
JWW_DASHED1
 62
   120
370
     5
100
AcDbLine
 10
-401.1913304183182
 20
1081.617374118422
 30
0.0
 11
-363.1913304183178
 21
1119.61737411841
 31
0.0
  0
LINE
  5
24A
330
1F
100
AcDbEntity
  8
0-0
  6
JWW_DASHED1
 62
   120
370
     5
100
AcDbLine
 10
-401.1913304183182
 20
1111.315858924077
 30
0.0
 11
-389.4805457126567
 21
1123.026643629735
 31
0.0
  0
LINE
  5
24B
330
1F
100
AcDbEntity
  8
0-0
  6
JWW_DASHED1
 62
   120
370
     5
100
AcDbLine
 10
-401.1913304183182
 20
1091.51686905364
 30
0.0
 11
-369.6815558422138
 21
1123.026643629735
 31
0.0
  0
LINE
  5
24C
330
1F
100
AcDbEntity
  8
0-0
  6
JWW_DASHED1
 62
   120
370
     5
100
AcDbLine
 10
-401.1913304183182
 20
1101.416363988858
 30
0.0
 11
-379.5810507774353
 21
1123.026643629735
 31
0.0
  0
LINE
  5
24D
330
1F
100
AcDbEntity
  8
0-0
  6
Continuous
 62
     7
370
     9
100
AcDbLine
 10
408.8086695816818
 20
-1043.973356370268
 30
0.0
 11
446.8086695816822
 21
-1043.973356370268
 31
0.0
  0
LINE
  5
24E
330
1F
100
AcDbEntity
  8
0-0
  6
JWW_DASHED1
 62
   120
370
     5
100
AcDbLine
 10
408.8086695816818
 20
-1007.176057208855
 30
0.0
 11
446.8086695816788
 21
-969.1760572088548
 31
0.0
  0
LINE
  5
24F
330
1F
100
AcDbEntity
  8
0-0
  6
JWW_DASHED1
 62
   120
370
     5
100
AcDbLine
 10
408.8086695816818
 20
-997.276562273693
 30
0.0
 11
446.8086695816822
 21
-959.27656227369
 31
0.0
  0
LINE
  5
250
330
1F
100
AcDbEntity
  8
0-0
  6
JWW_DASHED1
 62
   120
370
     5
100
AcDbLine
 10
408.8086695816818
 20
-987.3770673384745
 30
0.0
 11
446.8086695816891
 21
-949.3770673384661
 31
0.0
  0
LINE
  5
251
330
1F
100
AcDbEntity
  8
0-0
  6
JWW_DASHED1
 62
   120
370
     5
100
AcDbLine
 10
408.8086695816818
 20
-977.4775724032622
 30
0.0
 11
446.8086695816822
 21
-939.4775724032578
 31
0.0
  0
LINE
  5
252
330
1F
100
AcDbEntity
  8
0-0
  6
JWW_DASHED1
 62
   120
370
     5
100
AcDbLine
 10
408.8086695816818
 20
-967.5780774680936
 30
0.0
 11
446.8086695816856
 21
-929.578077468093
 31
0.0
  0
LINE
  5
253
330
1F
100
AcDbEntity
  8
0-0
  6
JWW_DASHED1
 62
   120
370
     5
100
AcDbLine
 10
408.8086695816818
 20
-957.6785825328797
 30
0.0
 11
446.8086695816754
 21
-919.6785825328848
 31
0.0
  0
LINE
  5
254
330
1F
100
AcDbEntity
  8
0-0
  6
JWW_DASHED1
 62
   120
370
     5
100
AcDbLine
 10
408.8086695816818
 20
-947.7790875976611
 30
0.0
 11
446.8086695816856
 21
-909.7790875976609
 31
0.0
  0
LINE
  5
255
330
1F
100
AcDbEntity
  8
0-0
  6
JWW_DASHED1
 62
   120
370
     5
100
AcDbLine
 10
408.8086695816818
 20
-937.8795926625
 30
0.0
 11
446.8086695816891
 21
-899.879592662496
 31
0.0
  0
LINE
  5
256
330
1F
100
AcDbEntity
  8
0-0
  6
JWW_DASHED1
 62
   120
370
     5
100
AcDbLine
 10
408.8086695816818
 20
-927.9800977272862
 30
0.0
 11
446.8086695816788
 21
-889.9800977272879
 31
0.0
  0
LINE
  5
257
330
1F
100
AcDbEntity
  8
0-0
  6
JWW_DASHED1
 62
   120
370
     5
100
AcDbLine
 10
408.8086695816818
 20
-918.0806027920688
 30
0.0
 11
446.8086695816891
 21
-880.0806027920639
 31
0.0
  0
LINE
  5
258
330
1F
100
AcDbEntity
  8
0-0
  6
JWW_DASHED1
 62
   120
370
     5
100
AcDbLine
 10
408.8086695816818
 20
-908.1811078569061
 30
0.0
 11
446.8086695816754
 21
-870.1811078569149
 31
0.0
  0
LINE
  5
259
330
1F
100
AcDbEntity
  8
0-0
  6
JWW_DASHED1
 62
   120
370
     5
100
AcDbLine
 10
408.8086695816818
 20
-898.2816129216926
 30
0.0
 11
446.8086695816822
 21
-860.2816129216912
 31
0.0
  0
LINE
  5
25A
330
1F
100
AcDbEntity
  8
0-0
  6
JWW_DASHED1
 62
   120
370
     5
100
AcDbLine
 10
408.8086695816818
 20
-888.3821179864785
 30
0.0
 11
446.8086695816891
 21
-850.3821179864673
 31
0.0
  0
LINE
  5
25B
330
1F
100
AcDbEntity
  8
0-0
  6
JWW_DASHED1
 62
   120
370
     5
100
AcDbLine
 10
408.8086695816818
 20
-878.4826230513153
 30
0.0
 11
446.8086695816754
 21
-840.4826230513181
 31
0.0
  0
LINE
  5
25C
330
1F
100
AcDbEntity
  8
0-0
  6
JWW_DASHED1
 62
   120
370
     5
100
AcDbLine
 10
408.8086695816818
 20
-868.583128116103
 30
0.0
 11
446.8086695816822
 21
-830.583128116094
 31
0.0
  0
LINE
  5
25D
330
1F
100
AcDbEntity
  8
0-0
  6
JWW_DASHED1
 62
   120
370
     5
100
AcDbLine
 10
408.8086695816818
 20
-858.6836331809299
 30
0.0
 11
446.8086695816891
 21
-820.6836331809295
 31
0.0
  0
LINE
  5
25E
330
1F
100
AcDbEntity
  8
0-0
  6
JWW_DASHED1
 62
   120
370
     5
100
AcDbLine
 10
408.8086695816818
 20
-848.7841382457148
 30
0.0
 11
446.8086695816788
 21
-810.784138245721
 31
0.0
  0
LINE
  5
25F
330
1F
100
AcDbEntity
  8
0-0
  6
JWW_DASHED1
 62
   120
370
     5
100
AcDbLine
 10
408.8086695816818
 20
-838.8846433105025
 30
0.0
 11
446.8086695816856
 21
-800.8846433104973
 31
0.0
  0
LINE
  5
260
330
1F
100
AcDbEntity
  8
0-0
  6
JWW_DASHED1
 62
   120
370
     5
100
AcDbLine
 10
408.8086695816818
 20
-828.9851483753407
 30
0.0
 11
446.8086695816891
 21
-790.9851483753321
 31
0.0
  0
LINE
  5
261
330
1F
100
AcDbEntity
  8
0-0
  6
JWW_DASHED1
 62
   120
370
     5
100
AcDbLine
 10
408.8086695816818
 20
-819.0856534401207
 30
0.0
 11
446.8086695816822
 21
-781.0856534401242
 31
0.0
  0
LINE
  5
262
330
1F
100
AcDbEntity
  8
0-0
  6
JWW_DASHED1
 62
   120
370
     5
100
AcDbLine
 10
408.8086695816818
 20
-809.1861585049091
 30
0.0
 11
446.8086695816891
 21
-771.1861585049004
 31
0.0
  0
LINE
  5
263
330
1F
100
AcDbEntity
  8
0-0
  6
JWW_DASHED1
 62
   120
370
     5
100
AcDbLine
 10
408.8086695816818
 20
-799.286663569746
 30
0.0
 11
446.8086695816754
 21
-761.2866635697512
 31
0.0
  0
LINE
  5
264
330
1F
100
AcDbEntity
  8
0-0
  6
JWW_DASHED1
 62
   120
370
     5
100
AcDbLine
 10
408.8086695816818
 20
-789.3871686345318
 30
0.0
 11
446.8086695816822
 21
-751.3871686345274
 31
0.0
  0
LINE
  5
265
330
1F
100
AcDbEntity
  8
0-0
  6
JWW_DASHED1
 62
   120
370
     5
100
AcDbLine
 10
408.8086695816818
 20
-779.4876736993164
 30
0.0
 11
446.8086695816754
 21
-741.4876736993193
 31
0.0
  0
LINE
  5
266
330
1F
100
AcDbEntity
  8
0-0
  6
JWW_DASHED1
 62
   120
370
     5
100
AcDbLine
 10
408.8086695816818
 20
-769.5881787641526
 30
0.0
 11
446.8086695816788
 21
-731.5881787641543
 31
0.0
  0
LINE
  5
267
330
1F
100
AcDbEntity
  8
0-0
  6
JWW_DASHED1
 62
   120
370
     5
100
AcDbLine
 10
408.8086695816818
 20
-759.688683828938
 30
0.0
 11
446.8086695816856
 21
-721.6886838289305
 31
0.0
  0
LINE
  5
268
330
1F
100
AcDbEntity
  8
0-0
  6
JWW_DASHED1
 62
   120
370
     5
100
AcDbLine
 10
408.8086695816818
 20
-749.789188893721
 30
0.0
 11
446.8086695816788
 21
-711.7891888937222
 31
0.0
  0
LINE
  5
269
330
1F
100
AcDbEntity
  8
0-0
  6
JWW_DASHED1
 62
   120
370
     5
100
AcDbLine
 10
408.8086695816818
 20
-739.8896939585516
 30
0.0
 11
446.8086695816822
 21
-701.8896939585575
 31
0.0
  0
LINE
  5
26A
330
1F
100
AcDbEntity
  8
0-0
  6
JWW_DASHED1
 62
   120
370
     5
100
AcDbLine
 10
408.8086695816818
 20
-729.9901990233448
 30
0.0
 11
446.8086695816891
 21
-691.9901990233335
 31
0.0
  0
LINE
  5
26B
330
1F
100
AcDbEntity
  8
0-0
  6
JWW_DASHED1
 62
   120
370
     5
100
AcDbLine
 10
408.8086695816818
 20
-720.0907040881201
 30
0.0
 11
446.8086695816822
 21
-682.0907040881254
 31
0.0
  0
LINE
  5
26C
330
1F
100
AcDbEntity
  8
0-0
  6
JWW_DASHED1
 62
   120
370
     5
100
AcDbLine
 10
408.8086695816818
 20
-710.1912091529621
 30
0.0
 11
446.8086695816822
 21
-672.1912091529605
 31
0.0
  0
LINE
  5
26D
330
1F
100
AcDbEntity
  8
0-0
  6
JWW_DASHED1
 62
   120
370
     5
100
AcDbLine
 10
408.8086695816818
 20
-700.2917142177479
 30
0.0
 11
446.8086695816891
 21
-662.2917142177366
 31
0.0
  0
LINE
  5
26E
330
1F
100
AcDbEntity
  8
0-0
  6
JWW_DASHED1
 62
   120
370
     5
100
AcDbLine
 10
408.8086695816818
 20
-690.39221928253
 30
0.0
 11
446.8086695816822
 21
-652.3922192825283
 31
0.0
  0
LINE
  5
26F
330
1F
100
AcDbEntity
  8
0-0
  6
JWW_DASHED1
 62
   120
370
     5
100
AcDbLine
 10
408.8086695816818
 20
-680.4927243473687
 30
0.0
 11
446.8086695816856
 21
-642.4927243473636
 31
0.0
  0
LINE
  5
270
330
1F
100
AcDbEntity
  8
0-0
  6
JWW_DASHED1
 62
   120
370
     5
100
AcDbLine
 10
408.8086695816818
 20
-670.5932294121494
 30
0.0
 11
446.8086695816788
 21
-632.5932294121556
 31
0.0
  0
LINE
  5
271
330
1F
100
AcDbEntity
  8
0-0
  6
JWW_DASHED1
 62
   120
370
     5
100
AcDbLine
 10
408.8086695816818
 20
-660.6937344769367
 30
0.0
 11
446.8086695816856
 21
-622.6937344769316
 31
0.0
  0
LINE
  5
272
330
1F
100
AcDbEntity
  8
0-0
  6
JWW_DASHED1
 62
   120
370
     5
100
AcDbLine
 10
408.8086695816818
 20
-650.794239541775
 30
0.0
 11
446.8086695816891
 21
-612.7942395417666
 31
0.0
  0
LINE
  5
273
330
1F
100
AcDbEntity
  8
0-0
  6
JWW_DASHED1
 62
   120
370
     5
100
AcDbLine
 10
408.8086695816818
 20
-640.8947446065557
 30
0.0
 11
446.8086695816822
 21
-602.8947446065586
 31
0.0
  0
LINE
  5
274
330
1F
100
AcDbEntity
  8
0-0
  6
JWW_DASHED1
 62
   120
370
     5
100
AcDbLine
 10
408.8086695816818
 20
-630.9952496713357
 30
0.0
 11
446.8086695816891
 21
-592.9952496713349
 31
0.0
  0
LINE
  5
275
330
1F
100
AcDbEntity
  8
0-0
  6
JWW_DASHED1
 62
   120
370
     5
100
AcDbLine
 10
408.8086695816818
 20
-621.0957547361832
 30
0.0
 11
446.8086695816754
 21
-583.0957547361855
 31
0.0
  0
LINE
  5
276
330
1F
100
AcDbEntity
  8
0-0
  6
JWW_DASHED1
 62
   120
370
     5
100
AcDbLine
 10
408.8086695816818
 20
-611.1962598009661
 30
0.0
 11
446.8086695816822
 21
-573.1962598009617
 31
0.0
  0
LINE
  5
277
330
1F
100
AcDbEntity
  8
0-0
  6
JWW_DASHED1
 62
   120
370
     5
100
AcDbLine
 10
408.8086695816818
 20
-601.2967648657464
 30
0.0
 11
446.8086695816891
 21
-563.2967648657375
 31
0.0
  0
LINE
  5
278
330
1F
100
AcDbEntity
  8
0-0
  6
JWW_DASHED1
 62
   120
370
     5
100
AcDbLine
 10
408.8086695816818
 20
-591.397269930586
 30
0.0
 11
446.8086695816754
 21
-553.3972699305884
 31
0.0
  0
LINE
  5
279
330
1F
100
AcDbEntity
  8
0-0
  6
JWW_DASHED1
 62
   120
370
     5
100
AcDbLine
 10
408.8086695816818
 20
-581.4977749953665
 30
0.0
 11
446.8086695816856
 21
-543.4977749953645
 31
0.0
  0
LINE
  5
27A
330
1F
100
AcDbEntity
  8
0-0
  6
JWW_DASHED1
 62
   120
370
     5
100
AcDbLine
 10
408.8086695816818
 20
-571.5982800601519
 30
0.0
 11
446.8086695816754
 21
-533.5982800601566
 31
0.0
  0
LINE
  5
27B
330
1F
100
AcDbEntity
  8
0-0
  6
JWW_DASHED1
 62
   120
370
     5
100
AcDbLine
 10
408.8086695816818
 20
-561.6987851249862
 30
0.0
 11
446.8086695816822
 21
-523.6987851249914
 31
0.0
  0
LINE
  5
27C
330
1F
100
AcDbEntity
  8
0-0
  6
JWW_DASHED1
 62
   120
370
     5
100
AcDbLine
 10
408.8086695816818
 20
-551.799290189772
 30
0.0
 11
446.8086695816891
 21
-513.7992901897683
 31
0.0
  0
LINE
  5
27D
330
1F
100
AcDbEntity
  8
0-0
  6
JWW_DASHED1
 62
   120
370
     5
100
AcDbLine
 10
408.8086695816818
 20
-541.8997952545578
 30
0.0
 11
446.8086695816788
 21
-503.89979525456
 31
0.0
  0
LINE
  5
27E
330
1F
100
AcDbEntity
  8
0-0
  6
JWW_DASHED1
 62
   120
370
     5
100
AcDbLine
 10
408.8086695816818
 20
-532.000300319396
 30
0.0
 11
446.8086695816822
 21
-494.0003003193948
 31
0.0
  0
LINE
  5
27F
330
1F
100
AcDbEntity
  8
0-0
  6
JWW_DASHED1
 62
   120
370
     5
100
AcDbLine
 10
408.8086695816818
 20
-522.1008053841767
 30
0.0
 11
446.8086695816754
 21
-484.1008053841865
 31
0.0
  0
LINE
  5
280
330
1F
100
AcDbEntity
  8
0-0
  6
JWW_DASHED1
 62
   120
370
     5
100
AcDbLine
 10
408.8086695816818
 20
-512.2013104489643
 30
0.0
 11
446.8086695816822
 21
-474.2013104489629
 31
0.0
  0
LINE
  5
281
330
1F
100
AcDbEntity
  8
0-0
  6
JWW_DASHED1
 62
   120
370
     5
100
AcDbLine
 10
408.8086695816818
 20
-502.301815513802
 30
0.0
 11
446.8086695816856
 21
-464.3018155137981
 31
0.0
  0
LINE
  5
282
330
1F
100
AcDbEntity
  8
0-0
  6
JWW_DASHED1
 62
   120
370
     5
100
AcDbLine
 10
408.8086695816818
 20
-492.4023205785886
 30
0.0
 11
446.8086695816754
 21
-454.4023205785895
 31
0.0
  0
LINE
  5
283
330
1F
100
AcDbEntity
  8
0-0
  6
JWW_DASHED1
 62
   120
370
     5
100
AcDbLine
 10
408.8086695816818
 20
-482.502825643368
 30
0.0
 11
446.8086695816822
 21
-444.5028256433659
 31
0.0
  0
LINE
  5
284
330
1F
100
AcDbEntity
  8
0-0
  6
JWW_DASHED1
 62
   120
370
     5
100
AcDbLine
 10
408.8086695816818
 20
-472.603330708202
 30
0.0
 11
446.8086695816891
 21
-434.6033307082012
 31
0.0
  0
LINE
  5
285
330
1F
100
AcDbEntity
  8
0-0
  6
JWW_DASHED1
 62
   120
370
     5
100
AcDbLine
 10
408.8086695816818
 20
-462.7038357729868
 30
0.0
 11
446.8086695816788
 21
-424.7038357729933
 31
0.0
  0
LINE
  5
286
330
1F
100
AcDbEntity
  8
0-0
  6
JWW_DASHED1
 62
   120
370
     5
100
AcDbLine
 10
408.8086695816818
 20
-452.8043408377739
 30
0.0
 11
446.8086695816856
 21
-414.8043408377692
 31
0.0
  0
LINE
  5
287
330
1F
100
AcDbEntity
  8
0-0
  6
JWW_DASHED1
 62
   120
370
     5
100
AcDbLine
 10
408.8086695816818
 20
-442.904845902613
 30
0.0
 11
446.8086695816891
 21
-404.9048459026041
 31
0.0
  0
LINE
  5
288
330
1F
100
AcDbEntity
  8
0-0
  6
JWW_DASHED1
 62
   120
370
     5
100
AcDbLine
 10
408.8086695816818
 20
-433.0053509673933
 30
0.0
 11
446.8086695816822
 21
-395.0053509673962
 31
0.0
  0
LINE
  5
289
330
1F
100
AcDbEntity
  8
0-0
  6
JWW_DASHED1
 62
   120
370
     5
100
AcDbLine
 10
408.8086695816818
 20
-423.1058560321811
 30
0.0
 11
446.8086695816891
 21
-385.1058560321723
 31
0.0
  0
LINE
  5
28A
330
1F
100
AcDbEntity
  8
0-0
  6
JWW_DASHED1
 62
   120
370
     5
100
AcDbLine
 10
408.8086695816818
 20
-413.2063610970134
 30
0.0
 11
446.8086695816822
 21
-375.2063610970177
 31
0.0
  0
LINE
  5
28B
330
1F
100
AcDbEntity
  8
0-0
  6
JWW_DASHED1
 62
   120
370
     5
100
AcDbLine
 10
408.8086695816818
 20
-403.306866161803
 30
0.0
 11
446.8086695816822
 21
-365.3068661617992
 31
0.0
  0
LINE
  5
28C
330
1F
100
AcDbEntity
  8
0-0
  6
JWW_DASHED1
 62
   120
370
     5
100
AcDbLine
 10
408.8086695816818
 20
-393.4073712265892
 30
0.0
 11
446.8086695816754
 21
-355.407371226591
 31
0.0
  0
LINE
  5
28D
330
1F
100
AcDbEntity
  8
0-0
  6
JWW_DASHED1
 62
   120
370
     5
100
AcDbLine
 10
408.8086695816818
 20
-383.5078762914249
 30
0.0
 11
446.8086695816788
 21
-345.5078762914262
 31
0.0
  0
LINE
  5
28E
330
1F
100
AcDbEntity
  8
0-0
  6
JWW_DASHED1
 62
   120
370
     5
100
AcDbLine
 10
408.8086695816818
 20
-373.6083813562026
 30
0.0
 11
446.8086695816856
 21
-335.6083813562021
 31
0.0
  0
LINE
  5
28F
330
1F
100
AcDbEntity
  8
0-0
  6
JWW_DASHED1
 62
   120
370
     5
100
AcDbLine
 10
408.8086695816818
 20
-363.7088864209879
 30
0.0
 11
446.8086695816788
 21
-325.7088864209943
 31
0.0
  0
LINE
  5
290
330
1F
100
AcDbEntity
  8
0-0
  6
JWW_DASHED1
 62
   120
370
     5
100
AcDbLine
 10
408.8086695816818
 20
-353.809391485824
 30
0.0
 11
446.8086695816822
 21
-315.8093914858291
 31
0.0
  0
LINE
  5
291
330
1F
100
AcDbEntity
  8
0-0
  6
JWW_DASHED1
 62
   120
370
     5
100
AcDbLine
 10
408.8086695816818
 20
-343.9098965506157
 30
0.0
 11
446.8086695816891
 21
-305.9098965506051
 31
0.0
  0
LINE
  5
292
330
1F
100
AcDbEntity
  8
0-0
  6
JWW_DASHED1
 62
   120
370
     5
100
AcDbLine
 10
408.8086695816818
 20
-334.0104016153921
 30
0.0
 11
446.8086695816822
 21
-296.0104016153973
 31
0.0
  0
LINE
  5
293
330
1F
100
AcDbEntity
  8
0-0
  6
JWW_DASHED1
 62
   120
370
     5
100
AcDbLine
 10
408.8086695816818
 20
-324.1109066802342
 30
0.0
 11
446.8086695816822
 21
-286.1109066802321
 31
0.0
  0
LINE
  5
294
330
1F
100
AcDbEntity
  8
0-0
  6
JWW_DASHED1
 62
   120
370
     5
100
AcDbLine
 10
408.8086695816818
 20
-314.2114117450208
 30
0.0
 11
446.8086695816891
 21
-276.211411745008
 31
0.0
  0
LINE
  5
295
330
1F
100
AcDbEntity
  8
0-0
  6
JWW_DASHED1
 62
   120
370
     5
100
AcDbLine
 10
408.8086695816818
 20
-304.3119168098024
 30
0.0
 11
446.8086695816822
 21
-266.3119168098002
 31
0.0
  0
LINE
  5
296
330
1F
100
AcDbEntity
  8
0-0
  6
JWW_DASHED1
 62
   120
370
     5
100
AcDbLine
 10
408.8086695816818
 20
-294.4124218746406
 30
0.0
 11
446.8086695816856
 21
-256.412421874635
 31
0.0
  0
LINE
  5
297
330
1F
100
AcDbEntity
  8
0-0
  6
JWW_DASHED1
 62
   120
370
     5
100
AcDbLine
 10
408.8086695816818
 20
-284.5129269394208
 30
0.0
 11
446.8086695816788
 21
-246.5129269394272
 31
0.0
  0
LINE
  5
298
330
1F
100
AcDbEntity
  8
0-0
  6
JWW_DASHED1
 62
   120
370
     5
100
AcDbLine
 10
408.8086695816818
 20
-274.6134320042369
 30
0.0
 11
446.8086695816822
 21
-236.613432004233
 31
0.0
  0
LINE
  5
299
330
1F
100
AcDbEntity
  8
0-0
  6
JWW_DASHED1
 62
   120
370
     5
100
AcDbLine
 10
408.8086695816818
 20
-264.7139370690393
 30
0.0
 11
446.8086695816891
 21
-226.7139370690384
 31
0.0
  0
LINE
  5
29A
330
1F
100
AcDbEntity
  8
0-0
  6
JWW_DASHED1
 62
   120
370
     5
100
AcDbLine
 10
408.8086695816818
 20
-254.8144421338263
 30
0.0
 11
446.8086695816822
 21
-216.8144421338306
 31
0.0
  0
LINE
  5
29B
330
1F
100
AcDbEntity
  8
0-0
  6
JWW_DASHED1
 62
   120
370
     5
100
AcDbLine
 10
408.8086695816818
 20
-244.9149471986364
 30
0.0
 11
446.8086695816856
 21
-206.914947198636
 31
0.0
  0
LINE
  5
29C
330
1F
100
AcDbEntity
  8
0-0
  6
JWW_DASHED1
 62
   120
370
     5
100
AcDbLine
 10
408.8086695816818
 20
-235.0154522634541
 30
0.0
 11
446.8086695816754
 21
-197.0154522634571
 31
0.0
  0
LINE
  5
29D
330
1F
100
AcDbEntity
  8
0-0
  6
JWW_DASHED1
 62
   120
370
     5
100
AcDbLine
 10
408.8086695816818
 20
-225.1159573282391
 30
0.0
 11
446.8086695816822
 21
-187.1159573282331
 31
0.0
  0
LINE
  5
29E
330
1F
100
AcDbEntity
  8
0-0
  6
JWW_DASHED1
 62
   120
370
     5
100
AcDbLine
 10
408.8086695816818
 20
-215.2164623930692
 30
0.0
 11
446.8086695816856
 21
-177.2164623930688
 31
0.0
  0
LINE
  5
29F
330
1F
100
AcDbEntity
  8
0-0
  6
JWW_DASHED1
 62
   120
370
     5
100
AcDbLine
 10
408.8086695816818
 20
-205.3169674578592
 30
0.0
 11
446.8086695816754
 21
-167.3169674578601
 31
0.0
  0
LINE
  5
2A0
330
1F
100
AcDbEntity
  8
0-0
  6
JWW_DASHED1
 62
   120
370
     5
100
AcDbLine
 10
408.8086695816818
 20
-195.4174725226373
 30
0.0
 11
446.8086695816856
 21
-157.4174725226369
 31
0.0
  0
LINE
  5
2A1
330
1F
100
AcDbEntity
  8
0-0
  6
JWW_DASHED1
 62
   120
370
     5
100
AcDbLine
 10
408.8086695816818
 20
-185.5179775874755
 30
0.0
 11
446.8086695816891
 21
-147.5179775874717
 31
0.0
  0
LINE
  5
2A2
330
1F
100
AcDbEntity
  8
0-0
  6
JWW_DASHED1
 62
   120
370
     5
100
AcDbLine
 10
408.8086695816818
 20
-175.6184826522609
 30
0.0
 11
446.8086695816788
 21
-137.6184826522639
 31
0.0
  0
LINE
  5
2A3
330
1F
100
AcDbEntity
  8
0-0
  6
JWW_DASHED1
 62
   120
370
     5
100
AcDbLine
 10
408.8086695816818
 20
-165.7189877170437
 30
0.0
 11
446.8086695816891
 21
-127.7189877170399
 31
0.0
  0
LINE
  5
2A4
330
1F
100
AcDbEntity
  8
0-0
  6
JWW_DASHED1
 62
   120
370
     5
100
AcDbLine
 10
408.8086695816818
 20
-155.8194927818853
 30
0.0
 11
446.8086695816891
 21
-117.8194927818747
 31
0.0
  0
LINE
  5
2A5
330
1F
100
AcDbEntity
  8
0-0
  6
JWW_DASHED1
 62
   120
370
     5
100
AcDbLine
 10
408.8086695816818
 20
-145.9199978466673
 30
0.0
 11
446.8086695816822
 21
-107.9199978466669
 31
0.0
  0
LINE
  5
2A6
330
1F
100
AcDbEntity
  8
0-0
  6
JWW_DASHED1
 62
   120
370
     5
100
AcDbLine
 10
408.8086695816818
 20
-136.0205029114535
 30
0.0
 11
446.8086695816891
 21
-98.02050291144283
 31
0.0
  0
LINE
  5
2A7
330
1F
100
AcDbEntity
  8
0-0
  6
JWW_DASHED1
 62
   120
370
     5
100
AcDbLine
 10
408.8086695816818
 20
-126.1210079762866
 30
0.0
 11
446.8086695816856
 21
-88.12100797628617
 31
0.0
  0
LINE
  5
2A8
330
1F
100
AcDbEntity
  8
0-0
  6
JWW_DASHED1
 62
   120
370
     5
100
AcDbLine
 10
408.8086695816818
 20
-116.2215130410753
 30
0.0
 11
446.8086695816856
 21
-78.22151304106981
 31
0.0
  0
LINE
  5
2A9
330
1F
100
AcDbEntity
  8
0-0
  6
JWW_DASHED1
 62
   120
370
     5
100
AcDbLine
 10
408.8086695816818
 20
-106.322018105859
 30
0.0
 11
446.8086695816754
 21
-68.32201810586199
 31
0.0
  0
LINE
  5
2AA
330
1F
100
AcDbEntity
  8
0-0
  6
JWW_DASHED1
 62
   120
370
     5
100
AcDbLine
 10
408.8086695816818
 20
-96.42252317069037
 30
0.0
 11
446.8086695816788
 21
-58.42252317069679
 31
0.0
  0
LINE
  5
2AB
330
1F
100
AcDbEntity
  8
0-0
  6
JWW_DASHED1
 62
   120
370
     5
100
AcDbLine
 10
408.8086695816818
 20
-86.52302823547444
 30
0.0
 11
446.8086695816891
 21
-48.52302823547276
 31
0.0
  0
LINE
  5
2AC
330
1F
100
AcDbEntity
  8
0-0
  6
JWW_DASHED1
 62
   120
370
     5
100
AcDbLine
 10
408.8086695816818
 20
-76.62353330025852
 30
0.0
 11
446.8086695816788
 21
-38.62353330026494
 31
0.0
  0
LINE
  5
2AD
330
1F
100
AcDbEntity
  8
0-0
  6
JWW_DASHED1
 62
   120
370
     5
100
AcDbLine
 10
408.8086695816818
 20
-66.72403836510483
 30
0.0
 11
446.8086695816822
 21
-28.72403836509974
 31
0.0
  0
LINE
  5
2AE
330
1F
100
AcDbEntity
  8
0-0
  6
JWW_DASHED1
 62
   120
370
     5
100
AcDbLine
 10
408.8086695816818
 20
-56.82454342988422
 30
0.0
 11
446.8086695816891
 21
-18.82454342987614
 31
0.0
  0
LINE
  5
2AF
330
1F
100
AcDbEntity
  8
0-0
  6
JWW_DASHED1
 62
   120
370
     5
100
AcDbLine
 10
408.8086695816818
 20
-46.92504849466488
 30
0.0
 11
446.8086695816822
 21
-8.925048494667891
 31
0.0
  0
LINE
  5
2B0
330
1F
100
AcDbEntity
  8
0-0
  6
JWW_DASHED1
 62
   120
370
     5
100
AcDbLine
 10
408.8086695816818
 20
-37.02555355950693
 30
0.0
 11
446.8086695816822
 21
0.9744464404968767
 31
0.0
  0
LINE
  5
2B1
330
1F
100
AcDbEntity
  8
0-0
  6
JWW_DASHED1
 62
   120
370
     5
100
AcDbLine
 10
408.8086695816818
 20
-27.12605862429058
 30
0.0
 11
446.8086695816925
 21
10.8739413757209
 31
0.0
  0
LINE
  5
2B2
330
1F
100
AcDbEntity
  8
0-0
  6
JWW_DASHED1
 62
   120
370
     5
100
AcDbLine
 10
408.8086695816818
 20
-17.22656368907465
 30
0.0
 11
446.8086695816822
 21
20.77343631092916
 31
0.0
  0
LINE
  5
2B3
330
1F
100
AcDbEntity
  8
0-0
  6
JWW_DASHED1
 62
   120
370
     5
100
AcDbLine
 10
408.8086695816818
 20
-7.327068753913295
 30
0.0
 11
446.8086695816856
 21
30.67293124609392
 31
0.0
  0
LINE
  5
2B4
330
1F
100
AcDbEntity
  8
0-0
  6
JWW_DASHED1
 62
   120
370
     5
100
AcDbLine
 10
408.8086695816818
 20
2.572426181303484
 30
0.0
 11
446.8086695816788
 21
40.57242618130218
 31
0.0
  0
LINE
  5
2B5
330
1F
100
AcDbEntity
  8
0-0
  6
JWW_DASHED1
 62
   120
370
     5
100
AcDbLine
 10
408.8086695816818
 20
12.47192111652538
 30
0.0
 11
446.8086695816856
 21
50.47192111652578
 31
0.0
  0
LINE
  5
2B6
330
1F
100
AcDbEntity
  8
0-0
  6
JWW_DASHED1
 62
   120
370
     5
100
AcDbLine
 10
408.8086695816818
 20
22.37141605167906
 30
0.0
 11
446.8086695816891
 21
60.37141605169097
 31
0.0
  0
LINE
  5
2B7
330
1F
100
AcDbEntity
  8
0-0
  6
JWW_DASHED1
 62
   120
370
     5
100
AcDbLine
 10
408.8086695816818
 20
32.27091098690479
 30
0.0
 11
446.8086695816822
 21
70.2709109868988
 31
0.0
  0
LINE
  5
2B8
330
1F
100
AcDbEntity
  8
0-0
  6
JWW_DASHED1
 62
   120
370
     5
100
AcDbLine
 10
408.8086695816818
 20
42.17040592211816
 30
0.0
 11
446.8086695816891
 21
80.17040592212282
 31
0.0
  0
LINE
  5
2B9
330
1F
100
AcDbEntity
  8
0-0
  6
JWW_DASHED1
 62
   120
370
     5
100
AcDbLine
 10
408.8086695816818
 20
52.06990085727398
 30
0.0
 11
446.8086695816754
 21
90.06990085727224
 31
0.0
  0
LINE
  5
2BA
330
1F
100
AcDbEntity
  8
0-0
  6
JWW_DASHED1
 62
   120
370
     5
100
AcDbLine
 10
408.8086695816818
 20
61.96939579249459
 30
0.0
 11
446.8086695816822
 21
99.96939579249585
 31
0.0
  0
LINE
  5
2BB
330
1F
100
AcDbEntity
  8
0-0
  6
JWW_DASHED1
 62
   120
370
     5
100
AcDbLine
 10
408.8086695816818
 20
71.86889072770882
 30
0.0
 11
446.8086695816891
 21
109.8688907277194
 31
0.0
  0
LINE
  5
2BC
330
1F
100
AcDbEntity
  8
0-0
  6
JWW_DASHED1
 62
   120
370
     5
100
AcDbLine
 10
408.8086695816818
 20
81.76838566287486
 30
0.0
 11
446.8086695816788
 21
119.7683856628693
 31
0.0
  0
LINE
  5
2BD
330
1F
100
AcDbEntity
  8
0-0
  6
JWW_DASHED1
 62
   120
370
     5
100
AcDbLine
 10
408.8086695816818
 20
91.66788059808738
 30
0.0
 11
446.8086695816856
 21
129.6678805980929
 31
0.0
  0
LINE
  5
2BE
330
1F
100
AcDbEntity
  8
0-0
  6
JWW_DASHED1
 62
   120
370
     5
100
AcDbLine
 10
408.8086695816818
 20
101.5673755333059
 30
0.0
 11
446.8086695816891
 21
139.5673755333105
 31
0.0
  0
LINE
  5
2BF
330
1F
100
AcDbEntity
  8
0-0
  6
JWW_DASHED1
 62
   120
370
     5
100
AcDbLine
 10
408.8086695816818
 20
111.4668704684681
 30
0.0
 11
446.8086695816822
 21
149.4668704684659
 31
0.0
  0
LINE
  5
2C0
330
1F
100
AcDbEntity
  8
0-0
  6
JWW_DASHED1
 62
   120
370
     5
100
AcDbLine
 10
408.8086695816818
 20
121.3663654036887
 30
0.0
 11
446.8086695816891
 21
159.3663654036895
 31
0.0
  0
LINE
  5
2C1
330
1F
100
AcDbEntity
  8
0-0
  6
JWW_DASHED1
 62
   120
370
     5
100
AcDbLine
 10
408.8086695816818
 20
131.2658603388961
 30
0.0
 11
446.8086695816788
 21
169.2658603388978
 31
0.0
  0
LINE
  5
2C2
330
1F
100
AcDbEntity
  8
0-0
  6
JWW_DASHED1
 62
   120
370
     5
100
AcDbLine
 10
408.8086695816818
 20
141.1653552740587
 30
0.0
 11
446.8086695816822
 21
179.1653552740625
 31
0.0
  0
LINE
  5
2C3
330
1F
100
AcDbEntity
  8
0-0
  6
JWW_DASHED1
 62
   120
370
     5
100
AcDbLine
 10
408.8086695816818
 20
151.0648502092806
 30
0.0
 11
446.8086695816754
 21
189.0648502092708
 31
0.0
  0
LINE
  5
2C4
330
1F
100
AcDbEntity
  8
0-0
  6
JWW_DASHED1
 62
   120
370
     5
100
AcDbLine
 10
408.8086695816818
 20
160.9643451444906
 30
0.0
 11
446.8086695816822
 21
198.9643451444944
 31
0.0
  0
LINE
  5
2C5
330
1F
100
AcDbEntity
  8
0-0
  6
JWW_DASHED1
 62
   120
370
     5
100
AcDbLine
 10
408.8086695816818
 20
170.8638400796592
 30
0.0
 11
446.8086695816856
 21
208.8638400796596
 31
0.0
  0
LINE
  5
2C6
330
1F
100
AcDbEntity
  8
0-0
  6
JWW_DASHED1
 62
   120
370
     5
100
AcDbLine
 10
408.8086695816818
 20
180.7633350148704
 30
0.0
 11
446.8086695816754
 21
218.7633350148674
 31
0.0
  0
LINE
  5
2C7
330
1F
100
AcDbEntity
  8
0-0
  6
JWW_DASHED1
 62
   120
370
     5
100
AcDbLine
 10
408.8086695816818
 20
190.662829950091
 30
0.0
 11
446.8086695816856
 21
228.6628299500914
 31
0.0
  0
LINE
  5
2C8
330
1F
100
AcDbEntity
  8
0-0
  6
JWW_DASHED1
 62
   120
370
     5
100
AcDbLine
 10
408.8086695816818
 20
200.562324885252
 30
0.0
 11
446.8086695816891
 21
238.5623248852566
 31
0.0
  0
LINE
  5
2C9
330
1F
100
AcDbEntity
  8
0-0
  6
JWW_DASHED1
 62
   120
370
     5
100
AcDbLine
 10
408.8086695816818
 20
210.4618198204666
 30
0.0
 11
446.8086695816788
 21
248.4618198204645
 31
0.0
  0
LINE
  5
2CA
330
1F
100
AcDbEntity
  8
0-0
  6
JWW_DASHED1
 62
   120
370
     5
100
AcDbLine
 10
408.8086695816818
 20
220.3613147556847
 30
0.0
 11
446.8086695816891
 21
258.3613147556885
 31
0.0
  0
LINE
  5
2CB
330
1F
100
AcDbEntity
  8
0-0
  6
JWW_DASHED1
 62
   120
370
     5
100
AcDbLine
 10
408.8086695816818
 20
230.2608096908418
 30
0.0
 11
446.8086695816891
 21
268.2608096908536
 31
0.0
  0
LINE
  5
2CC
330
1F
100
AcDbEntity
  8
0-0
  6
JWW_DASHED1
 62
   120
370
     5
100
AcDbLine
 10
408.8086695816818
 20
240.1603046260594
 30
0.0
 11
446.8086695816822
 21
278.1603046260615
 31
0.0
  0
LINE
  5
2CD
330
1F
100
AcDbEntity
  8
0-0
  6
JWW_DASHED1
 62
   120
370
     5
100
AcDbLine
 10
408.8086695816818
 20
250.0597995612736
 30
0.0
 11
446.8086695816891
 21
288.0597995612856
 31
0.0
  0
LINE
  5
2CE
330
1F
100
AcDbEntity
  8
0-0
  6
JWW_DASHED1
 62
   120
370
     5
100
AcDbLine
 10
408.8086695816818
 20
259.9592944964431
 30
0.0
 11
446.8086695816925
 21
297.9592944964503
 31
0.0
  0
LINE
  5
2CF
330
1F
100
AcDbEntity
  8
0-0
  6
JWW_DASHED1
 62
   120
370
     5
100
AcDbLine
 10
408.8086695816818
 20
269.858789431653
 30
0.0
 11
446.8086695816856
 21
307.8587894316586
 31
0.0
  0
LINE
  5
2D0
330
1F
100
AcDbEntity
  8
0-0
  6
JWW_DASHED1
 62
   120
370
     5
100
AcDbLine
 10
408.8086695816818
 20
279.7582843668694
 30
0.0
 11
446.8086695816754
 21
317.7582843668664
 31
0.0
  0
LINE
  5
2D1
330
1F
100
AcDbEntity
  8
0-0
  6
JWW_DASHED1
 62
   120
370
     5
100
AcDbLine
 10
408.8086695816818
 20
289.6577793020311
 30
0.0
 11
446.8086695816788
 21
327.6577793020316
 31
0.0
  0
LINE
  5
2D2
330
1F
100
AcDbEntity
  8
0-0
  6
JWW_DASHED1
 62
   120
370
     5
100
AcDbLine
 10
408.8086695816818
 20
299.5572742372543
 30
0.0
 11
446.8086695816891
 21
337.5572742372552
 31
0.0
  0
LINE
  5
2D3
330
1F
100
AcDbEntity
  8
0-0
  6
JWW_DASHED1
 62
   120
370
     5
100
AcDbLine
 10
408.8086695816818
 20
309.4567691724699
 30
0.0
 11
446.8086695816788
 21
347.4567691724634
 31
0.0
  0
LINE
  5
2D4
330
1F
100
AcDbEntity
  8
0-0
  6
JWW_DASHED1
 62
   120
370
     5
100
AcDbLine
 10
408.8086695816818
 20
319.3562641076252
 30
0.0
 11
446.8086695816822
 21
357.3562641076282
 31
0.0
  0
LINE
  5
2D5
330
1F
100
AcDbEntity
  8
0-0
  6
JWW_DASHED1
 62
   120
370
     5
100
AcDbLine
 10
408.8086695816818
 20
329.2557590428441
 30
0.0
 11
446.8086695816891
 21
367.2557590428522
 31
0.0
  0
LINE
  5
2D6
330
1F
100
AcDbEntity
  8
0-0
  6
JWW_DASHED1
 62
   120
370
     5
100
AcDbLine
 10
408.8086695816818
 20
339.1552539780371
 30
0.0
 11
446.8086695816788
 21
377.1552539780306
 31
0.0
  0
LINE
  5
2D7
330
1F
100
AcDbEntity
  8
0-0
  6
JWW_DASHED1
 62
   120
370
     5
100
AcDbLine
 10
408.8086695816818
 20
349.0547489132214
 30
0.0
 11
446.8086695816822
 21
387.0547489132252
 31
0.0
  0
LINE
  5
2D8
330
1F
100
AcDbEntity
  8
0-0
  6
JWW_DASHED1
 62
   120
370
     5
100
AcDbLine
 10
408.8086695816818
 20
358.9542438484369
 30
0.0
 11
446.8086695816925
 21
396.9542438484493
 31
0.0
  0
LINE
  5
2D9
330
1F
100
AcDbEntity
  8
0-0
  6
JWW_DASHED1
 62
   120
370
     5
100
AcDbLine
 10
408.8086695816818
 20
368.8537387836038
 30
0.0
 11
446.8086695816788
 21
406.8537387835983
 31
0.0
  0
LINE
  5
2DA
330
1F
100
AcDbEntity
  8
0-0
  6
JWW_DASHED1
 62
   120
370
     5
100
AcDbLine
 10
408.8086695816818
 20
378.7532337188138
 30
0.0
 11
446.8086695816856
 21
416.7532337188223
 31
0.0
  0
LINE
  5
2DB
330
1F
100
AcDbEntity
  8
0-0
  6
JWW_DASHED1
 62
   120
370
     5
100
AcDbLine
 10
408.8086695816818
 20
388.6527286540323
 30
0.0
 11
446.8086695816788
 21
426.6527286540301
 31
0.0
  0
LINE
  5
2DC
330
1F
100
AcDbEntity
  8
0-0
  6
JWW_DASHED1
 62
   120
370
     5
100
AcDbLine
 10
408.8086695816818
 20
398.5522235892005
 30
0.0
 11
446.8086695816822
 21
436.5522235891953
 31
0.0
  0
LINE
  5
2DD
330
1F
100
AcDbEntity
  8
0-0
  6
JWW_DASHED1
 62
   120
370
     5
100
AcDbLine
 10
408.8086695816818
 20
408.4517185244083
 30
0.0
 11
446.8086695816891
 21
446.4517185244189
 31
0.0
  0
LINE
  5
2DE
330
1F
100
AcDbEntity
  8
0-0
  6
JWW_DASHED1
 62
   120
370
     5
100
AcDbLine
 10
408.8086695816818
 20
418.3512134596332
 30
0.0
 11
446.8086695816822
 21
456.3512134596272
 31
0.0
  0
LINE
  5
2DF
330
1F
100
AcDbEntity
  8
0-0
  6
JWW_DASHED1
 62
   120
370
     5
100
AcDbLine
 10
408.8086695816818
 20
428.2507083947834
 30
0.0
 11
446.8086695816822
 21
466.2507083947919
 31
0.0
  0
LINE
  5
2E0
330
1F
100
AcDbEntity
  8
0-0
  6
JWW_DASHED1
 62
   120
370
     5
100
AcDbLine
 10
408.8086695816818
 20
438.1502033300032
 30
0.0
 11
446.8086695816754
 21
476.1502033300002
 31
0.0
  0
LINE
  5
2E1
330
1F
100
AcDbEntity
  8
0-0
  6
JWW_DASHED1
 62
   120
370
     5
100
AcDbLine
 10
408.8086695816818
 20
448.0496982652226
 30
0.0
 11
446.8086695816822
 21
486.0496982652238
 31
0.0
  0
LINE
  5
2E2
330
1F
100
AcDbEntity
  8
0-0
  6
JWW_DASHED1
 62
   120
370
     5
100
AcDbLine
 10
408.8086695816818
 20
457.9491932003843
 30
0.0
 11
446.8086695816856
 21
495.949193200389
 31
0.0
  0
LINE
  5
2E3
330
1F
100
AcDbEntity
  8
0-0
  6
JWW_DASHED1
 62
   120
370
     5
100
AcDbLine
 10
408.8086695816818
 20
467.8486881356028
 30
0.0
 11
446.8086695816788
 21
505.8486881355972
 31
0.0
  0
LINE
  5
2E4
330
1F
100
AcDbEntity
  8
0-0
  6
JWW_DASHED1
 62
   120
370
     5
100
AcDbLine
 10
408.8086695816818
 20
477.7481830708153
 30
0.0
 11
446.8086695816856
 21
515.7481830708208
 31
0.0
  0
LINE
  5
2E5
330
1F
100
AcDbEntity
  8
0-0
  6
JWW_DASHED1
 62
   120
370
     5
100
AcDbLine
 10
408.8086695816818
 20
487.6476780059771
 30
0.0
 11
446.8086695816891
 21
525.647678005986
 31
0.0
  0
LINE
  5
2E6
330
1F
100
AcDbEntity
  8
0-0
  6
JWW_DASHED1
 62
   120
370
     5
100
AcDbLine
 10
408.8086695816818
 20
497.5471729411969
 30
0.0
 11
446.8086695816822
 21
535.5471729411938
 31
0.0
  0
LINE
  5
2E7
330
1F
100
AcDbEntity
  8
0-0
  6
JWW_DASHED1
 62
   120
370
     5
100
AcDbLine
 10
408.8086695816818
 20
507.4466678764157
 30
0.0
 11
446.8086695816891
 21
545.4466678764179
 31
0.0
  0
LINE
  5
2E8
330
1F
100
AcDbEntity
  8
0-0
  6
JWW_DASHED1
 62
   120
370
     5
100
AcDbLine
 10
408.8086695816818
 20
517.3461628115673
 30
0.0
 11
446.8086695816891
 21
555.3461628115826
 31
0.0
  0
LINE
  5
2E9
330
1F
100
AcDbEntity
  8
0-0
  6
JWW_DASHED1
 62
   120
370
     5
100
AcDbLine
 10
408.8086695816818
 20
527.2456577467871
 30
0.0
 11
446.8086695816822
 21
565.2456577467909
 31
0.0
  0
LINE
  5
2EA
330
1F
100
AcDbEntity
  8
0-0
  6
JWW_DASHED1
 62
   120
370
     5
100
AcDbLine
 10
408.8086695816818
 20
537.145152682006
 30
0.0
 11
446.8086695816891
 21
575.1451526820149
 31
0.0
  0
LINE
  5
2EB
330
1F
100
AcDbEntity
  8
0-0
  6
JWW_DASHED1
 62
   120
370
     5
100
AcDbLine
 10
408.8086695816818
 20
547.0446476171652
 30
0.0
 11
446.8086695816925
 21
585.0446476171776
 31
0.0
  0
LINE
  5
2EC
330
1F
100
AcDbEntity
  8
0-0
  6
JWW_DASHED1
 62
   120
370
     5
100
AcDbLine
 10
408.8086695816818
 20
556.9441425523867
 30
0.0
 11
446.8086695816856
 21
594.9441425523879
 31
0.0
  0
LINE
  5
2ED
330
1F
100
AcDbEntity
  8
0-0
  6
JWW_DASHED1
 62
   120
370
     5
100
AcDbLine
 10
408.8086695816818
 20
566.8436374875988
 30
0.0
 11
446.8086695816754
 21
604.8436374875957
 31
0.0
  0
LINE
  5
2EE
330
1F
100
AcDbEntity
  8
0-0
  6
JWW_DASHED1
 62
   120
370
     5
100
AcDbLine
 10
408.8086695816818
 20
576.7431324227662
 30
0.0
 11
446.8086695816822
 21
614.7431324227609
 31
0.0
  0
LINE
  5
2EF
330
1F
100
AcDbEntity
  8
0-0
  6
JWW_DASHED1
 62
   120
370
     5
100
AcDbLine
 10
408.8086695816818
 20
586.6426273579807
 30
0.0
 11
446.8086695816891
 21
624.6426273579846
 31
0.0
  0
LINE
  5
2F0
330
1F
100
AcDbEntity
  8
0-0
  6
JWW_DASHED1
 62
   120
370
     5
100
AcDbLine
 10
408.8086695816818
 20
596.5421222931924
 30
0.0
 11
446.8086695816788
 21
634.5421222931928
 31
0.0
  0
LINE
  5
2F1
330
1F
100
AcDbEntity
  8
0-0
  6
JWW_DASHED1
 62
   120
370
     5
100
AcDbLine
 10
408.8086695816818
 20
606.4416172283563
 30
0.0
 11
446.8086695816822
 21
644.4416172283571
 31
0.0
  0
LINE
  5
2F2
330
1F
100
AcDbEntity
  8
0-0
  6
JWW_DASHED1
 62
   120
370
     5
100
AcDbLine
 10
408.8086695816818
 20
616.3411121635705
 30
0.0
 11
446.8086695816891
 21
654.3411121635816
 31
0.0
  0
LINE
  5
2F3
330
1F
100
AcDbEntity
  8
0-0
  6
JWW_DASHED1
 62
   120
370
     5
100
AcDbLine
 10
408.8086695816818
 20
626.2406070987878
 30
0.0
 11
446.8086695816822
 21
664.2406070987898
 31
0.0
  0
LINE
  5
2F4
330
1F
100
AcDbEntity
  8
0-0
  6
JWW_DASHED1
 62
   120
370
     5
100
AcDbLine
 10
408.8086695816818
 20
636.1401020339499
 30
0.0
 11
446.8086695816856
 21
674.1401020339547
 31
0.0
  0
LINE
  5
2F5
330
1F
100
AcDbEntity
  8
0-0
  6
JWW_DASHED1
 62
   120
370
     5
100
AcDbLine
 10
408.8086695816818
 20
646.039596969171
 30
0.0
 11
446.8086695816925
 21
684.0395969691782
 31
0.0
  0
LINE
  5
2F6
330
1F
100
AcDbEntity
  8
0-0
  6
JWW_DASHED1
 62
   120
370
     5
100
AcDbLine
 10
408.8086695816818
 20
655.939091904378
 30
0.0
 11
446.8086695816822
 21
693.9390919043865
 31
0.0
  0
LINE
  5
2F7
330
1F
100
AcDbEntity
  8
0-0
  6
JWW_DASHED1
 62
   120
370
     5
100
AcDbLine
 10
408.8086695816818
 20
665.83858683955
 30
0.0
 11
446.8086695816891
 21
703.8385868395517
 31
0.0
  0
LINE
  5
2F8
330
1F
100
AcDbEntity
  8
0-0
  6
JWW_DASHED1
 62
   120
370
     5
100
AcDbLine
 10
408.8086695816818
 20
675.738081774766
 30
0.0
 11
446.8086695816788
 21
713.738081774759
 31
0.0
  0
LINE
  5
2F9
330
1F
100
AcDbEntity
  8
0-0
  6
JWW_DASHED1
 62
   120
370
     5
100
AcDbLine
 10
408.8086695816818
 20
685.6375767099827
 30
0.0
 11
446.8086695816891
 21
723.6375767099835
 31
0.0
  0
LINE
  5
2FA
330
1F
100
AcDbEntity
  8
0-0
  6
JWW_DASHED1
 62
   120
370
     5
100
AcDbLine
 10
408.8086695816818
 20
695.5370716451403
 30
0.0
 11
446.8086695816891
 21
733.5370716451483
 31
0.0
  0
LINE
  5
2FB
330
1F
100
AcDbEntity
  8
0-0
  6
JWW_DASHED1
 62
   120
370
     5
100
AcDbLine
 10
408.8086695816818
 20
705.4365665803596
 30
0.0
 11
446.8086695816822
 21
743.4365665803566
 31
0.0
  0
LINE
  5
2FC
330
1F
100
AcDbEntity
  8
0-0
  6
JWW_DASHED1
 62
   120
370
     5
100
AcDbLine
 10
408.8086695816818
 20
715.336061515572
 30
0.0
 11
446.8086695816891
 21
753.3360615155801
 31
0.0
  0
LINE
  5
2FD
330
1F
100
AcDbEntity
  8
0-0
  6
JWW_DASHED1
 62
   120
370
     5
100
AcDbLine
 10
408.8086695816818
 20
725.2355564507321
 30
0.0
 11
446.8086695816754
 21
763.2355564507295
 31
0.0
  0
LINE
  5
2FE
330
1F
100
AcDbEntity
  8
0-0
  6
JWW_DASHED1
 62
   120
370
     5
100
AcDbLine
 10
408.8086695816818
 20
735.1350513859485
 30
0.0
 11
446.8086695816822
 21
773.1350513859536
 31
0.0
  0
LINE
  5
2FF
330
1F
100
AcDbEntity
  8
0-0
  6
JWW_DASHED1
 62
   120
370
     5
100
AcDbLine
 10
408.8086695816818
 20
745.0345463211657
 30
0.0
 11
446.8086695816925
 21
783.0345463211772
 31
0.0
  0
LINE
  5
300
330
1F
100
AcDbEntity
  8
0-0
  6
JWW_DASHED1
 62
   120
370
     5
100
AcDbLine
 10
408.8086695816818
 20
754.9340412563326
 30
0.0
 11
446.8086695816788
 21
792.9340412563262
 31
0.0
  0
LINE
  5
301
330
1F
100
AcDbEntity
  8
0-0
  6
JWW_DASHED1
 62
   120
370
     5
100
AcDbLine
 10
408.8086695816818
 20
764.833536191543
 30
0.0
 11
446.8086695816856
 21
802.8335361915503
 31
0.0
  0
LINE
  5
302
330
1F
100
AcDbEntity
  8
0-0
  6
JWW_DASHED1
 62
   120
370
     5
100
AcDbLine
 10
408.8086695816818
 20
774.7330311267654
 30
0.0
 11
446.8086695816959
 21
812.7330311267738
 31
0.0
  0
LINE
  5
303
330
1F
100
AcDbEntity
  8
0-0
  6
JWW_DASHED1
 62
   120
370
     5
100
AcDbLine
 10
408.8086695816818
 20
784.6325260619292
 30
0.0
 11
446.8086695816822
 21
822.6325260619233
 31
0.0
  0
LINE
  5
304
330
1F
100
AcDbEntity
  8
0-0
  6
JWW_DASHED1
 62
   120
370
     5
100
AcDbLine
 10
408.8086695816818
 20
794.5320209971367
 30
0.0
 11
446.8086695816891
 21
832.5320209971472
 31
0.0
  0
LINE
  5
305
330
1F
100
AcDbEntity
  8
0-0
  6
JWW_DASHED1
 62
   120
370
     5
100
AcDbLine
 10
408.8086695816818
 20
804.4315159323606
 30
0.0
 11
446.8086695816822
 21
842.4315159323551
 31
0.0
  0
LINE
  5
306
330
1F
100
AcDbEntity
  8
0-0
  6
JWW_DASHED1
 62
   120
370
     5
100
AcDbLine
 10
408.8086695816818
 20
824.2305058027409
 30
0.0
 11
446.8086695816822
 21
862.2305058027298
 31
0.0
  0
LINE
  5
307
330
1F
100
AcDbEntity
  8
0-0
  6
JWW_DASHED1
 62
   120
370
     5
100
AcDbLine
 10
408.8086695816818
 20
814.3310108675224
 30
0.0
 11
446.8086695816822
 21
852.331010867516
 31
0.0
  0
LINE
  5
308
330
1F
100
AcDbEntity
  8
0-0
  6
JWW_DASHED1
 62
   120
370
     5
100
AcDbLine
 10
408.8086695816818
 20
-1017.07555214402
 30
0.0
 11
446.8086695816788
 21
-979.0755521440196
 31
0.0
  0
LINE
  5
309
330
1F
100
AcDbEntity
  8
0-0
  6
JWW_DASHED1
 62
   120
370
     5
100
AcDbLine
 10
408.8086695816818
 20
-1026.975047079184
 30
0.0
 11
446.8086695816788
 21
-988.9750470791844
 31
0.0
  0
LINE
  5
30A
330
1F
100
AcDbEntity
  8
0-0
  6
JWW_DASHED1
 62
   120
370
     5
100
AcDbLine
 10
408.8086695816818
 20
-1036.874542014349
 30
0.0
 11
446.8086695816788
 21
-998.8745420143491
 31
0.0
  0
LINE
  5
30B
330
1F
100
AcDbEntity
  8
0-0
  6
JWW_DASHED1
 62
   120
370
     5
100
AcDbLine
 10
411.6093501609271
 20
-1043.973356370268
 30
0.0
 11
446.8086695816788
 21
-1008.774036949514
 31
0.0
  0
LINE
  5
30C
330
1F
100
AcDbEntity
  8
0-0
  6
JWW_DASHED1
 62
   120
370
     5
100
AcDbLine
 10
441.3078349664193
 20
-1043.973356370268
 30
0.0
 11
446.8086695816788
 21
-1038.472521755008
 31
0.0
  0
LINE
  5
30D
330
1F
100
AcDbEntity
  8
0-0
  6
JWW_DASHED1
 62
   120
370
     5
100
AcDbLine
 10
421.5088450960914
 20
-1043.973356370268
 30
0.0
 11
446.8086695816788
 21
-1018.673531884679
 31
0.0
  0
LINE
  5
30E
330
1F
100
AcDbEntity
  8
0-0
  6
JWW_DASHED1
 62
   120
370
     5
100
AcDbLine
 10
431.4083400312558
 20
-1043.973356370268
 30
0.0
 11
446.8086695816788
 21
-1028.573026819843
 31
0.0
  0
LINE
  5
30F
330
1F
100
AcDbEntity
  8
0-0
  6
JWW_DASHED1
 62
   120
370
     5
100
AcDbLine
 10
408.8086695816818
 20
834.1300007379594
 30
0.0
 11
446.8086695816822
 21
872.1300007379483
 31
0.0
  0
LINE
  5
310
330
1F
100
AcDbEntity
  8
0-0
  6
JWW_DASHED1
 62
   120
370
     5
100
AcDbLine
 10
408.8086695816818
 20
844.029495673178
 30
0.0
 11
446.8086695816822
 21
882.0294956731668
 31
0.0
  0
LINE
  5
311
330
1F
100
AcDbEntity
  8
0-0
  6
JWW_DASHED1
 62
   120
370
     5
100
AcDbLine
 10
408.8086695816818
 20
853.9289906083964
 30
0.0
 11
446.8086695816822
 21
891.9289906083852
 31
0.0
  0
LINE
  5
312
330
1F
100
AcDbEntity
  8
0-0
  6
JWW_DASHED1
 62
   120
370
     5
100
AcDbLine
 10
408.8086695816818
 20
863.8284855436144
 30
0.0
 11
446.8086695816822
 21
901.8284855436037
 31
0.0
  0
LINE
  5
313
330
1F
100
AcDbEntity
  8
0-0
  6
JWW_DASHED1
 62
   120
370
     5
100
AcDbLine
 10
408.8086695816818
 20
873.7279804788334
 30
0.0
 11
446.8086695816822
 21
911.7279804788222
 31
0.0
  0
LINE
  5
314
330
1F
100
AcDbEntity
  8
0-0
  6
Continuous
 62
    92
370
    13
100
AcDbLine
 10
408.8086695816818
 20
1131.026643629733
 30
0.0
 11
408.8086695816818
 21
-1051.973356370268
 31
0.0
  0
LINE
  5
315
330
1F
100
AcDbEntity
  8
0-0
  6
Continuous
 62
    92
370
    13
100
AcDbLine
 10
446.8086695816822
 20
1131.026643629733
 30
0.0
 11
446.8086695816822
 21
-1051.973356370268
 31
0.0
  0
LINE
  5
316
330
1F
100
AcDbEntity
  8
0-0
  6
Continuous
 62
     7
370
     9
100
AcDbLine
 10
408.8086695816818
 20
1123.026643629735
 30
0.0
 11
446.8086695816822
 21
1123.026643629735
 31
0.0
  0
LINE
  5
317
330
1F
100
AcDbEntity
  8
0-0
  6
JWW_DASHED1
 62
   120
370
     5
100
AcDbLine
 10
408.8086695816818
 20
883.6274754140518
 30
0.0
 11
446.8086695816822
 21
921.6274754140408
 31
0.0
  0
LINE
  5
318
330
1F
100
AcDbEntity
  8
0-0
  6
JWW_DASHED1
 62
   120
370
     5
100
AcDbLine
 10
408.8086695816818
 20
913.3259602197073
 30
0.0
 11
446.8086695816822
 21
951.3259602196962
 31
0.0
  0
LINE
  5
319
330
1F
100
AcDbEntity
  8
0-0
  6
JWW_DASHED1
 62
   120
370
     5
100
AcDbLine
 10
408.8086695816818
 20
893.5269703492703
 30
0.0
 11
446.8086695816822
 21
931.5269703492593
 31
0.0
  0
LINE
  5
31A
330
1F
100
AcDbEntity
  8
0-0
  6
JWW_DASHED1
 62
   120
370
     5
100
AcDbLine
 10
408.8086695816818
 20
903.4264652844888
 30
0.0
 11
446.8086695816822
 21
941.4264652844777
 31
0.0
  0
LINE
  5
31B
330
1F
100
AcDbEntity
  8
0-0
  6
JWW_DASHED1
 62
   120
370
     5
100
AcDbLine
 10
408.8086695816818
 20
933.1249500901442
 30
0.0
 11
446.8086695816822
 21
971.1249500901331
 31
0.0
  0
LINE
  5
31C
330
1F
100
AcDbEntity
  8
0-0
  6
JWW_DASHED1
 62
   120
370
     5
100
AcDbLine
 10
408.8086695816818
 20
923.2254551549258
 30
0.0
 11
446.8086695816822
 21
961.2254551549147
 31
0.0
  0
LINE
  5
31D
330
1F
100
AcDbEntity
  8
0-0
  6
JWW_DASHED1
 62
   120
370
     5
100
AcDbLine
 10
408.8086695816818
 20
952.9239399605813
 30
0.0
 11
446.8086695816822
 21
990.9239399605701
 31
0.0
  0
LINE
  5
31E
330
1F
100
AcDbEntity
  8
0-0
  6
JWW_DASHED1
 62
   120
370
     5
100
AcDbLine
 10
408.8086695816818
 20
943.0244450253628
 30
0.0
 11
446.8086695816822
 21
981.0244450253516
 31
0.0
  0
LINE
  5
31F
330
1F
100
AcDbEntity
  8
0-0
  6
JWW_DASHED1
 62
   120
370
     5
100
AcDbLine
 10
408.8086695816818
 20
972.7229298310182
 30
0.0
 11
446.8086695816822
 21
1010.722929831007
 31
0.0
  0
LINE
  5
320
330
1F
100
AcDbEntity
  8
0-0
  6
JWW_DASHED1
 62
   120
370
     5
100
AcDbLine
 10
408.8086695816818
 20
962.8234348957997
 30
0.0
 11
446.8086695816822
 21
1000.823434895789
 31
0.0
  0
LINE
  5
321
330
1F
100
AcDbEntity
  8
0-0
  6
JWW_DASHED1
 62
   120
370
     5
100
AcDbLine
 10
408.8086695816818
 20
992.5219197014552
 30
0.0
 11
446.8086695816822
 21
1030.521919701444
 31
0.0
  0
LINE
  5
322
330
1F
100
AcDbEntity
  8
0-0
  6
JWW_DASHED1
 62
   120
370
     5
100
AcDbLine
 10
408.8086695816818
 20
982.6224247662367
 30
0.0
 11
446.8086695816822
 21
1020.622424766225
 31
0.0
  0
LINE
  5
323
330
1F
100
AcDbEntity
  8
0-0
  6
JWW_DASHED1
 62
   120
370
     5
100
AcDbLine
 10
408.8086695816818
 20
1012.320909571892
 30
0.0
 11
446.8086695816822
 21
1050.320909571881
 31
0.0
  0
LINE
  5
324
330
1F
100
AcDbEntity
  8
0-0
  6
JWW_DASHED1
 62
   120
370
     5
100
AcDbLine
 10
408.8086695816818
 20
1002.421414636674
 30
0.0
 11
446.8086695816822
 21
1040.421414636663
 31
0.0
  0
LINE
  5
325
330
1F
100
AcDbEntity
  8
0-0
  6
JWW_DASHED1
 62
   120
370
     5
100
AcDbLine
 10
408.8086695816818
 20
1032.119899442329
 30
0.0
 11
446.8086695816822
 21
1070.119899442318
 31
0.0
  0
LINE
  5
326
330
1F
100
AcDbEntity
  8
0-0
  6
JWW_DASHED1
 62
   120
370
     5
100
AcDbLine
 10
408.8086695816818
 20
1022.220404507111
 30
0.0
 11
446.8086695816822
 21
1060.2204045071
 31
0.0
  0
LINE
  5
327
330
1F
100
AcDbEntity
  8
0-0
  6
JWW_DASHED1
 62
   120
370
     5
100
AcDbLine
 10
408.8086695816818
 20
1051.918889312766
 30
0.0
 11
446.8086695816822
 21
1089.918889312755
 31
0.0
  0
LINE
  5
328
330
1F
100
AcDbEntity
  8
0-0
  6
JWW_DASHED1
 62
   120
370
     5
100
AcDbLine
 10
408.8086695816818
 20
1042.019394377548
 30
0.0
 11
446.8086695816822
 21
1080.019394377536
 31
0.0
  0
LINE
  5
329
330
1F
100
AcDbEntity
  8
0-0
  6
JWW_DASHED1
 62
   120
370
     5
100
AcDbLine
 10
408.8086695816818
 20
1071.717879183203
 30
0.0
 11
446.8086695816822
 21
1109.717879183192
 31
0.0
  0
LINE
  5
32A
330
1F
100
AcDbEntity
  8
0-0
  6
JWW_DASHED1
 62
   120
370
     5
100
AcDbLine
 10
408.8086695816818
 20
1061.818384247984
 30
0.0
 11
446.8086695816822
 21
1099.818384247973
 31
0.0
  0
LINE
  5
32B
330
1F
100
AcDbEntity
  8
0-0
  6
JWW_DASHED1
 62
   120
370
     5
100
AcDbLine
 10
408.8086695816818
 20
1081.617374118422
 30
0.0
 11
446.8086695816822
 21
1119.61737411841
 31
0.0
  0
LINE
  5
32C
330
1F
100
AcDbEntity
  8
0-0
  6
JWW_DASHED1
 62
   120
370
     5
100
AcDbLine
 10
408.8086695816818
 20
1111.315858924077
 30
0.0
 11
420.5194542873429
 21
1123.026643629735
 31
0.0
  0
LINE
  5
32D
330
1F
100
AcDbEntity
  8
0-0
  6
JWW_DASHED1
 62
   120
370
     5
100
AcDbLine
 10
408.8086695816818
 20
1091.51686905364
 30
0.0
 11
440.3184441577858
 21
1123.026643629735
 31
0.0
  0
LINE
  5
32E
330
1F
100
AcDbEntity
  8
0-0
  6
JWW_DASHED1
 62
   120
370
     5
100
AcDbLine
 10
408.8086695816818
 20
1101.416363988858
 30
0.0
 11
430.4189492225643
 21
1123.026643629735
 31
0.0
  0
LINE
  5
32F
330
1F
100
AcDbEntity
  8
0-0
  6
Continuous
 62
     7
370
     9
100
AcDbLine
 10
1188.808669581682
 20
-1043.973356370268
 30
0.0
 11
1226.808669581682
 21
-1043.973356370268
 31
0.0
  0
LINE
  5
330
330
1F
100
AcDbEntity
  8
0-0
  6
JWW_DASHED1
 62
   120
370
     5
100
AcDbLine
 10
1188.808669581682
 20
-1007.176057208855
 30
0.0
 11
1226.808669581679
 21
-969.1760572088548
 31
0.0
  0
LINE
  5
331
330
1F
100
AcDbEntity
  8
0-0
  6
JWW_DASHED1
 62
   120
370
     5
100
AcDbLine
 10
1188.808669581682
 20
-997.276562273693
 30
0.0
 11
1226.808669581682
 21
-959.27656227369
 31
0.0
  0
LINE
  5
332
330
1F
100
AcDbEntity
  8
0-0
  6
JWW_DASHED1
 62
   120
370
     5
100
AcDbLine
 10
1188.808669581682
 20
-987.3770673384745
 30
0.0
 11
1226.808669581689
 21
-949.3770673384661
 31
0.0
  0
LINE
  5
333
330
1F
100
AcDbEntity
  8
0-0
  6
JWW_DASHED1
 62
   120
370
     5
100
AcDbLine
 10
1188.808669581682
 20
-977.4775724032622
 30
0.0
 11
1226.808669581682
 21
-939.4775724032578
 31
0.0
  0
LINE
  5
334
330
1F
100
AcDbEntity
  8
0-0
  6
JWW_DASHED1
 62
   120
370
     5
100
AcDbLine
 10
1188.808669581682
 20
-967.5780774680936
 30
0.0
 11
1226.808669581686
 21
-929.578077468093
 31
0.0
  0
LINE
  5
335
330
1F
100
AcDbEntity
  8
0-0
  6
JWW_DASHED1
 62
   120
370
     5
100
AcDbLine
 10
1188.808669581682
 20
-957.6785825328797
 30
0.0
 11
1226.808669581676
 21
-919.6785825328848
 31
0.0
  0
LINE
  5
336
330
1F
100
AcDbEntity
  8
0-0
  6
JWW_DASHED1
 62
   120
370
     5
100
AcDbLine
 10
1188.808669581682
 20
-947.7790875976611
 30
0.0
 11
1226.808669581686
 21
-909.7790875976609
 31
0.0
  0
LINE
  5
337
330
1F
100
AcDbEntity
  8
0-0
  6
JWW_DASHED1
 62
   120
370
     5
100
AcDbLine
 10
1188.808669581682
 20
-937.8795926625
 30
0.0
 11
1226.808669581689
 21
-899.879592662496
 31
0.0
  0
LINE
  5
338
330
1F
100
AcDbEntity
  8
0-0
  6
JWW_DASHED1
 62
   120
370
     5
100
AcDbLine
 10
1188.808669581682
 20
-927.9800977272862
 30
0.0
 11
1226.808669581679
 21
-889.9800977272879
 31
0.0
  0
LINE
  5
339
330
1F
100
AcDbEntity
  8
0-0
  6
JWW_DASHED1
 62
   120
370
     5
100
AcDbLine
 10
1188.808669581682
 20
-918.0806027920688
 30
0.0
 11
1226.808669581689
 21
-880.0806027920639
 31
0.0
  0
LINE
  5
33A
330
1F
100
AcDbEntity
  8
0-0
  6
JWW_DASHED1
 62
   120
370
     5
100
AcDbLine
 10
1188.808669581682
 20
-908.1811078569061
 30
0.0
 11
1226.808669581676
 21
-870.1811078569149
 31
0.0
  0
LINE
  5
33B
330
1F
100
AcDbEntity
  8
0-0
  6
JWW_DASHED1
 62
   120
370
     5
100
AcDbLine
 10
1188.808669581682
 20
-898.2816129216926
 30
0.0
 11
1226.808669581682
 21
-860.2816129216912
 31
0.0
  0
LINE
  5
33C
330
1F
100
AcDbEntity
  8
0-0
  6
JWW_DASHED1
 62
   120
370
     5
100
AcDbLine
 10
1188.808669581682
 20
-888.3821179864785
 30
0.0
 11
1226.808669581689
 21
-850.3821179864673
 31
0.0
  0
LINE
  5
33D
330
1F
100
AcDbEntity
  8
0-0
  6
JWW_DASHED1
 62
   120
370
     5
100
AcDbLine
 10
1188.808669581682
 20
-878.4826230513153
 30
0.0
 11
1226.808669581676
 21
-840.4826230513181
 31
0.0
  0
LINE
  5
33E
330
1F
100
AcDbEntity
  8
0-0
  6
JWW_DASHED1
 62
   120
370
     5
100
AcDbLine
 10
1188.808669581682
 20
-868.583128116103
 30
0.0
 11
1226.808669581682
 21
-830.583128116094
 31
0.0
  0
LINE
  5
33F
330
1F
100
AcDbEntity
  8
0-0
  6
JWW_DASHED1
 62
   120
370
     5
100
AcDbLine
 10
1188.808669581682
 20
-858.6836331809299
 30
0.0
 11
1226.808669581689
 21
-820.6836331809295
 31
0.0
  0
LINE
  5
340
330
1F
100
AcDbEntity
  8
0-0
  6
JWW_DASHED1
 62
   120
370
     5
100
AcDbLine
 10
1188.808669581682
 20
-848.7841382457148
 30
0.0
 11
1226.808669581679
 21
-810.784138245721
 31
0.0
  0
LINE
  5
341
330
1F
100
AcDbEntity
  8
0-0
  6
JWW_DASHED1
 62
   120
370
     5
100
AcDbLine
 10
1188.808669581682
 20
-838.8846433105025
 30
0.0
 11
1226.808669581686
 21
-800.8846433104973
 31
0.0
  0
LINE
  5
342
330
1F
100
AcDbEntity
  8
0-0
  6
JWW_DASHED1
 62
   120
370
     5
100
AcDbLine
 10
1188.808669581682
 20
-828.9851483753407
 30
0.0
 11
1226.808669581689
 21
-790.9851483753321
 31
0.0
  0
LINE
  5
343
330
1F
100
AcDbEntity
  8
0-0
  6
JWW_DASHED1
 62
   120
370
     5
100
AcDbLine
 10
1188.808669581682
 20
-819.0856534401207
 30
0.0
 11
1226.808669581682
 21
-781.0856534401242
 31
0.0
  0
LINE
  5
344
330
1F
100
AcDbEntity
  8
0-0
  6
JWW_DASHED1
 62
   120
370
     5
100
AcDbLine
 10
1188.808669581682
 20
-809.1861585049091
 30
0.0
 11
1226.808669581689
 21
-771.1861585049004
 31
0.0
  0
LINE
  5
345
330
1F
100
AcDbEntity
  8
0-0
  6
JWW_DASHED1
 62
   120
370
     5
100
AcDbLine
 10
1188.808669581682
 20
-799.286663569746
 30
0.0
 11
1226.808669581676
 21
-761.2866635697512
 31
0.0
  0
LINE
  5
346
330
1F
100
AcDbEntity
  8
0-0
  6
JWW_DASHED1
 62
   120
370
     5
100
AcDbLine
 10
1188.808669581682
 20
-789.3871686345318
 30
0.0
 11
1226.808669581682
 21
-751.3871686345274
 31
0.0
  0
LINE
  5
347
330
1F
100
AcDbEntity
  8
0-0
  6
JWW_DASHED1
 62
   120
370
     5
100
AcDbLine
 10
1188.808669581682
 20
-779.4876736993164
 30
0.0
 11
1226.808669581676
 21
-741.4876736993193
 31
0.0
  0
LINE
  5
348
330
1F
100
AcDbEntity
  8
0-0
  6
JWW_DASHED1
 62
   120
370
     5
100
AcDbLine
 10
1188.808669581682
 20
-769.5881787641526
 30
0.0
 11
1226.808669581679
 21
-731.5881787641543
 31
0.0
  0
LINE
  5
349
330
1F
100
AcDbEntity
  8
0-0
  6
JWW_DASHED1
 62
   120
370
     5
100
AcDbLine
 10
1188.808669581682
 20
-759.688683828938
 30
0.0
 11
1226.808669581686
 21
-721.6886838289305
 31
0.0
  0
LINE
  5
34A
330
1F
100
AcDbEntity
  8
0-0
  6
JWW_DASHED1
 62
   120
370
     5
100
AcDbLine
 10
1188.808669581682
 20
-749.789188893721
 30
0.0
 11
1226.808669581679
 21
-711.7891888937222
 31
0.0
  0
LINE
  5
34B
330
1F
100
AcDbEntity
  8
0-0
  6
JWW_DASHED1
 62
   120
370
     5
100
AcDbLine
 10
1188.808669581682
 20
-739.8896939585516
 30
0.0
 11
1226.808669581682
 21
-701.8896939585575
 31
0.0
  0
LINE
  5
34C
330
1F
100
AcDbEntity
  8
0-0
  6
JWW_DASHED1
 62
   120
370
     5
100
AcDbLine
 10
1188.808669581682
 20
-729.9901990233448
 30
0.0
 11
1226.808669581689
 21
-691.9901990233335
 31
0.0
  0
LINE
  5
34D
330
1F
100
AcDbEntity
  8
0-0
  6
JWW_DASHED1
 62
   120
370
     5
100
AcDbLine
 10
1188.808669581682
 20
-720.0907040881201
 30
0.0
 11
1226.808669581682
 21
-682.0907040881254
 31
0.0
  0
LINE
  5
34E
330
1F
100
AcDbEntity
  8
0-0
  6
JWW_DASHED1
 62
   120
370
     5
100
AcDbLine
 10
1188.808669581682
 20
-710.1912091529621
 30
0.0
 11
1226.808669581682
 21
-672.1912091529605
 31
0.0
  0
LINE
  5
34F
330
1F
100
AcDbEntity
  8
0-0
  6
JWW_DASHED1
 62
   120
370
     5
100
AcDbLine
 10
1188.808669581682
 20
-700.2917142177479
 30
0.0
 11
1226.808669581689
 21
-662.2917142177366
 31
0.0
  0
LINE
  5
350
330
1F
100
AcDbEntity
  8
0-0
  6
JWW_DASHED1
 62
   120
370
     5
100
AcDbLine
 10
1188.808669581682
 20
-690.39221928253
 30
0.0
 11
1226.808669581682
 21
-652.3922192825283
 31
0.0
  0
LINE
  5
351
330
1F
100
AcDbEntity
  8
0-0
  6
JWW_DASHED1
 62
   120
370
     5
100
AcDbLine
 10
1188.808669581682
 20
-680.4927243473687
 30
0.0
 11
1226.808669581686
 21
-642.4927243473636
 31
0.0
  0
LINE
  5
352
330
1F
100
AcDbEntity
  8
0-0
  6
JWW_DASHED1
 62
   120
370
     5
100
AcDbLine
 10
1188.808669581682
 20
-670.5932294121494
 30
0.0
 11
1226.808669581679
 21
-632.5932294121556
 31
0.0
  0
LINE
  5
353
330
1F
100
AcDbEntity
  8
0-0
  6
JWW_DASHED1
 62
   120
370
     5
100
AcDbLine
 10
1188.808669581682
 20
-660.6937344769367
 30
0.0
 11
1226.808669581686
 21
-622.6937344769316
 31
0.0
  0
LINE
  5
354
330
1F
100
AcDbEntity
  8
0-0
  6
JWW_DASHED1
 62
   120
370
     5
100
AcDbLine
 10
1188.808669581682
 20
-650.794239541775
 30
0.0
 11
1226.808669581689
 21
-612.7942395417666
 31
0.0
  0
LINE
  5
355
330
1F
100
AcDbEntity
  8
0-0
  6
JWW_DASHED1
 62
   120
370
     5
100
AcDbLine
 10
1188.808669581682
 20
-640.8947446065557
 30
0.0
 11
1226.808669581682
 21
-602.8947446065586
 31
0.0
  0
LINE
  5
356
330
1F
100
AcDbEntity
  8
0-0
  6
JWW_DASHED1
 62
   120
370
     5
100
AcDbLine
 10
1188.808669581682
 20
-630.9952496713357
 30
0.0
 11
1226.808669581689
 21
-592.9952496713349
 31
0.0
  0
LINE
  5
357
330
1F
100
AcDbEntity
  8
0-0
  6
JWW_DASHED1
 62
   120
370
     5
100
AcDbLine
 10
1188.808669581682
 20
-621.0957547361832
 30
0.0
 11
1226.808669581676
 21
-583.0957547361855
 31
0.0
  0
LINE
  5
358
330
1F
100
AcDbEntity
  8
0-0
  6
JWW_DASHED1
 62
   120
370
     5
100
AcDbLine
 10
1188.808669581682
 20
-611.1962598009661
 30
0.0
 11
1226.808669581682
 21
-573.1962598009617
 31
0.0
  0
LINE
  5
359
330
1F
100
AcDbEntity
  8
0-0
  6
JWW_DASHED1
 62
   120
370
     5
100
AcDbLine
 10
1188.808669581682
 20
-601.2967648657464
 30
0.0
 11
1226.808669581689
 21
-563.2967648657375
 31
0.0
  0
LINE
  5
35A
330
1F
100
AcDbEntity
  8
0-0
  6
JWW_DASHED1
 62
   120
370
     5
100
AcDbLine
 10
1188.808669581682
 20
-591.397269930586
 30
0.0
 11
1226.808669581676
 21
-553.3972699305884
 31
0.0
  0
LINE
  5
35B
330
1F
100
AcDbEntity
  8
0-0
  6
JWW_DASHED1
 62
   120
370
     5
100
AcDbLine
 10
1188.808669581682
 20
-581.4977749953665
 30
0.0
 11
1226.808669581686
 21
-543.4977749953645
 31
0.0
  0
LINE
  5
35C
330
1F
100
AcDbEntity
  8
0-0
  6
JWW_DASHED1
 62
   120
370
     5
100
AcDbLine
 10
1188.808669581682
 20
-571.5982800601519
 30
0.0
 11
1226.808669581676
 21
-533.5982800601566
 31
0.0
  0
LINE
  5
35D
330
1F
100
AcDbEntity
  8
0-0
  6
JWW_DASHED1
 62
   120
370
     5
100
AcDbLine
 10
1188.808669581682
 20
-561.6987851249862
 30
0.0
 11
1226.808669581682
 21
-523.6987851249914
 31
0.0
  0
LINE
  5
35E
330
1F
100
AcDbEntity
  8
0-0
  6
JWW_DASHED1
 62
   120
370
     5
100
AcDbLine
 10
1188.808669581682
 20
-551.799290189772
 30
0.0
 11
1226.808669581689
 21
-513.7992901897683
 31
0.0
  0
LINE
  5
35F
330
1F
100
AcDbEntity
  8
0-0
  6
JWW_DASHED1
 62
   120
370
     5
100
AcDbLine
 10
1188.808669581682
 20
-541.8997952545578
 30
0.0
 11
1226.808669581679
 21
-503.89979525456
 31
0.0
  0
LINE
  5
360
330
1F
100
AcDbEntity
  8
0-0
  6
JWW_DASHED1
 62
   120
370
     5
100
AcDbLine
 10
1188.808669581682
 20
-532.000300319396
 30
0.0
 11
1226.808669581682
 21
-494.0003003193948
 31
0.0
  0
LINE
  5
361
330
1F
100
AcDbEntity
  8
0-0
  6
JWW_DASHED1
 62
   120
370
     5
100
AcDbLine
 10
1188.808669581682
 20
-522.1008053841767
 30
0.0
 11
1226.808669581676
 21
-484.1008053841865
 31
0.0
  0
LINE
  5
362
330
1F
100
AcDbEntity
  8
0-0
  6
JWW_DASHED1
 62
   120
370
     5
100
AcDbLine
 10
1188.808669581682
 20
-512.2013104489643
 30
0.0
 11
1226.808669581682
 21
-474.2013104489629
 31
0.0
  0
LINE
  5
363
330
1F
100
AcDbEntity
  8
0-0
  6
JWW_DASHED1
 62
   120
370
     5
100
AcDbLine
 10
1188.808669581682
 20
-502.301815513802
 30
0.0
 11
1226.808669581686
 21
-464.3018155137981
 31
0.0
  0
LINE
  5
364
330
1F
100
AcDbEntity
  8
0-0
  6
JWW_DASHED1
 62
   120
370
     5
100
AcDbLine
 10
1188.808669581682
 20
-492.4023205785886
 30
0.0
 11
1226.808669581676
 21
-454.4023205785895
 31
0.0
  0
LINE
  5
365
330
1F
100
AcDbEntity
  8
0-0
  6
JWW_DASHED1
 62
   120
370
     5
100
AcDbLine
 10
1188.808669581682
 20
-482.502825643368
 30
0.0
 11
1226.808669581682
 21
-444.5028256433659
 31
0.0
  0
LINE
  5
366
330
1F
100
AcDbEntity
  8
0-0
  6
JWW_DASHED1
 62
   120
370
     5
100
AcDbLine
 10
1188.808669581682
 20
-472.603330708202
 30
0.0
 11
1226.808669581689
 21
-434.6033307082012
 31
0.0
  0
LINE
  5
367
330
1F
100
AcDbEntity
  8
0-0
  6
JWW_DASHED1
 62
   120
370
     5
100
AcDbLine
 10
1188.808669581682
 20
-462.7038357729868
 30
0.0
 11
1226.808669581679
 21
-424.7038357729933
 31
0.0
  0
LINE
  5
368
330
1F
100
AcDbEntity
  8
0-0
  6
JWW_DASHED1
 62
   120
370
     5
100
AcDbLine
 10
1188.808669581682
 20
-452.8043408377739
 30
0.0
 11
1226.808669581686
 21
-414.8043408377692
 31
0.0
  0
LINE
  5
369
330
1F
100
AcDbEntity
  8
0-0
  6
JWW_DASHED1
 62
   120
370
     5
100
AcDbLine
 10
1188.808669581682
 20
-442.904845902613
 30
0.0
 11
1226.808669581689
 21
-404.9048459026041
 31
0.0
  0
LINE
  5
36A
330
1F
100
AcDbEntity
  8
0-0
  6
JWW_DASHED1
 62
   120
370
     5
100
AcDbLine
 10
1188.808669581682
 20
-433.0053509673933
 30
0.0
 11
1226.808669581682
 21
-395.0053509673962
 31
0.0
  0
LINE
  5
36B
330
1F
100
AcDbEntity
  8
0-0
  6
JWW_DASHED1
 62
   120
370
     5
100
AcDbLine
 10
1188.808669581682
 20
-423.1058560321811
 30
0.0
 11
1226.808669581689
 21
-385.1058560321723
 31
0.0
  0
LINE
  5
36C
330
1F
100
AcDbEntity
  8
0-0
  6
JWW_DASHED1
 62
   120
370
     5
100
AcDbLine
 10
1188.808669581682
 20
-413.2063610970134
 30
0.0
 11
1226.808669581682
 21
-375.2063610970177
 31
0.0
  0
LINE
  5
36D
330
1F
100
AcDbEntity
  8
0-0
  6
JWW_DASHED1
 62
   120
370
     5
100
AcDbLine
 10
1188.808669581682
 20
-403.306866161803
 30
0.0
 11
1226.808669581682
 21
-365.3068661617992
 31
0.0
  0
LINE
  5
36E
330
1F
100
AcDbEntity
  8
0-0
  6
JWW_DASHED1
 62
   120
370
     5
100
AcDbLine
 10
1188.808669581682
 20
-393.4073712265892
 30
0.0
 11
1226.808669581676
 21
-355.407371226591
 31
0.0
  0
LINE
  5
36F
330
1F
100
AcDbEntity
  8
0-0
  6
JWW_DASHED1
 62
   120
370
     5
100
AcDbLine
 10
1188.808669581682
 20
-383.5078762914249
 30
0.0
 11
1226.808669581679
 21
-345.5078762914262
 31
0.0
  0
LINE
  5
370
330
1F
100
AcDbEntity
  8
0-0
  6
JWW_DASHED1
 62
   120
370
     5
100
AcDbLine
 10
1188.808669581682
 20
-373.6083813562026
 30
0.0
 11
1226.808669581686
 21
-335.6083813562021
 31
0.0
  0
LINE
  5
371
330
1F
100
AcDbEntity
  8
0-0
  6
JWW_DASHED1
 62
   120
370
     5
100
AcDbLine
 10
1188.808669581682
 20
-363.7088864209879
 30
0.0
 11
1226.808669581679
 21
-325.7088864209943
 31
0.0
  0
LINE
  5
372
330
1F
100
AcDbEntity
  8
0-0
  6
JWW_DASHED1
 62
   120
370
     5
100
AcDbLine
 10
1188.808669581682
 20
-353.809391485824
 30
0.0
 11
1226.808669581682
 21
-315.8093914858291
 31
0.0
  0
LINE
  5
373
330
1F
100
AcDbEntity
  8
0-0
  6
JWW_DASHED1
 62
   120
370
     5
100
AcDbLine
 10
1188.808669581682
 20
-343.9098965506157
 30
0.0
 11
1226.808669581689
 21
-305.9098965506051
 31
0.0
  0
LINE
  5
374
330
1F
100
AcDbEntity
  8
0-0
  6
JWW_DASHED1
 62
   120
370
     5
100
AcDbLine
 10
1188.808669581682
 20
-334.0104016153921
 30
0.0
 11
1226.808669581682
 21
-296.0104016153973
 31
0.0
  0
LINE
  5
375
330
1F
100
AcDbEntity
  8
0-0
  6
JWW_DASHED1
 62
   120
370
     5
100
AcDbLine
 10
1188.808669581682
 20
-324.1109066802342
 30
0.0
 11
1226.808669581682
 21
-286.1109066802321
 31
0.0
  0
LINE
  5
376
330
1F
100
AcDbEntity
  8
0-0
  6
JWW_DASHED1
 62
   120
370
     5
100
AcDbLine
 10
1188.808669581682
 20
-314.2114117450208
 30
0.0
 11
1226.808669581689
 21
-276.211411745008
 31
0.0
  0
LINE
  5
377
330
1F
100
AcDbEntity
  8
0-0
  6
JWW_DASHED1
 62
   120
370
     5
100
AcDbLine
 10
1188.808669581682
 20
-304.3119168098024
 30
0.0
 11
1226.808669581682
 21
-266.3119168098002
 31
0.0
  0
LINE
  5
378
330
1F
100
AcDbEntity
  8
0-0
  6
JWW_DASHED1
 62
   120
370
     5
100
AcDbLine
 10
1188.808669581682
 20
-294.4124218746406
 30
0.0
 11
1226.808669581686
 21
-256.412421874635
 31
0.0
  0
LINE
  5
379
330
1F
100
AcDbEntity
  8
0-0
  6
JWW_DASHED1
 62
   120
370
     5
100
AcDbLine
 10
1188.808669581682
 20
-284.5129269394208
 30
0.0
 11
1226.808669581679
 21
-246.5129269394272
 31
0.0
  0
LINE
  5
37A
330
1F
100
AcDbEntity
  8
0-0
  6
JWW_DASHED1
 62
   120
370
     5
100
AcDbLine
 10
1188.808669581682
 20
-274.6134320042369
 30
0.0
 11
1226.808669581682
 21
-236.613432004233
 31
0.0
  0
LINE
  5
37B
330
1F
100
AcDbEntity
  8
0-0
  6
JWW_DASHED1
 62
   120
370
     5
100
AcDbLine
 10
1188.808669581682
 20
-264.7139370690393
 30
0.0
 11
1226.808669581689
 21
-226.7139370690384
 31
0.0
  0
LINE
  5
37C
330
1F
100
AcDbEntity
  8
0-0
  6
JWW_DASHED1
 62
   120
370
     5
100
AcDbLine
 10
1188.808669581682
 20
-254.8144421338263
 30
0.0
 11
1226.808669581682
 21
-216.8144421338306
 31
0.0
  0
LINE
  5
37D
330
1F
100
AcDbEntity
  8
0-0
  6
JWW_DASHED1
 62
   120
370
     5
100
AcDbLine
 10
1188.808669581682
 20
-244.9149471986364
 30
0.0
 11
1226.808669581686
 21
-206.914947198636
 31
0.0
  0
LINE
  5
37E
330
1F
100
AcDbEntity
  8
0-0
  6
JWW_DASHED1
 62
   120
370
     5
100
AcDbLine
 10
1188.808669581682
 20
-235.0154522634541
 30
0.0
 11
1226.808669581676
 21
-197.0154522634571
 31
0.0
  0
LINE
  5
37F
330
1F
100
AcDbEntity
  8
0-0
  6
JWW_DASHED1
 62
   120
370
     5
100
AcDbLine
 10
1188.808669581682
 20
-225.1159573282391
 30
0.0
 11
1226.808669581682
 21
-187.1159573282331
 31
0.0
  0
LINE
  5
380
330
1F
100
AcDbEntity
  8
0-0
  6
JWW_DASHED1
 62
   120
370
     5
100
AcDbLine
 10
1188.808669581682
 20
-215.2164623930692
 30
0.0
 11
1226.808669581686
 21
-177.2164623930688
 31
0.0
  0
LINE
  5
381
330
1F
100
AcDbEntity
  8
0-0
  6
JWW_DASHED1
 62
   120
370
     5
100
AcDbLine
 10
1188.808669581682
 20
-205.3169674578592
 30
0.0
 11
1226.808669581676
 21
-167.3169674578601
 31
0.0
  0
LINE
  5
382
330
1F
100
AcDbEntity
  8
0-0
  6
JWW_DASHED1
 62
   120
370
     5
100
AcDbLine
 10
1188.808669581682
 20
-195.4174725226373
 30
0.0
 11
1226.808669581686
 21
-157.4174725226369
 31
0.0
  0
LINE
  5
383
330
1F
100
AcDbEntity
  8
0-0
  6
JWW_DASHED1
 62
   120
370
     5
100
AcDbLine
 10
1188.808669581682
 20
-185.5179775874755
 30
0.0
 11
1226.808669581689
 21
-147.5179775874717
 31
0.0
  0
LINE
  5
384
330
1F
100
AcDbEntity
  8
0-0
  6
JWW_DASHED1
 62
   120
370
     5
100
AcDbLine
 10
1188.808669581682
 20
-175.6184826522609
 30
0.0
 11
1226.808669581679
 21
-137.6184826522639
 31
0.0
  0
LINE
  5
385
330
1F
100
AcDbEntity
  8
0-0
  6
JWW_DASHED1
 62
   120
370
     5
100
AcDbLine
 10
1188.808669581682
 20
-165.7189877170437
 30
0.0
 11
1226.808669581689
 21
-127.7189877170399
 31
0.0
  0
LINE
  5
386
330
1F
100
AcDbEntity
  8
0-0
  6
JWW_DASHED1
 62
   120
370
     5
100
AcDbLine
 10
1188.808669581682
 20
-155.8194927818853
 30
0.0
 11
1226.808669581689
 21
-117.8194927818747
 31
0.0
  0
LINE
  5
387
330
1F
100
AcDbEntity
  8
0-0
  6
JWW_DASHED1
 62
   120
370
     5
100
AcDbLine
 10
1188.808669581682
 20
-145.9199978466673
 30
0.0
 11
1226.808669581682
 21
-107.9199978466669
 31
0.0
  0
LINE
  5
388
330
1F
100
AcDbEntity
  8
0-0
  6
JWW_DASHED1
 62
   120
370
     5
100
AcDbLine
 10
1188.808669581682
 20
-136.0205029114535
 30
0.0
 11
1226.808669581689
 21
-98.02050291144283
 31
0.0
  0
LINE
  5
389
330
1F
100
AcDbEntity
  8
0-0
  6
JWW_DASHED1
 62
   120
370
     5
100
AcDbLine
 10
1188.808669581682
 20
-126.1210079762866
 30
0.0
 11
1226.808669581686
 21
-88.12100797628617
 31
0.0
  0
LINE
  5
38A
330
1F
100
AcDbEntity
  8
0-0
  6
JWW_DASHED1
 62
   120
370
     5
100
AcDbLine
 10
1188.808669581682
 20
-116.2215130410753
 30
0.0
 11
1226.808669581686
 21
-78.22151304106981
 31
0.0
  0
LINE
  5
38B
330
1F
100
AcDbEntity
  8
0-0
  6
JWW_DASHED1
 62
   120
370
     5
100
AcDbLine
 10
1188.808669581682
 20
-106.322018105859
 30
0.0
 11
1226.808669581676
 21
-68.32201810586199
 31
0.0
  0
LINE
  5
38C
330
1F
100
AcDbEntity
  8
0-0
  6
JWW_DASHED1
 62
   120
370
     5
100
AcDbLine
 10
1188.808669581682
 20
-96.42252317069037
 30
0.0
 11
1226.808669581679
 21
-58.42252317069679
 31
0.0
  0
LINE
  5
38D
330
1F
100
AcDbEntity
  8
0-0
  6
JWW_DASHED1
 62
   120
370
     5
100
AcDbLine
 10
1188.808669581682
 20
-86.52302823547444
 30
0.0
 11
1226.808669581689
 21
-48.52302823547276
 31
0.0
  0
LINE
  5
38E
330
1F
100
AcDbEntity
  8
0-0
  6
JWW_DASHED1
 62
   120
370
     5
100
AcDbLine
 10
1188.808669581682
 20
-76.62353330025852
 30
0.0
 11
1226.808669581679
 21
-38.62353330026494
 31
0.0
  0
LINE
  5
38F
330
1F
100
AcDbEntity
  8
0-0
  6
JWW_DASHED1
 62
   120
370
     5
100
AcDbLine
 10
1188.808669581682
 20
-66.72403836510483
 30
0.0
 11
1226.808669581682
 21
-28.72403836509974
 31
0.0
  0
LINE
  5
390
330
1F
100
AcDbEntity
  8
0-0
  6
JWW_DASHED1
 62
   120
370
     5
100
AcDbLine
 10
1188.808669581682
 20
-56.82454342988422
 30
0.0
 11
1226.808669581689
 21
-18.82454342987614
 31
0.0
  0
LINE
  5
391
330
1F
100
AcDbEntity
  8
0-0
  6
JWW_DASHED1
 62
   120
370
     5
100
AcDbLine
 10
1188.808669581682
 20
-46.92504849466488
 30
0.0
 11
1226.808669581682
 21
-8.925048494667891
 31
0.0
  0
LINE
  5
392
330
1F
100
AcDbEntity
  8
0-0
  6
JWW_DASHED1
 62
   120
370
     5
100
AcDbLine
 10
1188.808669581682
 20
-37.02555355950693
 30
0.0
 11
1226.808669581682
 21
0.9744464404968767
 31
0.0
  0
LINE
  5
393
330
1F
100
AcDbEntity
  8
0-0
  6
JWW_DASHED1
 62
   120
370
     5
100
AcDbLine
 10
1188.808669581682
 20
-27.12605862429058
 30
0.0
 11
1226.808669581692
 21
10.8739413757209
 31
0.0
  0
LINE
  5
394
330
1F
100
AcDbEntity
  8
0-0
  6
JWW_DASHED1
 62
   120
370
     5
100
AcDbLine
 10
1188.808669581682
 20
-17.22656368907465
 30
0.0
 11
1226.808669581682
 21
20.77343631092916
 31
0.0
  0
LINE
  5
395
330
1F
100
AcDbEntity
  8
0-0
  6
JWW_DASHED1
 62
   120
370
     5
100
AcDbLine
 10
1188.808669581682
 20
-7.327068753913295
 30
0.0
 11
1226.808669581686
 21
30.67293124609392
 31
0.0
  0
LINE
  5
396
330
1F
100
AcDbEntity
  8
0-0
  6
JWW_DASHED1
 62
   120
370
     5
100
AcDbLine
 10
1188.808669581682
 20
2.572426181303484
 30
0.0
 11
1226.808669581679
 21
40.57242618130218
 31
0.0
  0
LINE
  5
397
330
1F
100
AcDbEntity
  8
0-0
  6
JWW_DASHED1
 62
   120
370
     5
100
AcDbLine
 10
1188.808669581682
 20
12.47192111652538
 30
0.0
 11
1226.808669581686
 21
50.47192111652578
 31
0.0
  0
LINE
  5
398
330
1F
100
AcDbEntity
  8
0-0
  6
JWW_DASHED1
 62
   120
370
     5
100
AcDbLine
 10
1188.808669581682
 20
22.37141605167906
 30
0.0
 11
1226.808669581689
 21
60.37141605169097
 31
0.0
  0
LINE
  5
399
330
1F
100
AcDbEntity
  8
0-0
  6
JWW_DASHED1
 62
   120
370
     5
100
AcDbLine
 10
1188.808669581682
 20
32.27091098690479
 30
0.0
 11
1226.808669581682
 21
70.2709109868988
 31
0.0
  0
LINE
  5
39A
330
1F
100
AcDbEntity
  8
0-0
  6
JWW_DASHED1
 62
   120
370
     5
100
AcDbLine
 10
1188.808669581682
 20
42.17040592211816
 30
0.0
 11
1226.808669581689
 21
80.17040592212282
 31
0.0
  0
LINE
  5
39B
330
1F
100
AcDbEntity
  8
0-0
  6
JWW_DASHED1
 62
   120
370
     5
100
AcDbLine
 10
1188.808669581682
 20
52.06990085727398
 30
0.0
 11
1226.808669581676
 21
90.06990085727224
 31
0.0
  0
LINE
  5
39C
330
1F
100
AcDbEntity
  8
0-0
  6
JWW_DASHED1
 62
   120
370
     5
100
AcDbLine
 10
1188.808669581682
 20
61.96939579249459
 30
0.0
 11
1226.808669581682
 21
99.96939579249585
 31
0.0
  0
LINE
  5
39D
330
1F
100
AcDbEntity
  8
0-0
  6
JWW_DASHED1
 62
   120
370
     5
100
AcDbLine
 10
1188.808669581682
 20
71.86889072770882
 30
0.0
 11
1226.808669581689
 21
109.8688907277194
 31
0.0
  0
LINE
  5
39E
330
1F
100
AcDbEntity
  8
0-0
  6
JWW_DASHED1
 62
   120
370
     5
100
AcDbLine
 10
1188.808669581682
 20
81.76838566287486
 30
0.0
 11
1226.808669581679
 21
119.7683856628693
 31
0.0
  0
LINE
  5
39F
330
1F
100
AcDbEntity
  8
0-0
  6
JWW_DASHED1
 62
   120
370
     5
100
AcDbLine
 10
1188.808669581682
 20
91.66788059808738
 30
0.0
 11
1226.808669581686
 21
129.6678805980929
 31
0.0
  0
LINE
  5
3A0
330
1F
100
AcDbEntity
  8
0-0
  6
JWW_DASHED1
 62
   120
370
     5
100
AcDbLine
 10
1188.808669581682
 20
101.5673755333059
 30
0.0
 11
1226.808669581689
 21
139.5673755333105
 31
0.0
  0
LINE
  5
3A1
330
1F
100
AcDbEntity
  8
0-0
  6
JWW_DASHED1
 62
   120
370
     5
100
AcDbLine
 10
1188.808669581682
 20
111.4668704684681
 30
0.0
 11
1226.808669581682
 21
149.4668704684659
 31
0.0
  0
LINE
  5
3A2
330
1F
100
AcDbEntity
  8
0-0
  6
JWW_DASHED1
 62
   120
370
     5
100
AcDbLine
 10
1188.808669581682
 20
121.3663654036887
 30
0.0
 11
1226.808669581689
 21
159.3663654036895
 31
0.0
  0
LINE
  5
3A3
330
1F
100
AcDbEntity
  8
0-0
  6
JWW_DASHED1
 62
   120
370
     5
100
AcDbLine
 10
1188.808669581682
 20
131.2658603388961
 30
0.0
 11
1226.808669581679
 21
169.2658603388978
 31
0.0
  0
LINE
  5
3A4
330
1F
100
AcDbEntity
  8
0-0
  6
JWW_DASHED1
 62
   120
370
     5
100
AcDbLine
 10
1188.808669581682
 20
141.1653552740587
 30
0.0
 11
1226.808669581682
 21
179.1653552740625
 31
0.0
  0
LINE
  5
3A5
330
1F
100
AcDbEntity
  8
0-0
  6
JWW_DASHED1
 62
   120
370
     5
100
AcDbLine
 10
1188.808669581682
 20
151.0648502092806
 30
0.0
 11
1226.808669581676
 21
189.0648502092708
 31
0.0
  0
LINE
  5
3A6
330
1F
100
AcDbEntity
  8
0-0
  6
JWW_DASHED1
 62
   120
370
     5
100
AcDbLine
 10
1188.808669581682
 20
160.9643451444906
 30
0.0
 11
1226.808669581682
 21
198.9643451444944
 31
0.0
  0
LINE
  5
3A7
330
1F
100
AcDbEntity
  8
0-0
  6
JWW_DASHED1
 62
   120
370
     5
100
AcDbLine
 10
1188.808669581682
 20
170.8638400796592
 30
0.0
 11
1226.808669581686
 21
208.8638400796596
 31
0.0
  0
LINE
  5
3A8
330
1F
100
AcDbEntity
  8
0-0
  6
JWW_DASHED1
 62
   120
370
     5
100
AcDbLine
 10
1188.808669581682
 20
180.7633350148704
 30
0.0
 11
1226.808669581676
 21
218.7633350148674
 31
0.0
  0
LINE
  5
3A9
330
1F
100
AcDbEntity
  8
0-0
  6
JWW_DASHED1
 62
   120
370
     5
100
AcDbLine
 10
1188.808669581682
 20
190.662829950091
 30
0.0
 11
1226.808669581686
 21
228.6628299500914
 31
0.0
  0
LINE
  5
3AA
330
1F
100
AcDbEntity
  8
0-0
  6
JWW_DASHED1
 62
   120
370
     5
100
AcDbLine
 10
1188.808669581682
 20
200.562324885252
 30
0.0
 11
1226.808669581689
 21
238.5623248852566
 31
0.0
  0
LINE
  5
3AB
330
1F
100
AcDbEntity
  8
0-0
  6
JWW_DASHED1
 62
   120
370
     5
100
AcDbLine
 10
1188.808669581682
 20
210.4618198204666
 30
0.0
 11
1226.808669581679
 21
248.4618198204645
 31
0.0
  0
LINE
  5
3AC
330
1F
100
AcDbEntity
  8
0-0
  6
JWW_DASHED1
 62
   120
370
     5
100
AcDbLine
 10
1188.808669581682
 20
220.3613147556847
 30
0.0
 11
1226.808669581689
 21
258.3613147556885
 31
0.0
  0
LINE
  5
3AD
330
1F
100
AcDbEntity
  8
0-0
  6
JWW_DASHED1
 62
   120
370
     5
100
AcDbLine
 10
1188.808669581682
 20
230.2608096908418
 30
0.0
 11
1226.808669581689
 21
268.2608096908536
 31
0.0
  0
LINE
  5
3AE
330
1F
100
AcDbEntity
  8
0-0
  6
JWW_DASHED1
 62
   120
370
     5
100
AcDbLine
 10
1188.808669581682
 20
240.1603046260594
 30
0.0
 11
1226.808669581682
 21
278.1603046260615
 31
0.0
  0
LINE
  5
3AF
330
1F
100
AcDbEntity
  8
0-0
  6
JWW_DASHED1
 62
   120
370
     5
100
AcDbLine
 10
1188.808669581682
 20
250.0597995612736
 30
0.0
 11
1226.808669581689
 21
288.0597995612856
 31
0.0
  0
LINE
  5
3B0
330
1F
100
AcDbEntity
  8
0-0
  6
JWW_DASHED1
 62
   120
370
     5
100
AcDbLine
 10
1188.808669581682
 20
259.9592944964431
 30
0.0
 11
1226.808669581692
 21
297.9592944964503
 31
0.0
  0
LINE
  5
3B1
330
1F
100
AcDbEntity
  8
0-0
  6
JWW_DASHED1
 62
   120
370
     5
100
AcDbLine
 10
1188.808669581682
 20
269.858789431653
 30
0.0
 11
1226.808669581686
 21
307.8587894316586
 31
0.0
  0
LINE
  5
3B2
330
1F
100
AcDbEntity
  8
0-0
  6
JWW_DASHED1
 62
   120
370
     5
100
AcDbLine
 10
1188.808669581682
 20
279.7582843668694
 30
0.0
 11
1226.808669581676
 21
317.7582843668664
 31
0.0
  0
LINE
  5
3B3
330
1F
100
AcDbEntity
  8
0-0
  6
JWW_DASHED1
 62
   120
370
     5
100
AcDbLine
 10
1188.808669581682
 20
289.6577793020311
 30
0.0
 11
1226.808669581679
 21
327.6577793020316
 31
0.0
  0
LINE
  5
3B4
330
1F
100
AcDbEntity
  8
0-0
  6
JWW_DASHED1
 62
   120
370
     5
100
AcDbLine
 10
1188.808669581682
 20
299.5572742372543
 30
0.0
 11
1226.808669581689
 21
337.5572742372552
 31
0.0
  0
LINE
  5
3B5
330
1F
100
AcDbEntity
  8
0-0
  6
JWW_DASHED1
 62
   120
370
     5
100
AcDbLine
 10
1188.808669581682
 20
309.4567691724699
 30
0.0
 11
1226.808669581679
 21
347.4567691724634
 31
0.0
  0
LINE
  5
3B6
330
1F
100
AcDbEntity
  8
0-0
  6
JWW_DASHED1
 62
   120
370
     5
100
AcDbLine
 10
1188.808669581682
 20
319.3562641076252
 30
0.0
 11
1226.808669581682
 21
357.3562641076282
 31
0.0
  0
LINE
  5
3B7
330
1F
100
AcDbEntity
  8
0-0
  6
JWW_DASHED1
 62
   120
370
     5
100
AcDbLine
 10
1188.808669581682
 20
329.2557590428441
 30
0.0
 11
1226.808669581689
 21
367.2557590428522
 31
0.0
  0
LINE
  5
3B8
330
1F
100
AcDbEntity
  8
0-0
  6
JWW_DASHED1
 62
   120
370
     5
100
AcDbLine
 10
1188.808669581682
 20
339.1552539780371
 30
0.0
 11
1226.808669581679
 21
377.1552539780306
 31
0.0
  0
LINE
  5
3B9
330
1F
100
AcDbEntity
  8
0-0
  6
JWW_DASHED1
 62
   120
370
     5
100
AcDbLine
 10
1188.808669581682
 20
349.0547489132214
 30
0.0
 11
1226.808669581682
 21
387.0547489132252
 31
0.0
  0
LINE
  5
3BA
330
1F
100
AcDbEntity
  8
0-0
  6
JWW_DASHED1
 62
   120
370
     5
100
AcDbLine
 10
1188.808669581682
 20
358.9542438484369
 30
0.0
 11
1226.808669581692
 21
396.9542438484493
 31
0.0
  0
LINE
  5
3BB
330
1F
100
AcDbEntity
  8
0-0
  6
JWW_DASHED1
 62
   120
370
     5
100
AcDbLine
 10
1188.808669581682
 20
368.8537387836038
 30
0.0
 11
1226.808669581679
 21
406.8537387835983
 31
0.0
  0
LINE
  5
3BC
330
1F
100
AcDbEntity
  8
0-0
  6
JWW_DASHED1
 62
   120
370
     5
100
AcDbLine
 10
1188.808669581682
 20
378.7532337188138
 30
0.0
 11
1226.808669581686
 21
416.7532337188223
 31
0.0
  0
LINE
  5
3BD
330
1F
100
AcDbEntity
  8
0-0
  6
JWW_DASHED1
 62
   120
370
     5
100
AcDbLine
 10
1188.808669581682
 20
388.6527286540323
 30
0.0
 11
1226.808669581679
 21
426.6527286540301
 31
0.0
  0
LINE
  5
3BE
330
1F
100
AcDbEntity
  8
0-0
  6
JWW_DASHED1
 62
   120
370
     5
100
AcDbLine
 10
1188.808669581682
 20
398.5522235892005
 30
0.0
 11
1226.808669581682
 21
436.5522235891953
 31
0.0
  0
LINE
  5
3BF
330
1F
100
AcDbEntity
  8
0-0
  6
JWW_DASHED1
 62
   120
370
     5
100
AcDbLine
 10
1188.808669581682
 20
408.4517185244083
 30
0.0
 11
1226.808669581689
 21
446.4517185244189
 31
0.0
  0
LINE
  5
3C0
330
1F
100
AcDbEntity
  8
0-0
  6
JWW_DASHED1
 62
   120
370
     5
100
AcDbLine
 10
1188.808669581682
 20
418.3512134596332
 30
0.0
 11
1226.808669581682
 21
456.3512134596272
 31
0.0
  0
LINE
  5
3C1
330
1F
100
AcDbEntity
  8
0-0
  6
JWW_DASHED1
 62
   120
370
     5
100
AcDbLine
 10
1188.808669581682
 20
428.2507083947834
 30
0.0
 11
1226.808669581682
 21
466.2507083947919
 31
0.0
  0
LINE
  5
3C2
330
1F
100
AcDbEntity
  8
0-0
  6
JWW_DASHED1
 62
   120
370
     5
100
AcDbLine
 10
1188.808669581682
 20
438.1502033300032
 30
0.0
 11
1226.808669581676
 21
476.1502033300002
 31
0.0
  0
LINE
  5
3C3
330
1F
100
AcDbEntity
  8
0-0
  6
JWW_DASHED1
 62
   120
370
     5
100
AcDbLine
 10
1188.808669581682
 20
448.0496982652226
 30
0.0
 11
1226.808669581682
 21
486.0496982652238
 31
0.0
  0
LINE
  5
3C4
330
1F
100
AcDbEntity
  8
0-0
  6
JWW_DASHED1
 62
   120
370
     5
100
AcDbLine
 10
1188.808669581682
 20
457.9491932003843
 30
0.0
 11
1226.808669581686
 21
495.949193200389
 31
0.0
  0
LINE
  5
3C5
330
1F
100
AcDbEntity
  8
0-0
  6
JWW_DASHED1
 62
   120
370
     5
100
AcDbLine
 10
1188.808669581682
 20
467.8486881356028
 30
0.0
 11
1226.808669581679
 21
505.8486881355972
 31
0.0
  0
LINE
  5
3C6
330
1F
100
AcDbEntity
  8
0-0
  6
JWW_DASHED1
 62
   120
370
     5
100
AcDbLine
 10
1188.808669581682
 20
477.7481830708153
 30
0.0
 11
1226.808669581686
 21
515.7481830708208
 31
0.0
  0
LINE
  5
3C7
330
1F
100
AcDbEntity
  8
0-0
  6
JWW_DASHED1
 62
   120
370
     5
100
AcDbLine
 10
1188.808669581682
 20
487.6476780059771
 30
0.0
 11
1226.808669581689
 21
525.647678005986
 31
0.0
  0
LINE
  5
3C8
330
1F
100
AcDbEntity
  8
0-0
  6
JWW_DASHED1
 62
   120
370
     5
100
AcDbLine
 10
1188.808669581682
 20
497.5471729411969
 30
0.0
 11
1226.808669581682
 21
535.5471729411938
 31
0.0
  0
LINE
  5
3C9
330
1F
100
AcDbEntity
  8
0-0
  6
JWW_DASHED1
 62
   120
370
     5
100
AcDbLine
 10
1188.808669581682
 20
507.4466678764157
 30
0.0
 11
1226.808669581689
 21
545.4466678764179
 31
0.0
  0
LINE
  5
3CA
330
1F
100
AcDbEntity
  8
0-0
  6
JWW_DASHED1
 62
   120
370
     5
100
AcDbLine
 10
1188.808669581682
 20
517.3461628115673
 30
0.0
 11
1226.808669581689
 21
555.3461628115826
 31
0.0
  0
LINE
  5
3CB
330
1F
100
AcDbEntity
  8
0-0
  6
JWW_DASHED1
 62
   120
370
     5
100
AcDbLine
 10
1188.808669581682
 20
527.2456577467871
 30
0.0
 11
1226.808669581682
 21
565.2456577467909
 31
0.0
  0
LINE
  5
3CC
330
1F
100
AcDbEntity
  8
0-0
  6
JWW_DASHED1
 62
   120
370
     5
100
AcDbLine
 10
1188.808669581682
 20
537.145152682006
 30
0.0
 11
1226.808669581689
 21
575.1451526820149
 31
0.0
  0
LINE
  5
3CD
330
1F
100
AcDbEntity
  8
0-0
  6
JWW_DASHED1
 62
   120
370
     5
100
AcDbLine
 10
1188.808669581682
 20
547.0446476171652
 30
0.0
 11
1226.808669581692
 21
585.0446476171776
 31
0.0
  0
LINE
  5
3CE
330
1F
100
AcDbEntity
  8
0-0
  6
JWW_DASHED1
 62
   120
370
     5
100
AcDbLine
 10
1188.808669581682
 20
556.9441425523867
 30
0.0
 11
1226.808669581686
 21
594.9441425523879
 31
0.0
  0
LINE
  5
3CF
330
1F
100
AcDbEntity
  8
0-0
  6
JWW_DASHED1
 62
   120
370
     5
100
AcDbLine
 10
1188.808669581682
 20
566.8436374875988
 30
0.0
 11
1226.808669581676
 21
604.8436374875957
 31
0.0
  0
LINE
  5
3D0
330
1F
100
AcDbEntity
  8
0-0
  6
JWW_DASHED1
 62
   120
370
     5
100
AcDbLine
 10
1188.808669581682
 20
576.7431324227662
 30
0.0
 11
1226.808669581682
 21
614.7431324227609
 31
0.0
  0
LINE
  5
3D1
330
1F
100
AcDbEntity
  8
0-0
  6
JWW_DASHED1
 62
   120
370
     5
100
AcDbLine
 10
1188.808669581682
 20
586.6426273579807
 30
0.0
 11
1226.808669581689
 21
624.6426273579846
 31
0.0
  0
LINE
  5
3D2
330
1F
100
AcDbEntity
  8
0-0
  6
JWW_DASHED1
 62
   120
370
     5
100
AcDbLine
 10
1188.808669581682
 20
596.5421222931924
 30
0.0
 11
1226.808669581679
 21
634.5421222931928
 31
0.0
  0
LINE
  5
3D3
330
1F
100
AcDbEntity
  8
0-0
  6
JWW_DASHED1
 62
   120
370
     5
100
AcDbLine
 10
1188.808669581682
 20
606.4416172283563
 30
0.0
 11
1226.808669581682
 21
644.4416172283571
 31
0.0
  0
LINE
  5
3D4
330
1F
100
AcDbEntity
  8
0-0
  6
JWW_DASHED1
 62
   120
370
     5
100
AcDbLine
 10
1188.808669581682
 20
616.3411121635705
 30
0.0
 11
1226.808669581689
 21
654.3411121635816
 31
0.0
  0
LINE
  5
3D5
330
1F
100
AcDbEntity
  8
0-0
  6
JWW_DASHED1
 62
   120
370
     5
100
AcDbLine
 10
1188.808669581682
 20
626.2406070987878
 30
0.0
 11
1226.808669581682
 21
664.2406070987898
 31
0.0
  0
LINE
  5
3D6
330
1F
100
AcDbEntity
  8
0-0
  6
JWW_DASHED1
 62
   120
370
     5
100
AcDbLine
 10
1188.808669581682
 20
636.1401020339499
 30
0.0
 11
1226.808669581686
 21
674.1401020339547
 31
0.0
  0
LINE
  5
3D7
330
1F
100
AcDbEntity
  8
0-0
  6
JWW_DASHED1
 62
   120
370
     5
100
AcDbLine
 10
1188.808669581682
 20
646.039596969171
 30
0.0
 11
1226.808669581692
 21
684.0395969691782
 31
0.0
  0
LINE
  5
3D8
330
1F
100
AcDbEntity
  8
0-0
  6
JWW_DASHED1
 62
   120
370
     5
100
AcDbLine
 10
1188.808669581682
 20
655.939091904378
 30
0.0
 11
1226.808669581682
 21
693.9390919043865
 31
0.0
  0
LINE
  5
3D9
330
1F
100
AcDbEntity
  8
0-0
  6
JWW_DASHED1
 62
   120
370
     5
100
AcDbLine
 10
1188.808669581682
 20
665.83858683955
 30
0.0
 11
1226.808669581689
 21
703.8385868395517
 31
0.0
  0
LINE
  5
3DA
330
1F
100
AcDbEntity
  8
0-0
  6
JWW_DASHED1
 62
   120
370
     5
100
AcDbLine
 10
1188.808669581682
 20
675.738081774766
 30
0.0
 11
1226.808669581679
 21
713.738081774759
 31
0.0
  0
LINE
  5
3DB
330
1F
100
AcDbEntity
  8
0-0
  6
JWW_DASHED1
 62
   120
370
     5
100
AcDbLine
 10
1188.808669581682
 20
685.6375767099827
 30
0.0
 11
1226.808669581689
 21
723.6375767099835
 31
0.0
  0
LINE
  5
3DC
330
1F
100
AcDbEntity
  8
0-0
  6
JWW_DASHED1
 62
   120
370
     5
100
AcDbLine
 10
1188.808669581682
 20
695.5370716451403
 30
0.0
 11
1226.808669581689
 21
733.5370716451483
 31
0.0
  0
LINE
  5
3DD
330
1F
100
AcDbEntity
  8
0-0
  6
JWW_DASHED1
 62
   120
370
     5
100
AcDbLine
 10
1188.808669581682
 20
705.4365665803596
 30
0.0
 11
1226.808669581682
 21
743.4365665803566
 31
0.0
  0
LINE
  5
3DE
330
1F
100
AcDbEntity
  8
0-0
  6
JWW_DASHED1
 62
   120
370
     5
100
AcDbLine
 10
1188.808669581682
 20
715.336061515572
 30
0.0
 11
1226.808669581689
 21
753.3360615155801
 31
0.0
  0
LINE
  5
3DF
330
1F
100
AcDbEntity
  8
0-0
  6
JWW_DASHED1
 62
   120
370
     5
100
AcDbLine
 10
1188.808669581682
 20
725.2355564507321
 30
0.0
 11
1226.808669581676
 21
763.2355564507295
 31
0.0
  0
LINE
  5
3E0
330
1F
100
AcDbEntity
  8
0-0
  6
JWW_DASHED1
 62
   120
370
     5
100
AcDbLine
 10
1188.808669581682
 20
735.1350513859485
 30
0.0
 11
1226.808669581682
 21
773.1350513859536
 31
0.0
  0
LINE
  5
3E1
330
1F
100
AcDbEntity
  8
0-0
  6
JWW_DASHED1
 62
   120
370
     5
100
AcDbLine
 10
1188.808669581682
 20
745.0345463211657
 30
0.0
 11
1226.808669581692
 21
783.0345463211772
 31
0.0
  0
LINE
  5
3E2
330
1F
100
AcDbEntity
  8
0-0
  6
JWW_DASHED1
 62
   120
370
     5
100
AcDbLine
 10
1188.808669581682
 20
754.9340412563326
 30
0.0
 11
1226.808669581679
 21
792.9340412563262
 31
0.0
  0
LINE
  5
3E3
330
1F
100
AcDbEntity
  8
0-0
  6
JWW_DASHED1
 62
   120
370
     5
100
AcDbLine
 10
1188.808669581682
 20
764.833536191543
 30
0.0
 11
1226.808669581686
 21
802.8335361915503
 31
0.0
  0
LINE
  5
3E4
330
1F
100
AcDbEntity
  8
0-0
  6
JWW_DASHED1
 62
   120
370
     5
100
AcDbLine
 10
1188.808669581682
 20
774.7330311267654
 30
0.0
 11
1226.808669581696
 21
812.7330311267738
 31
0.0
  0
LINE
  5
3E5
330
1F
100
AcDbEntity
  8
0-0
  6
JWW_DASHED1
 62
   120
370
     5
100
AcDbLine
 10
1188.808669581682
 20
784.6325260619292
 30
0.0
 11
1226.808669581682
 21
822.6325260619233
 31
0.0
  0
LINE
  5
3E6
330
1F
100
AcDbEntity
  8
0-0
  6
JWW_DASHED1
 62
   120
370
     5
100
AcDbLine
 10
1188.808669581682
 20
794.5320209971367
 30
0.0
 11
1226.808669581689
 21
832.5320209971472
 31
0.0
  0
LINE
  5
3E7
330
1F
100
AcDbEntity
  8
0-0
  6
JWW_DASHED1
 62
   120
370
     5
100
AcDbLine
 10
1188.808669581682
 20
804.4315159323606
 30
0.0
 11
1226.808669581682
 21
842.4315159323551
 31
0.0
  0
LINE
  5
3E8
330
1F
100
AcDbEntity
  8
0-0
  6
JWW_DASHED1
 62
   120
370
     5
100
AcDbLine
 10
1188.808669581682
 20
824.2305058027409
 30
0.0
 11
1226.808669581682
 21
862.2305058027298
 31
0.0
  0
LINE
  5
3E9
330
1F
100
AcDbEntity
  8
0-0
  6
JWW_DASHED1
 62
   120
370
     5
100
AcDbLine
 10
1188.808669581682
 20
814.3310108675224
 30
0.0
 11
1226.808669581682
 21
852.331010867516
 31
0.0
  0
LINE
  5
3EA
330
1F
100
AcDbEntity
  8
0-0
  6
JWW_DASHED1
 62
   120
370
     5
100
AcDbLine
 10
1188.808669581682
 20
-1017.07555214402
 30
0.0
 11
1226.808669581679
 21
-979.0755521440196
 31
0.0
  0
LINE
  5
3EB
330
1F
100
AcDbEntity
  8
0-0
  6
JWW_DASHED1
 62
   120
370
     5
100
AcDbLine
 10
1188.808669581682
 20
-1026.975047079184
 30
0.0
 11
1226.808669581679
 21
-988.9750470791844
 31
0.0
  0
LINE
  5
3EC
330
1F
100
AcDbEntity
  8
0-0
  6
JWW_DASHED1
 62
   120
370
     5
100
AcDbLine
 10
1188.808669581682
 20
-1036.874542014349
 30
0.0
 11
1226.808669581679
 21
-998.8745420143491
 31
0.0
  0
LINE
  5
3ED
330
1F
100
AcDbEntity
  8
0-0
  6
JWW_DASHED1
 62
   120
370
     5
100
AcDbLine
 10
1191.609350160927
 20
-1043.973356370268
 30
0.0
 11
1226.808669581679
 21
-1008.774036949514
 31
0.0
  0
LINE
  5
3EE
330
1F
100
AcDbEntity
  8
0-0
  6
JWW_DASHED1
 62
   120
370
     5
100
AcDbLine
 10
1221.307834966419
 20
-1043.973356370268
 30
0.0
 11
1226.808669581679
 21
-1038.472521755008
 31
0.0
  0
LINE
  5
3EF
330
1F
100
AcDbEntity
  8
0-0
  6
JWW_DASHED1
 62
   120
370
     5
100
AcDbLine
 10
1201.508845096091
 20
-1043.973356370268
 30
0.0
 11
1226.808669581679
 21
-1018.673531884679
 31
0.0
  0
LINE
  5
3F0
330
1F
100
AcDbEntity
  8
0-0
  6
JWW_DASHED1
 62
   120
370
     5
100
AcDbLine
 10
1211.408340031256
 20
-1043.973356370268
 30
0.0
 11
1226.808669581679
 21
-1028.573026819843
 31
0.0
  0
LINE
  5
3F1
330
1F
100
AcDbEntity
  8
0-0
  6
JWW_DASHED1
 62
   120
370
     5
100
AcDbLine
 10
1188.808669581682
 20
834.1300007379594
 30
0.0
 11
1226.808669581682
 21
872.1300007379483
 31
0.0
  0
LINE
  5
3F2
330
1F
100
AcDbEntity
  8
0-0
  6
JWW_DASHED1
 62
   120
370
     5
100
AcDbLine
 10
1188.808669581682
 20
844.029495673178
 30
0.0
 11
1226.808669581682
 21
882.0294956731668
 31
0.0
  0
LINE
  5
3F3
330
1F
100
AcDbEntity
  8
0-0
  6
JWW_DASHED1
 62
   120
370
     5
100
AcDbLine
 10
1188.808669581682
 20
853.9289906083964
 30
0.0
 11
1226.808669581682
 21
891.9289906083852
 31
0.0
  0
LINE
  5
3F4
330
1F
100
AcDbEntity
  8
0-0
  6
JWW_DASHED1
 62
   120
370
     5
100
AcDbLine
 10
1188.808669581682
 20
863.8284855436144
 30
0.0
 11
1226.808669581682
 21
901.8284855436037
 31
0.0
  0
LINE
  5
3F5
330
1F
100
AcDbEntity
  8
0-0
  6
JWW_DASHED1
 62
   120
370
     5
100
AcDbLine
 10
1188.808669581682
 20
873.7279804788334
 30
0.0
 11
1226.808669581682
 21
911.7279804788222
 31
0.0
  0
LINE
  5
3F6
330
1F
100
AcDbEntity
  8
0-0
  6
Continuous
 62
    92
370
    13
100
AcDbLine
 10
1188.808669581682
 20
1131.026643629733
 30
0.0
 11
1188.808669581682
 21
-1051.973356370268
 31
0.0
  0
LINE
  5
3F7
330
1F
100
AcDbEntity
  8
0-0
  6
Continuous
 62
    92
370
    13
100
AcDbLine
 10
1226.808669581682
 20
1131.026643629733
 30
0.0
 11
1226.808669581682
 21
-1051.973356370268
 31
0.0
  0
LINE
  5
3F8
330
1F
100
AcDbEntity
  8
0-0
  6
Continuous
 62
     7
370
     9
100
AcDbLine
 10
1188.808669581682
 20
1123.026643629735
 30
0.0
 11
1226.808669581682
 21
1123.026643629735
 31
0.0
  0
LINE
  5
3F9
330
1F
100
AcDbEntity
  8
0-0
  6
JWW_DASHED1
 62
   120
370
     5
100
AcDbLine
 10
1188.808669581682
 20
883.6274754140518
 30
0.0
 11
1226.808669581682
 21
921.6274754140408
 31
0.0
  0
LINE
  5
3FA
330
1F
100
AcDbEntity
  8
0-0
  6
JWW_DASHED1
 62
   120
370
     5
100
AcDbLine
 10
1188.808669581682
 20
913.3259602197073
 30
0.0
 11
1226.808669581682
 21
951.3259602196962
 31
0.0
  0
LINE
  5
3FB
330
1F
100
AcDbEntity
  8
0-0
  6
JWW_DASHED1
 62
   120
370
     5
100
AcDbLine
 10
1188.808669581682
 20
893.5269703492703
 30
0.0
 11
1226.808669581682
 21
931.5269703492593
 31
0.0
  0
LINE
  5
3FC
330
1F
100
AcDbEntity
  8
0-0
  6
JWW_DASHED1
 62
   120
370
     5
100
AcDbLine
 10
1188.808669581682
 20
903.4264652844888
 30
0.0
 11
1226.808669581682
 21
941.4264652844777
 31
0.0
  0
LINE
  5
3FD
330
1F
100
AcDbEntity
  8
0-0
  6
JWW_DASHED1
 62
   120
370
     5
100
AcDbLine
 10
1188.808669581682
 20
933.1249500901442
 30
0.0
 11
1226.808669581682
 21
971.1249500901331
 31
0.0
  0
LINE
  5
3FE
330
1F
100
AcDbEntity
  8
0-0
  6
JWW_DASHED1
 62
   120
370
     5
100
AcDbLine
 10
1188.808669581682
 20
923.2254551549258
 30
0.0
 11
1226.808669581682
 21
961.2254551549147
 31
0.0
  0
LINE
  5
3FF
330
1F
100
AcDbEntity
  8
0-0
  6
JWW_DASHED1
 62
   120
370
     5
100
AcDbLine
 10
1188.808669581682
 20
952.9239399605813
 30
0.0
 11
1226.808669581682
 21
990.9239399605701
 31
0.0
  0
LINE
  5
400
330
1F
100
AcDbEntity
  8
0-0
  6
JWW_DASHED1
 62
   120
370
     5
100
AcDbLine
 10
1188.808669581682
 20
943.0244450253628
 30
0.0
 11
1226.808669581682
 21
981.0244450253516
 31
0.0
  0
LINE
  5
401
330
1F
100
AcDbEntity
  8
0-0
  6
JWW_DASHED1
 62
   120
370
     5
100
AcDbLine
 10
1188.808669581682
 20
972.7229298310182
 30
0.0
 11
1226.808669581682
 21
1010.722929831007
 31
0.0
  0
LINE
  5
402
330
1F
100
AcDbEntity
  8
0-0
  6
JWW_DASHED1
 62
   120
370
     5
100
AcDbLine
 10
1188.808669581682
 20
962.8234348957997
 30
0.0
 11
1226.808669581682
 21
1000.823434895789
 31
0.0
  0
LINE
  5
403
330
1F
100
AcDbEntity
  8
0-0
  6
JWW_DASHED1
 62
   120
370
     5
100
AcDbLine
 10
1188.808669581682
 20
992.5219197014552
 30
0.0
 11
1226.808669581682
 21
1030.521919701444
 31
0.0
  0
LINE
  5
404
330
1F
100
AcDbEntity
  8
0-0
  6
JWW_DASHED1
 62
   120
370
     5
100
AcDbLine
 10
1188.808669581682
 20
982.6224247662367
 30
0.0
 11
1226.808669581682
 21
1020.622424766225
 31
0.0
  0
LINE
  5
405
330
1F
100
AcDbEntity
  8
0-0
  6
JWW_DASHED1
 62
   120
370
     5
100
AcDbLine
 10
1188.808669581682
 20
1012.320909571892
 30
0.0
 11
1226.808669581682
 21
1050.320909571881
 31
0.0
  0
LINE
  5
406
330
1F
100
AcDbEntity
  8
0-0
  6
JWW_DASHED1
 62
   120
370
     5
100
AcDbLine
 10
1188.808669581682
 20
1002.421414636674
 30
0.0
 11
1226.808669581682
 21
1040.421414636663
 31
0.0
  0
LINE
  5
407
330
1F
100
AcDbEntity
  8
0-0
  6
JWW_DASHED1
 62
   120
370
     5
100
AcDbLine
 10
1188.808669581682
 20
1032.119899442329
 30
0.0
 11
1226.808669581682
 21
1070.119899442318
 31
0.0
  0
LINE
  5
408
330
1F
100
AcDbEntity
  8
0-0
  6
JWW_DASHED1
 62
   120
370
     5
100
AcDbLine
 10
1188.808669581682
 20
1022.220404507111
 30
0.0
 11
1226.808669581682
 21
1060.2204045071
 31
0.0
  0
LINE
  5
409
330
1F
100
AcDbEntity
  8
0-0
  6
JWW_DASHED1
 62
   120
370
     5
100
AcDbLine
 10
1188.808669581682
 20
1051.918889312766
 30
0.0
 11
1226.808669581682
 21
1089.918889312755
 31
0.0
  0
LINE
  5
40A
330
1F
100
AcDbEntity
  8
0-0
  6
JWW_DASHED1
 62
   120
370
     5
100
AcDbLine
 10
1188.808669581682
 20
1042.019394377548
 30
0.0
 11
1226.808669581682
 21
1080.019394377536
 31
0.0
  0
LINE
  5
40B
330
1F
100
AcDbEntity
  8
0-0
  6
JWW_DASHED1
 62
   120
370
     5
100
AcDbLine
 10
1188.808669581682
 20
1071.717879183203
 30
0.0
 11
1226.808669581682
 21
1109.717879183192
 31
0.0
  0
LINE
  5
40C
330
1F
100
AcDbEntity
  8
0-0
  6
JWW_DASHED1
 62
   120
370
     5
100
AcDbLine
 10
1188.808669581682
 20
1061.818384247984
 30
0.0
 11
1226.808669581682
 21
1099.818384247973
 31
0.0
  0
LINE
  5
40D
330
1F
100
AcDbEntity
  8
0-0
  6
JWW_DASHED1
 62
   120
370
     5
100
AcDbLine
 10
1188.808669581682
 20
1081.617374118422
 30
0.0
 11
1226.808669581682
 21
1119.61737411841
 31
0.0
  0
LINE
  5
40E
330
1F
100
AcDbEntity
  8
0-0
  6
JWW_DASHED1
 62
   120
370
     5
100
AcDbLine
 10
1188.808669581682
 20
1111.315858924077
 30
0.0
 11
1200.519454287343
 21
1123.026643629735
 31
0.0
  0
LINE
  5
40F
330
1F
100
AcDbEntity
  8
0-0
  6
JWW_DASHED1
 62
   120
370
     5
100
AcDbLine
 10
1188.808669581682
 20
1091.51686905364
 30
0.0
 11
1220.318444157786
 21
1123.026643629735
 31
0.0
  0
LINE
  5
410
330
1F
100
AcDbEntity
  8
0-0
  6
JWW_DASHED1
 62
   120
370
     5
100
AcDbLine
 10
1188.808669581682
 20
1101.416363988858
 30
0.0
 11
1210.418949222564
 21
1123.026643629735
 31
0.0
  0
LWPOLYLINE
  5
411
330
1F
100
AcDbEntity
  8
寸法
  6
Continuous
 62
     7
370
     9
100
AcDbPolyline
 90
        4
 70
     1
 43
3.0
 10
-2042.691330418315
 20
-1071.973356370268
 42
0.4142135623731
 10
-2044.191330418315
 20
-1070.473356370269
 42
0.4142135623731
 10
-2045.691330418315
 20
-1071.973356370268
 42
0.4142135623731
 10
-2044.191330418315
 20
-1073.473356370268
 42
0.4142135623731
  0
LWPOLYLINE
  5
412
330
1F
100
AcDbEntity
  8
寸法
  6
Continuous
 62
     7
370
     9
100
AcDbPolyline
 90
        4
 70
     1
 43
3.0
 10
-1842.691330418316
 20
-1051.973356370268
 42
0.4142135623731
 10
-1844.191330418315
 20
-1050.473356370268
 42
0.4142135623731
 10
-1845.691330418315
 20
-1051.973356370268
 42
0.4142135623731
 10
-1844.191330418315
 20
-1053.473356370268
 42
0.4142135623731
  0
LINE
  5
413
330
1F
100
AcDbEntity
  8
寸法
  6
Continuous
 62
   120
370
     5
100
AcDbLine
 10
-2044.191330418315
 20
-1071.973356370268
 30
0.0
 11
-1644.191330418314
 21
-1071.973356370268
 31
0.0
  0
LINE
  5
414
330
1F
100
AcDbEntity
  8
寸法
  6
Continuous
 62
   120
370
     5
100
AcDbLine
 10
-1844.191330418315
 20
-1051.973356370268
 30
0.0
 11
-1644.191330418314
 21
-1051.973356370268
 31
0.0
  0
LINE
  5
415
330
1F
100
AcDbEntity
  8
寸法
  6
Continuous
 62
   120
370
     5
100
AcDbLine
 10
-1564.191330418315
 20
-1521.973356370269
 30
0.0
 11
-1564.191330418315
 21
-1121.97335637027
 31
0.0
  0
LINE
  5
416
330
1F
100
AcDbEntity
  8
寸法
  6
Continuous
 62
   120
370
     5
100
AcDbLine
 10
-1594.191330418315
 20
-1721.973356370268
 30
0.0
 11
-1594.191330418315
 21
-1121.97335637027
 31
0.0
  0
LINE
  5
417
330
1F
100
AcDbEntity
  8
寸法
  6
Continuous
 62
   120
370
     5
100
AcDbLine
 10
22.80866958168417
 20
-1321.973356370268
 30
0.0
 11
22.80866958168417
 21
-1121.97335637027
 31
0.0
  0
LINE
  5
418
330
1F
100
AcDbEntity
  8
寸法
  6
Continuous
 62
   120
370
     5
100
AcDbLine
 10
-787.1913304183158
 20
-1321.973356370268
 30
0.0
 11
-787.1913304183158
 21
-1121.97335637027
 31
0.0
  0
LINE
  5
419
330
1F
100
AcDbEntity
  8
寸法
  6
Continuous
 62
   120
370
     5
100
AcDbLine
 10
-787.1913304183158
 20
-1321.973356370268
 30
0.0
 11
832.8086695816842
 21
-1321.973356370268
 31
0.0
  0
LINE
  5
41A
330
1F
100
AcDbEntity
  8
寸法
  6
Continuous
 62
   120
370
     5
100
AcDbLine
 10
-1564.191330418315
 20
-1521.973356370269
 30
0.0
 11
1609.808669581683
 21
-1521.973356370268
 31
0.0
  0
LINE
  5
41B
330
1F
100
AcDbEntity
  8
寸法
  6
Continuous
 62
   120
370
     5
100
AcDbLine
 10
1609.808669581683
 20
-1521.973356370268
 30
0.0
 11
1609.808669581683
 21
-1121.973356370268
 31
0.0
  0
LINE
  5
41C
330
1F
100
AcDbEntity
  8
寸法
  6
Continuous
 62
   120
370
     5
100
AcDbLine
 10
-1594.191330418315
 20
-1721.973356370268
 30
0.0
 11
1639.808669581683
 21
-1721.973356370267
 31
0.0
  0
LINE
  5
41D
330
1F
100
AcDbEntity
  8
寸法
  6
Continuous
 62
   120
370
     5
100
AcDbLine
 10
1639.808669581683
 20
-1721.973356370267
 30
0.0
 11
1639.808669581683
 21
-1121.973356370268
 31
0.0
  0
LINE
  5
41E
330
1F
100
AcDbEntity
  8
寸法
  6
Continuous
 62
   120
370
     5
100
AcDbLine
 10
832.8086695816842
 20
-1321.973356370268
 30
0.0
 11
832.8086695816842
 21
-1121.97335637027
 31
0.0
  0
LWPOLYLINE
  5
41F
330
1F
100
AcDbEntity
  8
寸法
  6
Continuous
 62
     7
370
     9
100
AcDbPolyline
 90
        4
 70
     1
 43
3.0
 10
-1562.691330418315
 20
-1521.973356370269
 42
0.4142135623731
 10
-1564.191330418315
 20
-1520.473356370269
 42
0.4142135623731
 10
-1565.691330418315
 20
-1521.973356370269
 42
0.4142135623731
 10
-1564.191330418315
 20
-1523.473356370269
 42
0.4142135623731
  0
LWPOLYLINE
  5
420
330
1F
100
AcDbEntity
  8
寸法
  6
Continuous
 62
     7
370
     9
100
AcDbPolyline
 90
        4
 70
     1
 43
3.0
 10
-1592.691330418315
 20
-1721.973356370268
 42
0.4142135623731
 10
-1594.191330418315
 20
-1720.473356370268
 42
0.4142135623731
 10
-1595.691330418315
 20
-1721.973356370268
 42
0.4142135623731
 10
-1594.191330418315
 20
-1723.473356370268
 42
0.4142135623731
  0
LWPOLYLINE
  5
421
330
1F
100
AcDbEntity
  8
寸法
  6
Continuous
 62
     7
370
     9
100
AcDbPolyline
 90
        4
 70
     1
 43
3.0
 10
24.30866958168417
 20
-1321.973356370268
 42
0.4142135623731
 10
22.80866958168417
 20
-1320.473356370268
 42
0.4142135623731
 10
21.30866958168417
 20
-1321.973356370268
 42
0.4142135623731
 10
22.80866958168417
 20
-1323.473356370268
 42
0.4142135623731
  0
LWPOLYLINE
  5
422
330
1F
100
AcDbEntity
  8
寸法
  6
Continuous
 62
     7
370
     9
100
AcDbPolyline
 90
        4
 70
     1
 43
3.0
 10
-785.6913304183158
 20
-1321.973356370268
 42
0.4142135623731
 10
-787.1913304183158
 20
-1320.473356370268
 42
0.4142135623731
 10
-788.6913304183158
 20
-1321.973356370268
 42
0.4142135623731
 10
-787.1913304183158
 20
-1323.473356370268
 42
0.4142135623731
  0
LWPOLYLINE
  5
423
330
1F
100
AcDbEntity
  8
寸法
  6
Continuous
 62
     7
370
     9
100
AcDbPolyline
 90
        4
 70
     1
 43
3.0
 10
1611.308669581683
 20
-1521.973356370268
 42
0.4142135623731
 10
1609.808669581683
 20
-1520.473356370268
 42
0.4142135623731
 10
1608.308669581683
 20
-1521.973356370268
 42
0.4142135623731
 10
1609.808669581683
 20
-1523.473356370268
 42
0.4142135623731
  0
LWPOLYLINE
  5
424
330
1F
100
AcDbEntity
  8
寸法
  6
Continuous
 62
     7
370
     9
100
AcDbPolyline
 90
        4
 70
     1
 43
3.0
 10
1641.308669581683
 20
-1721.973356370267
 42
0.4142135623731
 10
1639.808669581683
 20
-1720.473356370267
 42
0.4142135623731
 10
1638.308669581683
 20
-1721.973356370267
 42
0.4142135623731
 10
1639.808669581683
 20
-1723.473356370267
 42
0.4142135623731
  0
LWPOLYLINE
  5
425
330
1F
100
AcDbEntity
  8
寸法
  6
Continuous
 62
     7
370
     9
100
AcDbPolyline
 90
        4
 70
     1
 43
3.0
 10
834.3086695816842
 20
-1321.973356370268
 42
0.4142135623731
 10
832.8086695816842
 20
-1320.473356370268
 42
0.4142135623731
 10
831.3086695816842
 20
-1321.973356370268
 42
0.4142135623731
 10
832.8086695816842
 20
-1323.473356370268
 42
0.4142135623731
  0
LINE
  5
426
330
1F
100
AcDbEntity
  8
寸法
  6
Continuous
 62
   120
370
     5
100
AcDbLine
 10
-2044.191330418315
 20
1175.026643629732
 30
0.0
 11
-1644.191330418314
 21
1175.026643629732
 31
0.0
  0
LWPOLYLINE
  5
427
330
1F
100
AcDbEntity
  8
寸法
  6
Continuous
 62
     7
370
     9
100
AcDbPolyline
 90
        4
 70
     1
 43
3.0
 10
-2042.691330418315
 20
1175.026643629732
 42
0.4142135623731
 10
-2044.191330418315
 20
1176.526643629732
 42
0.4142135623731
 10
-2045.691330418315
 20
1175.026643629732
 42
0.4142135623731
 10
-2044.191330418315
 20
1173.526643629732
 42
0.4142135623731
  0
LINE
  5
428
330
1F
100
AcDbEntity
  8
寸法
  6
Continuous
 62
   120
370
     5
100
AcDbLine
 10
-2044.191330418315
 20
1175.026643629732
 30
0.0
 11
-2044.191330418315
 21
-1071.973356370268
 31
0.0
  0
LINE
  5
429
330
1F
100
AcDbEntity
  8
寸法
  6
Continuous
 62
   120
370
     5
100
AcDbLine
 10
-1844.191330418315
 20
1131.026643629732
 30
0.0
 11
-1644.191330418314
 21
1131.026643629732
 31
0.0
  0
LWPOLYLINE
  5
42A
330
1F
100
AcDbEntity
  8
寸法
  6
Continuous
 62
     7
370
     9
100
AcDbPolyline
 90
        4
 70
     1
 43
3.0
 10
-1842.691330418316
 20
1131.026643629732
 42
0.4142135623731
 10
-1844.191330418315
 20
1132.526643629732
 42
0.4142135623731
 10
-1845.691330418315
 20
1131.026643629732
 42
0.4142135623731
 10
-1844.191330418315
 20
1129.526643629732
 42
0.4142135623731
  0
LINE
  5
42B
330
1F
100
AcDbEntity
  8
寸法
  6
Continuous
 62
   120
370
     5
100
AcDbLine
 10
-1844.191330418315
 20
1131.026643629732
 30
0.0
 11
-1844.191330418315
 21
-1051.973356370268
 31
0.0
  0
MTEXT
  5
42C
330
1F
100
AcDbEntity
  8
寸法
  6
Continuous
 62
     7
370
    70
100
AcDbMText
 10
-2059.191330418315
 20
-172.6483563702675
 30
0.0
 40
57.14999999999999
 41
412.5
 46
0.0
 71
     7
 72
     1
  1
{\fＭＳ ゴシック|b0|i0|c128|p49;枠外＝2,247}
 11
6.123031769111886E-17
 21
1.0
 31
0.0
 73
     1
 44
1.0
  0
MTEXT
  5
42D
330
1F
100
AcDbEntity
  8
寸法
  6
Continuous
 62
     7
370
    70
100
AcDbMText
 10
-1859.191330418315
 20
-178.6483563702672
 30
0.0
 40
57.14999999999999
 41
412.5
 46
0.0
 71
     7
 72
     1
  1
{\fＭＳ ゴシック|b0|i0|c128|p49;ＤＨ＝2,183}
 11
6.123031769111886E-17
 21
1.0
 31
0.0
 73
     1
 44
1.0
  0
MTEXT
  5
42E
330
1F
100
AcDbEntity
  8
寸法
  6
Continuous
 62
     7
370
   211
100
AcDbMText
 10
-550.9413304183158
 20
-1315.898356370268
 30
0.0
 40
57.15
 41
337.5
 46
0.0
 71
     7
 72
     1
  1
{\fＭＳ ゴシック|b0|i0|c128|p49;ＤＷ＝810}
 73
     1
 44
1.0
  0
MTEXT
  5
42F
330
1F
100
AcDbEntity
  8
寸法
  6
Continuous
 62
     7
370
   211
100
AcDbMText
 10
259.0586695816842
 20
-1315.898356370268
 30
0.0
 40
57.15
 41
337.5
 46
0.0
 71
     7
 72
     1
  1
{\fＭＳ ゴシック|b0|i0|c128|p49;ＤＷ＝810}
 73
     1
 44
1.0
  0
MTEXT
  5
430
330
1F
100
AcDbEntity
  8
寸法
  6
Continuous
 62
     7
370
   211
100
AcDbMText
 10
-183.4413304183158
 20
-1515.898356370269
 30
0.0
 40
57.14999999999999
 41
412.5
 46
0.0
 71
     7
 72
     1
  1
{\fＭＳ ゴシック|b0|i0|c128|p49;枠内＝3,174}
 73
     1
 44
1.0
  0
MTEXT
  5
431
330
1F
100
AcDbEntity
  8
寸法
  6
Continuous
 62
     7
370
   211
100
AcDbMText
 10
-183.4413304183158
 20
-1715.898356370268
 30
0.0
 40
57.14999999999999
 41
412.5
 46
0.0
 71
     7
 72
     1
  1
{\fＭＳ ゴシック|b0|i0|c128|p49;枠外＝3,234}
 73
     1
 44
1.0
  0
ENDSEC
  0
SECTION
  2
OBJECTS
  0
DICTIONARY
  5
C
330
0
100
AcDbDictionary
281
     1
  3
ACAD_GROUP
350
D
  3
ACAD_LAYOUT
350
1A
  3
ACAD_MATERIAL
350
3B
  3
ACAD_MLEADERSTYLE
350
433
  3
ACAD_MLINESTYLE
350
17
  3
ACAD_PLOTSETTINGS
350
19
  3
ACAD_PLOTSTYLENAME
350
E
  3
ACAD_TABLESTYLE
350
432
  3
ACAD_VISUALSTYLE
350
2A
  0
DICTIONARY
  5
D
102
{ACAD_REACTORS
330
C
102
}
330
C
100
AcDbDictionary
281
     1
  0
DICTIONARY
  5
1A
102
{ACAD_REACTORS
330
C
102
}
330
C
100
AcDbDictionary
281
     1
  3
Layout1
350
1E
  3
Layout2
350
26
  3
Model
350
22
  0
DICTIONARY
  5
3B
102
{ACAD_REACTORS
330
C
102
}
330
C
100
AcDbDictionary
281
     1
  3
ByBlock
350
3D
  3
ByLayer
350
3C
  3
Global
350
3E
  0
DICTIONARY
  5
433
102
{ACAD_REACTORS
330
C
102
}
330
C
100
AcDbDictionary
281
     1
  0
DICTIONARY
  5
17
102
{ACAD_REACTORS
330
C
102
}
330
C
100
AcDbDictionary
281
     1
  3
Standard
350
18
  0
DICTIONARY
  5
19
102
{ACAD_REACTORS
330
C
102
}
330
C
100
AcDbDictionary
281
     1
  0
ACDBDICTIONARYWDFLT
  5
E
102
{ACAD_REACTORS
330
C
102
}
330
C
100
AcDbDictionary
281
     1
  3
Normal
350
F
100
AcDbDictionaryWithDefault
340
F
  0
DICTIONARY
  5
432
102
{ACAD_REACTORS
330
C
102
}
330
C
100
AcDbDictionary
281
     1
  0
DICTIONARY
  5
2A
102
{ACAD_REACTORS
330
C
102
}
330
C
100
AcDbDictionary
281
     1
  3
2dWireframe
350
2F
  3
3D Hidden
350
31
  3
3dWireframe
350
30
  3
Basic
350
32
  3
Brighten
350
36
  3
ColorChange
350
3A
  3
Conceptual
350
34
  3
Dim
350
35
  3
Facepattern
350
39
  3
Flat
350
2B
  3
FlatWithEdges
350
2C
  3
Gouraud
350
2D
  3
GouraudWithEdges
350
2E
  3
Linepattern
350
38
  3
Realistic
350
33
  3
Thicken
350
37
  0
LAYOUT
  5
1E
102
{ACAD_REACTORS
330
1A
102
}
330
1A
100
AcDbPlotSettings
  1

  2
none_device
  4

  6

 40
0.0
 41
0.0
 42
0.0
 43
0.0
 44
0.0
 45
0.0
 46
0.0
 47
0.0
 48
0.0
 49
0.0
140
0.0
141
0.0
142
1.0
143
1.0
 70
   688
 72
     0
 73
     0
 74
     5
  7

 75
    16
 76
     0
 77
     5
 78
   300
147
1.0
148
0.0
149
0.0
100
AcDbLayout
  1
Layout1
 70
     1
 71
     1
 10
0.0
 20
0.0
 11
420.0
 21
297.0
 12
0.0
 22
0.0
 32
0.0
 14
1.000000000000000E+20
 24
1.000000000000000E+20
 34
1.000000000000000E+20
 15
-1.000000000000000E+20
 25
-1.000000000000000E+20
 35
-1.000000000000000E+20
146
0.0
 13
0.0
 23
0.0
 33
0.0
 16
1.0
 26
0.0
 36
0.0
 17
0.0
 27
1.0
 37
0.0
 76
     0
330
1B
  0
LAYOUT
  5
26
102
{ACAD_REACTORS
330
1A
102
}
330
1A
100
AcDbPlotSettings
  1

  2
none_device
  4

  6

 40
0.0
 41
0.0
 42
0.0
 43
0.0
 44
0.0
 45
0.0
 46
0.0
 47
0.0
 48
0.0
 49
0.0
140
0.0
141
0.0
142
1.0
143
1.0
 70
   688
 72
     0
 73
     0
 74
     5
  7

 75
    16
 76
     0
 77
     5
 78
   300
147
1.0
148
0.0
149
0.0
100
AcDbLayout
  1
Layout2
 70
     1
 71
     2
 10
0.0
 20
0.0
 11
0.0
 21
0.0
 12
0.0
 22
0.0
 32
0.0
 14
0.0
 24
0.0
 34
0.0
 15
0.0
 25
0.0
 35
0.0
146
0.0
 13
0.0
 23
0.0
 33
0.0
 16
1.0
 26
0.0
 36
0.0
 17
0.0
 27
1.0
 37
0.0
 76
     0
330
23
  0
LAYOUT
  5
22
102
{ACAD_REACTORS
330
1A
102
}
330
1A
100
AcDbPlotSettings
  1

  2
none_device
  4

  6

 40
0.0
 41
0.0
 42
0.0
 43
0.0
 44
0.0
 45
0.0
 46
0.0
 47
0.0
 48
0.0
 49
0.0
140
0.0
141
0.0
142
1.0
143
1.0
 70
  1712
 72
     0
 73
     0
 74
     0
  7

 75
     0
 76
     0
 77
     5
 78
   300
147
1.0
148
0.0
149
0.0
100
AcDbLayout
  1
Model
 70
     1
 71
     0
 10
-4455.0
 20
-3150.0
 11
4455.0
 21
3150.0
 12
0.0
 22
0.0
 32
0.0
 14
-4455.0
 24
-3150.0
 34
0.0
 15
4455.0
 25
3150.0
 35
0.0
146
0.0
 13
0.0
 23
0.0
 33
0.0
 16
1.0
 26
0.0
 36
0.0
 17
0.0
 27
1.0
 37
0.0
 76
     0
330
1F
331
29
  0
MATERIAL
  5
3D
102
{ACAD_REACTORS
330
3B
102
}
330
3B
100
AcDbMaterial
  1
ByBlock
 72
     1
 94
      127
  0
MATERIAL
  5
3C
102
{ACAD_REACTORS
330
3B
102
}
330
3B
100
AcDbMaterial
  1
ByLayer
 72
     1
 94
      127
  0
MATERIAL
  5
3E
102
{ACAD_REACTORS
330
3B
102
}
330
3B
100
AcDbMaterial
  1
Global
 72
     1
 94
      127
  0
MLINESTYLE
  5
18
102
{ACAD_REACTORS
330
17
102
}
330
17
100
AcDbMlineStyle
  2
Standard
 70
     0
  3

 62
   256
 51
90.0
 52
90.0
 71
     2
 49
0.5
 62
   256
  6
BYLAYER
 49
-0.5
 62
   256
  6
BYLAYER
  0
ACDBPLACEHOLDER
  5
F
102
{ACAD_REACTORS
330
E
102
}
330
E
  0
VISUALSTYLE
  5
2F
102
{ACAD_REACTORS
330
2A
102
}
330
2A
100
AcDbVisualStyle
  2
2dWireframe
 70
     4
177
     2
291
     0
 71
     0
176
     1
 72
     2
176
     1
 73
     0
176
     1
 90
        0
176
     1
 40
-0.6
176
     1
 41
-30.0
176
     1
 62
     5
 63
     7
421
 16777215
176
     1
 74
     1
176
     1
 91
        4
176
     1
 64
     7
176
     1
 65
   257
176
     1
 75
     1
176
     1
175
     1
176
     1
 42
1.0
176
     1
 92
        0
176
     1
 66
   257
176
     1
 43
1.0
176
     1
 76
     1
176
     1
 77
     6
176
     1
 78
     2
176
     1
 67
     7
176
     1
 79
     5
176
     1
170
     0
176
     1
171
     0
176
     1
290
     0
176
     1
 93
        1
176
     1
 44
0.0
176
     1
173
     0
176
     1
  0
VISUALSTYLE
  5
31
102
{ACAD_REACTORS
330
2A
102
}
330
2A
100
AcDbVisualStyle
  2
3D Hidden
 70
     6
177
     2
291
     0
 71
     1
176
     1
 72
     2
176
     1
 73
     2
176
     1
 90
        0
176
     1
 40
-0.6
176
     1
 41
-30.0
176
     1
 62
     5
 63
     7
421
 16777215
176
     1
 74
     2
176
     1
 91
        2
176
     1
 64
     7
176
     1
 65
   257
176
     1
 75
     2
176
     1
175
     1
176
     1
 42
40.0
176
     1
 92
        0
176
     1
 66
   257
176
     1
 43
1.0
176
     1
 76
     1
176
     1
 77
     6
176
     1
 78
     2
176
     1
 67
     7
176
     1
 79
     3
176
     1
170
     0
176
     1
171
     0
176
     1
290
     0
176
     1
 93
        1
176
     1
 44
0.0
176
     1
173
     0
176
     1
  0
VISUALSTYLE
  5
30
102
{ACAD_REACTORS
330
2A
102
}
330
2A
100
AcDbVisualStyle
  2
3dWireframe
 70
     5
177
     2
291
     0
 71
     0
176
     1
 72
     2
176
     1
 73
     0
176
     1
 90
        0
176
     1
 40
-0.6
176
     1
 41
-30.0
176
     1
 62
     5
 63
     7
421
 16777215
176
     1
 74
     1
176
     1
 91
        4
176
     1
 64
     7
176
     1
 65
   257
176
     1
 75
     1
176
     1
175
     1
176
     1
 42
1.0
176
     1
 92
        0
176
     1
 66
   257
176
     1
 43
1.0
176
     1
 76
     1
176
     1
 77
     6
176
     1
 78
     2
176
     1
 67
     7
176
     1
 79
     5
176
     1
170
     0
176
     1
171
     0
176
     1
290
     0
176
     1
 93
        1
176
     1
 44
0.0
176
     1
173
     0
176
     1
  0
VISUALSTYLE
  5
32
102
{ACAD_REACTORS
330
2A
102
}
330
2A
100
AcDbVisualStyle
  2
Basic
 70
     7
177
     2
291
     1
 71
     1
176
     1
 72
     0
176
     1
 73
     1
176
     1
 90
        0
176
     1
 40
-0.6
176
     1
 41
-30.0
176
     1
 62
     5
 63
     7
421
 16777215
176
     1
 74
     0
176
     1
 91
        4
176
     1
 64
     7
176
     1
 65
   257
176
     1
 75
     1
176
     1
175
     1
176
     1
 42
1.0
176
     1
 92
        8
176
     1
 66
     7
176
     1
 43
1.0
176
     1
 76
     1
176
     1
 77
     6
176
     1
 78
     2
176
     1
 67
     7
176
     1
 79
     5
176
     1
170
     0
176
     1
171
     0
176
     1
290
     0
176
     1
 93
        1
176
     1
 44
0.0
176
     1
173
     0
176
     1
  0
VISUALSTYLE
  5
36
102
{ACAD_REACTORS
330
2A
102
}
330
2A
100
AcDbVisualStyle
  2
Brighten
 70
    12
177
     2
291
     1
 71
     2
176
     1
 72
     2
176
     1
 73
     0
176
     1
 90
        0
176
     1
 40
-0.6
176
     1
 41
-30.0
176
     1
 62
     5
 63
     7
421
 16777215
176
     1
 74
     1
176
     1
 91
        4
176
     1
 64
     7
176
     1
 65
   257
176
     1
 75
     1
176
     1
175
     1
176
     1
 42
1.0
176
     1
 92
        8
176
     1
 66
     7
176
     1
 43
1.0
176
     1
 76
     1
176
     1
 77
     6
176
     1
 78
     2
176
     1
 67
     7
176
     1
 79
     5
176
     1
170
     0
176
     1
171
     0
176
     1
290
     0
176
     1
 93
        1
176
     1
 44
50.0
176
     1
173
     0
176
     1
  0
VISUALSTYLE
  5
3A
102
{ACAD_REACTORS
330
2A
102
}
330
2A
100
AcDbVisualStyle
  2
ColorChange
 70
    16
177
     2
291
     1
 71
     2
176
     1
 72
     2
176
     1
 73
     3
176
     1
 90
        0
176
     1
 40
-0.6
176
     1
 41
-30.0
176
     1
 62
     5
 63
     8
421
  8421504
176
     1
 74
     1
176
     1
 91
        4
176
     1
 64
     7
176
     1
 65
   257
176
     1
 75
     1
176
     1
175
     1
176
     1
 42
1.0
176
     1
 92
        8
176
     1
 66
     8
424
  8421504
176
     1
 43
1.0
176
     1
 76
     1
176
     1
 77
     6
176
     1
 78
     2
176
     1
 67
     7
176
     1
 79
     5
176
     1
170
     0
176
     1
171
     0
176
     1
290
     0
176
     1
 93
        1
176
     1
 44
0.0
176
     1
173
     0
176
     1
  0
VISUALSTYLE
  5
34
102
{ACAD_REACTORS
330
2A
102
}
330
2A
100
AcDbVisualStyle
  2
Conceptual
 70
     9
177
     2
291
     0
 71
     3
176
     1
 72
     2
176
     1
 73
     0
176
     1
 90
        0
176
     1
 40
-0.6
176
     1
 41
-30.0
176
     1
 62
     5
 63
     7
421
 16777215
176
     1
 74
     2
176
     1
 91
        2
176
     1
 64
     7
176
     1
 65
   257
176
     1
 75
     1
176
     1
175
     1
176
     1
 42
40.0
176
     1
 92
        8
176
     1
 66
     7
176
     1
 43
1.0
176
     1
 76
     1
176
     1
 77
     6
176
     1
 78
     2
176
     1
 67
     7
176
     1
 79
     3
176
     1
170
     0
176
     1
171
     0
176
     1
290
     0
176
     1
 93
        1
176
     1
 44
0.0
176
     1
173
     0
176
     1
  0
VISUALSTYLE
  5
35
102
{ACAD_REACTORS
330
2A
102
}
330
2A
100
AcDbVisualStyle
  2
Dim
 70
    11
177
     2
291
     1
 71
     2
176
     1
 72
     2
176
     1
 73
     0
176
     1
 90
        0
176
     1
 40
-0.6
176
     1
 41
-30.0
176
     1
 62
     5
 63
     7
421
 16777215
176
     1
 74
     1
176
     1
 91
        4
176
     1
 64
     7
176
     1
 65
   257
176
     1
 75
     1
176
     1
175
     1
176
     1
 42
1.0
176
     1
 92
        8
176
     1
 66
     7
176
     1
 43
1.0
176
     1
 76
     1
176
     1
 77
     6
176
     1
 78
     2
176
     1
 67
     7
176
     1
 79
     5
176
     1
170
     0
176
     1
171
     0
176
     1
290
     0
176
     1
 93
        1
176
     1
 44
-50.0
176
     1
173
     0
176
     1
  0
VISUALSTYLE
  5
39
102
{ACAD_REACTORS
330
2A
102
}
330
2A
100
AcDbVisualStyle
  2
Facepattern
 70
    15
177
     2
291
     1
 71
     2
176
     1
 72
     2
176
     1
 73
     0
176
     1
 90
        0
176
     1
 40
-0.6
176
     1
 41
-30.0
176
     1
 62
     5
 63
     7
421
 16777215
176
     1
 74
     1
176
     1
 91
        4
176
     1
 64
     7
176
     1
 65
   257
176
     1
 75
     1
176
     1
175
     1
176
     1
 42
1.0
176
     1
 92
        8
176
     1
 66
     7
176
     1
 43
1.0
176
     1
 76
     1
176
     1
 77
     6
176
     1
 78
     2
176
     1
 67
     7
176
     1
 79
     5
176
     1
170
     0
176
     1
171
     0
176
     1
290
     0
176
     1
 93
        1
176
     1
 44
0.0
176
     1
173
     0
176
     1
  0
VISUALSTYLE
  5
2B
102
{ACAD_REACTORS
330
2A
102
}
330
2A
100
AcDbVisualStyle
  2
Flat
 70
     0
177
     2
291
     1
 71
     2
176
     1
 72
     1
176
     1
 73
     1
176
     1
 90
        2
176
     1
 40
-0.6
176
     1
 41
30.0
176
     1
 62
     5
 63
     7
421
 16777215
176
     1
 74
     0
176
     1
 91
        4
176
     1
 64
     7
176
     1
 65
   257
176
     1
 75
     1
176
     1
175
     1
176
     1
 42
1.0
176
     1
 92
        8
176
     1
 66
     7
176
     1
 43
1.0
176
     1
 76
     1
176
     1
 77
     6
176
     1
 78
     2
176
     1
 67
     7
176
     1
 79
     5
176
     1
170
     0
176
     1
171
     0
176
     1
290
     0
176
     1
 93
       13
176
     1
 44
0.0
176
     1
173
     0
176
     1
  0
VISUALSTYLE
  5
2C
102
{ACAD_REACTORS
330
2A
102
}
330
2A
100
AcDbVisualStyle
  2
FlatWithEdges
 70
     1
177
     2
291
     1
 71
     2
176
     1
 72
     1
176
     1
 73
     1
176
     1
 90
        2
176
     1
 40
-0.6
176
     1
 41
30.0
176
     1
 62
     5
 63
     7
421
 16777215
176
     1
 74
     1
176
     1
 91
        4
176
     1
 64
     7
176
     1
 65
   257
176
     1
 75
     1
176
     1
175
     1
176
     1
 42
1.0
176
     1
 92
        0
176
     1
 66
   257
176
     1
 43
1.0
176
     1
 76
     1
176
     1
 77
     6
176
     1
 78
     2
176
     1
 67
     7
176
     1
 79
     5
176
     1
170
     0
176
     1
171
     0
176
     1
290
     0
176
     1
 93
       13
176
     1
 44
0.0
176
     1
173
     0
176
     1
  0
VISUALSTYLE
  5
2D
102
{ACAD_REACTORS
330
2A
102
}
330
2A
100
AcDbVisualStyle
  2
Gouraud
 70
     2
177
     2
291
     1
 71
     2
176
     1
 72
     2
176
     1
 73
     1
176
     1
 90
        2
176
     1
 40
-0.6
176
     1
 41
30.0
176
     1
 62
     5
 63
     7
421
 16777215
176
     1
 74
     0
176
     1
 91
        4
176
     1
 64
     7
176
     1
 65
   257
176
     1
 75
     1
176
     1
175
     1
176
     1
 42
1.0
176
     1
 92
        0
176
     1
 66
     7
176
     1
 43
1.0
176
     1
 76
     1
176
     1
 77
     6
176
     1
 78
     2
176
     1
 67
     7
176
     1
 79
     5
176
     1
170
     0
176
     1
171
     0
176
     1
290
     0
176
     1
 93
       13
176
     1
 44
0.0
176
     1
173
     0
176
     1
  0
VISUALSTYLE
  5
2E
102
{ACAD_REACTORS
330
2A
102
}
330
2A
100
AcDbVisualStyle
  2
GouraudWithEdges
 70
     3
177
     2
291
     1
 71
     2
176
     1
 72
     2
176
     1
 73
     1
176
     1
 90
        2
176
     1
 40
-0.6
176
     1
 41
30.0
176
     1
 62
     5
 63
     7
421
 16777215
176
     1
 74
     1
176
     1
 91
        4
176
     1
 64
     7
176
     1
 65
   257
176
     1
 75
     1
176
     1
175
     1
176
     1
 42
1.0
176
     1
 92
        0
176
     1
 66
   257
176
     1
 43
1.0
176
     1
 76
     1
176
     1
 77
     6
176
     1
 78
     2
176
     1
 67
     7
176
     1
 79
     5
176
     1
170
     0
176
     1
171
     0
176
     1
290
     0
176
     1
 93
       13
176
     1
 44
0.0
176
     1
173
     0
176
     1
  0
VISUALSTYLE
  5
38
102
{ACAD_REACTORS
330
2A
102
}
330
2A
100
AcDbVisualStyle
  2
Linepattern
 70
    14
177
     2
291
     1
 71
     2
176
     1
 72
     2
176
     1
 73
     0
176
     1
 90
        0
176
     1
 40
-0.6
176
     1
 41
-30.0
176
     1
 62
     5
 63
     7
421
 16777215
176
     1
 74
     1
176
     1
 91
        4
176
     1
 64
     7
176
     1
 65
   257
176
     1
 75
     7
176
     1
175
     7
176
     1
 42
1.0
176
     1
 92
        8
176
     1
 66
     7
176
     1
 43
1.0
176
     1
 76
     1
176
     1
 77
     6
176
     1
 78
     2
176
     1
 67
     7
176
     1
 79
     5
176
     1
170
     0
176
     1
171
     0
176
     1
290
     0
176
     1
 93
        1
176
     1
 44
0.0
176
     1
173
     0
176
     1
  0
VISUALSTYLE
  5
33
102
{ACAD_REACTORS
330
2A
102
}
330
2A
100
AcDbVisualStyle
  2
Realistic
 70
     8
177
     2
291
     0
 71
     2
176
     1
 72
     2
176
     1
 73
     0
176
     1
 90
        0
176
     1
 40
-0.6
176
     1
 41
-30.0
176
     1
 62
     5
 63
     7
421
 16777215
176
     1
 74
     1
176
     1
 91
        0
176
     1
 64
     7
176
     1
 65
   257
176
     1
 75
     1
176
     1
175
     1
176
     1
 42
1.0
176
     1
 92
        8
176
     1
 66
     8
424
  7895160
176
     1
 43
1.0
176
     1
 76
     1
176
     1
 77
     6
176
     1
 78
     2
176
     1
 67
     7
176
     1
 79
     5
176
     1
170
     0
176
     1
171
     0
176
     1
290
     0
176
     1
 93
       13
176
     1
 44
0.0
176
     1
173
     0
176
     1
  0
VISUALSTYLE
  5
37
102
{ACAD_REACTORS
330
2A
102
}
330
2A
100
AcDbVisualStyle
  2
Thicken
 70
    13
177
     2
291
     1
 71
     2
176
     1
 72
     2
176
     1
 73
     0
176
     1
 90
        0
176
     1
 40
-0.6
176
     1
 41
-30.0
176
     1
 62
     5
 63
     7
421
 16777215
176
     1
 74
     1
176
     1
 91
        4
176
     1
 64
     7
176
     1
 65
   257
176
     1
 75
     1
176
     1
175
     1
176
     1
 42
1.0
176
     1
 92
       12
176
     1
 66
     7
176
     1
 43
1.0
176
     1
 76
     1
176
     1
 77
     6
176
     1
 78
     2
176
     1
 67
     7
176
     1
 79
     5
176
     1
170
     0
176
     1
171
     0
176
     1
290
     0
176
     1
 93
        1
176
     1
 44
0.0
176
     1
173
     0
176
     1
  0
ENDSEC
  0
EOF
