  0
SECTION
  2
HEADER
  9
$ACADVER
  1
AC1024
  9
$ACADMAINTVER
 70
     6
  9
$DWGCODEPAGE
  3
ANSI_932
  9
$INSBASE
 10
0.0
 20
0.0
 30
0.0
  9
$EXTMIN
 10
-4455.0
 20
-3150.0
 30
0.0
  9
$EXTMAX
 10
4455.0
 20
3150.0
 30
0.0
  9
$LIMMIN
 10
-4455.0
 20
-3150.0
  9
$LIMMAX
 10
4455.0
 20
3150.0
  9
$ORTHOMODE
 70
     0
  9
$REGENMODE
 70
     1
  9
$FILLMODE
 70
     1
  9
$QTEXTMODE
 70
     0
  9
$MIRRTEXT
 70
     1
  9
$LTSCALE
 40
30.0
  9
$ATTMODE
 70
     1
  9
$TEXTSIZE
 40
2.5
  9
$TRACEWID
 40
1.0
  9
$TEXTSTYLE
  7
Standard
  9
$CLAYER
  8
0
  9
$CELTYPE
  6
ByLayer
  9
$CECOLOR
 62
   256
  9
$CELTSCALE
 40
1.0
  9
$DISPSILH
 70
     0
  9
$DIMSCALE
 40
1.0
  9
$DIMASZ
 40
2.5
  9
$DIMEXO
 40
0.625
  9
$DIMDLI
 40
3.75
  9
$DIMRND
 40
0.0
  9
$DIMDLE
 40
0.0
  9
$DIMEXE
 40
1.25
  9
$DIMTP
 40
0.0
  9
$DIMTM
 40
0.0
  9
$DIMTXT
 40
2.5
  9
$DIMCEN
 40
2.5
  9
$DIMTSZ
 40
0.0
  9
$DIMTOL
 70
     0
  9
$DIMLIM
 70
     0
  9
$DIMTIH
 70
     0
  9
$DIMTOH
 70
     0
  9
$DIMSE1
 70
     0
  9
$DIMSE2
 70
     0
  9
$DIMTAD
 70
     1
  9
$DIMZIN
 70
     8
  9
$DIMBLK
  1

  9
$DIMASO
 70
     1
  9
$DIMSHO
 70
     1
  9
$DIMPOST
  1

  9
$DIMAPOST
  1

  9
$DIMALT
 70
     0
  9
$DIMALTD
 70
     3
  9
$DIMALTF
 40
0.03937007874016
  9
$DIMLFAC
 40
1.0
  9
$DIMTOFL
 70
     1
  9
$DIMTVP
 40
0.0
  9
$DIMTIX
 70
     0
  9
$DIMSOXD
 70
     0
  9
$DIMSAH
 70
     0
  9
$DIMBLK1
  1

  9
$DIMBLK2
  1

  9
$DIMSTYLE
  2
ISO-25
  9
$DIMCLRD
 70
     0
  9
$DIMCLRE
 70
     0
  9
$DIMCLRT
 70
     0
  9
$DIMTFAC
 40
1.0
  9
$DIMGAP
 40
0.625
  9
$DIMJUST
 70
     0
  9
$DIMSD1
 70
     0
  9
$DIMSD2
 70
     0
  9
$DIMTOLJ
 70
     0
  9
$DIMTZIN
 70
     8
  9
$DIMALTZ
 70
     0
  9
$DIMALTTZ
 70
     0
  9
$DIMUPT
 70
     0
  9
$DIMDEC
 70
     2
  9
$DIMTDEC
 70
     2
  9
$DIMALTU
 70
     2
  9
$DIMALTTD
 70
     3
  9
$DIMTXSTY
  7
Standard
  9
$DIMAUNIT
 70
     0
  9
$DIMADEC
 70
     0
  9
$DIMALTRND
 40
0.0
  9
$DIMAZIN
 70
     0
  9
$DIMDSEP
 70
    44
  9
$DIMATFIT
 70
     3
  9
$DIMFRAC
 70
     0
  9
$DIMLDRBLK
  1

  9
$DIMLUNIT
 70
     2
  9
$DIMLWD
 70
    -2
  9
$DIMLWE
 70
    -2
  9
$DIMTMOVE
 70
     0
  9
$DIMFXL
 40
1.0
  9
$DIMFXLON
 70
     0
  9
$DIMJOGANG
 40
0.7853981633974483
  9
$DIMTFILL
 70
     0
  9
$DIMTFILLCLR
 70
     0
  9
$DIMARCSYM
 70
     0
  9
$DIMLTYPE
  6

  9
$DIMLTEX1
  6

  9
$DIMLTEX2
  6

  9
$DIMTXTDIRECTION
 70
     0
  9
$LUNITS
 70
     2
  9
$LUPREC
 70
     4
  9
$SKETCHINC
 40
1.0
  9
$FILLETRAD
 40
10.0
  9
$AUNITS
 70
     0
  9
$AUPREC
 70
     0
  9
$MENU
  1
.
  9
$ELEVATION
 40
0.0
  9
$PELEVATION
 40
0.0
  9
$THICKNESS
 40
0.0
  9
$LIMCHECK
 70
     0
  9
$CHAMFERA
 40
10.0
  9
$CHAMFERB
 40
10.0
  9
$CHAMFERC
 40
20.0
  9
$CHAMFERD
 40
0.0
  9
$SKPOLY
 70
     0
  9
$TDCREATE
 40
2457953.400694155
  9
$TDUCREATE
 40
2457953.025694155
  9
$TDUPDATE
 40
2457953.400694167
  9
$TDUUPDATE
 40
2457953.025694167
  9
$TDINDWG
 40
0.0000000116
  9
$TDUSRTIMER
 40
0.0000000116
  9
$USRTIMER
 70
     1
  9
$ANGBASE
 50
0.0
  9
$ANGDIR
 70
     0
  9
$PDMODE
 70
     0
  9
$PDSIZE
 40
0.0
  9
$PLINEWID
 40
0.0
  9
$SPLFRAME
 70
     0
  9
$SPLINETYPE
 70
     6
  9
$SPLINESEGS
 70
     8
  9
$HANDSEED
  5
2D0
  9
$SURFTAB1
 70
     6
  9
$SURFTAB2
 70
     6
  9
$SURFTYPE
 70
     6
  9
$SURFU
 70
     6
  9
$SURFV
 70
     6
  9
$UCSBASE
  2

  9
$UCSNAME
  2

  9
$UCSORG
 10
0.0
 20
0.0
 30
0.0
  9
$UCSXDIR
 10
1.0
 20
0.0
 30
0.0
  9
$UCSYDIR
 10
0.0
 20
1.0
 30
0.0
  9
$UCSORTHOREF
  2

  9
$UCSORTHOVIEW
 70
     0
  9
$UCSORGTOP
 10
0.0
 20
0.0
 30
0.0
  9
$UCSORGBOTTOM
 10
0.0
 20
0.0
 30
0.0
  9
$UCSORGLEFT
 10
0.0
 20
0.0
 30
0.0
  9
$UCSORGRIGHT
 10
0.0
 20
0.0
 30
0.0
  9
$UCSORGFRONT
 10
0.0
 20
0.0
 30
0.0
  9
$UCSORGBACK
 10
0.0
 20
0.0
 30
0.0
  9
$PUCSBASE
  2

  9
$PUCSNAME
  2

  9
$PUCSORG
 10
0.0
 20
0.0
 30
0.0
  9
$PUCSXDIR
 10
1.0
 20
0.0
 30
0.0
  9
$PUCSYDIR
 10
0.0
 20
1.0
 30
0.0
  9
$PUCSORTHOREF
  2

  9
$PUCSORTHOVIEW
 70
     0
  9
$PUCSORGTOP
 10
0.0
 20
0.0
 30
0.0
  9
$PUCSORGBOTTOM
 10
0.0
 20
0.0
 30
0.0
  9
$PUCSORGLEFT
 10
0.0
 20
0.0
 30
0.0
  9
$PUCSORGRIGHT
 10
0.0
 20
0.0
 30
0.0
  9
$PUCSORGFRONT
 10
0.0
 20
0.0
 30
0.0
  9
$PUCSORGBACK
 10
0.0
 20
0.0
 30
0.0
  9
$USERI1
 70
     0
  9
$USERI2
 70
     0
  9
$USERI3
 70
     0
  9
$USERI4
 70
     0
  9
$USERI5
 70
     0
  9
$USERR1
 40
0.0
  9
$USERR2
 40
0.0
  9
$USERR3
 40
0.0
  9
$USERR4
 40
0.0
  9
$USERR5
 40
0.0
  9
$WORLDVIEW
 70
     1
  9
$SHADEDGE
 70
     3
  9
$SHADEDIF
 70
    70
  9
$TILEMODE
 70
     1
  9
$MAXACTVP
 70
    64
  9
$PINSBASE
 10
0.0
 20
0.0
 30
0.0
  9
$PLIMCHECK
 70
     0
  9
$PEXTMIN
 10
1.000000000000000E+20
 20
1.000000000000000E+20
 30
1.000000000000000E+20
  9
$PEXTMAX
 10
-1.000000000000000E+20
 20
-1.000000000000000E+20
 30
-1.000000000000000E+20
  9
$PLIMMIN
 10
0.0
 20
0.0
  9
$PLIMMAX
 10
420.0
 20
297.0
  9
$UNITMODE
 70
     0
  9
$VISRETAIN
 70
     1
  9
$PLINEGEN
 70
     0
  9
$PSLTSCALE
 70
     1
  9
$TREEDEPTH
 70
  3020
  9
$CMLSTYLE
  2
Standard
  9
$CMLJUST
 70
     0
  9
$CMLSCALE
 40
20.0
  9
$PROXYGRAPHICS
 70
     1
  9
$MEASUREMENT
 70
     1
  9
$CELWEIGHT
370
    -1
  9
$ENDCAPS
280
     0
  9
$JOINSTYLE
280
     0
  9
$LWDISPLAY
290
     0
  9
$INSUNITS
 70
     4
  9
$HYPERLINKBASE
  1

  9
$STYLESHEET
  1

  9
$XEDIT
290
     1
  9
$CEPSNTYPE
380
     0
  9
$PSTYLEMODE
290
     1
  9
$FINGERPRINTGUID
  2
{17EF029F-2ADA-4884-8ABB-605A23311A4F}
  9
$VERSIONGUID
  2
{FAEB1C32-E019-11D5-929B-00C0DF256EC4}
  9
$EXTNAMES
290
     1
  9
$PSVPSCALE
 40
0.0
  9
$OLESTARTUP
290
     0
  9
$SORTENTS
280
   127
  9
$INDEXCTL
280
     0
  9
$HIDETEXT
280
     1
  9
$XCLIPFRAME
280
     2
  9
$HALOGAP
280
     0
  9
$OBSCOLOR
 70
   257
  9
$OBSLTYPE
280
     0
  9
$INTERSECTIONDISPLAY
280
     0
  9
$INTERSECTIONCOLOR
 70
   257
  9
$DIMASSOC
280
     2
  9
$PROJECTNAME
  1

  9
$CAMERADISPLAY
290
     0
  9
$LENSLENGTH
 40
50.0
  9
$CAMERAHEIGHT
 40
0.0
  9
$STEPSPERSEC
 40
2.0
  9
$STEPSIZE
 40
6.0
  9
$3DDWFPREC
 40
2.0
  9
$PSOLWIDTH
 40
5.0
  9
$PSOLHEIGHT
 40
80.0
  9
$LOFTANG1
 40
1.570796326794897
  9
$LOFTANG2
 40
1.570796326794897
  9
$LOFTMAG1
 40
0.0
  9
$LOFTMAG2
 40
0.0
  9
$LOFTPARAM
 70
     7
  9
$LOFTNORMALS
280
     1
  9
$LATITUDE
 40
37.795
  9
$LONGITUDE
 40
-122.394
  9
$NORTHDIRECTION
 40
0.0
  9
$TIMEZONE
 70
 -8000
  9
$LIGHTGLYPHDISPLAY
280
     1
  9
$TILEMODELIGHTSYNCH
280
     1
  9
$SOLIDHIST
280
     1
  9
$SHOWHIST
280
     1
  9
$DWFFRAME
280
     2
  9
$DGNFRAME
280
     2
  9
$REALWORLDSCALE
290
     1
  9
$INTERFERECOLOR
 62
   256
  9
$CSHADOW
280
     0
  9
$SHADOWPLANELOCATION
 40
0.0
  0
ENDSEC
  0
SECTION
  2
CLASSES
  0
CLASS
  1
ACDBDICTIONARYWDFLT
  2
AcDbDictionaryWithDefault
  3
ObjectDBX Classes
 90
        0
 91
        4
280
     0
281
     0
  0
CLASS
  1
VISUALSTYLE
  2
AcDbVisualStyle
  3
ObjectDBX Classes
 90
     4095
 91
        4
280
     0
281
     0
  0
CLASS
  1
MATERIAL
  2
AcDbMaterial
  3
ObjectDBX Classes
 90
     1153
 91
        4
280
     0
281
     0
  0
ENDSEC
  0
SECTION
  2
TABLES
  0
TABLE
  2
VPORT
  5
8
330
0
100
AcDbSymbolTable
 70
     1
  0
VPORT
  5
29
330
8
100
AcDbSymbolTableRecord
100
AcDbViewportTableRecord
  2
*Active
 70
     0
 10
0.0
 20
0.0
 11
1.0
 21
1.0
 12
0.0
 22
0.0
 13
0.0
 23
0.0
 14
10.0
 24
10.0
 15
10.0
 25
10.0
 16
0.0
 26
0.0
 36
1.0
 17
0.0
 27
0.0
 37
0.0
 40
6930.000000000001
 41
1.414285714285714
 42
50.0
 43
0.0
 44
0.0
 50
0.0
 51
0.0
 71
     0
 72
 10000
 73
     1
 74
     3
 75
     0
 76
     0
 77
     0
 78
     0
281
     0
 65
     1
110
0.0
120
0.0
130
0.0
111
1.0
121
0.0
131
0.0
112
0.0
122
1.0
132
0.0
 79
     0
146
0.0
 60
     3
 61
     5
292
     1
282
     1
141
0.0
142
0.0
 63
   250
  0
ENDTAB
  0
TABLE
  2
LTYPE
  5
5
330
0
100
AcDbSymbolTable
 70
     2
  0
LTYPE
  5
14
330
5
100
AcDbSymbolTableRecord
100
AcDbLinetypeTableRecord
  2
ByBlock
 70
     0
  3

 72
    65
 73
     0
 40
0.0
  0
LTYPE
  5
15
330
5
100
AcDbSymbolTableRecord
100
AcDbLinetypeTableRecord
  2
ByLayer
 70
     0
  3

 72
    65
 73
     0
 40
0.0
  0
LTYPE
  5
16
330
5
100
AcDbSymbolTableRecord
100
AcDbLinetypeTableRecord
  2
Continuous
 70
     0
  3
Solid line
 72
    65
 73
     0
 40
0.0
  0
LTYPE
  5
3F
330
5
100
AcDbSymbolTableRecord
100
AcDbLinetypeTableRecord
  2
JWW_DASHED1
 70
     0
  3
-  --  --  --  --  --  --  --  -
 72
    65
 73
     2
 40
1.693333333333333
 49
0.8466666666666667
 74
     0
 49
-0.8466666666666667
 74
     0
  0
ENDTAB
  0
TABLE
  2
LAYER
  5
2
330
0
100
AcDbSymbolTable
 70
     3
  0
LAYER
  5
10
330
2
100
AcDbSymbolTableRecord
100
AcDbLayerTableRecord
  2
0
 70
     0
 62
     7
  6
Continuous
370
    -3
390
F
347
3E
  0
LAYER
  5
40
330
2
100
AcDbSymbolTableRecord
100
AcDbLayerTableRecord
  2
0-0
 70
     0
 62
     7
  6
Continuous
370
    -3
390
F
347
3E
  0
LAYER
  5
41
330
2
100
AcDbSymbolTableRecord
100
AcDbLayerTableRecord
  2
寸法
 70
     0
 62
     7
  6
Continuous
370
    -3
390
F
347
3E
  0
ENDTAB
  0
TABLE
  2
STYLE
  5
3
330
0
100
AcDbSymbolTable
 70
     1
  0
STYLE
  5
11
330
3
100
AcDbSymbolTableRecord
100
AcDbTextStyleTableRecord
  2
Standard
 70
     0
 40
0.0
 41
1.0
 50
0.0
 71
     0
 42
2.5
  3
txt
  4

  0
ENDTAB
  0
TABLE
  2
VIEW
  5
6
330
0
100
AcDbSymbolTable
 70
     0
  0
ENDTAB
  0
TABLE
  2
UCS
  5
7
330
0
100
AcDbSymbolTable
 70
     0
  0
ENDTAB
  0
TABLE
  2
APPID
  5
9
330
0
100
AcDbSymbolTable
 70
     1
  0
APPID
  5
12
330
9
100
AcDbSymbolTableRecord
100
AcDbRegAppTableRecord
  2
ACAD
 70
     0
  0
ENDTAB
  0
TABLE
  2
DIMSTYLE
  5
A
330
0
100
AcDbSymbolTable
 70
     1
100
AcDbDimStyleTable
  0
DIMSTYLE
105
27
330
A
100
AcDbSymbolTableRecord
100
AcDbDimStyleTableRecord
  2
ISO-25
 70
     0
 41
2.5
 42
0.625
 43
3.75
 44
1.25
 73
     0
 74
     0
 77
     1
 78
     8
140
2.5
141
2.5
143
0.03937007874016
147
0.625
171
     3
172
     1
178
     0
271
     2
272
     2
274
     3
278
    44
283
     0
284
     8
340
11
  0
ENDTAB
  0
TABLE
  2
BLOCK_RECORD
  5
1
330
0
100
AcDbSymbolTable
 70
     1
  0
BLOCK_RECORD
  5
1F
330
1
100
AcDbSymbolTableRecord
100
AcDbBlockTableRecord
  2
*Model_Space
340
22
 70
     0
280
     1
281
     0
  0
BLOCK_RECORD
  5
1B
330
1
100
AcDbSymbolTableRecord
100
AcDbBlockTableRecord
  2
*Paper_Space
340
1E
 70
     0
280
     1
281
     0
  0
BLOCK_RECORD
  5
23
330
1
100
AcDbSymbolTableRecord
100
AcDbBlockTableRecord
  2
*Paper_Space0
340
26
 70
     0
280
     1
281
     0
  0
ENDTAB
  0
ENDSEC
  0
SECTION
  2
BLOCKS
  0
BLOCK
  5
20
330
1F
100
AcDbEntity
  8
0
100
AcDbBlockBegin
  2
*Model_Space
 70
     0
 10
0.0
 20
0.0
 30
0.0
  3
*Model_Space
  1

  0
ENDBLK
  5
21
330
1F
100
AcDbEntity
  8
0
100
AcDbBlockEnd
  0
BLOCK
  5
1C
330
1B
100
AcDbEntity
 67
     1
  8
0
100
AcDbBlockBegin
  2
*Paper_Space
 70
     0
 10
0.0
 20
0.0
 30
0.0
  3
*Paper_Space
  1

  0
ENDBLK
  5
1D
330
1B
100
AcDbEntity
 67
     1
  8
0
100
AcDbBlockEnd
  0
BLOCK
  5
24
330
23
100
AcDbEntity
  8
0
100
AcDbBlockBegin
  2
*Paper_Space0
 70
     0
 10
0.0
 20
0.0
 30
0.0
  3
*Paper_Space0
  1

  0
ENDBLK
  5
25
330
23
100
AcDbEntity
  8
0
100
AcDbBlockEnd
  0
ENDSEC
  0
SECTION
  2
ENTITIES
  0
LINE
  5
42
330
1F
100
AcDbEntity
  8
0-0
  6
Continuous
 62
    92
370
    13
100
AcDbLine
 10
1652.32821681828
 20
-1333.645902714626
 30
0.0
 11
-1581.67178318172
 21
-1333.645902714626
 31
0.0
  0
LINE
  5
43
330
1F
100
AcDbEntity
  8
0-0
  6
Continuous
 62
    92
370
    13
100
AcDbLine
 10
1622.32821681828
 20
-1318.645902714626
 30
0.0
 11
-1551.67178318172
 21
-1318.645902714626
 31
0.0
  0
ARC
  5
44
330
1F
100
AcDbEntity
  8
0-0
  6
Continuous
 62
    92
370
    13
100
AcDbCircle
 10
-35.17178318171762
 20
-296.6459027146249
 30
0.0
 40
1.5
100
AcDbArc
 50
90.0
 51
180.0
  0
LINE
  5
45
330
1F
100
AcDbEntity
  8
0-0
  6
Continuous
 62
    92
370
    13
100
AcDbLine
 10
3.828216818281014
 20
-295.1459027146254
 30
0.0
 11
-35.17178318171762
 21
-295.1459027146254
 31
0.0
  0
ARC
  5
46
330
1F
100
AcDbEntity
  8
0-0
  6
Continuous
 62
    92
370
    13
100
AcDbCircle
 10
3.828216818281014
 20
-296.6459027146249
 30
0.0
 40
1.5
100
AcDbArc
 50
0.0
 51
90.00000000000001
  0
LINE
  5
47
330
1F
100
AcDbEntity
  8
0-0
  6
Continuous
 62
    92
370
    13
100
AcDbLine
 10
5.328216818281355
 20
-415.6459027146249
 30
0.0
 11
5.328216818281355
 21
-296.6459027146249
 31
0.0
  0
ARC
  5
48
330
1F
100
AcDbEntity
  8
0-0
  6
Continuous
 62
    92
370
    13
100
AcDbCircle
 10
3.828216818281014
 20
-415.6459027146249
 30
0.0
 40
1.5
100
AcDbArc
 50
270.0
 51
0.0
  0
LINE
  5
49
330
1F
100
AcDbEntity
  8
0-0
  6
Continuous
 62
    92
370
    13
100
AcDbLine
 10
-35.17178318171762
 20
-417.145902714627
 30
0.0
 11
3.828216818281014
 21
-417.145902714627
 31
0.0
  0
LINE
  5
4A
330
1F
100
AcDbEntity
  8
0-0
  6
Continuous
 62
    92
370
    13
100
AcDbLine
 10
-36.67178318171796
 20
-415.6459027146249
 30
0.0
 11
-36.67178318171796
 21
-296.6459027146249
 31
0.0
  0
ARC
  5
4B
330
1F
100
AcDbEntity
  8
0-0
  6
Continuous
 62
    92
370
    13
100
AcDbCircle
 10
-35.17178318171762
 20
-415.6459027146249
 30
0.0
 40
1.5
100
AcDbArc
 50
180.0
 51
270.0
  0
ARC
  5
4C
330
1F
100
AcDbEntity
  8
0-0
  6
Continuous
 62
     7
370
     9
100
AcDbCircle
 10
-15.6717831817183
 20
-385.7459027146248
 30
0.0
 40
15.0
100
AcDbArc
 50
180.0
 51
0.0
  0
ARC
  5
4D
330
1F
100
AcDbEntity
  8
0-0
  6
Continuous
 62
     7
370
     9
100
AcDbCircle
 10
-15.6717831817183
 20
-326.545902714625
 30
0.0
 40
15.0
100
AcDbArc
 50
0.0
 51
180.0
  0
LINE
  5
4E
330
1F
100
AcDbEntity
  8
0-0
  6
Continuous
 62
     7
370
     9
100
AcDbLine
 10
-0.671783181718304
 20
-385.7459027146248
 30
0.0
 11
-0.671783181718304
 21
-326.545902714625
 31
0.0
  0
LINE
  5
4F
330
1F
100
AcDbEntity
  8
0-0
  6
Continuous
 62
     7
370
     9
100
AcDbLine
 10
-30.6717831817183
 20
-326.545902714625
 30
0.0
 11
-30.6717831817183
 21
-385.7459027146248
 31
0.0
  0
ARC
  5
50
330
1F
100
AcDbEntity
  8
0-0
  6
Continuous
 62
    92
370
    13
100
AcDbCircle
 10
66.82821681827829
 20
-296.6459027146249
 30
0.0
 40
1.5
100
AcDbArc
 50
90.0
 51
180.0
  0
LINE
  5
51
330
1F
100
AcDbEntity
  8
0-0
  6
Continuous
 62
    92
370
    13
100
AcDbLine
 10
105.8282168182803
 20
-295.1459027146254
 30
0.0
 11
66.82821681827829
 21
-295.1459027146254
 31
0.0
  0
ARC
  5
52
330
1F
100
AcDbEntity
  8
0-0
  6
Continuous
 62
    92
370
    13
100
AcDbCircle
 10
105.8282168182803
 20
-296.6459027146249
 30
0.0
 40
1.5
100
AcDbArc
 50
0.0
 51
90.00000000000001
  0
LINE
  5
53
330
1F
100
AcDbEntity
  8
0-0
  6
Continuous
 62
    92
370
    13
100
AcDbLine
 10
107.328216818279
 20
-415.6459027146249
 30
0.0
 11
107.328216818279
 21
-296.6459027146249
 31
0.0
  0
ARC
  5
54
330
1F
100
AcDbEntity
  8
0-0
  6
Continuous
 62
    92
370
    13
100
AcDbCircle
 10
105.8282168182803
 20
-415.6459027146249
 30
0.0
 40
1.5
100
AcDbArc
 50
270.0
 51
0.0
  0
LINE
  5
55
330
1F
100
AcDbEntity
  8
0-0
  6
Continuous
 62
    92
370
    13
100
AcDbLine
 10
66.82821681827829
 20
-417.145902714627
 30
0.0
 11
105.8282168182803
 21
-417.145902714627
 31
0.0
  0
LINE
  5
56
330
1F
100
AcDbEntity
  8
0-0
  6
Continuous
 62
    92
370
    13
100
AcDbLine
 10
65.32821681828051
 20
-415.6459027146249
 30
0.0
 11
65.32821681828051
 21
-296.6459027146249
 31
0.0
  0
ARC
  5
57
330
1F
100
AcDbEntity
  8
0-0
  6
Continuous
 62
    92
370
    13
100
AcDbCircle
 10
66.82821681827829
 20
-415.6459027146249
 30
0.0
 40
1.5
100
AcDbArc
 50
180.0
 51
270.0
  0
ARC
  5
58
330
1F
100
AcDbEntity
  8
0-0
  6
Continuous
 62
     7
370
     9
100
AcDbCircle
 10
86.32821681827932
 20
-385.7459027146248
 30
0.0
 40
15.0
100
AcDbArc
 50
180.0
 51
0.0
  0
ARC
  5
59
330
1F
100
AcDbEntity
  8
0-0
  6
Continuous
 62
     7
370
     9
100
AcDbCircle
 10
86.32821681827932
 20
-326.545902714625
 30
0.0
 40
15.0
100
AcDbArc
 50
0.0
 51
180.0
  0
LINE
  5
5A
330
1F
100
AcDbEntity
  8
0-0
  6
Continuous
 62
     7
370
     9
100
AcDbLine
 10
101.3282168182793
 20
-385.7459027146248
 30
0.0
 11
101.3282168182793
 21
-326.545902714625
 31
0.0
  0
LINE
  5
5B
330
1F
100
AcDbEntity
  8
0-0
  6
Continuous
 62
     7
370
     9
100
AcDbLine
 10
71.32821681827932
 20
-326.545902714625
 30
0.0
 11
71.32821681827932
 21
-385.7459027146248
 31
0.0
  0
LINE
  5
5C
330
1F
100
AcDbEntity
  8
0-0
  6
Continuous
 62
    92
370
    13
100
AcDbLine
 10
-774.6717831817195
 20
-1313.645902714626
 30
0.0
 11
35.3282168182805
 21
-1313.645902714626
 31
0.0
  0
LINE
  5
5D
330
1F
100
AcDbEntity
  8
0-0
  6
Continuous
 62
    92
370
    13
100
AcDbLine
 10
845.3282168182805
 20
-1313.645902714626
 30
0.0
 11
35.3282168182805
 21
-1313.645902714626
 31
0.0
  0
LINE
  5
5E
330
1F
100
AcDbEntity
  8
0-0
  6
Continuous
 62
     7
370
     9
100
AcDbLine
 10
-656.1717831817199
 20
-1163.645902714626
 30
0.0
 11
-671.1717831817199
 21
-1178.645902714626
 31
0.0
  0
LINE
  5
5F
330
1F
100
AcDbEntity
  8
0-0
  6
Continuous
 62
     7
370
     9
100
AcDbLine
 10
-83.17178318171915
 20
-1163.645902714626
 30
0.0
 11
-68.17178318171915
 21
-1178.645902714626
 31
0.0
  0
LINE
  5
60
330
1F
100
AcDbEntity
  8
0-0
  6
Continuous
 62
     7
370
     9
100
AcDbLine
 10
-671.1717831817199
 20
-1178.645902714626
 30
0.0
 11
-68.17178318171915
 21
-1178.645902714626
 31
0.0
  0
LINE
  5
61
330
1F
100
AcDbEntity
  8
0-0
  6
Continuous
 62
     7
370
     9
100
AcDbLine
 10
-626.1717831817199
 20
-1133.645902714626
 30
0.0
 11
-641.1717831817199
 21
-1148.645902714626
 31
0.0
  0
LINE
  5
62
330
1F
100
AcDbEntity
  8
0-0
  6
Continuous
 62
     7
370
     9
100
AcDbLine
 10
-113.1717831817191
 20
-1133.645902714626
 30
0.0
 11
-98.17178318171915
 21
-1148.645902714626
 31
0.0
  0
LINE
  5
63
330
1F
100
AcDbEntity
  8
0-0
  6
Continuous
 62
     7
370
     9
100
AcDbLine
 10
-626.1717831817199
 20
-1133.645902714626
 30
0.0
 11
-113.1717831817191
 21
-1133.645902714626
 31
0.0
  0
LINE
  5
64
330
1F
100
AcDbEntity
  8
0-0
  6
Continuous
 62
    92
370
    13
100
AcDbLine
 10
-656.1717831817199
 20
-1163.645902714626
 30
0.0
 11
-83.17178318171915
 21
-1163.645902714626
 31
0.0
  0
LINE
  5
65
330
1F
100
AcDbEntity
  8
0-0
  6
Continuous
 62
     7
370
     9
100
AcDbLine
 10
153.8282168182802
 20
-1163.645902714626
 30
0.0
 11
138.8282168182802
 21
-1178.645902714626
 31
0.0
  0
LINE
  5
66
330
1F
100
AcDbEntity
  8
0-0
  6
Continuous
 62
     7
370
     9
100
AcDbLine
 10
726.8282168182807
 20
-1163.645902714626
 30
0.0
 11
741.8282168182807
 21
-1178.645902714626
 31
0.0
  0
LINE
  5
67
330
1F
100
AcDbEntity
  8
0-0
  6
Continuous
 62
     7
370
     9
100
AcDbLine
 10
138.8282168182802
 20
-1178.645902714626
 30
0.0
 11
741.8282168182807
 21
-1178.645902714626
 31
0.0
  0
LINE
  5
68
330
1F
100
AcDbEntity
  8
0-0
  6
Continuous
 62
     7
370
     9
100
AcDbLine
 10
183.8282168182802
 20
-1133.645902714626
 30
0.0
 11
168.8282168182802
 21
-1148.645902714626
 31
0.0
  0
LINE
  5
69
330
1F
100
AcDbEntity
  8
0-0
  6
Continuous
 62
     7
370
     9
100
AcDbLine
 10
696.8282168182807
 20
-1133.645902714626
 30
0.0
 11
711.8282168182807
 21
-1148.645902714626
 31
0.0
  0
LINE
  5
6A
330
1F
100
AcDbEntity
  8
0-0
  6
Continuous
 62
     7
370
     9
100
AcDbLine
 10
183.8282168182802
 20
-1133.645902714626
 30
0.0
 11
696.8282168182807
 21
-1133.645902714626
 31
0.0
  0
LINE
  5
6B
330
1F
100
AcDbEntity
  8
0-0
  6
Continuous
 62
    92
370
    13
100
AcDbLine
 10
153.8282168182802
 20
-1163.645902714626
 30
0.0
 11
726.8282168182807
 21
-1163.645902714626
 31
0.0
  0
LINE
  5
6C
330
1F
100
AcDbEntity
  8
0-0
  6
Continuous
 62
    92
370
    13
100
AcDbLine
 10
-1581.67178318172
 20
913.3540972853746
 30
0.0
 11
1652.32821681828
 21
913.3540972853746
 31
0.0
  0
LINE
  5
6D
330
1F
100
AcDbEntity
  8
0-0
  6
Continuous
 62
    92
370
    13
100
AcDbLine
 10
-1551.67178318172
 20
877.3540972853732
 30
0.0
 11
1622.32821681828
 21
877.3540972853732
 31
0.0
  0
LINE
  5
6E
330
1F
100
AcDbEntity
  8
0-0
  6
Continuous
 62
    92
370
    13
100
AcDbLine
 10
1622.32821681828
 20
-1333.645902714626
 30
0.0
 11
1622.32821681828
 21
913.3540972853746
 31
0.0
  0
LINE
  5
6F
330
1F
100
AcDbEntity
  8
0-0
  6
Continuous
 62
    92
370
    13
100
AcDbLine
 10
-1551.67178318172
 20
-1333.645902714626
 30
0.0
 11
-1551.67178318172
 21
913.3540972853746
 31
0.0
  0
LINE
  5
70
330
1F
100
AcDbEntity
  8
0-0
  6
Continuous
 62
    92
370
    13
100
AcDbLine
 10
1652.32821681828
 20
-1333.645902714626
 30
0.0
 11
1652.32821681828
 21
913.3540972853746
 31
0.0
  0
LINE
  5
71
330
1F
100
AcDbEntity
  8
0-0
  6
Continuous
 62
    92
370
    13
100
AcDbLine
 10
-1581.67178318172
 20
-1333.645902714626
 30
0.0
 11
-1581.67178318172
 21
913.3540972853746
 31
0.0
  0
LINE
  5
72
330
1F
100
AcDbEntity
  8
0-0
  6
Continuous
 62
    92
370
    13
100
AcDbLine
 10
-774.6717831817195
 20
-1313.645902714626
 30
0.0
 11
-774.6717831817195
 21
869.3540972853737
 31
0.0
  0
LINE
  5
73
330
1F
100
AcDbEntity
  8
0-0
  6
JWW_DASHED1
 62
   120
370
     5
100
AcDbLine
 10
-744.6717831817195
 20
-1313.645902714626
 30
0.0
 11
-744.6717831817195
 21
869.3540972853737
 31
0.0
  0
LINE
  5
74
330
1F
100
AcDbEntity
  8
0-0
  6
Continuous
 62
    92
370
    13
100
AcDbLine
 10
-774.6717831817195
 20
869.3540972853737
 30
0.0
 11
35.3282168182805
 21
869.3540972853737
 31
0.0
  0
LINE
  5
75
330
1F
100
AcDbEntity
  8
0-0
  6
Continuous
 62
    92
370
    13
100
AcDbLine
 10
35.3282168182805
 20
-1313.645902714626
 30
0.0
 11
35.3282168182805
 21
869.3540972853737
 31
0.0
  0
LINE
  5
76
330
1F
100
AcDbEntity
  8
0-0
  6
Continuous
 62
    92
370
    13
100
AcDbLine
 10
845.3282168182805
 20
-1313.645902714626
 30
0.0
 11
845.3282168182805
 21
869.3540972853737
 31
0.0
  0
LINE
  5
77
330
1F
100
AcDbEntity
  8
0-0
  6
JWW_DASHED1
 62
   120
370
     5
100
AcDbLine
 10
815.3282168182805
 20
-1313.645902714626
 30
0.0
 11
815.3282168182805
 21
869.3540972853737
 31
0.0
  0
LINE
  5
78
330
1F
100
AcDbEntity
  8
0-0
  6
Continuous
 62
    92
370
    13
100
AcDbLine
 10
845.3282168182805
 20
869.3540972853737
 30
0.0
 11
35.3282168182805
 21
869.3540972853737
 31
0.0
  0
LINE
  5
79
330
1F
100
AcDbEntity
  8
0-0
  6
JWW_DASHED1
 62
   120
370
     5
100
AcDbLine
 10
815.3282168182814
 20
-1318.645902714627
 30
0.0
 11
815.3282168182814
 21
877.3540972853732
 31
0.0
  0
LINE
  5
7A
330
1F
100
AcDbEntity
  8
0-0
  6
JWW_DASHED1
 62
   120
370
     5
100
AcDbLine
 10
845.3282168182814
 20
-1318.645902714627
 30
0.0
 11
845.3282168182814
 21
877.3540972853732
 31
0.0
  0
LINE
  5
7B
330
1F
100
AcDbEntity
  8
0-0
  6
JWW_DASHED1
 62
   120
370
     5
100
AcDbLine
 10
-774.6717831817186
 20
-1318.645902714627
 30
0.0
 11
-774.6717831817186
 21
877.3540972853732
 31
0.0
  0
LINE
  5
7C
330
1F
100
AcDbEntity
  8
0-0
  6
JWW_DASHED1
 62
   120
370
     5
100
AcDbLine
 10
-744.6717831817186
 20
-1318.645902714627
 30
0.0
 11
-744.6717831817186
 21
877.3540972853732
 31
0.0
  0
LINE
  5
7D
330
1F
100
AcDbEntity
  8
0-0
  6
Continuous
 62
     7
370
     9
100
AcDbLine
 10
-671.1717831817199
 20
-1313.645902714626
 30
0.0
 11
-671.1717831817199
 21
869.3540972853737
 31
0.0
  0
LINE
  5
7E
330
1F
100
AcDbEntity
  8
0-0
  6
Continuous
 62
     7
370
     9
100
AcDbLine
 10
-68.17178318171915
 20
-1313.645902714626
 30
0.0
 11
-68.17178318171915
 21
869.3540972853737
 31
0.0
  0
LINE
  5
7F
330
1F
100
AcDbEntity
  8
0-0
  6
Continuous
 62
     7
370
     9
100
AcDbLine
 10
-656.1717831817199
 20
-440.6459027146261
 30
0.0
 11
-671.1717831817199
 21
-455.6459027146261
 31
0.0
  0
LINE
  5
80
330
1F
100
AcDbEntity
  8
0-0
  6
Continuous
 62
     7
370
     9
100
AcDbLine
 10
-671.1717831817199
 20
-530.6459027146261
 30
0.0
 11
-656.1717831817199
 21
-545.6459027146261
 31
0.0
  0
LINE
  5
81
330
1F
100
AcDbEntity
  8
0-0
  6
Continuous
 62
     7
370
     9
100
AcDbLine
 10
-83.17178318171915
 20
-440.6459027146261
 30
0.0
 11
-68.17178318171915
 21
-455.6459027146261
 31
0.0
  0
LINE
  5
82
330
1F
100
AcDbEntity
  8
0-0
  6
Continuous
 62
     7
370
     9
100
AcDbLine
 10
-68.17178318171915
 20
-530.6459027146261
 30
0.0
 11
-83.17178318171915
 21
-545.6459027146261
 31
0.0
  0
LINE
  5
83
330
1F
100
AcDbEntity
  8
0-0
  6
Continuous
 62
     7
370
     9
100
AcDbLine
 10
-671.1717831817199
 20
-455.6459027146261
 30
0.0
 11
-68.17178318171915
 21
-455.6459027146261
 31
0.0
  0
LINE
  5
84
330
1F
100
AcDbEntity
  8
0-0
  6
Continuous
 62
     7
370
     9
100
AcDbLine
 10
-671.1717831817199
 20
-530.6459027146261
 30
0.0
 11
-68.17178318171915
 21
-530.6459027146261
 31
0.0
  0
LINE
  5
85
330
1F
100
AcDbEntity
  8
0-0
  6
Continuous
 62
     7
370
     9
100
AcDbLine
 10
-626.1717831817199
 20
-1133.645902714626
 30
0.0
 11
-626.1717831817199
 21
-575.6459027146261
 31
0.0
  0
LINE
  5
86
330
1F
100
AcDbEntity
  8
0-0
  6
Continuous
 62
     7
370
     9
100
AcDbLine
 10
-641.1717831817199
 20
-560.6459027146261
 30
0.0
 11
-626.1717831817199
 21
-575.6459027146261
 31
0.0
  0
LINE
  5
87
330
1F
100
AcDbEntity
  8
0-0
  6
Continuous
 62
     7
370
     9
100
AcDbLine
 10
-98.17178318171915
 20
-560.6459027146261
 30
0.0
 11
-113.1717831817191
 21
-575.6459027146261
 31
0.0
  0
LINE
  5
88
330
1F
100
AcDbEntity
  8
0-0
  6
Continuous
 62
     7
370
     9
100
AcDbLine
 10
-626.1717831817199
 20
-575.6459027146261
 30
0.0
 11
-113.1717831817191
 21
-575.6459027146261
 31
0.0
  0
LINE
  5
89
330
1F
100
AcDbEntity
  8
0-0
  6
Continuous
 62
     7
370
     9
100
AcDbLine
 10
-113.1717831817191
 20
-1133.645902714626
 30
0.0
 11
-113.1717831817191
 21
-575.6459027146261
 31
0.0
  0
LINE
  5
8A
330
1F
100
AcDbEntity
  8
0-0
  6
Continuous
 62
     7
370
     9
100
AcDbLine
 10
-656.1717831817216
 20
674.3538297410655
 30
0.0
 11
-671.1721790906656
 21
689.3542256500065
 31
0.0
  0
LINE
  5
8B
330
1F
100
AcDbEntity
  8
0-0
  6
Continuous
 62
     7
370
     9
100
AcDbLine
 10
-83.17178318171915
 20
674.3538297410655
 30
0.0
 11
-68.17178318171915
 21
689.3538297410655
 31
0.0
  0
ARC
  5
8C
330
1F
100
AcDbEntity
  8
0-0
  6
Continuous
 62
     7
370
     9
100
AcDbCircle
 10
-607.1591206103076
 20
824.3538297410655
 30
0.0
 40
135.0
100
AcDbArc
 50
270.0
 51
298.3577011236671
  0
ARC
  5
8D
330
1F
100
AcDbEntity
  8
0-0
  6
Continuous
 62
     7
370
     9
100
AcDbCircle
 10
-132.1844457531315
 20
824.3538297410655
 30
0.0
 40
135.0
100
AcDbArc
 50
241.6422988763328
 51
270.0
  0
ARC
  5
8E
330
1F
100
AcDbEntity
  8
0-0
  6
Continuous
 62
     7
370
     9
100
AcDbCircle
 10
-369.6717831817195
 20
384.3540972853739
 30
0.0
 40
365.0
100
AcDbArc
 50
61.64229887633292
 51
118.3577011236671
  0
LINE
  5
8F
330
1F
100
AcDbEntity
  8
0-0
  6
Continuous
 62
     7
370
     9
100
AcDbLine
 10
-671.171832669689
 20
689.3538792290294
 30
0.0
 11
-607.1591206103076
 21
689.3538792290294
 31
0.0
  0
LINE
  5
90
330
1F
100
AcDbEntity
  8
0-0
  6
Continuous
 62
     7
370
     9
100
AcDbLine
 10
-68.17173369375342
 20
689.3538792290294
 30
0.0
 11
-132.1844457531315
 21
689.3538792290294
 31
0.0
  0
LINE
  5
91
330
1F
100
AcDbEntity
  8
0-0
  6
Continuous
 62
    92
370
    13
100
AcDbLine
 10
-656.1717831817199
 20
-545.6459027146261
 30
0.0
 11
-83.17178318171915
 21
-545.6459027146261
 31
0.0
  0
LINE
  5
92
330
1F
100
AcDbEntity
  8
0-0
  6
Continuous
 62
    92
370
    13
100
AcDbLine
 10
-656.1717831817199
 20
-1163.645902714626
 30
0.0
 11
-656.1717831817199
 21
-545.6459027146261
 31
0.0
  0
LINE
  5
93
330
1F
100
AcDbEntity
  8
0-0
  6
Continuous
 62
    92
370
    13
100
AcDbLine
 10
-83.17178318171915
 20
-1163.645902714626
 30
0.0
 11
-83.17178318171915
 21
-545.6459027146261
 31
0.0
  0
LINE
  5
94
330
1F
100
AcDbEntity
  8
0-0
  6
Continuous
 62
    92
370
    13
100
AcDbLine
 10
-83.17178318171915
 20
674.3538297410655
 30
0.0
 11
-132.1844457531315
 21
674.3538297410655
 31
0.0
  0
ARC
  5
95
330
1F
100
AcDbEntity
  8
0-0
  6
Continuous
 62
    92
370
    13
100
AcDbCircle
 10
-132.1844457531315
 20
824.3538297410655
 30
0.0
 40
150.0
100
AcDbArc
 50
241.6422988763328
 51
270.0
  0
ARC
  5
96
330
1F
100
AcDbEntity
  8
0-0
  6
Continuous
 62
    92
370
    13
100
AcDbCircle
 10
-369.6717831817195
 20
384.3540972853739
 30
0.0
 40
350.0
100
AcDbArc
 50
61.64229887633292
 51
118.3577011236671
  0
ARC
  5
97
330
1F
100
AcDbEntity
  8
0-0
  6
Continuous
 62
    92
370
    13
100
AcDbCircle
 10
-607.1591206103076
 20
824.3538297410655
 30
0.0
 40
150.0
100
AcDbArc
 50
270.0
 51
298.3577011236671
  0
LINE
  5
98
330
1F
100
AcDbEntity
  8
0-0
  6
Continuous
 62
    92
370
    13
100
AcDbLine
 10
-656.1717831817216
 20
674.3538297410655
 30
0.0
 11
-607.1591206103076
 21
674.3538297410655
 31
0.0
  0
LINE
  5
99
330
1F
100
AcDbEntity
  8
0-0
  6
Continuous
 62
    92
370
    13
100
AcDbLine
 10
-656.1717831817199
 20
-440.6459027146261
 30
0.0
 11
-656.1717831817199
 21
674.3538297410655
 31
0.0
  0
LINE
  5
9A
330
1F
100
AcDbEntity
  8
0-0
  6
Continuous
 62
    92
370
    13
100
AcDbLine
 10
-656.1717831817199
 20
-440.6459027146261
 30
0.0
 11
-83.17178318171915
 21
-440.6459027146261
 31
0.0
  0
LINE
  5
9B
330
1F
100
AcDbEntity
  8
0-0
  6
Continuous
 62
    92
370
    13
100
AcDbLine
 10
-83.17178318171915
 20
-440.6459027146261
 30
0.0
 11
-83.17178318171915
 21
674.3538297410655
 31
0.0
  0
LINE
  5
9C
330
1F
100
AcDbEntity
  8
0-0
  6
Continuous
 62
     7
370
     9
100
AcDbLine
 10
138.8282168182802
 20
-1313.645902714626
 30
0.0
 11
138.8282168182802
 21
869.3540972853737
 31
0.0
  0
LINE
  5
9D
330
1F
100
AcDbEntity
  8
0-0
  6
Continuous
 62
     7
370
     9
100
AcDbLine
 10
741.8282168182807
 20
-1313.645902714626
 30
0.0
 11
741.8282168182807
 21
869.3540972853737
 31
0.0
  0
LINE
  5
9E
330
1F
100
AcDbEntity
  8
0-0
  6
Continuous
 62
     7
370
     9
100
AcDbLine
 10
153.8282168182802
 20
-440.6459027146261
 30
0.0
 11
138.8282168182802
 21
-455.6459027146261
 31
0.0
  0
LINE
  5
9F
330
1F
100
AcDbEntity
  8
0-0
  6
Continuous
 62
     7
370
     9
100
AcDbLine
 10
138.8282168182802
 20
-530.6459027146261
 30
0.0
 11
153.8282168182802
 21
-545.6459027146261
 31
0.0
  0
LINE
  5
A0
330
1F
100
AcDbEntity
  8
0-0
  6
Continuous
 62
     7
370
     9
100
AcDbLine
 10
726.8282168182807
 20
-440.6459027146261
 30
0.0
 11
741.8282168182807
 21
-455.6459027146261
 31
0.0
  0
LINE
  5
A1
330
1F
100
AcDbEntity
  8
0-0
  6
Continuous
 62
     7
370
     9
100
AcDbLine
 10
741.8282168182807
 20
-530.6459027146261
 30
0.0
 11
726.8282168182807
 21
-545.6459027146261
 31
0.0
  0
LINE
  5
A2
330
1F
100
AcDbEntity
  8
0-0
  6
Continuous
 62
     7
370
     9
100
AcDbLine
 10
138.8282168182802
 20
-455.6459027146261
 30
0.0
 11
741.8282168182807
 21
-455.6459027146261
 31
0.0
  0
LINE
  5
A3
330
1F
100
AcDbEntity
  8
0-0
  6
Continuous
 62
     7
370
     9
100
AcDbLine
 10
138.8282168182802
 20
-530.6459027146261
 30
0.0
 11
741.8282168182807
 21
-530.6459027146261
 31
0.0
  0
LINE
  5
A4
330
1F
100
AcDbEntity
  8
0-0
  6
Continuous
 62
     7
370
     9
100
AcDbLine
 10
183.8282168182802
 20
-1133.645902714626
 30
0.0
 11
183.8282168182802
 21
-575.6459027146261
 31
0.0
  0
LINE
  5
A5
330
1F
100
AcDbEntity
  8
0-0
  6
Continuous
 62
     7
370
     9
100
AcDbLine
 10
168.8282168182802
 20
-560.6459027146261
 30
0.0
 11
183.8282168182802
 21
-575.6459027146261
 31
0.0
  0
LINE
  5
A6
330
1F
100
AcDbEntity
  8
0-0
  6
Continuous
 62
     7
370
     9
100
AcDbLine
 10
711.8282168182807
 20
-560.6459027146261
 30
0.0
 11
696.8282168182807
 21
-575.6459027146261
 31
0.0
  0
LINE
  5
A7
330
1F
100
AcDbEntity
  8
0-0
  6
Continuous
 62
     7
370
     9
100
AcDbLine
 10
183.8282168182802
 20
-575.6459027146261
 30
0.0
 11
696.8282168182807
 21
-575.6459027146261
 31
0.0
  0
LINE
  5
A8
330
1F
100
AcDbEntity
  8
0-0
  6
Continuous
 62
     7
370
     9
100
AcDbLine
 10
696.8282168182807
 20
-1133.645902714626
 30
0.0
 11
696.8282168182807
 21
-575.6459027146261
 31
0.0
  0
LINE
  5
A9
330
1F
100
AcDbEntity
  8
0-0
  6
Continuous
 62
     7
370
     9
100
AcDbLine
 10
153.8282168182785
 20
674.3538297410655
 30
0.0
 11
138.8278209093344
 21
689.3542256500065
 31
0.0
  0
LINE
  5
AA
330
1F
100
AcDbEntity
  8
0-0
  6
Continuous
 62
     7
370
     9
100
AcDbLine
 10
726.8282168182807
 20
674.3538297410655
 30
0.0
 11
741.8282168182807
 21
689.3538297410655
 31
0.0
  0
ARC
  5
AB
330
1F
100
AcDbEntity
  8
0-0
  6
Continuous
 62
     7
370
     9
100
AcDbCircle
 10
202.8408793896925
 20
824.3538297410655
 30
0.0
 40
135.0
100
AcDbArc
 50
270.0
 51
298.3577011236671
  0
ARC
  5
AC
330
1F
100
AcDbEntity
  8
0-0
  6
Continuous
 62
     7
370
     9
100
AcDbCircle
 10
677.8155542468685
 20
824.3538297410655
 30
0.0
 40
135.0
100
AcDbArc
 50
241.6422988763328
 51
270.0
  0
ARC
  5
AD
330
1F
100
AcDbEntity
  8
0-0
  6
Continuous
 62
     7
370
     9
100
AcDbCircle
 10
440.3282168182805
 20
384.3540972853739
 30
0.0
 40
365.0
100
AcDbArc
 50
61.64229887633292
 51
118.3577011236671
  0
LINE
  5
AE
330
1F
100
AcDbEntity
  8
0-0
  6
Continuous
 62
     7
370
     9
100
AcDbLine
 10
138.828167330311
 20
689.3538792290294
 30
0.0
 11
202.8408793896925
 21
689.3538792290294
 31
0.0
  0
LINE
  5
AF
330
1F
100
AcDbEntity
  8
0-0
  6
Continuous
 62
     7
370
     9
100
AcDbLine
 10
741.8282663062464
 20
689.3538792290294
 30
0.0
 11
677.8155542468685
 21
689.3538792290294
 31
0.0
  0
LINE
  5
B0
330
1F
100
AcDbEntity
  8
0-0
  6
Continuous
 62
    92
370
    13
100
AcDbLine
 10
153.8282168182802
 20
-545.6459027146261
 30
0.0
 11
726.8282168182807
 21
-545.6459027146261
 31
0.0
  0
LINE
  5
B1
330
1F
100
AcDbEntity
  8
0-0
  6
Continuous
 62
    92
370
    13
100
AcDbLine
 10
153.8282168182802
 20
-1163.645902714626
 30
0.0
 11
153.8282168182802
 21
-545.6459027146261
 31
0.0
  0
LINE
  5
B2
330
1F
100
AcDbEntity
  8
0-0
  6
Continuous
 62
    92
370
    13
100
AcDbLine
 10
726.8282168182807
 20
-1163.645902714626
 30
0.0
 11
726.8282168182807
 21
-545.6459027146261
 31
0.0
  0
LINE
  5
B3
330
1F
100
AcDbEntity
  8
0-0
  6
Continuous
 62
    92
370
    13
100
AcDbLine
 10
726.8282168182807
 20
674.3538297410655
 30
0.0
 11
677.8155542468685
 21
674.3538297410655
 31
0.0
  0
ARC
  5
B4
330
1F
100
AcDbEntity
  8
0-0
  6
Continuous
 62
    92
370
    13
100
AcDbCircle
 10
677.8155542468685
 20
824.3538297410655
 30
0.0
 40
150.0
100
AcDbArc
 50
241.6422988763328
 51
270.0
  0
ARC
  5
B5
330
1F
100
AcDbEntity
  8
0-0
  6
Continuous
 62
    92
370
    13
100
AcDbCircle
 10
440.3282168182805
 20
384.3540972853739
 30
0.0
 40
350.0
100
AcDbArc
 50
61.64229887633292
 51
118.3577011236671
  0
ARC
  5
B6
330
1F
100
AcDbEntity
  8
0-0
  6
Continuous
 62
    92
370
    13
100
AcDbCircle
 10
202.8408793896925
 20
824.3538297410655
 30
0.0
 40
150.0
100
AcDbArc
 50
270.0
 51
298.3577011236671
  0
LINE
  5
B7
330
1F
100
AcDbEntity
  8
0-0
  6
Continuous
 62
    92
370
    13
100
AcDbLine
 10
153.8282168182785
 20
674.3538297410655
 30
0.0
 11
202.8408793896925
 21
674.3538297410655
 31
0.0
  0
LINE
  5
B8
330
1F
100
AcDbEntity
  8
0-0
  6
Continuous
 62
    92
370
    13
100
AcDbLine
 10
153.8282168182802
 20
-440.6459027146261
 30
0.0
 11
153.8282168182802
 21
674.3538297410655
 31
0.0
  0
LINE
  5
B9
330
1F
100
AcDbEntity
  8
0-0
  6
Continuous
 62
    92
370
    13
100
AcDbLine
 10
153.8282168182802
 20
-440.6459027146261
 30
0.0
 11
726.8282168182807
 21
-440.6459027146261
 31
0.0
  0
LINE
  5
BA
330
1F
100
AcDbEntity
  8
0-0
  6
Continuous
 62
    92
370
    13
100
AcDbLine
 10
726.8282168182807
 20
-440.6459027146261
 30
0.0
 11
726.8282168182807
 21
674.3538297410655
 31
0.0
  0
LINE
  5
BB
330
1F
100
AcDbEntity
  8
0-0
  6
JWW_DASHED1
 62
   120
370
     5
100
AcDbLine
 10
-656.1717831817199
 20
-439.6460510285697
 30
0.0
 11
-83.17178318171915
 21
-439.6460510285697
 31
0.0
  0
LINE
  5
BC
330
1F
100
AcDbEntity
  8
0-0
  6
JWW_DASHED1
 62
   120
370
     5
100
AcDbLine
 10
-656.1717831817199
 20
-426.64605102747
 30
0.0
 11
-83.17178318171915
 21
-426.64605102747
 31
0.0
  0
LINE
  5
BD
330
1F
100
AcDbEntity
  8
0-0
  6
JWW_DASHED1
 62
   120
370
     5
100
AcDbLine
 10
-656.1717831817199
 20
-425.6460510275699
 30
0.0
 11
-83.17178318171915
 21
-425.6460510275699
 31
0.0
  0
LINE
  5
BE
330
1F
100
AcDbEntity
  8
0-0
  6
JWW_DASHED1
 62
   120
370
     5
100
AcDbLine
 10
-656.1717831817199
 20
-412.6460510264702
 30
0.0
 11
-83.17178318171915
 21
-412.6460510264702
 31
0.0
  0
LINE
  5
BF
330
1F
100
AcDbEntity
  8
0-0
  6
JWW_DASHED1
 62
   120
370
     5
100
AcDbLine
 10
-656.1717831817199
 20
-411.64605102657
 30
0.0
 11
-83.17178318171915
 21
-411.64605102657
 31
0.0
  0
LINE
  5
C0
330
1F
100
AcDbEntity
  8
0-0
  6
JWW_DASHED1
 62
   120
370
     5
100
AcDbLine
 10
-656.1717831817199
 20
-398.6460510254705
 30
0.0
 11
-83.17178318171915
 21
-398.6460510254705
 31
0.0
  0
LINE
  5
C1
330
1F
100
AcDbEntity
  8
0-0
  6
JWW_DASHED1
 62
   120
370
     5
100
AcDbLine
 10
-656.1717831817199
 20
-397.6460510255703
 30
0.0
 11
-83.17178318171915
 21
-397.6460510255703
 31
0.0
  0
LINE
  5
C2
330
1F
100
AcDbEntity
  8
0-0
  6
JWW_DASHED1
 62
   120
370
     5
100
AcDbLine
 10
-656.1717831817199
 20
-384.6460510244707
 30
0.0
 11
-83.17178318171915
 21
-384.6460510244707
 31
0.0
  0
LINE
  5
C3
330
1F
100
AcDbEntity
  8
0-0
  6
JWW_DASHED1
 62
   120
370
     5
100
AcDbLine
 10
-656.1717831817199
 20
-383.6460510245705
 30
0.0
 11
-83.17178318171915
 21
-383.6460510245705
 31
0.0
  0
LINE
  5
C4
330
1F
100
AcDbEntity
  8
0-0
  6
JWW_DASHED1
 62
   120
370
     5
100
AcDbLine
 10
-656.1717831817199
 20
-370.6460510234709
 30
0.0
 11
-83.17178318171915
 21
-370.6460510234709
 31
0.0
  0
LINE
  5
C5
330
1F
100
AcDbEntity
  8
0-0
  6
JWW_DASHED1
 62
   120
370
     5
100
AcDbLine
 10
-656.1717831817199
 20
-369.6460510235707
 30
0.0
 11
-83.17178318171915
 21
-369.6460510235707
 31
0.0
  0
LINE
  5
C6
330
1F
100
AcDbEntity
  8
0-0
  6
JWW_DASHED1
 62
   120
370
     5
100
AcDbLine
 10
-656.1717831817199
 20
-356.6460510224711
 30
0.0
 11
-83.17178318171915
 21
-356.6460510224711
 31
0.0
  0
LINE
  5
C7
330
1F
100
AcDbEntity
  8
0-0
  6
JWW_DASHED1
 62
   120
370
     5
100
AcDbLine
 10
-656.1717831817199
 20
-355.6460510225709
 30
0.0
 11
-83.17178318171915
 21
-355.6460510225709
 31
0.0
  0
LINE
  5
C8
330
1F
100
AcDbEntity
  8
0-0
  6
JWW_DASHED1
 62
   120
370
     5
100
AcDbLine
 10
-656.1717831817199
 20
-342.6460510214713
 30
0.0
 11
-83.17178318171915
 21
-342.6460510214713
 31
0.0
  0
LINE
  5
C9
330
1F
100
AcDbEntity
  8
0-0
  6
JWW_DASHED1
 62
   120
370
     5
100
AcDbLine
 10
-656.1717831817199
 20
-341.6460510215711
 30
0.0
 11
-83.17178318171915
 21
-341.6460510215711
 31
0.0
  0
LINE
  5
CA
330
1F
100
AcDbEntity
  8
0-0
  6
JWW_DASHED1
 62
   120
370
     5
100
AcDbLine
 10
-656.1717831817199
 20
-328.6460510204715
 30
0.0
 11
-83.17178318171915
 21
-328.6460510204715
 31
0.0
  0
LINE
  5
CB
330
1F
100
AcDbEntity
  8
0-0
  6
JWW_DASHED1
 62
   120
370
     5
100
AcDbLine
 10
-656.1717831817199
 20
-327.6460510205713
 30
0.0
 11
-83.17178318171915
 21
-327.6460510205713
 31
0.0
  0
LINE
  5
CC
330
1F
100
AcDbEntity
  8
0-0
  6
JWW_DASHED1
 62
   120
370
     5
100
AcDbLine
 10
-656.1717831817199
 20
-314.6460510194717
 30
0.0
 11
-83.17178318171915
 21
-314.6460510194717
 31
0.0
  0
LINE
  5
CD
330
1F
100
AcDbEntity
  8
0-0
  6
JWW_DASHED1
 62
   120
370
     5
100
AcDbLine
 10
-656.1717831817199
 20
-313.6460510195715
 30
0.0
 11
-83.17178318171915
 21
-313.6460510195715
 31
0.0
  0
LINE
  5
CE
330
1F
100
AcDbEntity
  8
0-0
  6
JWW_DASHED1
 62
   120
370
     5
100
AcDbLine
 10
-656.1717831817199
 20
-300.6460510184719
 30
0.0
 11
-83.17178318171915
 21
-300.6460510184719
 31
0.0
  0
LINE
  5
CF
330
1F
100
AcDbEntity
  8
0-0
  6
JWW_DASHED1
 62
   120
370
     5
100
AcDbLine
 10
-656.1717831817199
 20
-299.6460510185717
 30
0.0
 11
-83.17178318171915
 21
-299.6460510185717
 31
0.0
  0
LINE
  5
D0
330
1F
100
AcDbEntity
  8
0-0
  6
JWW_DASHED1
 62
   120
370
     5
100
AcDbLine
 10
-656.1717831817199
 20
-286.6460510174721
 30
0.0
 11
-83.17178318171915
 21
-286.6460510174721
 31
0.0
  0
LINE
  5
D1
330
1F
100
AcDbEntity
  8
0-0
  6
JWW_DASHED1
 62
   120
370
     5
100
AcDbLine
 10
-656.1717831817199
 20
-285.6460510175719
 30
0.0
 11
-83.17178318171915
 21
-285.6460510175719
 31
0.0
  0
LINE
  5
D2
330
1F
100
AcDbEntity
  8
0-0
  6
JWW_DASHED1
 62
   120
370
     5
100
AcDbLine
 10
-656.1717831817199
 20
-272.6460510164724
 30
0.0
 11
-83.17178318171915
 21
-272.6460510164724
 31
0.0
  0
LINE
  5
D3
330
1F
100
AcDbEntity
  8
0-0
  6
JWW_DASHED1
 62
   120
370
     5
100
AcDbLine
 10
-656.1717831817199
 20
-271.6460510165722
 30
0.0
 11
-83.17178318171915
 21
-271.6460510165722
 31
0.0
  0
LINE
  5
D4
330
1F
100
AcDbEntity
  8
0-0
  6
JWW_DASHED1
 62
   120
370
     5
100
AcDbLine
 10
-656.1717831817199
 20
-258.6460510154726
 30
0.0
 11
-83.17178318171915
 21
-258.6460510154726
 31
0.0
  0
LINE
  5
D5
330
1F
100
AcDbEntity
  8
0-0
  6
JWW_DASHED1
 62
   120
370
     5
100
AcDbLine
 10
-656.1717831817199
 20
-257.6460510155724
 30
0.0
 11
-83.17178318171915
 21
-257.6460510155724
 31
0.0
  0
LINE
  5
D6
330
1F
100
AcDbEntity
  8
0-0
  6
JWW_DASHED1
 62
   120
370
     5
100
AcDbLine
 10
-656.1717831817199
 20
-244.6460510144728
 30
0.0
 11
-83.17178318171915
 21
-244.6460510144728
 31
0.0
  0
LINE
  5
D7
330
1F
100
AcDbEntity
  8
0-0
  6
JWW_DASHED1
 62
   120
370
     5
100
AcDbLine
 10
-656.1717831817199
 20
-243.6460510145726
 30
0.0
 11
-83.17178318171915
 21
-243.6460510145726
 31
0.0
  0
LINE
  5
D8
330
1F
100
AcDbEntity
  8
0-0
  6
JWW_DASHED1
 62
   120
370
     5
100
AcDbLine
 10
-656.1717831817199
 20
-230.646051013473
 30
0.0
 11
-83.17178318171915
 21
-230.646051013473
 31
0.0
  0
LINE
  5
D9
330
1F
100
AcDbEntity
  8
0-0
  6
JWW_DASHED1
 62
   120
370
     5
100
AcDbLine
 10
-656.1717831817199
 20
-229.6460510135728
 30
0.0
 11
-83.17178318171915
 21
-229.6460510135728
 31
0.0
  0
LINE
  5
DA
330
1F
100
AcDbEntity
  8
0-0
  6
JWW_DASHED1
 62
   120
370
     5
100
AcDbLine
 10
-656.1717831817199
 20
-216.6460510124732
 30
0.0
 11
-83.17178318171915
 21
-216.6460510124732
 31
0.0
  0
LINE
  5
DB
330
1F
100
AcDbEntity
  8
0-0
  6
JWW_DASHED1
 62
   120
370
     5
100
AcDbLine
 10
-656.1717831817199
 20
-215.646051012573
 30
0.0
 11
-83.17178318171915
 21
-215.646051012573
 31
0.0
  0
LINE
  5
DC
330
1F
100
AcDbEntity
  8
0-0
  6
JWW_DASHED1
 62
   120
370
     5
100
AcDbLine
 10
-656.1717831817199
 20
-202.6460510114734
 30
0.0
 11
-83.17178318171915
 21
-202.6460510114734
 31
0.0
  0
LINE
  5
DD
330
1F
100
AcDbEntity
  8
0-0
  6
JWW_DASHED1
 62
   120
370
     5
100
AcDbLine
 10
-656.1717831817199
 20
-201.6460510115732
 30
0.0
 11
-83.17178318171915
 21
-201.6460510115732
 31
0.0
  0
LINE
  5
DE
330
1F
100
AcDbEntity
  8
0-0
  6
JWW_DASHED1
 62
   120
370
     5
100
AcDbLine
 10
-656.1717831817199
 20
-188.6460510104736
 30
0.0
 11
-83.17178318171915
 21
-188.6460510104736
 31
0.0
  0
LINE
  5
DF
330
1F
100
AcDbEntity
  8
0-0
  6
JWW_DASHED1
 62
   120
370
     5
100
AcDbLine
 10
-656.1717831817199
 20
-187.6460510105734
 30
0.0
 11
-83.17178318171915
 21
-187.6460510105734
 31
0.0
  0
LINE
  5
E0
330
1F
100
AcDbEntity
  8
0-0
  6
JWW_DASHED1
 62
   120
370
     5
100
AcDbLine
 10
-656.1717831817199
 20
-174.6460510094738
 30
0.0
 11
-83.17178318171915
 21
-174.6460510094738
 31
0.0
  0
LINE
  5
E1
330
1F
100
AcDbEntity
  8
0-0
  6
JWW_DASHED1
 62
   120
370
     5
100
AcDbLine
 10
-656.1717831817199
 20
-173.6460510095736
 30
0.0
 11
-83.17178318171915
 21
-173.6460510095736
 31
0.0
  0
LINE
  5
E2
330
1F
100
AcDbEntity
  8
0-0
  6
JWW_DASHED1
 62
   120
370
     5
100
AcDbLine
 10
-656.1717831817199
 20
-160.646051008474
 30
0.0
 11
-83.17178318171915
 21
-160.646051008474
 31
0.0
  0
LINE
  5
E3
330
1F
100
AcDbEntity
  8
0-0
  6
JWW_DASHED1
 62
   120
370
     5
100
AcDbLine
 10
-656.1717831817199
 20
-159.6460510085738
 30
0.0
 11
-83.17178318171915
 21
-159.6460510085738
 31
0.0
  0
LINE
  5
E4
330
1F
100
AcDbEntity
  8
0-0
  6
JWW_DASHED1
 62
   120
370
     5
100
AcDbLine
 10
-656.1717831817199
 20
-146.6460510074742
 30
0.0
 11
-83.17178318171915
 21
-146.6460510074742
 31
0.0
  0
LINE
  5
E5
330
1F
100
AcDbEntity
  8
0-0
  6
JWW_DASHED1
 62
   120
370
     5
100
AcDbLine
 10
-656.1717831817199
 20
-145.646051007574
 30
0.0
 11
-83.17178318171915
 21
-145.646051007574
 31
0.0
  0
LINE
  5
E6
330
1F
100
AcDbEntity
  8
0-0
  6
JWW_DASHED1
 62
   120
370
     5
100
AcDbLine
 10
-656.1717831817199
 20
-132.6460510064744
 30
0.0
 11
-83.17178318171915
 21
-132.6460510064744
 31
0.0
  0
LINE
  5
E7
330
1F
100
AcDbEntity
  8
0-0
  6
JWW_DASHED1
 62
   120
370
     5
100
AcDbLine
 10
-656.1717831817199
 20
-131.6460510065743
 30
0.0
 11
-83.17178318171915
 21
-131.6460510065743
 31
0.0
  0
LINE
  5
E8
330
1F
100
AcDbEntity
  8
0-0
  6
JWW_DASHED1
 62
   120
370
     5
100
AcDbLine
 10
-656.1717831817199
 20
-118.6460510054746
 30
0.0
 11
-83.17178318171915
 21
-118.6460510054746
 31
0.0
  0
LINE
  5
E9
330
1F
100
AcDbEntity
  8
0-0
  6
JWW_DASHED1
 62
   120
370
     5
100
AcDbLine
 10
-656.1717831817199
 20
-117.6460510055745
 30
0.0
 11
-83.17178318171915
 21
-117.6460510055745
 31
0.0
  0
LINE
  5
EA
330
1F
100
AcDbEntity
  8
0-0
  6
JWW_DASHED1
 62
   120
370
     5
100
AcDbLine
 10
-656.1717831817199
 20
-104.6460510044749
 30
0.0
 11
-83.17178318171915
 21
-104.6460510044749
 31
0.0
  0
LINE
  5
EB
330
1F
100
AcDbEntity
  8
0-0
  6
JWW_DASHED1
 62
   120
370
     5
100
AcDbLine
 10
-656.1717831817199
 20
-103.6460510045747
 30
0.0
 11
-83.17178318171915
 21
-103.6460510045747
 31
0.0
  0
LINE
  5
EC
330
1F
100
AcDbEntity
  8
0-0
  6
JWW_DASHED1
 62
   120
370
     5
100
AcDbLine
 10
-656.1717831817199
 20
-90.64605100347507
 30
0.0
 11
-83.17178318171915
 21
-90.64605100347507
 31
0.0
  0
LINE
  5
ED
330
1F
100
AcDbEntity
  8
0-0
  6
JWW_DASHED1
 62
   120
370
     5
100
AcDbLine
 10
-656.1717831817199
 20
-89.64605100357488
 30
0.0
 11
-83.17178318171915
 21
-89.64605100357488
 31
0.0
  0
LINE
  5
EE
330
1F
100
AcDbEntity
  8
0-0
  6
JWW_DASHED1
 62
   120
370
     5
100
AcDbLine
 10
-656.1717831817199
 20
-76.64605100247528
 30
0.0
 11
-83.17178318171915
 21
-76.64605100247528
 31
0.0
  0
LINE
  5
EF
330
1F
100
AcDbEntity
  8
0-0
  6
JWW_DASHED1
 62
   120
370
     5
100
AcDbLine
 10
-656.1717831817199
 20
-75.64605100257509
 30
0.0
 11
-83.17178318171915
 21
-75.64605100257509
 31
0.0
  0
LINE
  5
F0
330
1F
100
AcDbEntity
  8
0-0
  6
JWW_DASHED1
 62
   120
370
     5
100
AcDbLine
 10
-656.1717831817199
 20
-62.64605100147548
 30
0.0
 11
-83.17178318171915
 21
-62.64605100147548
 31
0.0
  0
LINE
  5
F1
330
1F
100
AcDbEntity
  8
0-0
  6
JWW_DASHED1
 62
   120
370
     5
100
AcDbLine
 10
-656.1717831817199
 20
-61.6460510015753
 30
0.0
 11
-83.17178318171915
 21
-61.6460510015753
 31
0.0
  0
LINE
  5
F2
330
1F
100
AcDbEntity
  8
0-0
  6
JWW_DASHED1
 62
   120
370
     5
100
AcDbLine
 10
-656.1717831817199
 20
-48.64605100047569
 30
0.0
 11
-83.17178318171915
 21
-48.64605100047569
 31
0.0
  0
LINE
  5
F3
330
1F
100
AcDbEntity
  8
0-0
  6
JWW_DASHED1
 62
   120
370
     5
100
AcDbLine
 10
-656.1717831817199
 20
-47.64605100057551
 30
0.0
 11
-83.17178318171915
 21
-47.64605100057551
 31
0.0
  0
LINE
  5
F4
330
1F
100
AcDbEntity
  8
0-0
  6
JWW_DASHED1
 62
   120
370
     5
100
AcDbLine
 10
-656.1717831817199
 20
-34.6460509994759
 30
0.0
 11
-83.17178318171915
 21
-34.6460509994759
 31
0.0
  0
LINE
  5
F5
330
1F
100
AcDbEntity
  8
0-0
  6
JWW_DASHED1
 62
   120
370
     5
100
AcDbLine
 10
-656.1717831817199
 20
-33.64605099957572
 30
0.0
 11
-83.17178318171915
 21
-33.64605099957572
 31
0.0
  0
LINE
  5
F6
330
1F
100
AcDbEntity
  8
0-0
  6
JWW_DASHED1
 62
   120
370
     5
100
AcDbLine
 10
-656.1717831817199
 20
-20.64605099847611
 30
0.0
 11
-83.17178318171915
 21
-20.64605099847611
 31
0.0
  0
LINE
  5
F7
330
1F
100
AcDbEntity
  8
0-0
  6
JWW_DASHED1
 62
   120
370
     5
100
AcDbLine
 10
-656.1717831817199
 20
-19.64605099857593
 30
0.0
 11
-83.17178318171915
 21
-19.64605099857593
 31
0.0
  0
LINE
  5
F8
330
1F
100
AcDbEntity
  8
0-0
  6
JWW_DASHED1
 62
   120
370
     5
100
AcDbLine
 10
-656.1717831817199
 20
-6.646050997476323
 30
0.0
 11
-83.17178318171915
 21
-6.646050997476323
 31
0.0
  0
LINE
  5
F9
330
1F
100
AcDbEntity
  8
0-0
  6
JWW_DASHED1
 62
   120
370
     5
100
AcDbLine
 10
-656.1717831817199
 20
-5.64605099757614
 30
0.0
 11
-83.17178318171915
 21
-5.64605099757614
 31
0.0
  0
LINE
  5
FA
330
1F
100
AcDbEntity
  8
0-0
  6
JWW_DASHED1
 62
   120
370
     5
100
AcDbLine
 10
-656.1717831817199
 20
7.353949003523468
 30
0.0
 11
-83.17178318171915
 21
7.353949003523468
 31
0.0
  0
LINE
  5
FB
330
1F
100
AcDbEntity
  8
0-0
  6
JWW_DASHED1
 62
   120
370
     5
100
AcDbLine
 10
-656.1717831817199
 20
8.35394900342365
 30
0.0
 11
-83.17178318171915
 21
8.35394900342365
 31
0.0
  0
LINE
  5
FC
330
1F
100
AcDbEntity
  8
0-0
  6
JWW_DASHED1
 62
   120
370
     5
100
AcDbLine
 10
-656.1717831817199
 20
21.35394900452326
 30
0.0
 11
-83.17178318171915
 21
21.35394900452326
 31
0.0
  0
LINE
  5
FD
330
1F
100
AcDbEntity
  8
0-0
  6
JWW_DASHED1
 62
   120
370
     5
100
AcDbLine
 10
-656.1717831817199
 20
22.35394900442344
 30
0.0
 11
-83.17178318171915
 21
22.35394900442344
 31
0.0
  0
LINE
  5
FE
330
1F
100
AcDbEntity
  8
0-0
  6
JWW_DASHED1
 62
   120
370
     5
100
AcDbLine
 10
-656.1717831817199
 20
35.35394900552305
 30
0.0
 11
-83.17178318171915
 21
35.35394900552305
 31
0.0
  0
LINE
  5
FF
330
1F
100
AcDbEntity
  8
0-0
  6
JWW_DASHED1
 62
   120
370
     5
100
AcDbLine
 10
-656.1717831817199
 20
36.35394900542323
 30
0.0
 11
-83.17178318171915
 21
36.35394900542323
 31
0.0
  0
LINE
  5
100
330
1F
100
AcDbEntity
  8
0-0
  6
JWW_DASHED1
 62
   120
370
     5
100
AcDbLine
 10
-656.1717831817199
 20
49.35394900652284
 30
0.0
 11
-83.17178318171915
 21
49.35394900652284
 31
0.0
  0
LINE
  5
101
330
1F
100
AcDbEntity
  8
0-0
  6
JWW_DASHED1
 62
   120
370
     5
100
AcDbLine
 10
-656.1717831817199
 20
50.35394900642302
 30
0.0
 11
-83.17178318171915
 21
50.35394900642302
 31
0.0
  0
LINE
  5
102
330
1F
100
AcDbEntity
  8
0-0
  6
JWW_DASHED1
 62
   120
370
     5
100
AcDbLine
 10
-656.1717831817199
 20
63.35394900752263
 30
0.0
 11
-83.17178318171915
 21
63.35394900752263
 31
0.0
  0
LINE
  5
103
330
1F
100
AcDbEntity
  8
0-0
  6
JWW_DASHED1
 62
   120
370
     5
100
AcDbLine
 10
-656.1717831817199
 20
64.35394900742281
 30
0.0
 11
-83.17178318171915
 21
64.35394900742281
 31
0.0
  0
LINE
  5
104
330
1F
100
AcDbEntity
  8
0-0
  6
JWW_DASHED1
 62
   120
370
     5
100
AcDbLine
 10
-656.1717831817199
 20
77.35394900852242
 30
0.0
 11
-83.17178318171915
 21
77.35394900852242
 31
0.0
  0
LINE
  5
105
330
1F
100
AcDbEntity
  8
0-0
  6
JWW_DASHED1
 62
   120
370
     5
100
AcDbLine
 10
-656.1717831817199
 20
78.3539490084226
 30
0.0
 11
-83.17178318171915
 21
78.3539490084226
 31
0.0
  0
LINE
  5
106
330
1F
100
AcDbEntity
  8
0-0
  6
JWW_DASHED1
 62
   120
370
     5
100
AcDbLine
 10
-656.1717831817199
 20
91.35394900952221
 30
0.0
 11
-83.17178318171915
 21
91.35394900952221
 31
0.0
  0
LINE
  5
107
330
1F
100
AcDbEntity
  8
0-0
  6
JWW_DASHED1
 62
   120
370
     5
100
AcDbLine
 10
-656.1717831817199
 20
92.3539490094224
 30
0.0
 11
-83.17178318171915
 21
92.3539490094224
 31
0.0
  0
LINE
  5
108
330
1F
100
AcDbEntity
  8
0-0
  6
JWW_DASHED1
 62
   120
370
     5
100
AcDbLine
 10
-656.1717831817199
 20
105.353949010522
 30
0.0
 11
-83.17178318171915
 21
105.353949010522
 31
0.0
  0
LINE
  5
109
330
1F
100
AcDbEntity
  8
0-0
  6
JWW_DASHED1
 62
   120
370
     5
100
AcDbLine
 10
-656.1717831817199
 20
106.3539490104222
 30
0.0
 11
-83.17178318171915
 21
106.3539490104222
 31
0.0
  0
LINE
  5
10A
330
1F
100
AcDbEntity
  8
0-0
  6
JWW_DASHED1
 62
   120
370
     5
100
AcDbLine
 10
-656.1717831817199
 20
119.3539490115218
 30
0.0
 11
-83.17178318171915
 21
119.3539490115218
 31
0.0
  0
LINE
  5
10B
330
1F
100
AcDbEntity
  8
0-0
  6
JWW_DASHED1
 62
   120
370
     5
100
AcDbLine
 10
-656.1717831817199
 20
120.353949011422
 30
0.0
 11
-83.17178318171915
 21
120.353949011422
 31
0.0
  0
LINE
  5
10C
330
1F
100
AcDbEntity
  8
0-0
  6
JWW_DASHED1
 62
   120
370
     5
100
AcDbLine
 10
-656.1717831817199
 20
133.3539490125216
 30
0.0
 11
-83.17178318171915
 21
133.3539490125216
 31
0.0
  0
LINE
  5
10D
330
1F
100
AcDbEntity
  8
0-0
  6
JWW_DASHED1
 62
   120
370
     5
100
AcDbLine
 10
-656.1717831817199
 20
134.3539490124218
 30
0.0
 11
-83.17178318171915
 21
134.3539490124218
 31
0.0
  0
LINE
  5
10E
330
1F
100
AcDbEntity
  8
0-0
  6
JWW_DASHED1
 62
   120
370
     5
100
AcDbLine
 10
-656.1717831817199
 20
147.3539490135214
 30
0.0
 11
-83.17178318171915
 21
147.3539490135214
 31
0.0
  0
LINE
  5
10F
330
1F
100
AcDbEntity
  8
0-0
  6
JWW_DASHED1
 62
   120
370
     5
100
AcDbLine
 10
-656.1717831817199
 20
148.3539490134216
 30
0.0
 11
-83.17178318171915
 21
148.3539490134216
 31
0.0
  0
LINE
  5
110
330
1F
100
AcDbEntity
  8
0-0
  6
JWW_DASHED1
 62
   120
370
     5
100
AcDbLine
 10
-656.1717831817199
 20
161.3539490145212
 30
0.0
 11
-83.17178318171915
 21
161.3539490145212
 31
0.0
  0
LINE
  5
111
330
1F
100
AcDbEntity
  8
0-0
  6
JWW_DASHED1
 62
   120
370
     5
100
AcDbLine
 10
-656.1717831817199
 20
162.3539490144213
 30
0.0
 11
-83.17178318171915
 21
162.3539490144213
 31
0.0
  0
LINE
  5
112
330
1F
100
AcDbEntity
  8
0-0
  6
JWW_DASHED1
 62
   120
370
     5
100
AcDbLine
 10
-656.1717831817199
 20
175.353949015521
 30
0.0
 11
-83.17178318171915
 21
175.353949015521
 31
0.0
  0
LINE
  5
113
330
1F
100
AcDbEntity
  8
0-0
  6
JWW_DASHED1
 62
   120
370
     5
100
AcDbLine
 10
-656.1717831817199
 20
176.3539490154211
 30
0.0
 11
-83.17178318171915
 21
176.3539490154211
 31
0.0
  0
LINE
  5
114
330
1F
100
AcDbEntity
  8
0-0
  6
JWW_DASHED1
 62
   120
370
     5
100
AcDbLine
 10
-656.1717831817199
 20
189.3539490165207
 30
0.0
 11
-83.17178318171915
 21
189.3539490165207
 31
0.0
  0
LINE
  5
115
330
1F
100
AcDbEntity
  8
0-0
  6
JWW_DASHED1
 62
   120
370
     5
100
AcDbLine
 10
-656.1717831817199
 20
190.3539490164209
 30
0.0
 11
-83.17178318171915
 21
190.3539490164209
 31
0.0
  0
LINE
  5
116
330
1F
100
AcDbEntity
  8
0-0
  6
JWW_DASHED1
 62
   120
370
     5
100
AcDbLine
 10
-656.1717831817199
 20
203.3539490175205
 30
0.0
 11
-83.17178318171915
 21
203.3539490175205
 31
0.0
  0
LINE
  5
117
330
1F
100
AcDbEntity
  8
0-0
  6
JWW_DASHED1
 62
   120
370
     5
100
AcDbLine
 10
-656.1717831817199
 20
204.3539490174207
 30
0.0
 11
-83.17178318171915
 21
204.3539490174207
 31
0.0
  0
LINE
  5
118
330
1F
100
AcDbEntity
  8
0-0
  6
JWW_DASHED1
 62
   120
370
     5
100
AcDbLine
 10
-656.1717831817199
 20
217.3539490185203
 30
0.0
 11
-83.17178318171915
 21
217.3539490185203
 31
0.0
  0
LINE
  5
119
330
1F
100
AcDbEntity
  8
0-0
  6
JWW_DASHED1
 62
   120
370
     5
100
AcDbLine
 10
-656.1717831817199
 20
218.3539490184205
 30
0.0
 11
-83.17178318171915
 21
218.3539490184205
 31
0.0
  0
LINE
  5
11A
330
1F
100
AcDbEntity
  8
0-0
  6
JWW_DASHED1
 62
   120
370
     5
100
AcDbLine
 10
-656.1717831817199
 20
231.3539490195201
 30
0.0
 11
-83.17178318171915
 21
231.3539490195201
 31
0.0
  0
LINE
  5
11B
330
1F
100
AcDbEntity
  8
0-0
  6
JWW_DASHED1
 62
   120
370
     5
100
AcDbLine
 10
-656.1717831817199
 20
232.3539490194203
 30
0.0
 11
-83.17178318171915
 21
232.3539490194203
 31
0.0
  0
LINE
  5
11C
330
1F
100
AcDbEntity
  8
0-0
  6
JWW_DASHED1
 62
   120
370
     5
100
AcDbLine
 10
-656.1717831817199
 20
245.3539490205199
 30
0.0
 11
-83.17178318171915
 21
245.3539490205199
 31
0.0
  0
LINE
  5
11D
330
1F
100
AcDbEntity
  8
0-0
  6
JWW_DASHED1
 62
   120
370
     5
100
AcDbLine
 10
-656.1717831817199
 20
246.3539490204201
 30
0.0
 11
-83.17178318171915
 21
246.3539490204201
 31
0.0
  0
LINE
  5
11E
330
1F
100
AcDbEntity
  8
0-0
  6
JWW_DASHED1
 62
   120
370
     5
100
AcDbLine
 10
-656.1717831817199
 20
259.3539490215197
 30
0.0
 11
-83.17178318171915
 21
259.3539490215197
 31
0.0
  0
LINE
  5
11F
330
1F
100
AcDbEntity
  8
0-0
  6
JWW_DASHED1
 62
   120
370
     5
100
AcDbLine
 10
-656.1717831817199
 20
260.3539490214199
 30
0.0
 11
-83.17178318171915
 21
260.3539490214199
 31
0.0
  0
LINE
  5
120
330
1F
100
AcDbEntity
  8
0-0
  6
JWW_DASHED1
 62
   120
370
     5
100
AcDbLine
 10
-656.1717831817199
 20
273.3539490225195
 30
0.0
 11
-83.17178318171915
 21
273.3539490225195
 31
0.0
  0
LINE
  5
121
330
1F
100
AcDbEntity
  8
0-0
  6
JWW_DASHED1
 62
   120
370
     5
100
AcDbLine
 10
-656.1717831817199
 20
274.3539490224197
 30
0.0
 11
-83.17178318171915
 21
274.3539490224197
 31
0.0
  0
LINE
  5
122
330
1F
100
AcDbEntity
  8
0-0
  6
JWW_DASHED1
 62
   120
370
     5
100
AcDbLine
 10
-656.1717831817199
 20
287.3539490235192
 30
0.0
 11
-83.17178318171915
 21
287.3539490235192
 31
0.0
  0
LINE
  5
123
330
1F
100
AcDbEntity
  8
0-0
  6
JWW_DASHED1
 62
   120
370
     5
100
AcDbLine
 10
-656.1717831817199
 20
288.3539490234194
 30
0.0
 11
-83.17178318171915
 21
288.3539490234194
 31
0.0
  0
LINE
  5
124
330
1F
100
AcDbEntity
  8
0-0
  6
JWW_DASHED1
 62
   120
370
     5
100
AcDbLine
 10
-656.1717831817199
 20
301.3539490245191
 30
0.0
 11
-83.17178318171915
 21
301.3539490245191
 31
0.0
  0
LINE
  5
125
330
1F
100
AcDbEntity
  8
0-0
  6
JWW_DASHED1
 62
   120
370
     5
100
AcDbLine
 10
-656.1717831817199
 20
302.3539490244193
 30
0.0
 11
-83.17178318171915
 21
302.3539490244193
 31
0.0
  0
LINE
  5
126
330
1F
100
AcDbEntity
  8
0-0
  6
JWW_DASHED1
 62
   120
370
     5
100
AcDbLine
 10
-656.1717831817199
 20
315.3539490255189
 30
0.0
 11
-83.17178318171915
 21
315.3539490255189
 31
0.0
  0
LINE
  5
127
330
1F
100
AcDbEntity
  8
0-0
  6
JWW_DASHED1
 62
   120
370
     5
100
AcDbLine
 10
-656.1717831817199
 20
316.3539490254191
 30
0.0
 11
-83.17178318171915
 21
316.3539490254191
 31
0.0
  0
LINE
  5
128
330
1F
100
AcDbEntity
  8
0-0
  6
JWW_DASHED1
 62
   120
370
     5
100
AcDbLine
 10
-656.1717831817199
 20
329.3539490265186
 30
0.0
 11
-83.17178318171915
 21
329.3539490265186
 31
0.0
  0
LINE
  5
129
330
1F
100
AcDbEntity
  8
0-0
  6
JWW_DASHED1
 62
   120
370
     5
100
AcDbLine
 10
-656.1717831817199
 20
330.3539490264188
 30
0.0
 11
-83.17178318171915
 21
330.3539490264188
 31
0.0
  0
LINE
  5
12A
330
1F
100
AcDbEntity
  8
0-0
  6
JWW_DASHED1
 62
   120
370
     5
100
AcDbLine
 10
-656.1717831817199
 20
343.3539490275184
 30
0.0
 11
-83.17178318171915
 21
343.3539490275184
 31
0.0
  0
LINE
  5
12B
330
1F
100
AcDbEntity
  8
0-0
  6
JWW_DASHED1
 62
   120
370
     5
100
AcDbLine
 10
-656.1717831817199
 20
344.3539490274186
 30
0.0
 11
-83.17178318171915
 21
344.3539490274186
 31
0.0
  0
LINE
  5
12C
330
1F
100
AcDbEntity
  8
0-0
  6
JWW_DASHED1
 62
   120
370
     5
100
AcDbLine
 10
-656.1717831817199
 20
357.3539490285182
 30
0.0
 11
-83.17178318171915
 21
357.3539490285182
 31
0.0
  0
LINE
  5
12D
330
1F
100
AcDbEntity
  8
0-0
  6
JWW_DASHED1
 62
   120
370
     5
100
AcDbLine
 10
-656.1717831817199
 20
358.3539490284184
 30
0.0
 11
-83.17178318171915
 21
358.3539490284184
 31
0.0
  0
LINE
  5
12E
330
1F
100
AcDbEntity
  8
0-0
  6
JWW_DASHED1
 62
   120
370
     5
100
AcDbLine
 10
-656.1717831817199
 20
371.353949029518
 30
0.0
 11
-83.17178318171915
 21
371.353949029518
 31
0.0
  0
LINE
  5
12F
330
1F
100
AcDbEntity
  8
0-0
  6
JWW_DASHED1
 62
   120
370
     5
100
AcDbLine
 10
-656.1717831817199
 20
372.3539490294182
 30
0.0
 11
-83.17178318171915
 21
372.3539490294182
 31
0.0
  0
LINE
  5
130
330
1F
100
AcDbEntity
  8
0-0
  6
JWW_DASHED1
 62
   120
370
     5
100
AcDbLine
 10
-656.1717831817199
 20
385.3539490305178
 30
0.0
 11
-83.17178318171915
 21
385.3539490305178
 31
0.0
  0
LINE
  5
131
330
1F
100
AcDbEntity
  8
0-0
  6
JWW_DASHED1
 62
   120
370
     5
100
AcDbLine
 10
-656.1717831817199
 20
386.353949030418
 30
0.0
 11
-83.17178318171915
 21
386.353949030418
 31
0.0
  0
LINE
  5
132
330
1F
100
AcDbEntity
  8
0-0
  6
JWW_DASHED1
 62
   120
370
     5
100
AcDbLine
 10
-656.1717831817199
 20
399.3539490315176
 30
0.0
 11
-83.17178318171915
 21
399.3539490315176
 31
0.0
  0
LINE
  5
133
330
1F
100
AcDbEntity
  8
0-0
  6
JWW_DASHED1
 62
   120
370
     5
100
AcDbLine
 10
-656.1717831817199
 20
400.3539490314178
 30
0.0
 11
-83.17178318171915
 21
400.3539490314178
 31
0.0
  0
LINE
  5
134
330
1F
100
AcDbEntity
  8
0-0
  6
JWW_DASHED1
 62
   120
370
     5
100
AcDbLine
 10
-656.1717831817199
 20
413.3539490325174
 30
0.0
 11
-83.17178318171915
 21
413.3539490325174
 31
0.0
  0
LINE
  5
135
330
1F
100
AcDbEntity
  8
0-0
  6
JWW_DASHED1
 62
   120
370
     5
100
AcDbLine
 10
-656.1717831817199
 20
414.3539490324176
 30
0.0
 11
-83.17178318171915
 21
414.3539490324176
 31
0.0
  0
LINE
  5
136
330
1F
100
AcDbEntity
  8
0-0
  6
JWW_DASHED1
 62
   120
370
     5
100
AcDbLine
 10
-656.1717831817199
 20
427.3539490335172
 30
0.0
 11
-83.17178318171915
 21
427.3539490335172
 31
0.0
  0
LINE
  5
137
330
1F
100
AcDbEntity
  8
0-0
  6
JWW_DASHED1
 62
   120
370
     5
100
AcDbLine
 10
-656.1717831817199
 20
428.3539490334174
 30
0.0
 11
-83.17178318171915
 21
428.3539490334174
 31
0.0
  0
LINE
  5
138
330
1F
100
AcDbEntity
  8
0-0
  6
JWW_DASHED1
 62
   120
370
     5
100
AcDbLine
 10
-656.1717831817199
 20
441.353949034517
 30
0.0
 11
-83.17178318171915
 21
441.353949034517
 31
0.0
  0
LINE
  5
139
330
1F
100
AcDbEntity
  8
0-0
  6
JWW_DASHED1
 62
   120
370
     5
100
AcDbLine
 10
-656.1717831817199
 20
442.3539490344172
 30
0.0
 11
-83.17178318171915
 21
442.3539490344172
 31
0.0
  0
LINE
  5
13A
330
1F
100
AcDbEntity
  8
0-0
  6
JWW_DASHED1
 62
   120
370
     5
100
AcDbLine
 10
-656.1717831817199
 20
455.3539490355167
 30
0.0
 11
-83.17178318171915
 21
455.3539490355167
 31
0.0
  0
LINE
  5
13B
330
1F
100
AcDbEntity
  8
0-0
  6
JWW_DASHED1
 62
   120
370
     5
100
AcDbLine
 10
-656.1717831817199
 20
456.3539490354169
 30
0.0
 11
-83.17178318171915
 21
456.3539490354169
 31
0.0
  0
LINE
  5
13C
330
1F
100
AcDbEntity
  8
0-0
  6
JWW_DASHED1
 62
   120
370
     5
100
AcDbLine
 10
-656.1717831817199
 20
469.3539490365166
 30
0.0
 11
-83.17178318171915
 21
469.3539490365166
 31
0.0
  0
LINE
  5
13D
330
1F
100
AcDbEntity
  8
0-0
  6
JWW_DASHED1
 62
   120
370
     5
100
AcDbLine
 10
-656.1717831817199
 20
470.3539490364167
 30
0.0
 11
-83.17178318171915
 21
470.3539490364167
 31
0.0
  0
LINE
  5
13E
330
1F
100
AcDbEntity
  8
0-0
  6
JWW_DASHED1
 62
   120
370
     5
100
AcDbLine
 10
-656.1717831817199
 20
483.3539490375164
 30
0.0
 11
-83.17178318171915
 21
483.3539490375164
 31
0.0
  0
LINE
  5
13F
330
1F
100
AcDbEntity
  8
0-0
  6
JWW_DASHED1
 62
   120
370
     5
100
AcDbLine
 10
-656.1717831817199
 20
484.3539490374166
 30
0.0
 11
-83.17178318171915
 21
484.3539490374166
 31
0.0
  0
LINE
  5
140
330
1F
100
AcDbEntity
  8
0-0
  6
JWW_DASHED1
 62
   120
370
     5
100
AcDbLine
 10
-656.1717831817199
 20
497.3539490385161
 30
0.0
 11
-83.17178318171915
 21
497.3539490385161
 31
0.0
  0
LINE
  5
141
330
1F
100
AcDbEntity
  8
0-0
  6
JWW_DASHED1
 62
   120
370
     5
100
AcDbLine
 10
-656.1717831817199
 20
498.3539490384163
 30
0.0
 11
-83.17178318171915
 21
498.3539490384163
 31
0.0
  0
LINE
  5
142
330
1F
100
AcDbEntity
  8
0-0
  6
JWW_DASHED1
 62
   120
370
     5
100
AcDbLine
 10
-656.1717831817199
 20
511.3539490395159
 30
0.0
 11
-83.17178318171915
 21
511.3539490395159
 31
0.0
  0
LINE
  5
143
330
1F
100
AcDbEntity
  8
0-0
  6
JWW_DASHED1
 62
   120
370
     5
100
AcDbLine
 10
-656.1717831817199
 20
512.3539490394161
 30
0.0
 11
-83.17178318171915
 21
512.3539490394161
 31
0.0
  0
LINE
  5
144
330
1F
100
AcDbEntity
  8
0-0
  6
JWW_DASHED1
 62
   120
370
     5
100
AcDbLine
 10
-656.1717831817199
 20
525.3539490405158
 30
0.0
 11
-83.17178318171915
 21
525.3539490405158
 31
0.0
  0
LINE
  5
145
330
1F
100
AcDbEntity
  8
0-0
  6
JWW_DASHED1
 62
   120
370
     5
100
AcDbLine
 10
-656.1717831817199
 20
526.353949040416
 30
0.0
 11
-83.17178318171915
 21
526.353949040416
 31
0.0
  0
LINE
  5
146
330
1F
100
AcDbEntity
  8
0-0
  6
JWW_DASHED1
 62
   120
370
     5
100
AcDbLine
 10
-656.1717831817199
 20
539.3539490415155
 30
0.0
 11
-83.17178318171915
 21
539.3539490415155
 31
0.0
  0
LINE
  5
147
330
1F
100
AcDbEntity
  8
0-0
  6
JWW_DASHED1
 62
   120
370
     5
100
AcDbLine
 10
-656.1717831817199
 20
540.3539490414157
 30
0.0
 11
-83.17178318171915
 21
540.3539490414157
 31
0.0
  0
LINE
  5
148
330
1F
100
AcDbEntity
  8
0-0
  6
JWW_DASHED1
 62
   120
370
     5
100
AcDbLine
 10
-656.1717831817199
 20
553.3539490425153
 30
0.0
 11
-83.17178318171915
 21
553.3539490425153
 31
0.0
  0
LINE
  5
149
330
1F
100
AcDbEntity
  8
0-0
  6
JWW_DASHED1
 62
   120
370
     5
100
AcDbLine
 10
-656.1717831817199
 20
554.3539490424155
 30
0.0
 11
-83.17178318171915
 21
554.3539490424155
 31
0.0
  0
LINE
  5
14A
330
1F
100
AcDbEntity
  8
0-0
  6
JWW_DASHED1
 62
   120
370
     5
100
AcDbLine
 10
-656.1717831817199
 20
567.3539490435151
 30
0.0
 11
-83.17178318171915
 21
567.3539490435151
 31
0.0
  0
LINE
  5
14B
330
1F
100
AcDbEntity
  8
0-0
  6
JWW_DASHED1
 62
   120
370
     5
100
AcDbLine
 10
-656.1717831817199
 20
568.3539490434152
 30
0.0
 11
-83.17178318171915
 21
568.3539490434152
 31
0.0
  0
LINE
  5
14C
330
1F
100
AcDbEntity
  8
0-0
  6
JWW_DASHED1
 62
   120
370
     5
100
AcDbLine
 10
-656.1717831817199
 20
581.3539490445148
 30
0.0
 11
-83.17178318171915
 21
581.3539490445148
 31
0.0
  0
LINE
  5
14D
330
1F
100
AcDbEntity
  8
0-0
  6
JWW_DASHED1
 62
   120
370
     5
100
AcDbLine
 10
-656.1717831817199
 20
582.353949044415
 30
0.0
 11
-83.17178318171915
 21
582.353949044415
 31
0.0
  0
LINE
  5
14E
330
1F
100
AcDbEntity
  8
0-0
  6
JWW_DASHED1
 62
   120
370
     5
100
AcDbLine
 10
-656.1717831817199
 20
595.3539490455147
 30
0.0
 11
-83.17178318171915
 21
595.3539490455147
 31
0.0
  0
LINE
  5
14F
330
1F
100
AcDbEntity
  8
0-0
  6
JWW_DASHED1
 62
   120
370
     5
100
AcDbLine
 10
-656.1717831817199
 20
596.3539490454149
 30
0.0
 11
-83.17178318171915
 21
596.3539490454149
 31
0.0
  0
LINE
  5
150
330
1F
100
AcDbEntity
  8
0-0
  6
JWW_DASHED1
 62
   120
370
     5
100
AcDbLine
 10
-656.1717831817199
 20
609.3539490465145
 30
0.0
 11
-83.17178318171915
 21
609.3539490465145
 31
0.0
  0
LINE
  5
151
330
1F
100
AcDbEntity
  8
0-0
  6
JWW_DASHED1
 62
   120
370
     5
100
AcDbLine
 10
-656.1717831817199
 20
610.3539490464146
 30
0.0
 11
-83.17178318171915
 21
610.3539490464146
 31
0.0
  0
LINE
  5
152
330
1F
100
AcDbEntity
  8
0-0
  6
JWW_DASHED1
 62
   120
370
     5
100
AcDbLine
 10
-656.1717831817199
 20
623.3539490475142
 30
0.0
 11
-83.17178318171915
 21
623.3539490475142
 31
0.0
  0
LINE
  5
153
330
1F
100
AcDbEntity
  8
0-0
  6
JWW_DASHED1
 62
   120
370
     5
100
AcDbLine
 10
-656.1717831817199
 20
624.3539490474144
 30
0.0
 11
-83.17178318171915
 21
624.3539490474144
 31
0.0
  0
LINE
  5
154
330
1F
100
AcDbEntity
  8
0-0
  6
JWW_DASHED1
 62
   120
370
     5
100
AcDbLine
 10
-656.1717831817199
 20
637.3539490485141
 30
0.0
 11
-83.17178318171915
 21
637.3539490485141
 31
0.0
  0
LINE
  5
155
330
1F
100
AcDbEntity
  8
0-0
  6
JWW_DASHED1
 62
   120
370
     5
100
AcDbLine
 10
-656.1717831817199
 20
638.3539490484143
 30
0.0
 11
-83.17178318171915
 21
638.3539490484143
 31
0.0
  0
LINE
  5
156
330
1F
100
AcDbEntity
  8
0-0
  6
JWW_DASHED1
 62
   120
370
     5
100
AcDbLine
 10
-656.1717831817199
 20
651.3539490495139
 30
0.0
 11
-83.17178318171915
 21
651.3539490495139
 31
0.0
  0
LINE
  5
157
330
1F
100
AcDbEntity
  8
0-0
  6
JWW_DASHED1
 62
   120
370
     5
100
AcDbLine
 10
-656.1717831817199
 20
652.353949049414
 30
0.0
 11
-83.17178318171915
 21
652.353949049414
 31
0.0
  0
LINE
  5
158
330
1F
100
AcDbEntity
  8
0-0
  6
JWW_DASHED1
 62
   120
370
     5
100
AcDbLine
 10
-656.1717831817199
 20
665.3539490505136
 30
0.0
 11
-83.17178318171915
 21
665.3539490505136
 31
0.0
  0
LINE
  5
159
330
1F
100
AcDbEntity
  8
0-0
  6
JWW_DASHED1
 62
   120
370
     5
100
AcDbLine
 10
-656.1717831817199
 20
666.3539490504138
 30
0.0
 11
-83.17178318171915
 21
666.3539490504138
 31
0.0
  0
LINE
  5
15A
330
1F
100
AcDbEntity
  8
0-0
  6
JWW_DASHED1
 62
   120
370
     5
100
AcDbLine
 10
-568.7529414197564
 20
679.3539490515134
 30
0.0
 11
-170.5906249436834
 21
679.3539490515134
 31
0.0
  0
LINE
  5
15B
330
1F
100
AcDbEntity
  8
0-0
  6
JWW_DASHED1
 62
   120
370
     5
100
AcDbLine
 10
-565.1587115483966
 20
680.3539490514136
 30
0.0
 11
-174.1848548150432
 21
680.3539490514136
 31
0.0
  0
LINE
  5
15C
330
1F
100
AcDbEntity
  8
0-0
  6
JWW_DASHED1
 62
   120
370
     5
100
AcDbLine
 10
-534.0466340801407
 20
693.3539490525131
 30
0.0
 11
-205.2969322832991
 21
693.3539490525131
 31
0.0
  0
LINE
  5
15D
330
1F
100
AcDbEntity
  8
0-0
  6
JWW_DASHED1
 62
   120
370
     5
100
AcDbLine
 10
-532.1528340904746
 20
694.3539490524133
 30
0.0
 11
-207.1907322729653
 21
694.3539490524133
 31
0.0
  0
LINE
  5
15E
330
1F
100
AcDbEntity
  8
0-0
  6
JWW_DASHED1
 62
   120
370
     5
100
AcDbLine
 10
-504.471989998155
 20
707.353949053513
 30
0.0
 11
-234.8715763652849
 21
707.353949053513
 31
0.0
  0
LINE
  5
15F
330
1F
100
AcDbEntity
  8
0-0
  6
JWW_DASHED1
 62
   120
370
     5
100
AcDbLine
 10
-502.0503919305788
 20
708.3539490534132
 30
0.0
 11
-237.2931744328612
 21
708.3539490534132
 31
0.0
  0
LINE
  5
160
330
1F
100
AcDbEntity
  8
0-0
  6
JWW_DASHED1
 62
   120
370
     5
100
AcDbLine
 10
-464.1762799402108
 20
721.3539490545128
 30
0.0
 11
-275.1672864232291
 21
721.3539490545128
 31
0.0
  0
LINE
  5
161
330
1F
100
AcDbEntity
  8
0-0
  6
JWW_DASHED1
 62
   120
370
     5
100
AcDbLine
 10
-460.5348681178379
 20
722.353949054413
 30
0.0
 11
-278.808698245602
 21
722.353949054413
 31
0.0
  0
LINE
  5
162
330
1F
100
AcDbEntity
  8
0-0
  6
JWW_DASHED1
 62
   120
370
     5
100
AcDbLine
 10
-89.17176468378784
 20
-440.6459027146261
 30
0.0
 11
-89.17176468378773
 21
674.3538297410655
 31
0.0
  0
LINE
  5
163
330
1F
100
AcDbEntity
  8
0-0
  6
JWW_DASHED1
 62
   120
370
     5
100
AcDbLine
 10
-90.17176468368791
 20
-440.6459027146261
 30
0.0
 11
-90.17176468368771
 21
674.3538297410655
 31
0.0
  0
LINE
  5
164
330
1F
100
AcDbEntity
  8
0-0
  6
JWW_DASHED1
 62
   120
370
     5
100
AcDbLine
 10
-103.1717646847879
 20
-440.6459027146261
 30
0.0
 11
-103.1717646847877
 21
674.3538297410655
 31
0.0
  0
LINE
  5
165
330
1F
100
AcDbEntity
  8
0-0
  6
JWW_DASHED1
 62
   120
370
     5
100
AcDbLine
 10
-104.1717646846878
 20
-440.6459027146261
 30
0.0
 11
-104.1717646846877
 21
674.3538297410655
 31
0.0
  0
LINE
  5
166
330
1F
100
AcDbEntity
  8
0-0
  6
JWW_DASHED1
 62
   120
370
     5
100
AcDbLine
 10
-117.1717646857878
 20
-440.6459027146261
 30
0.0
 11
-117.1717646857877
 21
674.3538297410655
 31
0.0
  0
LINE
  5
167
330
1F
100
AcDbEntity
  8
0-0
  6
JWW_DASHED1
 62
   120
370
     5
100
AcDbLine
 10
-118.1717646856878
 20
-440.6459027146261
 30
0.0
 11
-118.1717646856877
 21
674.3538297410655
 31
0.0
  0
LINE
  5
168
330
1F
100
AcDbEntity
  8
0-0
  6
JWW_DASHED1
 62
   120
370
     5
100
AcDbLine
 10
-131.1717646867879
 20
-440.6459027146261
 30
0.0
 11
-131.1717646867878
 21
674.3538297410655
 31
0.0
  0
LINE
  5
169
330
1F
100
AcDbEntity
  8
0-0
  6
JWW_DASHED1
 62
   120
370
     5
100
AcDbLine
 10
-132.1717646866878
 20
-440.6459027146261
 30
0.0
 11
-132.1717646866877
 21
674.3538297410655
 31
0.0
  0
LINE
  5
16A
330
1F
100
AcDbEntity
  8
0-0
  6
JWW_DASHED1
 62
   120
370
     5
100
AcDbLine
 10
-145.1717646877879
 20
-440.6459027146261
 30
0.0
 11
-145.1717646877877
 21
674.9171222462778
 31
0.0
  0
LINE
  5
16B
330
1F
100
AcDbEntity
  8
0-0
  6
JWW_DASHED1
 62
   120
370
     5
100
AcDbLine
 10
-146.1717646876878
 20
-440.6459027146261
 30
0.0
 11
-146.1717646876877
 21
675.0074039083106
 31
0.0
  0
LINE
  5
16C
330
1F
100
AcDbEntity
  8
0-0
  6
JWW_DASHED1
 62
   120
370
     5
100
AcDbLine
 10
-159.1717646887878
 20
-440.6459027146261
 30
0.0
 11
-159.1717646887878
 21
676.8015182828444
 31
0.0
  0
LINE
  5
16D
330
1F
100
AcDbEntity
  8
0-0
  6
JWW_DASHED1
 62
   120
370
     5
100
AcDbLine
 10
-160.1717646886878
 20
-440.6459027146261
 30
0.0
 11
-160.1717646886877
 21
676.9879246652804
 31
0.0
  0
LINE
  5
16E
330
1F
100
AcDbEntity
  8
0-0
  6
JWW_DASHED1
 62
   120
370
     5
100
AcDbLine
 10
-173.1717646897879
 20
-440.6459027146261
 30
0.0
 11
-173.1717646897878
 21
680.062320336036
 31
0.0
  0
LINE
  5
16F
330
1F
100
AcDbEntity
  8
0-0
  6
JWW_DASHED1
 62
   120
370
     5
100
AcDbLine
 10
-174.1717646896878
 20
-440.6459027146261
 30
0.0
 11
-174.1717646896877
 21
680.3501317034156
 31
0.0
  0
LINE
  5
170
330
1F
100
AcDbEntity
  8
0-0
  6
JWW_DASHED1
 62
   120
370
     5
100
AcDbLine
 10
-187.171764690788
 20
-440.6459027146261
 30
0.0
 11
-187.1717646907878
 21
684.7959752288793
 31
0.0
  0
LINE
  5
171
330
1F
100
AcDbEntity
  8
0-0
  6
JWW_DASHED1
 62
   120
370
     5
100
AcDbLine
 10
-188.1717646906878
 20
-440.6459027146261
 30
0.0
 11
-188.1717646906877
 21
685.1941368763969
 31
0.0
  0
LINE
  5
172
330
1F
100
AcDbEntity
  8
0-0
  6
JWW_DASHED1
 62
   120
370
     5
100
AcDbLine
 10
-201.1717646917879
 20
-440.6459027146261
 30
0.0
 11
-201.1717646917878
 21
691.1594236060396
 31
0.0
  0
LINE
  5
173
330
1F
100
AcDbEntity
  8
0-0
  6
JWW_DASHED1
 62
   120
370
     5
100
AcDbLine
 10
-202.1717646916878
 20
-440.6459027146261
 30
0.0
 11
-202.1717646916877
 21
691.6821478048391
 31
0.0
  0
LINE
  5
174
330
1F
100
AcDbEntity
  8
0-0
  6
JWW_DASHED1
 62
   120
370
     5
100
AcDbLine
 10
-215.1717646927876
 20
-440.6459027146261
 30
0.0
 11
-215.1717646927876
 21
698.4078256295984
 31
0.0
  0
LINE
  5
175
330
1F
100
AcDbEntity
  8
0-0
  6
JWW_DASHED1
 62
   120
370
     5
100
AcDbLine
 10
-216.1717646926878
 20
-440.6459027146261
 30
0.0
 11
-216.1717646926878
 21
698.8978054149052
 31
0.0
  0
LINE
  5
176
330
1F
100
AcDbEntity
  8
0-0
  6
JWW_DASHED1
 62
   120
370
     5
100
AcDbLine
 10
-229.1717646937876
 20
-440.6459027146261
 30
0.0
 11
-229.1717646937876
 21
704.9157057242305
 31
0.0
  0
LINE
  5
177
330
1F
100
AcDbEntity
  8
0-0
  6
JWW_DASHED1
 62
   120
370
     5
100
AcDbLine
 10
-230.1717646936877
 20
-440.6459027146261
 30
0.0
 11
-230.1717646936877
 21
705.3521422044073
 31
0.0
  0
LINE
  5
178
330
1F
100
AcDbEntity
  8
0-0
  6
JWW_DASHED1
 62
   120
370
     5
100
AcDbLine
 10
-243.1717646947876
 20
-440.6459027146261
 30
0.0
 11
-243.1717646947876
 21
710.6940202534647
 31
0.0
  0
LINE
  5
179
330
1F
100
AcDbEntity
  8
0-0
  6
JWW_DASHED1
 62
   120
370
     5
100
AcDbLine
 10
-244.1717646946877
 20
-440.6459027146261
 30
0.0
 11
-244.1717646946877
 21
711.07989265474
 31
0.0
  0
LINE
  5
17A
330
1F
100
AcDbEntity
  8
0-0
  6
JWW_DASHED1
 62
   120
370
     5
100
AcDbLine
 10
-257.1717646957875
 20
-440.6459027146261
 30
0.0
 11
-257.1717646957875
 21
715.7809305995365
 31
0.0
  0
LINE
  5
17B
330
1F
100
AcDbEntity
  8
0-0
  6
JWW_DASHED1
 62
   120
370
     5
100
AcDbLine
 10
-258.1717646956877
 20
-440.6459027146261
 30
0.0
 11
-258.1717646956877
 21
716.1186913541464
 31
0.0
  0
LINE
  5
17C
330
1F
100
AcDbEntity
  8
0-0
  6
JWW_DASHED1
 62
   120
370
     5
100
AcDbLine
 10
-271.1717646967876
 20
-440.6459027146261
 30
0.0
 11
-271.1717646967876
 21
720.2078546835551
 31
0.0
  0
LINE
  5
17D
330
1F
100
AcDbEntity
  8
0-0
  6
JWW_DASHED1
 62
   120
370
     5
100
AcDbLine
 10
-272.1717646966878
 20
-440.6459027146261
 30
0.0
 11
-272.1717646966878
 21
720.4995217602814
 31
0.0
  0
LINE
  5
17E
330
1F
100
AcDbEntity
  8
0-0
  6
JWW_DASHED1
 62
   120
370
     5
100
AcDbLine
 10
-285.1717646977876
 20
-440.6459027146261
 30
0.0
 11
-285.1717646977876
 21
724.0006001029328
 31
0.0
  0
LINE
  5
17F
330
1F
100
AcDbEntity
  8
0-0
  6
JWW_DASHED1
 62
   120
370
     5
100
AcDbLine
 10
-286.1717646976878
 20
-440.6459027146261
 30
0.0
 11
-286.1717646976878
 21
724.2478261377223
 31
0.0
  0
LINE
  5
180
330
1F
100
AcDbEntity
  8
0-0
  6
JWW_DASHED1
 62
   120
370
     5
100
AcDbLine
 10
-299.1717646987876
 20
-440.6459027146261
 30
0.0
 11
-299.1717646987876
 21
727.1802155930495
 31
0.0
  0
LINE
  5
181
330
1F
100
AcDbEntity
  8
0-0
  6
JWW_DASHED1
 62
   120
370
     5
100
AcDbLine
 10
-300.1717646986878
 20
-440.6459027146261
 30
0.0
 11
-300.1717646986878
 21
727.3843400204137
 31
0.0
  0
LINE
  5
182
330
1F
100
AcDbEntity
  8
0-0
  6
JWW_DASHED1
 62
   120
370
     5
100
AcDbLine
 10
-313.1717646997876
 20
-440.6459027146261
 30
0.0
 11
-313.1717646997876
 21
729.7636337946428
 31
0.0
  0
LINE
  5
183
330
1F
100
AcDbEntity
  8
0-0
  6
JWW_DASHED1
 62
   120
370
     5
100
AcDbLine
 10
-314.1717646996877
 20
-440.6459027146261
 30
0.0
 11
-314.1717646996877
 21
729.9257222034216
 31
0.0
  0
LINE
  5
184
330
1F
100
AcDbEntity
  8
0-0
  6
JWW_DASHED1
 62
   120
370
     5
100
AcDbLine
 10
-327.1717647007877
 20
-440.6459027146261
 30
0.0
 11
-327.1717647007877
 21
731.764155327925
 31
0.0
  0
LINE
  5
185
330
1F
100
AcDbEntity
  8
0-0
  6
JWW_DASHED1
 62
   120
370
     5
100
AcDbLine
 10
-328.1717647006878
 20
-440.6459027146261
 30
0.0
 11
-328.1717647006878
 21
731.8850289534171
 31
0.0
  0
LINE
  5
186
330
1F
100
AcDbEntity
  8
0-0
  6
JWW_DASHED1
 62
   120
370
     5
100
AcDbLine
 10
-341.1717647017876
 20
-440.6459027146261
 30
0.0
 11
-341.1717647017876
 21
733.19180875969
 31
0.0
  0
LINE
  5
187
330
1F
100
AcDbEntity
  8
0-0
  6
JWW_DASHED1
 62
   120
370
     5
100
AcDbLine
 10
-342.1717647016878
 20
-440.6459027146261
 30
0.0
 11
-342.1717647016878
 21
733.2720661313365
 31
0.0
  0
LINE
  5
188
330
1F
100
AcDbEntity
  8
0-0
  6
JWW_DASHED1
 62
   120
370
     5
100
AcDbLine
 10
-355.1717647027876
 20
-440.6459027146261
 30
0.0
 11
-355.1717647027876
 21
734.0536103878517
 31
0.0
  0
LINE
  5
189
330
1F
100
AcDbEntity
  8
0-0
  6
JWW_DASHED1
 62
   120
370
     5
100
AcDbLine
 10
-356.1717647026878
 20
-440.6459027146261
 30
0.0
 11
-356.1717647026878
 21
734.0936425201803
 31
0.0
  0
LINE
  5
18A
330
1F
100
AcDbEntity
  8
0-0
  6
JWW_DASHED1
 62
   120
370
     5
100
AcDbLine
 10
-369.1717647037876
 20
-440.6459027146261
 30
0.0
 11
-369.1717647037876
 21
734.3537401159269
 31
0.0
  0
LINE
  5
18B
330
1F
100
AcDbEntity
  8
0-0
  6
JWW_DASHED1
 62
   120
370
     5
100
AcDbLine
 10
-370.1717647036878
 20
-440.6459027146261
 30
0.0
 11
-370.1717647036878
 21
734.3537401687504
 31
0.0
  0
LINE
  5
18C
330
1F
100
AcDbEntity
  8
0-0
  6
JWW_DASHED1
 62
   120
370
     5
100
AcDbLine
 10
-383.1717647047876
 20
-440.6459027146261
 30
0.0
 11
-383.1717647047876
 21
734.0936439466864
 31
0.0
  0
LINE
  5
18D
330
1F
100
AcDbEntity
  8
0-0
  6
JWW_DASHED1
 62
   120
370
     5
100
AcDbLine
 10
-384.1717647046878
 20
-440.6459027146261
 30
0.0
 11
-384.1717647046878
 21
734.0536119202229
 31
0.0
  0
LINE
  5
18E
330
1F
100
AcDbEntity
  8
0-0
  6
JWW_DASHED1
 62
   120
370
     5
100
AcDbLine
 10
-397.1717647057876
 20
-440.6459027146261
 30
0.0
 11
-397.1717647057876
 21
733.2720690440478
 31
0.0
  0
LINE
  5
18F
330
1F
100
AcDbEntity
  8
0-0
  6
JWW_DASHED1
 62
   120
370
     5
100
AcDbLine
 10
-398.1717647056878
 20
-440.6459027146261
 30
0.0
 11
-398.1717647056878
 21
733.191811778976
 31
0.0
  0
LINE
  5
190
330
1F
100
AcDbEntity
  8
0-0
  6
JWW_DASHED1
 62
   120
370
     5
100
AcDbLine
 10
-411.1717647067876
 20
-440.6459027146261
 30
0.0
 11
-411.1717647067876
 21
731.8850333664673
 31
0.0
  0
LINE
  5
191
330
1F
100
AcDbEntity
  8
0-0
  6
JWW_DASHED1
 62
   120
370
     5
100
AcDbLine
 10
-412.1717647066878
 20
-440.6459027146261
 30
0.0
 11
-412.1717647066878
 21
731.7641598488594
 31
0.0
  0
LINE
  5
192
330
1F
100
AcDbEntity
  8
0-0
  6
JWW_DASHED1
 62
   120
370
     5
100
AcDbLine
 10
-425.1717647077875
 20
-440.6459027146261
 30
0.0
 11
-425.1717647077875
 21
729.9257281386931
 31
0.0
  0
LINE
  5
193
330
1F
100
AcDbEntity
  8
0-0
  6
JWW_DASHED1
 62
   120
370
     5
100
AcDbLine
 10
-426.1717647076877
 20
-440.6459027146261
 30
0.0
 11
-426.1717647076877
 21
729.7636398396539
 31
0.0
  0
LINE
  5
194
330
1F
100
AcDbEntity
  8
0-0
  6
JWW_DASHED1
 62
   120
370
     5
100
AcDbLine
 10
-439.1717647087876
 20
-440.6459027146261
 30
0.0
 11
-439.1717647087876
 21
727.3843475079198
 31
0.0
  0
LINE
  5
195
330
1F
100
AcDbEntity
  8
0-0
  6
JWW_DASHED1
 62
   120
370
     5
100
AcDbLine
 10
-440.1717647086878
 20
-440.6459027146261
 30
0.0
 11
-440.1717647086878
 21
727.1802231928054
 31
0.0
  0
LINE
  5
196
330
1F
100
AcDbEntity
  8
0-0
  6
JWW_DASHED1
 62
   120
370
     5
100
AcDbLine
 10
-453.1717647097876
 20
-440.6459027146261
 30
0.0
 11
-453.1717647097876
 21
724.2478352165349
 31
0.0
  0
LINE
  5
197
330
1F
100
AcDbEntity
  8
0-0
  6
JWW_DASHED1
 62
   120
370
     5
100
AcDbLine
 10
-454.1717647096878
 20
-440.6459027146261
 30
0.0
 11
-454.1717647096878
 21
724.0006092971603
 31
0.0
  0
LINE
  5
198
330
1F
100
AcDbEntity
  8
0-0
  6
JWW_DASHED1
 62
   120
370
     5
100
AcDbLine
 10
-467.1717647107876
 20
-440.6459027146261
 30
0.0
 11
-467.1717647107876
 21
720.4995324794586
 31
0.0
  0
LINE
  5
199
330
1F
100
AcDbEntity
  8
0-0
  6
JWW_DASHED1
 62
   120
370
     5
100
AcDbLine
 10
-468.1717647106878
 20
-440.6459027146261
 30
0.0
 11
-468.1717647106878
 21
720.2078655220762
 31
0.0
  0
LINE
  5
19A
330
1F
100
AcDbEntity
  8
0-0
  6
JWW_DASHED1
 62
   120
370
     5
100
AcDbLine
 10
-481.1717647117876
 20
-440.6459027146261
 30
0.0
 11
-481.1717647117876
 21
716.1187037743698
 31
0.0
  0
LINE
  5
19B
330
1F
100
AcDbEntity
  8
0-0
  6
JWW_DASHED1
 62
   120
370
     5
100
AcDbLine
 10
-482.1717647116878
 20
-440.6459027146261
 30
0.0
 11
-482.1717647116878
 21
715.7809431439605
 31
0.0
  0
LINE
  5
19C
330
1F
100
AcDbEntity
  8
0-0
  6
JWW_DASHED1
 62
   120
370
     5
100
AcDbLine
 10
-495.1717647127876
 20
-440.6459027146261
 30
0.0
 11
-495.1717647127876
 21
711.0799068500605
 31
0.0
  0
LINE
  5
19D
330
1F
100
AcDbEntity
  8
0-0
  6
JWW_DASHED1
 62
   120
370
     5
100
AcDbLine
 10
-496.1717647126878
 20
-440.6459027146261
 30
0.0
 11
-496.1717647126878
 21
710.6940345787702
 31
0.0
  0
LINE
  5
19E
330
1F
100
AcDbEntity
  8
0-0
  6
JWW_DASHED1
 62
   120
370
     5
100
AcDbLine
 10
-509.1717647137876
 20
-440.6459027146261
 30
0.0
 11
-509.1717647137876
 21
705.3521582648104
 31
0.0
  0
LINE
  5
19F
330
1F
100
AcDbEntity
  8
0-0
  6
JWW_DASHED1
 62
   120
370
     5
100
AcDbLine
 10
-510.1717647136878
 20
-440.6459027146261
 30
0.0
 11
-510.1717647136878
 21
704.9157219217673
 31
0.0
  0
LINE
  5
1A0
330
1F
100
AcDbEntity
  8
0-0
  6
JWW_DASHED1
 62
   120
370
     5
100
AcDbLine
 10
-523.1717647147876
 20
-440.6459027146261
 30
0.0
 11
-523.1717647147876
 21
698.897823449694
 31
0.0
  0
LINE
  5
1A1
330
1F
100
AcDbEntity
  8
0-0
  6
JWW_DASHED1
 62
   120
370
     5
100
AcDbLine
 10
-524.1717647146878
 20
-440.6459027146261
 30
0.0
 11
-524.1717647146878
 21
698.407843810252
 31
0.0
  0
LINE
  5
1A2
330
1F
100
AcDbEntity
  8
0-0
  6
JWW_DASHED1
 62
   120
370
     5
100
AcDbLine
 10
-537.1717647157876
 20
-440.6459027146261
 30
0.0
 11
-537.1717647157876
 21
691.6821672999126
 31
0.0
  0
LINE
  5
1A3
330
1F
100
AcDbEntity
  8
0-0
  6
JWW_DASHED1
 62
   120
370
     5
100
AcDbLine
 10
-538.1717647156878
 20
-440.6459027146261
 30
0.0
 11
-538.1717647156878
 21
691.1594427472287
 31
0.0
  0
LINE
  5
1A4
330
1F
100
AcDbEntity
  8
0-0
  6
JWW_DASHED1
 62
   120
370
     5
100
AcDbLine
 10
-551.1717647167876
 20
-440.6459027146261
 30
0.0
 11
-551.1717647167876
 21
685.1941517447253
 31
0.0
  0
LINE
  5
1A5
330
1F
100
AcDbEntity
  8
0-0
  6
JWW_DASHED1
 62
   120
370
     5
100
AcDbLine
 10
-552.1717647166878
 20
-440.6459027146261
 30
0.0
 11
-552.1717647166878
 21
684.7959897899259
 31
0.0
  0
LINE
  5
1A6
330
1F
100
AcDbEntity
  8
0-0
  6
JWW_DASHED1
 62
   120
370
     5
100
AcDbLine
 10
-565.1717647177875
 20
-440.6459027146261
 30
0.0
 11
-565.1717647177875
 21
680.3501424786905
 31
0.0
  0
LINE
  5
1A7
330
1F
100
AcDbEntity
  8
0-0
  6
JWW_DASHED1
 62
   120
370
     5
100
AcDbLine
 10
-566.1717647176877
 20
-440.6459027146261
 30
0.0
 11
-566.1717647176877
 21
680.0623308337149
 31
0.0
  0
LINE
  5
1A8
330
1F
100
AcDbEntity
  8
0-0
  6
JWW_DASHED1
 62
   120
370
     5
100
AcDbLine
 10
-579.1717647187877
 20
-440.6459027146261
 30
0.0
 11
-579.1717647187877
 21
676.9879316838692
 31
0.0
  0
LINE
  5
1A9
330
1F
100
AcDbEntity
  8
0-0
  6
JWW_DASHED1
 62
   120
370
     5
100
AcDbLine
 10
-580.1717647186879
 20
-440.6459027146261
 30
0.0
 11
-580.1717647186879
 21
676.8015250421181
 31
0.0
  0
LINE
  5
1AA
330
1F
100
AcDbEntity
  8
0-0
  6
JWW_DASHED1
 62
   120
370
     5
100
AcDbLine
 10
-593.1717647197877
 20
-440.6459027146261
 30
0.0
 11
-593.1717647197877
 21
675.0074073695018
 31
0.0
  0
LINE
  5
1AB
330
1F
100
AcDbEntity
  8
0-0
  6
JWW_DASHED1
 62
   120
370
     5
100
AcDbLine
 10
-594.1717647196879
 20
-440.6459027146261
 30
0.0
 11
-594.1717647196879
 21
674.917125458031
 31
0.0
  0
LINE
  5
1AC
330
1F
100
AcDbEntity
  8
0-0
  6
JWW_DASHED1
 62
   120
370
     5
100
AcDbLine
 10
-607.1717647207877
 20
-440.6459027146261
 30
0.0
 11
-607.1717647207877
 21
674.3538297410655
 31
0.0
  0
LINE
  5
1AD
330
1F
100
AcDbEntity
  8
0-0
  6
JWW_DASHED1
 62
   120
370
     5
100
AcDbLine
 10
-608.1717647206879
 20
-440.6459027146261
 30
0.0
 11
-608.1717647206879
 21
674.3538297410655
 31
0.0
  0
LINE
  5
1AE
330
1F
100
AcDbEntity
  8
0-0
  6
JWW_DASHED1
 62
   120
370
     5
100
AcDbLine
 10
-621.1717647217877
 20
-440.6459027146261
 30
0.0
 11
-621.1717647217877
 21
674.3538297410655
 31
0.0
  0
LINE
  5
1AF
330
1F
100
AcDbEntity
  8
0-0
  6
JWW_DASHED1
 62
   120
370
     5
100
AcDbLine
 10
-622.1717647216879
 20
-440.6459027146261
 30
0.0
 11
-622.1717647216879
 21
674.3538297410655
 31
0.0
  0
LINE
  5
1B0
330
1F
100
AcDbEntity
  8
0-0
  6
JWW_DASHED1
 62
   120
370
     5
100
AcDbLine
 10
-635.1717647227877
 20
-440.6459027146261
 30
0.0
 11
-635.1717647227877
 21
674.3538297410655
 31
0.0
  0
LINE
  5
1B1
330
1F
100
AcDbEntity
  8
0-0
  6
JWW_DASHED1
 62
   120
370
     5
100
AcDbLine
 10
-636.1717647226878
 20
-440.6459027146261
 30
0.0
 11
-636.1717647226878
 21
674.3538297410655
 31
0.0
  0
LINE
  5
1B2
330
1F
100
AcDbEntity
  8
0-0
  6
JWW_DASHED1
 62
   120
370
     5
100
AcDbLine
 10
-649.1717647237876
 20
-440.6459027146261
 30
0.0
 11
-649.1717647237876
 21
674.3538297410655
 31
0.0
  0
LINE
  5
1B3
330
1F
100
AcDbEntity
  8
0-0
  6
JWW_DASHED1
 62
   120
370
     5
100
AcDbLine
 10
-650.1717647236878
 20
-440.6459027146261
 30
0.0
 11
-650.1717647236878
 21
674.3538297410655
 31
0.0
  0
LINE
  5
1B4
330
1F
100
AcDbEntity
  8
0-0
  6
JWW_DASHED1
 62
   120
370
     5
100
AcDbLine
 10
153.8282168182802
 20
-439.6460510285697
 30
0.0
 11
726.8282168182807
 21
-439.6460510285697
 31
0.0
  0
LINE
  5
1B5
330
1F
100
AcDbEntity
  8
0-0
  6
JWW_DASHED1
 62
   120
370
     5
100
AcDbLine
 10
153.8282168182802
 20
-426.64605102747
 30
0.0
 11
726.8282168182807
 21
-426.64605102747
 31
0.0
  0
LINE
  5
1B6
330
1F
100
AcDbEntity
  8
0-0
  6
JWW_DASHED1
 62
   120
370
     5
100
AcDbLine
 10
153.8282168182802
 20
-425.6460510275699
 30
0.0
 11
726.8282168182807
 21
-425.6460510275699
 31
0.0
  0
LINE
  5
1B7
330
1F
100
AcDbEntity
  8
0-0
  6
JWW_DASHED1
 62
   120
370
     5
100
AcDbLine
 10
153.8282168182802
 20
-412.6460510264702
 30
0.0
 11
726.8282168182807
 21
-412.6460510264702
 31
0.0
  0
LINE
  5
1B8
330
1F
100
AcDbEntity
  8
0-0
  6
JWW_DASHED1
 62
   120
370
     5
100
AcDbLine
 10
153.8282168182802
 20
-411.64605102657
 30
0.0
 11
726.8282168182807
 21
-411.64605102657
 31
0.0
  0
LINE
  5
1B9
330
1F
100
AcDbEntity
  8
0-0
  6
JWW_DASHED1
 62
   120
370
     5
100
AcDbLine
 10
153.8282168182802
 20
-398.6460510254705
 30
0.0
 11
726.8282168182807
 21
-398.6460510254705
 31
0.0
  0
LINE
  5
1BA
330
1F
100
AcDbEntity
  8
0-0
  6
JWW_DASHED1
 62
   120
370
     5
100
AcDbLine
 10
153.8282168182802
 20
-397.6460510255703
 30
0.0
 11
726.8282168182807
 21
-397.6460510255703
 31
0.0
  0
LINE
  5
1BB
330
1F
100
AcDbEntity
  8
0-0
  6
JWW_DASHED1
 62
   120
370
     5
100
AcDbLine
 10
153.8282168182802
 20
-384.6460510244707
 30
0.0
 11
726.8282168182807
 21
-384.6460510244707
 31
0.0
  0
LINE
  5
1BC
330
1F
100
AcDbEntity
  8
0-0
  6
JWW_DASHED1
 62
   120
370
     5
100
AcDbLine
 10
153.8282168182802
 20
-383.6460510245705
 30
0.0
 11
726.8282168182807
 21
-383.6460510245705
 31
0.0
  0
LINE
  5
1BD
330
1F
100
AcDbEntity
  8
0-0
  6
JWW_DASHED1
 62
   120
370
     5
100
AcDbLine
 10
153.8282168182802
 20
-370.6460510234709
 30
0.0
 11
726.8282168182807
 21
-370.6460510234709
 31
0.0
  0
LINE
  5
1BE
330
1F
100
AcDbEntity
  8
0-0
  6
JWW_DASHED1
 62
   120
370
     5
100
AcDbLine
 10
153.8282168182802
 20
-369.6460510235707
 30
0.0
 11
726.8282168182807
 21
-369.6460510235707
 31
0.0
  0
LINE
  5
1BF
330
1F
100
AcDbEntity
  8
0-0
  6
JWW_DASHED1
 62
   120
370
     5
100
AcDbLine
 10
153.8282168182802
 20
-356.6460510224711
 30
0.0
 11
726.8282168182807
 21
-356.6460510224711
 31
0.0
  0
LINE
  5
1C0
330
1F
100
AcDbEntity
  8
0-0
  6
JWW_DASHED1
 62
   120
370
     5
100
AcDbLine
 10
153.8282168182802
 20
-355.6460510225709
 30
0.0
 11
726.8282168182807
 21
-355.6460510225709
 31
0.0
  0
LINE
  5
1C1
330
1F
100
AcDbEntity
  8
0-0
  6
JWW_DASHED1
 62
   120
370
     5
100
AcDbLine
 10
153.8282168182802
 20
-342.6460510214713
 30
0.0
 11
726.8282168182807
 21
-342.6460510214713
 31
0.0
  0
LINE
  5
1C2
330
1F
100
AcDbEntity
  8
0-0
  6
JWW_DASHED1
 62
   120
370
     5
100
AcDbLine
 10
153.8282168182802
 20
-341.6460510215711
 30
0.0
 11
726.8282168182807
 21
-341.6460510215711
 31
0.0
  0
LINE
  5
1C3
330
1F
100
AcDbEntity
  8
0-0
  6
JWW_DASHED1
 62
   120
370
     5
100
AcDbLine
 10
153.8282168182802
 20
-328.6460510204715
 30
0.0
 11
726.8282168182807
 21
-328.6460510204715
 31
0.0
  0
LINE
  5
1C4
330
1F
100
AcDbEntity
  8
0-0
  6
JWW_DASHED1
 62
   120
370
     5
100
AcDbLine
 10
153.8282168182802
 20
-327.6460510205713
 30
0.0
 11
726.8282168182807
 21
-327.6460510205713
 31
0.0
  0
LINE
  5
1C5
330
1F
100
AcDbEntity
  8
0-0
  6
JWW_DASHED1
 62
   120
370
     5
100
AcDbLine
 10
153.8282168182802
 20
-314.6460510194717
 30
0.0
 11
726.8282168182807
 21
-314.6460510194717
 31
0.0
  0
LINE
  5
1C6
330
1F
100
AcDbEntity
  8
0-0
  6
JWW_DASHED1
 62
   120
370
     5
100
AcDbLine
 10
153.8282168182802
 20
-313.6460510195715
 30
0.0
 11
726.8282168182807
 21
-313.6460510195715
 31
0.0
  0
LINE
  5
1C7
330
1F
100
AcDbEntity
  8
0-0
  6
JWW_DASHED1
 62
   120
370
     5
100
AcDbLine
 10
153.8282168182802
 20
-300.6460510184719
 30
0.0
 11
726.8282168182807
 21
-300.6460510184719
 31
0.0
  0
LINE
  5
1C8
330
1F
100
AcDbEntity
  8
0-0
  6
JWW_DASHED1
 62
   120
370
     5
100
AcDbLine
 10
153.8282168182802
 20
-299.6460510185717
 30
0.0
 11
726.8282168182807
 21
-299.6460510185717
 31
0.0
  0
LINE
  5
1C9
330
1F
100
AcDbEntity
  8
0-0
  6
JWW_DASHED1
 62
   120
370
     5
100
AcDbLine
 10
153.8282168182802
 20
-286.6460510174721
 30
0.0
 11
726.8282168182807
 21
-286.6460510174721
 31
0.0
  0
LINE
  5
1CA
330
1F
100
AcDbEntity
  8
0-0
  6
JWW_DASHED1
 62
   120
370
     5
100
AcDbLine
 10
153.8282168182802
 20
-285.6460510175719
 30
0.0
 11
726.8282168182807
 21
-285.6460510175719
 31
0.0
  0
LINE
  5
1CB
330
1F
100
AcDbEntity
  8
0-0
  6
JWW_DASHED1
 62
   120
370
     5
100
AcDbLine
 10
153.8282168182802
 20
-272.6460510164724
 30
0.0
 11
726.8282168182807
 21
-272.6460510164724
 31
0.0
  0
LINE
  5
1CC
330
1F
100
AcDbEntity
  8
0-0
  6
JWW_DASHED1
 62
   120
370
     5
100
AcDbLine
 10
153.8282168182802
 20
-271.6460510165722
 30
0.0
 11
726.8282168182807
 21
-271.6460510165722
 31
0.0
  0
LINE
  5
1CD
330
1F
100
AcDbEntity
  8
0-0
  6
JWW_DASHED1
 62
   120
370
     5
100
AcDbLine
 10
153.8282168182802
 20
-258.6460510154726
 30
0.0
 11
726.8282168182807
 21
-258.6460510154726
 31
0.0
  0
LINE
  5
1CE
330
1F
100
AcDbEntity
  8
0-0
  6
JWW_DASHED1
 62
   120
370
     5
100
AcDbLine
 10
153.8282168182802
 20
-257.6460510155724
 30
0.0
 11
726.8282168182807
 21
-257.6460510155724
 31
0.0
  0
LINE
  5
1CF
330
1F
100
AcDbEntity
  8
0-0
  6
JWW_DASHED1
 62
   120
370
     5
100
AcDbLine
 10
153.8282168182802
 20
-244.6460510144728
 30
0.0
 11
726.8282168182807
 21
-244.6460510144728
 31
0.0
  0
LINE
  5
1D0
330
1F
100
AcDbEntity
  8
0-0
  6
JWW_DASHED1
 62
   120
370
     5
100
AcDbLine
 10
153.8282168182802
 20
-243.6460510145726
 30
0.0
 11
726.8282168182807
 21
-243.6460510145726
 31
0.0
  0
LINE
  5
1D1
330
1F
100
AcDbEntity
  8
0-0
  6
JWW_DASHED1
 62
   120
370
     5
100
AcDbLine
 10
153.8282168182802
 20
-230.646051013473
 30
0.0
 11
726.8282168182807
 21
-230.646051013473
 31
0.0
  0
LINE
  5
1D2
330
1F
100
AcDbEntity
  8
0-0
  6
JWW_DASHED1
 62
   120
370
     5
100
AcDbLine
 10
153.8282168182802
 20
-229.6460510135728
 30
0.0
 11
726.8282168182807
 21
-229.6460510135728
 31
0.0
  0
LINE
  5
1D3
330
1F
100
AcDbEntity
  8
0-0
  6
JWW_DASHED1
 62
   120
370
     5
100
AcDbLine
 10
153.8282168182802
 20
-216.6460510124732
 30
0.0
 11
726.8282168182807
 21
-216.6460510124732
 31
0.0
  0
LINE
  5
1D4
330
1F
100
AcDbEntity
  8
0-0
  6
JWW_DASHED1
 62
   120
370
     5
100
AcDbLine
 10
153.8282168182802
 20
-215.646051012573
 30
0.0
 11
726.8282168182807
 21
-215.646051012573
 31
0.0
  0
LINE
  5
1D5
330
1F
100
AcDbEntity
  8
0-0
  6
JWW_DASHED1
 62
   120
370
     5
100
AcDbLine
 10
153.8282168182802
 20
-202.6460510114734
 30
0.0
 11
726.8282168182807
 21
-202.6460510114734
 31
0.0
  0
LINE
  5
1D6
330
1F
100
AcDbEntity
  8
0-0
  6
JWW_DASHED1
 62
   120
370
     5
100
AcDbLine
 10
153.8282168182802
 20
-201.6460510115732
 30
0.0
 11
726.8282168182807
 21
-201.6460510115732
 31
0.0
  0
LINE
  5
1D7
330
1F
100
AcDbEntity
  8
0-0
  6
JWW_DASHED1
 62
   120
370
     5
100
AcDbLine
 10
153.8282168182802
 20
-188.6460510104736
 30
0.0
 11
726.8282168182807
 21
-188.6460510104736
 31
0.0
  0
LINE
  5
1D8
330
1F
100
AcDbEntity
  8
0-0
  6
JWW_DASHED1
 62
   120
370
     5
100
AcDbLine
 10
153.8282168182802
 20
-187.6460510105734
 30
0.0
 11
726.8282168182807
 21
-187.6460510105734
 31
0.0
  0
LINE
  5
1D9
330
1F
100
AcDbEntity
  8
0-0
  6
JWW_DASHED1
 62
   120
370
     5
100
AcDbLine
 10
153.8282168182802
 20
-174.6460510094738
 30
0.0
 11
726.8282168182807
 21
-174.6460510094738
 31
0.0
  0
LINE
  5
1DA
330
1F
100
AcDbEntity
  8
0-0
  6
JWW_DASHED1
 62
   120
370
     5
100
AcDbLine
 10
153.8282168182802
 20
-173.6460510095736
 30
0.0
 11
726.8282168182807
 21
-173.6460510095736
 31
0.0
  0
LINE
  5
1DB
330
1F
100
AcDbEntity
  8
0-0
  6
JWW_DASHED1
 62
   120
370
     5
100
AcDbLine
 10
153.8282168182802
 20
-160.646051008474
 30
0.0
 11
726.8282168182807
 21
-160.646051008474
 31
0.0
  0
LINE
  5
1DC
330
1F
100
AcDbEntity
  8
0-0
  6
JWW_DASHED1
 62
   120
370
     5
100
AcDbLine
 10
153.8282168182802
 20
-159.6460510085738
 30
0.0
 11
726.8282168182807
 21
-159.6460510085738
 31
0.0
  0
LINE
  5
1DD
330
1F
100
AcDbEntity
  8
0-0
  6
JWW_DASHED1
 62
   120
370
     5
100
AcDbLine
 10
153.8282168182802
 20
-146.6460510074742
 30
0.0
 11
726.8282168182807
 21
-146.6460510074742
 31
0.0
  0
LINE
  5
1DE
330
1F
100
AcDbEntity
  8
0-0
  6
JWW_DASHED1
 62
   120
370
     5
100
AcDbLine
 10
153.8282168182802
 20
-145.646051007574
 30
0.0
 11
726.8282168182807
 21
-145.646051007574
 31
0.0
  0
LINE
  5
1DF
330
1F
100
AcDbEntity
  8
0-0
  6
JWW_DASHED1
 62
   120
370
     5
100
AcDbLine
 10
153.8282168182802
 20
-132.6460510064744
 30
0.0
 11
726.8282168182807
 21
-132.6460510064744
 31
0.0
  0
LINE
  5
1E0
330
1F
100
AcDbEntity
  8
0-0
  6
JWW_DASHED1
 62
   120
370
     5
100
AcDbLine
 10
153.8282168182802
 20
-131.6460510065743
 30
0.0
 11
726.8282168182807
 21
-131.6460510065743
 31
0.0
  0
LINE
  5
1E1
330
1F
100
AcDbEntity
  8
0-0
  6
JWW_DASHED1
 62
   120
370
     5
100
AcDbLine
 10
153.8282168182802
 20
-118.6460510054746
 30
0.0
 11
726.8282168182807
 21
-118.6460510054746
 31
0.0
  0
LINE
  5
1E2
330
1F
100
AcDbEntity
  8
0-0
  6
JWW_DASHED1
 62
   120
370
     5
100
AcDbLine
 10
153.8282168182802
 20
-117.6460510055745
 30
0.0
 11
726.8282168182807
 21
-117.6460510055745
 31
0.0
  0
LINE
  5
1E3
330
1F
100
AcDbEntity
  8
0-0
  6
JWW_DASHED1
 62
   120
370
     5
100
AcDbLine
 10
153.8282168182802
 20
-104.6460510044749
 30
0.0
 11
726.8282168182807
 21
-104.6460510044749
 31
0.0
  0
LINE
  5
1E4
330
1F
100
AcDbEntity
  8
0-0
  6
JWW_DASHED1
 62
   120
370
     5
100
AcDbLine
 10
153.8282168182802
 20
-103.6460510045747
 30
0.0
 11
726.8282168182807
 21
-103.6460510045747
 31
0.0
  0
LINE
  5
1E5
330
1F
100
AcDbEntity
  8
0-0
  6
JWW_DASHED1
 62
   120
370
     5
100
AcDbLine
 10
153.8282168182802
 20
-90.64605100347507
 30
0.0
 11
726.8282168182807
 21
-90.64605100347507
 31
0.0
  0
LINE
  5
1E6
330
1F
100
AcDbEntity
  8
0-0
  6
JWW_DASHED1
 62
   120
370
     5
100
AcDbLine
 10
153.8282168182802
 20
-89.64605100357488
 30
0.0
 11
726.8282168182807
 21
-89.64605100357488
 31
0.0
  0
LINE
  5
1E7
330
1F
100
AcDbEntity
  8
0-0
  6
JWW_DASHED1
 62
   120
370
     5
100
AcDbLine
 10
153.8282168182802
 20
-76.64605100247528
 30
0.0
 11
726.8282168182807
 21
-76.64605100247528
 31
0.0
  0
LINE
  5
1E8
330
1F
100
AcDbEntity
  8
0-0
  6
JWW_DASHED1
 62
   120
370
     5
100
AcDbLine
 10
153.8282168182802
 20
-75.64605100257509
 30
0.0
 11
726.8282168182807
 21
-75.64605100257509
 31
0.0
  0
LINE
  5
1E9
330
1F
100
AcDbEntity
  8
0-0
  6
JWW_DASHED1
 62
   120
370
     5
100
AcDbLine
 10
153.8282168182802
 20
-62.64605100147548
 30
0.0
 11
726.8282168182807
 21
-62.64605100147548
 31
0.0
  0
LINE
  5
1EA
330
1F
100
AcDbEntity
  8
0-0
  6
JWW_DASHED1
 62
   120
370
     5
100
AcDbLine
 10
153.8282168182802
 20
-61.6460510015753
 30
0.0
 11
726.8282168182807
 21
-61.6460510015753
 31
0.0
  0
LINE
  5
1EB
330
1F
100
AcDbEntity
  8
0-0
  6
JWW_DASHED1
 62
   120
370
     5
100
AcDbLine
 10
153.8282168182802
 20
-48.64605100047569
 30
0.0
 11
726.8282168182807
 21
-48.64605100047569
 31
0.0
  0
LINE
  5
1EC
330
1F
100
AcDbEntity
  8
0-0
  6
JWW_DASHED1
 62
   120
370
     5
100
AcDbLine
 10
153.8282168182802
 20
-47.64605100057551
 30
0.0
 11
726.8282168182807
 21
-47.64605100057551
 31
0.0
  0
LINE
  5
1ED
330
1F
100
AcDbEntity
  8
0-0
  6
JWW_DASHED1
 62
   120
370
     5
100
AcDbLine
 10
153.8282168182802
 20
-34.6460509994759
 30
0.0
 11
726.8282168182807
 21
-34.6460509994759
 31
0.0
  0
LINE
  5
1EE
330
1F
100
AcDbEntity
  8
0-0
  6
JWW_DASHED1
 62
   120
370
     5
100
AcDbLine
 10
153.8282168182802
 20
-33.64605099957572
 30
0.0
 11
726.8282168182807
 21
-33.64605099957572
 31
0.0
  0
LINE
  5
1EF
330
1F
100
AcDbEntity
  8
0-0
  6
JWW_DASHED1
 62
   120
370
     5
100
AcDbLine
 10
153.8282168182802
 20
-20.64605099847611
 30
0.0
 11
726.8282168182807
 21
-20.64605099847611
 31
0.0
  0
LINE
  5
1F0
330
1F
100
AcDbEntity
  8
0-0
  6
JWW_DASHED1
 62
   120
370
     5
100
AcDbLine
 10
153.8282168182802
 20
-19.64605099857593
 30
0.0
 11
726.8282168182807
 21
-19.64605099857593
 31
0.0
  0
LINE
  5
1F1
330
1F
100
AcDbEntity
  8
0-0
  6
JWW_DASHED1
 62
   120
370
     5
100
AcDbLine
 10
153.8282168182802
 20
-6.646050997476323
 30
0.0
 11
726.8282168182807
 21
-6.646050997476323
 31
0.0
  0
LINE
  5
1F2
330
1F
100
AcDbEntity
  8
0-0
  6
JWW_DASHED1
 62
   120
370
     5
100
AcDbLine
 10
153.8282168182802
 20
-5.64605099757614
 30
0.0
 11
726.8282168182807
 21
-5.64605099757614
 31
0.0
  0
LINE
  5
1F3
330
1F
100
AcDbEntity
  8
0-0
  6
JWW_DASHED1
 62
   120
370
     5
100
AcDbLine
 10
153.8282168182802
 20
7.353949003523468
 30
0.0
 11
726.8282168182807
 21
7.353949003523468
 31
0.0
  0
LINE
  5
1F4
330
1F
100
AcDbEntity
  8
0-0
  6
JWW_DASHED1
 62
   120
370
     5
100
AcDbLine
 10
153.8282168182802
 20
8.35394900342365
 30
0.0
 11
726.8282168182807
 21
8.35394900342365
 31
0.0
  0
LINE
  5
1F5
330
1F
100
AcDbEntity
  8
0-0
  6
JWW_DASHED1
 62
   120
370
     5
100
AcDbLine
 10
153.8282168182802
 20
21.35394900452326
 30
0.0
 11
726.8282168182807
 21
21.35394900452326
 31
0.0
  0
LINE
  5
1F6
330
1F
100
AcDbEntity
  8
0-0
  6
JWW_DASHED1
 62
   120
370
     5
100
AcDbLine
 10
153.8282168182802
 20
22.35394900442344
 30
0.0
 11
726.8282168182807
 21
22.35394900442344
 31
0.0
  0
LINE
  5
1F7
330
1F
100
AcDbEntity
  8
0-0
  6
JWW_DASHED1
 62
   120
370
     5
100
AcDbLine
 10
153.8282168182802
 20
35.35394900552305
 30
0.0
 11
726.8282168182807
 21
35.35394900552305
 31
0.0
  0
LINE
  5
1F8
330
1F
100
AcDbEntity
  8
0-0
  6
JWW_DASHED1
 62
   120
370
     5
100
AcDbLine
 10
153.8282168182802
 20
36.35394900542323
 30
0.0
 11
726.8282168182807
 21
36.35394900542323
 31
0.0
  0
LINE
  5
1F9
330
1F
100
AcDbEntity
  8
0-0
  6
JWW_DASHED1
 62
   120
370
     5
100
AcDbLine
 10
153.8282168182802
 20
49.35394900652284
 30
0.0
 11
726.8282168182807
 21
49.35394900652284
 31
0.0
  0
LINE
  5
1FA
330
1F
100
AcDbEntity
  8
0-0
  6
JWW_DASHED1
 62
   120
370
     5
100
AcDbLine
 10
153.8282168182802
 20
50.35394900642302
 30
0.0
 11
726.8282168182807
 21
50.35394900642302
 31
0.0
  0
LINE
  5
1FB
330
1F
100
AcDbEntity
  8
0-0
  6
JWW_DASHED1
 62
   120
370
     5
100
AcDbLine
 10
153.8282168182802
 20
63.35394900752263
 30
0.0
 11
726.8282168182807
 21
63.35394900752263
 31
0.0
  0
LINE
  5
1FC
330
1F
100
AcDbEntity
  8
0-0
  6
JWW_DASHED1
 62
   120
370
     5
100
AcDbLine
 10
153.8282168182802
 20
64.35394900742281
 30
0.0
 11
726.8282168182807
 21
64.35394900742281
 31
0.0
  0
LINE
  5
1FD
330
1F
100
AcDbEntity
  8
0-0
  6
JWW_DASHED1
 62
   120
370
     5
100
AcDbLine
 10
153.8282168182802
 20
77.35394900852242
 30
0.0
 11
726.8282168182807
 21
77.35394900852242
 31
0.0
  0
LINE
  5
1FE
330
1F
100
AcDbEntity
  8
0-0
  6
JWW_DASHED1
 62
   120
370
     5
100
AcDbLine
 10
153.8282168182802
 20
78.3539490084226
 30
0.0
 11
726.8282168182807
 21
78.3539490084226
 31
0.0
  0
LINE
  5
1FF
330
1F
100
AcDbEntity
  8
0-0
  6
JWW_DASHED1
 62
   120
370
     5
100
AcDbLine
 10
153.8282168182802
 20
91.35394900952221
 30
0.0
 11
726.8282168182807
 21
91.35394900952221
 31
0.0
  0
LINE
  5
200
330
1F
100
AcDbEntity
  8
0-0
  6
JWW_DASHED1
 62
   120
370
     5
100
AcDbLine
 10
153.8282168182802
 20
92.3539490094224
 30
0.0
 11
726.8282168182807
 21
92.3539490094224
 31
0.0
  0
LINE
  5
201
330
1F
100
AcDbEntity
  8
0-0
  6
JWW_DASHED1
 62
   120
370
     5
100
AcDbLine
 10
153.8282168182802
 20
105.353949010522
 30
0.0
 11
726.8282168182807
 21
105.353949010522
 31
0.0
  0
LINE
  5
202
330
1F
100
AcDbEntity
  8
0-0
  6
JWW_DASHED1
 62
   120
370
     5
100
AcDbLine
 10
153.8282168182802
 20
106.3539490104222
 30
0.0
 11
726.8282168182807
 21
106.3539490104222
 31
0.0
  0
LINE
  5
203
330
1F
100
AcDbEntity
  8
0-0
  6
JWW_DASHED1
 62
   120
370
     5
100
AcDbLine
 10
153.8282168182802
 20
119.3539490115218
 30
0.0
 11
726.8282168182807
 21
119.3539490115218
 31
0.0
  0
LINE
  5
204
330
1F
100
AcDbEntity
  8
0-0
  6
JWW_DASHED1
 62
   120
370
     5
100
AcDbLine
 10
153.8282168182802
 20
120.353949011422
 30
0.0
 11
726.8282168182807
 21
120.353949011422
 31
0.0
  0
LINE
  5
205
330
1F
100
AcDbEntity
  8
0-0
  6
JWW_DASHED1
 62
   120
370
     5
100
AcDbLine
 10
153.8282168182802
 20
133.3539490125216
 30
0.0
 11
726.8282168182807
 21
133.3539490125216
 31
0.0
  0
LINE
  5
206
330
1F
100
AcDbEntity
  8
0-0
  6
JWW_DASHED1
 62
   120
370
     5
100
AcDbLine
 10
153.8282168182802
 20
134.3539490124218
 30
0.0
 11
726.8282168182807
 21
134.3539490124218
 31
0.0
  0
LINE
  5
207
330
1F
100
AcDbEntity
  8
0-0
  6
JWW_DASHED1
 62
   120
370
     5
100
AcDbLine
 10
153.8282168182802
 20
147.3539490135214
 30
0.0
 11
726.8282168182807
 21
147.3539490135214
 31
0.0
  0
LINE
  5
208
330
1F
100
AcDbEntity
  8
0-0
  6
JWW_DASHED1
 62
   120
370
     5
100
AcDbLine
 10
153.8282168182802
 20
148.3539490134216
 30
0.0
 11
726.8282168182807
 21
148.3539490134216
 31
0.0
  0
LINE
  5
209
330
1F
100
AcDbEntity
  8
0-0
  6
JWW_DASHED1
 62
   120
370
     5
100
AcDbLine
 10
153.8282168182802
 20
161.3539490145212
 30
0.0
 11
726.8282168182807
 21
161.3539490145212
 31
0.0
  0
LINE
  5
20A
330
1F
100
AcDbEntity
  8
0-0
  6
JWW_DASHED1
 62
   120
370
     5
100
AcDbLine
 10
153.8282168182802
 20
162.3539490144213
 30
0.0
 11
726.8282168182807
 21
162.3539490144213
 31
0.0
  0
LINE
  5
20B
330
1F
100
AcDbEntity
  8
0-0
  6
JWW_DASHED1
 62
   120
370
     5
100
AcDbLine
 10
153.8282168182802
 20
175.353949015521
 30
0.0
 11
726.8282168182807
 21
175.353949015521
 31
0.0
  0
LINE
  5
20C
330
1F
100
AcDbEntity
  8
0-0
  6
JWW_DASHED1
 62
   120
370
     5
100
AcDbLine
 10
153.8282168182802
 20
176.3539490154211
 30
0.0
 11
726.8282168182807
 21
176.3539490154211
 31
0.0
  0
LINE
  5
20D
330
1F
100
AcDbEntity
  8
0-0
  6
JWW_DASHED1
 62
   120
370
     5
100
AcDbLine
 10
153.8282168182802
 20
189.3539490165207
 30
0.0
 11
726.8282168182807
 21
189.3539490165207
 31
0.0
  0
LINE
  5
20E
330
1F
100
AcDbEntity
  8
0-0
  6
JWW_DASHED1
 62
   120
370
     5
100
AcDbLine
 10
153.8282168182802
 20
190.3539490164209
 30
0.0
 11
726.8282168182807
 21
190.3539490164209
 31
0.0
  0
LINE
  5
20F
330
1F
100
AcDbEntity
  8
0-0
  6
JWW_DASHED1
 62
   120
370
     5
100
AcDbLine
 10
153.8282168182802
 20
203.3539490175205
 30
0.0
 11
726.8282168182807
 21
203.3539490175205
 31
0.0
  0
LINE
  5
210
330
1F
100
AcDbEntity
  8
0-0
  6
JWW_DASHED1
 62
   120
370
     5
100
AcDbLine
 10
153.8282168182802
 20
204.3539490174207
 30
0.0
 11
726.8282168182807
 21
204.3539490174207
 31
0.0
  0
LINE
  5
211
330
1F
100
AcDbEntity
  8
0-0
  6
JWW_DASHED1
 62
   120
370
     5
100
AcDbLine
 10
153.8282168182802
 20
217.3539490185203
 30
0.0
 11
726.8282168182807
 21
217.3539490185203
 31
0.0
  0
LINE
  5
212
330
1F
100
AcDbEntity
  8
0-0
  6
JWW_DASHED1
 62
   120
370
     5
100
AcDbLine
 10
153.8282168182802
 20
218.3539490184205
 30
0.0
 11
726.8282168182807
 21
218.3539490184205
 31
0.0
  0
LINE
  5
213
330
1F
100
AcDbEntity
  8
0-0
  6
JWW_DASHED1
 62
   120
370
     5
100
AcDbLine
 10
153.8282168182802
 20
231.3539490195201
 30
0.0
 11
726.8282168182807
 21
231.3539490195201
 31
0.0
  0
LINE
  5
214
330
1F
100
AcDbEntity
  8
0-0
  6
JWW_DASHED1
 62
   120
370
     5
100
AcDbLine
 10
153.8282168182802
 20
232.3539490194203
 30
0.0
 11
726.8282168182807
 21
232.3539490194203
 31
0.0
  0
LINE
  5
215
330
1F
100
AcDbEntity
  8
0-0
  6
JWW_DASHED1
 62
   120
370
     5
100
AcDbLine
 10
153.8282168182802
 20
245.3539490205199
 30
0.0
 11
726.8282168182807
 21
245.3539490205199
 31
0.0
  0
LINE
  5
216
330
1F
100
AcDbEntity
  8
0-0
  6
JWW_DASHED1
 62
   120
370
     5
100
AcDbLine
 10
153.8282168182802
 20
246.3539490204201
 30
0.0
 11
726.8282168182807
 21
246.3539490204201
 31
0.0
  0
LINE
  5
217
330
1F
100
AcDbEntity
  8
0-0
  6
JWW_DASHED1
 62
   120
370
     5
100
AcDbLine
 10
153.8282168182802
 20
259.3539490215197
 30
0.0
 11
726.8282168182807
 21
259.3539490215197
 31
0.0
  0
LINE
  5
218
330
1F
100
AcDbEntity
  8
0-0
  6
JWW_DASHED1
 62
   120
370
     5
100
AcDbLine
 10
153.8282168182802
 20
260.3539490214199
 30
0.0
 11
726.8282168182807
 21
260.3539490214199
 31
0.0
  0
LINE
  5
219
330
1F
100
AcDbEntity
  8
0-0
  6
JWW_DASHED1
 62
   120
370
     5
100
AcDbLine
 10
153.8282168182802
 20
273.3539490225195
 30
0.0
 11
726.8282168182807
 21
273.3539490225195
 31
0.0
  0
LINE
  5
21A
330
1F
100
AcDbEntity
  8
0-0
  6
JWW_DASHED1
 62
   120
370
     5
100
AcDbLine
 10
153.8282168182802
 20
274.3539490224197
 30
0.0
 11
726.8282168182807
 21
274.3539490224197
 31
0.0
  0
LINE
  5
21B
330
1F
100
AcDbEntity
  8
0-0
  6
JWW_DASHED1
 62
   120
370
     5
100
AcDbLine
 10
153.8282168182802
 20
287.3539490235192
 30
0.0
 11
726.8282168182807
 21
287.3539490235192
 31
0.0
  0
LINE
  5
21C
330
1F
100
AcDbEntity
  8
0-0
  6
JWW_DASHED1
 62
   120
370
     5
100
AcDbLine
 10
153.8282168182802
 20
288.3539490234194
 30
0.0
 11
726.8282168182807
 21
288.3539490234194
 31
0.0
  0
LINE
  5
21D
330
1F
100
AcDbEntity
  8
0-0
  6
JWW_DASHED1
 62
   120
370
     5
100
AcDbLine
 10
153.8282168182802
 20
301.3539490245191
 30
0.0
 11
726.8282168182807
 21
301.3539490245191
 31
0.0
  0
LINE
  5
21E
330
1F
100
AcDbEntity
  8
0-0
  6
JWW_DASHED1
 62
   120
370
     5
100
AcDbLine
 10
153.8282168182802
 20
302.3539490244193
 30
0.0
 11
726.8282168182807
 21
302.3539490244193
 31
0.0
  0
LINE
  5
21F
330
1F
100
AcDbEntity
  8
0-0
  6
JWW_DASHED1
 62
   120
370
     5
100
AcDbLine
 10
153.8282168182802
 20
315.3539490255189
 30
0.0
 11
726.8282168182807
 21
315.3539490255189
 31
0.0
  0
LINE
  5
220
330
1F
100
AcDbEntity
  8
0-0
  6
JWW_DASHED1
 62
   120
370
     5
100
AcDbLine
 10
153.8282168182802
 20
316.3539490254191
 30
0.0
 11
726.8282168182807
 21
316.3539490254191
 31
0.0
  0
LINE
  5
221
330
1F
100
AcDbEntity
  8
0-0
  6
JWW_DASHED1
 62
   120
370
     5
100
AcDbLine
 10
153.8282168182802
 20
329.3539490265186
 30
0.0
 11
726.8282168182807
 21
329.3539490265186
 31
0.0
  0
LINE
  5
222
330
1F
100
AcDbEntity
  8
0-0
  6
JWW_DASHED1
 62
   120
370
     5
100
AcDbLine
 10
153.8282168182802
 20
330.3539490264188
 30
0.0
 11
726.8282168182807
 21
330.3539490264188
 31
0.0
  0
LINE
  5
223
330
1F
100
AcDbEntity
  8
0-0
  6
JWW_DASHED1
 62
   120
370
     5
100
AcDbLine
 10
153.8282168182802
 20
343.3539490275184
 30
0.0
 11
726.8282168182807
 21
343.3539490275184
 31
0.0
  0
LINE
  5
224
330
1F
100
AcDbEntity
  8
0-0
  6
JWW_DASHED1
 62
   120
370
     5
100
AcDbLine
 10
153.8282168182802
 20
344.3539490274186
 30
0.0
 11
726.8282168182807
 21
344.3539490274186
 31
0.0
  0
LINE
  5
225
330
1F
100
AcDbEntity
  8
0-0
  6
JWW_DASHED1
 62
   120
370
     5
100
AcDbLine
 10
153.8282168182802
 20
357.3539490285182
 30
0.0
 11
726.8282168182807
 21
357.3539490285182
 31
0.0
  0
LINE
  5
226
330
1F
100
AcDbEntity
  8
0-0
  6
JWW_DASHED1
 62
   120
370
     5
100
AcDbLine
 10
153.8282168182802
 20
358.3539490284184
 30
0.0
 11
726.8282168182807
 21
358.3539490284184
 31
0.0
  0
LINE
  5
227
330
1F
100
AcDbEntity
  8
0-0
  6
JWW_DASHED1
 62
   120
370
     5
100
AcDbLine
 10
153.8282168182802
 20
371.353949029518
 30
0.0
 11
726.8282168182807
 21
371.353949029518
 31
0.0
  0
LINE
  5
228
330
1F
100
AcDbEntity
  8
0-0
  6
JWW_DASHED1
 62
   120
370
     5
100
AcDbLine
 10
153.8282168182802
 20
372.3539490294182
 30
0.0
 11
726.8282168182807
 21
372.3539490294182
 31
0.0
  0
LINE
  5
229
330
1F
100
AcDbEntity
  8
0-0
  6
JWW_DASHED1
 62
   120
370
     5
100
AcDbLine
 10
153.8282168182802
 20
385.3539490305178
 30
0.0
 11
726.8282168182807
 21
385.3539490305178
 31
0.0
  0
LINE
  5
22A
330
1F
100
AcDbEntity
  8
0-0
  6
JWW_DASHED1
 62
   120
370
     5
100
AcDbLine
 10
153.8282168182802
 20
386.353949030418
 30
0.0
 11
726.8282168182807
 21
386.353949030418
 31
0.0
  0
LINE
  5
22B
330
1F
100
AcDbEntity
  8
0-0
  6
JWW_DASHED1
 62
   120
370
     5
100
AcDbLine
 10
153.8282168182802
 20
399.3539490315176
 30
0.0
 11
726.8282168182807
 21
399.3539490315176
 31
0.0
  0
LINE
  5
22C
330
1F
100
AcDbEntity
  8
0-0
  6
JWW_DASHED1
 62
   120
370
     5
100
AcDbLine
 10
153.8282168182802
 20
400.3539490314178
 30
0.0
 11
726.8282168182807
 21
400.3539490314178
 31
0.0
  0
LINE
  5
22D
330
1F
100
AcDbEntity
  8
0-0
  6
JWW_DASHED1
 62
   120
370
     5
100
AcDbLine
 10
153.8282168182802
 20
413.3539490325174
 30
0.0
 11
726.8282168182807
 21
413.3539490325174
 31
0.0
  0
LINE
  5
22E
330
1F
100
AcDbEntity
  8
0-0
  6
JWW_DASHED1
 62
   120
370
     5
100
AcDbLine
 10
153.8282168182802
 20
414.3539490324176
 30
0.0
 11
726.8282168182807
 21
414.3539490324176
 31
0.0
  0
LINE
  5
22F
330
1F
100
AcDbEntity
  8
0-0
  6
JWW_DASHED1
 62
   120
370
     5
100
AcDbLine
 10
153.8282168182802
 20
427.3539490335172
 30
0.0
 11
726.8282168182807
 21
427.3539490335172
 31
0.0
  0
LINE
  5
230
330
1F
100
AcDbEntity
  8
0-0
  6
JWW_DASHED1
 62
   120
370
     5
100
AcDbLine
 10
153.8282168182802
 20
428.3539490334174
 30
0.0
 11
726.8282168182807
 21
428.3539490334174
 31
0.0
  0
LINE
  5
231
330
1F
100
AcDbEntity
  8
0-0
  6
JWW_DASHED1
 62
   120
370
     5
100
AcDbLine
 10
153.8282168182802
 20
441.353949034517
 30
0.0
 11
726.8282168182807
 21
441.353949034517
 31
0.0
  0
LINE
  5
232
330
1F
100
AcDbEntity
  8
0-0
  6
JWW_DASHED1
 62
   120
370
     5
100
AcDbLine
 10
153.8282168182802
 20
442.3539490344172
 30
0.0
 11
726.8282168182807
 21
442.3539490344172
 31
0.0
  0
LINE
  5
233
330
1F
100
AcDbEntity
  8
0-0
  6
JWW_DASHED1
 62
   120
370
     5
100
AcDbLine
 10
153.8282168182802
 20
455.3539490355167
 30
0.0
 11
726.8282168182807
 21
455.3539490355167
 31
0.0
  0
LINE
  5
234
330
1F
100
AcDbEntity
  8
0-0
  6
JWW_DASHED1
 62
   120
370
     5
100
AcDbLine
 10
153.8282168182802
 20
456.3539490354169
 30
0.0
 11
726.8282168182807
 21
456.3539490354169
 31
0.0
  0
LINE
  5
235
330
1F
100
AcDbEntity
  8
0-0
  6
JWW_DASHED1
 62
   120
370
     5
100
AcDbLine
 10
153.8282168182802
 20
469.3539490365166
 30
0.0
 11
726.8282168182807
 21
469.3539490365166
 31
0.0
  0
LINE
  5
236
330
1F
100
AcDbEntity
  8
0-0
  6
JWW_DASHED1
 62
   120
370
     5
100
AcDbLine
 10
153.8282168182802
 20
470.3539490364167
 30
0.0
 11
726.8282168182807
 21
470.3539490364167
 31
0.0
  0
LINE
  5
237
330
1F
100
AcDbEntity
  8
0-0
  6
JWW_DASHED1
 62
   120
370
     5
100
AcDbLine
 10
153.8282168182802
 20
483.3539490375164
 30
0.0
 11
726.8282168182807
 21
483.3539490375164
 31
0.0
  0
LINE
  5
238
330
1F
100
AcDbEntity
  8
0-0
  6
JWW_DASHED1
 62
   120
370
     5
100
AcDbLine
 10
153.8282168182802
 20
484.3539490374166
 30
0.0
 11
726.8282168182807
 21
484.3539490374166
 31
0.0
  0
LINE
  5
239
330
1F
100
AcDbEntity
  8
0-0
  6
JWW_DASHED1
 62
   120
370
     5
100
AcDbLine
 10
153.8282168182802
 20
497.3539490385161
 30
0.0
 11
726.8282168182807
 21
497.3539490385161
 31
0.0
  0
LINE
  5
23A
330
1F
100
AcDbEntity
  8
0-0
  6
JWW_DASHED1
 62
   120
370
     5
100
AcDbLine
 10
153.8282168182802
 20
498.3539490384163
 30
0.0
 11
726.8282168182807
 21
498.3539490384163
 31
0.0
  0
LINE
  5
23B
330
1F
100
AcDbEntity
  8
0-0
  6
JWW_DASHED1
 62
   120
370
     5
100
AcDbLine
 10
153.8282168182802
 20
511.3539490395159
 30
0.0
 11
726.8282168182807
 21
511.3539490395159
 31
0.0
  0
LINE
  5
23C
330
1F
100
AcDbEntity
  8
0-0
  6
JWW_DASHED1
 62
   120
370
     5
100
AcDbLine
 10
153.8282168182802
 20
512.3539490394161
 30
0.0
 11
726.8282168182807
 21
512.3539490394161
 31
0.0
  0
LINE
  5
23D
330
1F
100
AcDbEntity
  8
0-0
  6
JWW_DASHED1
 62
   120
370
     5
100
AcDbLine
 10
153.8282168182802
 20
525.3539490405158
 30
0.0
 11
726.8282168182807
 21
525.3539490405158
 31
0.0
  0
LINE
  5
23E
330
1F
100
AcDbEntity
  8
0-0
  6
JWW_DASHED1
 62
   120
370
     5
100
AcDbLine
 10
153.8282168182802
 20
526.353949040416
 30
0.0
 11
726.8282168182807
 21
526.353949040416
 31
0.0
  0
LINE
  5
23F
330
1F
100
AcDbEntity
  8
0-0
  6
JWW_DASHED1
 62
   120
370
     5
100
AcDbLine
 10
153.8282168182802
 20
539.3539490415155
 30
0.0
 11
726.8282168182807
 21
539.3539490415155
 31
0.0
  0
LINE
  5
240
330
1F
100
AcDbEntity
  8
0-0
  6
JWW_DASHED1
 62
   120
370
     5
100
AcDbLine
 10
153.8282168182802
 20
540.3539490414157
 30
0.0
 11
726.8282168182807
 21
540.3539490414157
 31
0.0
  0
LINE
  5
241
330
1F
100
AcDbEntity
  8
0-0
  6
JWW_DASHED1
 62
   120
370
     5
100
AcDbLine
 10
153.8282168182802
 20
553.3539490425153
 30
0.0
 11
726.8282168182807
 21
553.3539490425153
 31
0.0
  0
LINE
  5
242
330
1F
100
AcDbEntity
  8
0-0
  6
JWW_DASHED1
 62
   120
370
     5
100
AcDbLine
 10
153.8282168182802
 20
554.3539490424155
 30
0.0
 11
726.8282168182807
 21
554.3539490424155
 31
0.0
  0
LINE
  5
243
330
1F
100
AcDbEntity
  8
0-0
  6
JWW_DASHED1
 62
   120
370
     5
100
AcDbLine
 10
153.8282168182802
 20
567.3539490435151
 30
0.0
 11
726.8282168182807
 21
567.3539490435151
 31
0.0
  0
LINE
  5
244
330
1F
100
AcDbEntity
  8
0-0
  6
JWW_DASHED1
 62
   120
370
     5
100
AcDbLine
 10
153.8282168182802
 20
568.3539490434152
 30
0.0
 11
726.8282168182807
 21
568.3539490434152
 31
0.0
  0
LINE
  5
245
330
1F
100
AcDbEntity
  8
0-0
  6
JWW_DASHED1
 62
   120
370
     5
100
AcDbLine
 10
153.8282168182802
 20
581.3539490445148
 30
0.0
 11
726.8282168182807
 21
581.3539490445148
 31
0.0
  0
LINE
  5
246
330
1F
100
AcDbEntity
  8
0-0
  6
JWW_DASHED1
 62
   120
370
     5
100
AcDbLine
 10
153.8282168182802
 20
582.353949044415
 30
0.0
 11
726.8282168182807
 21
582.353949044415
 31
0.0
  0
LINE
  5
247
330
1F
100
AcDbEntity
  8
0-0
  6
JWW_DASHED1
 62
   120
370
     5
100
AcDbLine
 10
153.8282168182802
 20
595.3539490455147
 30
0.0
 11
726.8282168182807
 21
595.3539490455147
 31
0.0
  0
LINE
  5
248
330
1F
100
AcDbEntity
  8
0-0
  6
JWW_DASHED1
 62
   120
370
     5
100
AcDbLine
 10
153.8282168182802
 20
596.3539490454149
 30
0.0
 11
726.8282168182807
 21
596.3539490454149
 31
0.0
  0
LINE
  5
249
330
1F
100
AcDbEntity
  8
0-0
  6
JWW_DASHED1
 62
   120
370
     5
100
AcDbLine
 10
153.8282168182802
 20
609.3539490465145
 30
0.0
 11
726.8282168182807
 21
609.3539490465145
 31
0.0
  0
LINE
  5
24A
330
1F
100
AcDbEntity
  8
0-0
  6
JWW_DASHED1
 62
   120
370
     5
100
AcDbLine
 10
153.8282168182802
 20
610.3539490464146
 30
0.0
 11
726.8282168182807
 21
610.3539490464146
 31
0.0
  0
LINE
  5
24B
330
1F
100
AcDbEntity
  8
0-0
  6
JWW_DASHED1
 62
   120
370
     5
100
AcDbLine
 10
153.8282168182802
 20
623.3539490475142
 30
0.0
 11
726.8282168182807
 21
623.3539490475142
 31
0.0
  0
LINE
  5
24C
330
1F
100
AcDbEntity
  8
0-0
  6
JWW_DASHED1
 62
   120
370
     5
100
AcDbLine
 10
153.8282168182802
 20
624.3539490474144
 30
0.0
 11
726.8282168182807
 21
624.3539490474144
 31
0.0
  0
LINE
  5
24D
330
1F
100
AcDbEntity
  8
0-0
  6
JWW_DASHED1
 62
   120
370
     5
100
AcDbLine
 10
153.8282168182802
 20
637.3539490485141
 30
0.0
 11
726.8282168182807
 21
637.3539490485141
 31
0.0
  0
LINE
  5
24E
330
1F
100
AcDbEntity
  8
0-0
  6
JWW_DASHED1
 62
   120
370
     5
100
AcDbLine
 10
153.8282168182802
 20
638.3539490484143
 30
0.0
 11
726.8282168182807
 21
638.3539490484143
 31
0.0
  0
LINE
  5
24F
330
1F
100
AcDbEntity
  8
0-0
  6
JWW_DASHED1
 62
   120
370
     5
100
AcDbLine
 10
153.8282168182802
 20
651.3539490495139
 30
0.0
 11
726.8282168182807
 21
651.3539490495139
 31
0.0
  0
LINE
  5
250
330
1F
100
AcDbEntity
  8
0-0
  6
JWW_DASHED1
 62
   120
370
     5
100
AcDbLine
 10
153.8282168182802
 20
652.353949049414
 30
0.0
 11
726.8282168182807
 21
652.353949049414
 31
0.0
  0
LINE
  5
251
330
1F
100
AcDbEntity
  8
0-0
  6
JWW_DASHED1
 62
   120
370
     5
100
AcDbLine
 10
153.8282168182802
 20
665.3539490505136
 30
0.0
 11
726.8282168182807
 21
665.3539490505136
 31
0.0
  0
LINE
  5
252
330
1F
100
AcDbEntity
  8
0-0
  6
JWW_DASHED1
 62
   120
370
     5
100
AcDbLine
 10
153.8282168182802
 20
666.3539490504138
 30
0.0
 11
726.8282168182807
 21
666.3539490504138
 31
0.0
  0
LINE
  5
253
330
1F
100
AcDbEntity
  8
0-0
  6
JWW_DASHED1
 62
   120
370
     5
100
AcDbLine
 10
241.2470585802435
 20
679.3539490515134
 30
0.0
 11
639.4093750563167
 21
679.3539490515134
 31
0.0
  0
LINE
  5
254
330
1F
100
AcDbEntity
  8
0-0
  6
JWW_DASHED1
 62
   120
370
     5
100
AcDbLine
 10
244.8412884516034
 20
680.3539490514136
 30
0.0
 11
635.8151451849568
 21
680.3539490514136
 31
0.0
  0
LINE
  5
255
330
1F
100
AcDbEntity
  8
0-0
  6
JWW_DASHED1
 62
   120
370
     5
100
AcDbLine
 10
275.9533659198592
 20
693.3539490525131
 30
0.0
 11
604.703067716701
 21
693.3539490525131
 31
0.0
  0
LINE
  5
256
330
1F
100
AcDbEntity
  8
0-0
  6
JWW_DASHED1
 62
   120
370
     5
100
AcDbLine
 10
277.8471659095254
 20
694.3539490524133
 30
0.0
 11
602.8092677270348
 21
694.3539490524133
 31
0.0
  0
LINE
  5
257
330
1F
100
AcDbEntity
  8
0-0
  6
JWW_DASHED1
 62
   120
370
     5
100
AcDbLine
 10
305.528010001845
 20
707.353949053513
 30
0.0
 11
575.1284236347152
 21
707.353949053513
 31
0.0
  0
LINE
  5
258
330
1F
100
AcDbEntity
  8
0-0
  6
JWW_DASHED1
 62
   120
370
     5
100
AcDbLine
 10
307.9496080694212
 20
708.3539490534132
 30
0.0
 11
572.7068255671389
 21
708.3539490534132
 31
0.0
  0
LINE
  5
259
330
1F
100
AcDbEntity
  8
0-0
  6
JWW_DASHED1
 62
   120
370
     5
100
AcDbLine
 10
345.8237200597892
 20
721.3539490545128
 30
0.0
 11
534.832713576771
 21
721.3539490545128
 31
0.0
  0
LINE
  5
25A
330
1F
100
AcDbEntity
  8
0-0
  6
JWW_DASHED1
 62
   120
370
     5
100
AcDbLine
 10
349.4651318821621
 20
722.353949054413
 30
0.0
 11
531.1913017543981
 21
722.353949054413
 31
0.0
  0
LINE
  5
25B
330
1F
100
AcDbEntity
  8
0-0
  6
JWW_DASHED1
 62
   120
370
     5
100
AcDbLine
 10
720.8282353162122
 20
-440.6459027146261
 30
0.0
 11
720.8282353162123
 21
674.3538297410655
 31
0.0
  0
LINE
  5
25C
330
1F
100
AcDbEntity
  8
0-0
  6
JWW_DASHED1
 62
   120
370
     5
100
AcDbLine
 10
719.8282353163121
 20
-440.6459027146261
 30
0.0
 11
719.8282353163123
 21
674.3538297410655
 31
0.0
  0
LINE
  5
25D
330
1F
100
AcDbEntity
  8
0-0
  6
JWW_DASHED1
 62
   120
370
     5
100
AcDbLine
 10
706.828235315212
 20
-440.6459027146261
 30
0.0
 11
706.8282353152123
 21
674.3538297410655
 31
0.0
  0
LINE
  5
25E
330
1F
100
AcDbEntity
  8
0-0
  6
JWW_DASHED1
 62
   120
370
     5
100
AcDbLine
 10
705.8282353153122
 20
-440.6459027146261
 30
0.0
 11
705.8282353153123
 21
674.3538297410655
 31
0.0
  0
LINE
  5
25F
330
1F
100
AcDbEntity
  8
0-0
  6
JWW_DASHED1
 62
   120
370
     5
100
AcDbLine
 10
692.8282353142122
 20
-440.6459027146261
 30
0.0
 11
692.8282353142123
 21
674.3538297410655
 31
0.0
  0
LINE
  5
260
330
1F
100
AcDbEntity
  8
0-0
  6
JWW_DASHED1
 62
   120
370
     5
100
AcDbLine
 10
691.8282353143122
 20
-440.6459027146261
 30
0.0
 11
691.8282353143123
 21
674.3538297410655
 31
0.0
  0
LINE
  5
261
330
1F
100
AcDbEntity
  8
0-0
  6
JWW_DASHED1
 62
   120
370
     5
100
AcDbLine
 10
678.8282353132122
 20
-440.6459027146261
 30
0.0
 11
678.8282353132123
 21
674.3538297410655
 31
0.0
  0
LINE
  5
262
330
1F
100
AcDbEntity
  8
0-0
  6
JWW_DASHED1
 62
   120
370
     5
100
AcDbLine
 10
677.8282353133122
 20
-440.6459027146261
 30
0.0
 11
677.8282353133122
 21
674.3538297410655
 31
0.0
  0
LINE
  5
263
330
1F
100
AcDbEntity
  8
0-0
  6
JWW_DASHED1
 62
   120
370
     5
100
AcDbLine
 10
664.8282353122122
 20
-440.6459027146261
 30
0.0
 11
664.8282353122122
 21
674.9171222462778
 31
0.0
  0
LINE
  5
264
330
1F
100
AcDbEntity
  8
0-0
  6
JWW_DASHED1
 62
   120
370
     5
100
AcDbLine
 10
663.8282353123121
 20
-440.6459027146261
 30
0.0
 11
663.8282353123122
 21
675.0074039083106
 31
0.0
  0
LINE
  5
265
330
1F
100
AcDbEntity
  8
0-0
  6
JWW_DASHED1
 62
   120
370
     5
100
AcDbLine
 10
650.8282353112121
 20
-440.6459027146261
 30
0.0
 11
650.8282353112122
 21
676.8015182828444
 31
0.0
  0
LINE
  5
266
330
1F
100
AcDbEntity
  8
0-0
  6
JWW_DASHED1
 62
   120
370
     5
100
AcDbLine
 10
649.8282353113121
 20
-440.6459027146261
 30
0.0
 11
649.8282353113123
 21
676.9879246652804
 31
0.0
  0
LINE
  5
267
330
1F
100
AcDbEntity
  8
0-0
  6
JWW_DASHED1
 62
   120
370
     5
100
AcDbLine
 10
636.8282353102121
 20
-440.6459027146261
 30
0.0
 11
636.8282353102122
 21
680.062320336036
 31
0.0
  0
LINE
  5
268
330
1F
100
AcDbEntity
  8
0-0
  6
JWW_DASHED1
 62
   120
370
     5
100
AcDbLine
 10
635.8282353103122
 20
-440.6459027146261
 30
0.0
 11
635.8282353103123
 21
680.3501317034156
 31
0.0
  0
LINE
  5
269
330
1F
100
AcDbEntity
  8
0-0
  6
JWW_DASHED1
 62
   120
370
     5
100
AcDbLine
 10
622.828235309212
 20
-440.6459027146261
 30
0.0
 11
622.8282353092122
 21
684.7959752288793
 31
0.0
  0
LINE
  5
26A
330
1F
100
AcDbEntity
  8
0-0
  6
JWW_DASHED1
 62
   120
370
     5
100
AcDbLine
 10
621.8282353093122
 20
-440.6459027146261
 30
0.0
 11
621.8282353093123
 21
685.1941368763969
 31
0.0
  0
LINE
  5
26B
330
1F
100
AcDbEntity
  8
0-0
  6
JWW_DASHED1
 62
   120
370
     5
100
AcDbLine
 10
608.8282353082121
 20
-440.6459027146261
 30
0.0
 11
608.8282353082122
 21
691.1594236060396
 31
0.0
  0
LINE
  5
26C
330
1F
100
AcDbEntity
  8
0-0
  6
JWW_DASHED1
 62
   120
370
     5
100
AcDbLine
 10
607.8282353083122
 20
-440.6459027146261
 30
0.0
 11
607.8282353083123
 21
691.6821478048391
 31
0.0
  0
LINE
  5
26D
330
1F
100
AcDbEntity
  8
0-0
  6
JWW_DASHED1
 62
   120
370
     5
100
AcDbLine
 10
594.8282353072125
 20
-440.6459027146261
 30
0.0
 11
594.8282353072125
 21
698.4078256295984
 31
0.0
  0
LINE
  5
26E
330
1F
100
AcDbEntity
  8
0-0
  6
JWW_DASHED1
 62
   120
370
     5
100
AcDbLine
 10
593.8282353073123
 20
-440.6459027146261
 30
0.0
 11
593.8282353073123
 21
698.8978054149052
 31
0.0
  0
LINE
  5
26F
330
1F
100
AcDbEntity
  8
0-0
  6
JWW_DASHED1
 62
   120
370
     5
100
AcDbLine
 10
580.8282353062125
 20
-440.6459027146261
 30
0.0
 11
580.8282353062125
 21
704.9157057242305
 31
0.0
  0
LINE
  5
270
330
1F
100
AcDbEntity
  8
0-0
  6
JWW_DASHED1
 62
   120
370
     5
100
AcDbLine
 10
579.8282353063123
 20
-440.6459027146261
 30
0.0
 11
579.8282353063123
 21
705.3521422044073
 31
0.0
  0
LINE
  5
271
330
1F
100
AcDbEntity
  8
0-0
  6
JWW_DASHED1
 62
   120
370
     5
100
AcDbLine
 10
566.8282353052123
 20
-440.6459027146261
 30
0.0
 11
566.8282353052123
 21
710.6940202534647
 31
0.0
  0
LINE
  5
272
330
1F
100
AcDbEntity
  8
0-0
  6
JWW_DASHED1
 62
   120
370
     5
100
AcDbLine
 10
565.8282353053121
 20
-440.6459027146261
 30
0.0
 11
565.8282353053121
 21
711.07989265474
 31
0.0
  0
LINE
  5
273
330
1F
100
AcDbEntity
  8
0-0
  6
JWW_DASHED1
 62
   120
370
     5
100
AcDbLine
 10
552.8282353042124
 20
-440.6459027146261
 30
0.0
 11
552.8282353042124
 21
715.7809305995365
 31
0.0
  0
LINE
  5
274
330
1F
100
AcDbEntity
  8
0-0
  6
JWW_DASHED1
 62
   120
370
     5
100
AcDbLine
 10
551.8282353043122
 20
-440.6459027146261
 30
0.0
 11
551.8282353043122
 21
716.1186913541464
 31
0.0
  0
LINE
  5
275
330
1F
100
AcDbEntity
  8
0-0
  6
JWW_DASHED1
 62
   120
370
     5
100
AcDbLine
 10
538.8282353032124
 20
-440.6459027146261
 30
0.0
 11
538.8282353032124
 21
720.2078546835551
 31
0.0
  0
LINE
  5
276
330
1F
100
AcDbEntity
  8
0-0
  6
JWW_DASHED1
 62
   120
370
     5
100
AcDbLine
 10
537.8282353033122
 20
-440.6459027146261
 30
0.0
 11
537.8282353033122
 21
720.4995217602814
 31
0.0
  0
LINE
  5
277
330
1F
100
AcDbEntity
  8
0-0
  6
JWW_DASHED1
 62
   120
370
     5
100
AcDbLine
 10
524.8282353022124
 20
-440.6459027146261
 30
0.0
 11
524.8282353022124
 21
724.0006001029328
 31
0.0
  0
LINE
  5
278
330
1F
100
AcDbEntity
  8
0-0
  6
JWW_DASHED1
 62
   120
370
     5
100
AcDbLine
 10
523.8282353023122
 20
-440.6459027146261
 30
0.0
 11
523.8282353023122
 21
724.2478261377223
 31
0.0
  0
LINE
  5
279
330
1F
100
AcDbEntity
  8
0-0
  6
JWW_DASHED1
 62
   120
370
     5
100
AcDbLine
 10
510.8282353012124
 20
-440.6459027146261
 30
0.0
 11
510.8282353012124
 21
727.1802155930495
 31
0.0
  0
LINE
  5
27A
330
1F
100
AcDbEntity
  8
0-0
  6
JWW_DASHED1
 62
   120
370
     5
100
AcDbLine
 10
509.8282353013122
 20
-440.6459027146261
 30
0.0
 11
509.8282353013122
 21
727.3843400204137
 31
0.0
  0
LINE
  5
27B
330
1F
100
AcDbEntity
  8
0-0
  6
JWW_DASHED1
 62
   120
370
     5
100
AcDbLine
 10
496.8282353002124
 20
-440.6459027146261
 30
0.0
 11
496.8282353002124
 21
729.7636337946428
 31
0.0
  0
LINE
  5
27C
330
1F
100
AcDbEntity
  8
0-0
  6
JWW_DASHED1
 62
   120
370
     5
100
AcDbLine
 10
495.8282353003123
 20
-440.6459027146261
 30
0.0
 11
495.8282353003123
 21
729.9257222034216
 31
0.0
  0
LINE
  5
27D
330
1F
100
AcDbEntity
  8
0-0
  6
JWW_DASHED1
 62
   120
370
     5
100
AcDbLine
 10
482.8282352992123
 20
-440.6459027146261
 30
0.0
 11
482.8282352992123
 21
731.764155327925
 31
0.0
  0
LINE
  5
27E
330
1F
100
AcDbEntity
  8
0-0
  6
JWW_DASHED1
 62
   120
370
     5
100
AcDbLine
 10
481.8282352993122
 20
-440.6459027146261
 30
0.0
 11
481.8282352993122
 21
731.8850289534171
 31
0.0
  0
LINE
  5
27F
330
1F
100
AcDbEntity
  8
0-0
  6
JWW_DASHED1
 62
   120
370
     5
100
AcDbLine
 10
468.8282352982124
 20
-440.6459027146261
 30
0.0
 11
468.8282352982124
 21
733.19180875969
 31
0.0
  0
LINE
  5
280
330
1F
100
AcDbEntity
  8
0-0
  6
JWW_DASHED1
 62
   120
370
     5
100
AcDbLine
 10
467.8282352983122
 20
-440.6459027146261
 30
0.0
 11
467.8282352983122
 21
733.2720661313365
 31
0.0
  0
LINE
  5
281
330
1F
100
AcDbEntity
  8
0-0
  6
JWW_DASHED1
 62
   120
370
     5
100
AcDbLine
 10
454.8282352972124
 20
-440.6459027146261
 30
0.0
 11
454.8282352972124
 21
734.0536103878517
 31
0.0
  0
LINE
  5
282
330
1F
100
AcDbEntity
  8
0-0
  6
JWW_DASHED1
 62
   120
370
     5
100
AcDbLine
 10
453.8282352973122
 20
-440.6459027146261
 30
0.0
 11
453.8282352973122
 21
734.0936425201803
 31
0.0
  0
LINE
  5
283
330
1F
100
AcDbEntity
  8
0-0
  6
JWW_DASHED1
 62
   120
370
     5
100
AcDbLine
 10
440.8282352962124
 20
-440.6459027146261
 30
0.0
 11
440.8282352962124
 21
734.3537401159269
 31
0.0
  0
LINE
  5
284
330
1F
100
AcDbEntity
  8
0-0
  6
JWW_DASHED1
 62
   120
370
     5
100
AcDbLine
 10
439.8282352963122
 20
-440.6459027146261
 30
0.0
 11
439.8282352963122
 21
734.3537401687504
 31
0.0
  0
LINE
  5
285
330
1F
100
AcDbEntity
  8
0-0
  6
JWW_DASHED1
 62
   120
370
     5
100
AcDbLine
 10
426.8282352952123
 20
-440.6459027146261
 30
0.0
 11
426.8282352952123
 21
734.0936439466864
 31
0.0
  0
LINE
  5
286
330
1F
100
AcDbEntity
  8
0-0
  6
JWW_DASHED1
 62
   120
370
     5
100
AcDbLine
 10
425.8282352953121
 20
-440.6459027146261
 30
0.0
 11
425.8282352953121
 21
734.0536119202229
 31
0.0
  0
LINE
  5
287
330
1F
100
AcDbEntity
  8
0-0
  6
JWW_DASHED1
 62
   120
370
     5
100
AcDbLine
 10
412.8282352942124
 20
-440.6459027146261
 30
0.0
 11
412.8282352942124
 21
733.2720690440478
 31
0.0
  0
LINE
  5
288
330
1F
100
AcDbEntity
  8
0-0
  6
JWW_DASHED1
 62
   120
370
     5
100
AcDbLine
 10
411.8282352943122
 20
-440.6459027146261
 30
0.0
 11
411.8282352943122
 21
733.191811778976
 31
0.0
  0
LINE
  5
289
330
1F
100
AcDbEntity
  8
0-0
  6
JWW_DASHED1
 62
   120
370
     5
100
AcDbLine
 10
398.8282352932124
 20
-440.6459027146261
 30
0.0
 11
398.8282352932124
 21
731.8850333664673
 31
0.0
  0
LINE
  5
28A
330
1F
100
AcDbEntity
  8
0-0
  6
JWW_DASHED1
 62
   120
370
     5
100
AcDbLine
 10
397.8282352933122
 20
-440.6459027146261
 30
0.0
 11
397.8282352933122
 21
731.7641598488594
 31
0.0
  0
LINE
  5
28B
330
1F
100
AcDbEntity
  8
0-0
  6
JWW_DASHED1
 62
   120
370
     5
100
AcDbLine
 10
384.8282352922124
 20
-440.6459027146261
 30
0.0
 11
384.8282352922124
 21
729.9257281386931
 31
0.0
  0
LINE
  5
28C
330
1F
100
AcDbEntity
  8
0-0
  6
JWW_DASHED1
 62
   120
370
     5
100
AcDbLine
 10
383.8282352923122
 20
-440.6459027146261
 30
0.0
 11
383.8282352923122
 21
729.7636398396539
 31
0.0
  0
LINE
  5
28D
330
1F
100
AcDbEntity
  8
0-0
  6
JWW_DASHED1
 62
   120
370
     5
100
AcDbLine
 10
370.8282352912124
 20
-440.6459027146261
 30
0.0
 11
370.8282352912124
 21
727.3843475079198
 31
0.0
  0
LINE
  5
28E
330
1F
100
AcDbEntity
  8
0-0
  6
JWW_DASHED1
 62
   120
370
     5
100
AcDbLine
 10
369.8282352913122
 20
-440.6459027146261
 30
0.0
 11
369.8282352913122
 21
727.1802231928054
 31
0.0
  0
LINE
  5
28F
330
1F
100
AcDbEntity
  8
0-0
  6
JWW_DASHED1
 62
   120
370
     5
100
AcDbLine
 10
356.8282352902124
 20
-440.6459027146261
 30
0.0
 11
356.8282352902124
 21
724.2478352165349
 31
0.0
  0
LINE
  5
290
330
1F
100
AcDbEntity
  8
0-0
  6
JWW_DASHED1
 62
   120
370
     5
100
AcDbLine
 10
355.8282352903122
 20
-440.6459027146261
 30
0.0
 11
355.8282352903122
 21
724.0006092971603
 31
0.0
  0
LINE
  5
291
330
1F
100
AcDbEntity
  8
0-0
  6
JWW_DASHED1
 62
   120
370
     5
100
AcDbLine
 10
342.8282352892124
 20
-440.6459027146261
 30
0.0
 11
342.8282352892124
 21
720.4995324794586
 31
0.0
  0
LINE
  5
292
330
1F
100
AcDbEntity
  8
0-0
  6
JWW_DASHED1
 62
   120
370
     5
100
AcDbLine
 10
341.8282352893122
 20
-440.6459027146261
 30
0.0
 11
341.8282352893122
 21
720.2078655220762
 31
0.0
  0
LINE
  5
293
330
1F
100
AcDbEntity
  8
0-0
  6
JWW_DASHED1
 62
   120
370
     5
100
AcDbLine
 10
328.8282352882124
 20
-440.6459027146261
 30
0.0
 11
328.8282352882124
 21
716.1187037743698
 31
0.0
  0
LINE
  5
294
330
1F
100
AcDbEntity
  8
0-0
  6
JWW_DASHED1
 62
   120
370
     5
100
AcDbLine
 10
327.8282352883122
 20
-440.6459027146261
 30
0.0
 11
327.8282352883122
 21
715.7809431439605
 31
0.0
  0
LINE
  5
295
330
1F
100
AcDbEntity
  8
0-0
  6
JWW_DASHED1
 62
   120
370
     5
100
AcDbLine
 10
314.8282352872124
 20
-440.6459027146261
 30
0.0
 11
314.8282352872124
 21
711.0799068500605
 31
0.0
  0
LINE
  5
296
330
1F
100
AcDbEntity
  8
0-0
  6
JWW_DASHED1
 62
   120
370
     5
100
AcDbLine
 10
313.8282352873122
 20
-440.6459027146261
 30
0.0
 11
313.8282352873122
 21
710.6940345787702
 31
0.0
  0
LINE
  5
297
330
1F
100
AcDbEntity
  8
0-0
  6
JWW_DASHED1
 62
   120
370
     5
100
AcDbLine
 10
300.8282352862124
 20
-440.6459027146261
 30
0.0
 11
300.8282352862124
 21
705.3521582648104
 31
0.0
  0
LINE
  5
298
330
1F
100
AcDbEntity
  8
0-0
  6
JWW_DASHED1
 62
   120
370
     5
100
AcDbLine
 10
299.8282352863122
 20
-440.6459027146261
 30
0.0
 11
299.8282352863122
 21
704.9157219217673
 31
0.0
  0
LINE
  5
299
330
1F
100
AcDbEntity
  8
0-0
  6
JWW_DASHED1
 62
   120
370
     5
100
AcDbLine
 10
286.8282352852124
 20
-440.6459027146261
 30
0.0
 11
286.8282352852124
 21
698.897823449694
 31
0.0
  0
LINE
  5
29A
330
1F
100
AcDbEntity
  8
0-0
  6
JWW_DASHED1
 62
   120
370
     5
100
AcDbLine
 10
285.8282352853122
 20
-440.6459027146261
 30
0.0
 11
285.8282352853122
 21
698.407843810252
 31
0.0
  0
LINE
  5
29B
330
1F
100
AcDbEntity
  8
0-0
  6
JWW_DASHED1
 62
   120
370
     5
100
AcDbLine
 10
272.8282352842124
 20
-440.6459027146261
 30
0.0
 11
272.8282352842124
 21
691.6821672999126
 31
0.0
  0
LINE
  5
29C
330
1F
100
AcDbEntity
  8
0-0
  6
JWW_DASHED1
 62
   120
370
     5
100
AcDbLine
 10
271.8282352843122
 20
-440.6459027146261
 30
0.0
 11
271.8282352843122
 21
691.1594427472287
 31
0.0
  0
LINE
  5
29D
330
1F
100
AcDbEntity
  8
0-0
  6
JWW_DASHED1
 62
   120
370
     5
100
AcDbLine
 10
258.8282352832123
 20
-440.6459027146261
 30
0.0
 11
258.8282352832123
 21
685.1941517447253
 31
0.0
  0
LINE
  5
29E
330
1F
100
AcDbEntity
  8
0-0
  6
JWW_DASHED1
 62
   120
370
     5
100
AcDbLine
 10
257.8282352833122
 20
-440.6459027146261
 30
0.0
 11
257.8282352833122
 21
684.7959897899259
 31
0.0
  0
LINE
  5
29F
330
1F
100
AcDbEntity
  8
0-0
  6
JWW_DASHED1
 62
   120
370
     5
100
AcDbLine
 10
244.8282352822123
 20
-440.6459027146261
 30
0.0
 11
244.8282352822123
 21
680.3501424786905
 31
0.0
  0
LINE
  5
2A0
330
1F
100
AcDbEntity
  8
0-0
  6
JWW_DASHED1
 62
   120
370
     5
100
AcDbLine
 10
243.8282352823122
 20
-440.6459027146261
 30
0.0
 11
243.8282352823122
 21
680.0623308337149
 31
0.0
  0
LINE
  5
2A1
330
1F
100
AcDbEntity
  8
0-0
  6
JWW_DASHED1
 62
   120
370
     5
100
AcDbLine
 10
230.8282352812124
 20
-440.6459027146261
 30
0.0
 11
230.8282352812124
 21
676.9879316838692
 31
0.0
  0
LINE
  5
2A2
330
1F
100
AcDbEntity
  8
0-0
  6
JWW_DASHED1
 62
   120
370
     5
100
AcDbLine
 10
229.8282352813122
 20
-440.6459027146261
 30
0.0
 11
229.8282352813122
 21
676.8015250421181
 31
0.0
  0
LINE
  5
2A3
330
1F
100
AcDbEntity
  8
0-0
  6
JWW_DASHED1
 62
   120
370
     5
100
AcDbLine
 10
216.8282352802123
 20
-440.6459027146261
 30
0.0
 11
216.8282352802123
 21
675.0074073695018
 31
0.0
  0
LINE
  5
2A4
330
1F
100
AcDbEntity
  8
0-0
  6
JWW_DASHED1
 62
   120
370
     5
100
AcDbLine
 10
215.8282352803122
 20
-440.6459027146261
 30
0.0
 11
215.8282352803122
 21
674.917125458031
 31
0.0
  0
LINE
  5
2A5
330
1F
100
AcDbEntity
  8
0-0
  6
JWW_DASHED1
 62
   120
370
     5
100
AcDbLine
 10
202.8282352792124
 20
-440.6459027146261
 30
0.0
 11
202.8282352792124
 21
674.3538297410655
 31
0.0
  0
LINE
  5
2A6
330
1F
100
AcDbEntity
  8
0-0
  6
JWW_DASHED1
 62
   120
370
     5
100
AcDbLine
 10
201.8282352793122
 20
-440.6459027146261
 30
0.0
 11
201.8282352793122
 21
674.3538297410655
 31
0.0
  0
LINE
  5
2A7
330
1F
100
AcDbEntity
  8
0-0
  6
JWW_DASHED1
 62
   120
370
     5
100
AcDbLine
 10
188.8282352782123
 20
-440.6459027146261
 30
0.0
 11
188.8282352782123
 21
674.3538297410655
 31
0.0
  0
LINE
  5
2A8
330
1F
100
AcDbEntity
  8
0-0
  6
JWW_DASHED1
 62
   120
370
     5
100
AcDbLine
 10
187.8282352783121
 20
-440.6459027146261
 30
0.0
 11
187.8282352783121
 21
674.3538297410655
 31
0.0
  0
LINE
  5
2A9
330
1F
100
AcDbEntity
  8
0-0
  6
JWW_DASHED1
 62
   120
370
     5
100
AcDbLine
 10
174.8282352772123
 20
-440.6459027146261
 30
0.0
 11
174.8282352772123
 21
674.3538297410655
 31
0.0
  0
LINE
  5
2AA
330
1F
100
AcDbEntity
  8
0-0
  6
JWW_DASHED1
 62
   120
370
     5
100
AcDbLine
 10
173.8282352773122
 20
-440.6459027146261
 30
0.0
 11
173.8282352773122
 21
674.3538297410655
 31
0.0
  0
LINE
  5
2AB
330
1F
100
AcDbEntity
  8
0-0
  6
JWW_DASHED1
 62
   120
370
     5
100
AcDbLine
 10
160.8282352762123
 20
-440.6459027146261
 30
0.0
 11
160.8282352762123
 21
674.3538297410655
 31
0.0
  0
LINE
  5
2AC
330
1F
100
AcDbEntity
  8
0-0
  6
JWW_DASHED1
 62
   120
370
     5
100
AcDbLine
 10
159.8282352763121
 20
-440.6459027146261
 30
0.0
 11
159.8282352763121
 21
674.3538297410655
 31
0.0
  0
LINE
  5
2AD
330
1F
100
AcDbEntity
  8
寸法
  6
Continuous
 62
   120
370
     5
100
AcDbLine
 10
-2031.67178318172
 20
-1333.645902714626
 30
0.0
 11
-1631.67178318172
 21
-1333.645902714626
 31
0.0
  0
LINE
  5
2AE
330
1F
100
AcDbEntity
  8
寸法
  6
Continuous
 62
   120
370
     5
100
AcDbLine
 10
-1831.671783181719
 20
-1313.645902714625
 30
0.0
 11
-1631.67178318172
 21
-1313.645902714625
 31
0.0
  0
LWPOLYLINE
  5
2AF
330
1F
100
AcDbEntity
  8
寸法
  6
Continuous
 62
     7
370
     9
100
AcDbPolyline
 90
        4
 70
     1
 43
3.0
 10
-2030.17178318172
 20
-1333.645902714626
 42
0.4142135623731
 10
-2031.67178318172
 20
-1332.145902714626
 42
0.4142135623731
 10
-2033.17178318172
 20
-1333.645902714626
 42
0.4142135623731
 10
-2031.67178318172
 20
-1335.145902714625
 42
0.4142135623731
  0
LWPOLYLINE
  5
2B0
330
1F
100
AcDbEntity
  8
寸法
  6
Continuous
 62
     7
370
     9
100
AcDbPolyline
 90
        4
 70
     1
 43
3.0
 10
-1830.171783181719
 20
-1313.645902714625
 42
0.4142135623731
 10
-1831.671783181719
 20
-1312.145902714625
 42
0.4142135623731
 10
-1833.171783181719
 20
-1313.645902714625
 42
0.4142135623731
 10
-1831.671783181719
 20
-1315.145902714625
 42
0.4142135623731
  0
LINE
  5
2B1
330
1F
100
AcDbEntity
  8
寸法
  6
Continuous
 62
   120
370
     5
100
AcDbLine
 10
-1551.67178318172
 20
-1783.645902714626
 30
0.0
 11
-1551.67178318172
 21
-1383.645902714626
 31
0.0
  0
LINE
  5
2B2
330
1F
100
AcDbEntity
  8
寸法
  6
Continuous
 62
   120
370
     5
100
AcDbLine
 10
-1581.67178318172
 20
-1983.645902714626
 30
0.0
 11
-1581.67178318172
 21
-1383.645902714626
 31
0.0
  0
LINE
  5
2B3
330
1F
100
AcDbEntity
  8
寸法
  6
Continuous
 62
   120
370
     5
100
AcDbLine
 10
35.3282168182805
 20
-1583.645902714625
 30
0.0
 11
35.3282168182805
 21
-1383.645902714626
 31
0.0
  0
LINE
  5
2B4
330
1F
100
AcDbEntity
  8
寸法
  6
Continuous
 62
   120
370
     5
100
AcDbLine
 10
-774.6717831817195
 20
-1583.645902714625
 30
0.0
 11
-774.6717831817195
 21
-1383.645902714626
 31
0.0
  0
LINE
  5
2B5
330
1F
100
AcDbEntity
  8
寸法
  6
Continuous
 62
   120
370
     5
100
AcDbLine
 10
-774.6717831817195
 20
-1583.645902714625
 30
0.0
 11
845.3282168182805
 21
-1583.645902714625
 31
0.0
  0
LINE
  5
2B6
330
1F
100
AcDbEntity
  8
寸法
  6
Continuous
 62
   120
370
     5
100
AcDbLine
 10
-1551.67178318172
 20
-1783.645902714626
 30
0.0
 11
1622.32821681828
 21
-1783.645902714626
 31
0.0
  0
LINE
  5
2B7
330
1F
100
AcDbEntity
  8
寸法
  6
Continuous
 62
   120
370
     5
100
AcDbLine
 10
1622.32821681828
 20
-1783.645902714626
 30
0.0
 11
1622.32821681828
 21
-1383.645902714626
 31
0.0
  0
LINE
  5
2B8
330
1F
100
AcDbEntity
  8
寸法
  6
Continuous
 62
   120
370
     5
100
AcDbLine
 10
-1581.67178318172
 20
-1983.645902714626
 30
0.0
 11
1652.32821681828
 21
-1983.645902714625
 31
0.0
  0
LINE
  5
2B9
330
1F
100
AcDbEntity
  8
寸法
  6
Continuous
 62
   120
370
     5
100
AcDbLine
 10
1652.32821681828
 20
-1983.645902714625
 30
0.0
 11
1652.32821681828
 21
-1383.645902714626
 31
0.0
  0
LINE
  5
2BA
330
1F
100
AcDbEntity
  8
寸法
  6
Continuous
 62
   120
370
     5
100
AcDbLine
 10
845.3282168182805
 20
-1583.645902714625
 30
0.0
 11
845.3282168182805
 21
-1383.645902714626
 31
0.0
  0
LWPOLYLINE
  5
2BB
330
1F
100
AcDbEntity
  8
寸法
  6
Continuous
 62
     7
370
     9
100
AcDbPolyline
 90
        4
 70
     1
 43
3.0
 10
-1550.17178318172
 20
-1783.645902714626
 42
0.4142135623731
 10
-1551.67178318172
 20
-1782.145902714626
 42
0.4142135623731
 10
-1553.17178318172
 20
-1783.645902714626
 42
0.4142135623731
 10
-1551.67178318172
 20
-1785.145902714625
 42
0.4142135623731
  0
LWPOLYLINE
  5
2BC
330
1F
100
AcDbEntity
  8
寸法
  6
Continuous
 62
     7
370
     9
100
AcDbPolyline
 90
        4
 70
     1
 43
3.0
 10
-1580.17178318172
 20
-1983.645902714626
 42
0.4142135623731
 10
-1581.67178318172
 20
-1982.145902714626
 42
0.4142135623731
 10
-1583.17178318172
 20
-1983.645902714626
 42
0.4142135623731
 10
-1581.67178318172
 20
-1985.145902714626
 42
0.4142135623731
  0
LWPOLYLINE
  5
2BD
330
1F
100
AcDbEntity
  8
寸法
  6
Continuous
 62
     7
370
     9
100
AcDbPolyline
 90
        4
 70
     1
 43
3.0
 10
36.8282168182805
 20
-1583.645902714625
 42
0.4142135623731
 10
35.3282168182805
 20
-1582.145902714625
 42
0.4142135623731
 10
33.8282168182805
 20
-1583.645902714625
 42
0.4142135623731
 10
35.3282168182805
 20
-1585.145902714625
 42
0.4142135623731
  0
LWPOLYLINE
  5
2BE
330
1F
100
AcDbEntity
  8
寸法
  6
Continuous
 62
     7
370
     9
100
AcDbPolyline
 90
        4
 70
     1
 43
3.0
 10
-773.1717831817194
 20
-1583.645902714625
 42
0.4142135623731
 10
-774.6717831817195
 20
-1582.145902714625
 42
0.4142135623731
 10
-776.1717831817195
 20
-1583.645902714625
 42
0.4142135623731
 10
-774.6717831817195
 20
-1585.145902714625
 42
0.4142135623731
  0
LWPOLYLINE
  5
2BF
330
1F
100
AcDbEntity
  8
寸法
  6
Continuous
 62
     7
370
     9
100
AcDbPolyline
 90
        4
 70
     1
 43
3.0
 10
1623.82821681828
 20
-1783.645902714626
 42
0.4142135623731
 10
1622.32821681828
 20
-1782.145902714626
 42
0.4142135623731
 10
1620.82821681828
 20
-1783.645902714626
 42
0.4142135623731
 10
1622.32821681828
 20
-1785.145902714625
 42
0.4142135623731
  0
LWPOLYLINE
  5
2C0
330
1F
100
AcDbEntity
  8
寸法
  6
Continuous
 62
     7
370
     9
100
AcDbPolyline
 90
        4
 70
     1
 43
3.0
 10
1653.82821681828
 20
-1983.645902714625
 42
0.4142135623731
 10
1652.32821681828
 20
-1982.145902714625
 42
0.4142135623731
 10
1650.82821681828
 20
-1983.645902714625
 42
0.4142135623731
 10
1652.32821681828
 20
-1985.145902714625
 42
0.4142135623731
  0
LWPOLYLINE
  5
2C1
330
1F
100
AcDbEntity
  8
寸法
  6
Continuous
 62
     7
370
     9
100
AcDbPolyline
 90
        4
 70
     1
 43
3.0
 10
846.8282168182805
 20
-1583.645902714625
 42
0.4142135623731
 10
845.3282168182805
 20
-1582.145902714625
 42
0.4142135623731
 10
843.8282168182803
 20
-1583.645902714625
 42
0.4142135623731
 10
845.3282168182805
 20
-1585.145902714625
 42
0.4142135623731
  0
LWPOLYLINE
  5
2C2
330
1F
100
AcDbEntity
  8
寸法
  6
Continuous
 62
     7
370
     9
100
AcDbPolyline
 90
        4
 70
     1
 43
3.0
 10
-2030.17178318172
 20
913.3540972853746
 42
0.4142135623731
 10
-2031.67178318172
 20
914.8540972853746
 42
0.4142135623731
 10
-2033.17178318172
 20
913.3540972853746
 42
0.4142135623731
 10
-2031.67178318172
 20
911.8540972853746
 42
0.4142135623731
  0
LINE
  5
2C3
330
1F
100
AcDbEntity
  8
寸法
  6
Continuous
 62
   120
370
     5
100
AcDbLine
 10
-2031.67178318172
 20
913.3540972853746
 30
0.0
 11
-1631.67178318172
 21
913.3540972853746
 31
0.0
  0
LINE
  5
2C4
330
1F
100
AcDbEntity
  8
寸法
  6
Continuous
 62
   120
370
     5
100
AcDbLine
 10
-2031.67178318172
 20
913.3540972853746
 30
0.0
 11
-2031.67178318172
 21
-1333.645902714626
 31
0.0
  0
LWPOLYLINE
  5
2C5
330
1F
100
AcDbEntity
  8
寸法
  6
Continuous
 62
     7
370
     9
100
AcDbPolyline
 90
        4
 70
     1
 43
3.0
 10
-1830.171783181719
 20
869.3540972853737
 42
0.4142135623731
 10
-1831.671783181719
 20
870.8540972853737
 42
0.4142135623731
 10
-1833.171783181719
 20
869.3540972853737
 42
0.4142135623731
 10
-1831.671783181719
 20
867.8540972853737
 42
0.4142135623731
  0
LINE
  5
2C6
330
1F
100
AcDbEntity
  8
寸法
  6
Continuous
 62
   120
370
     5
100
AcDbLine
 10
-1831.671783181719
 20
869.3540972853737
 30
0.0
 11
-1831.671783181719
 21
-1313.645902714625
 31
0.0
  0
LINE
  5
2C7
330
1F
100
AcDbEntity
  8
寸法
  6
Continuous
 62
   120
370
     5
100
AcDbLine
 10
-1831.671783181719
 20
869.3540972853737
 30
0.0
 11
-1631.67178318172
 21
869.3540972853737
 31
0.0
  0
MTEXT
  5
2C8
330
1F
100
AcDbEntity
  8
寸法
  6
Continuous
 62
     7
370
   211
100
AcDbMText
 10
-538.4217831817195
 20
-1577.570902714625
 30
0.0
 40
57.15000000000001
 41
337.5000000000001
 46
0.0
 71
     7
 72
     1
  1
{\fＭＳ ゴシック|b0|i0|c128|p49;ＤＷ＝810}
 73
     1
 44
1.0
  0
MTEXT
  5
2C9
330
1F
100
AcDbEntity
  8
寸法
  6
Continuous
 62
     7
370
   211
100
AcDbMText
 10
271.5782168182805
 20
-1577.570902714625
 30
0.0
 40
57.14999999999998
 41
337.4999999999999
 46
0.0
 71
     7
 72
     1
  1
{\fＭＳ ゴシック|b0|i0|c128|p49;ＤＷ＝810}
 73
     1
 44
1.0
  0
MTEXT
  5
2CA
330
1F
100
AcDbEntity
  8
寸法
  6
Continuous
 62
     7
370
   211
100
AcDbMText
 10
-170.9217831817203
 20
-1777.570902714626
 30
0.0
 40
57.14999999999999
 41
412.5
 46
0.0
 71
     7
 72
     1
  1
{\fＭＳ ゴシック|b0|i0|c128|p49;枠内＝3,174}
 73
     1
 44
1.0
  0
MTEXT
  5
2CB
330
1F
100
AcDbEntity
  8
寸法
  6
Continuous
 62
     7
370
   211
100
AcDbMText
 10
-170.9217831817203
 20
-1977.570902714626
 30
0.0
 40
57.14999999999999
 41
412.5
 46
0.0
 71
     7
 72
     1
  1
{\fＭＳ ゴシック|b0|i0|c128|p49;枠外＝3,234}
 73
     1
 44
1.0
  0
MTEXT
  5
2CC
330
1F
100
AcDbEntity
  8
寸法
  6
Continuous
 62
     7
370
    70
100
AcDbMText
 10
-2046.671783181719
 20
-437.3209027146257
 30
0.0
 40
57.14999999999999
 41
412.5
 46
0.0
 71
     7
 72
     1
  1
{\fＭＳ ゴシック|b0|i0|c128|p49;枠外＝2,247}
 11
6.123031769111886E-17
 21
1.0
 31
0.0
 73
     1
 44
1.0
  0
MTEXT
  5
2CD
330
1F
100
AcDbEntity
  8
寸法
  6
Continuous
 62
     7
370
    70
100
AcDbMText
 10
-1846.671783181719
 20
-437.3209027146257
 30
0.0
 40
57.14999999999999
 41
412.5
 46
0.0
 71
     7
 72
     1
  1
{\fＭＳ ゴシック|b0|i0|c128|p49;ＤＨ＝2,183}
 11
6.123031769111886E-17
 21
1.0
 31
0.0
 73
     1
 44
1.0
  0
ENDSEC
  0
SECTION
  2
OBJECTS
  0
DICTIONARY
  5
C
330
0
100
AcDbDictionary
281
     1
  3
ACAD_GROUP
350
D
  3
ACAD_LAYOUT
350
1A
  3
ACAD_MATERIAL
350
3B
  3
ACAD_MLEADERSTYLE
350
2CF
  3
ACAD_MLINESTYLE
350
17
  3
ACAD_PLOTSETTINGS
350
19
  3
ACAD_PLOTSTYLENAME
350
E
  3
ACAD_TABLESTYLE
350
2CE
  3
ACAD_VISUALSTYLE
350
2A
  0
DICTIONARY
  5
D
102
{ACAD_REACTORS
330
C
102
}
330
C
100
AcDbDictionary
281
     1
  0
DICTIONARY
  5
1A
102
{ACAD_REACTORS
330
C
102
}
330
C
100
AcDbDictionary
281
     1
  3
Layout1
350
1E
  3
Layout2
350
26
  3
Model
350
22
  0
DICTIONARY
  5
3B
102
{ACAD_REACTORS
330
C
102
}
330
C
100
AcDbDictionary
281
     1
  3
ByBlock
350
3D
  3
ByLayer
350
3C
  3
Global
350
3E
  0
DICTIONARY
  5
2CF
102
{ACAD_REACTORS
330
C
102
}
330
C
100
AcDbDictionary
281
     1
  0
DICTIONARY
  5
17
102
{ACAD_REACTORS
330
C
102
}
330
C
100
AcDbDictionary
281
     1
  3
Standard
350
18
  0
DICTIONARY
  5
19
102
{ACAD_REACTORS
330
C
102
}
330
C
100
AcDbDictionary
281
     1
  0
ACDBDICTIONARYWDFLT
  5
E
102
{ACAD_REACTORS
330
C
102
}
330
C
100
AcDbDictionary
281
     1
  3
Normal
350
F
100
AcDbDictionaryWithDefault
340
F
  0
DICTIONARY
  5
2CE
102
{ACAD_REACTORS
330
C
102
}
330
C
100
AcDbDictionary
281
     1
  0
DICTIONARY
  5
2A
102
{ACAD_REACTORS
330
C
102
}
330
C
100
AcDbDictionary
281
     1
  3
2dWireframe
350
2F
  3
3D Hidden
350
31
  3
3dWireframe
350
30
  3
Basic
350
32
  3
Brighten
350
36
  3
ColorChange
350
3A
  3
Conceptual
350
34
  3
Dim
350
35
  3
Facepattern
350
39
  3
Flat
350
2B
  3
FlatWithEdges
350
2C
  3
Gouraud
350
2D
  3
GouraudWithEdges
350
2E
  3
Linepattern
350
38
  3
Realistic
350
33
  3
Thicken
350
37
  0
LAYOUT
  5
1E
102
{ACAD_REACTORS
330
1A
102
}
330
1A
100
AcDbPlotSettings
  1

  2
none_device
  4

  6

 40
0.0
 41
0.0
 42
0.0
 43
0.0
 44
0.0
 45
0.0
 46
0.0
 47
0.0
 48
0.0
 49
0.0
140
0.0
141
0.0
142
1.0
143
1.0
 70
   688
 72
     0
 73
     0
 74
     5
  7

 75
    16
 76
     0
 77
     5
 78
   300
147
1.0
148
0.0
149
0.0
100
AcDbLayout
  1
Layout1
 70
     1
 71
     1
 10
0.0
 20
0.0
 11
420.0
 21
297.0
 12
0.0
 22
0.0
 32
0.0
 14
1.000000000000000E+20
 24
1.000000000000000E+20
 34
1.000000000000000E+20
 15
-1.000000000000000E+20
 25
-1.000000000000000E+20
 35
-1.000000000000000E+20
146
0.0
 13
0.0
 23
0.0
 33
0.0
 16
1.0
 26
0.0
 36
0.0
 17
0.0
 27
1.0
 37
0.0
 76
     0
330
1B
  0
LAYOUT
  5
26
102
{ACAD_REACTORS
330
1A
102
}
330
1A
100
AcDbPlotSettings
  1

  2
none_device
  4

  6

 40
0.0
 41
0.0
 42
0.0
 43
0.0
 44
0.0
 45
0.0
 46
0.0
 47
0.0
 48
0.0
 49
0.0
140
0.0
141
0.0
142
1.0
143
1.0
 70
   688
 72
     0
 73
     0
 74
     5
  7

 75
    16
 76
     0
 77
     5
 78
   300
147
1.0
148
0.0
149
0.0
100
AcDbLayout
  1
Layout2
 70
     1
 71
     2
 10
0.0
 20
0.0
 11
0.0
 21
0.0
 12
0.0
 22
0.0
 32
0.0
 14
0.0
 24
0.0
 34
0.0
 15
0.0
 25
0.0
 35
0.0
146
0.0
 13
0.0
 23
0.0
 33
0.0
 16
1.0
 26
0.0
 36
0.0
 17
0.0
 27
1.0
 37
0.0
 76
     0
330
23
  0
LAYOUT
  5
22
102
{ACAD_REACTORS
330
1A
102
}
330
1A
100
AcDbPlotSettings
  1

  2
none_device
  4

  6

 40
0.0
 41
0.0
 42
0.0
 43
0.0
 44
0.0
 45
0.0
 46
0.0
 47
0.0
 48
0.0
 49
0.0
140
0.0
141
0.0
142
1.0
143
1.0
 70
  1712
 72
     0
 73
     0
 74
     0
  7

 75
     0
 76
     0
 77
     5
 78
   300
147
1.0
148
0.0
149
0.0
100
AcDbLayout
  1
Model
 70
     1
 71
     0
 10
-4455.0
 20
-3150.0
 11
4455.0
 21
3150.0
 12
0.0
 22
0.0
 32
0.0
 14
-4455.0
 24
-3150.0
 34
0.0
 15
4455.0
 25
3150.0
 35
0.0
146
0.0
 13
0.0
 23
0.0
 33
0.0
 16
1.0
 26
0.0
 36
0.0
 17
0.0
 27
1.0
 37
0.0
 76
     0
330
1F
331
29
  0
MATERIAL
  5
3D
102
{ACAD_REACTORS
330
3B
102
}
330
3B
100
AcDbMaterial
  1
ByBlock
 72
     1
 94
      127
  0
MATERIAL
  5
3C
102
{ACAD_REACTORS
330
3B
102
}
330
3B
100
AcDbMaterial
  1
ByLayer
 72
     1
 94
      127
  0
MATERIAL
  5
3E
102
{ACAD_REACTORS
330
3B
102
}
330
3B
100
AcDbMaterial
  1
Global
 72
     1
 94
      127
  0
MLINESTYLE
  5
18
102
{ACAD_REACTORS
330
17
102
}
330
17
100
AcDbMlineStyle
  2
Standard
 70
     0
  3

 62
   256
 51
90.0
 52
90.0
 71
     2
 49
0.5
 62
   256
  6
BYLAYER
 49
-0.5
 62
   256
  6
BYLAYER
  0
ACDBPLACEHOLDER
  5
F
102
{ACAD_REACTORS
330
E
102
}
330
E
  0
VISUALSTYLE
  5
2F
102
{ACAD_REACTORS
330
2A
102
}
330
2A
100
AcDbVisualStyle
  2
2dWireframe
 70
     4
177
     2
291
     0
 71
     0
176
     1
 72
     2
176
     1
 73
     0
176
     1
 90
        0
176
     1
 40
-0.6
176
     1
 41
-30.0
176
     1
 62
     5
 63
     7
421
 16777215
176
     1
 74
     1
176
     1
 91
        4
176
     1
 64
     7
176
     1
 65
   257
176
     1
 75
     1
176
     1
175
     1
176
     1
 42
1.0
176
     1
 92
        0
176
     1
 66
   257
176
     1
 43
1.0
176
     1
 76
     1
176
     1
 77
     6
176
     1
 78
     2
176
     1
 67
     7
176
     1
 79
     5
176
     1
170
     0
176
     1
171
     0
176
     1
290
     0
176
     1
 93
        1
176
     1
 44
0.0
176
     1
173
     0
176
     1
  0
VISUALSTYLE
  5
31
102
{ACAD_REACTORS
330
2A
102
}
330
2A
100
AcDbVisualStyle
  2
3D Hidden
 70
     6
177
     2
291
     0
 71
     1
176
     1
 72
     2
176
     1
 73
     2
176
     1
 90
        0
176
     1
 40
-0.6
176
     1
 41
-30.0
176
     1
 62
     5
 63
     7
421
 16777215
176
     1
 74
     2
176
     1
 91
        2
176
     1
 64
     7
176
     1
 65
   257
176
     1
 75
     2
176
     1
175
     1
176
     1
 42
40.0
176
     1
 92
        0
176
     1
 66
   257
176
     1
 43
1.0
176
     1
 76
     1
176
     1
 77
     6
176
     1
 78
     2
176
     1
 67
     7
176
     1
 79
     3
176
     1
170
     0
176
     1
171
     0
176
     1
290
     0
176
     1
 93
        1
176
     1
 44
0.0
176
     1
173
     0
176
     1
  0
VISUALSTYLE
  5
30
102
{ACAD_REACTORS
330
2A
102
}
330
2A
100
AcDbVisualStyle
  2
3dWireframe
 70
     5
177
     2
291
     0
 71
     0
176
     1
 72
     2
176
     1
 73
     0
176
     1
 90
        0
176
     1
 40
-0.6
176
     1
 41
-30.0
176
     1
 62
     5
 63
     7
421
 16777215
176
     1
 74
     1
176
     1
 91
        4
176
     1
 64
     7
176
     1
 65
   257
176
     1
 75
     1
176
     1
175
     1
176
     1
 42
1.0
176
     1
 92
        0
176
     1
 66
   257
176
     1
 43
1.0
176
     1
 76
     1
176
     1
 77
     6
176
     1
 78
     2
176
     1
 67
     7
176
     1
 79
     5
176
     1
170
     0
176
     1
171
     0
176
     1
290
     0
176
     1
 93
        1
176
     1
 44
0.0
176
     1
173
     0
176
     1
  0
VISUALSTYLE
  5
32
102
{ACAD_REACTORS
330
2A
102
}
330
2A
100
AcDbVisualStyle
  2
Basic
 70
     7
177
     2
291
     1
 71
     1
176
     1
 72
     0
176
     1
 73
     1
176
     1
 90
        0
176
     1
 40
-0.6
176
     1
 41
-30.0
176
     1
 62
     5
 63
     7
421
 16777215
176
     1
 74
     0
176
     1
 91
        4
176
     1
 64
     7
176
     1
 65
   257
176
     1
 75
     1
176
     1
175
     1
176
     1
 42
1.0
176
     1
 92
        8
176
     1
 66
     7
176
     1
 43
1.0
176
     1
 76
     1
176
     1
 77
     6
176
     1
 78
     2
176
     1
 67
     7
176
     1
 79
     5
176
     1
170
     0
176
     1
171
     0
176
     1
290
     0
176
     1
 93
        1
176
     1
 44
0.0
176
     1
173
     0
176
     1
  0
VISUALSTYLE
  5
36
102
{ACAD_REACTORS
330
2A
102
}
330
2A
100
AcDbVisualStyle
  2
Brighten
 70
    12
177
     2
291
     1
 71
     2
176
     1
 72
     2
176
     1
 73
     0
176
     1
 90
        0
176
     1
 40
-0.6
176
     1
 41
-30.0
176
     1
 62
     5
 63
     7
421
 16777215
176
     1
 74
     1
176
     1
 91
        4
176
     1
 64
     7
176
     1
 65
   257
176
     1
 75
     1
176
     1
175
     1
176
     1
 42
1.0
176
     1
 92
        8
176
     1
 66
     7
176
     1
 43
1.0
176
     1
 76
     1
176
     1
 77
     6
176
     1
 78
     2
176
     1
 67
     7
176
     1
 79
     5
176
     1
170
     0
176
     1
171
     0
176
     1
290
     0
176
     1
 93
        1
176
     1
 44
50.0
176
     1
173
     0
176
     1
  0
VISUALSTYLE
  5
3A
102
{ACAD_REACTORS
330
2A
102
}
330
2A
100
AcDbVisualStyle
  2
ColorChange
 70
    16
177
     2
291
     1
 71
     2
176
     1
 72
     2
176
     1
 73
     3
176
     1
 90
        0
176
     1
 40
-0.6
176
     1
 41
-30.0
176
     1
 62
     5
 63
     8
421
  8421504
176
     1
 74
     1
176
     1
 91
        4
176
     1
 64
     7
176
     1
 65
   257
176
     1
 75
     1
176
     1
175
     1
176
     1
 42
1.0
176
     1
 92
        8
176
     1
 66
     8
424
  8421504
176
     1
 43
1.0
176
     1
 76
     1
176
     1
 77
     6
176
     1
 78
     2
176
     1
 67
     7
176
     1
 79
     5
176
     1
170
     0
176
     1
171
     0
176
     1
290
     0
176
     1
 93
        1
176
     1
 44
0.0
176
     1
173
     0
176
     1
  0
VISUALSTYLE
  5
34
102
{ACAD_REACTORS
330
2A
102
}
330
2A
100
AcDbVisualStyle
  2
Conceptual
 70
     9
177
     2
291
     0
 71
     3
176
     1
 72
     2
176
     1
 73
     0
176
     1
 90
        0
176
     1
 40
-0.6
176
     1
 41
-30.0
176
     1
 62
     5
 63
     7
421
 16777215
176
     1
 74
     2
176
     1
 91
        2
176
     1
 64
     7
176
     1
 65
   257
176
     1
 75
     1
176
     1
175
     1
176
     1
 42
40.0
176
     1
 92
        8
176
     1
 66
     7
176
     1
 43
1.0
176
     1
 76
     1
176
     1
 77
     6
176
     1
 78
     2
176
     1
 67
     7
176
     1
 79
     3
176
     1
170
     0
176
     1
171
     0
176
     1
290
     0
176
     1
 93
        1
176
     1
 44
0.0
176
     1
173
     0
176
     1
  0
VISUALSTYLE
  5
35
102
{ACAD_REACTORS
330
2A
102
}
330
2A
100
AcDbVisualStyle
  2
Dim
 70
    11
177
     2
291
     1
 71
     2
176
     1
 72
     2
176
     1
 73
     0
176
     1
 90
        0
176
     1
 40
-0.6
176
     1
 41
-30.0
176
     1
 62
     5
 63
     7
421
 16777215
176
     1
 74
     1
176
     1
 91
        4
176
     1
 64
     7
176
     1
 65
   257
176
     1
 75
     1
176
     1
175
     1
176
     1
 42
1.0
176
     1
 92
        8
176
     1
 66
     7
176
     1
 43
1.0
176
     1
 76
     1
176
     1
 77
     6
176
     1
 78
     2
176
     1
 67
     7
176
     1
 79
     5
176
     1
170
     0
176
     1
171
     0
176
     1
290
     0
176
     1
 93
        1
176
     1
 44
-50.0
176
     1
173
     0
176
     1
  0
VISUALSTYLE
  5
39
102
{ACAD_REACTORS
330
2A
102
}
330
2A
100
AcDbVisualStyle
  2
Facepattern
 70
    15
177
     2
291
     1
 71
     2
176
     1
 72
     2
176
     1
 73
     0
176
     1
 90
        0
176
     1
 40
-0.6
176
     1
 41
-30.0
176
     1
 62
     5
 63
     7
421
 16777215
176
     1
 74
     1
176
     1
 91
        4
176
     1
 64
     7
176
     1
 65
   257
176
     1
 75
     1
176
     1
175
     1
176
     1
 42
1.0
176
     1
 92
        8
176
     1
 66
     7
176
     1
 43
1.0
176
     1
 76
     1
176
     1
 77
     6
176
     1
 78
     2
176
     1
 67
     7
176
     1
 79
     5
176
     1
170
     0
176
     1
171
     0
176
     1
290
     0
176
     1
 93
        1
176
     1
 44
0.0
176
     1
173
     0
176
     1
  0
VISUALSTYLE
  5
2B
102
{ACAD_REACTORS
330
2A
102
}
330
2A
100
AcDbVisualStyle
  2
Flat
 70
     0
177
     2
291
     1
 71
     2
176
     1
 72
     1
176
     1
 73
     1
176
     1
 90
        2
176
     1
 40
-0.6
176
     1
 41
30.0
176
     1
 62
     5
 63
     7
421
 16777215
176
     1
 74
     0
176
     1
 91
        4
176
     1
 64
     7
176
     1
 65
   257
176
     1
 75
     1
176
     1
175
     1
176
     1
 42
1.0
176
     1
 92
        8
176
     1
 66
     7
176
     1
 43
1.0
176
     1
 76
     1
176
     1
 77
     6
176
     1
 78
     2
176
     1
 67
     7
176
     1
 79
     5
176
     1
170
     0
176
     1
171
     0
176
     1
290
     0
176
     1
 93
       13
176
     1
 44
0.0
176
     1
173
     0
176
     1
  0
VISUALSTYLE
  5
2C
102
{ACAD_REACTORS
330
2A
102
}
330
2A
100
AcDbVisualStyle
  2
FlatWithEdges
 70
     1
177
     2
291
     1
 71
     2
176
     1
 72
     1
176
     1
 73
     1
176
     1
 90
        2
176
     1
 40
-0.6
176
     1
 41
30.0
176
     1
 62
     5
 63
     7
421
 16777215
176
     1
 74
     1
176
     1
 91
        4
176
     1
 64
     7
176
     1
 65
   257
176
     1
 75
     1
176
     1
175
     1
176
     1
 42
1.0
176
     1
 92
        0
176
     1
 66
   257
176
     1
 43
1.0
176
     1
 76
     1
176
     1
 77
     6
176
     1
 78
     2
176
     1
 67
     7
176
     1
 79
     5
176
     1
170
     0
176
     1
171
     0
176
     1
290
     0
176
     1
 93
       13
176
     1
 44
0.0
176
     1
173
     0
176
     1
  0
VISUALSTYLE
  5
2D
102
{ACAD_REACTORS
330
2A
102
}
330
2A
100
AcDbVisualStyle
  2
Gouraud
 70
     2
177
     2
291
     1
 71
     2
176
     1
 72
     2
176
     1
 73
     1
176
     1
 90
        2
176
     1
 40
-0.6
176
     1
 41
30.0
176
     1
 62
     5
 63
     7
421
 16777215
176
     1
 74
     0
176
     1
 91
        4
176
     1
 64
     7
176
     1
 65
   257
176
     1
 75
     1
176
     1
175
     1
176
     1
 42
1.0
176
     1
 92
        0
176
     1
 66
     7
176
     1
 43
1.0
176
     1
 76
     1
176
     1
 77
     6
176
     1
 78
     2
176
     1
 67
     7
176
     1
 79
     5
176
     1
170
     0
176
     1
171
     0
176
     1
290
     0
176
     1
 93
       13
176
     1
 44
0.0
176
     1
173
     0
176
     1
  0
VISUALSTYLE
  5
2E
102
{ACAD_REACTORS
330
2A
102
}
330
2A
100
AcDbVisualStyle
  2
GouraudWithEdges
 70
     3
177
     2
291
     1
 71
     2
176
     1
 72
     2
176
     1
 73
     1
176
     1
 90
        2
176
     1
 40
-0.6
176
     1
 41
30.0
176
     1
 62
     5
 63
     7
421
 16777215
176
     1
 74
     1
176
     1
 91
        4
176
     1
 64
     7
176
     1
 65
   257
176
     1
 75
     1
176
     1
175
     1
176
     1
 42
1.0
176
     1
 92
        0
176
     1
 66
   257
176
     1
 43
1.0
176
     1
 76
     1
176
     1
 77
     6
176
     1
 78
     2
176
     1
 67
     7
176
     1
 79
     5
176
     1
170
     0
176
     1
171
     0
176
     1
290
     0
176
     1
 93
       13
176
     1
 44
0.0
176
     1
173
     0
176
     1
  0
VISUALSTYLE
  5
38
102
{ACAD_REACTORS
330
2A
102
}
330
2A
100
AcDbVisualStyle
  2
Linepattern
 70
    14
177
     2
291
     1
 71
     2
176
     1
 72
     2
176
     1
 73
     0
176
     1
 90
        0
176
     1
 40
-0.6
176
     1
 41
-30.0
176
     1
 62
     5
 63
     7
421
 16777215
176
     1
 74
     1
176
     1
 91
        4
176
     1
 64
     7
176
     1
 65
   257
176
     1
 75
     7
176
     1
175
     7
176
     1
 42
1.0
176
     1
 92
        8
176
     1
 66
     7
176
     1
 43
1.0
176
     1
 76
     1
176
     1
 77
     6
176
     1
 78
     2
176
     1
 67
     7
176
     1
 79
     5
176
     1
170
     0
176
     1
171
     0
176
     1
290
     0
176
     1
 93
        1
176
     1
 44
0.0
176
     1
173
     0
176
     1
  0
VISUALSTYLE
  5
33
102
{ACAD_REACTORS
330
2A
102
}
330
2A
100
AcDbVisualStyle
  2
Realistic
 70
     8
177
     2
291
     0
 71
     2
176
     1
 72
     2
176
     1
 73
     0
176
     1
 90
        0
176
     1
 40
-0.6
176
     1
 41
-30.0
176
     1
 62
     5
 63
     7
421
 16777215
176
     1
 74
     1
176
     1
 91
        0
176
     1
 64
     7
176
     1
 65
   257
176
     1
 75
     1
176
     1
175
     1
176
     1
 42
1.0
176
     1
 92
        8
176
     1
 66
     8
424
  7895160
176
     1
 43
1.0
176
     1
 76
     1
176
     1
 77
     6
176
     1
 78
     2
176
     1
 67
     7
176
     1
 79
     5
176
     1
170
     0
176
     1
171
     0
176
     1
290
     0
176
     1
 93
       13
176
     1
 44
0.0
176
     1
173
     0
176
     1
  0
VISUALSTYLE
  5
37
102
{ACAD_REACTORS
330
2A
102
}
330
2A
100
AcDbVisualStyle
  2
Thicken
 70
    13
177
     2
291
     1
 71
     2
176
     1
 72
     2
176
     1
 73
     0
176
     1
 90
        0
176
     1
 40
-0.6
176
     1
 41
-30.0
176
     1
 62
     5
 63
     7
421
 16777215
176
     1
 74
     1
176
     1
 91
        4
176
     1
 64
     7
176
     1
 65
   257
176
     1
 75
     1
176
     1
175
     1
176
     1
 42
1.0
176
     1
 92
       12
176
     1
 66
     7
176
     1
 43
1.0
176
     1
 76
     1
176
     1
 77
     6
176
     1
 78
     2
176
     1
 67
     7
176
     1
 79
     5
176
     1
170
     0
176
     1
171
     0
176
     1
290
     0
176
     1
 93
        1
176
     1
 44
0.0
176
     1
173
     0
176
     1
  0
ENDSEC
  0
EOF
