  0
SECTION
  2
HEADER
  9
$ACADVER
  1
AC1024
  9
$ACADMAINTVER
 70
     6
  9
$DWGCODEPAGE
  3
ANSI_932
  9
$INSBASE
 10
0.0
 20
0.0
 30
0.0
  9
$EXTMIN
 10
-4455.0
 20
-3150.0
 30
0.0
  9
$EXTMAX
 10
4455.0
 20
3150.0
 30
0.0
  9
$LIMMIN
 10
-4455.0
 20
-3150.0
  9
$LIMMAX
 10
4455.0
 20
3150.0
  9
$ORTHOMODE
 70
     0
  9
$REGENMODE
 70
     1
  9
$FILLMODE
 70
     1
  9
$QTEXTMODE
 70
     0
  9
$MIRRTEXT
 70
     1
  9
$LTSCALE
 40
30.0
  9
$ATTMODE
 70
     1
  9
$TEXTSIZE
 40
2.5
  9
$TRACEWID
 40
1.0
  9
$TEXTSTYLE
  7
Standard
  9
$CLAYER
  8
0
  9
$CELTYPE
  6
ByLayer
  9
$CECOLOR
 62
   256
  9
$CELTSCALE
 40
1.0
  9
$DISPSILH
 70
     0
  9
$DIMSCALE
 40
1.0
  9
$DIMASZ
 40
2.5
  9
$DIMEXO
 40
0.625
  9
$DIMDLI
 40
3.75
  9
$DIMRND
 40
0.0
  9
$DIMDLE
 40
0.0
  9
$DIMEXE
 40
1.25
  9
$DIMTP
 40
0.0
  9
$DIMTM
 40
0.0
  9
$DIMTXT
 40
2.5
  9
$DIMCEN
 40
2.5
  9
$DIMTSZ
 40
0.0
  9
$DIMTOL
 70
     0
  9
$DIMLIM
 70
     0
  9
$DIMTIH
 70
     0
  9
$DIMTOH
 70
     0
  9
$DIMSE1
 70
     0
  9
$DIMSE2
 70
     0
  9
$DIMTAD
 70
     1
  9
$DIMZIN
 70
     8
  9
$DIMBLK
  1

  9
$DIMASO
 70
     1
  9
$DIMSHO
 70
     1
  9
$DIMPOST
  1

  9
$DIMAPOST
  1

  9
$DIMALT
 70
     0
  9
$DIMALTD
 70
     3
  9
$DIMALTF
 40
0.03937007874016
  9
$DIMLFAC
 40
1.0
  9
$DIMTOFL
 70
     1
  9
$DIMTVP
 40
0.0
  9
$DIMTIX
 70
     0
  9
$DIMSOXD
 70
     0
  9
$DIMSAH
 70
     0
  9
$DIMBLK1
  1

  9
$DIMBLK2
  1

  9
$DIMSTYLE
  2
ISO-25
  9
$DIMCLRD
 70
     0
  9
$DIMCLRE
 70
     0
  9
$DIMCLRT
 70
     0
  9
$DIMTFAC
 40
1.0
  9
$DIMGAP
 40
0.625
  9
$DIMJUST
 70
     0
  9
$DIMSD1
 70
     0
  9
$DIMSD2
 70
     0
  9
$DIMTOLJ
 70
     0
  9
$DIMTZIN
 70
     8
  9
$DIMALTZ
 70
     0
  9
$DIMALTTZ
 70
     0
  9
$DIMUPT
 70
     0
  9
$DIMDEC
 70
     2
  9
$DIMTDEC
 70
     2
  9
$DIMALTU
 70
     2
  9
$DIMALTTD
 70
     3
  9
$DIMTXSTY
  7
Standard
  9
$DIMAUNIT
 70
     0
  9
$DIMADEC
 70
     0
  9
$DIMALTRND
 40
0.0
  9
$DIMAZIN
 70
     0
  9
$DIMDSEP
 70
    44
  9
$DIMATFIT
 70
     3
  9
$DIMFRAC
 70
     0
  9
$DIMLDRBLK
  1

  9
$DIMLUNIT
 70
     2
  9
$DIMLWD
 70
    -2
  9
$DIMLWE
 70
    -2
  9
$DIMTMOVE
 70
     0
  9
$DIMFXL
 40
1.0
  9
$DIMFXLON
 70
     0
  9
$DIMJOGANG
 40
0.7853981633974483
  9
$DIMTFILL
 70
     0
  9
$DIMTFILLCLR
 70
     0
  9
$DIMARCSYM
 70
     0
  9
$DIMLTYPE
  6

  9
$DIMLTEX1
  6

  9
$DIMLTEX2
  6

  9
$DIMTXTDIRECTION
 70
     0
  9
$LUNITS
 70
     2
  9
$LUPREC
 70
     4
  9
$SKETCHINC
 40
1.0
  9
$FILLETRAD
 40
10.0
  9
$AUNITS
 70
     0
  9
$AUPREC
 70
     0
  9
$MENU
  1
.
  9
$ELEVATION
 40
0.0
  9
$PELEVATION
 40
0.0
  9
$THICKNESS
 40
0.0
  9
$LIMCHECK
 70
     0
  9
$CHAMFERA
 40
10.0
  9
$CHAMFERB
 40
10.0
  9
$CHAMFERC
 40
20.0
  9
$CHAMFERD
 40
0.0
  9
$SKPOLY
 70
     0
  9
$TDCREATE
 40
2457953.400678414
  9
$TDUCREATE
 40
2457953.025678414
  9
$TDUPDATE
 40
2457953.400678426
  9
$TDUUPDATE
 40
2457953.025678426
  9
$TDINDWG
 40
0.0000000116
  9
$TDUSRTIMER
 40
0.0000000116
  9
$USRTIMER
 70
     1
  9
$ANGBASE
 50
0.0
  9
$ANGDIR
 70
     0
  9
$PDMODE
 70
     0
  9
$PDSIZE
 40
0.0
  9
$PLINEWID
 40
0.0
  9
$SPLFRAME
 70
     0
  9
$SPLINETYPE
 70
     6
  9
$SPLINESEGS
 70
     8
  9
$HANDSEED
  5
57E
  9
$SURFTAB1
 70
     6
  9
$SURFTAB2
 70
     6
  9
$SURFTYPE
 70
     6
  9
$SURFU
 70
     6
  9
$SURFV
 70
     6
  9
$UCSBASE
  2

  9
$UCSNAME
  2

  9
$UCSORG
 10
0.0
 20
0.0
 30
0.0
  9
$UCSXDIR
 10
1.0
 20
0.0
 30
0.0
  9
$UCSYDIR
 10
0.0
 20
1.0
 30
0.0
  9
$UCSORTHOREF
  2

  9
$UCSORTHOVIEW
 70
     0
  9
$UCSORGTOP
 10
0.0
 20
0.0
 30
0.0
  9
$UCSORGBOTTOM
 10
0.0
 20
0.0
 30
0.0
  9
$UCSORGLEFT
 10
0.0
 20
0.0
 30
0.0
  9
$UCSORGRIGHT
 10
0.0
 20
0.0
 30
0.0
  9
$UCSORGFRONT
 10
0.0
 20
0.0
 30
0.0
  9
$UCSORGBACK
 10
0.0
 20
0.0
 30
0.0
  9
$PUCSBASE
  2

  9
$PUCSNAME
  2

  9
$PUCSORG
 10
0.0
 20
0.0
 30
0.0
  9
$PUCSXDIR
 10
1.0
 20
0.0
 30
0.0
  9
$PUCSYDIR
 10
0.0
 20
1.0
 30
0.0
  9
$PUCSORTHOREF
  2

  9
$PUCSORTHOVIEW
 70
     0
  9
$PUCSORGTOP
 10
0.0
 20
0.0
 30
0.0
  9
$PUCSORGBOTTOM
 10
0.0
 20
0.0
 30
0.0
  9
$PUCSORGLEFT
 10
0.0
 20
0.0
 30
0.0
  9
$PUCSORGRIGHT
 10
0.0
 20
0.0
 30
0.0
  9
$PUCSORGFRONT
 10
0.0
 20
0.0
 30
0.0
  9
$PUCSORGBACK
 10
0.0
 20
0.0
 30
0.0
  9
$USERI1
 70
     0
  9
$USERI2
 70
     0
  9
$USERI3
 70
     0
  9
$USERI4
 70
     0
  9
$USERI5
 70
     0
  9
$USERR1
 40
0.0
  9
$USERR2
 40
0.0
  9
$USERR3
 40
0.0
  9
$USERR4
 40
0.0
  9
$USERR5
 40
0.0
  9
$WORLDVIEW
 70
     1
  9
$SHADEDGE
 70
     3
  9
$SHADEDIF
 70
    70
  9
$TILEMODE
 70
     1
  9
$MAXACTVP
 70
    64
  9
$PINSBASE
 10
0.0
 20
0.0
 30
0.0
  9
$PLIMCHECK
 70
     0
  9
$PEXTMIN
 10
1.000000000000000E+20
 20
1.000000000000000E+20
 30
1.000000000000000E+20
  9
$PEXTMAX
 10
-1.000000000000000E+20
 20
-1.000000000000000E+20
 30
-1.000000000000000E+20
  9
$PLIMMIN
 10
0.0
 20
0.0
  9
$PLIMMAX
 10
420.0
 20
297.0
  9
$UNITMODE
 70
     0
  9
$VISRETAIN
 70
     1
  9
$PLINEGEN
 70
     0
  9
$PSLTSCALE
 70
     1
  9
$TREEDEPTH
 70
  3020
  9
$CMLSTYLE
  2
Standard
  9
$CMLJUST
 70
     0
  9
$CMLSCALE
 40
20.0
  9
$PROXYGRAPHICS
 70
     1
  9
$MEASUREMENT
 70
     1
  9
$CELWEIGHT
370
    -1
  9
$ENDCAPS
280
     0
  9
$JOINSTYLE
280
     0
  9
$LWDISPLAY
290
     0
  9
$INSUNITS
 70
     4
  9
$HYPERLINKBASE
  1

  9
$STYLESHEET
  1

  9
$XEDIT
290
     1
  9
$CEPSNTYPE
380
     0
  9
$PSTYLEMODE
290
     1
  9
$FINGERPRINTGUID
  2
{E0524005-1A57-4816-8C5D-266183D1FFC9}
  9
$VERSIONGUID
  2
{FAEB1C32-E019-11D5-929B-00C0DF256EC4}
  9
$EXTNAMES
290
     1
  9
$PSVPSCALE
 40
0.0
  9
$OLESTARTUP
290
     0
  9
$SORTENTS
280
   127
  9
$INDEXCTL
280
     0
  9
$HIDETEXT
280
     1
  9
$XCLIPFRAME
280
     2
  9
$HALOGAP
280
     0
  9
$OBSCOLOR
 70
   257
  9
$OBSLTYPE
280
     0
  9
$INTERSECTIONDISPLAY
280
     0
  9
$INTERSECTIONCOLOR
 70
   257
  9
$DIMASSOC
280
     2
  9
$PROJECTNAME
  1

  9
$CAMERADISPLAY
290
     0
  9
$LENSLENGTH
 40
50.0
  9
$CAMERAHEIGHT
 40
0.0
  9
$STEPSPERSEC
 40
2.0
  9
$STEPSIZE
 40
6.0
  9
$3DDWFPREC
 40
2.0
  9
$PSOLWIDTH
 40
5.0
  9
$PSOLHEIGHT
 40
80.0
  9
$LOFTANG1
 40
1.570796326794897
  9
$LOFTANG2
 40
1.570796326794897
  9
$LOFTMAG1
 40
0.0
  9
$LOFTMAG2
 40
0.0
  9
$LOFTPARAM
 70
     7
  9
$LOFTNORMALS
280
     1
  9
$LATITUDE
 40
37.795
  9
$LONGITUDE
 40
-122.394
  9
$NORTHDIRECTION
 40
0.0
  9
$TIMEZONE
 70
 -8000
  9
$LIGHTGLYPHDISPLAY
280
     1
  9
$TILEMODELIGHTSYNCH
280
     1
  9
$SOLIDHIST
280
     1
  9
$SHOWHIST
280
     1
  9
$DWFFRAME
280
     2
  9
$DGNFRAME
280
     2
  9
$REALWORLDSCALE
290
     1
  9
$INTERFERECOLOR
 62
   256
  9
$CSHADOW
280
     0
  9
$SHADOWPLANELOCATION
 40
0.0
  0
ENDSEC
  0
SECTION
  2
CLASSES
  0
CLASS
  1
ACDBDICTIONARYWDFLT
  2
AcDbDictionaryWithDefault
  3
ObjectDBX Classes
 90
        0
 91
        4
280
     0
281
     0
  0
CLASS
  1
VISUALSTYLE
  2
AcDbVisualStyle
  3
ObjectDBX Classes
 90
     4095
 91
        4
280
     0
281
     0
  0
CLASS
  1
MATERIAL
  2
AcDbMaterial
  3
ObjectDBX Classes
 90
     1153
 91
        4
280
     0
281
     0
  0
ENDSEC
  0
SECTION
  2
TABLES
  0
TABLE
  2
VPORT
  5
8
330
0
100
AcDbSymbolTable
 70
     1
  0
VPORT
  5
29
330
8
100
AcDbSymbolTableRecord
100
AcDbViewportTableRecord
  2
*Active
 70
     0
 10
0.0
 20
0.0
 11
1.0
 21
1.0
 12
0.0
 22
0.0
 13
0.0
 23
0.0
 14
10.0
 24
10.0
 15
10.0
 25
10.0
 16
0.0
 26
0.0
 36
1.0
 17
0.0
 27
0.0
 37
0.0
 40
6930.000000000001
 41
1.414285714285714
 42
50.0
 43
0.0
 44
0.0
 50
0.0
 51
0.0
 71
     0
 72
 10000
 73
     1
 74
     3
 75
     0
 76
     0
 77
     0
 78
     0
281
     0
 65
     1
110
0.0
120
0.0
130
0.0
111
1.0
121
0.0
131
0.0
112
0.0
122
1.0
132
0.0
 79
     0
146
0.0
 60
     3
 61
     5
292
     1
282
     1
141
0.0
142
0.0
 63
   250
  0
ENDTAB
  0
TABLE
  2
LTYPE
  5
5
330
0
100
AcDbSymbolTable
 70
     2
  0
LTYPE
  5
14
330
5
100
AcDbSymbolTableRecord
100
AcDbLinetypeTableRecord
  2
ByBlock
 70
     0
  3

 72
    65
 73
     0
 40
0.0
  0
LTYPE
  5
15
330
5
100
AcDbSymbolTableRecord
100
AcDbLinetypeTableRecord
  2
ByLayer
 70
     0
  3

 72
    65
 73
     0
 40
0.0
  0
LTYPE
  5
16
330
5
100
AcDbSymbolTableRecord
100
AcDbLinetypeTableRecord
  2
Continuous
 70
     0
  3
Solid line
 72
    65
 73
     0
 40
0.0
  0
LTYPE
  5
3F
330
5
100
AcDbSymbolTableRecord
100
AcDbLinetypeTableRecord
  2
JWW_DASHED1
 70
     0
  3
-  --  --  --  --  --  --  --  -
 72
    65
 73
     2
 40
1.693333333333333
 49
0.8466666666666667
 74
     0
 49
-0.8466666666666667
 74
     0
  0
ENDTAB
  0
TABLE
  2
LAYER
  5
2
330
0
100
AcDbSymbolTable
 70
     3
  0
LAYER
  5
10
330
2
100
AcDbSymbolTableRecord
100
AcDbLayerTableRecord
  2
0
 70
     0
 62
     7
  6
Continuous
370
    -3
390
F
347
3E
  0
LAYER
  5
40
330
2
100
AcDbSymbolTableRecord
100
AcDbLayerTableRecord
  2
0-0
 70
     0
 62
     7
  6
Continuous
370
    -3
390
F
347
3E
  0
LAYER
  5
41
330
2
100
AcDbSymbolTableRecord
100
AcDbLayerTableRecord
  2
寸法
 70
     0
 62
     7
  6
Continuous
370
    -3
390
F
347
3E
  0
ENDTAB
  0
TABLE
  2
STYLE
  5
3
330
0
100
AcDbSymbolTable
 70
     1
  0
STYLE
  5
11
330
3
100
AcDbSymbolTableRecord
100
AcDbTextStyleTableRecord
  2
Standard
 70
     0
 40
0.0
 41
1.0
 50
0.0
 71
     0
 42
2.5
  3
txt
  4

  0
ENDTAB
  0
TABLE
  2
VIEW
  5
6
330
0
100
AcDbSymbolTable
 70
     0
  0
ENDTAB
  0
TABLE
  2
UCS
  5
7
330
0
100
AcDbSymbolTable
 70
     0
  0
ENDTAB
  0
TABLE
  2
APPID
  5
9
330
0
100
AcDbSymbolTable
 70
     1
  0
APPID
  5
12
330
9
100
AcDbSymbolTableRecord
100
AcDbRegAppTableRecord
  2
ACAD
 70
     0
  0
ENDTAB
  0
TABLE
  2
DIMSTYLE
  5
A
330
0
100
AcDbSymbolTable
 70
     1
100
AcDbDimStyleTable
  0
DIMSTYLE
105
27
330
A
100
AcDbSymbolTableRecord
100
AcDbDimStyleTableRecord
  2
ISO-25
 70
     0
 41
2.5
 42
0.625
 43
3.75
 44
1.25
 73
     0
 74
     0
 77
     1
 78
     8
140
2.5
141
2.5
143
0.03937007874016
147
0.625
171
     3
172
     1
178
     0
271
     2
272
     2
274
     3
278
    44
283
     0
284
     8
340
11
  0
ENDTAB
  0
TABLE
  2
BLOCK_RECORD
  5
1
330
0
100
AcDbSymbolTable
 70
     1
  0
BLOCK_RECORD
  5
1F
330
1
100
AcDbSymbolTableRecord
100
AcDbBlockTableRecord
  2
*Model_Space
340
22
 70
     0
280
     1
281
     0
  0
BLOCK_RECORD
  5
1B
330
1
100
AcDbSymbolTableRecord
100
AcDbBlockTableRecord
  2
*Paper_Space
340
1E
 70
     0
280
     1
281
     0
  0
BLOCK_RECORD
  5
23
330
1
100
AcDbSymbolTableRecord
100
AcDbBlockTableRecord
  2
*Paper_Space0
340
26
 70
     0
280
     1
281
     0
  0
ENDTAB
  0
ENDSEC
  0
SECTION
  2
BLOCKS
  0
BLOCK
  5
20
330
1F
100
AcDbEntity
  8
0
100
AcDbBlockBegin
  2
*Model_Space
 70
     0
 10
0.0
 20
0.0
 30
0.0
  3
*Model_Space
  1

  0
ENDBLK
  5
21
330
1F
100
AcDbEntity
  8
0
100
AcDbBlockEnd
  0
BLOCK
  5
1C
330
1B
100
AcDbEntity
 67
     1
  8
0
100
AcDbBlockBegin
  2
*Paper_Space
 70
     0
 10
0.0
 20
0.0
 30
0.0
  3
*Paper_Space
  1

  0
ENDBLK
  5
1D
330
1B
100
AcDbEntity
 67
     1
  8
0
100
AcDbBlockEnd
  0
BLOCK
  5
24
330
23
100
AcDbEntity
  8
0
100
AcDbBlockBegin
  2
*Paper_Space0
 70
     0
 10
0.0
 20
0.0
 30
0.0
  3
*Paper_Space0
  1

  0
ENDBLK
  5
25
330
23
100
AcDbEntity
  8
0
100
AcDbBlockEnd
  0
ENDSEC
  0
SECTION
  2
ENTITIES
  0
LINE
  5
42
330
1F
100
AcDbEntity
  8
0-0
  6
Continuous
 62
    92
370
    13
100
AcDbLine
 10
1634.125378746885
 20
-1089.132493658926
 30
0.0
 11
-1599.874621253115
 21
-1089.132493658926
 31
0.0
  0
LINE
  5
43
330
1F
100
AcDbEntity
  8
0-0
  6
Continuous
 62
    92
370
    13
100
AcDbLine
 10
1604.125378746885
 20
-1074.132493658926
 30
0.0
 11
-1569.874621253115
 21
-1074.132493658926
 31
0.0
  0
ARC
  5
44
330
1F
100
AcDbEntity
  8
0-0
  6
Continuous
 62
    92
370
    13
100
AcDbCircle
 10
-53.37462125311302
 20
-58.1324936589256
 30
0.0
 40
1.5
100
AcDbArc
 50
90.0
 51
180.0
  0
LINE
  5
45
330
1F
100
AcDbEntity
  8
0-0
  6
Continuous
 62
    92
370
    13
100
AcDbLine
 10
-54.87462125311336
 20
-165.1324936589246
 30
0.0
 11
-54.87462125311336
 21
-58.1324936589256
 31
0.0
  0
ARC
  5
46
330
1F
100
AcDbEntity
  8
0-0
  6
Continuous
 62
    92
370
    13
100
AcDbCircle
 10
-53.37462125311302
 20
-165.1324936589246
 30
0.0
 40
1.5
100
AcDbArc
 50
180.0
 51
270.0
  0
LINE
  5
47
330
1F
100
AcDbEntity
  8
0-0
  6
Continuous
 62
    92
370
    13
100
AcDbLine
 10
-14.37462125311438
 20
-166.632493658925
 30
0.0
 11
-53.37462125311302
 21
-166.632493658925
 31
0.0
  0
ARC
  5
48
330
1F
100
AcDbEntity
  8
0-0
  6
Continuous
 62
    92
370
    13
100
AcDbCircle
 10
-14.37462125311438
 20
-165.1324936589246
 30
0.0
 40
1.5
100
AcDbArc
 50
270.0
 51
0.0
  0
LINE
  5
49
330
1F
100
AcDbEntity
  8
0-0
  6
Continuous
 62
    92
370
    13
100
AcDbLine
 10
-12.87462125311404
 20
-58.1324936589256
 30
0.0
 11
-12.87462125311404
 21
-165.1324936589246
 31
0.0
  0
LINE
  5
4A
330
1F
100
AcDbEntity
  8
0-0
  6
Continuous
 62
    92
370
    13
100
AcDbLine
 10
-14.37462125311438
 20
-56.63249365892526
 30
0.0
 11
-53.37462125311302
 21
-56.63249365892526
 31
0.0
  0
ARC
  5
4B
330
1F
100
AcDbEntity
  8
0-0
  6
Continuous
 62
    92
370
    13
100
AcDbCircle
 10
-14.37462125311438
 20
-58.1324936589256
 30
0.0
 40
1.5
100
AcDbArc
 50
0.0
 51
90.0
  0
ARC
  5
4C
330
1F
100
AcDbEntity
  8
0-0
  6
Continuous
 62
     7
370
     9
100
AcDbCircle
 10
-44.87462125311308
 20
-74.13249365892469
 30
0.0
 40
1.5
100
AcDbArc
 50
90.0
 51
180.0
  0
LINE
  5
4D
330
1F
100
AcDbEntity
  8
0-0
  6
Continuous
 62
     7
370
     9
100
AcDbLine
 10
-46.37462125311427
 20
-149.1324936589247
 30
0.0
 11
-46.37462125311427
 21
-74.13249365892469
 31
0.0
  0
ARC
  5
4E
330
1F
100
AcDbEntity
  8
0-0
  6
Continuous
 62
     7
370
     9
100
AcDbCircle
 10
-44.87462125311308
 20
-149.1324936589247
 30
0.0
 40
1.5
100
AcDbArc
 50
180.0
 51
270.0
  0
LINE
  5
4F
330
1F
100
AcDbEntity
  8
0-0
  6
Continuous
 62
     7
370
     9
100
AcDbLine
 10
-22.87462125311347
 20
-150.6324936589259
 30
0.0
 11
-44.87462125311308
 21
-150.6324936589259
 31
0.0
  0
ARC
  5
50
330
1F
100
AcDbEntity
  8
0-0
  6
Continuous
 62
     7
370
     9
100
AcDbCircle
 10
-22.87462125311347
 20
-149.1324936589247
 30
0.0
 40
1.5
100
AcDbArc
 50
270.0
 51
0.0
  0
LINE
  5
51
330
1F
100
AcDbEntity
  8
0-0
  6
Continuous
 62
     7
370
     9
100
AcDbLine
 10
-21.37462125311313
 20
-74.13249365892469
 30
0.0
 11
-21.37462125311313
 21
-149.1324936589247
 31
0.0
  0
LINE
  5
52
330
1F
100
AcDbEntity
  8
0-0
  6
Continuous
 62
     7
370
     9
100
AcDbLine
 10
-22.87462125311347
 20
-72.63249365892435
 30
0.0
 11
-44.87462125311308
 21
-72.63249365892435
 31
0.0
  0
ARC
  5
53
330
1F
100
AcDbEntity
  8
0-0
  6
Continuous
 62
     7
370
     9
100
AcDbCircle
 10
-22.87462125311347
 20
-74.13249365892469
 30
0.0
 40
1.5
100
AcDbArc
 50
0.0
 51
90.0
  0
ARC
  5
54
330
1F
100
AcDbEntity
  8
0-0
  6
Continuous
 62
    92
370
    13
100
AcDbCircle
 10
-53.37462125311302
 20
-52.13249365892594
 30
0.0
 40
1.5
100
AcDbArc
 50
90.0
 51
180.0
  0
LINE
  5
55
330
1F
100
AcDbEntity
  8
0-0
  6
Continuous
 62
    92
370
    13
100
AcDbLine
 10
-14.37462125311438
 20
-50.6324936589256
 30
0.0
 11
-53.37462125311302
 21
-50.6324936589256
 31
0.0
  0
ARC
  5
56
330
1F
100
AcDbEntity
  8
0-0
  6
Continuous
 62
    92
370
    13
100
AcDbCircle
 10
-14.37462125311438
 20
-52.13249365892594
 30
0.0
 40
1.5
100
AcDbArc
 50
0.0
 51
90.00000000000001
  0
LINE
  5
57
330
1F
100
AcDbEntity
  8
0-0
  6
Continuous
 62
    92
370
    13
100
AcDbLine
 10
-12.87462125311404
 20
-171.1324936589251
 30
0.0
 11
-12.87462125311404
 21
-52.13249365892594
 31
0.0
  0
ARC
  5
58
330
1F
100
AcDbEntity
  8
0-0
  6
Continuous
 62
    92
370
    13
100
AcDbCircle
 10
-14.37462125311438
 20
-171.1324936589251
 30
0.0
 40
1.5
100
AcDbArc
 50
270.0
 51
0.0
  0
LINE
  5
59
330
1F
100
AcDbEntity
  8
0-0
  6
Continuous
 62
    92
370
    13
100
AcDbLine
 10
-53.37462125311302
 20
-172.6324936589272
 30
0.0
 11
-14.37462125311438
 21
-172.6324936589272
 31
0.0
  0
LINE
  5
5A
330
1F
100
AcDbEntity
  8
0-0
  6
Continuous
 62
    92
370
    13
100
AcDbLine
 10
-54.87462125311336
 20
-171.1324936589251
 30
0.0
 11
-54.87462125311336
 21
-52.13249365892594
 31
0.0
  0
ARC
  5
5B
330
1F
100
AcDbEntity
  8
0-0
  6
Continuous
 62
    92
370
    13
100
AcDbCircle
 10
-53.37462125311302
 20
-171.1324936589251
 30
0.0
 40
1.5
100
AcDbArc
 50
180.0
 51
270.0
  0
ARC
  5
5C
330
1F
100
AcDbEntity
  8
0-0
  6
Continuous
 62
     7
370
     9
100
AcDbCircle
 10
-33.8746212531137
 20
-141.2324936589251
 30
0.0
 40
15.0
100
AcDbArc
 50
180.0
 51
0.0
  0
ARC
  5
5D
330
1F
100
AcDbEntity
  8
0-0
  6
Continuous
 62
     7
370
     9
100
AcDbCircle
 10
-33.8746212531137
 20
-82.03249365892518
 30
0.0
 40
15.0
100
AcDbArc
 50
0.0
 51
180.0
  0
LINE
  5
5E
330
1F
100
AcDbEntity
  8
0-0
  6
Continuous
 62
     7
370
     9
100
AcDbLine
 10
-18.8746212531137
 20
-141.2324936589251
 30
0.0
 11
-18.8746212531137
 21
-82.03249365892518
 31
0.0
  0
LINE
  5
5F
330
1F
100
AcDbEntity
  8
0-0
  6
Continuous
 62
     7
370
     9
100
AcDbLine
 10
-48.8746212531137
 20
-82.03249365892518
 30
0.0
 11
-48.8746212531137
 21
-141.2324936589251
 31
0.0
  0
ARC
  5
60
330
1F
100
AcDbEntity
  8
0-0
  6
Continuous
 62
    92
370
    13
100
AcDbCircle
 10
48.62537874688288
 20
-58.1324936589256
 30
0.0
 40
1.5
100
AcDbArc
 50
90.0
 51
180.0
  0
LINE
  5
61
330
1F
100
AcDbEntity
  8
0-0
  6
Continuous
 62
    92
370
    13
100
AcDbLine
 10
47.1253787468851
 20
-165.1324936589246
 30
0.0
 11
47.1253787468851
 21
-58.1324936589256
 31
0.0
  0
ARC
  5
62
330
1F
100
AcDbEntity
  8
0-0
  6
Continuous
 62
    92
370
    13
100
AcDbCircle
 10
48.62537874688288
 20
-165.1324936589246
 30
0.0
 40
1.5
100
AcDbArc
 50
180.0
 51
270.0
  0
LINE
  5
63
330
1F
100
AcDbEntity
  8
0-0
  6
Continuous
 62
    92
370
    13
100
AcDbLine
 10
87.62537874688493
 20
-166.632493658925
 30
0.0
 11
48.62537874688288
 21
-166.632493658925
 31
0.0
  0
ARC
  5
64
330
1F
100
AcDbEntity
  8
0-0
  6
Continuous
 62
    92
370
    13
100
AcDbCircle
 10
87.62537874688493
 20
-165.1324936589246
 30
0.0
 40
1.5
100
AcDbArc
 50
270.0
 51
0.0
  0
LINE
  5
65
330
1F
100
AcDbEntity
  8
0-0
  6
Continuous
 62
    92
370
    13
100
AcDbLine
 10
89.12537874688357
 20
-58.1324936589256
 30
0.0
 11
89.12537874688357
 21
-165.1324936589246
 31
0.0
  0
LINE
  5
66
330
1F
100
AcDbEntity
  8
0-0
  6
Continuous
 62
    92
370
    13
100
AcDbLine
 10
87.62537874688493
 20
-56.63249365892526
 30
0.0
 11
48.62537874688288
 21
-56.63249365892526
 31
0.0
  0
ARC
  5
67
330
1F
100
AcDbEntity
  8
0-0
  6
Continuous
 62
    92
370
    13
100
AcDbCircle
 10
87.62537874688493
 20
-58.1324936589256
 30
0.0
 40
1.5
100
AcDbArc
 50
0.0
 51
90.0
  0
ARC
  5
68
330
1F
100
AcDbEntity
  8
0-0
  6
Continuous
 62
     7
370
     9
100
AcDbCircle
 10
57.12537874688368
 20
-74.13249365892469
 30
0.0
 40
1.5
100
AcDbArc
 50
90.0
 51
180.0
  0
LINE
  5
69
330
1F
100
AcDbEntity
  8
0-0
  6
Continuous
 62
     7
370
     9
100
AcDbLine
 10
55.62537874688334
 20
-149.1324936589247
 30
0.0
 11
55.62537874688334
 21
-74.13249365892469
 31
0.0
  0
ARC
  5
6A
330
1F
100
AcDbEntity
  8
0-0
  6
Continuous
 62
     7
370
     9
100
AcDbCircle
 10
57.12537874688368
 20
-149.1324936589247
 30
0.0
 40
1.5
100
AcDbArc
 50
180.0
 51
270.0
  0
LINE
  5
6B
330
1F
100
AcDbEntity
  8
0-0
  6
Continuous
 62
     7
370
     9
100
AcDbLine
 10
79.12537874688414
 20
-150.6324936589259
 30
0.0
 11
57.12537874688368
 21
-150.6324936589259
 31
0.0
  0
ARC
  5
6C
330
1F
100
AcDbEntity
  8
0-0
  6
Continuous
 62
     7
370
     9
100
AcDbCircle
 10
79.12537874688414
 20
-149.1324936589247
 30
0.0
 40
1.5
100
AcDbArc
 50
270.0
 51
0.0
  0
LINE
  5
6D
330
1F
100
AcDbEntity
  8
0-0
  6
Continuous
 62
     7
370
     9
100
AcDbLine
 10
80.62537874688448
 20
-74.13249365892469
 30
0.0
 11
80.62537874688448
 21
-149.1324936589247
 31
0.0
  0
LINE
  5
6E
330
1F
100
AcDbEntity
  8
0-0
  6
Continuous
 62
     7
370
     9
100
AcDbLine
 10
79.12537874688414
 20
-72.63249365892435
 30
0.0
 11
57.12537874688368
 21
-72.63249365892435
 31
0.0
  0
ARC
  5
6F
330
1F
100
AcDbEntity
  8
0-0
  6
Continuous
 62
     7
370
     9
100
AcDbCircle
 10
79.12537874688414
 20
-74.13249365892469
 30
0.0
 40
1.5
100
AcDbArc
 50
0.0
 51
90.0
  0
ARC
  5
70
330
1F
100
AcDbEntity
  8
0-0
  6
Continuous
 62
    92
370
    13
100
AcDbCircle
 10
48.62537874688288
 20
-52.13249365892594
 30
0.0
 40
1.5
100
AcDbArc
 50
90.0
 51
180.0
  0
LINE
  5
71
330
1F
100
AcDbEntity
  8
0-0
  6
Continuous
 62
    92
370
    13
100
AcDbLine
 10
87.62537874688493
 20
-50.6324936589256
 30
0.0
 11
48.62537874688288
 21
-50.6324936589256
 31
0.0
  0
ARC
  5
72
330
1F
100
AcDbEntity
  8
0-0
  6
Continuous
 62
    92
370
    13
100
AcDbCircle
 10
87.62537874688493
 20
-52.13249365892594
 30
0.0
 40
1.5
100
AcDbArc
 50
0.0
 51
90.00000000000001
  0
LINE
  5
73
330
1F
100
AcDbEntity
  8
0-0
  6
Continuous
 62
    92
370
    13
100
AcDbLine
 10
89.12537874688357
 20
-171.1324936589251
 30
0.0
 11
89.12537874688357
 21
-52.13249365892594
 31
0.0
  0
ARC
  5
74
330
1F
100
AcDbEntity
  8
0-0
  6
Continuous
 62
    92
370
    13
100
AcDbCircle
 10
87.62537874688493
 20
-171.1324936589251
 30
0.0
 40
1.5
100
AcDbArc
 50
270.0
 51
0.0
  0
LINE
  5
75
330
1F
100
AcDbEntity
  8
0-0
  6
Continuous
 62
    92
370
    13
100
AcDbLine
 10
48.62537874688288
 20
-172.6324936589272
 30
0.0
 11
87.62537874688493
 21
-172.6324936589272
 31
0.0
  0
LINE
  5
76
330
1F
100
AcDbEntity
  8
0-0
  6
Continuous
 62
    92
370
    13
100
AcDbLine
 10
47.1253787468851
 20
-171.1324936589251
 30
0.0
 11
47.1253787468851
 21
-52.13249365892594
 31
0.0
  0
ARC
  5
77
330
1F
100
AcDbEntity
  8
0-0
  6
Continuous
 62
    92
370
    13
100
AcDbCircle
 10
48.62537874688288
 20
-171.1324936589251
 30
0.0
 40
1.5
100
AcDbArc
 50
180.0
 51
270.0
  0
ARC
  5
78
330
1F
100
AcDbEntity
  8
0-0
  6
Continuous
 62
     7
370
     9
100
AcDbCircle
 10
68.12537874688391
 20
-141.2324936589251
 30
0.0
 40
15.0
100
AcDbArc
 50
180.0
 51
0.0
  0
ARC
  5
79
330
1F
100
AcDbEntity
  8
0-0
  6
Continuous
 62
     7
370
     9
100
AcDbCircle
 10
68.12537874688391
 20
-82.03249365892518
 30
0.0
 40
15.0
100
AcDbArc
 50
0.0
 51
180.0
  0
LINE
  5
7A
330
1F
100
AcDbEntity
  8
0-0
  6
Continuous
 62
     7
370
     9
100
AcDbLine
 10
83.12537874688391
 20
-141.2324936589251
 30
0.0
 11
83.12537874688391
 21
-82.03249365892518
 31
0.0
  0
LINE
  5
7B
330
1F
100
AcDbEntity
  8
0-0
  6
Continuous
 62
     7
370
     9
100
AcDbLine
 10
53.1253787468839
 20
-82.03249365892518
 30
0.0
 11
53.1253787468839
 21
-141.2324936589251
 31
0.0
  0
LINE
  5
7C
330
1F
100
AcDbEntity
  8
0-0
  6
Continuous
 62
    92
370
    13
100
AcDbLine
 10
-792.8746212531147
 20
-1069.132493658926
 30
0.0
 11
17.12537874688511
 21
-1069.132493658926
 31
0.0
  0
LINE
  5
7D
330
1F
100
AcDbEntity
  8
0-0
  6
Continuous
 62
    92
370
    13
100
AcDbLine
 10
827.1253787468852
 20
-1069.132493658926
 30
0.0
 11
17.12537874688511
 21
-1069.132493658926
 31
0.0
  0
LINE
  5
7E
330
1F
100
AcDbEntity
  8
0-0
  6
Continuous
 62
    92
370
    13
100
AcDbLine
 10
-1599.874621253115
 20
1157.867506341074
 30
0.0
 11
1634.125378746885
 21
1157.867506341074
 31
0.0
  0
LINE
  5
7F
330
1F
100
AcDbEntity
  8
0-0
  6
Continuous
 62
    92
370
    13
100
AcDbLine
 10
-1569.874621253115
 20
1121.867506341073
 30
0.0
 11
1604.125378746885
 21
1121.867506341073
 31
0.0
  0
LINE
  5
80
330
1F
100
AcDbEntity
  8
0-0
  6
Continuous
 62
    92
370
    13
100
AcDbLine
 10
1604.125378746885
 20
-1089.132493658926
 30
0.0
 11
1604.125378746885
 21
1157.867506341074
 31
0.0
  0
LINE
  5
81
330
1F
100
AcDbEntity
  8
0-0
  6
Continuous
 62
    92
370
    13
100
AcDbLine
 10
-1569.874621253115
 20
-1089.132493658926
 30
0.0
 11
-1569.874621253115
 21
1157.867506341074
 31
0.0
  0
LINE
  5
82
330
1F
100
AcDbEntity
  8
0-0
  6
Continuous
 62
    92
370
    13
100
AcDbLine
 10
1634.125378746885
 20
-1089.132493658926
 30
0.0
 11
1634.125378746885
 21
1157.867506341074
 31
0.0
  0
LINE
  5
83
330
1F
100
AcDbEntity
  8
0-0
  6
Continuous
 62
    92
370
    13
100
AcDbLine
 10
-1599.874621253115
 20
-1089.132493658926
 30
0.0
 11
-1599.874621253115
 21
1157.867506341074
 31
0.0
  0
LINE
  5
84
330
1F
100
AcDbEntity
  8
0-0
  6
Continuous
 62
    92
370
    13
100
AcDbLine
 10
-792.8746212531147
 20
-1069.132493658926
 30
0.0
 11
-792.8746212531147
 21
1113.867506341074
 31
0.0
  0
LINE
  5
85
330
1F
100
AcDbEntity
  8
0-0
  6
JWW_DASHED1
 62
   120
370
     5
100
AcDbLine
 10
-762.8746212531148
 20
-1069.132493658926
 30
0.0
 11
-762.8746212531148
 21
1113.867506341074
 31
0.0
  0
LINE
  5
86
330
1F
100
AcDbEntity
  8
0-0
  6
Continuous
 62
    92
370
    13
100
AcDbLine
 10
-792.8746212531147
 20
1113.867506341074
 30
0.0
 11
17.12537874688511
 21
1113.867506341074
 31
0.0
  0
LINE
  5
87
330
1F
100
AcDbEntity
  8
0-0
  6
Continuous
 62
    92
370
    13
100
AcDbLine
 10
17.12537874688511
 20
-1069.132493658926
 30
0.0
 11
17.12537874688511
 21
1113.867506341074
 31
0.0
  0
LINE
  5
88
330
1F
100
AcDbEntity
  8
0-0
  6
Continuous
 62
    92
370
    13
100
AcDbLine
 10
827.1253787468852
 20
-1069.132493658926
 30
0.0
 11
827.1253787468852
 21
1113.867506341074
 31
0.0
  0
LINE
  5
89
330
1F
100
AcDbEntity
  8
0-0
  6
JWW_DASHED1
 62
   120
370
     5
100
AcDbLine
 10
797.1253787468852
 20
-1069.132493658926
 30
0.0
 11
797.1253787468852
 21
1113.867506341074
 31
0.0
  0
LINE
  5
8A
330
1F
100
AcDbEntity
  8
0-0
  6
Continuous
 62
    92
370
    13
100
AcDbLine
 10
827.1253787468852
 20
1113.867506341074
 30
0.0
 11
17.12537874688511
 21
1113.867506341074
 31
0.0
  0
LINE
  5
8B
330
1F
100
AcDbEntity
  8
0-0
  6
JWW_DASHED1
 62
   120
370
     5
100
AcDbLine
 10
797.125378746886
 20
-1074.132493658927
 30
0.0
 11
797.125378746886
 21
1121.867506341073
 31
0.0
  0
LINE
  5
8C
330
1F
100
AcDbEntity
  8
0-0
  6
JWW_DASHED1
 62
   120
370
     5
100
AcDbLine
 10
827.125378746886
 20
-1074.132493658927
 30
0.0
 11
827.125378746886
 21
1121.867506341073
 31
0.0
  0
LINE
  5
8D
330
1F
100
AcDbEntity
  8
0-0
  6
JWW_DASHED1
 62
   120
370
     5
100
AcDbLine
 10
-792.874621253114
 20
-1074.132493658927
 30
0.0
 11
-792.874621253114
 21
1121.867506341073
 31
0.0
  0
LINE
  5
8E
330
1F
100
AcDbEntity
  8
0-0
  6
JWW_DASHED1
 62
   120
370
     5
100
AcDbLine
 10
-762.874621253114
 20
-1074.132493658927
 30
0.0
 11
-762.874621253114
 21
1121.867506341073
 31
0.0
  0
LINE
  5
8F
330
1F
100
AcDbEntity
  8
0-0
  6
Continuous
 62
    92
370
    13
100
AcDbLine
 10
-682.8746212531169
 20
-919.1324936589259
 30
0.0
 11
-92.87462125311461
 21
-919.1324936589259
 31
0.0
  0
LINE
  5
90
330
1F
100
AcDbEntity
  8
0-0
  6
Continuous
 62
    92
370
    13
100
AcDbLine
 10
127.1253787468831
 20
-919.1324936589259
 30
0.0
 11
717.1253787468854
 21
-919.1324936589259
 31
0.0
  0
LINE
  5
91
330
1F
100
AcDbEntity
  8
0-0
  6
Continuous
 62
    92
370
    13
100
AcDbLine
 10
-682.8746212531169
 20
978.8675063410734
 30
0.0
 11
-92.87462125311461
 21
978.8675063410734
 31
0.0
  0
LINE
  5
92
330
1F
100
AcDbEntity
  8
0-0
  6
Continuous
 62
    92
370
    13
100
AcDbLine
 10
127.1253787468831
 20
978.8675063410734
 30
0.0
 11
717.1253787468854
 21
978.8675063410734
 31
0.0
  0
LINE
  5
93
330
1F
100
AcDbEntity
  8
0-0
  6
Continuous
 62
    92
370
    13
100
AcDbLine
 10
-432.8746212531158
 20
978.8675063410734
 30
0.0
 11
-432.8746212531158
 21
-919.1324936589259
 31
0.0
  0
LINE
  5
94
330
1F
100
AcDbEntity
  8
0-0
  6
Continuous
 62
    92
370
    13
100
AcDbLine
 10
-342.8746212531158
 20
978.8675063410734
 30
0.0
 11
-342.8746212531158
 21
-919.1324936589259
 31
0.0
  0
LINE
  5
95
330
1F
100
AcDbEntity
  8
0-0
  6
Continuous
 62
    92
370
    13
100
AcDbLine
 10
377.1253787468842
 20
978.8675063410734
 30
0.0
 11
377.1253787468842
 21
-919.1324936589259
 31
0.0
  0
LINE
  5
96
330
1F
100
AcDbEntity
  8
0-0
  6
Continuous
 62
    92
370
    13
100
AcDbLine
 10
467.1253787468842
 20
978.8675063410734
 30
0.0
 11
467.1253787468842
 21
-919.1324936589259
 31
0.0
  0
LINE
  5
97
330
1F
100
AcDbEntity
  8
0-0
  6
Continuous
 62
    92
370
    13
100
AcDbLine
 10
-92.87462125311461
 20
-1069.132493658926
 30
0.0
 11
-92.87462125311461
 21
1113.867506341074
 31
0.0
  0
LINE
  5
98
330
1F
100
AcDbEntity
  8
0-0
  6
Continuous
 62
    92
370
    13
100
AcDbLine
 10
-682.8746212531169
 20
-1069.132493658926
 30
0.0
 11
-682.8746212531169
 21
1113.867506341074
 31
0.0
  0
LINE
  5
99
330
1F
100
AcDbEntity
  8
0-0
  6
Continuous
 62
    92
370
    13
100
AcDbLine
 10
717.1253787468854
 20
-1069.132493658926
 30
0.0
 11
717.1253787468854
 21
1113.867506341074
 31
0.0
  0
LINE
  5
9A
330
1F
100
AcDbEntity
  8
0-0
  6
Continuous
 62
    92
370
    13
100
AcDbLine
 10
127.1253787468831
 20
-1069.132493658926
 30
0.0
 11
127.1253787468831
 21
1113.867506341074
 31
0.0
  0
LINE
  5
9B
330
1F
100
AcDbEntity
  8
0-0
  6
JWW_DASHED1
 62
   120
370
     5
100
AcDbLine
 10
-682.8746212531049
 20
974.9900171760471
 30
0.0
 11
-678.9971320880906
 21
978.8675063410615
 31
0.0
  0
LINE
  5
9C
330
1F
100
AcDbEntity
  8
0-0
  6
JWW_DASHED1
 62
   120
370
     5
100
AcDbLine
 10
-682.8746212531169
 20
967.9189493627497
 30
0.0
 11
-671.9260642747931
 21
978.8675063410739
 31
0.0
  0
LINE
  5
9D
330
1F
100
AcDbEntity
  8
0-0
  6
JWW_DASHED1
 62
   120
370
     5
100
AcDbLine
 10
-682.8746212531083
 20
960.8478815495273
 30
0.0
 11
-664.8549964615698
 21
978.8675063410658
 31
0.0
  0
LINE
  5
9E
330
1F
100
AcDbEntity
  8
0-0
  6
JWW_DASHED1
 62
   120
370
     5
100
AcDbLine
 10
-682.874621253104
 20
953.7768137362461
 30
0.0
 11
-657.7839286482887
 21
978.8675063410619
 31
0.0
  0
LINE
  5
9F
330
1F
100
AcDbEntity
  8
0-0
  6
JWW_DASHED1
 62
   120
370
     5
100
AcDbLine
 10
-682.874621253116
 20
946.7057459229487
 30
0.0
 11
-650.712860834993
 21
978.8675063410717
 31
0.0
  0
LINE
  5
A0
330
1F
100
AcDbEntity
  8
0-0
  6
JWW_DASHED1
 62
   120
370
     5
100
AcDbLine
 10
-682.8746212531125
 20
939.634678109667
 30
0.0
 11
-643.6417930217117
 21
978.8675063410675
 31
0.0
  0
LINE
  5
A1
330
1F
100
AcDbEntity
  8
0-0
  6
JWW_DASHED1
 62
   120
370
     5
100
AcDbLine
 10
-682.8746212531083
 20
932.5636102963858
 30
0.0
 11
-636.5707252084305
 21
978.8675063410636
 31
0.0
  0
LINE
  5
A2
330
1F
100
AcDbEntity
  8
0-0
  6
JWW_DASHED1
 62
   120
370
     5
100
AcDbLine
 10
-682.874621253104
 20
925.4925424831042
 30
0.0
 11
-629.499657395145
 21
978.8675063410628
 31
0.0
  0
LINE
  5
A3
330
1F
100
AcDbEntity
  8
0-0
  6
JWW_DASHED1
 62
   120
370
     5
100
AcDbLine
 10
-682.8746212531152
 20
918.4214746698076
 30
0.0
 11
-622.4285895818476
 21
978.8675063410747
 31
0.0
  0
LINE
  5
A4
330
1F
100
AcDbEntity
  8
0-0
  6
JWW_DASHED1
 62
   120
370
     5
100
AcDbLine
 10
-682.8746212531117
 20
911.350406856526
 30
0.0
 11
-615.3575217685664
 21
978.8675063410709
 31
0.0
  0
LINE
  5
A5
330
1F
100
AcDbEntity
  8
0-0
  6
JWW_DASHED1
 62
   120
370
     5
100
AcDbLine
 10
-682.8746212531083
 20
904.2793390432439
 30
0.0
 11
-608.2864539552852
 21
978.867506341067
 31
0.0
  0
LINE
  5
A6
330
1F
100
AcDbEntity
  8
0-0
  6
JWW_DASHED1
 62
   120
370
     5
100
AcDbLine
 10
-682.8746212531015
 20
897.2082712299921
 30
0.0
 11
-601.2153861420321
 21
978.8675063410615
 31
0.0
  0
LINE
  5
A7
330
1F
100
AcDbEntity
  8
0-0
  6
JWW_DASHED1
 62
   120
370
     5
100
AcDbLine
 10
-682.8746212531117
 20
890.1372034167241
 30
0.0
 11
-594.1443183287696
 21
978.8675063410658
 31
0.0
  0
LINE
  5
A8
330
1F
100
AcDbEntity
  8
0-0
  6
JWW_DASHED1
 62
   120
370
     5
100
AcDbLine
 10
-682.8746212531074
 20
883.066135603443
 30
0.0
 11
-587.0732505154884
 21
978.8675063410615
 31
0.0
  0
LINE
  5
A9
330
1F
100
AcDbEntity
  8
0-0
  6
JWW_DASHED1
 62
   120
370
     5
100
AcDbLine
 10
-682.8746212531186
 20
875.9950677901463
 30
0.0
 11
-580.002182702185
 21
978.8675063410794
 31
0.0
  0
LINE
  5
AA
330
1F
100
AcDbEntity
  8
0-0
  6
JWW_DASHED1
 62
   120
370
     5
100
AcDbLine
 10
-682.8746212531142
 20
868.9239999768652
 30
0.0
 11
-572.9311148889029
 21
978.867506341076
 31
0.0
  0
LINE
  5
AB
330
1F
100
AcDbEntity
  8
0-0
  6
JWW_DASHED1
 62
   120
370
     5
100
AcDbLine
 10
-682.8746212531108
 20
861.8529321635826
 30
0.0
 11
-565.8600470756218
 21
978.8675063410722
 31
0.0
  0
LINE
  5
AC
330
1F
100
AcDbEntity
  8
0-0
  6
JWW_DASHED1
 62
   120
370
     5
100
AcDbLine
 10
-682.8746212531074
 20
854.781864350301
 30
0.0
 11
-558.7889792623397
 21
978.8675063410683
 31
0.0
  0
LINE
  5
AD
330
1F
100
AcDbEntity
  8
0-0
  6
JWW_DASHED1
 62
   120
370
     5
100
AcDbLine
 10
-682.8746212531032
 20
847.7107965370197
 30
0.0
 11
-551.7179114490576
 21
978.8675063410644
 31
0.0
  0
LINE
  5
AE
330
1F
100
AcDbEntity
  8
0-0
  6
JWW_DASHED1
 62
   120
370
     5
100
AcDbLine
 10
-682.8746212531152
 20
840.6397287237223
 30
0.0
 11
-544.6468436357687
 21
978.8675063410678
 31
0.0
  0
LINE
  5
AF
330
1F
100
AcDbEntity
  8
0-0
  6
JWW_DASHED1
 62
   120
370
     5
100
AcDbLine
 10
-682.8746212531083
 20
833.56866091047
 30
0.0
 11
-537.5757758225174
 21
978.8675063410615
 31
0.0
  0
LINE
  5
B0
330
1F
100
AcDbEntity
  8
0-0
  6
JWW_DASHED1
 62
   120
370
     5
100
AcDbLine
 10
-682.8746212531169
 20
826.4975930972038
 30
0.0
 11
-530.5047080092404
 21
978.8675063410807
 31
0.0
  0
LINE
  5
B1
330
1F
100
AcDbEntity
  8
0-0
  6
JWW_DASHED1
 62
   120
370
     5
100
AcDbLine
 10
-682.8746212531125
 20
819.4265252839226
 30
0.0
 11
-523.4336401959583
 21
978.8675063410768
 31
0.0
  0
LINE
  5
B2
330
1F
100
AcDbEntity
  8
0-0
  6
JWW_DASHED1
 62
   120
370
     5
100
AcDbLine
 10
-682.87462125311
 20
812.3554574706396
 30
0.0
 11
-516.3625723826763
 21
978.8675063410731
 31
0.0
  0
LINE
  5
B3
330
1F
100
AcDbEntity
  8
0-0
  6
JWW_DASHED1
 62
   120
370
     5
100
AcDbLine
 10
-682.8746212531066
 20
805.284389657358
 30
0.0
 11
-509.291504569395
 21
978.8675063410692
 31
0.0
  0
LINE
  5
B4
330
1F
100
AcDbEntity
  8
0-0
  6
JWW_DASHED1
 62
   120
370
     5
100
AcDbLine
 10
-682.8746212531023
 20
798.2133218440764
 30
0.0
 11
-502.220436756113
 21
978.8675063410658
 31
0.0
  0
LINE
  5
B5
330
1F
100
AcDbEntity
  8
0-0
  6
JWW_DASHED1
 62
   120
370
     5
100
AcDbLine
 10
-682.8746212531134
 20
791.1422540307794
 30
0.0
 11
-495.1493689428275
 21
978.8675063410658
 31
0.0
  0
LINE
  5
B6
330
1F
100
AcDbEntity
  8
0-0
  6
JWW_DASHED1
 62
   120
370
     5
100
AcDbLine
 10
-682.87462125311
 20
784.0711862174977
 30
0.0
 11
-488.0783011295463
 21
978.8675063410615
 31
0.0
  0
LINE
  5
B7
330
1F
100
AcDbEntity
  8
0-0
  6
JWW_DASHED1
 62
   120
370
     5
100
AcDbLine
 10
-682.8746212531057
 20
777.0001184042166
 30
0.0
 11
-481.0072333162523
 21
978.86750634107
 31
0.0
  0
LINE
  5
B8
330
1F
100
AcDbEntity
  8
0-0
  6
JWW_DASHED1
 62
   120
370
     5
100
AcDbLine
 10
-682.8746212531142
 20
769.9290505909503
 30
0.0
 11
-473.9361655029839
 21
978.8675063410802
 31
0.0
  0
LINE
  5
B9
330
1F
100
AcDbEntity
  8
0-0
  6
JWW_DASHED1
 62
   120
370
     5
100
AcDbLine
 10
-682.8746212531091
 20
762.8579827776967
 30
0.0
 11
-466.8650976897317
 21
978.8675063410743
 31
0.0
  0
LINE
  5
BA
330
1F
100
AcDbEntity
  8
0-0
  6
JWW_DASHED1
 62
   120
370
     5
100
AcDbLine
 10
-682.8746212531057
 20
755.786914964415
 30
0.0
 11
-459.7940298764505
 21
978.8675063410705
 31
0.0
  0
LINE
  5
BB
330
1F
100
AcDbEntity
  8
0-0
  6
JWW_DASHED1
 62
   120
370
     5
100
AcDbLine
 10
-682.8746212531169
 20
748.715847151118
 30
0.0
 11
-452.7229620631667
 21
978.8675063410678
 31
0.0
  0
LINE
  5
BC
330
1F
100
AcDbEntity
  8
0-0
  6
JWW_DASHED1
 62
   120
370
     5
100
AcDbLine
 10
-682.8746212531134
 20
741.6447793378364
 30
0.0
 11
-445.6518942498863
 21
978.8675063410636
 31
0.0
  0
LINE
  5
BD
330
1F
100
AcDbEntity
  8
0-0
  6
JWW_DASHED1
 62
   120
370
     5
100
AcDbLine
 10
-682.8746212531091
 20
734.5737115245548
 30
0.0
 11
-438.5808264366042
 21
978.8675063410594
 31
0.0
  0
LINE
  5
BE
330
1F
100
AcDbEntity
  8
0-0
  6
JWW_DASHED1
 62
   120
370
     5
100
AcDbLine
 10
-682.8746212531049
 20
727.5026437112735
 30
0.0
 11
-432.8746212531141
 21
977.5026437112649
 31
0.0
  0
LINE
  5
BF
330
1F
100
AcDbEntity
  8
0-0
  6
JWW_DASHED1
 62
   120
370
     5
100
AcDbLine
 10
-682.8746212531142
 20
720.4315758979787
 30
0.0
 11
-432.8746212531252
 21
970.431575897968
 31
0.0
  0
LINE
  5
C0
330
1F
100
AcDbEntity
  8
0-0
  6
JWW_DASHED1
 62
   120
370
     5
100
AcDbLine
 10
-682.8746212531108
 20
713.3605080846967
 30
0.0
 11
-432.8746212531209
 21
963.3605080846867
 31
0.0
  0
LINE
  5
C1
330
1F
100
AcDbEntity
  8
0-0
  6
JWW_DASHED1
 62
   120
370
     5
100
AcDbLine
 10
-682.8746212531066
 20
706.2894402714427
 30
0.0
 11
-432.8746212531149
 21
956.2894402714345
 31
0.0
  0
LINE
  5
C2
330
1F
100
AcDbEntity
  8
0-0
  6
JWW_DASHED1
 62
   120
370
     5
100
AcDbLine
 10
-682.874621253116
 20
699.2183724581752
 30
0.0
 11
-432.874621253109
 21
949.2183724581822
 31
0.0
  0
LINE
  5
C3
330
1F
100
AcDbEntity
  8
0-0
  6
JWW_DASHED1
 62
   120
370
     5
100
AcDbLine
 10
-682.8746212531117
 20
692.1473046448934
 30
0.0
 11
-432.8746212531047
 21
942.147304644901
 31
0.0
  0
LINE
  5
C4
330
1F
100
AcDbEntity
  8
0-0
  6
JWW_DASHED1
 62
   120
370
     5
100
AcDbLine
 10
-682.8746212531083
 20
685.0762368316118
 30
0.0
 11
-432.8746212531004
 21
935.0762368316193
 31
0.0
  0
LINE
  5
C5
330
1F
100
AcDbEntity
  8
0-0
  6
JWW_DASHED1
 62
   120
370
     5
100
AcDbLine
 10
-682.8746212531177
 20
678.0051690183175
 30
0.0
 11
-432.8746212531277
 21
928.0051690183066
 31
0.0
  0
LINE
  5
C6
330
1F
100
AcDbEntity
  8
0-0
  6
JWW_DASHED1
 62
   120
370
     5
100
AcDbLine
 10
-682.8746212531134
 20
670.9341012050357
 30
0.0
 11
-432.8746212531243
 21
920.9341012050254
 31
0.0
  0
LINE
  5
C7
330
1F
100
AcDbEntity
  8
0-0
  6
JWW_DASHED1
 62
   120
370
     5
100
AcDbLine
 10
-682.8746212531125
 20
663.8630333917515
 30
0.0
 11
-432.8746212531209
 21
913.8630333917433
 31
0.0
  0
LINE
  5
C8
330
1F
100
AcDbEntity
  8
0-0
  6
JWW_DASHED1
 62
   120
370
     5
100
AcDbLine
 10
-682.8746212531083
 20
656.7919655784704
 30
0.0
 11
-432.8746212531166
 21
906.7919655784617
 31
0.0
  0
LINE
  5
C9
330
1F
100
AcDbEntity
  8
0-0
  6
JWW_DASHED1
 62
   120
370
     5
100
AcDbLine
 10
-682.874621253104
 20
649.7208977651887
 30
0.0
 11
-432.8746212531124
 21
899.7208977651804
 31
0.0
  0
LINE
  5
CA
330
1F
100
AcDbEntity
  8
0-0
  6
JWW_DASHED1
 62
   120
370
     5
100
AcDbLine
 10
-682.874621253116
 20
642.6498299518917
 30
0.0
 11
-432.874621253109
 21
892.6498299518988
 31
0.0
  0
LINE
  5
CB
330
1F
100
AcDbEntity
  8
0-0
  6
JWW_DASHED1
 62
   120
370
     5
100
AcDbLine
 10
-342.8746212531081
 20
975.5787621386684
 30
0.0
 11
-339.5858770507098
 21
978.8675063410662
 31
0.0
  0
LINE
  5
CC
330
1F
100
AcDbEntity
  8
0-0
  6
JWW_DASHED1
 62
   120
370
     5
100
AcDbLine
 10
-682.8746212531074
 20
635.5787621386689
 30
0.0
 11
-432.8746212531004
 21
885.5787621386764
 31
0.0
  0
LINE
  5
CD
330
1F
100
AcDbEntity
  8
0-0
  6
JWW_DASHED1
 62
   120
370
     5
100
AcDbLine
 10
-342.87462125312
 20
968.507694325371
 30
0.0
 11
-332.5148092374124
 21
978.8675063410781
 31
0.0
  0
LINE
  5
CE
330
1F
100
AcDbEntity
  8
0-0
  6
JWW_DASHED1
 62
   120
370
     5
100
AcDbLine
 10
-682.8746212531169
 20
628.5076943253745
 30
0.0
 11
-432.8746212531269
 21
878.5076943253641
 31
0.0
  0
LINE
  5
CF
330
1F
100
AcDbEntity
  8
0-0
  6
JWW_DASHED1
 62
   120
370
     5
100
AcDbLine
 10
-342.8746212531158
 20
961.4366265120897
 30
0.0
 11
-325.4437414241312
 21
978.8675063410743
 31
0.0
  0
LINE
  5
D0
330
1F
100
AcDbEntity
  8
0-0
  6
JWW_DASHED1
 62
   120
370
     5
100
AcDbLine
 10
-682.8746212531117
 20
621.4366265120932
 30
0.0
 11
-432.8746212531226
 21
871.4366265120829
 31
0.0
  0
LINE
  5
D1
330
1F
100
AcDbEntity
  8
0-0
  6
JWW_DASHED1
 62
   120
370
     5
100
AcDbLine
 10
-342.8746212531124
 20
954.3655586988081
 30
0.0
 11
-318.3726736108491
 21
978.8675063410709
 31
0.0
  0
LINE
  5
D2
330
1F
100
AcDbEntity
  8
0-0
  6
JWW_DASHED1
 62
   120
370
     5
100
AcDbLine
 10
-682.8746212531117
 20
614.3655586988086
 30
0.0
 11
-432.8746212531192
 21
864.3655586988004
 31
0.0
  0
LINE
  5
D3
330
1F
100
AcDbEntity
  8
0-0
  6
JWW_DASHED1
 62
   120
370
     5
100
AcDbLine
 10
-342.8746212531081
 20
947.2944908855264
 30
0.0
 11
-311.3016057975679
 21
978.867506341067
 31
0.0
  0
LINE
  5
D4
330
1F
100
AcDbEntity
  8
0-0
  6
JWW_DASHED1
 62
   120
370
     5
100
AcDbLine
 10
-682.8746212531066
 20
607.2944908855278
 30
0.0
 11
-432.8746212531158
 21
857.2944908855187
 31
0.0
  0
LINE
  5
D5
330
1F
100
AcDbEntity
  8
0-0
  6
JWW_DASHED1
 62
   120
370
     5
100
AcDbLine
 10
-342.87462125312
 20
940.223423072229
 30
0.0
 11
-304.2305379842722
 21
978.8675063410765
 31
0.0
  0
LINE
  5
D6
330
1F
100
AcDbEntity
  8
0-0
  6
JWW_DASHED1
 62
   120
370
     5
100
AcDbLine
 10
-682.8746212531032
 20
600.2234230722457
 30
0.0
 11
-432.8746212531115
 21
850.2234230722376
 31
0.0
  0
LINE
  5
D7
330
1F
100
AcDbEntity
  8
0-0
  6
JWW_DASHED1
 62
   120
370
     5
100
AcDbLine
 10
-342.8746212531158
 20
933.1523552589478
 30
0.0
 11
-297.159470170991
 21
978.8675063410726
 31
0.0
  0
LINE
  5
D8
330
1F
100
AcDbEntity
  8
0-0
  6
JWW_DASHED1
 62
   120
370
     5
100
AcDbLine
 10
-682.8746212531152
 20
593.1523552589488
 30
0.0
 11
-432.8746212531073
 21
843.1523552589558
 31
0.0
  0
LINE
  5
D9
330
1F
100
AcDbEntity
  8
0-0
  6
JWW_DASHED1
 62
   120
370
     5
100
AcDbLine
 10
-342.8746212531124
 20
926.0812874456661
 30
0.0
 11
-290.0884023577063
 21
978.8675063410717
 31
0.0
  0
LINE
  5
DA
330
1F
100
AcDbEntity
  8
0-0
  6
JWW_DASHED1
 62
   120
370
     5
100
AcDbLine
 10
-682.8746212531108
 20
586.0812874456672
 30
0.0
 11
-432.8746212531038
 21
836.0812874456747
 31
0.0
  0
LINE
  5
DB
330
1F
100
AcDbEntity
  8
0-0
  6
JWW_DASHED1
 62
   120
370
     5
100
AcDbLine
 10
-342.8746212531081
 20
919.0102196323845
 30
0.0
 11
-283.0173345444243
 21
978.8675063410678
 31
0.0
  0
LINE
  5
DC
330
1F
100
AcDbEntity
  8
0-0
  6
JWW_DASHED1
 62
   120
370
     5
100
AcDbLine
 10
-682.8746212531074
 20
579.0102196323855
 30
0.0
 11
-432.8746212531158
 21
829.0102196323772
 31
0.0
  0
LINE
  5
DD
330
1F
100
AcDbEntity
  8
0-0
  6
JWW_DASHED1
 62
   120
370
     5
100
AcDbLine
 10
-342.8746212531149
 20
911.9391518191468
 30
0.0
 11
-275.9462667311865
 21
978.8675063410756
 31
0.0
  0
LINE
  5
DE
330
1F
100
AcDbEntity
  8
0-0
  6
JWW_DASHED1
 62
   120
370
     5
100
AcDbLine
 10
-682.8746212531108
 20
571.9391518191508
 30
0.0
 11
-432.8746212531217
 21
821.9391518191403
 31
0.0
  0
LINE
  5
DF
330
1F
100
AcDbEntity
  8
0-0
  6
JWW_DASHED1
 62
   120
370
     5
100
AcDbLine
 10
-342.8746212531115
 20
904.8680840058651
 30
0.0
 11
-268.8751989179045
 21
978.8675063410717
 31
0.0
  0
LINE
  5
E0
330
1F
100
AcDbEntity
  8
0-0
  6
JWW_DASHED1
 62
   120
370
     5
100
AcDbLine
 10
-682.87462125311
 20
564.8680840058657
 30
0.0
 11
-432.8746212531192
 21
814.8680840058574
 31
0.0
  0
LINE
  5
E1
330
1F
100
AcDbEntity
  8
0-0
  6
JWW_DASHED1
 62
   120
370
     5
100
AcDbLine
 10
-342.8746212531073
 20
897.7970161925834
 30
0.0
 11
-261.8041311046233
 21
978.8675063410678
 31
0.0
  0
LINE
  5
E2
330
1F
100
AcDbEntity
  8
0-0
  6
JWW_DASHED1
 62
   120
370
     5
100
AcDbLine
 10
-682.8746212531066
 20
557.7970161925849
 30
0.0
 11
-432.8746212531149
 21
807.7970161925758
 31
0.0
  0
LINE
  5
E3
330
1F
100
AcDbEntity
  8
0-0
  6
JWW_DASHED1
 62
   120
370
     5
100
AcDbLine
 10
-342.8746212531192
 20
890.725948379286
 30
0.0
 11
-254.7330632913309
 21
978.8675063410747
 31
0.0
  0
LINE
  5
E4
330
1F
100
AcDbEntity
  8
0-0
  6
JWW_DASHED1
 62
   120
370
     5
100
AcDbLine
 10
-682.8746212531186
 20
550.725948379287
 30
0.0
 11
-432.8746212531107
 21
800.7259483792946
 31
0.0
  0
LINE
  5
E5
330
1F
100
AcDbEntity
  8
0-0
  6
JWW_DASHED1
 62
   120
370
     5
100
AcDbLine
 10
-342.8746212531149
 20
883.6548805660049
 30
0.0
 11
-247.6619954780497
 21
978.8675063410705
 31
0.0
  0
LINE
  5
E6
330
1F
100
AcDbEntity
  8
0-0
  6
JWW_DASHED1
 62
   120
370
     5
100
AcDbLine
 10
-682.8746212531142
 20
543.6548805660059
 30
0.0
 11
-432.8746212531073
 21
793.6548805660129
 31
0.0
  0
LINE
  5
E7
330
1F
100
AcDbEntity
  8
0-0
  6
JWW_DASHED1
 62
   120
370
     5
100
AcDbLine
 10
-342.8746212531107
 20
876.5838127527231
 30
0.0
 11
-240.5909276647617
 21
978.8675063410726
 31
0.0
  0
LINE
  5
E8
330
1F
100
AcDbEntity
  8
0-0
  6
JWW_DASHED1
 62
   120
370
     5
100
AcDbLine
 10
-682.87462125311
 20
536.5838127527242
 30
0.0
 11
-432.874621253103
 21
786.5838127527318
 31
0.0
  0
LINE
  5
E9
330
1F
100
AcDbEntity
  8
0-0
  6
JWW_DASHED1
 62
   120
370
     5
100
AcDbLine
 10
-342.8746212531073
 20
869.5127449394415
 30
0.0
 11
-233.5198598514804
 21
978.8675063410687
 31
0.0
  0
LINE
  5
EA
330
1F
100
AcDbEntity
  8
0-0
  6
JWW_DASHED1
 62
   120
370
     5
100
AcDbLine
 10
-682.8746212531066
 20
529.5127449394425
 30
0.0
 11
-432.8746212531141
 21
779.5127449394342
 31
0.0
  0
LINE
  5
EB
330
1F
100
AcDbEntity
  8
0-0
  6
JWW_DASHED1
 62
   120
370
     5
100
AcDbLine
 10
-342.8746212531183
 20
862.4416771261454
 30
0.0
 11
-226.4487920381821
 21
978.8675063410811
 31
0.0
  0
LINE
  5
EC
330
1F
100
AcDbEntity
  8
0-0
  6
JWW_DASHED1
 62
   120
370
     5
100
AcDbLine
 10
-682.8746212531142
 20
522.4416771261494
 30
0.0
 11
-432.8746212531243
 21
772.4416771261385
 31
0.0
  0
LINE
  5
ED
330
1F
100
AcDbEntity
  8
0-0
  6
JWW_DASHED1
 62
   120
370
     5
100
AcDbLine
 10
-342.8746212531141
 20
855.3706093128642
 30
0.0
 11
-219.3777242249009
 21
978.8675063410773
 31
0.0
  0
LINE
  5
EE
330
1F
100
AcDbEntity
  8
0-0
  6
JWW_DASHED1
 62
   120
370
     5
100
AcDbLine
 10
-682.87462125311
 20
515.3706093128677
 30
0.0
 11
-432.8746212531209
 21
765.3706093128574
 31
0.0
  0
LINE
  5
EF
330
1F
100
AcDbEntity
  8
0-0
  6
JWW_DASHED1
 62
   120
370
     5
100
AcDbLine
 10
-342.8746212531226
 20
848.2995414996248
 30
0.0
 11
-212.30665641167
 21
978.8675063410768
 31
0.0
  0
LINE
  5
F0
330
1F
100
AcDbEntity
  8
0-0
  6
JWW_DASHED1
 62
   120
370
     5
100
AcDbLine
 10
-682.8746212531057
 20
508.2995414996415
 30
0.0
 11
-432.8746212531141
 21
758.2995414996328
 31
0.0
  0
LINE
  5
F1
330
1F
100
AcDbEntity
  8
0-0
  6
JWW_DASHED1
 62
   120
370
     5
100
AcDbLine
 10
-342.8746212531183
 20
841.2284736863431
 30
0.0
 11
-205.2355885983888
 21
978.8675063410726
 31
0.0
  0
LINE
  5
F2
330
1F
100
AcDbEntity
  8
0-0
  6
JWW_DASHED1
 62
   120
370
     5
100
AcDbLine
 10
-682.8746212531177
 20
501.2284736863441
 30
0.0
 11
-432.8746212531098
 21
751.2284736863517
 31
0.0
  0
LINE
  5
F3
330
1F
100
AcDbEntity
  8
0-0
  6
JWW_DASHED1
 62
   120
370
     5
100
AcDbLine
 10
-342.8746212531141
 20
834.1574058730619
 30
0.0
 11
-198.1645207851076
 21
978.8675063410683
 31
0.0
  0
LINE
  5
F4
330
1F
100
AcDbEntity
  8
0-0
  6
JWW_DASHED1
 62
   120
370
     5
100
AcDbLine
 10
-682.8746212531134
 20
494.1574058730629
 30
0.0
 11
-432.8746212531064
 21
744.15740587307
 31
0.0
  0
LINE
  5
F5
330
1F
100
AcDbEntity
  8
0-0
  6
JWW_DASHED1
 62
   120
370
     5
100
AcDbLine
 10
-342.8746212531107
 20
827.0863380597802
 30
0.0
 11
-191.093452971817
 21
978.8675063410739
 31
0.0
  0
LINE
  5
F6
330
1F
100
AcDbEntity
  8
0-0
  6
JWW_DASHED1
 62
   120
370
     5
100
AcDbLine
 10
-682.8746212531091
 20
487.0863380597813
 30
0.0
 11
-432.8746212531021
 21
737.0863380597883
 31
0.0
  0
LINE
  5
F7
330
1F
100
AcDbEntity
  8
0-0
  6
JWW_DASHED1
 62
   120
370
     5
100
AcDbLine
 10
-342.8746212531064
 20
820.0152702464986
 30
0.0
 11
-184.0223851585349
 21
978.86750634107
 31
0.0
  0
LINE
  5
F8
330
1F
100
AcDbEntity
  8
0-0
  6
JWW_DASHED1
 62
   120
370
     5
100
AcDbLine
 10
-682.8746212531057
 20
480.0152702464996
 30
0.0
 11
-432.8746212531141
 21
730.0152702464914
 31
0.0
  0
LINE
  5
F9
330
1F
100
AcDbEntity
  8
0-0
  6
JWW_DASHED1
 62
   120
370
     5
100
AcDbLine
 10
-342.8746212531166
 20
812.9442024332029
 30
0.0
 11
-176.9513173452375
 21
978.8675063410819
 31
0.0
  0
LINE
  5
FA
330
1F
100
AcDbEntity
  8
0-0
  6
JWW_DASHED1
 62
   120
370
     5
100
AcDbLine
 10
-682.8746212531125
 20
472.9442024332069
 30
0.0
 11
-432.8746212531235
 21
722.9442024331961
 31
0.0
  0
LINE
  5
FB
330
1F
100
AcDbEntity
  8
0-0
  6
JWW_DASHED1
 62
   120
370
     5
100
AcDbLine
 10
-342.8746212531124
 20
805.8731346199216
 30
0.0
 11
-169.8802495319555
 21
978.8675063410781
 31
0.0
  0
LINE
  5
FC
330
1F
100
AcDbEntity
  8
0-0
  6
JWW_DASHED1
 62
   120
370
     5
100
AcDbLine
 10
-682.8746212531091
 20
465.8731346199252
 30
0.0
 11
-432.8746212531192
 21
715.8731346199148
 31
0.0
  0
LINE
  5
FD
330
1F
100
AcDbEntity
  8
0-0
  6
JWW_DASHED1
 62
   120
370
     5
100
AcDbLine
 10
-342.8746212531098
 20
798.8020668066388
 30
0.0
 11
-162.8091817186734
 21
978.8675063410747
 31
0.0
  0
LINE
  5
FE
330
1F
100
AcDbEntity
  8
0-0
  6
JWW_DASHED1
 62
   120
370
     5
100
AcDbLine
 10
-682.8746212531091
 20
458.8020668066393
 30
0.0
 11
-432.8746212531175
 21
708.802066806631
 31
0.0
  0
LINE
  5
FF
330
1F
100
AcDbEntity
  8
0-0
  6
JWW_DASHED1
 62
   120
370
     5
100
AcDbLine
 10
-342.8746212531217
 20
791.7309989933414
 30
0.0
 11
-155.7381139053888
 21
978.8675063410747
 31
0.0
  0
LINE
  5
100
330
1F
100
AcDbEntity
  8
0-0
  6
JWW_DASHED1
 62
   120
370
     5
100
AcDbLine
 10
-682.8746212531049
 20
451.7309989933581
 30
0.0
 11
-432.8746212531132
 21
701.7309989933499
 31
0.0
  0
LINE
  5
101
330
1F
100
AcDbEntity
  8
0-0
  6
JWW_DASHED1
 62
   120
370
     5
100
AcDbLine
 10
-342.8746212531132
 20
784.659931180119
 30
0.0
 11
-148.6670460921655
 21
978.8675063410662
 31
0.0
  0
LINE
  5
102
330
1F
100
AcDbEntity
  8
0-0
  6
JWW_DASHED1
 62
   120
370
     5
100
AcDbLine
 10
-682.8746212531125
 20
444.6599311801199
 30
0.0
 11
-432.8746212531055
 21
694.659931180127
 31
0.0
  0
LINE
  5
103
330
1F
100
AcDbEntity
  8
0-0
  6
JWW_DASHED1
 62
   120
370
     5
100
AcDbLine
 10
-342.8746212531098
 20
777.5888633668374
 30
0.0
 11
-141.5959782788715
 21
978.8675063410747
 31
0.0
  0
LINE
  5
104
330
1F
100
AcDbEntity
  8
0-0
  6
JWW_DASHED1
 62
   120
370
     5
100
AcDbLine
 10
-682.8746212531083
 20
437.5888633668383
 30
0.0
 11
-432.8746212531013
 21
687.5888633668454
 31
0.0
  0
LINE
  5
105
330
1F
100
AcDbEntity
  8
0-0
  6
JWW_DASHED1
 62
   120
370
     5
100
AcDbLine
 10
-342.8746212531192
 20
770.517795553542
 30
0.0
 11
-134.5249104655741
 21
978.8675063410867
 31
0.0
  0
LINE
  5
106
330
1F
100
AcDbEntity
  8
0-0
  6
JWW_DASHED1
 62
   120
370
     5
100
AcDbLine
 10
-682.8746212531152
 20
430.517795553546
 30
0.0
 11
-432.874621253126
 21
680.5177955535352
 31
0.0
  0
LINE
  5
107
330
1F
100
AcDbEntity
  8
0-0
  6
JWW_DASHED1
 62
   120
370
     5
100
AcDbLine
 10
-342.8746212531158
 20
763.4467277402604
 30
0.0
 11
-127.4538426522929
 21
978.8675063410833
 31
0.0
  0
LINE
  5
108
330
1F
100
AcDbEntity
  8
0-0
  6
JWW_DASHED1
 62
   120
370
     5
100
AcDbLine
 10
-682.8746212531117
 20
423.4467277402639
 30
0.0
 11
-432.8746212531226
 21
673.4467277402536
 31
0.0
  0
LINE
  5
109
330
1F
100
AcDbEntity
  8
0-0
  6
JWW_DASHED1
 62
   120
370
     5
100
AcDbLine
 10
-342.8746212531132
 20
756.375659926977
 30
0.0
 11
-120.3827748390108
 21
978.8675063410794
 31
0.0
  0
LINE
  5
10A
330
1F
100
AcDbEntity
  8
0-0
  6
JWW_DASHED1
 62
   120
370
     5
100
AcDbLine
 10
-682.8746212531117
 20
416.375659926978
 30
0.0
 11
-432.8746212531209
 21
666.3756599269698
 31
0.0
  0
LINE
  5
10B
330
1F
100
AcDbEntity
  8
0-0
  6
JWW_DASHED1
 62
   120
370
     5
100
AcDbLine
 10
-342.874621253109
 20
749.3045921136958
 30
0.0
 11
-113.3117070257296
 21
978.8675063410756
 31
0.0
  0
LINE
  5
10C
330
1F
100
AcDbEntity
  8
0-0
  6
JWW_DASHED1
 62
   120
370
     5
100
AcDbLine
 10
-682.8746212531083
 20
409.3045921136963
 30
0.0
 11
-432.8746212531166
 21
659.3045921136882
 31
0.0
  0
LINE
  5
10D
330
1F
100
AcDbEntity
  8
0-0
  6
JWW_DASHED1
 62
   120
370
     5
100
AcDbLine
 10
-342.8746212531209
 20
742.2335243003984
 30
0.0
 11
-106.2406392124467
 21
978.8675063410726
 31
0.0
  0
LINE
  5
10E
330
1F
100
AcDbEntity
  8
0-0
  6
JWW_DASHED1
 62
   120
370
     5
100
AcDbLine
 10
-682.874621253104
 20
402.2335243004152
 30
0.0
 11
-432.8746212531124
 21
652.2335243004069
 31
0.0
  0
LINE
  5
10F
330
1F
100
AcDbEntity
  8
0-0
  6
JWW_DASHED1
 62
   120
370
     5
100
AcDbLine
 10
-342.8746212531166
 20
735.1624564871172
 30
0.0
 11
-99.16957139916545
 21
978.8675063410683
 31
0.0
  0
LINE
  5
110
330
1F
100
AcDbEntity
  8
0-0
  6
JWW_DASHED1
 62
   120
370
     5
100
AcDbLine
 10
-682.874621253116
 20
395.1624564871178
 30
0.0
 11
-432.874621253109
 21
645.1624564871253
 31
0.0
  0
LINE
  5
111
330
1F
100
AcDbEntity
  8
0-0
  6
JWW_DASHED1
 62
   120
370
     5
100
AcDbLine
 10
-342.8746212531132
 20
728.0913886738356
 30
0.0
 11
-92.87462125310523
 21
978.0913886738431
 31
0.0
  0
LINE
  5
112
330
1F
100
AcDbEntity
  8
0-0
  6
JWW_DASHED1
 62
   120
370
     5
100
AcDbLine
 10
-682.8746212531117
 20
388.0913886738365
 30
0.0
 11
-432.8746212531047
 21
638.0913886738437
 31
0.0
  0
LINE
  5
113
330
1F
100
AcDbEntity
  8
0-0
  6
JWW_DASHED1
 62
   120
370
     5
100
AcDbLine
 10
-342.8746212531183
 20
721.0203208605991
 30
0.0
 11
-92.87462125312825
 21
971.0203208605888
 31
0.0
  0
LINE
  5
114
330
1F
100
AcDbEntity
  8
0-0
  6
JWW_DASHED1
 62
   120
370
     5
100
AcDbLine
 10
-682.8746212531142
 20
381.0203208606031
 30
0.0
 11
-432.8746212531252
 21
631.0203208605926
 31
0.0
  0
LINE
  5
115
330
1F
100
AcDbEntity
  8
0-0
  6
JWW_DASHED1
 62
   120
370
     5
100
AcDbLine
 10
-342.8746212531141
 20
713.9492530473178
 30
0.0
 11
-92.87462125312484
 21
963.9492530473075
 31
0.0
  0
LINE
  5
116
330
1F
100
AcDbEntity
  8
0-0
  6
JWW_DASHED1
 62
   120
370
     5
100
AcDbLine
 10
-682.87462125311
 20
373.9492530473218
 30
0.0
 11
-432.8746212531209
 21
623.949253047311
 31
0.0
  0
LINE
  5
117
330
1F
100
AcDbEntity
  8
0-0
  6
JWW_DASHED1
 62
   120
370
     5
100
AcDbLine
 10
-342.8746212531124
 20
706.878185234034
 30
0.0
 11
-92.87462125312058
 21
956.8781852340259
 31
0.0
  0
LINE
  5
118
330
1F
100
AcDbEntity
  8
0-0
  6
JWW_DASHED1
 62
   120
370
     5
100
AcDbLine
 10
-682.8746212531117
 20
366.8781852340351
 30
0.0
 11
-432.87462125312
 21
616.8781852340269
 31
0.0
  0
LINE
  5
119
330
1F
100
AcDbEntity
  8
0-0
  6
JWW_DASHED1
 62
   120
370
     5
100
AcDbLine
 10
-342.8746212531081
 20
699.8071174207529
 30
0.0
 11
-92.87462125311632
 21
949.8071174207441
 31
0.0
  0
LINE
  5
11A
330
1F
100
AcDbEntity
  8
0-0
  6
JWW_DASHED1
 62
   120
370
     5
100
AcDbLine
 10
-682.8746212531074
 20
359.8071174207535
 30
0.0
 11
-432.8746212531158
 21
609.8071174207452
 31
0.0
  0
LINE
  5
11B
330
1F
100
AcDbEntity
  8
0-0
  6
JWW_DASHED1
 62
   120
370
     5
100
AcDbLine
 10
-342.87462125312
 20
692.7360496074555
 30
0.0
 11
-92.8746212531129
 21
942.736049607463
 31
0.0
  0
LINE
  5
11C
330
1F
100
AcDbEntity
  8
0-0
  6
JWW_DASHED1
 62
   120
370
     5
100
AcDbLine
 10
-682.8746212531186
 20
352.7360496074568
 30
0.0
 11
-432.8746212531124
 21
602.7360496074635
 31
0.0
  0
LINE
  5
11D
330
1F
100
AcDbEntity
  8
0-0
  6
JWW_DASHED1
 62
   120
370
     5
100
AcDbLine
 10
-342.8746212531158
 20
685.6649817941739
 30
0.0
 11
-92.87462125310864
 21
935.6649817941814
 31
0.0
  0
LINE
  5
11E
330
1F
100
AcDbEntity
  8
0-0
  6
JWW_DASHED1
 62
   120
370
     5
100
AcDbLine
 10
-682.8746212531152
 20
345.6649817941748
 30
0.0
 11
-432.8746212531081
 21
595.6649817941823
 31
0.0
  0
LINE
  5
11F
330
1F
100
AcDbEntity
  8
0-0
  6
JWW_DASHED1
 62
   120
370
     5
100
AcDbLine
 10
-342.8746212531124
 20
678.5939139808921
 30
0.0
 11
-92.87462125312058
 21
928.5939139808839
 31
0.0
  0
LINE
  5
120
330
1F
100
AcDbEntity
  8
0-0
  6
JWW_DASHED1
 62
   120
370
     5
100
AcDbLine
 10
-682.8746212531108
 20
338.5939139808936
 30
0.0
 11
-432.8746212531038
 21
588.5939139809007
 31
0.0
  0
LINE
  5
121
330
1F
100
AcDbEntity
  8
0-0
  6
JWW_DASHED1
 62
   120
370
     5
100
AcDbLine
 10
-342.8746212531081
 20
671.522846167611
 30
0.0
 11
-92.87462125311632
 21
921.5228461676027
 31
0.0
  0
LINE
  5
122
330
1F
100
AcDbEntity
  8
0-0
  6
JWW_DASHED1
 62
   120
370
     5
100
AcDbLine
 10
-682.8746212531066
 20
331.5228461676123
 30
0.0
 11
-432.8746212531158
 21
581.5228461676032
 31
0.0
  0
LINE
  5
123
330
1F
100
AcDbEntity
  8
0-0
  6
JWW_DASHED1
 62
   120
370
     5
100
AcDbLine
 10
-342.8746212531175
 20
664.4517783543165
 30
0.0
 11
-92.87462125312825
 21
914.4517783543057
 31
0.0
  0
LINE
  5
124
330
1F
100
AcDbEntity
  8
0-0
  6
JWW_DASHED1
 62
   120
370
     5
100
AcDbLine
 10
-682.8746212531134
 20
324.45177835432
 30
0.0
 11
-432.8746212531243
 21
574.4517783543097
 31
0.0
  0
LINE
  5
125
330
1F
100
AcDbEntity
  8
0-0
  6
JWW_DASHED1
 62
   120
370
     5
100
AcDbLine
 10
-342.8746212531132
 20
657.3807105410349
 30
0.0
 11
-92.87462125312314
 21
907.3807105410244
 31
0.0
  0
LINE
  5
126
330
1F
100
AcDbEntity
  8
0-0
  6
JWW_DASHED1
 62
   120
370
     5
100
AcDbLine
 10
-682.8746212531091
 20
317.3807105410389
 30
0.0
 11
-432.87462125312
 21
567.3807105410281
 31
0.0
  0
LINE
  5
127
330
1F
100
AcDbEntity
  8
0-0
  6
JWW_DASHED1
 62
   120
370
     5
100
AcDbLine
 10
-342.8746212531235
 20
650.3096427277942
 30
0.0
 11
-92.87462125311546
 21
900.3096427278012
 31
0.0
  0
LINE
  5
128
330
1F
100
AcDbEntity
  8
0-0
  6
JWW_DASHED1
 62
   120
370
     5
100
AcDbLine
 10
-682.8746212531066
 20
310.3096427278105
 30
0.0
 11
-432.8746212531149
 21
560.3096427278023
 31
0.0
  0
LINE
  5
129
330
1F
100
AcDbEntity
  8
0-0
  6
JWW_DASHED1
 62
   120
370
     5
100
AcDbLine
 10
-342.8746212531192
 20
643.2385749145125
 30
0.0
 11
-92.87462125311205
 21
893.2385749145196
 31
0.0
  0
LINE
  5
12A
330
1F
100
AcDbEntity
  8
0-0
  6
JWW_DASHED1
 62
   120
370
     5
100
AcDbLine
 10
-682.8746212531186
 20
303.238574914513
 30
0.0
 11
-432.8746212531115
 21
553.2385749145205
 31
0.0
  0
LINE
  5
12B
330
1F
100
AcDbEntity
  8
0-0
  6
JWW_DASHED1
 62
   120
370
     5
100
AcDbLine
 10
-342.8746212531158
 20
636.1675071012309
 30
0.0
 11
-92.87462125310779
 21
886.1675071012384
 31
0.0
  0
LINE
  5
12C
330
1F
100
AcDbEntity
  8
0-0
  6
JWW_DASHED1
 62
   120
370
     5
100
AcDbLine
 10
-682.8746212531142
 20
296.1675071012319
 30
0.0
 11
-432.8746212531073
 21
546.1675071012394
 31
0.0
  0
LINE
  5
12D
330
1F
100
AcDbEntity
  8
0-0
  6
JWW_DASHED1
 62
   120
370
     5
100
AcDbLine
 10
-342.8746212531115
 20
629.0964392879496
 30
0.0
 11
-92.87462125311973
 21
879.0964392879409
 31
0.0
  0
LINE
  5
12E
330
1F
100
AcDbEntity
  8
0-0
  6
JWW_DASHED1
 62
   120
370
     5
100
AcDbLine
 10
-682.87462125311
 20
289.0964392879506
 30
0.0
 11
-432.874621253103
 21
539.0964392879578
 31
0.0
  0
LINE
  5
12F
330
1F
100
AcDbEntity
  8
0-0
  6
JWW_DASHED1
 62
   120
370
     5
100
AcDbLine
 10
-342.8746212531073
 20
622.025371474668
 30
0.0
 11
-92.87462125311546
 21
872.0253714746598
 31
0.0
  0
LINE
  5
130
330
1F
100
AcDbEntity
  8
0-0
  6
JWW_DASHED1
 62
   120
370
     5
100
AcDbLine
 10
-682.8746212531066
 20
282.0253714746694
 30
0.0
 11
-432.8746212531149
 21
532.0253714746607
 31
0.0
  0
LINE
  5
131
330
1F
100
AcDbEntity
  8
0-0
  6
JWW_DASHED1
 62
   120
370
     5
100
AcDbLine
 10
-342.8746212531158
 20
614.954303661374
 30
0.0
 11
-92.87462125312655
 21
864.9543036613632
 31
0.0
  0
LINE
  5
132
330
1F
100
AcDbEntity
  8
0-0
  6
JWW_DASHED1
 62
   120
370
     5
100
AcDbLine
 10
-682.8746212531117
 20
274.9543036613775
 30
0.0
 11
-432.8746212531226
 21
524.9543036613671
 31
0.0
  0
LINE
  5
133
330
1F
100
AcDbEntity
  8
0-0
  6
JWW_DASHED1
 62
   120
370
     5
100
AcDbLine
 10
-342.8746212531124
 20
607.8832358480923
 30
0.0
 11
-92.87462125312229
 21
857.883235848082
 31
0.0
  0
LINE
  5
134
330
1F
100
AcDbEntity
  8
0-0
  6
JWW_DASHED1
 62
   120
370
     5
100
AcDbLine
 10
-682.8746212531083
 20
267.8832358480963
 30
0.0
 11
-432.8746212531192
 21
517.8832358480855
 31
0.0
  0
LINE
  5
135
330
1F
100
AcDbEntity
  8
0-0
  6
JWW_DASHED1
 62
   120
370
     5
100
AcDbLine
 10
-342.8746212531107
 20
600.8121680348081
 30
0.0
 11
-92.87462125311973
 21
850.8121680347995
 31
0.0
  0
LINE
  5
136
330
1F
100
AcDbEntity
  8
0-0
  6
JWW_DASHED1
 62
   120
370
     5
100
AcDbLine
 10
-682.87462125311
 20
260.8121680348087
 30
0.0
 11
-432.8746212531183
 21
510.8121680348005
 31
0.0
  0
LINE
  5
137
330
1F
100
AcDbEntity
  8
0-0
  6
JWW_DASHED1
 62
   120
370
     5
100
AcDbLine
 10
-342.8746212531226
 20
593.7411002215107
 30
0.0
 11
-92.87462125311546
 21
843.7411002215179
 31
0.0
  0
LINE
  5
138
330
1F
100
AcDbEntity
  8
0-0
  6
JWW_DASHED1
 62
   120
370
     5
100
AcDbLine
 10
-682.8746212531057
 20
253.7411002215275
 30
0.0
 11
-432.8746212531141
 21
503.7411002215188
 31
0.0
  0
LINE
  5
139
330
1F
100
AcDbEntity
  8
0-0
  6
JWW_DASHED1
 62
   120
370
     5
100
AcDbLine
 10
-342.8746212531141
 20
586.6700324082879
 30
0.0
 11
-92.87462125310694
 21
836.6700324082955
 31
0.0
  0
LINE
  5
13A
330
1F
100
AcDbEntity
  8
0-0
  6
JWW_DASHED1
 62
   120
370
     5
100
AcDbLine
 10
-682.8746212531134
 20
246.6700324082889
 30
0.0
 11
-432.8746212531064
 21
496.6700324082964
 31
0.0
  0
LINE
  5
13B
330
1F
100
AcDbEntity
  8
0-0
  6
JWW_DASHED1
 62
   120
370
     5
100
AcDbLine
 10
-342.8746212531107
 20
579.5989645950067
 30
0.0
 11
-92.87462125311887
 21
829.598964594998
 31
0.0
  0
LINE
  5
13C
330
1F
100
AcDbEntity
  8
0-0
  6
JWW_DASHED1
 62
   120
370
     5
100
AcDbLine
 10
-682.87462125311
 20
239.5989645950077
 30
0.0
 11
-432.8746212531021
 21
489.5989645950148
 31
0.0
  0
LINE
  5
13D
330
1F
100
AcDbEntity
  8
0-0
  6
JWW_DASHED1
 62
   120
370
     5
100
AcDbLine
 10
-342.8746212531192
 20
572.5278967817127
 30
0.0
 11
-92.8746212531291
 21
822.5278967817023
 31
0.0
  0
LINE
  5
13E
330
1F
100
AcDbEntity
  8
0-0
  6
JWW_DASHED1
 62
   120
370
     5
100
AcDbLine
 10
-682.8746212531152
 20
232.5278967817162
 30
0.0
 11
-432.874621253126
 21
482.5278967817059
 31
0.0
  0
LINE
  5
13F
330
1F
100
AcDbEntity
  8
0-0
  6
JWW_DASHED1
 62
   120
370
     5
100
AcDbLine
 10
-342.8746212531149
 20
565.4568289684314
 30
0.0
 11
-92.87462125312484
 21
815.4568289684207
 31
0.0
  0
LINE
  5
140
330
1F
100
AcDbEntity
  8
0-0
  6
JWW_DASHED1
 62
   120
370
     5
100
AcDbLine
 10
-682.8746212531108
 20
225.456828968435
 30
0.0
 11
-432.8746212531217
 21
475.4568289684242
 31
0.0
  0
LINE
  5
141
330
1F
100
AcDbEntity
  8
0-0
  6
JWW_DASHED1
 62
   120
370
     5
100
AcDbLine
 10
-342.8746212531141
 20
558.3857611551464
 30
0.0
 11
-92.87462125312314
 21
808.3857611551377
 31
0.0
  0
LINE
  5
142
330
1F
100
AcDbEntity
  8
0-0
  6
JWW_DASHED1
 62
   120
370
     5
100
AcDbLine
 10
-682.8746212531134
 20
218.3857611551474
 30
0.0
 11
-432.8746212531217
 21
468.3857611551388
 31
0.0
  0
LINE
  5
143
330
1F
100
AcDbEntity
  8
0-0
  6
JWW_DASHED1
 62
   120
370
     5
100
AcDbLine
 10
-342.8746212531107
 20
551.3146933418648
 30
0.0
 11
-92.87462125311802
 21
801.3146933418566
 31
0.0
  0
LINE
  5
144
330
1F
100
AcDbEntity
  8
0-0
  6
JWW_DASHED1
 62
   120
370
     5
100
AcDbLine
 10
-682.8746212531091
 20
211.3146933418658
 30
0.0
 11
-432.8746212531175
 21
461.3146933418575
 31
0.0
  0
LINE
  5
145
330
1F
100
AcDbEntity
  8
0-0
  6
JWW_DASHED1
 62
   120
370
     5
100
AcDbLine
 10
-342.8746212531217
 20
544.2436255285678
 30
0.0
 11
-92.87462125311461
 21
794.2436255285749
 31
0.0
  0
LINE
  5
146
330
1F
100
AcDbEntity
  8
0-0
  6
JWW_DASHED1
 62
   120
370
     5
100
AcDbLine
 10
-682.8746212531057
 20
204.2436255285841
 30
0.0
 11
-432.8746212531141
 21
454.2436255285759
 31
0.0
  0
LINE
  5
147
330
1F
100
AcDbEntity
  8
0-0
  6
JWW_DASHED1
 62
   120
370
     5
100
AcDbLine
 10
-342.8746212531183
 20
537.1725577152861
 30
0.0
 11
-92.87462125311035
 21
787.1725577152937
 31
0.0
  0
LINE
  5
148
330
1F
100
AcDbEntity
  8
0-0
  6
JWW_DASHED1
 62
   120
370
     5
100
AcDbLine
 10
-682.8746212531169
 20
197.1725577152871
 30
0.0
 11
-432.8746212531098
 21
447.1725577152943
 31
0.0
  0
LINE
  5
149
330
1F
100
AcDbEntity
  8
0-0
  6
JWW_DASHED1
 62
   120
370
     5
100
AcDbLine
 10
-342.8746212531141
 20
530.1014899020049
 30
0.0
 11
-92.87462125310608
 21
780.101489902012
 31
0.0
  0
LINE
  5
14A
330
1F
100
AcDbEntity
  8
0-0
  6
JWW_DASHED1
 62
   120
370
     5
100
AcDbLine
 10
-682.8746212531134
 20
190.1014899020059
 30
0.0
 11
-432.8746212531055
 21
440.101489902013
 31
0.0
  0
LINE
  5
14B
330
1F
100
AcDbEntity
  8
0-0
  6
JWW_DASHED1
 62
   120
370
     5
100
AcDbLine
 10
-342.8746212531175
 20
523.0304220887701
 30
0.0
 11
-92.87462125312825
 21
773.0304220887598
 31
0.0
  0
LINE
  5
14C
330
1F
100
AcDbEntity
  8
0-0
  6
JWW_DASHED1
 62
   120
370
     5
100
AcDbLine
 10
-682.8746212531134
 20
183.0304220887741
 30
0.0
 11
-432.8746212531243
 21
433.0304220887633
 31
0.0
  0
LINE
  5
14D
330
1F
100
AcDbEntity
  8
0-0
  6
JWW_DASHED1
 62
   120
370
     5
100
AcDbLine
 10
-342.8746212531141
 20
515.9593542754885
 30
0.0
 11
-92.87462125312399
 21
765.9593542754782
 31
0.0
  0
LINE
  5
14E
330
1F
100
AcDbEntity
  8
0-0
  6
JWW_DASHED1
 62
   120
370
     5
100
AcDbLine
 10
-682.87462125311
 20
175.9593542754929
 30
0.0
 11
-432.87462125312
 21
425.9593542754822
 31
0.0
  0
LINE
  5
14F
330
1F
100
AcDbEntity
  8
0-0
  6
JWW_DASHED1
 62
   120
370
     5
100
AcDbLine
 10
-342.8746212531132
 20
508.8882864622035
 30
0.0
 11
-92.87462125312143
 21
758.8882864621949
 31
0.0
  0
LINE
  5
150
330
1F
100
AcDbEntity
  8
0-0
  6
JWW_DASHED1
 62
   120
370
     5
100
AcDbLine
 10
-682.8746212531125
 20
168.888286462204
 30
0.0
 11
-432.8746212531209
 21
418.8882864621958
 31
0.0
  0
LINE
  5
151
330
1F
100
AcDbEntity
  8
0-0
  6
JWW_DASHED1
 62
   120
370
     5
100
AcDbLine
 10
-342.8746212531098
 20
501.8172186489218
 30
0.0
 11
-92.87462125311802
 21
751.8172186489136
 31
0.0
  0
LINE
  5
152
330
1F
100
AcDbEntity
  8
0-0
  6
JWW_DASHED1
 62
   120
370
     5
100
AcDbLine
 10
-682.8746212531083
 20
161.8172186489228
 30
0.0
 11
-432.8746212531166
 21
411.8172186489146
 31
0.0
  0
LINE
  5
153
330
1F
100
AcDbEntity
  8
0-0
  6
JWW_DASHED1
 62
   120
370
     5
100
AcDbLine
 10
-342.8746212531209
 20
494.7461508356248
 30
0.0
 11
-92.87462125311376
 21
744.746150835632
 31
0.0
  0
LINE
  5
154
330
1F
100
AcDbEntity
  8
0-0
  6
JWW_DASHED1
 62
   120
370
     5
100
AcDbLine
 10
-682.8746212531049
 20
154.7461508356412
 30
0.0
 11
-432.8746212531124
 21
404.7461508356329
 31
0.0
  0
LINE
  5
155
330
1F
100
AcDbEntity
  8
0-0
  6
JWW_DASHED1
 62
   120
370
     5
100
AcDbLine
 10
-342.8746212531175
 20
487.6750830223432
 30
0.0
 11
-92.8746212531095
 21
737.6750830223507
 31
0.0
  0
LINE
  5
156
330
1F
100
AcDbEntity
  8
0-0
  6
JWW_DASHED1
 62
   120
370
     5
100
AcDbLine
 10
-682.874621253116
 20
147.6750830223442
 30
0.0
 11
-432.874621253109
 21
397.6750830223513
 31
0.0
  0
LINE
  5
157
330
1F
100
AcDbEntity
  8
0-0
  6
JWW_DASHED1
 62
   120
370
     5
100
AcDbLine
 10
-342.8746212531132
 20
480.6040152090616
 30
0.0
 11
-92.87462125312143
 21
730.6040152090533
 31
0.0
  0
LINE
  5
158
330
1F
100
AcDbEntity
  8
0-0
  6
JWW_DASHED1
 62
   120
370
     5
100
AcDbLine
 10
-682.8746212531117
 20
140.604015209063
 30
0.0
 11
-432.8746212531047
 21
390.6040152090701
 31
0.0
  0
LINE
  5
159
330
1F
100
AcDbEntity
  8
0-0
  6
JWW_DASHED1
 62
   120
370
     5
100
AcDbLine
 10
-342.874621253109
 20
473.5329473957803
 30
0.0
 11
-92.87462125311802
 21
723.5329473957717
 31
0.0
  0
LINE
  5
15A
330
1F
100
AcDbEntity
  8
0-0
  6
JWW_DASHED1
 62
   120
370
     5
100
AcDbLine
 10
-682.8746212531083
 20
133.5329473957809
 30
0.0
 11
-432.8746212531166
 21
383.5329473957727
 31
0.0
  0
LINE
  5
15B
330
1F
100
AcDbEntity
  8
0-0
  6
JWW_DASHED1
 62
   120
370
     5
100
AcDbLine
 10
-342.8746212531166
 20
466.4618795824872
 30
0.0
 11
-92.8746212531274
 21
716.4618795824767
 31
0.0
  0
LINE
  5
15C
330
1F
100
AcDbEntity
  8
0-0
  6
JWW_DASHED1
 62
   120
370
     5
100
AcDbLine
 10
-682.8746212531125
 20
126.4618795824912
 30
0.0
 11
-432.8746212531235
 21
376.4618795824804
 31
0.0
  0
LINE
  5
15D
330
1F
100
AcDbEntity
  8
0-0
  6
JWW_DASHED1
 62
   120
370
     5
100
AcDbLine
 10
-342.8746212531124
 20
459.3908117692605
 30
0.0
 11
-92.87462125312143
 21
709.3908117692519
 31
0.0
  0
LINE
  5
15E
330
1F
100
AcDbEntity
  8
0-0
  6
JWW_DASHED1
 62
   120
370
     5
100
AcDbLine
 10
-682.8746212531117
 20
119.3908117692611
 30
0.0
 11
-432.87462125312
 21
369.3908117692529
 31
0.0
  0
LINE
  5
15F
330
1F
100
AcDbEntity
  8
0-0
  6
JWW_DASHED1
 62
   120
370
     5
100
AcDbLine
 10
-342.8746212531243
 20
452.3197439559631
 30
0.0
 11
-92.87462125311632
 21
702.3197439559706
 31
0.0
  0
LINE
  5
160
330
1F
100
AcDbEntity
  8
0-0
  6
JWW_DASHED1
 62
   120
370
     5
100
AcDbLine
 10
-682.8746212531074
 20
112.3197439559799
 30
0.0
 11
-432.8746212531158
 21
362.3197439559716
 31
0.0
  0
LINE
  5
161
330
1F
100
AcDbEntity
  8
0-0
  6
JWW_DASHED1
 62
   120
370
     5
100
AcDbLine
 10
-342.87462125312
 20
445.2486761426819
 30
0.0
 11
-92.8746212531129
 21
695.248676142689
 31
0.0
  0
LINE
  5
162
330
1F
100
AcDbEntity
  8
0-0
  6
JWW_DASHED1
 62
   120
370
     5
100
AcDbLine
 10
-682.8746212531194
 20
105.2486761426825
 30
0.0
 11
-432.8746212531124
 21
355.24867614269
 31
0.0
  0
LINE
  5
163
330
1F
100
AcDbEntity
  8
0-0
  6
JWW_DASHED1
 62
   120
370
     5
100
AcDbLine
 10
-342.8746212531158
 20
438.1776083294002
 30
0.0
 11
-92.87462125310864
 21
688.1776083294078
 31
0.0
  0
LINE
  5
164
330
1F
100
AcDbEntity
  8
0-0
  6
JWW_DASHED1
 62
   120
370
     5
100
AcDbLine
 10
-682.8746212531152
 20
98.17760832940124
 30
0.0
 11
-432.8746212531081
 21
348.1776083294084
 31
0.0
  0
LINE
  5
165
330
1F
100
AcDbEntity
  8
0-0
  6
JWW_DASHED1
 62
   120
370
     5
100
AcDbLine
 10
-342.8746212531124
 20
431.1065405161186
 30
0.0
 11
-92.87462125312058
 21
681.1065405161104
 31
0.0
  0
LINE
  5
166
330
1F
100
AcDbEntity
  8
0-0
  6
JWW_DASHED1
 62
   120
370
     5
100
AcDbLine
 10
-682.8746212531117
 20
91.1065405161196
 30
0.0
 11
-432.8746212531038
 21
341.1065405161271
 31
0.0
  0
LINE
  5
167
330
1F
100
AcDbEntity
  8
0-0
  6
JWW_DASHED1
 62
   120
370
     5
100
AcDbLine
 10
-342.8746212531081
 20
424.0354727028374
 30
0.0
 11
-92.87462125311632
 21
674.0354727028287
 31
0.0
  0
LINE
  5
168
330
1F
100
AcDbEntity
  8
0-0
  6
JWW_DASHED1
 62
   120
370
     5
100
AcDbLine
 10
-682.8746212531074
 20
84.03547270283795
 30
0.0
 11
-432.8746212531158
 21
334.0354727028297
 31
0.0
  0
LINE
  5
169
330
1F
100
AcDbEntity
  8
0-0
  6
JWW_DASHED1
 62
   120
370
     5
100
AcDbLine
 10
-342.8746212531158
 20
416.9644048895447
 30
0.0
 11
-92.8746212531257
 21
666.9644048895343
 31
0.0
  0
LINE
  5
16A
330
1F
100
AcDbEntity
  8
0-0
  6
JWW_DASHED1
 62
   120
370
     5
100
AcDbLine
 10
-682.8746212531117
 20
76.9644048895482
 30
0.0
 11
-432.8746212531226
 21
326.9644048895378
 31
0.0
  0
LINE
  5
16B
330
1F
100
AcDbEntity
  8
0-0
  6
JWW_DASHED1
 62
   120
370
     5
100
AcDbLine
 10
-342.8746212531115
 20
409.893337076263
 30
0.0
 11
-92.87462125312143
 21
659.8933370762527
 31
0.0
  0
LINE
  5
16C
330
1F
100
AcDbEntity
  8
0-0
  6
JWW_DASHED1
 62
   120
370
     5
100
AcDbLine
 10
-682.8746212531074
 20
69.89333707626699
 30
0.0
 11
-432.8746212531183
 21
319.8933370762566
 31
0.0
  0
LINE
  5
16D
330
1F
100
AcDbEntity
  8
0-0
  6
JWW_DASHED1
 62
   120
370
     5
100
AcDbLine
 10
-342.8746212531124
 20
402.8222692629771
 30
0.0
 11
-92.87462125312058
 21
652.8222692629685
 31
0.0
  0
LINE
  5
16E
330
1F
100
AcDbEntity
  8
0-0
  6
JWW_DASHED1
 62
   120
370
     5
100
AcDbLine
 10
-682.8746212531108
 20
62.8222692629781
 30
0.0
 11
-432.87462125312
 21
312.8222692629694
 31
0.0
  0
LINE
  5
16F
330
1F
100
AcDbEntity
  8
0-0
  6
JWW_DASHED1
 62
   120
370
     5
100
AcDbLine
 10
-342.87462125312
 20
395.7512014497385
 30
0.0
 11
-92.87462125311205
 21
645.7512014497461
 31
0.0
  0
LINE
  5
170
330
1F
100
AcDbEntity
  8
0-0
  6
JWW_DASHED1
 62
   120
370
     5
100
AcDbLine
 10
-682.8746212531186
 20
55.75120144973951
 30
0.0
 11
-432.8746212531107
 21
305.751201449747
 31
0.0
  0
LINE
  5
171
330
1F
100
AcDbEntity
  8
0-0
  6
JWW_DASHED1
 62
   120
370
     5
100
AcDbLine
 10
-342.8746212531158
 20
388.6801336364573
 30
0.0
 11
-92.87462125310779
 21
638.6801336364648
 31
0.0
  0
LINE
  5
172
330
1F
100
AcDbEntity
  8
0-0
  6
JWW_DASHED1
 62
   120
370
     5
100
AcDbLine
 10
-682.8746212531142
 20
48.68013363645829
 30
0.0
 11
-432.8746212531073
 21
298.6801336364654
 31
0.0
  0
LINE
  5
173
330
1F
100
AcDbEntity
  8
0-0
  6
JWW_DASHED1
 62
   120
370
     5
100
AcDbLine
 10
-342.8746212531115
 20
381.6090658231757
 30
0.0
 11
-92.87462125311973
 21
631.6090658231674
 31
0.0
  0
LINE
  5
174
330
1F
100
AcDbEntity
  8
0-0
  6
JWW_DASHED1
 62
   120
370
     5
100
AcDbLine
 10
-682.87462125311
 20
41.60906582317665
 30
0.0
 11
-432.874621253103
 21
291.6090658231842
 31
0.0
  0
LINE
  5
175
330
1F
100
AcDbEntity
  8
0-0
  6
JWW_DASHED1
 62
   120
370
     5
100
AcDbLine
 10
-342.8746212531183
 20
374.5379980098834
 30
0.0
 11
-92.87462125312825
 21
624.537998009873
 31
0.0
  0
LINE
  5
176
330
1F
100
AcDbEntity
  8
0-0
  6
JWW_DASHED1
 62
   120
370
     5
100
AcDbLine
 10
-682.8746212531142
 20
34.53799800988733
 30
0.0
 11
-432.8746212531252
 21
284.5379980098766
 31
0.0
  0
LINE
  5
177
330
1F
100
AcDbEntity
  8
0-0
  6
JWW_DASHED1
 62
   120
370
     5
100
AcDbLine
 10
-342.8746212531141
 20
367.4669301966021
 30
0.0
 11
-92.87462125312484
 21
617.4669301965918
 31
0.0
  0
LINE
  5
178
330
1F
100
AcDbEntity
  8
0-0
  6
JWW_DASHED1
 62
   120
370
     5
100
AcDbLine
 10
-682.87462125311
 20
27.46693019660611
 30
0.0
 11
-432.8746212531209
 21
277.4669301965953
 31
0.0
  0
LINE
  5
179
330
1F
100
AcDbEntity
  8
0-0
  6
JWW_DASHED1
 62
   120
370
     5
100
AcDbLine
 10
-342.8746212531158
 20
360.3958623833154
 30
0.0
 11
-92.87462125312314
 21
610.3958623833071
 31
0.0
  0
LINE
  5
17A
330
1F
100
AcDbEntity
  8
0-0
  6
JWW_DASHED1
 62
   120
370
     5
100
AcDbLine
 10
-682.8746212531142
 20
20.39586238331637
 30
0.0
 11
-432.8746212531226
 21
270.3958623833081
 31
0.0
  0
LINE
  5
17B
330
1F
100
AcDbEntity
  8
0-0
  6
JWW_DASHED1
 62
   120
370
     5
100
AcDbLine
 10
-342.8746212531115
 20
353.3247945700342
 30
0.0
 11
-92.87462125311973
 21
603.3247945700255
 31
0.0
  0
LINE
  5
17C
330
1F
100
AcDbEntity
  8
0-0
  6
JWW_DASHED1
 62
   120
370
     5
100
AcDbLine
 10
-682.87462125311
 20
13.32479457003515
 30
0.0
 11
-432.8746212531192
 21
263.3247945700265
 31
0.0
  0
LINE
  5
17D
330
1F
100
AcDbEntity
  8
0-0
  6
JWW_DASHED1
 62
   120
370
     5
100
AcDbLine
 10
-342.8746212531226
 20
346.2537267567371
 30
0.0
 11
-92.87462125311546
 21
596.2537267567443
 31
0.0
  0
LINE
  5
17E
330
1F
100
AcDbEntity
  8
0-0
  6
JWW_DASHED1
 62
   120
370
     5
100
AcDbLine
 10
-682.8746212531066
 20
6.253726756753935
 30
0.0
 11
-432.8746212531149
 21
256.2537267567453
 31
0.0
  0
LINE
  5
17F
330
1F
100
AcDbEntity
  8
0-0
  6
JWW_DASHED1
 62
   120
370
     5
100
AcDbLine
 10
-342.8746212531192
 20
339.1826589434551
 30
0.0
 11
-92.8746212531112
 21
589.1826589434627
 31
0.0
  0
LINE
  5
180
330
1F
100
AcDbEntity
  8
0-0
  6
JWW_DASHED1
 62
   120
370
     5
100
AcDbLine
 10
-682.8746212531177
 20
-0.8173410565434835
 30
0.0
 11
-432.8746212531107
 21
249.1826589434636
 31
0.0
  0
LINE
  5
181
330
1F
100
AcDbEntity
  8
0-0
  6
JWW_DASHED1
 62
   120
370
     5
100
AcDbLine
 10
-342.8746212531107
 20
332.1115911302327
 30
0.0
 11
-92.87462125311887
 21
582.1115911302245
 31
0.0
  0
LINE
  5
182
330
1F
100
AcDbEntity
  8
0-0
  6
JWW_DASHED1
 62
   120
370
     5
100
AcDbLine
 10
-682.87462125311
 20
-7.888408869766295
 30
0.0
 11
-432.8746212531183
 21
242.1115911302255
 31
0.0
  0
LINE
  5
183
330
1F
100
AcDbEntity
  8
0-0
  6
JWW_DASHED1
 62
   120
370
     5
100
AcDbLine
 10
-342.8746212531175
 20
325.0405233169408
 30
0.0
 11
-92.8746212531274
 21
575.0405233169305
 31
0.0
  0
LINE
  5
184
330
1F
100
AcDbEntity
  8
0-0
  6
JWW_DASHED1
 62
   120
370
     5
100
AcDbLine
 10
-682.8746212531134
 20
-14.95947668305561
 30
0.0
 11
-432.8746212531243
 21
235.040523316934
 31
0.0
  0
LINE
  5
185
330
1F
100
AcDbEntity
  8
0-0
  6
JWW_DASHED1
 62
   120
370
     5
100
AcDbLine
 10
-342.8746212531132
 20
317.9694555036596
 30
0.0
 11
-92.87462125312314
 21
567.9694555036492
 31
0.0
  0
LINE
  5
186
330
1F
100
AcDbEntity
  8
0-0
  6
JWW_DASHED1
 62
   120
370
     5
100
AcDbLine
 10
-682.8746212531091
 20
-22.03054449633683
 30
0.0
 11
-432.8746212531192
 21
227.9694555036528
 31
0.0
  0
LINE
  5
187
330
1F
100
AcDbEntity
  8
0-0
  6
JWW_DASHED1
 62
   120
370
     5
100
AcDbLine
 10
-342.8746212531141
 20
310.8983876903724
 30
0.0
 11
-92.87462125312314
 21
560.8983876903642
 31
0.0
  0
LINE
  5
188
330
1F
100
AcDbEntity
  8
0-0
  6
JWW_DASHED1
 62
   120
370
     5
100
AcDbLine
 10
-682.8746212531134
 20
-29.10161230962657
 30
0.0
 11
-432.8746212531217
 21
220.8983876903652
 31
0.0
  0
LINE
  5
189
330
1F
100
AcDbEntity
  8
0-0
  6
JWW_DASHED1
 62
   120
370
     5
100
AcDbLine
 10
-342.8746212531107
 20
303.8273198770912
 30
0.0
 11
-92.87462125311887
 21
553.8273198770826
 31
0.0
  0
LINE
  5
18A
330
1F
100
AcDbEntity
  8
0-0
  6
JWW_DASHED1
 62
   120
370
     5
100
AcDbLine
 10
-682.87462125311
 20
-36.17268012290779
 30
0.0
 11
-432.8746212531175
 21
213.8273198770835
 31
0.0
  0
LINE
  5
18B
330
1F
100
AcDbEntity
  8
0-0
  6
JWW_DASHED1
 62
   120
370
     5
100
AcDbLine
 10
-342.8746212531226
 20
296.7562520637938
 30
0.0
 11
-92.87462125311461
 21
546.7562520638013
 31
0.0
  0
LINE
  5
18C
330
1F
100
AcDbEntity
  8
0-0
  6
JWW_DASHED1
 62
   120
370
     5
100
AcDbLine
 10
-682.8746212531049
 20
-43.24374793618901
 30
0.0
 11
-432.8746212531141
 21
206.7562520638023
 31
0.0
  0
LINE
  5
18D
330
1F
100
AcDbEntity
  8
0-0
  6
JWW_DASHED1
 62
   120
370
     5
100
AcDbLine
 10
-342.8746212531183
 20
289.6851842505122
 30
0.0
 11
-92.8746212531112
 21
539.6851842505197
 31
0.0
  0
LINE
  5
18E
330
1F
100
AcDbEntity
  8
0-0
  6
JWW_DASHED1
 62
   120
370
     5
100
AcDbLine
 10
-682.8746212531169
 20
-50.31481574948643
 30
0.0
 11
-432.8746212531098
 21
199.6851842505207
 31
0.0
  0
LINE
  5
18F
330
1F
100
AcDbEntity
  8
0-0
  6
JWW_DASHED1
 62
   120
370
     5
100
AcDbLine
 10
-342.8746212531141
 20
282.6141164372309
 30
0.0
 11
-92.87462125312229
 21
532.6141164372227
 31
0.0
  0
LINE
  5
190
330
1F
100
AcDbEntity
  8
0-0
  6
JWW_DASHED1
 62
   120
370
     5
100
AcDbLine
 10
-682.8746212531134
 20
-57.38588356276765
 30
0.0
 11
-432.8746212531055
 21
192.6141164372395
 31
0.0
  0
LINE
  5
191
330
1F
100
AcDbEntity
  8
0-0
  6
JWW_DASHED1
 62
   120
370
     5
100
AcDbLine
 10
-342.8746212531098
 20
275.5430486239497
 30
0.0
 11
-92.87462125311802
 21
525.5430486239411
 31
0.0
  0
LINE
  5
192
330
1F
100
AcDbEntity
  8
0-0
  6
JWW_DASHED1
 62
   120
370
     5
100
AcDbLine
 10
-682.8746212531091
 20
-64.45695137604972
 30
0.0
 11
-432.8746212531175
 21
185.543048623942
 31
0.0
  0
LINE
  5
193
330
1F
100
AcDbEntity
  8
0-0
  6
JWW_DASHED1
 62
   120
370
     5
100
AcDbLine
 10
-342.8746212531141
 20
268.4719808106877
 30
0.0
 11
-92.87462125312484
 21
518.4719808106769
 31
0.0
  0
LINE
  5
194
330
1F
100
AcDbEntity
  8
0-0
  6
JWW_DASHED1
 62
   120
370
     5
100
AcDbLine
 10
-682.87462125311
 20
-71.52801918930876
 30
0.0
 11
-432.8746212531209
 21
178.4719808106809
 31
0.0
  0
LINE
  5
195
330
1F
100
AcDbEntity
  8
0-0
  6
JWW_DASHED1
 62
   120
370
     5
100
AcDbLine
 10
-342.8746212531141
 20
261.4009129974295
 30
0.0
 11
-92.87462125312229
 21
511.4009129974212
 31
0.0
  0
LINE
  5
196
330
1F
100
AcDbEntity
  8
0-0
  6
JWW_DASHED1
 62
   120
370
     5
100
AcDbLine
 10
-682.8746212531125
 20
-78.59908700256952
 30
0.0
 11
-432.8746212531209
 21
171.4009129974222
 31
0.0
  0
LINE
  5
197
330
1F
100
AcDbEntity
  8
0-0
  6
JWW_DASHED1
 62
   120
370
     5
100
AcDbLine
 10
-342.8746212531098
 20
254.3298451841483
 30
0.0
 11
-92.87462125311802
 21
504.3298451841396
 31
0.0
  0
LINE
  5
198
330
1F
100
AcDbEntity
  8
0-0
  6
JWW_DASHED1
 62
   120
370
     5
100
AcDbLine
 10
-682.8746212531083
 20
-85.67015481585074
 30
0.0
 11
-432.8746212531175
 21
164.3298451841406
 31
0.0
  0
LINE
  5
199
330
1F
100
AcDbEntity
  8
0-0
  6
JWW_DASHED1
 62
   120
370
     5
100
AcDbLine
 10
-342.8746212531209
 20
247.2587773708513
 30
0.0
 11
-92.87462125311376
 21
497.2587773708584
 31
0.0
  0
LINE
  5
19A
330
1F
100
AcDbEntity
  8
0-0
  6
JWW_DASHED1
 62
   120
370
     5
100
AcDbLine
 10
-682.8746212531203
 20
-92.74122262914815
 30
0.0
 11
-432.8746212531132
 21
157.2587773708594
 31
0.0
  0
LINE
  5
19B
330
1F
100
AcDbEntity
  8
0-0
  6
JWW_DASHED1
 62
   120
370
     5
100
AcDbLine
 10
-342.8746212531175
 20
240.1877095575692
 30
0.0
 11
-92.8746212531095
 21
490.1877095575767
 31
0.0
  0
LINE
  5
19C
330
1F
100
AcDbEntity
  8
0-0
  6
JWW_DASHED1
 62
   120
370
     5
100
AcDbLine
 10
-682.8746212531169
 20
-99.8122904424298
 30
0.0
 11
-432.874621253109
 21
150.1877095575777
 31
0.0
  0
LINE
  5
19D
330
1F
100
AcDbEntity
  8
0-0
  6
JWW_DASHED1
 62
   120
370
     5
100
AcDbLine
 10
-342.8746212531132
 20
233.116641744288
 30
0.0
 11
-92.87462125312143
 21
483.1166417442797
 31
0.0
  0
LINE
  5
19E
330
1F
100
AcDbEntity
  8
0-0
  6
JWW_DASHED1
 62
   120
370
     5
100
AcDbLine
 10
-682.8746212531125
 20
-106.883358255711
 30
0.0
 11
-432.8746212531055
 21
143.1166417442961
 31
0.0
  0
LINE
  5
19F
330
1F
100
AcDbEntity
  8
0-0
  6
JWW_DASHED1
 62
   120
370
     5
100
AcDbLine
 10
-342.874621253109
 20
226.0455739310068
 30
0.0
 11
-92.87462125311802
 21
476.0455739309981
 31
0.0
  0
LINE
  5
1A0
330
1F
100
AcDbEntity
  8
0-0
  6
JWW_DASHED1
 62
   120
370
     5
100
AcDbLine
 10
-682.8746212531083
 20
-113.9544260689927
 30
0.0
 11
-432.8746212531175
 21
136.0455739309991
 31
0.0
  0
LINE
  5
1A1
330
1F
100
AcDbEntity
  8
0-0
  6
JWW_DASHED1
 62
   120
370
     5
100
AcDbLine
 10
-342.8746212531149
 20
218.9745061177157
 30
0.0
 11
-92.87462125312484
 21
468.9745061177049
 31
0.0
  0
LINE
  5
1A2
330
1F
100
AcDbEntity
  8
0-0
  6
JWW_DASHED1
 62
   120
370
     5
100
AcDbLine
 10
-682.8746212531108
 20
-121.0254938822807
 30
0.0
 11
-432.8746212531217
 21
128.9745061177089
 31
0.0
  0
LINE
  5
1A3
330
1F
100
AcDbEntity
  8
0-0
  6
JWW_DASHED1
 62
   120
370
     5
100
AcDbLine
 10
-342.8746212531107
 20
211.9034383044341
 30
0.0
 11
-92.87462125312143
 21
461.9034383044237
 31
0.0
  0
LINE
  5
1A4
330
1F
100
AcDbEntity
  8
0-0
  6
JWW_DASHED1
 62
   120
370
     5
100
AcDbLine
 10
-682.8746212531066
 20
-128.0965616955619
 30
0.0
 11
-432.8746212531175
 21
121.9034383044273
 31
0.0
  0
LINE
  5
1A5
330
1F
100
AcDbEntity
  8
0-0
  6
JWW_DASHED1
 62
   120
370
     5
100
AcDbLine
 10
-342.8746212531107
 20
204.8323704911759
 30
0.0
 11
-92.87462125311973
 21
454.8323704911672
 31
0.0
  0
LINE
  5
1A6
330
1F
100
AcDbEntity
  8
0-0
  6
JWW_DASHED1
 62
   120
370
     5
100
AcDbLine
 10
-682.87462125311
 20
-135.1676295088235
 30
0.0
 11
-432.8746212531183
 21
114.8323704911682
 31
0.0
  0
LINE
  5
1A7
330
1F
100
AcDbEntity
  8
0-0
  6
JWW_DASHED1
 62
   120
370
     5
100
AcDbLine
 10
-342.8746212531209
 20
197.7613026779079
 30
0.0
 11
-92.8746212531129
 21
447.7613026779154
 31
0.0
  0
LINE
  5
1A8
330
1F
100
AcDbEntity
  8
0-0
  6
JWW_DASHED1
 62
   120
370
     5
100
AcDbLine
 10
-682.8746212531194
 20
-142.2386973220911
 30
0.0
 11
-432.8746212531124
 21
107.7613026779164
 31
0.0
  0
LINE
  5
1A9
330
1F
100
AcDbEntity
  8
0-0
  6
JWW_DASHED1
 62
   120
370
     5
100
AcDbLine
 10
-342.8746212531166
 20
190.6902348646263
 30
0.0
 11
-92.8746212531095
 21
440.6902348646338
 31
0.0
  0
LINE
  5
1AA
330
1F
100
AcDbEntity
  8
0-0
  6
JWW_DASHED1
 62
   120
370
     5
100
AcDbLine
 10
-682.8746212531152
 20
-149.3097651353723
 30
0.0
 11
-432.8746212531081
 21
100.6902348646348
 31
0.0
  0
LINE
  5
1AB
330
1F
100
AcDbEntity
  8
0-0
  6
JWW_DASHED1
 62
   120
370
     5
100
AcDbLine
 10
-342.8746212531124
 20
183.619167051345
 30
0.0
 11
-92.87462125312143
 21
433.6191670513364
 31
0.0
  0
LINE
  5
1AC
330
1F
100
AcDbEntity
  8
0-0
  6
JWW_DASHED1
 62
   120
370
     5
100
AcDbLine
 10
-682.8746212531117
 20
-156.380832948654
 30
0.0
 11
-432.8746212531047
 21
93.61916705135314
 31
0.0
  0
LINE
  5
1AD
330
1F
100
AcDbEntity
  8
0-0
  6
JWW_DASHED1
 62
   120
370
     5
100
AcDbLine
 10
-342.8746212531175
 20
176.5480992380544
 30
0.0
 11
-92.87462125312825
 21
426.5480992380441
 31
0.0
  0
LINE
  5
1AE
330
1F
100
AcDbEntity
  8
0-0
  6
JWW_DASHED1
 62
   120
370
     5
100
AcDbLine
 10
-682.8746212531142
 20
-163.451900761942
 30
0.0
 11
-432.8746212531243
 21
86.54809923804763
 31
0.0
  0
LINE
  5
1AF
330
1F
100
AcDbEntity
  8
0-0
  6
JWW_DASHED1
 62
   120
370
     5
100
AcDbLine
 10
-342.8746212531141
 20
169.4770314247728
 30
0.0
 11
-92.87462125312399
 21
419.4770314247625
 31
0.0
  0
LINE
  5
1B0
330
1F
100
AcDbEntity
  8
0-0
  6
JWW_DASHED1
 62
   120
370
     5
100
AcDbLine
 10
-682.87462125311
 20
-170.5229685752228
 30
0.0
 11
-432.87462125312
 21
79.47703142476641
 31
0.0
  0
LINE
  5
1B1
330
1F
100
AcDbEntity
  8
0-0
  6
JWW_DASHED1
 62
   120
370
     5
100
AcDbLine
 10
-342.8746212531158
 20
162.4059636114848
 30
0.0
 11
-92.87462125312484
 21
412.4059636114765
 31
0.0
  0
LINE
  5
1B2
330
1F
100
AcDbEntity
  8
0-0
  6
JWW_DASHED1
 62
   120
370
     5
100
AcDbLine
 10
-682.8746212531152
 20
-177.5940363885142
 30
0.0
 11
-432.8746212531235
 21
72.40596361147752
 31
0.0
  0
LINE
  5
1B3
330
1F
100
AcDbEntity
  8
0-0
  6
JWW_DASHED1
 62
   120
370
     5
100
AcDbLine
 10
-342.8746212531124
 20
155.3348957982035
 30
0.0
 11
-92.87462125312058
 21
405.3348957981949
 31
0.0
  0
LINE
  5
1B4
330
1F
100
AcDbEntity
  8
0-0
  6
JWW_DASHED1
 62
   120
370
     5
100
AcDbLine
 10
-682.8746212531117
 20
-184.6651042017955
 30
0.0
 11
-432.87462125312
 21
65.33489579819587
 31
0.0
  0
LINE
  5
1B5
330
1F
100
AcDbEntity
  8
0-0
  6
JWW_DASHED1
 62
   120
370
     5
100
AcDbLine
 10
-342.8746212531243
 20
148.2638279849061
 30
0.0
 11
-92.87462125311632
 21
398.2638279849132
 31
0.0
  0
LINE
  5
1B6
330
1F
100
AcDbEntity
  8
0-0
  6
JWW_DASHED1
 62
   120
370
     5
100
AcDbLine
 10
-682.8746212531074
 20
-191.7361720150775
 30
0.0
 11
-432.8746212531158
 21
58.26382798491423
 31
0.0
  0
LINE
  5
1B7
330
1F
100
AcDbEntity
  8
0-0
  6
JWW_DASHED1
 62
   120
370
     5
100
AcDbLine
 10
-342.87462125312
 20
141.1927601716245
 30
0.0
 11
-92.8746212531129
 21
391.192760171632
 31
0.0
  0
LINE
  5
1B8
330
1F
100
AcDbEntity
  8
0-0
  6
JWW_DASHED1
 62
   120
370
     5
100
AcDbLine
 10
-682.8746212531186
 20
-198.8072398283741
 30
0.0
 11
-432.8746212531115
 21
51.19276017163301
 31
0.0
  0
LINE
  5
1B9
330
1F
100
AcDbEntity
  8
0-0
  6
JWW_DASHED1
 62
   120
370
     5
100
AcDbLine
 10
-342.8746212531115
 20
134.1216923584021
 30
0.0
 11
-92.87462125312058
 21
384.1216923583934
 31
0.0
  0
LINE
  5
1BA
330
1F
100
AcDbEntity
  8
0-0
  6
JWW_DASHED1
 62
   120
370
     5
100
AcDbLine
 10
-682.8746212531108
 20
-205.8783076415969
 30
0.0
 11
-432.8746212531038
 21
44.1216923584102
 31
0.0
  0
LINE
  5
1BB
330
1F
100
AcDbEntity
  8
0-0
  6
JWW_DASHED1
 62
   120
370
     5
100
AcDbLine
 10
-342.8746212531166
 20
127.0506245451119
 30
0.0
 11
-92.87462125312655
 21
377.0506245451015
 31
0.0
  0
LINE
  5
1BC
330
1F
100
AcDbEntity
  8
0-0
  6
JWW_DASHED1
 62
   120
370
     5
100
AcDbLine
 10
-682.8746212531125
 20
-212.9493754548845
 30
0.0
 11
-432.8746212531235
 21
37.05062454510511
 31
0.0
  0
LINE
  5
1BD
330
1F
100
AcDbEntity
  8
0-0
  6
JWW_DASHED1
 62
   120
370
     5
100
AcDbLine
 10
-342.8746212531124
 20
119.9795567318303
 30
0.0
 11
-92.87462125312314
 21
369.9795567318199
 31
0.0
  0
LINE
  5
1BE
330
1F
100
AcDbEntity
  8
0-0
  6
JWW_DASHED1
 62
   120
370
     5
100
AcDbLine
 10
-682.8746212531083
 20
-220.0204432681657
 30
0.0
 11
-432.8746212531192
 21
29.97955673182389
 31
0.0
  0
LINE
  5
1BF
330
1F
100
AcDbEntity
  8
0-0
  6
JWW_DASHED1
 62
   120
370
     5
100
AcDbLine
 10
-342.8746212531158
 20
112.9084889185418
 30
0.0
 11
-92.87462125312399
 21
362.9084889185332
 31
0.0
  0
LINE
  5
1C0
330
1F
100
AcDbEntity
  8
0-0
  6
JWW_DASHED1
 62
   120
370
     5
100
AcDbLine
 10
-682.8746212531142
 20
-227.0915110814572
 30
0.0
 11
-432.8746212531226
 21
22.90848891853457
 31
0.0
  0
LINE
  5
1C1
330
1F
100
AcDbEntity
  8
0-0
  6
JWW_DASHED1
 62
   120
370
     5
100
AcDbLine
 10
-342.8746212531115
 20
105.8374211052602
 30
0.0
 11
-92.87462125311973
 21
355.8374211052519
 31
0.0
  0
LINE
  5
1C2
330
1F
100
AcDbEntity
  8
0-0
  6
JWW_DASHED1
 62
   120
370
     5
100
AcDbLine
 10
-682.87462125311
 20
-234.1625788947388
 30
0.0
 11
-432.8746212531192
 21
15.83742110525336
 31
0.0
  0
LINE
  5
1C3
330
1F
100
AcDbEntity
  8
0-0
  6
JWW_DASHED1
 62
   120
370
     5
100
AcDbLine
 10
-342.8746212531235
 20
98.76635329196276
 30
0.0
 11
-92.87462125311632
 21
348.7663532919703
 31
0.0
  0
LINE
  5
1C4
330
1F
100
AcDbEntity
  8
0-0
  6
JWW_DASHED1
 62
   120
370
     5
100
AcDbLine
 10
-682.8746212531066
 20
-241.2336467080205
 30
0.0
 11
-432.8746212531149
 21
8.766353291971285
 31
0.0
  0
LINE
  5
1C5
330
1F
100
AcDbEntity
  8
0-0
  6
JWW_DASHED1
 62
   120
370
     5
100
AcDbLine
 10
-342.8746212531192
 20
91.69528547868154
 30
0.0
 11
-92.8746212531112
 21
341.6952854786891
 31
0.0
  0
LINE
  5
1C6
330
1F
100
AcDbEntity
  8
0-0
  6
JWW_DASHED1
 62
   120
370
     5
100
AcDbLine
 10
-682.8746212531186
 20
-248.304714521317
 30
0.0
 11
-432.8746212531107
 21
1.695285478690067
 31
0.0
  0
LINE
  5
1C7
330
1F
100
AcDbEntity
  8
0-0
  6
JWW_DASHED1
 62
   120
370
     5
100
AcDbLine
 10
-342.8746212531149
 20
84.62421766540032
 30
0.0
 11
-92.87462125312399
 21
334.6242176653917
 31
0.0
  0
LINE
  5
1C8
330
1F
100
AcDbEntity
  8
0-0
  6
JWW_DASHED1
 62
   120
370
     5
100
AcDbLine
 10
-682.8746212531142
 20
-255.3757823345987
 30
0.0
 11
-432.8746212531073
 21
-5.375782334591577
 31
0.0
  0
LINE
  5
1C9
330
1F
100
AcDbEntity
  8
0-0
  6
JWW_DASHED1
 62
   120
370
     5
100
AcDbLine
 10
-342.8746212531115
 20
77.55314985211868
 30
0.0
 11
-92.87462125311973
 21
327.55314985211
 31
0.0
  0
LINE
  5
1CA
330
1F
100
AcDbEntity
  8
0-0
  6
JWW_DASHED1
 62
   120
370
     5
100
AcDbLine
 10
-682.87462125311
 20
-262.4468501478804
 30
0.0
 11
-432.8746212531192
 21
-12.44685014788899
 31
0.0
  0
LINE
  5
1CB
330
1F
100
AcDbEntity
  8
0-0
  6
JWW_DASHED1
 62
   120
370
     5
100
AcDbLine
 10
-342.8746212531107
 20
70.4820820388882
 30
0.0
 11
-92.87462125312143
 21
320.4820820388774
 31
0.0
  0
LINE
  5
1CC
330
1F
100
AcDbEntity
  8
0-0
  6
JWW_DASHED1
 62
   120
370
     5
100
AcDbLine
 10
-682.8746212531074
 20
-269.5179179611083
 30
0.0
 11
-432.8746212531175
 21
-19.51791796111863
 31
0.0
  0
LINE
  5
1CD
330
1F
100
AcDbEntity
  8
0-0
  6
JWW_DASHED1
 62
   120
370
     5
100
AcDbLine
 10
-342.8746212531141
 20
63.41101422559888
 30
0.0
 11
-92.87462125312314
 21
313.4110142255906
 31
0.0
  0
LINE
  5
1CE
330
1F
100
AcDbEntity
  8
0-0
  6
JWW_DASHED1
 62
   120
370
     5
100
AcDbLine
 10
-682.8746212531134
 20
-276.5889857744002
 30
0.0
 11
-432.8746212531226
 21
-26.5889857744088
 31
0.0
  0
LINE
  5
1CF
330
1F
100
AcDbEntity
  8
0-0
  6
JWW_DASHED1
 62
   120
370
     5
100
AcDbLine
 10
-342.8746212531107
 20
56.33994641231723
 30
0.0
 11
-92.87462125311887
 21
306.339946412309
 31
0.0
  0
LINE
  5
1D0
330
1F
100
AcDbEntity
  8
0-0
  6
JWW_DASHED1
 62
   120
370
     5
100
AcDbLine
 10
-682.87462125311
 20
-283.6600535876818
 30
0.0
 11
-432.8746212531183
 21
-33.66005358769044
 31
0.0
  0
LINE
  5
1D1
330
1F
100
AcDbEntity
  8
0-0
  6
JWW_DASHED1
 62
   120
370
     5
100
AcDbLine
 10
-342.8746212531226
 20
49.26887859902024
 30
0.0
 11
-92.87462125311461
 21
299.2688785990273
 31
0.0
  0
LINE
  5
1D2
330
1F
100
AcDbEntity
  8
0-0
  6
JWW_DASHED1
 62
   120
370
     5
100
AcDbLine
 10
-682.8746212531211
 20
-290.7311214009787
 30
0.0
 11
-432.8746212531141
 21
-40.73112140097166
 31
0.0
  0
LINE
  5
1D3
330
1F
100
AcDbEntity
  8
0-0
  6
JWW_DASHED1
 62
   120
370
     5
100
AcDbLine
 10
-342.8746212531183
 20
42.1978107857386
 30
0.0
 11
-92.8746212531112
 21
292.1978107857461
 31
0.0
  0
LINE
  5
1D4
330
1F
100
AcDbEntity
  8
0-0
  6
JWW_DASHED1
 62
   120
370
     5
100
AcDbLine
 10
-682.8746212531169
 20
-297.80218921426
 30
0.0
 11
-432.8746212531098
 21
-47.80218921425288
 31
0.0
  0
LINE
  5
1D5
330
1F
100
AcDbEntity
  8
0-0
  6
JWW_DASHED1
 62
   120
370
     5
100
AcDbLine
 10
-342.8746212531141
 20
35.12674297245738
 30
0.0
 11
-92.87462125312229
 21
285.1267429724492
 31
0.0
  0
LINE
  5
1D6
330
1F
100
AcDbEntity
  8
0-0
  6
JWW_DASHED1
 62
   120
370
     5
100
AcDbLine
 10
-682.8746212531134
 20
-304.8732570275421
 30
0.0
 11
-432.8746212531055
 21
-54.87325702753409
 31
0.0
  0
LINE
  5
1D7
330
1F
100
AcDbEntity
  8
0-0
  6
JWW_DASHED1
 62
   120
370
     5
100
AcDbLine
 10
-342.8746212531107
 20
28.05567515917573
 30
0.0
 11
-92.87462125311887
 21
278.0556751591671
 31
0.0
  0
LINE
  5
1D8
330
1F
100
AcDbEntity
  8
0-0
  6
JWW_DASHED1
 62
   120
370
     5
100
AcDbLine
 10
-682.8746212531091
 20
-311.9443248408232
 30
0.0
 11
-432.8746212531183
 21
-61.94432484083194
 31
0.0
  0
LINE
  5
1D9
330
1F
100
AcDbEntity
  8
0-0
  6
JWW_DASHED1
 62
   120
370
     5
100
AcDbLine
 10
-342.8746212531141
 20
20.98460734588642
 30
0.0
 11
-92.87462125312484
 21
270.984607345876
 31
0.0
  0
LINE
  5
1DA
330
1F
100
AcDbEntity
  8
0-0
  6
JWW_DASHED1
 62
   120
370
     5
100
AcDbLine
 10
-682.87462125311
 20
-319.0153926541096
 30
0.0
 11
-432.8746212531209
 21
-69.0153926541204
 31
0.0
  0
LINE
  5
1DB
330
1F
100
AcDbEntity
  8
0-0
  6
JWW_DASHED1
 62
   120
370
     5
100
AcDbLine
 10
-342.8746212531098
 20
13.9135395326052
 30
0.0
 11
-92.87462125312058
 21
263.9135395325944
 31
0.0
  0
LINE
  5
1DC
330
1F
100
AcDbEntity
  8
0-0
  6
JWW_DASHED1
 62
   120
370
     5
100
AcDbLine
 10
-682.8746212531066
 20
-326.0864604673908
 30
0.0
 11
-432.8746212531166
 21
-76.08646046740162
 31
0.0
  0
LINE
  5
1DD
330
1F
100
AcDbEntity
  8
0-0
  6
JWW_DASHED1
 62
   120
370
     5
100
AcDbLine
 10
-342.874621253126
 20
6.842471719358514
 30
0.0
 11
-92.87462125311802
 21
256.842471719366
 31
0.0
  0
LINE
  5
1DE
330
1F
100
AcDbEntity
  8
0-0
  6
JWW_DASHED1
 62
   120
370
     5
100
AcDbLine
 10
-682.8746212531091
 20
-333.1575282806247
 30
0.0
 11
-432.8746212531175
 21
-83.15752828063339
 31
0.0
  0
LINE
  5
1DF
330
1F
100
AcDbEntity
  8
0-0
  6
JWW_DASHED1
 62
   120
370
     5
100
AcDbLine
 10
-342.8746212531217
 20
-0.2285960939227039
 30
0.0
 11
-92.87462125311461
 21
249.7714039060844
 31
0.0
  0
LINE
  5
1E0
330
1F
100
AcDbEntity
  8
0-0
  6
JWW_DASHED1
 62
   120
370
     5
100
AcDbLine
 10
-682.8746212531203
 20
-340.2285960939217
 30
0.0
 11
-432.8746212531132
 21
-90.2285960939146
 31
0.0
  0
LINE
  5
1E1
330
1F
100
AcDbEntity
  8
0-0
  6
JWW_DASHED1
 62
   120
370
     5
100
AcDbLine
 10
-342.8746212531175
 20
-7.299663907204348
 30
0.0
 11
-92.87462125311035
 21
242.7003360928032
 31
0.0
  0
LINE
  5
1E2
330
1F
100
AcDbEntity
  8
0-0
  6
JWW_DASHED1
 62
   120
370
     5
100
AcDbLine
 10
-682.8746212531169
 20
-347.2996639072029
 30
0.0
 11
-432.874621253109
 21
-97.29966390719582
 31
0.0
  0
LINE
  5
1E3
330
1F
100
AcDbEntity
  8
0-0
  6
JWW_DASHED1
 62
   120
370
     5
100
AcDbLine
 10
-342.8746212531132
 20
-14.37073172048557
 30
0.0
 11
-92.87462125312143
 21
235.6292682795062
 31
0.0
  0
LINE
  5
1E4
330
1F
100
AcDbEntity
  8
0-0
  6
JWW_DASHED1
 62
   120
370
     5
100
AcDbLine
 10
-682.8746212531125
 20
-354.370731720485
 30
0.0
 11
-432.8746212531055
 21
-104.370731720477
 31
0.0
  0
LINE
  5
1E5
330
1F
100
AcDbEntity
  8
0-0
  6
JWW_DASHED1
 62
   120
370
     5
100
AcDbLine
 10
-342.8746212531098
 20
-21.44179953376721
 30
0.0
 11
-92.87462125311802
 21
228.5582004662241
 31
0.0
  0
LINE
  5
1E6
330
1F
100
AcDbEntity
  8
0-0
  6
JWW_DASHED1
 62
   120
370
     5
100
AcDbLine
 10
-682.8746212531083
 20
-361.4417995337662
 30
0.0
 11
-432.8746212531175
 21
-111.4417995337749
 31
0.0
  0
LINE
  5
1E7
330
1F
100
AcDbEntity
  8
0-0
  6
JWW_DASHED1
 62
   120
370
     5
100
AcDbLine
 10
-342.8746212531124
 20
-28.5128673470561
 30
0.0
 11
-92.87462125312314
 21
221.4871326529335
 31
0.0
  0
LINE
  5
1E8
330
1F
100
AcDbEntity
  8
0-0
  6
JWW_DASHED1
 62
   120
370
     5
100
AcDbLine
 10
-682.8746212531091
 20
-368.5128673470521
 30
0.0
 11
-432.8746212531192
 21
-118.5128673470625
 31
0.0
  0
LINE
  5
1E9
330
1F
100
AcDbEntity
  8
0-0
  6
JWW_DASHED1
 62
   120
370
     5
100
AcDbLine
 10
-342.874621253109
 20
-35.58393516033775
 30
0.0
 11
-92.87462125311973
 21
214.4160648396519
 31
0.0
  0
LINE
  5
1EA
330
1F
100
AcDbEntity
  8
0-0
  6
JWW_DASHED1
 62
   120
370
     5
100
AcDbLine
 10
-682.8746212531049
 20
-375.5839351603338
 30
0.0
 11
-432.8746212531158
 21
-125.5839351603441
 31
0.0
  0
LINE
  5
1EB
330
1F
100
AcDbEntity
  8
0-0
  6
JWW_DASHED1
 62
   120
370
     5
100
AcDbLine
 10
-342.8746212531132
 20
-42.65500297362749
 30
0.0
 11
-92.87462125312143
 21
207.3449970263643
 31
0.0
  0
LINE
  5
1EC
330
1F
100
AcDbEntity
  8
0-0
  6
JWW_DASHED1
 62
   120
370
     5
100
AcDbLine
 10
-682.8746212531117
 20
-382.6550029736261
 30
0.0
 11
-432.8746212531209
 21
-132.6550029736347
 31
0.0
  0
LINE
  5
1ED
330
1F
100
AcDbEntity
  8
0-0
  6
JWW_DASHED1
 62
   120
370
     5
100
AcDbLine
 10
-342.8746212531252
 20
-49.72607078692491
 30
0.0
 11
-92.87462125311802
 21
200.2739292130826
 31
0.0
  0
LINE
  5
1EE
330
1F
100
AcDbEntity
  8
0-0
  6
JWW_DASHED1
 62
   120
370
     5
100
AcDbLine
 10
-682.8746212531083
 20
-389.7260707869082
 30
0.0
 11
-432.8746212531166
 21
-139.7260707869164
 31
0.0
  0
LINE
  5
1EF
330
1F
100
AcDbEntity
  8
0-0
  6
JWW_DASHED1
 62
   120
370
     5
100
AcDbLine
 10
-342.8746212531166
 20
-56.79713860014729
 30
0.0
 11
-92.8746212531095
 21
193.2028613998602
 31
0.0
  0
LINE
  5
1F0
330
1F
100
AcDbEntity
  8
0-0
  6
JWW_DASHED1
 62
   120
370
     5
100
AcDbLine
 10
-682.8746212531152
 20
-396.7971386001459
 30
0.0
 11
-432.874621253109
 21
-146.7971386001392
 31
0.0
  0
LINE
  5
1F1
330
1F
100
AcDbEntity
  8
0-0
  6
JWW_DASHED1
 62
   120
370
     5
100
AcDbLine
 10
-342.8746212531124
 20
-63.86820641342851
 30
0.0
 11
-92.87462125312143
 21
186.1317935865628
 31
0.0
  0
LINE
  5
1F2
330
1F
100
AcDbEntity
  8
0-0
  6
JWW_DASHED1
 62
   120
370
     5
100
AcDbLine
 10
-682.8746212531117
 20
-403.868206413428
 30
0.0
 11
-432.8746212531038
 21
-153.86820641342
 31
0.0
  0
LINE
  5
1F3
330
1F
100
AcDbEntity
  8
0-0
  6
JWW_DASHED1
 62
   120
370
     5
100
AcDbLine
 10
-342.8746212531158
 20
-70.9392742267174
 30
0.0
 11
-92.87462125312655
 21
179.0607257732722
 31
0.0
  0
LINE
  5
1F4
330
1F
100
AcDbEntity
  8
0-0
  6
JWW_DASHED1
 62
   120
370
     5
100
AcDbLine
 10
-682.8746212531117
 20
-410.9392742267135
 30
0.0
 11
-432.8746212531226
 21
-160.9392742267238
 31
0.0
  0
LINE
  5
1F5
330
1F
100
AcDbEntity
  8
0-0
  6
JWW_DASHED1
 62
   120
370
     5
100
AcDbLine
 10
-342.8746212531115
 20
-78.01034203999862
 30
0.0
 11
-92.87462125312229
 21
171.989657959991
 31
0.0
  0
LINE
  5
1F6
330
1F
100
AcDbEntity
  8
0-0
  6
JWW_DASHED1
 62
   120
370
     5
100
AcDbLine
 10
-682.8746212531083
 20
-418.0103420399946
 30
0.0
 11
-432.8746212531183
 21
-168.0103420400054
 31
0.0
  0
LINE
  5
1F7
330
1F
100
AcDbEntity
  8
0-0
  6
JWW_DASHED1
 62
   120
370
     5
100
AcDbLine
 10
-342.8746212531166
 20
-85.08140985328922
 30
0.0
 11
-92.87462125312484
 21
164.9185901467025
 31
0.0
  0
LINE
  5
1F8
330
1F
100
AcDbEntity
  8
0-0
  6
JWW_DASHED1
 62
   120
370
     5
100
AcDbLine
 10
-682.8746212531152
 20
-425.0814098532878
 30
0.0
 11
-432.8746212531243
 21
-175.081409853296
 31
0.0
  0
LINE
  5
1F9
330
1F
100
AcDbEntity
  8
0-0
  6
JWW_DASHED1
 62
   120
370
     5
100
AcDbLine
 10
-342.8746212531124
 20
-92.15247766657043
 30
0.0
 11
-92.87462125312058
 21
157.8475223334213
 31
0.0
  0
LINE
  5
1FA
330
1F
100
AcDbEntity
  8
0-0
  6
JWW_DASHED1
 62
   120
370
     5
100
AcDbLine
 10
-682.8746212531117
 20
-432.152477666569
 30
0.0
 11
-432.87462125312
 21
-182.1524776665781
 31
0.0
  0
LINE
  5
1FB
330
1F
100
AcDbEntity
  8
0-0
  6
JWW_DASHED1
 62
   120
370
     5
100
AcDbLine
 10
-342.8746212531243
 20
-99.22354547986785
 30
0.0
 11
-92.87462125311717
 21
150.7764545201397
 31
0.0
  0
LINE
  5
1FC
330
1F
100
AcDbEntity
  8
0-0
  6
JWW_DASHED1
 62
   120
370
     5
100
AcDbLine
 10
-682.8746212531074
 20
-439.2235454798511
 30
0.0
 11
-432.8746212531158
 21
-189.2235454798593
 31
0.0
  0
LINE
  5
1FD
330
1F
100
AcDbEntity
  8
0-0
  6
JWW_DASHED1
 62
   120
370
     5
100
AcDbLine
 10
-342.87462125312
 20
-106.2946132931491
 30
0.0
 11
-92.8746212531129
 21
143.705386706858
 31
0.0
  0
LINE
  5
1FE
330
1F
100
AcDbEntity
  8
0-0
  6
JWW_DASHED1
 62
   120
370
     5
100
AcDbLine
 10
-682.8746212531194
 20
-446.2946132931481
 30
0.0
 11
-432.8746212531124
 21
-196.2946132931405
 31
0.0
  0
LINE
  5
1FF
330
1F
100
AcDbEntity
  8
0-0
  6
JWW_DASHED1
 62
   120
370
     5
100
AcDbLine
 10
-342.8746212531158
 20
-113.3656811064303
 30
0.0
 11
-92.87462125310864
 21
136.6343188935768
 31
0.0
  0
LINE
  5
200
330
1F
100
AcDbEntity
  8
0-0
  6
JWW_DASHED1
 62
   120
370
     5
100
AcDbLine
 10
-682.8746212531152
 20
-453.3656811064297
 30
0.0
 11
-432.8746212531081
 21
-203.3656811064222
 31
0.0
  0
LINE
  5
201
330
1F
100
AcDbEntity
  8
0-0
  6
JWW_DASHED1
 62
   120
370
     5
100
AcDbLine
 10
-342.8746212531141
 20
-120.4367489196595
 30
0.0
 11
-92.87462125312484
 21
129.5632510803297
 31
0.0
  0
LINE
  5
202
330
1F
100
AcDbEntity
  8
0-0
  6
JWW_DASHED1
 62
   120
370
     5
100
AcDbLine
 10
-682.8746212531108
 20
-460.4367489196559
 30
0.0
 11
-432.8746212531209
 21
-210.4367489196663
 31
0.0
  0
LINE
  5
203
330
1F
100
AcDbEntity
  8
0-0
  6
JWW_DASHED1
 62
   120
370
     5
100
AcDbLine
 10
-342.8746212531107
 20
-127.5078167329416
 30
0.0
 11
-92.87462125312143
 21
122.4921832670481
 31
0.0
  0
LINE
  5
204
330
1F
100
AcDbEntity
  8
0-0
  6
JWW_DASHED1
 62
   120
370
     5
100
AcDbLine
 10
-682.8746212531066
 20
-467.5078167329376
 30
0.0
 11
-432.8746212531175
 21
-217.5078167329475
 31
0.0
  0
LINE
  5
205
330
1F
100
AcDbEntity
  8
0-0
  6
JWW_DASHED1
 62
   120
370
     5
100
AcDbLine
 10
-342.8746212531158
 20
-134.5788845462322
 30
0.0
 11
-92.87462125312399
 21
115.4211154537596
 31
0.0
  0
LINE
  5
206
330
1F
100
AcDbEntity
  8
0-0
  6
JWW_DASHED1
 62
   120
370
     5
100
AcDbLine
 10
-682.8746212531152
 20
-474.5788845462309
 30
0.0
 11
-432.8746212531226
 21
-224.5788845462394
 31
0.0
  0
LINE
  5
207
330
1F
100
AcDbEntity
  8
0-0
  6
JWW_DASHED1
 62
   120
370
     5
100
AcDbLine
 10
-342.8746212531115
 20
-141.6499523595134
 30
0.0
 11
-92.87462125311973
 21
108.3500476404784
 31
0.0
  0
LINE
  5
208
330
1F
100
AcDbEntity
  8
0-0
  6
JWW_DASHED1
 62
   120
370
     5
100
AcDbLine
 10
-682.8746212531108
 20
-481.6499523595124
 30
0.0
 11
-432.8746212531192
 21
-231.6499523595211
 31
0.0
  0
LINE
  5
209
330
1F
100
AcDbEntity
  8
0-0
  6
JWW_DASHED1
 62
   120
370
     5
100
AcDbLine
 10
-342.8746212531235
 20
-148.7210201728108
 30
0.0
 11
-92.87462125311632
 21
101.2789798271967
 31
0.0
  0
LINE
  5
20A
330
1F
100
AcDbEntity
  8
0-0
  6
JWW_DASHED1
 62
   120
370
     5
100
AcDbLine
 10
-682.8746212531066
 20
-488.7210201727941
 30
0.0
 11
-432.8746212531149
 21
-238.7210201728023
 31
0.0
  0
LINE
  5
20B
330
1F
100
AcDbEntity
  8
0-0
  6
JWW_DASHED1
 62
   120
370
     5
100
AcDbLine
 10
-342.8746212531192
 20
-155.792087986092
 30
0.0
 11
-92.87462125311205
 21
94.20791201391509
 31
0.0
  0
LINE
  5
20C
330
1F
100
AcDbEntity
  8
0-0
  6
JWW_DASHED1
 62
   120
370
     5
100
AcDbLine
 10
-682.8746212531186
 20
-495.792087986091
 30
0.0
 11
-432.8746212531107
 21
-245.7920879860835
 31
0.0
  0
LINE
  5
20D
330
1F
100
AcDbEntity
  8
0-0
  6
JWW_DASHED1
 62
   120
370
     5
100
AcDbLine
 10
-342.8746212531158
 20
-162.8631557993737
 30
0.0
 11
-92.87462125312399
 21
87.1368442006181
 31
0.0
  0
LINE
  5
20E
330
1F
100
AcDbEntity
  8
0-0
  6
JWW_DASHED1
 62
   120
370
     5
100
AcDbLine
 10
-682.8746212531152
 20
-502.8631557993729
 30
0.0
 11
-432.8746212531073
 21
-252.8631557993651
 31
0.0
  0
LINE
  5
20F
330
1F
100
AcDbEntity
  8
0-0
  6
JWW_DASHED1
 62
   120
370
     5
100
AcDbLine
 10
-342.8746212531115
 20
-169.9342236126553
 30
0.0
 11
-92.87462125311973
 21
80.06577638733646
 31
0.0
  0
LINE
  5
210
330
1F
100
AcDbEntity
  8
0-0
  6
JWW_DASHED1
 62
   120
370
     5
100
AcDbLine
 10
-682.8746212531108
 20
-509.9342236126541
 30
0.0
 11
-432.8746212531192
 21
-259.9342236126621
 31
0.0
  0
LINE
  5
211
330
1F
100
AcDbEntity
  8
0-0
  6
JWW_DASHED1
 62
   120
370
     5
100
AcDbLine
 10
-342.8746212531132
 20
-177.0052914259425
 30
0.0
 11
-92.87462125312399
 21
72.99470857404671
 31
0.0
  0
LINE
  5
212
330
1F
100
AcDbEntity
  8
0-0
  6
JWW_DASHED1
 62
   120
370
     5
100
AcDbLine
 10
-682.87462125311
 20
-517.0052914259387
 30
0.0
 11
-432.87462125312
 21
-267.0052914259493
 31
0.0
  0
LINE
  5
213
330
1F
100
AcDbEntity
  8
0-0
  6
JWW_DASHED1
 62
   120
370
     5
100
AcDbLine
 10
-342.8746212531149
 20
-184.0763592391751
 30
0.0
 11
-92.87462125312314
 21
65.92364076081665
 31
0.0
  0
LINE
  5
214
330
1F
100
AcDbEntity
  8
0-0
  6
JWW_DASHED1
 62
   120
370
     5
100
AcDbLine
 10
-682.8746212531134
 20
-524.0763592391739
 30
0.0
 11
-432.8746212531226
 21
-274.0763592391824
 31
0.0
  0
LINE
  5
215
330
1F
100
AcDbEntity
  8
0-0
  6
JWW_DASHED1
 62
   120
370
     5
100
AcDbLine
 10
-342.8746212531269
 20
-191.1474270524721
 30
0.0
 11
-92.87462125311887
 21
58.85257294753544
 31
0.0
  0
LINE
  5
216
330
1F
100
AcDbEntity
  8
0-0
  6
JWW_DASHED1
 62
   120
370
     5
100
AcDbLine
 10
-682.87462125311
 20
-531.1474270524553
 30
0.0
 11
-432.8746212531183
 21
-281.147427052464
 31
0.0
  0
LINE
  5
217
330
1F
100
AcDbEntity
  8
0-0
  6
JWW_DASHED1
 62
   120
370
     5
100
AcDbLine
 10
-342.8746212531226
 20
-198.2184948657537
 30
0.0
 11
-92.87462125311461
 21
51.78150513425379
 31
0.0
  0
LINE
  5
218
330
1F
100
AcDbEntity
  8
0-0
  6
JWW_DASHED1
 62
   120
370
     5
100
AcDbLine
 10
-682.874621253122
 20
-538.2184948657527
 30
0.0
 11
-432.8746212531141
 21
-288.2184948657452
 31
0.0
  0
LINE
  5
219
330
1F
100
AcDbEntity
  8
0-0
  6
JWW_DASHED1
 62
   120
370
     5
100
AcDbLine
 10
-342.8746212531183
 20
-205.289562679035
 30
0.0
 11
-92.8746212531112
 21
44.71043732097215
 31
0.0
  0
LINE
  5
21A
330
1F
100
AcDbEntity
  8
0-0
  6
JWW_DASHED1
 62
   120
370
     5
100
AcDbLine
 10
-682.8746212531177
 20
-545.2895626790339
 30
0.0
 11
-432.8746212531107
 21
-295.2895626790264
 31
0.0
  0
LINE
  5
21B
330
1F
100
AcDbEntity
  8
0-0
  6
JWW_DASHED1
 62
   120
370
     5
100
AcDbLine
 10
-342.8746212531141
 20
-212.3606304923166
 30
0.0
 11
-92.87462125312314
 21
37.63936950767516
 31
0.0
  0
LINE
  5
21C
330
1F
100
AcDbEntity
  8
0-0
  6
JWW_DASHED1
 62
   120
370
     5
100
AcDbLine
 10
-682.8746212531134
 20
-552.3606304923156
 30
0.0
 11
-432.8746212531064
 21
-302.3606304923085
 31
0.0
  0
LINE
  5
21D
330
1F
100
AcDbEntity
  8
0-0
  6
JWW_DASHED1
 62
   120
370
     5
100
AcDbLine
 10
-342.8746212531107
 20
-219.4316983055982
 30
0.0
 11
-92.87462125311887
 21
30.56830169439351
 31
0.0
  0
LINE
  5
21E
330
1F
100
AcDbEntity
  8
0-0
  6
JWW_DASHED1
 62
   120
370
     5
100
AcDbLine
 10
-682.87462125311
 20
-559.4316983055973
 30
0.0
 11
-432.8746212531175
 21
-309.4316983056051
 31
0.0
  0
LINE
  5
21F
330
1F
100
AcDbEntity
  8
0-0
  6
JWW_DASHED1
 62
   120
370
     5
100
AcDbLine
 10
-342.8746212531124
 20
-226.5027661188854
 30
0.0
 11
-92.87462125312314
 21
23.49723388110419
 31
0.0
  0
LINE
  5
220
330
1F
100
AcDbEntity
  8
0-0
  6
JWW_DASHED1
 62
   120
370
     5
100
AcDbLine
 10
-682.8746212531083
 20
-566.5027661188815
 30
0.0
 11
-432.8746212531192
 21
-316.5027661188923
 31
0.0
  0
LINE
  5
221
330
1F
100
AcDbEntity
  8
0-0
  6
JWW_DASHED1
 62
   120
370
     5
100
AcDbLine
 10
-342.8746212531081
 20
-233.5738339321667
 30
0.0
 11
-92.87462125311887
 21
16.42616606782298
 31
0.0
  0
LINE
  5
222
330
1F
100
AcDbEntity
  8
0-0
  6
JWW_DASHED1
 62
   120
370
     5
100
AcDbLine
 10
-682.874621253104
 20
-573.5738339321626
 30
0.0
 11
-432.8746212531149
 21
-323.5738339321734
 31
0.0
  0
LINE
  5
223
330
1F
100
AcDbEntity
  8
0-0
  6
JWW_DASHED1
 62
   120
370
     5
100
AcDbLine
 10
-342.8746212531141
 20
-240.6449017454581
 30
0.0
 11
-92.87462125312314
 21
9.355098254533232
 31
0.0
  0
LINE
  5
224
330
1F
100
AcDbEntity
  8
0-0
  6
JWW_DASHED1
 62
   120
370
     5
100
AcDbLine
 10
-682.8746212531134
 20
-580.6449017454573
 30
0.0
 11
-432.8746212531217
 21
-330.6449017454657
 31
0.0
  0
LINE
  5
225
330
1F
100
AcDbEntity
  8
0-0
  6
JWW_DASHED1
 62
   120
370
     5
100
AcDbLine
 10
-342.874621253126
 20
-247.7159695587555
 30
0.0
 11
-92.87462125311887
 21
2.284030441251588
 31
0.0
  0
LINE
  5
226
330
1F
100
AcDbEntity
  8
0-0
  6
JWW_DASHED1
 62
   120
370
     5
100
AcDbLine
 10
-682.8746212531091
 20
-587.7159695587385
 30
0.0
 11
-432.8746212531175
 21
-337.715969558747
 31
0.0
  0
LINE
  5
227
330
1F
100
AcDbEntity
  8
0-0
  6
JWW_DASHED1
 62
   120
370
     5
100
AcDbLine
 10
-342.8746212531175
 20
-254.7870373719779
 30
0.0
 11
-92.87462125311035
 21
-4.787037371970797
 31
0.0
  0
LINE
  5
228
330
1F
100
AcDbEntity
  8
0-0
  6
JWW_DASHED1
 62
   120
370
     5
100
AcDbLine
 10
-682.8746212531169
 20
-594.7870373719769
 30
0.0
 11
-432.874621253109
 21
-344.7870373719698
 31
0.0
  0
LINE
  5
229
330
1F
100
AcDbEntity
  8
0-0
  6
JWW_DASHED1
 62
   120
370
     5
100
AcDbLine
 10
-342.8746212531141
 20
-261.8581051852591
 30
0.0
 11
-92.87462125312229
 21
-11.85810518526779
 31
0.0
  0
LINE
  5
22A
330
1F
100
AcDbEntity
  8
0-0
  6
JWW_DASHED1
 62
   120
370
     5
100
AcDbLine
 10
-682.8746212531125
 20
-601.8581051852585
 30
0.0
 11
-432.8746212531055
 21
-351.8581051852515
 31
0.0
  0
LINE
  5
22B
330
1F
100
AcDbEntity
  8
0-0
  6
JWW_DASHED1
 62
   120
370
     5
100
AcDbLine
 10
-342.8746212531149
 20
-268.9291729985463
 30
0.0
 11
-92.8746212531257
 21
-18.92917299855711
 31
0.0
  0
LINE
  5
22C
330
1F
100
AcDbEntity
  8
0-0
  6
JWW_DASHED1
 62
   120
370
     5
100
AcDbLine
 10
-682.8746212531117
 20
-608.9291729985425
 30
0.0
 11
-432.8746212531217
 21
-358.9291729985531
 31
0.0
  0
LINE
  5
22D
330
1F
100
AcDbEntity
  8
0-0
  6
JWW_DASHED1
 62
   120
370
     5
100
AcDbLine
 10
-342.8746212531115
 20
-276.000240811828
 30
0.0
 11
-92.87462125312143
 21
-26.00024081183832
 31
0.0
  0
LINE
  5
22E
330
1F
100
AcDbEntity
  8
0-0
  6
JWW_DASHED1
 62
   120
370
     5
100
AcDbLine
 10
-682.8746212531066
 20
-616.0002408118238
 30
0.0
 11
-432.8746212531175
 21
-366.0002408118344
 31
0.0
  0
LINE
  5
22F
330
1F
100
AcDbEntity
  8
0-0
  6
JWW_DASHED1
 62
   120
370
     5
100
AcDbLine
 10
-342.8746212531175
 20
-283.0713086251199
 30
0.0
 11
-92.8746212531257
 21
-33.07130862512807
 31
0.0
  0
LINE
  5
230
330
1F
100
AcDbEntity
  8
0-0
  6
JWW_DASHED1
 62
   120
370
     5
100
AcDbLine
 10
-682.8746212531169
 20
-623.0713086251186
 30
0.0
 11
-432.8746212531252
 21
-373.0713086251271
 31
0.0
  0
LINE
  5
231
330
1F
100
AcDbEntity
  8
0-0
  6
JWW_DASHED1
 62
   120
370
     5
100
AcDbLine
 10
-342.8746212531132
 20
-290.142376438401
 30
0.0
 11
-92.87462125312143
 21
-40.14237643840929
 31
0.0
  0
LINE
  5
232
330
1F
100
AcDbEntity
  8
0-0
  6
JWW_DASHED1
 62
   120
370
     5
100
AcDbLine
 10
-682.8746212531125
 20
-630.1423764384002
 30
0.0
 11
-432.8746212531209
 21
-380.1423764384087
 31
0.0
  0
LINE
  5
233
330
1F
100
AcDbEntity
  8
0-0
  6
JWW_DASHED1
 62
   120
370
     5
100
AcDbLine
 10
-342.8746212531252
 20
-297.2134442516984
 30
0.0
 11
-92.87462125311802
 21
-47.21344425169136
 31
0.0
  0
LINE
  5
234
330
1F
100
AcDbEntity
  8
0-0
  6
JWW_DASHED1
 62
   120
370
     5
100
AcDbLine
 10
-682.8746212531083
 20
-637.2134442516815
 30
0.0
 11
-432.8746212531166
 21
-387.2134442516899
 31
0.0
  0
LINE
  5
235
330
1F
100
AcDbEntity
  8
0-0
  6
JWW_DASHED1
 62
   120
370
     5
100
AcDbLine
 10
-342.8746212531209
 20
-304.2845120649797
 30
0.0
 11
-92.87462125311376
 21
-54.28451206497257
 31
0.0
  0
LINE
  5
236
330
1F
100
AcDbEntity
  8
0-0
  6
JWW_DASHED1
 62
   120
370
     5
100
AcDbLine
 10
-682.8746212531203
 20
-644.2845120649791
 30
0.0
 11
-432.8746212531132
 21
-394.2845120649716
 31
0.0
  0
LINE
  5
237
330
1F
100
AcDbEntity
  8
0-0
  6
JWW_DASHED1
 62
   120
370
     5
100
AcDbLine
 10
-342.8746212531175
 20
-311.3555798782609
 30
0.0
 11
-92.8746212531095
 21
-61.35557987825379
 31
0.0
  0
LINE
  5
238
330
1F
100
AcDbEntity
  8
0-0
  6
JWW_DASHED1
 62
   120
370
     5
100
AcDbLine
 10
-682.8746212531169
 20
-651.3555798782603
 30
0.0
 11
-432.874621253109
 21
-401.3555798782533
 31
0.0
  0
LINE
  5
239
330
1F
100
AcDbEntity
  8
0-0
  6
JWW_DASHED1
 62
   120
370
     5
100
AcDbLine
 10
-342.8746212531141
 20
-318.4266476914893
 30
0.0
 11
-92.87462125312484
 21
-68.42664769149962
 31
0.0
  0
LINE
  5
23A
330
1F
100
AcDbEntity
  8
0-0
  6
JWW_DASHED1
 62
   120
370
     5
100
AcDbLine
 10
-682.87462125311
 20
-658.4266476914853
 30
0.0
 11
-432.8746212531209
 21
-408.4266476914952
 31
0.0
  0
LINE
  5
23B
330
1F
100
AcDbEntity
  8
0-0
  6
JWW_DASHED1
 62
   120
370
     5
100
AcDbLine
 10
-342.8746212531098
 20
-325.4977155047704
 30
0.0
 11
-92.87462125312058
 21
-75.49771550478084
 31
0.0
  0
LINE
  5
23C
330
1F
100
AcDbEntity
  8
0-0
  6
JWW_DASHED1
 62
   120
370
     5
100
AcDbLine
 10
-682.8746212531066
 20
-665.4977155047667
 30
0.0
 11
-432.8746212531166
 21
-415.4977155047773
 31
0.0
  0
LINE
  5
23D
330
1F
100
AcDbEntity
  8
0-0
  6
JWW_DASHED1
 62
   120
370
     5
100
AcDbLine
 10
-342.8746212531166
 20
-332.5687833180627
 30
0.0
 11
-92.87462125312484
 21
-82.56878331807101
 31
0.0
  0
LINE
  5
23E
330
1F
100
AcDbEntity
  8
0-0
  6
JWW_DASHED1
 62
   120
370
     5
100
AcDbLine
 10
-682.8746212531152
 20
-672.5687833180616
 30
0.0
 11
-432.8746212531243
 21
-422.56878331807
 31
0.0
  0
LINE
  5
23F
330
1F
100
AcDbEntity
  8
0-0
  6
JWW_DASHED1
 62
   120
370
     5
100
AcDbLine
 10
-342.8746212531124
 20
-339.639851131344
 30
0.0
 11
-92.87462125312143
 21
-89.63985113135266
 31
0.0
  0
LINE
  5
240
330
1F
100
AcDbEntity
  8
0-0
  6
JWW_DASHED1
 62
   120
370
     5
100
AcDbLine
 10
-682.8746212531117
 20
-679.6398511313432
 30
0.0
 11
-432.87462125312
 21
-429.6398511313516
 31
0.0
  0
LINE
  5
241
330
1F
100
AcDbEntity
  8
0-0
  6
JWW_DASHED1
 62
   120
370
     5
100
AcDbLine
 10
-342.8746212531243
 20
-346.7109189446414
 30
0.0
 11
-92.87462125311717
 21
-96.7109189446343
 31
0.0
  0
LINE
  5
242
330
1F
100
AcDbEntity
  8
0-0
  6
JWW_DASHED1
 62
   120
370
     5
100
AcDbLine
 10
-682.8746212531074
 20
-686.7109189446244
 30
0.0
 11
-432.8746212531166
 21
-436.7109189446333
 31
0.0
  0
LINE
  5
243
330
1F
100
AcDbEntity
  8
0-0
  6
JWW_DASHED1
 62
   120
370
     5
100
AcDbLine
 10
-342.8746212531209
 20
-353.7819867579226
 30
0.0
 11
-92.8746212531129
 21
-103.7819867579155
 31
0.0
  0
LINE
  5
244
330
1F
100
AcDbEntity
  8
0-0
  6
JWW_DASHED1
 62
   120
370
     5
100
AcDbLine
 10
-682.8746212531194
 20
-693.781986757922
 30
0.0
 11
-432.8746212531124
 21
-443.7819867579141
 31
0.0
  0
LINE
  5
245
330
1F
100
AcDbEntity
  8
0-0
  6
JWW_DASHED1
 62
   120
370
     5
100
AcDbLine
 10
-342.8746212531166
 20
-360.8530545712047
 30
0.0
 11
-92.87462125312484
 21
-110.8530545712129
 31
0.0
  0
LINE
  5
246
330
1F
100
AcDbEntity
  8
0-0
  6
JWW_DASHED1
 62
   120
370
     5
100
AcDbLine
 10
-682.8746212531152
 20
-700.8530545712033
 30
0.0
 11
-432.8746212531081
 21
-450.8530545711957
 31
0.0
  0
LINE
  5
247
330
1F
100
AcDbEntity
  8
0-0
  6
JWW_DASHED1
 62
   120
370
     5
100
AcDbLine
 10
-342.8746212531124
 20
-367.9241223844859
 30
0.0
 11
-92.87462125312058
 21
-117.9241223844942
 31
0.0
  0
LINE
  5
248
330
1F
100
AcDbEntity
  8
0-0
  6
JWW_DASHED1
 62
   120
370
     5
100
AcDbLine
 10
-682.8746212531117
 20
-707.9241223844847
 30
0.0
 11
-432.87462125312
 21
-457.9241223844934
 31
0.0
  0
LINE
  5
249
330
1F
100
AcDbEntity
  8
0-0
  6
JWW_DASHED1
 62
   120
370
     5
100
AcDbLine
 10
-342.8746212531124
 20
-374.9951901977714
 30
0.0
 11
-92.87462125312314
 21
-124.9951901977822
 31
0.0
  0
LINE
  5
24A
330
1F
100
AcDbEntity
  8
0-0
  6
JWW_DASHED1
 62
   120
370
     5
100
AcDbLine
 10
-682.8746212531091
 20
-714.995190197768
 30
0.0
 11
-432.8746212531192
 21
-464.9951901977784
 31
0.0
  0
LINE
  5
24B
330
1F
100
AcDbEntity
  8
0-0
  6
JWW_DASHED1
 62
   120
370
     5
100
AcDbLine
 10
-342.8746212531158
 20
-382.0662580110057
 30
0.0
 11
-92.87462125312484
 21
-132.066258011014
 31
0.0
  0
LINE
  5
24C
330
1F
100
AcDbEntity
  8
0-0
  6
JWW_DASHED1
 62
   120
370
     5
100
AcDbLine
 10
-682.8746212531152
 20
-722.0662580110045
 30
0.0
 11
-432.8746212531235
 21
-472.066258011013
 31
0.0
  0
LINE
  5
24D
330
1F
100
AcDbEntity
  8
0-0
  6
JWW_DASHED1
 62
   120
370
     5
100
AcDbLine
 10
-342.8746212531277
 20
-389.1373258243032
 30
0.0
 11
-92.87462125311973
 21
-139.1373258242952
 31
0.0
  0
LINE
  5
24E
330
1F
100
AcDbEntity
  8
0-0
  6
JWW_DASHED1
 62
   120
370
     5
100
AcDbLine
 10
-682.8746212531108
 20
-729.1373258242861
 30
0.0
 11
-432.8746212531192
 21
-479.1373258242944
 31
0.0
  0
LINE
  5
24F
330
1F
100
AcDbEntity
  8
0-0
  6
JWW_DASHED1
 62
   120
370
     5
100
AcDbLine
 10
-342.8746212531235
 20
-396.2083936375843
 30
0.0
 11
-92.87462125311632
 21
-146.2083936375772
 31
0.0
  0
LINE
  5
250
330
1F
100
AcDbEntity
  8
0-0
  6
JWW_DASHED1
 62
   120
370
     5
100
AcDbLine
 10
-682.8746212531228
 20
-736.2083936375834
 30
0.0
 11
-432.8746212531149
 21
-486.2083936375758
 31
0.0
  0
LINE
  5
251
330
1F
100
AcDbEntity
  8
0-0
  6
JWW_DASHED1
 62
   120
370
     5
100
AcDbLine
 10
-342.8746212531192
 20
-403.2794614508656
 30
0.0
 11
-92.87462125311205
 21
-153.2794614508585
 31
0.0
  0
LINE
  5
252
330
1F
100
AcDbEntity
  8
0-0
  6
JWW_DASHED1
 62
   120
370
     5
100
AcDbLine
 10
-682.8746212531186
 20
-743.279461450865
 30
0.0
 11
-432.8746212531115
 21
-493.2794614508575
 31
0.0
  0
LINE
  5
253
330
1F
100
AcDbEntity
  8
0-0
  6
JWW_DASHED1
 62
   120
370
     5
100
AcDbLine
 10
-342.8746212531158
 20
-410.3505292641472
 30
0.0
 11
-92.87462125312399
 21
-160.3505292641559
 31
0.0
  0
LINE
  5
254
330
1F
100
AcDbEntity
  8
0-0
  6
JWW_DASHED1
 62
   120
370
     5
100
AcDbLine
 10
-682.8746212531152
 20
-750.3505292641464
 30
0.0
 11
-432.8746212531073
 21
-500.3505292641389
 31
0.0
  0
LINE
  5
255
330
1F
100
AcDbEntity
  8
0-0
  6
JWW_DASHED1
 62
   120
370
     5
100
AcDbLine
 10
-342.8746212531115
 20
-417.4215970774288
 30
0.0
 11
-92.87462125311973
 21
-167.4215970774371
 31
0.0
  0
LINE
  5
256
330
1F
100
AcDbEntity
  8
0-0
  6
JWW_DASHED1
 62
   120
370
     5
100
AcDbLine
 10
-682.87462125311
 20
-757.4215970774277
 30
0.0
 11
-432.8746212531192
 21
-507.4215970774363
 31
0.0
  0
LINE
  5
257
330
1F
100
AcDbEntity
  8
0-0
  6
JWW_DASHED1
 62
   120
370
     5
100
AcDbLine
 10
-342.8746212531115
 20
-424.4926648907143
 30
0.0
 11
-92.87462125312229
 21
-174.4926648907247
 31
0.0
  0
LINE
  5
258
330
1F
100
AcDbEntity
  8
0-0
  6
JWW_DASHED1
 62
   120
370
     5
100
AcDbLine
 10
-682.8746212531083
 20
-764.4926648907108
 30
0.0
 11
-432.8746212531183
 21
-514.4926648907209
 31
0.0
  0
LINE
  5
259
330
1F
100
AcDbEntity
  8
0-0
  6
JWW_DASHED1
 62
   120
370
     5
100
AcDbLine
 10
-342.8746212531073
 20
-431.5637327039956
 30
0.0
 11
-92.87462125311802
 21
-181.5637327040064
 31
0.0
  0
LINE
  5
25A
330
1F
100
AcDbEntity
  8
0-0
  6
JWW_DASHED1
 62
   120
370
     5
100
AcDbLine
 10
-682.874621253104
 20
-771.563732703992
 30
0.0
 11
-432.8746212531141
 21
-521.5637327040026
 31
0.0
  0
LINE
  5
25B
330
1F
100
AcDbEntity
  8
0-0
  6
JWW_DASHED1
 62
   120
370
     5
100
AcDbLine
 10
-342.8746212531158
 20
-438.6348005172887
 30
0.0
 11
-92.87462125312314
 21
-188.6348005172974
 31
0.0
  0
LINE
  5
25C
330
1F
100
AcDbEntity
  8
0-0
  6
JWW_DASHED1
 62
   120
370
     5
100
AcDbLine
 10
-682.8746212531142
 20
-778.6348005172881
 30
0.0
 11
-432.8746212531226
 21
-528.6348005172966
 31
0.0
  0
LINE
  5
25D
330
1F
100
AcDbEntity
  8
0-0
  6
JWW_DASHED1
 62
   120
370
     5
100
AcDbLine
 10
-342.8746212531226
 20
-445.7058683305273
 30
0.0
 11
-92.87462125311546
 21
-195.7058683305202
 31
0.0
  0
LINE
  5
25E
330
1F
100
AcDbEntity
  8
0-0
  6
JWW_DASHED1
 62
   120
370
     5
100
AcDbLine
 10
-682.874621253122
 20
-785.7058683305263
 30
0.0
 11
-432.8746212531141
 21
-535.705868330519
 31
0.0
  0
LINE
  5
25F
330
1F
100
AcDbEntity
  8
0-0
  6
JWW_DASHED1
 62
   120
370
     5
100
AcDbLine
 10
-342.8746212531192
 20
-452.7769361438087
 30
0.0
 11
-92.8746212531112
 21
-202.7769361438014
 31
0.0
  0
LINE
  5
260
330
1F
100
AcDbEntity
  8
0-0
  6
JWW_DASHED1
 62
   120
370
     5
100
AcDbLine
 10
-682.8746212531177
 20
-792.7769361438079
 30
0.0
 11
-432.8746212531107
 21
-542.7769361438004
 31
0.0
  0
LINE
  5
261
330
1F
100
AcDbEntity
  8
0-0
  6
JWW_DASHED1
 62
   120
370
     5
100
AcDbLine
 10
-342.8746212531149
 20
-459.8480039570902
 30
0.0
 11
-92.87462125312314
 21
-209.8480039570988
 31
0.0
  0
LINE
  5
262
330
1F
100
AcDbEntity
  8
0-0
  6
JWW_DASHED1
 62
   120
370
     5
100
AcDbLine
 10
-682.8746212531134
 20
-799.8480039570894
 30
0.0
 11
-432.8746212531064
 21
-549.8480039570818
 31
0.0
  0
LINE
  5
263
330
1F
100
AcDbEntity
  8
0-0
  6
JWW_DASHED1
 62
   120
370
     5
100
AcDbLine
 10
-342.8746212531141
 20
-466.9190717703754
 30
0.0
 11
-92.87462125312484
 21
-216.919071770386
 31
0.0
  0
LINE
  5
264
330
1F
100
AcDbEntity
  8
0-0
  6
JWW_DASHED1
 62
   120
370
     5
100
AcDbLine
 10
-682.8746212531108
 20
-806.9190717703717
 30
0.0
 11
-432.8746212531209
 21
-556.9190717703823
 31
0.0
  0
LINE
  5
265
330
1F
100
AcDbEntity
  8
0-0
  6
JWW_DASHED1
 62
   120
370
     5
100
AcDbLine
 10
-342.8746212531107
 20
-473.9901395836569
 30
0.0
 11
-92.87462125312143
 21
-223.9901395836672
 31
0.0
  0
LINE
  5
266
330
1F
100
AcDbEntity
  8
0-0
  6
JWW_DASHED1
 62
   120
370
     5
100
AcDbLine
 10
-682.8746212531066
 20
-813.9901395836531
 30
0.0
 11
-432.8746212531175
 21
-563.9901395836637
 31
0.0
  0
LINE
  5
267
330
1F
100
AcDbEntity
  8
0-0
  6
JWW_DASHED1
 62
   120
370
     5
100
AcDbLine
 10
-342.8746212531183
 20
-481.0612073969504
 30
0.0
 11
-92.87462125312655
 21
-231.0612073969587
 31
0.0
  0
LINE
  5
268
330
1F
100
AcDbEntity
  8
0-0
  6
JWW_DASHED1
 62
   120
370
     5
100
AcDbLine
 10
-682.8746212531177
 20
-821.0612073969494
 30
0.0
 11
-432.874621253126
 21
-571.0612073969579
 31
0.0
  0
LINE
  5
269
330
1F
100
AcDbEntity
  8
0-0
  6
JWW_DASHED1
 62
   120
370
     5
100
AcDbLine
 10
-342.8746212531141
 20
-488.1322752102319
 30
0.0
 11
-92.87462125312314
 21
-238.1322752102403
 31
0.0
  0
LINE
  5
26A
330
1F
100
AcDbEntity
  8
0-0
  6
JWW_DASHED1
 62
   120
370
     5
100
AcDbLine
 10
-682.8746212531134
 20
-828.1322752102307
 30
0.0
 11
-432.8746212531226
 21
-578.1322752102395
 31
0.0
  0
LINE
  5
26B
330
1F
100
AcDbEntity
  8
0-0
  6
JWW_DASHED1
 62
   120
370
     5
100
AcDbLine
 10
-342.874621253126
 20
-495.2033430235291
 30
0.0
 11
-92.87462125311887
 21
-245.203343023522
 31
0.0
  0
LINE
  5
26C
330
1F
100
AcDbEntity
  8
0-0
  6
JWW_DASHED1
 62
   120
370
     5
100
AcDbLine
 10
-682.8746212531091
 20
-835.2033430235123
 30
0.0
 11
-432.8746212531183
 21
-585.203343023521
 31
0.0
  0
LINE
  5
26D
330
1F
100
AcDbEntity
  8
0-0
  6
JWW_DASHED1
 62
   120
370
     5
100
AcDbLine
 10
-342.8746212531226
 20
-502.2744108368107
 30
0.0
 11
-92.87462125311461
 21
-252.2744108368032
 31
0.0
  0
LINE
  5
26E
330
1F
100
AcDbEntity
  8
0-0
  6
JWW_DASHED1
 62
   120
370
     5
100
AcDbLine
 10
-682.8746212531211
 20
-842.2744108368094
 30
0.0
 11
-432.8746212531141
 21
-592.2744108368024
 31
0.0
  0
LINE
  5
26F
330
1F
100
AcDbEntity
  8
0-0
  6
JWW_DASHED1
 62
   120
370
     5
100
AcDbLine
 10
-342.8746212531141
 20
-509.3454786500331
 30
0.0
 11
-92.87462125312229
 21
-259.3454786500417
 31
0.0
  0
LINE
  5
270
330
1F
100
AcDbEntity
  8
0-0
  6
JWW_DASHED1
 62
   120
370
     5
100
AcDbLine
 10
-682.8746212531134
 20
-849.3454786500323
 30
0.0
 11
-432.8746212531217
 21
-599.3454786500408
 31
0.0
  0
LINE
  5
271
330
1F
100
AcDbEntity
  8
0-0
  6
JWW_DASHED1
 62
   120
370
     5
100
AcDbLine
 10
-342.8746212531132
 20
-516.4165464633179
 30
0.0
 11
-92.87462125312399
 21
-266.4165464633285
 31
0.0
  0
LINE
  5
272
330
1F
100
AcDbEntity
  8
0-0
  6
JWW_DASHED1
 62
   120
370
     5
100
AcDbLine
 10
-682.8746212531091
 20
-856.4165464633141
 30
0.0
 11
-432.87462125312
 21
-606.416546463325
 31
0.0
  0
LINE
  5
273
330
1F
100
AcDbEntity
  8
0-0
  6
JWW_DASHED1
 62
   120
370
     5
100
AcDbLine
 10
-342.874621253109
 20
-523.4876142765996
 30
0.0
 11
-92.87462125311973
 21
-273.4876142766097
 31
0.0
  0
LINE
  5
274
330
1F
100
AcDbEntity
  8
0-0
  6
JWW_DASHED1
 62
   120
370
     5
100
AcDbLine
 10
-682.8746212531049
 20
-863.4876142765954
 30
0.0
 11
-432.8746212531158
 21
-613.4876142766062
 31
0.0
  0
LINE
  5
275
330
1F
100
AcDbEntity
  8
0-0
  6
JWW_DASHED1
 62
   120
370
     5
100
AcDbLine
 10
-342.8746212531175
 20
-530.5586820898934
 30
0.0
 11
-92.87462125312655
 21
-280.558682089902
 31
0.0
  0
LINE
  5
276
330
1F
100
AcDbEntity
  8
0-0
  6
JWW_DASHED1
 62
   120
370
     5
100
AcDbLine
 10
-682.8746212531169
 20
-870.5586820898924
 30
0.0
 11
-432.8746212531252
 21
-620.5586820899008
 31
0.0
  0
LINE
  5
277
330
1F
100
AcDbEntity
  8
0-0
  6
JWW_DASHED1
 62
   120
370
     5
100
AcDbLine
 10
-342.8746212531141
 20
-537.6297499031748
 30
0.0
 11
-92.87462125312229
 21
-287.6297499031833
 31
0.0
  0
LINE
  5
278
330
1F
100
AcDbEntity
  8
0-0
  6
JWW_DASHED1
 62
   120
370
     5
100
AcDbLine
 10
-682.8746212531125
 20
-877.6297499031737
 30
0.0
 11
-432.8746212531209
 21
-627.6297499031821
 31
0.0
  0
LINE
  5
279
330
1F
100
AcDbEntity
  8
0-0
  6
JWW_DASHED1
 62
   120
370
     5
100
AcDbLine
 10
-342.874621253126
 20
-544.7008177164722
 30
0.0
 11
-92.87462125311802
 21
-294.7008177164649
 31
0.0
  0
LINE
  5
27A
330
1F
100
AcDbEntity
  8
0-0
  6
JWW_DASHED1
 62
   120
370
     5
100
AcDbLine
 10
-682.8746212531091
 20
-884.7008177164557
 30
0.0
 11
-432.8746212531175
 21
-634.7008177164637
 31
0.0
  0
LINE
  5
27B
330
1F
100
AcDbEntity
  8
0-0
  6
JWW_DASHED1
 62
   120
370
     5
100
AcDbLine
 10
-342.8746212531217
 20
-551.7718855297537
 30
0.0
 11
-92.87462125311376
 21
-301.7718855297461
 31
0.0
  0
LINE
  5
27C
330
1F
100
AcDbEntity
  8
0-0
  6
JWW_DASHED1
 62
   120
370
     5
100
AcDbLine
 10
-682.8746212531203
 20
-891.7718855297525
 30
0.0
 11
-432.8746212531132
 21
-641.7718855297453
 31
0.0
  0
LINE
  5
27D
330
1F
100
AcDbEntity
  8
0-0
  6
JWW_DASHED1
 62
   120
370
     5
100
AcDbLine
 10
-342.8746212531175
 20
-558.8429533430351
 30
0.0
 11
-92.8746212531257
 21
-308.8429533430435
 31
0.0
  0
LINE
  5
27E
330
1F
100
AcDbEntity
  8
0-0
  6
JWW_DASHED1
 62
   120
370
     5
100
AcDbLine
 10
-682.8746212531169
 20
-898.8429533430341
 30
0.0
 11
-432.874621253109
 21
-648.8429533430266
 31
0.0
  0
LINE
  5
27F
330
1F
100
AcDbEntity
  8
0-0
  6
JWW_DASHED1
 62
   120
370
     5
100
AcDbLine
 10
-342.8746212531132
 20
-565.9140211563165
 30
0.0
 11
-92.87462125312143
 21
-315.9140211563248
 31
0.0
  0
LINE
  5
280
330
1F
100
AcDbEntity
  8
0-0
  6
JWW_DASHED1
 62
   120
370
     5
100
AcDbLine
 10
-682.8746212531125
 20
-905.9140211563156
 30
0.0
 11
-432.8746212531209
 21
-655.914021156324
 31
0.0
  0
LINE
  5
281
330
1F
100
AcDbEntity
  8
0-0
  6
JWW_DASHED1
 62
   120
370
     5
100
AcDbLine
 10
-342.8746212531081
 20
-572.9850889695421
 30
0.0
 11
-92.87462125311802
 21
-322.9850889695527
 31
0.0
  0
LINE
  5
282
330
1F
100
AcDbEntity
  8
0-0
  6
JWW_DASHED1
 62
   120
370
     5
100
AcDbLine
 10
-682.874621253104
 20
-912.985088969538
 30
0.0
 11
-432.8746212531149
 21
-662.9850889695488
 31
0.0
  0
LINE
  5
283
330
1F
100
AcDbEntity
  8
0-0
  6
JWW_DASHED1
 62
   120
370
     5
100
AcDbLine
 10
-342.8746212531166
 20
-580.0561567828363
 30
0.0
 11
-92.87462125312484
 21
-330.056156782845
 31
0.0
  0
LINE
  5
284
330
1F
100
AcDbEntity
  8
0-0
  6
JWW_DASHED1
 62
   120
370
     5
100
AcDbLine
 10
-681.9509581292072
 20
-919.1324936589265
 30
0.0
 11
-432.8746212531243
 21
-670.0561567828438
 31
0.0
  0
LINE
  5
285
330
1F
100
AcDbEntity
  8
0-0
  6
JWW_DASHED1
 62
   120
370
     5
100
AcDbLine
 10
-342.8746212531124
 20
-587.1272245961178
 30
0.0
 11
-92.87462125312143
 21
-337.1272245961267
 31
0.0
  0
LINE
  5
286
330
1F
100
AcDbEntity
  8
0-0
  6
JWW_DASHED1
 62
   120
370
     5
100
AcDbLine
 10
-674.879890315926
 20
-919.1324936589308
 30
0.0
 11
-432.87462125312
 21
-677.127224596125
 31
0.0
  0
LINE
  5
287
330
1F
100
AcDbEntity
  8
0-0
  6
JWW_DASHED1
 62
   120
370
     5
100
AcDbLine
 10
-342.8746212531243
 20
-594.1982924094152
 30
0.0
 11
-92.87462125311717
 21
-344.1982924094078
 31
0.0
  0
LINE
  5
288
330
1F
100
AcDbEntity
  8
0-0
  6
JWW_DASHED1
 62
   120
370
     5
100
AcDbLine
 10
-667.8088225026286
 20
-919.1324936589193
 30
0.0
 11
-432.8746212531158
 21
-684.1982924094067
 31
0.0
  0
LINE
  5
289
330
1F
100
AcDbEntity
  8
0-0
  6
JWW_DASHED1
 62
   120
370
     5
100
AcDbLine
 10
-342.8746212531209
 20
-601.2693602226966
 30
0.0
 11
-92.8746212531129
 21
-351.2693602226891
 31
0.0
  0
LINE
  5
28A
330
1F
100
AcDbEntity
  8
0-0
  6
JWW_DASHED1
 62
   120
370
     5
100
AcDbLine
 10
-660.7377546893482
 20
-919.1324936589237
 30
0.0
 11
-432.8746212531124
 21
-691.2693602226883
 31
0.0
  0
LINE
  5
28B
330
1F
100
AcDbEntity
  8
0-0
  6
JWW_DASHED1
 62
   120
370
     5
100
AcDbLine
 10
-342.8746212531166
 20
-608.340428035978
 30
0.0
 11
-92.87462125312484
 21
-358.3404280359865
 31
0.0
  0
LINE
  5
28C
330
1F
100
AcDbEntity
  8
0-0
  6
JWW_DASHED1
 62
   120
370
     5
100
AcDbLine
 10
-653.6666868760661
 20
-919.1324936589276
 30
0.0
 11
-432.8746212531081
 21
-698.3404280359695
 31
0.0
  0
LINE
  5
28D
330
1F
100
AcDbEntity
  8
0-0
  6
JWW_DASHED1
 62
   120
370
     5
100
AcDbLine
 10
-342.8746212531124
 20
-615.4114958492595
 30
0.0
 11
-92.87462125312143
 21
-365.4114958492677
 31
0.0
  0
LINE
  5
28E
330
1F
100
AcDbEntity
  8
0-0
  6
JWW_DASHED1
 62
   120
370
     5
100
AcDbLine
 10
-646.5956190627824
 20
-919.1324936589293
 30
0.0
 11
-432.87462125312
 21
-705.4114958492671
 31
0.0
  0
LINE
  5
28F
330
1F
100
AcDbEntity
  8
0-0
  6
JWW_DASHED1
 62
   120
370
     5
100
AcDbLine
 10
-342.8746212531107
 20
-622.4825636625435
 30
0.0
 11
-92.87462125312143
 21
-372.4825636625541
 31
0.0
  0
LINE
  5
290
330
1F
100
AcDbEntity
  8
0-0
  6
JWW_DASHED1
 62
   120
370
     5
100
AcDbLine
 10
-639.5245512495011
 20
-919.1324936589334
 30
0.0
 11
-432.8746212531175
 21
-712.4825636625503
 31
0.0
  0
LINE
  5
291
330
1F
100
AcDbEntity
  8
0-0
  6
JWW_DASHED1
 62
   120
370
     5
100
AcDbLine
 10
-342.8746212531073
 20
-629.5536314758249
 30
0.0
 11
-92.87462125311717
 21
-379.5536314758352
 31
0.0
  0
LINE
  5
292
330
1F
100
AcDbEntity
  8
0-0
  6
JWW_DASHED1
 62
   120
370
     5
100
AcDbLine
 10
-632.4534834362199
 20
-919.1324936589374
 30
0.0
 11
-432.8746212531141
 21
-719.5536314758315
 31
0.0
  0
LINE
  5
293
330
1F
100
AcDbEntity
  8
0-0
  6
JWW_DASHED1
 62
   120
370
     5
100
AcDbLine
 10
-342.8746212531141
 20
-636.6246992890904
 30
0.0
 11
-92.87462125312229
 21
-386.6246992890985
 31
0.0
  0
LINE
  5
294
330
1F
100
AcDbEntity
  8
0-0
  6
JWW_DASHED1
 62
   120
370
     5
100
AcDbLine
 10
-625.3824156229515
 20
-919.1324936589269
 30
0.0
 11
-432.8746212531217
 21
-726.6246992890976
 31
0.0
  0
LINE
  5
295
330
1F
100
AcDbEntity
  8
0-0
  6
JWW_DASHED1
 62
   120
370
     5
100
AcDbLine
 10
-342.8746212531235
 20
-643.6957671023579
 30
0.0
 11
-92.87462125311632
 21
-393.6957671023508
 31
0.0
  0
LINE
  5
296
330
1F
100
AcDbEntity
  8
0-0
  6
JWW_DASHED1
 62
   120
370
     5
100
AcDbLine
 10
-618.3113478096873
 20
-919.1324936589215
 30
0.0
 11
-432.8746212531158
 21
-733.69576710235
 31
0.0
  0
LINE
  5
297
330
1F
100
AcDbEntity
  8
0-0
  6
JWW_DASHED1
 62
   120
370
     5
100
AcDbLine
 10
-342.87462125312
 20
-650.7668349156395
 30
0.0
 11
-92.87462125311205
 21
-400.766834915632
 31
0.0
  0
LINE
  5
298
330
1F
100
AcDbEntity
  8
0-0
  6
JWW_DASHED1
 62
   120
370
     5
100
AcDbLine
 10
-611.2402799964061
 20
-919.1324936589255
 30
0.0
 11
-432.8746212531115
 21
-740.7668349156312
 31
0.0
  0
LINE
  5
299
330
1F
100
AcDbEntity
  8
0-0
  6
JWW_DASHED1
 62
   120
370
     5
100
AcDbLine
 10
-342.8746212531158
 20
-657.8379027289212
 30
0.0
 11
-92.87462125312399
 21
-407.8379027289294
 31
0.0
  0
LINE
  5
29A
330
1F
100
AcDbEntity
  8
0-0
  6
JWW_DASHED1
 62
   120
370
     5
100
AcDbLine
 10
-604.169212183124
 20
-919.1324936589298
 30
0.0
 11
-432.8746212531073
 21
-747.8379027289125
 31
0.0
  0
LINE
  5
29B
330
1F
100
AcDbEntity
  8
0-0
  6
JWW_DASHED1
 62
   120
370
     5
100
AcDbLine
 10
-342.8746212531141
 20
-664.9089705422045
 30
0.0
 11
-92.87462125312399
 21
-414.9089705422149
 31
0.0
  0
LINE
  5
29C
330
1F
100
AcDbEntity
  8
0-0
  6
JWW_DASHED1
 62
   120
370
     5
100
AcDbLine
 10
-597.0981443698377
 20
-919.1324936589283
 30
0.0
 11
-432.8746212531209
 21
-754.9089705422114
 31
0.0
  0
LINE
  5
29D
330
1F
100
AcDbEntity
  8
0-0
  6
JWW_DASHED1
 62
   120
370
     5
100
AcDbLine
 10
-342.8746212531098
 20
-671.9800383554857
 30
0.0
 11
-92.87462125311973
 21
-421.9800383554962
 31
0.0
  0
LINE
  5
29E
330
1F
100
AcDbEntity
  8
0-0
  6
JWW_DASHED1
 62
   120
370
     5
100
AcDbLine
 10
-590.0270765565565
 20
-919.1324936589323
 30
0.0
 11
-432.8746212531166
 21
-761.9800383554925
 31
0.0
  0
LINE
  5
29F
330
1F
100
AcDbEntity
  8
0-0
  6
JWW_DASHED1
 62
   120
370
     5
100
AcDbLine
 10
-342.8746212531192
 20
-679.0511061687813
 30
0.0
 11
-92.87462125312825
 21
-429.0511061687893
 31
0.0
  0
LINE
  5
2A0
330
1F
100
AcDbEntity
  8
0-0
  6
JWW_DASHED1
 62
   120
370
     5
100
AcDbLine
 10
-582.9560087432591
 20
-919.1324936589206
 30
0.0
 11
-432.8746212531269
 21
-769.0511061687887
 31
0.0
  0
LINE
  5
2A1
330
1F
100
AcDbEntity
  8
0-0
  6
JWW_DASHED1
 62
   120
370
     5
100
AcDbLine
 10
-342.8746212531158
 20
-686.1221739820629
 30
0.0
 11
-92.87462125312399
 21
-436.1221739820713
 31
0.0
  0
LINE
  5
2A2
330
1F
100
AcDbEntity
  8
0-0
  6
JWW_DASHED1
 62
   120
370
     5
100
AcDbLine
 10
-575.884940929977
 20
-919.1324936589242
 30
0.0
 11
-432.8746212531235
 21
-776.1221739820702
 31
0.0
  0
LINE
  5
2A3
330
1F
100
AcDbEntity
  8
0-0
  6
JWW_DASHED1
 62
   120
370
     5
100
AcDbLine
 10
-342.8746212531277
 20
-693.1932417953599
 30
0.0
 11
-92.87462125311973
 21
-443.1932417953526
 31
0.0
  0
LINE
  5
2A4
330
1F
100
AcDbEntity
  8
0-0
  6
JWW_DASHED1
 62
   120
370
     5
100
AcDbLine
 10
-568.8138731166949
 20
-919.1324936589281
 30
0.0
 11
-432.8746212531192
 21
-783.1932417953516
 31
0.0
  0
LINE
  5
2A5
330
1F
100
AcDbEntity
  8
0-0
  6
JWW_DASHED1
 62
   120
370
     5
100
AcDbLine
 10
-342.8746212531209
 20
-700.2643096086117
 30
0.0
 11
-92.87462125311376
 21
-450.2643096086046
 31
0.0
  0
LINE
  5
2A6
330
1F
100
AcDbEntity
  8
0-0
  6
JWW_DASHED1
 62
   120
370
     5
100
AcDbLine
 10
-561.742805303435
 20
-919.1324936589255
 30
0.0
 11
-432.8746212531132
 21
-790.2643096086038
 31
0.0
  0
LINE
  5
2A7
330
1F
100
AcDbEntity
  8
0-0
  6
JWW_DASHED1
 62
   120
370
     5
100
AcDbLine
 10
-342.8746212531149
 20
-707.3353774218638
 30
0.0
 11
-92.87462125312314
 21
-457.3353774218722
 31
0.0
  0
LINE
  5
2A8
330
1F
100
AcDbEntity
  8
0-0
  6
JWW_DASHED1
 62
   120
370
     5
100
AcDbLine
 10
-554.6717374901827
 20
-919.1324936589317
 30
0.0
 11
-432.8746212531064
 21
-797.3353774218552
 31
0.0
  0
LINE
  5
2A9
330
1F
100
AcDbEntity
  8
0-0
  6
JWW_DASHED1
 62
   120
370
     5
100
AcDbLine
 10
-342.8746212531124
 20
-714.4064452351473
 30
0.0
 11
-92.87462125312314
 21
-464.4064452351577
 31
0.0
  0
LINE
  5
2AA
330
1F
100
AcDbEntity
  8
0-0
  6
JWW_DASHED1
 62
   120
370
     5
100
AcDbLine
 10
-547.6006696768931
 20
-919.1324936589274
 30
0.0
 11
-432.8746212531192
 21
-804.4064452351537
 31
0.0
  0
LINE
  5
2AB
330
1F
100
AcDbEntity
  8
0-0
  6
JWW_DASHED1
 62
   120
370
     5
100
AcDbLine
 10
-342.874621253109
 20
-721.4775130484287
 30
0.0
 11
-92.87462125311887
 21
-471.4775130484391
 31
0.0
  0
LINE
  5
2AC
330
1F
100
AcDbEntity
  8
0-0
  6
JWW_DASHED1
 62
   120
370
     5
100
AcDbLine
 10
-540.529601863611
 20
-919.1324936589315
 30
0.0
 11
-432.8746212531158
 21
-811.4775130484355
 31
0.0
  0
LINE
  5
2AD
330
1F
100
AcDbEntity
  8
0-0
  6
JWW_DASHED1
 62
   120
370
     5
100
AcDbLine
 10
-342.8746212531192
 20
-728.5485808617242
 30
0.0
 11
-92.87462125312655
 21
-478.5485808617324
 31
0.0
  0
LINE
  5
2AE
330
1F
100
AcDbEntity
  8
0-0
  6
JWW_DASHED1
 62
   120
370
     5
100
AcDbLine
 10
-533.4585340503136
 20
-919.1324936589189
 30
0.0
 11
-432.874621253126
 21
-818.5485808617317
 31
0.0
  0
LINE
  5
2AF
330
1F
100
AcDbEntity
  8
0-0
  6
JWW_DASHED1
 62
   120
370
     5
100
AcDbLine
 10
-342.8746212531149
 20
-735.6196486750057
 30
0.0
 11
-92.87462125312314
 21
-485.6196486750141
 31
0.0
  0
LINE
  5
2B0
330
1F
100
AcDbEntity
  8
0-0
  6
JWW_DASHED1
 62
   120
370
     5
100
AcDbLine
 10
-526.3874662370315
 20
-919.132493658923
 30
0.0
 11
-432.8746212531226
 21
-825.6196486750133
 31
0.0
  0
LINE
  5
2B1
330
1F
100
AcDbEntity
  8
0-0
  6
JWW_DASHED1
 62
   120
370
     5
100
AcDbLine
 10
-342.874621253126
 20
-742.6907164883029
 30
0.0
 11
-92.87462125311887
 21
-492.6907164882955
 31
0.0
  0
LINE
  5
2B2
330
1F
100
AcDbEntity
  8
0-0
  6
JWW_DASHED1
 62
   120
370
     5
100
AcDbLine
 10
-519.3163984237502
 20
-919.1324936589266
 30
0.0
 11
-432.8746212531183
 21
-832.6907164882946
 31
0.0
  0
LINE
  5
2B3
330
1F
100
AcDbEntity
  8
0-0
  6
JWW_DASHED1
 62
   120
370
     5
100
AcDbLine
 10
-342.8746212531226
 20
-749.761784301584
 30
0.0
 11
-92.87462125311461
 21
-499.7617843015769
 31
0.0
  0
LINE
  5
2B4
330
1F
100
AcDbEntity
  8
0-0
  6
JWW_DASHED1
 62
   120
370
     5
100
AcDbLine
 10
-512.245330610464
 20
-919.1324936589255
 30
0.0
 11
-432.8746212531141
 21
-839.7617843015762
 31
0.0
  0
LINE
  5
2B5
330
1F
100
AcDbEntity
  8
0-0
  6
JWW_DASHED1
 62
   120
370
     5
100
AcDbLine
 10
-342.8746212531183
 20
-756.8328521148657
 30
0.0
 11
-92.87462125312655
 21
-506.8328521148744
 31
0.0
  0
LINE
  5
2B6
330
1F
100
AcDbEntity
  8
0-0
  6
JWW_DASHED1
 62
   120
370
     5
100
AcDbLine
 10
-505.1742627971819
 20
-919.1324936589298
 30
0.0
 11
-432.8746212531107
 21
-846.8328521148576
 31
0.0
  0
LINE
  5
2B7
330
1F
100
AcDbEntity
  8
0-0
  6
JWW_DASHED1
 62
   120
370
     5
100
AcDbLine
 10
-342.8746212531141
 20
-763.9039199281474
 30
0.0
 11
-92.87462125312314
 21
-513.9039199281558
 31
0.0
  0
LINE
  5
2B8
330
1F
100
AcDbEntity
  8
0-0
  6
JWW_DASHED1
 62
   120
370
     5
100
AcDbLine
 10
-498.1031949838896
 20
-919.132493658922
 30
0.0
 11
-432.8746212531217
 21
-853.9039199281544
 31
0.0
  0
LINE
  5
2B9
330
1F
100
AcDbEntity
  8
0-0
  6
JWW_DASHED1
 62
   120
370
     5
100
AcDbLine
 10
-342.8746212531073
 20
-770.9749877413713
 30
0.0
 11
-92.87462125311802
 21
-520.9749877413816
 31
0.0
  0
LINE
  5
2BA
330
1F
100
AcDbEntity
  8
0-0
  6
JWW_DASHED1
 62
   120
370
     5
100
AcDbLine
 10
-491.0321271706663
 20
-919.13249365893
 30
0.0
 11
-432.8746212531141
 21
-860.9749877413778
 31
0.0
  0
LINE
  5
2BB
330
1F
100
AcDbEntity
  8
0-0
  6
JWW_DASHED1
 62
   120
370
     5
100
AcDbLine
 10
-342.8746212531175
 20
-778.046055554667
 30
0.0
 11
-92.87462125312655
 21
-528.0460555546756
 31
0.0
  0
LINE
  5
2BC
330
1F
100
AcDbEntity
  8
0-0
  6
JWW_DASHED1
 62
   120
370
     5
100
AcDbLine
 10
-483.9610593573689
 20
-919.1324936589181
 30
0.0
 11
-432.874621253126
 21
-868.0460555546748
 31
0.0
  0
LINE
  5
2BD
330
1F
100
AcDbEntity
  8
0-0
  6
JWW_DASHED1
 62
   120
370
     5
100
AcDbLine
 10
-342.8746212531141
 20
-785.1171233679486
 30
0.0
 11
-92.87462125312229
 21
-535.117123367957
 31
0.0
  0
LINE
  5
2BE
330
1F
100
AcDbEntity
  8
0-0
  6
JWW_DASHED1
 62
   120
370
     5
100
AcDbLine
 10
-476.8899915440869
 20
-919.1324936589218
 30
0.0
 11
-432.8746212531217
 21
-875.1171233679563
 31
0.0
  0
LINE
  5
2BF
330
1F
100
AcDbEntity
  8
0-0
  6
JWW_DASHED1
 62
   120
370
     5
100
AcDbLine
 10
-342.874621253126
 20
-792.1881911812458
 30
0.0
 11
-92.87462125311802
 21
-542.1881911812385
 31
0.0
  0
LINE
  5
2C0
330
1F
100
AcDbEntity
  8
0-0
  6
JWW_DASHED1
 62
   120
370
     5
100
AcDbLine
 10
-469.8189237308031
 20
-919.1324936589232
 30
0.0
 11
-432.8746212531175
 21
-882.1881911812375
 31
0.0
  0
LINE
  5
2C1
330
1F
100
AcDbEntity
  8
0-0
  6
JWW_DASHED1
 62
   120
370
     5
100
AcDbLine
 10
-342.8746212531209
 20
-799.259258994527
 30
0.0
 11
-92.87462125311461
 21
-549.2592589945199
 31
0.0
  0
LINE
  5
2C2
330
1F
100
AcDbEntity
  8
0-0
  6
JWW_DASHED1
 62
   120
370
     5
100
AcDbLine
 10
-462.7478559175219
 20
-919.1324936589276
 30
0.0
 11
-432.8746212531141
 21
-889.2592589945193
 31
0.0
  0
LINE
  5
2C3
330
1F
100
AcDbEntity
  8
0-0
  6
JWW_DASHED1
 62
   120
370
     5
100
AcDbLine
 10
-342.8746212531175
 20
-806.3303268078087
 30
0.0
 11
-92.8746212531257
 21
-556.3303268078171
 31
0.0
  0
LINE
  5
2C4
330
1F
100
AcDbEntity
  8
0-0
  6
JWW_DASHED1
 62
   120
370
     5
100
AcDbLine
 10
-455.6767881042407
 20
-919.1324936589317
 30
0.0
 11
-432.8746212531098
 21
-896.3303268078006
 31
0.0
  0
LINE
  5
2C5
330
1F
100
AcDbEntity
  8
0-0
  6
JWW_DASHED1
 62
   120
370
     5
100
AcDbLine
 10
-342.8746212531141
 20
-813.4013946210903
 30
0.0
 11
-92.87462125312229
 21
-563.4013946210987
 31
0.0
  0
LINE
  5
2C6
330
1F
100
AcDbEntity
  8
0-0
  6
JWW_DASHED1
 62
   120
370
     5
100
AcDbLine
 10
-448.6057202909441
 20
-919.1324936589212
 30
0.0
 11
-432.8746212531209
 21
-903.4013946210976
 31
0.0
  0
LINE
  5
2C7
330
1F
100
AcDbEntity
  8
0-0
  6
JWW_DASHED1
 62
   120
370
     5
100
AcDbLine
 10
-342.8746212531107
 20
-820.4724624343728
 30
0.0
 11
-92.87462125312058
 21
-570.4724624343829
 31
0.0
  0
LINE
  5
2C8
330
1F
100
AcDbEntity
  8
0-0
  6
JWW_DASHED1
 62
   120
370
     5
100
AcDbLine
 10
-441.5346524776629
 20
-919.1324936589249
 30
0.0
 11
-432.8746212531175
 21
-910.4724624343792
 31
0.0
  0
LINE
  5
2C9
330
1F
100
AcDbEntity
  8
0-0
  6
JWW_DASHED1
 62
   120
370
     5
100
AcDbLine
 10
-342.8746212531064
 20
-827.5435302476538
 30
0.0
 11
-92.87462125311717
 21
-577.5435302476646
 31
0.0
  0
LINE
  5
2CA
330
1F
100
AcDbEntity
  8
0-0
  6
JWW_DASHED1
 62
   120
370
     5
100
AcDbLine
 10
-434.4635846643808
 20
-919.1324936589283
 30
0.0
 11
-432.8746212531132
 21
-917.5435302476607
 31
0.0
  0
LINE
  5
2CB
330
1F
100
AcDbEntity
  8
0-0
  6
JWW_DASHED1
 62
   120
370
     5
100
AcDbLine
 10
-342.8746212531294
 20
-834.6145980609075
 30
0.0
 11
-92.87462125312143
 21
-584.6145980609
 31
0.0
  0
LINE
  5
2CC
330
1F
100
AcDbEntity
  8
0-0
  6
JWW_DASHED1
 62
   120
370
     5
100
AcDbLine
 10
-342.8746212531243
 20
-841.6856658741888
 30
0.0
 11
-92.87462125311717
 21
-591.6856658741814
 31
0.0
  0
LINE
  5
2CD
330
1F
100
AcDbEntity
  8
0-0
  6
JWW_DASHED1
 62
   120
370
     5
100
AcDbLine
 10
-342.8746212531209
 20
-848.7567336874704
 30
0.0
 11
-92.8746212531129
 21
-598.7567336874631
 31
0.0
  0
LINE
  5
2CE
330
1F
100
AcDbEntity
  8
0-0
  6
JWW_DASHED1
 62
   120
370
     5
100
AcDbLine
 10
-342.8746212531175
 20
-855.827801500752
 30
0.0
 11
-92.87462125312484
 21
-605.8278015007601
 31
0.0
  0
LINE
  5
2CF
330
1F
100
AcDbEntity
  8
0-0
  6
JWW_DASHED1
 62
   120
370
     5
100
AcDbLine
 10
-342.8746212531124
 20
-862.8988693140333
 30
0.0
 11
-92.87462125312143
 21
-612.8988693140417
 31
0.0
  0
LINE
  5
2D0
330
1F
100
AcDbEntity
  8
0-0
  6
JWW_DASHED1
 62
   120
370
     5
100
AcDbLine
 10
-342.874621253109
 20
-869.9699371273151
 30
0.0
 11
-92.87462125311973
 21
-619.9699371273255
 31
0.0
  0
LINE
  5
2D1
330
1F
100
AcDbEntity
  8
0-0
  6
JWW_DASHED1
 62
   120
370
     5
100
AcDbLine
 10
-342.8746212531047
 20
-877.0410049405963
 30
0.0
 11
-92.87462125311546
 21
-627.0410049406069
 31
0.0
  0
LINE
  5
2D2
330
1F
100
AcDbEntity
  8
0-0
  6
JWW_DASHED1
 62
   120
370
     5
100
AcDbLine
 10
-342.8746212531166
 20
-884.1120727538932
 30
0.0
 11
-92.87462125312484
 21
-634.1120727539018
 31
0.0
  0
LINE
  5
2D3
330
1F
100
AcDbEntity
  8
0-0
  6
JWW_DASHED1
 62
   120
370
     5
100
AcDbLine
 10
-342.8746212531286
 20
-891.1831405671908
 30
0.0
 11
-92.87462125312143
 21
-641.1831405671834
 31
0.0
  0
LINE
  5
2D4
330
1F
100
AcDbEntity
  8
0-0
  6
JWW_DASHED1
 62
   120
370
     5
100
AcDbLine
 10
-342.87462125312
 20
-898.2542083804132
 30
0.0
 11
-92.8746212531129
 21
-648.254208380406
 31
0.0
  0
LINE
  5
2D5
330
1F
100
AcDbEntity
  8
0-0
  6
JWW_DASHED1
 62
   120
370
     5
100
AcDbLine
 10
-342.8746212531158
 20
-905.325276193695
 30
0.0
 11
-92.87462125312484
 21
-655.3252761937032
 31
0.0
  0
LINE
  5
2D6
330
1F
100
AcDbEntity
  8
0-0
  6
JWW_DASHED1
 62
   120
370
     5
100
AcDbLine
 10
-342.8746212531124
 20
-912.3963440069762
 30
0.0
 11
-92.87462125312229
 21
-662.3963440069867
 31
0.0
  0
LINE
  5
2D7
330
1F
100
AcDbEntity
  8
0-0
  6
JWW_DASHED1
 62
   120
370
     5
100
AcDbLine
 10
-342.5397030917838
 20
-919.1324936589333
 30
0.0
 11
-92.87462125311802
 21
-669.4674118202682
 31
0.0
  0
LINE
  5
2D8
330
1F
100
AcDbEntity
  8
0-0
  6
JWW_DASHED1
 62
   120
370
     5
100
AcDbLine
 10
-335.4686352784864
 20
-919.1324936589215
 30
0.0
 11
-92.87462125312825
 21
-676.5384796335635
 31
0.0
  0
LINE
  5
2D9
330
1F
100
AcDbEntity
  8
0-0
  6
JWW_DASHED1
 62
   120
370
     5
100
AcDbLine
 10
-328.3975674652052
 20
-919.1324936589255
 30
0.0
 11
-92.87462125312399
 21
-683.6095474468447
 31
0.0
  0
LINE
  5
2DA
330
1F
100
AcDbEntity
  8
0-0
  6
JWW_DASHED1
 62
   120
370
     5
100
AcDbLine
 10
-321.3264996519086
 20
-919.1324936589147
 30
0.0
 11
-92.87462125311973
 21
-690.6806152601264
 31
0.0
  0
LINE
  5
2DB
330
1F
100
AcDbEntity
  8
0-0
  6
JWW_DASHED1
 62
   120
370
     5
100
AcDbLine
 10
-314.2554318386274
 20
-919.1324936589191
 30
0.0
 11
-92.87462125311632
 21
-697.7516830734075
 31
0.0
  0
LINE
  5
2DC
330
1F
100
AcDbEntity
  8
0-0
  6
JWW_DASHED1
 62
   120
370
     5
100
AcDbLine
 10
-307.1843640253454
 20
-919.132493658923
 30
0.0
 11
-92.87462125311205
 21
-704.8227508866892
 31
0.0
  0
LINE
  5
2DD
330
1F
100
AcDbEntity
  8
0-0
  6
JWW_DASHED1
 62
   120
370
     5
100
AcDbLine
 10
-300.1132962121213
 20
-919.1324936589289
 30
0.0
 11
-92.87462125312143
 21
-711.8938186999293
 31
0.0
  0
LINE
  5
2DE
330
1F
100
AcDbEntity
  8
0-0
  6
JWW_DASHED1
 62
   120
370
     5
100
AcDbLine
 10
-293.0422283988392
 20
-919.1324936589327
 30
0.0
 11
-92.87462125311717
 21
-718.9648865132107
 31
0.0
  0
LINE
  5
2DF
330
1F
100
AcDbEntity
  8
0-0
  6
JWW_DASHED1
 62
   120
370
     5
100
AcDbLine
 10
-285.9711605855418
 20
-919.132493658921
 30
0.0
 11
-92.8746212531274
 21
-726.0359543265063
 31
0.0
  0
LINE
  5
2E0
330
1F
100
AcDbEntity
  8
0-0
  6
JWW_DASHED1
 62
   120
370
     5
100
AcDbLine
 10
-278.9000927722597
 20
-919.1324936589242
 30
0.0
 11
-92.87462125312314
 21
-733.1070221397877
 31
0.0
  0
LINE
  5
2E1
330
1F
100
AcDbEntity
  8
0-0
  6
JWW_DASHED1
 62
   120
370
     5
100
AcDbLine
 10
-271.8290249589674
 20
-919.1324936589169
 30
0.0
 11
-92.87462125311973
 21
-740.1780899530693
 31
0.0
  0
LINE
  5
2E2
330
1F
100
AcDbEntity
  8
0-0
  6
JWW_DASHED1
 62
   120
370
     5
100
AcDbLine
 10
-264.7579571456853
 20
-919.1324936589208
 30
0.0
 11
-92.87462125311461
 21
-747.2491577663505
 31
0.0
  0
LINE
  5
2E3
330
1F
100
AcDbEntity
  8
0-0
  6
JWW_DASHED1
 62
   120
370
     5
100
AcDbLine
 10
-257.686889332399
 20
-919.1324936589198
 30
0.0
 11
-92.87462125312655
 21
-754.320225579648
 31
0.0
  0
LINE
  5
2E4
330
1F
100
AcDbEntity
  8
0-0
  6
JWW_DASHED1
 62
   120
370
     5
100
AcDbLine
 10
-250.6158215191169
 20
-919.1324936589231
 30
0.0
 11
-92.87462125312314
 21
-761.3912933929296
 31
0.0
  0
LINE
  5
2E5
330
1F
100
AcDbEntity
  8
0-0
  6
JWW_DASHED1
 62
   120
370
     5
100
AcDbLine
 10
-243.5447537058357
 20
-919.1324936589269
 30
0.0
 11
-92.87462125311973
 21
-768.4623612062121
 31
0.0
  0
LINE
  5
2E6
330
1F
100
AcDbEntity
  8
0-0
  6
JWW_DASHED1
 62
   120
370
     5
100
AcDbLine
 10
-236.4736858925962
 20
-919.1324936589193
 30
0.0
 11
-92.87462125312655
 21
-775.5334290194492
 31
0.0
  0
LINE
  5
2E7
330
1F
100
AcDbEntity
  8
0-0
  6
JWW_DASHED1
 62
   120
370
     5
100
AcDbLine
 10
-229.4026180793065
 20
-919.1324936589147
 30
0.0
 11
-92.87462125312229
 21
-782.6044968327308
 31
0.0
  0
LINE
  5
2E8
330
1F
100
AcDbEntity
  8
0-0
  6
JWW_DASHED1
 62
   120
370
     5
100
AcDbLine
 10
-222.3315502660253
 20
-919.1324936589186
 30
0.0
 11
-92.87462125311802
 21
-789.6755646460123
 31
0.0
  0
LINE
  5
2E9
330
1F
100
AcDbEntity
  8
0-0
  6
JWW_DASHED1
 62
   120
370
     5
100
AcDbLine
 10
-215.2604824527432
 20
-919.132493658923
 30
0.0
 11
-92.87462125311461
 21
-796.7466324592937
 31
0.0
  0
LINE
  5
2EA
330
1F
100
AcDbEntity
  8
0-0
  6
JWW_DASHED1
 62
   120
370
     5
100
AcDbLine
 10
-208.1894146394543
 20
-919.1324936589186
 30
0.0
 11
-92.87462125312655
 21
-803.8177002725909
 31
0.0
  0
LINE
  5
2EB
330
1F
100
AcDbEntity
  8
0-0
  6
JWW_DASHED1
 62
   120
370
     5
100
AcDbLine
 10
-201.1183468261722
 20
-919.1324936589223
 30
0.0
 11
-92.87462125312229
 21
-810.8887680858724
 31
0.0
  0
LINE
  5
2EC
330
1F
100
AcDbEntity
  8
0-0
  6
JWW_DASHED1
 62
   120
370
     5
100
AcDbLine
 10
-194.0472790128902
 20
-919.1324936589264
 30
0.0
 11
-92.87462125311887
 21
-817.9598358991548
 31
0.0
  0
LINE
  5
2ED
330
1F
100
AcDbEntity
  8
0-0
  6
JWW_DASHED1
 62
   120
370
     5
100
AcDbLine
 10
-186.976211199609
 20
-919.1324936589299
 30
0.0
 11
-92.87462125311461
 21
-825.030903712436
 31
0.0
  0
LINE
  5
2EE
330
1F
100
AcDbEntity
  8
0-0
  6
JWW_DASHED1
 62
   120
370
     5
100
AcDbLine
 10
-179.9051433863107
 20
-919.1324936589178
 30
0.0
 11
-92.8746212531257
 21
-832.1019715257326
 31
0.0
  0
LINE
  5
2EF
330
1F
100
AcDbEntity
  8
0-0
  6
JWW_DASHED1
 62
   120
370
     5
100
AcDbLine
 10
-172.8340755730832
 20
-919.1324936589208
 30
0.0
 11
-92.87462125311802
 21
-839.1730393389552
 31
0.0
  0
LINE
  5
2F0
330
1F
100
AcDbEntity
  8
0-0
  6
JWW_DASHED1
 62
   120
370
     5
100
AcDbLine
 10
-165.763007759802
 20
-919.1324936589249
 30
0.0
 11
-92.87462125311376
 21
-846.2441071522367
 31
0.0
  0
LINE
  5
2F1
330
1F
100
AcDbEntity
  8
0-0
  6
JWW_DASHED1
 62
   120
370
     5
100
AcDbLine
 10
-158.6919399465088
 20
-919.1324936589176
 30
0.0
 11
-92.8746212531257
 21
-853.315174965534
 31
0.0
  0
LINE
  5
2F2
330
1F
100
AcDbEntity
  8
0-0
  6
JWW_DASHED1
 62
   120
370
     5
100
AcDbLine
 10
-151.6208721332268
 20
-919.1324936589212
 30
0.0
 11
-92.87462125312143
 21
-860.3862427788159
 31
0.0
  0
LINE
  5
2F3
330
1F
100
AcDbEntity
  8
0-0
  6
JWW_DASHED1
 62
   120
370
     5
100
AcDbLine
 10
-144.5498043199455
 20
-919.1324936589249
 30
0.0
 11
-92.87462125311802
 21
-867.4573105920973
 31
0.0
  0
LINE
  5
2F4
330
1F
100
AcDbEntity
  8
0-0
  6
JWW_DASHED1
 62
   120
370
     5
100
AcDbLine
 10
-137.4787365066481
 20
-919.132493658913
 30
0.0
 11
-92.8746212531291
 21
-874.5283784053943
 31
0.0
  0
LINE
  5
2F5
330
1F
100
AcDbEntity
  8
0-0
  6
JWW_DASHED1
 62
   120
370
     5
100
AcDbLine
 10
-130.4076686933669
 20
-919.1324936589169
 30
0.0
 11
-92.87462125312484
 21
-881.5994462186756
 31
0.0
  0
LINE
  5
2F6
330
1F
100
AcDbEntity
  8
0-0
  6
JWW_DASHED1
 62
   120
370
     5
100
AcDbLine
 10
-123.3366008800831
 20
-919.1324936589186
 30
0.0
 11
-92.87462125312143
 21
-888.6705140319572
 31
0.0
  0
LINE
  5
2F7
330
1F
100
AcDbEntity
  8
0-0
  6
JWW_DASHED1
 62
   120
370
     5
100
AcDbLine
 10
-116.2655330668011
 20
-919.132493658923
 30
0.0
 11
-92.87462125311717
 21
-895.7415818452384
 31
0.0
  0
LINE
  5
2F8
330
1F
100
AcDbEntity
  8
0-0
  6
JWW_DASHED1
 62
   120
370
     5
100
AcDbLine
 10
-109.1944652535207
 20
-919.1324936589272
 30
0.0
 11
-92.8746212531129
 21
-902.8126496585201
 31
0.0
  0
LINE
  5
2F9
330
1F
100
AcDbEntity
  8
0-0
  6
JWW_DASHED1
 62
   120
370
     5
100
AcDbLine
 10
-102.123397440283
 20
-919.1324936589203
 30
0.0
 11
-92.87462125312058
 21
-909.8837174717582
 31
0.0
  0
LINE
  5
2FA
330
1F
100
AcDbEntity
  8
0-0
  6
JWW_DASHED1
 62
   120
370
     5
100
AcDbLine
 10
-95.05232962700089
 20
-919.1324936589242
 30
0.0
 11
-92.87462125311632
 21
-916.9547852850399
 31
0.0
  0
LINE
  5
2FB
330
1F
100
AcDbEntity
  8
0-0
  6
JWW_DASHED1
 62
   120
370
     5
100
AcDbLine
 10
127.125378746895
 20
974.9900171760471
 30
0.0
 11
131.0028679119094
 21
978.8675063410615
 31
0.0
  0
LINE
  5
2FC
330
1F
100
AcDbEntity
  8
0-0
  6
JWW_DASHED1
 62
   120
370
     5
100
AcDbLine
 10
127.1253787468831
 20
967.9189493627497
 30
0.0
 11
138.0739357252068
 21
978.8675063410739
 31
0.0
  0
LINE
  5
2FD
330
1F
100
AcDbEntity
  8
0-0
  6
JWW_DASHED1
 62
   120
370
     5
100
AcDbLine
 10
127.1253787468916
 20
960.8478815495273
 30
0.0
 11
145.1450035384301
 21
978.8675063410658
 31
0.0
  0
LINE
  5
2FE
330
1F
100
AcDbEntity
  8
0-0
  6
JWW_DASHED1
 62
   120
370
     5
100
AcDbLine
 10
127.1253787468959
 20
953.7768137362461
 30
0.0
 11
152.2160713517113
 21
978.8675063410619
 31
0.0
  0
LINE
  5
2FF
330
1F
100
AcDbEntity
  8
0-0
  6
JWW_DASHED1
 62
   120
370
     5
100
AcDbLine
 10
127.125378746884
 20
946.7057459229487
 30
0.0
 11
159.287139165007
 21
978.8675063410717
 31
0.0
  0
LINE
  5
300
330
1F
100
AcDbEntity
  8
0-0
  6
JWW_DASHED1
 62
   120
370
     5
100
AcDbLine
 10
127.1253787468874
 20
939.634678109667
 30
0.0
 11
166.3582069782882
 21
978.8675063410675
 31
0.0
  0
LINE
  5
301
330
1F
100
AcDbEntity
  8
0-0
  6
JWW_DASHED1
 62
   120
370
     5
100
AcDbLine
 10
127.1253787468916
 20
932.5636102963858
 30
0.0
 11
173.4292747915694
 21
978.8675063410636
 31
0.0
  0
LINE
  5
302
330
1F
100
AcDbEntity
  8
0-0
  6
JWW_DASHED1
 62
   120
370
     5
100
AcDbLine
 10
127.1253787468959
 20
925.4925424831042
 30
0.0
 11
180.5003426048549
 21
978.8675063410628
 31
0.0
  0
LINE
  5
303
330
1F
100
AcDbEntity
  8
0-0
  6
JWW_DASHED1
 62
   120
370
     5
100
AcDbLine
 10
127.1253787468848
 20
918.4214746698076
 30
0.0
 11
187.5714104181523
 21
978.8675063410747
 31
0.0
  0
LINE
  5
304
330
1F
100
AcDbEntity
  8
0-0
  6
JWW_DASHED1
 62
   120
370
     5
100
AcDbLine
 10
127.1253787468882
 20
911.350406856526
 30
0.0
 11
194.6424782314336
 21
978.8675063410709
 31
0.0
  0
LINE
  5
305
330
1F
100
AcDbEntity
  8
0-0
  6
JWW_DASHED1
 62
   120
370
     5
100
AcDbLine
 10
127.1253787468916
 20
904.2793390432439
 30
0.0
 11
201.7135460447148
 21
978.867506341067
 31
0.0
  0
LINE
  5
306
330
1F
100
AcDbEntity
  8
0-0
  6
JWW_DASHED1
 62
   120
370
     5
100
AcDbLine
 10
127.1253787468984
 20
897.2082712299921
 30
0.0
 11
208.7846138579679
 21
978.8675063410615
 31
0.0
  0
LINE
  5
307
330
1F
100
AcDbEntity
  8
0-0
  6
JWW_DASHED1
 62
   120
370
     5
100
AcDbLine
 10
127.1253787468882
 20
890.1372034167241
 30
0.0
 11
215.8556816712303
 21
978.8675063410658
 31
0.0
  0
LINE
  5
308
330
1F
100
AcDbEntity
  8
0-0
  6
JWW_DASHED1
 62
   120
370
     5
100
AcDbLine
 10
127.1253787468925
 20
883.066135603443
 30
0.0
 11
222.9267494845115
 21
978.8675063410615
 31
0.0
  0
LINE
  5
309
330
1F
100
AcDbEntity
  8
0-0
  6
JWW_DASHED1
 62
   120
370
     5
100
AcDbLine
 10
127.1253787468814
 20
875.9950677901463
 30
0.0
 11
229.9978172978149
 21
978.8675063410794
 31
0.0
  0
LINE
  5
30A
330
1F
100
AcDbEntity
  8
0-0
  6
JWW_DASHED1
 62
   120
370
     5
100
AcDbLine
 10
127.1253787468857
 20
868.9239999768652
 30
0.0
 11
237.068885111097
 21
978.867506341076
 31
0.0
  0
LINE
  5
30B
330
1F
100
AcDbEntity
  8
0-0
  6
JWW_DASHED1
 62
   120
370
     5
100
AcDbLine
 10
127.1253787468891
 20
861.8529321635826
 30
0.0
 11
244.1399529243782
 21
978.8675063410722
 31
0.0
  0
LINE
  5
30C
330
1F
100
AcDbEntity
  8
0-0
  6
JWW_DASHED1
 62
   120
370
     5
100
AcDbLine
 10
127.1253787468925
 20
854.781864350301
 30
0.0
 11
251.2110207376603
 21
978.8675063410683
 31
0.0
  0
LINE
  5
30D
330
1F
100
AcDbEntity
  8
0-0
  6
JWW_DASHED1
 62
   120
370
     5
100
AcDbLine
 10
127.1253787468967
 20
847.7107965370197
 30
0.0
 11
258.2820885509423
 21
978.8675063410644
 31
0.0
  0
LINE
  5
30E
330
1F
100
AcDbEntity
  8
0-0
  6
JWW_DASHED1
 62
   120
370
     5
100
AcDbLine
 10
127.1253787468848
 20
840.6397287237223
 30
0.0
 11
265.3531563642312
 21
978.8675063410678
 31
0.0
  0
LINE
  5
30F
330
1F
100
AcDbEntity
  8
0-0
  6
JWW_DASHED1
 62
   120
370
     5
100
AcDbLine
 10
127.1253787468916
 20
833.56866091047
 30
0.0
 11
272.4242241774826
 21
978.8675063410615
 31
0.0
  0
LINE
  5
310
330
1F
100
AcDbEntity
  8
0-0
  6
JWW_DASHED1
 62
   120
370
     5
100
AcDbLine
 10
127.1253787468831
 20
826.4975930972038
 30
0.0
 11
279.4952919907595
 21
978.8675063410807
 31
0.0
  0
LINE
  5
311
330
1F
100
AcDbEntity
  8
0-0
  6
JWW_DASHED1
 62
   120
370
     5
100
AcDbLine
 10
127.1253787468874
 20
819.4265252839226
 30
0.0
 11
286.5663598040416
 21
978.8675063410768
 31
0.0
  0
LINE
  5
312
330
1F
100
AcDbEntity
  8
0-0
  6
JWW_DASHED1
 62
   120
370
     5
100
AcDbLine
 10
127.1253787468899
 20
812.3554574706396
 30
0.0
 11
293.6374276173237
 21
978.8675063410731
 31
0.0
  0
LINE
  5
313
330
1F
100
AcDbEntity
  8
0-0
  6
JWW_DASHED1
 62
   120
370
     5
100
AcDbLine
 10
127.1253787468933
 20
805.284389657358
 30
0.0
 11
300.7084954306049
 21
978.8675063410692
 31
0.0
  0
LINE
  5
314
330
1F
100
AcDbEntity
  8
0-0
  6
JWW_DASHED1
 62
   120
370
     5
100
AcDbLine
 10
127.1253787468976
 20
798.2133218440764
 30
0.0
 11
307.779563243887
 21
978.8675063410658
 31
0.0
  0
LINE
  5
315
330
1F
100
AcDbEntity
  8
0-0
  6
JWW_DASHED1
 62
   120
370
     5
100
AcDbLine
 10
127.1253787468865
 20
791.1422540307794
 30
0.0
 11
314.8506310571724
 21
978.8675063410658
 31
0.0
  0
LINE
  5
316
330
1F
100
AcDbEntity
  8
0-0
  6
JWW_DASHED1
 62
   120
370
     5
100
AcDbLine
 10
127.1253787468899
 20
784.0711862174977
 30
0.0
 11
321.9216988704537
 21
978.8675063410615
 31
0.0
  0
LINE
  5
317
330
1F
100
AcDbEntity
  8
0-0
  6
JWW_DASHED1
 62
   120
370
     5
100
AcDbLine
 10
127.1253787468942
 20
777.0001184042166
 30
0.0
 11
328.9927666837477
 21
978.86750634107
 31
0.0
  0
LINE
  5
318
330
1F
100
AcDbEntity
  8
0-0
  6
JWW_DASHED1
 62
   120
370
     5
100
AcDbLine
 10
127.1253787468857
 20
769.9290505909503
 30
0.0
 11
336.0638344970161
 21
978.8675063410802
 31
0.0
  0
LINE
  5
319
330
1F
100
AcDbEntity
  8
0-0
  6
JWW_DASHED1
 62
   120
370
     5
100
AcDbLine
 10
127.1253787468908
 20
762.8579827776967
 30
0.0
 11
343.1349023102683
 21
978.8675063410743
 31
0.0
  0
LINE
  5
31A
330
1F
100
AcDbEntity
  8
0-0
  6
JWW_DASHED1
 62
   120
370
     5
100
AcDbLine
 10
127.1253787468942
 20
755.786914964415
 30
0.0
 11
350.2059701235495
 21
978.8675063410705
 31
0.0
  0
LINE
  5
31B
330
1F
100
AcDbEntity
  8
0-0
  6
JWW_DASHED1
 62
   120
370
     5
100
AcDbLine
 10
127.1253787468831
 20
748.715847151118
 30
0.0
 11
357.2770379368333
 21
978.8675063410678
 31
0.0
  0
LINE
  5
31C
330
1F
100
AcDbEntity
  8
0-0
  6
JWW_DASHED1
 62
   120
370
     5
100
AcDbLine
 10
127.1253787468865
 20
741.6447793378364
 30
0.0
 11
364.3481057501137
 21
978.8675063410636
 31
0.0
  0
LINE
  5
31D
330
1F
100
AcDbEntity
  8
0-0
  6
JWW_DASHED1
 62
   120
370
     5
100
AcDbLine
 10
127.1253787468908
 20
734.5737115245548
 30
0.0
 11
371.4191735633958
 21
978.8675063410594
 31
0.0
  0
LINE
  5
31E
330
1F
100
AcDbEntity
  8
0-0
  6
JWW_DASHED1
 62
   120
370
     5
100
AcDbLine
 10
127.125378746895
 20
727.5026437112735
 30
0.0
 11
377.1253787468859
 21
977.5026437112649
 31
0.0
  0
LINE
  5
31F
330
1F
100
AcDbEntity
  8
0-0
  6
JWW_DASHED1
 62
   120
370
     5
100
AcDbLine
 10
127.1253787468857
 20
720.4315758979787
 30
0.0
 11
377.1253787468748
 21
970.431575897968
 31
0.0
  0
LINE
  5
320
330
1F
100
AcDbEntity
  8
0-0
  6
JWW_DASHED1
 62
   120
370
     5
100
AcDbLine
 10
127.1253787468891
 20
713.3605080846967
 30
0.0
 11
377.1253787468791
 21
963.3605080846867
 31
0.0
  0
LINE
  5
321
330
1F
100
AcDbEntity
  8
0-0
  6
JWW_DASHED1
 62
   120
370
     5
100
AcDbLine
 10
127.1253787468933
 20
706.2894402714427
 30
0.0
 11
377.1253787468851
 21
956.2894402714345
 31
0.0
  0
LINE
  5
322
330
1F
100
AcDbEntity
  8
0-0
  6
JWW_DASHED1
 62
   120
370
     5
100
AcDbLine
 10
127.125378746884
 20
699.2183724581752
 30
0.0
 11
377.125378746891
 21
949.2183724581822
 31
0.0
  0
LINE
  5
323
330
1F
100
AcDbEntity
  8
0-0
  6
JWW_DASHED1
 62
   120
370
     5
100
AcDbLine
 10
127.1253787468882
 20
692.1473046448934
 30
0.0
 11
377.1253787468953
 21
942.147304644901
 31
0.0
  0
LINE
  5
324
330
1F
100
AcDbEntity
  8
0-0
  6
JWW_DASHED1
 62
   120
370
     5
100
AcDbLine
 10
127.1253787468916
 20
685.0762368316118
 30
0.0
 11
377.1253787468996
 21
935.0762368316193
 31
0.0
  0
LINE
  5
325
330
1F
100
AcDbEntity
  8
0-0
  6
JWW_DASHED1
 62
   120
370
     5
100
AcDbLine
 10
127.1253787468822
 20
678.0051690183175
 30
0.0
 11
377.1253787468723
 21
928.0051690183066
 31
0.0
  0
LINE
  5
326
330
1F
100
AcDbEntity
  8
0-0
  6
JWW_DASHED1
 62
   120
370
     5
100
AcDbLine
 10
127.1253787468865
 20
670.9341012050357
 30
0.0
 11
377.1253787468757
 21
920.9341012050254
 31
0.0
  0
LINE
  5
327
330
1F
100
AcDbEntity
  8
0-0
  6
JWW_DASHED1
 62
   120
370
     5
100
AcDbLine
 10
127.1253787468874
 20
663.8630333917515
 30
0.0
 11
377.1253787468791
 21
913.8630333917433
 31
0.0
  0
LINE
  5
328
330
1F
100
AcDbEntity
  8
0-0
  6
JWW_DASHED1
 62
   120
370
     5
100
AcDbLine
 10
127.1253787468916
 20
656.7919655784704
 30
0.0
 11
377.1253787468834
 21
906.7919655784617
 31
0.0
  0
LINE
  5
329
330
1F
100
AcDbEntity
  8
0-0
  6
JWW_DASHED1
 62
   120
370
     5
100
AcDbLine
 10
127.1253787468959
 20
649.7208977651887
 30
0.0
 11
377.1253787468876
 21
899.7208977651804
 31
0.0
  0
LINE
  5
32A
330
1F
100
AcDbEntity
  8
0-0
  6
JWW_DASHED1
 62
   120
370
     5
100
AcDbLine
 10
127.125378746884
 20
642.6498299518917
 30
0.0
 11
377.125378746891
 21
892.6498299518988
 31
0.0
  0
LINE
  5
32B
330
1F
100
AcDbEntity
  8
0-0
  6
JWW_DASHED1
 62
   120
370
     5
100
AcDbLine
 10
467.1253787468919
 20
975.5787621386684
 30
0.0
 11
470.4141229492902
 21
978.8675063410662
 31
0.0
  0
LINE
  5
32C
330
1F
100
AcDbEntity
  8
0-0
  6
JWW_DASHED1
 62
   120
370
     5
100
AcDbLine
 10
127.1253787468925
 20
635.5787621386689
 30
0.0
 11
377.1253787468996
 21
885.5787621386764
 31
0.0
  0
LINE
  5
32D
330
1F
100
AcDbEntity
  8
0-0
  6
JWW_DASHED1
 62
   120
370
     5
100
AcDbLine
 10
467.12537874688
 20
968.507694325371
 30
0.0
 11
477.4851907625876
 21
978.8675063410781
 31
0.0
  0
LINE
  5
32E
330
1F
100
AcDbEntity
  8
0-0
  6
JWW_DASHED1
 62
   120
370
     5
100
AcDbLine
 10
127.1253787468831
 20
628.5076943253745
 30
0.0
 11
377.1253787468731
 21
878.5076943253641
 31
0.0
  0
LINE
  5
32F
330
1F
100
AcDbEntity
  8
0-0
  6
JWW_DASHED1
 62
   120
370
     5
100
AcDbLine
 10
467.1253787468842
 20
961.4366265120897
 30
0.0
 11
484.5562585758689
 21
978.8675063410743
 31
0.0
  0
LINE
  5
330
330
1F
100
AcDbEntity
  8
0-0
  6
JWW_DASHED1
 62
   120
370
     5
100
AcDbLine
 10
127.1253787468882
 20
621.4366265120932
 30
0.0
 11
377.1253787468774
 21
871.4366265120829
 31
0.0
  0
LINE
  5
331
330
1F
100
AcDbEntity
  8
0-0
  6
JWW_DASHED1
 62
   120
370
     5
100
AcDbLine
 10
467.1253787468876
 20
954.3655586988081
 30
0.0
 11
491.6273263891509
 21
978.8675063410709
 31
0.0
  0
LINE
  5
332
330
1F
100
AcDbEntity
  8
0-0
  6
JWW_DASHED1
 62
   120
370
     5
100
AcDbLine
 10
127.1253787468882
 20
614.3655586988086
 30
0.0
 11
377.1253787468808
 21
864.3655586988004
 31
0.0
  0
LINE
  5
333
330
1F
100
AcDbEntity
  8
0-0
  6
JWW_DASHED1
 62
   120
370
     5
100
AcDbLine
 10
467.1253787468919
 20
947.2944908855264
 30
0.0
 11
498.6983942024322
 21
978.867506341067
 31
0.0
  0
LINE
  5
334
330
1F
100
AcDbEntity
  8
0-0
  6
JWW_DASHED1
 62
   120
370
     5
100
AcDbLine
 10
127.1253787468933
 20
607.2944908855278
 30
0.0
 11
377.1253787468842
 21
857.2944908855187
 31
0.0
  0
LINE
  5
335
330
1F
100
AcDbEntity
  8
0-0
  6
JWW_DASHED1
 62
   120
370
     5
100
AcDbLine
 10
467.12537874688
 20
940.223423072229
 30
0.0
 11
505.7694620157279
 21
978.8675063410765
 31
0.0
  0
LINE
  5
336
330
1F
100
AcDbEntity
  8
0-0
  6
JWW_DASHED1
 62
   120
370
     5
100
AcDbLine
 10
127.1253787468967
 20
600.2234230722457
 30
0.0
 11
377.1253787468885
 21
850.2234230722376
 31
0.0
  0
LINE
  5
337
330
1F
100
AcDbEntity
  8
0-0
  6
JWW_DASHED1
 62
   120
370
     5
100
AcDbLine
 10
467.1253787468842
 20
933.1523552589478
 30
0.0
 11
512.8405298290091
 21
978.8675063410726
 31
0.0
  0
LINE
  5
338
330
1F
100
AcDbEntity
  8
0-0
  6
JWW_DASHED1
 62
   120
370
     5
100
AcDbLine
 10
127.1253787468848
 20
593.1523552589488
 30
0.0
 11
377.1253787468927
 21
843.1523552589558
 31
0.0
  0
LINE
  5
339
330
1F
100
AcDbEntity
  8
0-0
  6
JWW_DASHED1
 62
   120
370
     5
100
AcDbLine
 10
467.1253787468876
 20
926.0812874456661
 30
0.0
 11
519.9115976422937
 21
978.8675063410717
 31
0.0
  0
LINE
  5
33A
330
1F
100
AcDbEntity
  8
0-0
  6
JWW_DASHED1
 62
   120
370
     5
100
AcDbLine
 10
127.1253787468891
 20
586.0812874456672
 30
0.0
 11
377.1253787468962
 21
836.0812874456747
 31
0.0
  0
LINE
  5
33B
330
1F
100
AcDbEntity
  8
0-0
  6
JWW_DASHED1
 62
   120
370
     5
100
AcDbLine
 10
467.1253787468919
 20
919.0102196323845
 30
0.0
 11
526.9826654555758
 21
978.8675063410678
 31
0.0
  0
LINE
  5
33C
330
1F
100
AcDbEntity
  8
0-0
  6
JWW_DASHED1
 62
   120
370
     5
100
AcDbLine
 10
127.1253787468925
 20
579.0102196323855
 30
0.0
 11
377.1253787468842
 21
829.0102196323772
 31
0.0
  0
LINE
  5
33D
330
1F
100
AcDbEntity
  8
0-0
  6
JWW_DASHED1
 62
   120
370
     5
100
AcDbLine
 10
467.1253787468851
 20
911.9391518191468
 30
0.0
 11
534.0537332688135
 21
978.8675063410756
 31
0.0
  0
LINE
  5
33E
330
1F
100
AcDbEntity
  8
0-0
  6
JWW_DASHED1
 62
   120
370
     5
100
AcDbLine
 10
127.1253787468891
 20
571.9391518191508
 30
0.0
 11
377.1253787468783
 21
821.9391518191403
 31
0.0
  0
LINE
  5
33F
330
1F
100
AcDbEntity
  8
0-0
  6
JWW_DASHED1
 62
   120
370
     5
100
AcDbLine
 10
467.1253787468885
 20
904.8680840058651
 30
0.0
 11
541.1248010820956
 21
978.8675063410717
 31
0.0
  0
LINE
  5
340
330
1F
100
AcDbEntity
  8
0-0
  6
JWW_DASHED1
 62
   120
370
     5
100
AcDbLine
 10
127.1253787468899
 20
564.8680840058657
 30
0.0
 11
377.1253787468808
 21
814.8680840058574
 31
0.0
  0
LINE
  5
341
330
1F
100
AcDbEntity
  8
0-0
  6
JWW_DASHED1
 62
   120
370
     5
100
AcDbLine
 10
467.1253787468927
 20
897.7970161925834
 30
0.0
 11
548.1958688953769
 21
978.8675063410678
 31
0.0
  0
LINE
  5
342
330
1F
100
AcDbEntity
  8
0-0
  6
JWW_DASHED1
 62
   120
370
     5
100
AcDbLine
 10
127.1253787468933
 20
557.7970161925849
 30
0.0
 11
377.1253787468851
 21
807.7970161925758
 31
0.0
  0
LINE
  5
343
330
1F
100
AcDbEntity
  8
0-0
  6
JWW_DASHED1
 62
   120
370
     5
100
AcDbLine
 10
467.1253787468808
 20
890.725948379286
 30
0.0
 11
555.2669367086692
 21
978.8675063410747
 31
0.0
  0
LINE
  5
344
330
1F
100
AcDbEntity
  8
0-0
  6
JWW_DASHED1
 62
   120
370
     5
100
AcDbLine
 10
127.1253787468814
 20
550.725948379287
 30
0.0
 11
377.1253787468893
 21
800.7259483792946
 31
0.0
  0
LINE
  5
345
330
1F
100
AcDbEntity
  8
0-0
  6
JWW_DASHED1
 62
   120
370
     5
100
AcDbLine
 10
467.1253787468851
 20
883.6548805660049
 30
0.0
 11
562.3380045219503
 21
978.8675063410705
 31
0.0
  0
LINE
  5
346
330
1F
100
AcDbEntity
  8
0-0
  6
JWW_DASHED1
 62
   120
370
     5
100
AcDbLine
 10
127.1253787468857
 20
543.6548805660059
 30
0.0
 11
377.1253787468927
 21
793.6548805660129
 31
0.0
  0
LINE
  5
347
330
1F
100
AcDbEntity
  8
0-0
  6
JWW_DASHED1
 62
   120
370
     5
100
AcDbLine
 10
467.1253787468893
 20
876.5838127527231
 30
0.0
 11
569.4090723352384
 21
978.8675063410726
 31
0.0
  0
LINE
  5
348
330
1F
100
AcDbEntity
  8
0-0
  6
JWW_DASHED1
 62
   120
370
     5
100
AcDbLine
 10
127.1253787468899
 20
536.5838127527242
 30
0.0
 11
377.125378746897
 21
786.5838127527318
 31
0.0
  0
LINE
  5
349
330
1F
100
AcDbEntity
  8
0-0
  6
JWW_DASHED1
 62
   120
370
     5
100
AcDbLine
 10
467.1253787468927
 20
869.5127449394415
 30
0.0
 11
576.4801401485196
 21
978.8675063410687
 31
0.0
  0
LINE
  5
34A
330
1F
100
AcDbEntity
  8
0-0
  6
JWW_DASHED1
 62
   120
370
     5
100
AcDbLine
 10
127.1253787468933
 20
529.5127449394425
 30
0.0
 11
377.1253787468859
 21
779.5127449394342
 31
0.0
  0
LINE
  5
34B
330
1F
100
AcDbEntity
  8
0-0
  6
JWW_DASHED1
 62
   120
370
     5
100
AcDbLine
 10
467.1253787468817
 20
862.4416771261454
 30
0.0
 11
583.5512079618179
 21
978.8675063410811
 31
0.0
  0
LINE
  5
34C
330
1F
100
AcDbEntity
  8
0-0
  6
JWW_DASHED1
 62
   120
370
     5
100
AcDbLine
 10
127.1253787468857
 20
522.4416771261494
 30
0.0
 11
377.1253787468757
 21
772.4416771261385
 31
0.0
  0
LINE
  5
34D
330
1F
100
AcDbEntity
  8
0-0
  6
JWW_DASHED1
 62
   120
370
     5
100
AcDbLine
 10
467.1253787468859
 20
855.3706093128642
 30
0.0
 11
590.6222757750991
 21
978.8675063410773
 31
0.0
  0
LINE
  5
34E
330
1F
100
AcDbEntity
  8
0-0
  6
JWW_DASHED1
 62
   120
370
     5
100
AcDbLine
 10
127.1253787468899
 20
515.3706093128677
 30
0.0
 11
377.1253787468791
 21
765.3706093128574
 31
0.0
  0
LINE
  5
34F
330
1F
100
AcDbEntity
  8
0-0
  6
JWW_DASHED1
 62
   120
370
     5
100
AcDbLine
 10
467.1253787468774
 20
848.2995414996248
 30
0.0
 11
597.69334358833
 21
978.8675063410768
 31
0.0
  0
LINE
  5
350
330
1F
100
AcDbEntity
  8
0-0
  6
JWW_DASHED1
 62
   120
370
     5
100
AcDbLine
 10
127.1253787468942
 20
508.2995414996415
 30
0.0
 11
377.1253787468859
 21
758.2995414996328
 31
0.0
  0
LINE
  5
351
330
1F
100
AcDbEntity
  8
0-0
  6
JWW_DASHED1
 62
   120
370
     5
100
AcDbLine
 10
467.1253787468817
 20
841.2284736863431
 30
0.0
 11
604.7644114016113
 21
978.8675063410726
 31
0.0
  0
LINE
  5
352
330
1F
100
AcDbEntity
  8
0-0
  6
JWW_DASHED1
 62
   120
370
     5
100
AcDbLine
 10
127.1253787468822
 20
501.2284736863441
 30
0.0
 11
377.1253787468902
 21
751.2284736863517
 31
0.0
  0
LINE
  5
353
330
1F
100
AcDbEntity
  8
0-0
  6
JWW_DASHED1
 62
   120
370
     5
100
AcDbLine
 10
467.1253787468859
 20
834.1574058730619
 30
0.0
 11
611.8354792148924
 21
978.8675063410683
 31
0.0
  0
LINE
  5
354
330
1F
100
AcDbEntity
  8
0-0
  6
JWW_DASHED1
 62
   120
370
     5
100
AcDbLine
 10
127.1253787468865
 20
494.1574058730629
 30
0.0
 11
377.1253787468936
 21
744.15740587307
 31
0.0
  0
LINE
  5
355
330
1F
100
AcDbEntity
  8
0-0
  6
JWW_DASHED1
 62
   120
370
     5
100
AcDbLine
 10
467.1253787468893
 20
827.0863380597802
 30
0.0
 11
618.906547028183
 21
978.8675063410739
 31
0.0
  0
LINE
  5
356
330
1F
100
AcDbEntity
  8
0-0
  6
JWW_DASHED1
 62
   120
370
     5
100
AcDbLine
 10
127.1253787468908
 20
487.0863380597813
 30
0.0
 11
377.1253787468979
 21
737.0863380597883
 31
0.0
  0
LINE
  5
357
330
1F
100
AcDbEntity
  8
0-0
  6
JWW_DASHED1
 62
   120
370
     5
100
AcDbLine
 10
467.1253787468936
 20
820.0152702464986
 30
0.0
 11
625.9776148414651
 21
978.86750634107
 31
0.0
  0
LINE
  5
358
330
1F
100
AcDbEntity
  8
0-0
  6
JWW_DASHED1
 62
   120
370
     5
100
AcDbLine
 10
127.1253787468942
 20
480.0152702464996
 30
0.0
 11
377.1253787468859
 21
730.0152702464914
 31
0.0
  0
LINE
  5
359
330
1F
100
AcDbEntity
  8
0-0
  6
JWW_DASHED1
 62
   120
370
     5
100
AcDbLine
 10
467.1253787468834
 20
812.9442024332029
 30
0.0
 11
633.0486826547625
 21
978.8675063410819
 31
0.0
  0
LINE
  5
35A
330
1F
100
AcDbEntity
  8
0-0
  6
JWW_DASHED1
 62
   120
370
     5
100
AcDbLine
 10
127.1253787468874
 20
472.9442024332069
 30
0.0
 11
377.1253787468765
 21
722.9442024331961
 31
0.0
  0
LINE
  5
35B
330
1F
100
AcDbEntity
  8
0-0
  6
JWW_DASHED1
 62
   120
370
     5
100
AcDbLine
 10
467.1253787468876
 20
805.8731346199216
 30
0.0
 11
640.1197504680446
 21
978.8675063410781
 31
0.0
  0
LINE
  5
35C
330
1F
100
AcDbEntity
  8
0-0
  6
JWW_DASHED1
 62
   120
370
     5
100
AcDbLine
 10
127.1253787468908
 20
465.8731346199252
 30
0.0
 11
377.1253787468808
 21
715.8731346199148
 31
0.0
  0
LINE
  5
35D
330
1F
100
AcDbEntity
  8
0-0
  6
JWW_DASHED1
 62
   120
370
     5
100
AcDbLine
 10
467.1253787468902
 20
798.8020668066388
 30
0.0
 11
647.1908182813266
 21
978.8675063410747
 31
0.0
  0
LINE
  5
35E
330
1F
100
AcDbEntity
  8
0-0
  6
JWW_DASHED1
 62
   120
370
     5
100
AcDbLine
 10
127.1253787468908
 20
458.8020668066393
 30
0.0
 11
377.1253787468825
 21
708.802066806631
 31
0.0
  0
LINE
  5
35F
330
1F
100
AcDbEntity
  8
0-0
  6
JWW_DASHED1
 62
   120
370
     5
100
AcDbLine
 10
467.1253787468783
 20
791.7309989933414
 30
0.0
 11
654.2618860946113
 21
978.8675063410747
 31
0.0
  0
LINE
  5
360
330
1F
100
AcDbEntity
  8
0-0
  6
JWW_DASHED1
 62
   120
370
     5
100
AcDbLine
 10
127.125378746895
 20
451.7309989933581
 30
0.0
 11
377.1253787468868
 21
701.7309989933499
 31
0.0
  0
LINE
  5
361
330
1F
100
AcDbEntity
  8
0-0
  6
JWW_DASHED1
 62
   120
370
     5
100
AcDbLine
 10
467.1253787468868
 20
784.659931180119
 30
0.0
 11
661.3329539078345
 21
978.8675063410662
 31
0.0
  0
LINE
  5
362
330
1F
100
AcDbEntity
  8
0-0
  6
JWW_DASHED1
 62
   120
370
     5
100
AcDbLine
 10
127.1253787468874
 20
444.6599311801199
 30
0.0
 11
377.1253787468945
 21
694.659931180127
 31
0.0
  0
LINE
  5
363
330
1F
100
AcDbEntity
  8
0-0
  6
JWW_DASHED1
 62
   120
370
     5
100
AcDbLine
 10
467.1253787468902
 20
777.5888633668374
 30
0.0
 11
668.4040217211285
 21
978.8675063410747
 31
0.0
  0
LINE
  5
364
330
1F
100
AcDbEntity
  8
0-0
  6
JWW_DASHED1
 62
   120
370
     5
100
AcDbLine
 10
127.1253787468916
 20
437.5888633668383
 30
0.0
 11
377.1253787468987
 21
687.5888633668454
 31
0.0
  0
LINE
  5
365
330
1F
100
AcDbEntity
  8
0-0
  6
JWW_DASHED1
 62
   120
370
     5
100
AcDbLine
 10
467.1253787468808
 20
770.517795553542
 30
0.0
 11
675.4750895344259
 21
978.8675063410867
 31
0.0
  0
LINE
  5
366
330
1F
100
AcDbEntity
  8
0-0
  6
JWW_DASHED1
 62
   120
370
     5
100
AcDbLine
 10
127.1253787468848
 20
430.517795553546
 30
0.0
 11
377.125378746874
 21
680.5177955535352
 31
0.0
  0
LINE
  5
367
330
1F
100
AcDbEntity
  8
0-0
  6
JWW_DASHED1
 62
   120
370
     5
100
AcDbLine
 10
467.1253787468842
 20
763.4467277402604
 30
0.0
 11
682.5461573477072
 21
978.8675063410833
 31
0.0
  0
LINE
  5
368
330
1F
100
AcDbEntity
  8
0-0
  6
JWW_DASHED1
 62
   120
370
     5
100
AcDbLine
 10
127.1253787468882
 20
423.4467277402639
 30
0.0
 11
377.1253787468774
 21
673.4467277402536
 31
0.0
  0
LINE
  5
369
330
1F
100
AcDbEntity
  8
0-0
  6
JWW_DASHED1
 62
   120
370
     5
100
AcDbLine
 10
467.1253787468868
 20
756.375659926977
 30
0.0
 11
689.6172251609893
 21
978.8675063410794
 31
0.0
  0
LINE
  5
36A
330
1F
100
AcDbEntity
  8
0-0
  6
JWW_DASHED1
 62
   120
370
     5
100
AcDbLine
 10
127.1253787468882
 20
416.375659926978
 30
0.0
 11
377.1253787468791
 21
666.3756599269698
 31
0.0
  0
LINE
  5
36B
330
1F
100
AcDbEntity
  8
0-0
  6
JWW_DASHED1
 62
   120
370
     5
100
AcDbLine
 10
467.125378746891
 20
749.3045921136958
 30
0.0
 11
696.6882929742704
 21
978.8675063410756
 31
0.0
  0
LINE
  5
36C
330
1F
100
AcDbEntity
  8
0-0
  6
JWW_DASHED1
 62
   120
370
     5
100
AcDbLine
 10
127.1253787468916
 20
409.3045921136963
 30
0.0
 11
377.1253787468834
 21
659.3045921136882
 31
0.0
  0
LINE
  5
36D
330
1F
100
AcDbEntity
  8
0-0
  6
JWW_DASHED1
 62
   120
370
     5
100
AcDbLine
 10
467.1253787468791
 20
742.2335243003984
 30
0.0
 11
703.7593607875534
 21
978.8675063410726
 31
0.0
  0
LINE
  5
36E
330
1F
100
AcDbEntity
  8
0-0
  6
JWW_DASHED1
 62
   120
370
     5
100
AcDbLine
 10
127.1253787468959
 20
402.2335243004152
 30
0.0
 11
377.1253787468876
 21
652.2335243004069
 31
0.0
  0
LINE
  5
36F
330
1F
100
AcDbEntity
  8
0-0
  6
JWW_DASHED1
 62
   120
370
     5
100
AcDbLine
 10
467.1253787468834
 20
735.1624564871172
 30
0.0
 11
710.8304286008346
 21
978.8675063410683
 31
0.0
  0
LINE
  5
370
330
1F
100
AcDbEntity
  8
0-0
  6
JWW_DASHED1
 62
   120
370
     5
100
AcDbLine
 10
127.125378746884
 20
395.1624564871178
 30
0.0
 11
377.125378746891
 21
645.1624564871253
 31
0.0
  0
LINE
  5
371
330
1F
100
AcDbEntity
  8
0-0
  6
JWW_DASHED1
 62
   120
370
     5
100
AcDbLine
 10
467.1253787468868
 20
728.0913886738356
 30
0.0
 11
717.1253787468949
 21
978.0913886738431
 31
0.0
  0
LINE
  5
372
330
1F
100
AcDbEntity
  8
0-0
  6
JWW_DASHED1
 62
   120
370
     5
100
AcDbLine
 10
127.1253787468882
 20
388.0913886738365
 30
0.0
 11
377.1253787468953
 21
638.0913886738437
 31
0.0
  0
LINE
  5
373
330
1F
100
AcDbEntity
  8
0-0
  6
JWW_DASHED1
 62
   120
370
     5
100
AcDbLine
 10
467.1253787468817
 20
721.0203208605991
 30
0.0
 11
717.1253787468718
 21
971.0203208605888
 31
0.0
  0
LINE
  5
374
330
1F
100
AcDbEntity
  8
0-0
  6
JWW_DASHED1
 62
   120
370
     5
100
AcDbLine
 10
127.1253787468857
 20
381.0203208606031
 30
0.0
 11
377.1253787468748
 21
631.0203208605926
 31
0.0
  0
LINE
  5
375
330
1F
100
AcDbEntity
  8
0-0
  6
JWW_DASHED1
 62
   120
370
     5
100
AcDbLine
 10
467.1253787468859
 20
713.9492530473178
 30
0.0
 11
717.1253787468752
 21
963.9492530473075
 31
0.0
  0
LINE
  5
376
330
1F
100
AcDbEntity
  8
0-0
  6
JWW_DASHED1
 62
   120
370
     5
100
AcDbLine
 10
127.1253787468899
 20
373.9492530473218
 30
0.0
 11
377.1253787468791
 21
623.949253047311
 31
0.0
  0
LINE
  5
377
330
1F
100
AcDbEntity
  8
0-0
  6
JWW_DASHED1
 62
   120
370
     5
100
AcDbLine
 10
467.1253787468876
 20
706.878185234034
 30
0.0
 11
717.1253787468795
 21
956.8781852340259
 31
0.0
  0
LINE
  5
378
330
1F
100
AcDbEntity
  8
0-0
  6
JWW_DASHED1
 62
   120
370
     5
100
AcDbLine
 10
127.1253787468882
 20
366.8781852340351
 30
0.0
 11
377.12537874688
 21
616.8781852340269
 31
0.0
  0
LINE
  5
379
330
1F
100
AcDbEntity
  8
0-0
  6
JWW_DASHED1
 62
   120
370
     5
100
AcDbLine
 10
467.1253787468919
 20
699.8071174207529
 30
0.0
 11
717.1253787468837
 21
949.8071174207441
 31
0.0
  0
LINE
  5
37A
330
1F
100
AcDbEntity
  8
0-0
  6
JWW_DASHED1
 62
   120
370
     5
100
AcDbLine
 10
127.1253787468925
 20
359.8071174207535
 30
0.0
 11
377.1253787468842
 21
609.8071174207452
 31
0.0
  0
LINE
  5
37B
330
1F
100
AcDbEntity
  8
0-0
  6
JWW_DASHED1
 62
   120
370
     5
100
AcDbLine
 10
467.12537874688
 20
692.7360496074555
 30
0.0
 11
717.1253787468871
 21
942.736049607463
 31
0.0
  0
LINE
  5
37C
330
1F
100
AcDbEntity
  8
0-0
  6
JWW_DASHED1
 62
   120
370
     5
100
AcDbLine
 10
127.1253787468814
 20
352.7360496074568
 30
0.0
 11
377.1253787468876
 21
602.7360496074635
 31
0.0
  0
LINE
  5
37D
330
1F
100
AcDbEntity
  8
0-0
  6
JWW_DASHED1
 62
   120
370
     5
100
AcDbLine
 10
467.1253787468842
 20
685.6649817941739
 30
0.0
 11
717.1253787468914
 21
935.6649817941814
 31
0.0
  0
LINE
  5
37E
330
1F
100
AcDbEntity
  8
0-0
  6
JWW_DASHED1
 62
   120
370
     5
100
AcDbLine
 10
127.1253787468848
 20
345.6649817941748
 30
0.0
 11
377.1253787468919
 21
595.6649817941823
 31
0.0
  0
LINE
  5
37F
330
1F
100
AcDbEntity
  8
0-0
  6
JWW_DASHED1
 62
   120
370
     5
100
AcDbLine
 10
467.1253787468876
 20
678.5939139808921
 30
0.0
 11
717.1253787468795
 21
928.5939139808839
 31
0.0
  0
LINE
  5
380
330
1F
100
AcDbEntity
  8
0-0
  6
JWW_DASHED1
 62
   120
370
     5
100
AcDbLine
 10
127.1253787468891
 20
338.5939139808936
 30
0.0
 11
377.1253787468962
 21
588.5939139809007
 31
0.0
  0
LINE
  5
381
330
1F
100
AcDbEntity
  8
0-0
  6
JWW_DASHED1
 62
   120
370
     5
100
AcDbLine
 10
467.1253787468919
 20
671.522846167611
 30
0.0
 11
717.1253787468837
 21
921.5228461676027
 31
0.0
  0
LINE
  5
382
330
1F
100
AcDbEntity
  8
0-0
  6
JWW_DASHED1
 62
   120
370
     5
100
AcDbLine
 10
127.1253787468933
 20
331.5228461676123
 30
0.0
 11
377.1253787468842
 21
581.5228461676032
 31
0.0
  0
LINE
  5
383
330
1F
100
AcDbEntity
  8
0-0
  6
JWW_DASHED1
 62
   120
370
     5
100
AcDbLine
 10
467.1253787468825
 20
664.4517783543165
 30
0.0
 11
717.1253787468718
 21
914.4517783543057
 31
0.0
  0
LINE
  5
384
330
1F
100
AcDbEntity
  8
0-0
  6
JWW_DASHED1
 62
   120
370
     5
100
AcDbLine
 10
127.1253787468865
 20
324.45177835432
 30
0.0
 11
377.1253787468757
 21
574.4517783543097
 31
0.0
  0
LINE
  5
385
330
1F
100
AcDbEntity
  8
0-0
  6
JWW_DASHED1
 62
   120
370
     5
100
AcDbLine
 10
467.1253787468868
 20
657.3807105410349
 30
0.0
 11
717.1253787468769
 21
907.3807105410244
 31
0.0
  0
LINE
  5
386
330
1F
100
AcDbEntity
  8
0-0
  6
JWW_DASHED1
 62
   120
370
     5
100
AcDbLine
 10
127.1253787468908
 20
317.3807105410389
 30
0.0
 11
377.12537874688
 21
567.3807105410281
 31
0.0
  0
LINE
  5
387
330
1F
100
AcDbEntity
  8
0-0
  6
JWW_DASHED1
 62
   120
370
     5
100
AcDbLine
 10
467.1253787468765
 20
650.3096427277942
 30
0.0
 11
717.1253787468846
 21
900.3096427278012
 31
0.0
  0
LINE
  5
388
330
1F
100
AcDbEntity
  8
0-0
  6
JWW_DASHED1
 62
   120
370
     5
100
AcDbLine
 10
127.1253787468933
 20
310.3096427278105
 30
0.0
 11
377.1253787468851
 21
560.3096427278023
 31
0.0
  0
LINE
  5
389
330
1F
100
AcDbEntity
  8
0-0
  6
JWW_DASHED1
 62
   120
370
     5
100
AcDbLine
 10
467.1253787468808
 20
643.2385749145125
 30
0.0
 11
717.125378746888
 21
893.2385749145196
 31
0.0
  0
LINE
  5
38A
330
1F
100
AcDbEntity
  8
0-0
  6
JWW_DASHED1
 62
   120
370
     5
100
AcDbLine
 10
127.1253787468814
 20
303.238574914513
 30
0.0
 11
377.1253787468885
 21
553.2385749145205
 31
0.0
  0
LINE
  5
38B
330
1F
100
AcDbEntity
  8
0-0
  6
JWW_DASHED1
 62
   120
370
     5
100
AcDbLine
 10
467.1253787468842
 20
636.1675071012309
 30
0.0
 11
717.1253787468922
 21
886.1675071012384
 31
0.0
  0
LINE
  5
38C
330
1F
100
AcDbEntity
  8
0-0
  6
JWW_DASHED1
 62
   120
370
     5
100
AcDbLine
 10
127.1253787468857
 20
296.1675071012319
 30
0.0
 11
377.1253787468927
 21
546.1675071012394
 31
0.0
  0
LINE
  5
38D
330
1F
100
AcDbEntity
  8
0-0
  6
JWW_DASHED1
 62
   120
370
     5
100
AcDbLine
 10
467.1253787468885
 20
629.0964392879496
 30
0.0
 11
717.1253787468803
 21
879.0964392879409
 31
0.0
  0
LINE
  5
38E
330
1F
100
AcDbEntity
  8
0-0
  6
JWW_DASHED1
 62
   120
370
     5
100
AcDbLine
 10
127.1253787468899
 20
289.0964392879506
 30
0.0
 11
377.125378746897
 21
539.0964392879578
 31
0.0
  0
LINE
  5
38F
330
1F
100
AcDbEntity
  8
0-0
  6
JWW_DASHED1
 62
   120
370
     5
100
AcDbLine
 10
467.1253787468927
 20
622.025371474668
 30
0.0
 11
717.1253787468846
 21
872.0253714746598
 31
0.0
  0
LINE
  5
390
330
1F
100
AcDbEntity
  8
0-0
  6
JWW_DASHED1
 62
   120
370
     5
100
AcDbLine
 10
127.1253787468933
 20
282.0253714746694
 30
0.0
 11
377.1253787468851
 21
532.0253714746607
 31
0.0
  0
LINE
  5
391
330
1F
100
AcDbEntity
  8
0-0
  6
JWW_DASHED1
 62
   120
370
     5
100
AcDbLine
 10
467.1253787468842
 20
614.954303661374
 30
0.0
 11
717.1253787468735
 21
864.9543036613632
 31
0.0
  0
LINE
  5
392
330
1F
100
AcDbEntity
  8
0-0
  6
JWW_DASHED1
 62
   120
370
     5
100
AcDbLine
 10
127.1253787468882
 20
274.9543036613775
 30
0.0
 11
377.1253787468774
 21
524.9543036613671
 31
0.0
  0
LINE
  5
393
330
1F
100
AcDbEntity
  8
0-0
  6
JWW_DASHED1
 62
   120
370
     5
100
AcDbLine
 10
467.1253787468876
 20
607.8832358480923
 30
0.0
 11
717.1253787468778
 21
857.883235848082
 31
0.0
  0
LINE
  5
394
330
1F
100
AcDbEntity
  8
0-0
  6
JWW_DASHED1
 62
   120
370
     5
100
AcDbLine
 10
127.1253787468916
 20
267.8832358480963
 30
0.0
 11
377.1253787468808
 21
517.8832358480855
 31
0.0
  0
LINE
  5
395
330
1F
100
AcDbEntity
  8
0-0
  6
JWW_DASHED1
 62
   120
370
     5
100
AcDbLine
 10
467.1253787468893
 20
600.8121680348081
 30
0.0
 11
717.1253787468803
 21
850.8121680347995
 31
0.0
  0
LINE
  5
396
330
1F
100
AcDbEntity
  8
0-0
  6
JWW_DASHED1
 62
   120
370
     5
100
AcDbLine
 10
127.1253787468899
 20
260.8121680348087
 30
0.0
 11
377.1253787468817
 21
510.8121680348005
 31
0.0
  0
LINE
  5
397
330
1F
100
AcDbEntity
  8
0-0
  6
JWW_DASHED1
 62
   120
370
     5
100
AcDbLine
 10
467.1253787468774
 20
593.7411002215107
 30
0.0
 11
717.1253787468846
 21
843.7411002215179
 31
0.0
  0
LINE
  5
398
330
1F
100
AcDbEntity
  8
0-0
  6
JWW_DASHED1
 62
   120
370
     5
100
AcDbLine
 10
127.1253787468942
 20
253.7411002215275
 30
0.0
 11
377.1253787468859
 21
503.7411002215188
 31
0.0
  0
LINE
  5
399
330
1F
100
AcDbEntity
  8
0-0
  6
JWW_DASHED1
 62
   120
370
     5
100
AcDbLine
 10
467.1253787468859
 20
586.6700324082879
 30
0.0
 11
717.1253787468931
 21
836.6700324082955
 31
0.0
  0
LINE
  5
39A
330
1F
100
AcDbEntity
  8
0-0
  6
JWW_DASHED1
 62
   120
370
     5
100
AcDbLine
 10
127.1253787468865
 20
246.6700324082889
 30
0.0
 11
377.1253787468936
 21
496.6700324082964
 31
0.0
  0
LINE
  5
39B
330
1F
100
AcDbEntity
  8
0-0
  6
JWW_DASHED1
 62
   120
370
     5
100
AcDbLine
 10
467.1253787468893
 20
579.5989645950067
 30
0.0
 11
717.1253787468812
 21
829.598964594998
 31
0.0
  0
LINE
  5
39C
330
1F
100
AcDbEntity
  8
0-0
  6
JWW_DASHED1
 62
   120
370
     5
100
AcDbLine
 10
127.1253787468899
 20
239.5989645950077
 30
0.0
 11
377.1253787468979
 21
489.5989645950148
 31
0.0
  0
LINE
  5
39D
330
1F
100
AcDbEntity
  8
0-0
  6
JWW_DASHED1
 62
   120
370
     5
100
AcDbLine
 10
467.1253787468808
 20
572.5278967817127
 30
0.0
 11
717.125378746871
 21
822.5278967817023
 31
0.0
  0
LINE
  5
39E
330
1F
100
AcDbEntity
  8
0-0
  6
JWW_DASHED1
 62
   120
370
     5
100
AcDbLine
 10
127.1253787468848
 20
232.5278967817162
 30
0.0
 11
377.125378746874
 21
482.5278967817059
 31
0.0
  0
LINE
  5
39F
330
1F
100
AcDbEntity
  8
0-0
  6
JWW_DASHED1
 62
   120
370
     5
100
AcDbLine
 10
467.1253787468851
 20
565.4568289684314
 30
0.0
 11
717.1253787468752
 21
815.4568289684207
 31
0.0
  0
LINE
  5
3A0
330
1F
100
AcDbEntity
  8
0-0
  6
JWW_DASHED1
 62
   120
370
     5
100
AcDbLine
 10
127.1253787468891
 20
225.456828968435
 30
0.0
 11
377.1253787468783
 21
475.4568289684242
 31
0.0
  0
LINE
  5
3A1
330
1F
100
AcDbEntity
  8
0-0
  6
JWW_DASHED1
 62
   120
370
     5
100
AcDbLine
 10
467.1253787468859
 20
558.3857611551464
 30
0.0
 11
717.1253787468769
 21
808.3857611551377
 31
0.0
  0
LINE
  5
3A2
330
1F
100
AcDbEntity
  8
0-0
  6
JWW_DASHED1
 62
   120
370
     5
100
AcDbLine
 10
127.1253787468865
 20
218.3857611551474
 30
0.0
 11
377.1253787468783
 21
468.3857611551388
 31
0.0
  0
LINE
  5
3A3
330
1F
100
AcDbEntity
  8
0-0
  6
JWW_DASHED1
 62
   120
370
     5
100
AcDbLine
 10
467.1253787468893
 20
551.3146933418648
 30
0.0
 11
717.125378746882
 21
801.3146933418566
 31
0.0
  0
LINE
  5
3A4
330
1F
100
AcDbEntity
  8
0-0
  6
JWW_DASHED1
 62
   120
370
     5
100
AcDbLine
 10
127.1253787468908
 20
211.3146933418658
 30
0.0
 11
377.1253787468825
 21
461.3146933418575
 31
0.0
  0
LINE
  5
3A5
330
1F
100
AcDbEntity
  8
0-0
  6
JWW_DASHED1
 62
   120
370
     5
100
AcDbLine
 10
467.1253787468783
 20
544.2436255285678
 30
0.0
 11
717.1253787468854
 21
794.2436255285749
 31
0.0
  0
LINE
  5
3A6
330
1F
100
AcDbEntity
  8
0-0
  6
JWW_DASHED1
 62
   120
370
     5
100
AcDbLine
 10
127.1253787468942
 20
204.2436255285841
 30
0.0
 11
377.1253787468859
 21
454.2436255285759
 31
0.0
  0
LINE
  5
3A7
330
1F
100
AcDbEntity
  8
0-0
  6
JWW_DASHED1
 62
   120
370
     5
100
AcDbLine
 10
467.1253787468817
 20
537.1725577152861
 30
0.0
 11
717.1253787468897
 21
787.1725577152937
 31
0.0
  0
LINE
  5
3A8
330
1F
100
AcDbEntity
  8
0-0
  6
JWW_DASHED1
 62
   120
370
     5
100
AcDbLine
 10
127.1253787468831
 20
197.1725577152871
 30
0.0
 11
377.1253787468902
 21
447.1725577152943
 31
0.0
  0
LINE
  5
3A9
330
1F
100
AcDbEntity
  8
0-0
  6
JWW_DASHED1
 62
   120
370
     5
100
AcDbLine
 10
467.1253787468859
 20
530.1014899020049
 30
0.0
 11
717.125378746894
 21
780.101489902012
 31
0.0
  0
LINE
  5
3AA
330
1F
100
AcDbEntity
  8
0-0
  6
JWW_DASHED1
 62
   120
370
     5
100
AcDbLine
 10
127.1253787468865
 20
190.1014899020059
 30
0.0
 11
377.1253787468945
 21
440.101489902013
 31
0.0
  0
LINE
  5
3AB
330
1F
100
AcDbEntity
  8
0-0
  6
JWW_DASHED1
 62
   120
370
     5
100
AcDbLine
 10
467.1253787468825
 20
523.0304220887701
 30
0.0
 11
717.1253787468718
 21
773.0304220887598
 31
0.0
  0
LINE
  5
3AC
330
1F
100
AcDbEntity
  8
0-0
  6
JWW_DASHED1
 62
   120
370
     5
100
AcDbLine
 10
127.1253787468865
 20
183.0304220887741
 30
0.0
 11
377.1253787468757
 21
433.0304220887633
 31
0.0
  0
LINE
  5
3AD
330
1F
100
AcDbEntity
  8
0-0
  6
JWW_DASHED1
 62
   120
370
     5
100
AcDbLine
 10
467.1253787468859
 20
515.9593542754885
 30
0.0
 11
717.1253787468761
 21
765.9593542754782
 31
0.0
  0
LINE
  5
3AE
330
1F
100
AcDbEntity
  8
0-0
  6
JWW_DASHED1
 62
   120
370
     5
100
AcDbLine
 10
127.1253787468899
 20
175.9593542754929
 30
0.0
 11
377.12537874688
 21
425.9593542754822
 31
0.0
  0
LINE
  5
3AF
330
1F
100
AcDbEntity
  8
0-0
  6
JWW_DASHED1
 62
   120
370
     5
100
AcDbLine
 10
467.1253787468868
 20
508.8882864622035
 30
0.0
 11
717.1253787468786
 21
758.8882864621949
 31
0.0
  0
LINE
  5
3B0
330
1F
100
AcDbEntity
  8
0-0
  6
JWW_DASHED1
 62
   120
370
     5
100
AcDbLine
 10
127.1253787468874
 20
168.888286462204
 30
0.0
 11
377.1253787468791
 21
418.8882864621958
 31
0.0
  0
LINE
  5
3B1
330
1F
100
AcDbEntity
  8
0-0
  6
JWW_DASHED1
 62
   120
370
     5
100
AcDbLine
 10
467.1253787468902
 20
501.8172186489218
 30
0.0
 11
717.125378746882
 21
751.8172186489136
 31
0.0
  0
LINE
  5
3B2
330
1F
100
AcDbEntity
  8
0-0
  6
JWW_DASHED1
 62
   120
370
     5
100
AcDbLine
 10
127.1253787468916
 20
161.8172186489228
 30
0.0
 11
377.1253787468834
 21
411.8172186489146
 31
0.0
  0
LINE
  5
3B3
330
1F
100
AcDbEntity
  8
0-0
  6
JWW_DASHED1
 62
   120
370
     5
100
AcDbLine
 10
467.1253787468791
 20
494.7461508356248
 30
0.0
 11
717.1253787468863
 21
744.746150835632
 31
0.0
  0
LINE
  5
3B4
330
1F
100
AcDbEntity
  8
0-0
  6
JWW_DASHED1
 62
   120
370
     5
100
AcDbLine
 10
127.125378746895
 20
154.7461508356412
 30
0.0
 11
377.1253787468876
 21
404.7461508356329
 31
0.0
  0
LINE
  5
3B5
330
1F
100
AcDbEntity
  8
0-0
  6
JWW_DASHED1
 62
   120
370
     5
100
AcDbLine
 10
467.1253787468825
 20
487.6750830223432
 30
0.0
 11
717.1253787468905
 21
737.6750830223507
 31
0.0
  0
LINE
  5
3B6
330
1F
100
AcDbEntity
  8
0-0
  6
JWW_DASHED1
 62
   120
370
     5
100
AcDbLine
 10
127.125378746884
 20
147.6750830223442
 30
0.0
 11
377.125378746891
 21
397.6750830223513
 31
0.0
  0
LINE
  5
3B7
330
1F
100
AcDbEntity
  8
0-0
  6
JWW_DASHED1
 62
   120
370
     5
100
AcDbLine
 10
467.1253787468868
 20
480.6040152090616
 30
0.0
 11
717.1253787468786
 21
730.6040152090533
 31
0.0
  0
LINE
  5
3B8
330
1F
100
AcDbEntity
  8
0-0
  6
JWW_DASHED1
 62
   120
370
     5
100
AcDbLine
 10
127.1253787468882
 20
140.604015209063
 30
0.0
 11
377.1253787468953
 21
390.6040152090701
 31
0.0
  0
LINE
  5
3B9
330
1F
100
AcDbEntity
  8
0-0
  6
JWW_DASHED1
 62
   120
370
     5
100
AcDbLine
 10
467.125378746891
 20
473.5329473957803
 30
0.0
 11
717.125378746882
 21
723.5329473957717
 31
0.0
  0
LINE
  5
3BA
330
1F
100
AcDbEntity
  8
0-0
  6
JWW_DASHED1
 62
   120
370
     5
100
AcDbLine
 10
127.1253787468916
 20
133.5329473957809
 30
0.0
 11
377.1253787468834
 21
383.5329473957727
 31
0.0
  0
LINE
  5
3BB
330
1F
100
AcDbEntity
  8
0-0
  6
JWW_DASHED1
 62
   120
370
     5
100
AcDbLine
 10
467.1253787468834
 20
466.4618795824872
 30
0.0
 11
717.1253787468727
 21
716.4618795824767
 31
0.0
  0
LINE
  5
3BC
330
1F
100
AcDbEntity
  8
0-0
  6
JWW_DASHED1
 62
   120
370
     5
100
AcDbLine
 10
127.1253787468874
 20
126.4618795824912
 30
0.0
 11
377.1253787468765
 21
376.4618795824804
 31
0.0
  0
LINE
  5
3BD
330
1F
100
AcDbEntity
  8
0-0
  6
JWW_DASHED1
 62
   120
370
     5
100
AcDbLine
 10
467.1253787468876
 20
459.3908117692605
 30
0.0
 11
717.1253787468786
 21
709.3908117692519
 31
0.0
  0
LINE
  5
3BE
330
1F
100
AcDbEntity
  8
0-0
  6
JWW_DASHED1
 62
   120
370
     5
100
AcDbLine
 10
127.1253787468882
 20
119.3908117692611
 30
0.0
 11
377.12537874688
 21
369.3908117692529
 31
0.0
  0
LINE
  5
3BF
330
1F
100
AcDbEntity
  8
0-0
  6
JWW_DASHED1
 62
   120
370
     5
100
AcDbLine
 10
467.1253787468757
 20
452.3197439559631
 30
0.0
 11
717.1253787468837
 21
702.3197439559706
 31
0.0
  0
LINE
  5
3C0
330
1F
100
AcDbEntity
  8
0-0
  6
JWW_DASHED1
 62
   120
370
     5
100
AcDbLine
 10
127.1253787468925
 20
112.3197439559799
 30
0.0
 11
377.1253787468842
 21
362.3197439559716
 31
0.0
  0
LINE
  5
3C1
330
1F
100
AcDbEntity
  8
0-0
  6
JWW_DASHED1
 62
   120
370
     5
100
AcDbLine
 10
467.12537874688
 20
445.2486761426819
 30
0.0
 11
717.1253787468871
 21
695.248676142689
 31
0.0
  0
LINE
  5
3C2
330
1F
100
AcDbEntity
  8
0-0
  6
JWW_DASHED1
 62
   120
370
     5
100
AcDbLine
 10
127.1253787468805
 20
105.2486761426825
 30
0.0
 11
377.1253787468876
 21
355.24867614269
 31
0.0
  0
LINE
  5
3C3
330
1F
100
AcDbEntity
  8
0-0
  6
JWW_DASHED1
 62
   120
370
     5
100
AcDbLine
 10
467.1253787468842
 20
438.1776083294002
 30
0.0
 11
717.1253787468914
 21
688.1776083294078
 31
0.0
  0
LINE
  5
3C4
330
1F
100
AcDbEntity
  8
0-0
  6
JWW_DASHED1
 62
   120
370
     5
100
AcDbLine
 10
127.1253787468848
 20
98.17760832940124
 30
0.0
 11
377.1253787468919
 21
348.1776083294084
 31
0.0
  0
LINE
  5
3C5
330
1F
100
AcDbEntity
  8
0-0
  6
JWW_DASHED1
 62
   120
370
     5
100
AcDbLine
 10
467.1253787468876
 20
431.1065405161186
 30
0.0
 11
717.1253787468795
 21
681.1065405161104
 31
0.0
  0
LINE
  5
3C6
330
1F
100
AcDbEntity
  8
0-0
  6
JWW_DASHED1
 62
   120
370
     5
100
AcDbLine
 10
127.1253787468882
 20
91.1065405161196
 30
0.0
 11
377.1253787468962
 21
341.1065405161271
 31
0.0
  0
LINE
  5
3C7
330
1F
100
AcDbEntity
  8
0-0
  6
JWW_DASHED1
 62
   120
370
     5
100
AcDbLine
 10
467.1253787468919
 20
424.0354727028374
 30
0.0
 11
717.1253787468837
 21
674.0354727028287
 31
0.0
  0
LINE
  5
3C8
330
1F
100
AcDbEntity
  8
0-0
  6
JWW_DASHED1
 62
   120
370
     5
100
AcDbLine
 10
127.1253787468925
 20
84.03547270283795
 30
0.0
 11
377.1253787468842
 21
334.0354727028297
 31
0.0
  0
LINE
  5
3C9
330
1F
100
AcDbEntity
  8
0-0
  6
JWW_DASHED1
 62
   120
370
     5
100
AcDbLine
 10
467.1253787468842
 20
416.9644048895447
 30
0.0
 11
717.1253787468744
 21
666.9644048895343
 31
0.0
  0
LINE
  5
3CA
330
1F
100
AcDbEntity
  8
0-0
  6
JWW_DASHED1
 62
   120
370
     5
100
AcDbLine
 10
127.1253787468882
 20
76.9644048895482
 30
0.0
 11
377.1253787468774
 21
326.9644048895378
 31
0.0
  0
LINE
  5
3CB
330
1F
100
AcDbEntity
  8
0-0
  6
JWW_DASHED1
 62
   120
370
     5
100
AcDbLine
 10
467.1253787468885
 20
409.893337076263
 30
0.0
 11
717.1253787468786
 21
659.8933370762527
 31
0.0
  0
LINE
  5
3CC
330
1F
100
AcDbEntity
  8
0-0
  6
JWW_DASHED1
 62
   120
370
     5
100
AcDbLine
 10
127.1253787468925
 20
69.89333707626699
 30
0.0
 11
377.1253787468817
 21
319.8933370762566
 31
0.0
  0
LINE
  5
3CD
330
1F
100
AcDbEntity
  8
0-0
  6
JWW_DASHED1
 62
   120
370
     5
100
AcDbLine
 10
467.1253787468876
 20
402.8222692629771
 30
0.0
 11
717.1253787468795
 21
652.8222692629685
 31
0.0
  0
LINE
  5
3CE
330
1F
100
AcDbEntity
  8
0-0
  6
JWW_DASHED1
 62
   120
370
     5
100
AcDbLine
 10
127.1253787468891
 20
62.8222692629781
 30
0.0
 11
377.12537874688
 21
312.8222692629694
 31
0.0
  0
LINE
  5
3CF
330
1F
100
AcDbEntity
  8
0-0
  6
JWW_DASHED1
 62
   120
370
     5
100
AcDbLine
 10
467.12537874688
 20
395.7512014497385
 30
0.0
 11
717.125378746888
 21
645.7512014497461
 31
0.0
  0
LINE
  5
3D0
330
1F
100
AcDbEntity
  8
0-0
  6
JWW_DASHED1
 62
   120
370
     5
100
AcDbLine
 10
127.1253787468814
 20
55.75120144973951
 30
0.0
 11
377.1253787468893
 21
305.751201449747
 31
0.0
  0
LINE
  5
3D1
330
1F
100
AcDbEntity
  8
0-0
  6
JWW_DASHED1
 62
   120
370
     5
100
AcDbLine
 10
467.1253787468842
 20
388.6801336364573
 30
0.0
 11
717.1253787468922
 21
638.6801336364648
 31
0.0
  0
LINE
  5
3D2
330
1F
100
AcDbEntity
  8
0-0
  6
JWW_DASHED1
 62
   120
370
     5
100
AcDbLine
 10
127.1253787468857
 20
48.68013363645829
 30
0.0
 11
377.1253787468927
 21
298.6801336364654
 31
0.0
  0
LINE
  5
3D3
330
1F
100
AcDbEntity
  8
0-0
  6
JWW_DASHED1
 62
   120
370
     5
100
AcDbLine
 10
467.1253787468885
 20
381.6090658231757
 30
0.0
 11
717.1253787468803
 21
631.6090658231674
 31
0.0
  0
LINE
  5
3D4
330
1F
100
AcDbEntity
  8
0-0
  6
JWW_DASHED1
 62
   120
370
     5
100
AcDbLine
 10
127.1253787468899
 20
41.60906582317665
 30
0.0
 11
377.125378746897
 21
291.6090658231842
 31
0.0
  0
LINE
  5
3D5
330
1F
100
AcDbEntity
  8
0-0
  6
JWW_DASHED1
 62
   120
370
     5
100
AcDbLine
 10
467.1253787468817
 20
374.5379980098834
 30
0.0
 11
717.1253787468718
 21
624.537998009873
 31
0.0
  0
LINE
  5
3D6
330
1F
100
AcDbEntity
  8
0-0
  6
JWW_DASHED1
 62
   120
370
     5
100
AcDbLine
 10
127.1253787468857
 20
34.53799800988733
 30
0.0
 11
377.1253787468748
 21
284.5379980098766
 31
0.0
  0
LINE
  5
3D7
330
1F
100
AcDbEntity
  8
0-0
  6
JWW_DASHED1
 62
   120
370
     5
100
AcDbLine
 10
467.1253787468859
 20
367.4669301966021
 30
0.0
 11
717.1253787468752
 21
617.4669301965918
 31
0.0
  0
LINE
  5
3D8
330
1F
100
AcDbEntity
  8
0-0
  6
JWW_DASHED1
 62
   120
370
     5
100
AcDbLine
 10
127.1253787468899
 20
27.46693019660611
 30
0.0
 11
377.1253787468791
 21
277.4669301965953
 31
0.0
  0
LINE
  5
3D9
330
1F
100
AcDbEntity
  8
0-0
  6
JWW_DASHED1
 62
   120
370
     5
100
AcDbLine
 10
467.1253787468842
 20
360.3958623833154
 30
0.0
 11
717.1253787468769
 21
610.3958623833071
 31
0.0
  0
LINE
  5
3DA
330
1F
100
AcDbEntity
  8
0-0
  6
JWW_DASHED1
 62
   120
370
     5
100
AcDbLine
 10
127.1253787468857
 20
20.39586238331637
 30
0.0
 11
377.1253787468774
 21
270.3958623833081
 31
0.0
  0
LINE
  5
3DB
330
1F
100
AcDbEntity
  8
0-0
  6
JWW_DASHED1
 62
   120
370
     5
100
AcDbLine
 10
467.1253787468885
 20
353.3247945700342
 30
0.0
 11
717.1253787468803
 21
603.3247945700255
 31
0.0
  0
LINE
  5
3DC
330
1F
100
AcDbEntity
  8
0-0
  6
JWW_DASHED1
 62
   120
370
     5
100
AcDbLine
 10
127.1253787468899
 20
13.32479457003515
 30
0.0
 11
377.1253787468808
 21
263.3247945700265
 31
0.0
  0
LINE
  5
3DD
330
1F
100
AcDbEntity
  8
0-0
  6
JWW_DASHED1
 62
   120
370
     5
100
AcDbLine
 10
467.1253787468774
 20
346.2537267567371
 30
0.0
 11
717.1253787468846
 21
596.2537267567443
 31
0.0
  0
LINE
  5
3DE
330
1F
100
AcDbEntity
  8
0-0
  6
JWW_DASHED1
 62
   120
370
     5
100
AcDbLine
 10
127.1253787468933
 20
6.253726756753935
 30
0.0
 11
377.1253787468851
 21
256.2537267567453
 31
0.0
  0
LINE
  5
3DF
330
1F
100
AcDbEntity
  8
0-0
  6
JWW_DASHED1
 62
   120
370
     5
100
AcDbLine
 10
467.1253787468808
 20
339.1826589434551
 30
0.0
 11
717.1253787468888
 21
589.1826589434627
 31
0.0
  0
LINE
  5
3E0
330
1F
100
AcDbEntity
  8
0-0
  6
JWW_DASHED1
 62
   120
370
     5
100
AcDbLine
 10
127.1253787468822
 20
-0.8173410565434835
 30
0.0
 11
377.1253787468893
 21
249.1826589434636
 31
0.0
  0
LINE
  5
3E1
330
1F
100
AcDbEntity
  8
0-0
  6
JWW_DASHED1
 62
   120
370
     5
100
AcDbLine
 10
467.1253787468893
 20
332.1115911302327
 30
0.0
 11
717.1253787468812
 21
582.1115911302245
 31
0.0
  0
LINE
  5
3E2
330
1F
100
AcDbEntity
  8
0-0
  6
JWW_DASHED1
 62
   120
370
     5
100
AcDbLine
 10
127.1253787468899
 20
-7.888408869766295
 30
0.0
 11
377.1253787468817
 21
242.1115911302255
 31
0.0
  0
LINE
  5
3E3
330
1F
100
AcDbEntity
  8
0-0
  6
JWW_DASHED1
 62
   120
370
     5
100
AcDbLine
 10
467.1253787468825
 20
325.0405233169408
 30
0.0
 11
717.1253787468727
 21
575.0405233169305
 31
0.0
  0
LINE
  5
3E4
330
1F
100
AcDbEntity
  8
0-0
  6
JWW_DASHED1
 62
   120
370
     5
100
AcDbLine
 10
127.1253787468865
 20
-14.95947668305561
 30
0.0
 11
377.1253787468757
 21
235.040523316934
 31
0.0
  0
LINE
  5
3E5
330
1F
100
AcDbEntity
  8
0-0
  6
JWW_DASHED1
 62
   120
370
     5
100
AcDbLine
 10
467.1253787468868
 20
317.9694555036596
 30
0.0
 11
717.1253787468769
 21
567.9694555036492
 31
0.0
  0
LINE
  5
3E6
330
1F
100
AcDbEntity
  8
0-0
  6
JWW_DASHED1
 62
   120
370
     5
100
AcDbLine
 10
127.1253787468908
 20
-22.03054449633683
 30
0.0
 11
377.1253787468808
 21
227.9694555036528
 31
0.0
  0
LINE
  5
3E7
330
1F
100
AcDbEntity
  8
0-0
  6
JWW_DASHED1
 62
   120
370
     5
100
AcDbLine
 10
467.1253787468859
 20
310.8983876903724
 30
0.0
 11
717.1253787468769
 21
560.8983876903642
 31
0.0
  0
LINE
  5
3E8
330
1F
100
AcDbEntity
  8
0-0
  6
JWW_DASHED1
 62
   120
370
     5
100
AcDbLine
 10
127.1253787468865
 20
-29.10161230962657
 30
0.0
 11
377.1253787468783
 21
220.8983876903652
 31
0.0
  0
LINE
  5
3E9
330
1F
100
AcDbEntity
  8
0-0
  6
JWW_DASHED1
 62
   120
370
     5
100
AcDbLine
 10
467.1253787468893
 20
303.8273198770912
 30
0.0
 11
717.1253787468812
 21
553.8273198770826
 31
0.0
  0
LINE
  5
3EA
330
1F
100
AcDbEntity
  8
0-0
  6
JWW_DASHED1
 62
   120
370
     5
100
AcDbLine
 10
127.1253787468899
 20
-36.17268012290779
 30
0.0
 11
377.1253787468825
 21
213.8273198770835
 31
0.0
  0
LINE
  5
3EB
330
1F
100
AcDbEntity
  8
0-0
  6
JWW_DASHED1
 62
   120
370
     5
100
AcDbLine
 10
467.1253787468774
 20
296.7562520637938
 30
0.0
 11
717.1253787468854
 21
546.7562520638013
 31
0.0
  0
LINE
  5
3EC
330
1F
100
AcDbEntity
  8
0-0
  6
JWW_DASHED1
 62
   120
370
     5
100
AcDbLine
 10
127.125378746895
 20
-43.24374793618901
 30
0.0
 11
377.1253787468859
 21
206.7562520638023
 31
0.0
  0
LINE
  5
3ED
330
1F
100
AcDbEntity
  8
0-0
  6
JWW_DASHED1
 62
   120
370
     5
100
AcDbLine
 10
467.1253787468817
 20
289.6851842505122
 30
0.0
 11
717.1253787468888
 21
539.6851842505197
 31
0.0
  0
LINE
  5
3EE
330
1F
100
AcDbEntity
  8
0-0
  6
JWW_DASHED1
 62
   120
370
     5
100
AcDbLine
 10
127.1253787468831
 20
-50.31481574948643
 30
0.0
 11
377.1253787468902
 21
199.6851842505207
 31
0.0
  0
LINE
  5
3EF
330
1F
100
AcDbEntity
  8
0-0
  6
JWW_DASHED1
 62
   120
370
     5
100
AcDbLine
 10
467.1253787468859
 20
282.6141164372309
 30
0.0
 11
717.1253787468778
 21
532.6141164372227
 31
0.0
  0
LINE
  5
3F0
330
1F
100
AcDbEntity
  8
0-0
  6
JWW_DASHED1
 62
   120
370
     5
100
AcDbLine
 10
127.1253787468865
 20
-57.38588356276765
 30
0.0
 11
377.1253787468945
 21
192.6141164372395
 31
0.0
  0
LINE
  5
3F1
330
1F
100
AcDbEntity
  8
0-0
  6
JWW_DASHED1
 62
   120
370
     5
100
AcDbLine
 10
467.1253787468902
 20
275.5430486239497
 30
0.0
 11
717.125378746882
 21
525.5430486239411
 31
0.0
  0
LINE
  5
3F2
330
1F
100
AcDbEntity
  8
0-0
  6
JWW_DASHED1
 62
   120
370
     5
100
AcDbLine
 10
127.1253787468908
 20
-64.45695137604972
 30
0.0
 11
377.1253787468825
 21
185.543048623942
 31
0.0
  0
LINE
  5
3F3
330
1F
100
AcDbEntity
  8
0-0
  6
JWW_DASHED1
 62
   120
370
     5
100
AcDbLine
 10
467.1253787468859
 20
268.4719808106877
 30
0.0
 11
717.1253787468752
 21
518.4719808106769
 31
0.0
  0
LINE
  5
3F4
330
1F
100
AcDbEntity
  8
0-0
  6
JWW_DASHED1
 62
   120
370
     5
100
AcDbLine
 10
127.1253787468899
 20
-71.52801918930876
 30
0.0
 11
377.1253787468791
 21
178.4719808106809
 31
0.0
  0
LINE
  5
3F5
330
1F
100
AcDbEntity
  8
0-0
  6
JWW_DASHED1
 62
   120
370
     5
100
AcDbLine
 10
467.1253787468859
 20
261.4009129974295
 30
0.0
 11
717.1253787468778
 21
511.4009129974212
 31
0.0
  0
LINE
  5
3F6
330
1F
100
AcDbEntity
  8
0-0
  6
JWW_DASHED1
 62
   120
370
     5
100
AcDbLine
 10
127.1253787468874
 20
-78.59908700256952
 30
0.0
 11
377.1253787468791
 21
171.4009129974222
 31
0.0
  0
LINE
  5
3F7
330
1F
100
AcDbEntity
  8
0-0
  6
JWW_DASHED1
 62
   120
370
     5
100
AcDbLine
 10
467.1253787468902
 20
254.3298451841483
 30
0.0
 11
717.125378746882
 21
504.3298451841396
 31
0.0
  0
LINE
  5
3F8
330
1F
100
AcDbEntity
  8
0-0
  6
JWW_DASHED1
 62
   120
370
     5
100
AcDbLine
 10
127.1253787468916
 20
-85.67015481585074
 30
0.0
 11
377.1253787468825
 21
164.3298451841406
 31
0.0
  0
LINE
  5
3F9
330
1F
100
AcDbEntity
  8
0-0
  6
JWW_DASHED1
 62
   120
370
     5
100
AcDbLine
 10
467.1253787468791
 20
247.2587773708513
 30
0.0
 11
717.1253787468863
 21
497.2587773708584
 31
0.0
  0
LINE
  5
3FA
330
1F
100
AcDbEntity
  8
0-0
  6
JWW_DASHED1
 62
   120
370
     5
100
AcDbLine
 10
127.1253787468797
 20
-92.74122262914815
 30
0.0
 11
377.1253787468868
 21
157.2587773708594
 31
0.0
  0
LINE
  5
3FB
330
1F
100
AcDbEntity
  8
0-0
  6
JWW_DASHED1
 62
   120
370
     5
100
AcDbLine
 10
467.1253787468825
 20
240.1877095575692
 30
0.0
 11
717.1253787468905
 21
490.1877095575767
 31
0.0
  0
LINE
  5
3FC
330
1F
100
AcDbEntity
  8
0-0
  6
JWW_DASHED1
 62
   120
370
     5
100
AcDbLine
 10
127.1253787468831
 20
-99.8122904424298
 30
0.0
 11
377.125378746891
 21
150.1877095575777
 31
0.0
  0
LINE
  5
3FD
330
1F
100
AcDbEntity
  8
0-0
  6
JWW_DASHED1
 62
   120
370
     5
100
AcDbLine
 10
467.1253787468868
 20
233.116641744288
 30
0.0
 11
717.1253787468786
 21
483.1166417442797
 31
0.0
  0
LINE
  5
3FE
330
1F
100
AcDbEntity
  8
0-0
  6
JWW_DASHED1
 62
   120
370
     5
100
AcDbLine
 10
127.1253787468874
 20
-106.883358255711
 30
0.0
 11
377.1253787468945
 21
143.1166417442961
 31
0.0
  0
LINE
  5
3FF
330
1F
100
AcDbEntity
  8
0-0
  6
JWW_DASHED1
 62
   120
370
     5
100
AcDbLine
 10
467.125378746891
 20
226.0455739310068
 30
0.0
 11
717.125378746882
 21
476.0455739309981
 31
0.0
  0
LINE
  5
400
330
1F
100
AcDbEntity
  8
0-0
  6
JWW_DASHED1
 62
   120
370
     5
100
AcDbLine
 10
127.1253787468916
 20
-113.9544260689927
 30
0.0
 11
377.1253787468825
 21
136.0455739309991
 31
0.0
  0
LINE
  5
401
330
1F
100
AcDbEntity
  8
0-0
  6
JWW_DASHED1
 62
   120
370
     5
100
AcDbLine
 10
467.1253787468851
 20
218.9745061177157
 30
0.0
 11
717.1253787468752
 21
468.9745061177049
 31
0.0
  0
LINE
  5
402
330
1F
100
AcDbEntity
  8
0-0
  6
JWW_DASHED1
 62
   120
370
     5
100
AcDbLine
 10
127.1253787468891
 20
-121.0254938822807
 30
0.0
 11
377.1253787468783
 21
128.9745061177089
 31
0.0
  0
LINE
  5
403
330
1F
100
AcDbEntity
  8
0-0
  6
JWW_DASHED1
 62
   120
370
     5
100
AcDbLine
 10
467.1253787468893
 20
211.9034383044341
 30
0.0
 11
717.1253787468786
 21
461.9034383044237
 31
0.0
  0
LINE
  5
404
330
1F
100
AcDbEntity
  8
0-0
  6
JWW_DASHED1
 62
   120
370
     5
100
AcDbLine
 10
127.1253787468933
 20
-128.0965616955619
 30
0.0
 11
377.1253787468825
 21
121.9034383044273
 31
0.0
  0
LINE
  5
405
330
1F
100
AcDbEntity
  8
0-0
  6
JWW_DASHED1
 62
   120
370
     5
100
AcDbLine
 10
467.1253787468893
 20
204.8323704911759
 30
0.0
 11
717.1253787468803
 21
454.8323704911672
 31
0.0
  0
LINE
  5
406
330
1F
100
AcDbEntity
  8
0-0
  6
JWW_DASHED1
 62
   120
370
     5
100
AcDbLine
 10
127.1253787468899
 20
-135.1676295088235
 30
0.0
 11
377.1253787468817
 21
114.8323704911682
 31
0.0
  0
LINE
  5
407
330
1F
100
AcDbEntity
  8
0-0
  6
JWW_DASHED1
 62
   120
370
     5
100
AcDbLine
 10
467.1253787468791
 20
197.7613026779079
 30
0.0
 11
717.1253787468871
 21
447.7613026779154
 31
0.0
  0
LINE
  5
408
330
1F
100
AcDbEntity
  8
0-0
  6
JWW_DASHED1
 62
   120
370
     5
100
AcDbLine
 10
127.1253787468805
 20
-142.2386973220911
 30
0.0
 11
377.1253787468876
 21
107.7613026779164
 31
0.0
  0
LINE
  5
409
330
1F
100
AcDbEntity
  8
0-0
  6
JWW_DASHED1
 62
   120
370
     5
100
AcDbLine
 10
467.1253787468834
 20
190.6902348646263
 30
0.0
 11
717.1253787468905
 21
440.6902348646338
 31
0.0
  0
LINE
  5
40A
330
1F
100
AcDbEntity
  8
0-0
  6
JWW_DASHED1
 62
   120
370
     5
100
AcDbLine
 10
127.1253787468848
 20
-149.3097651353723
 30
0.0
 11
377.1253787468919
 21
100.6902348646348
 31
0.0
  0
LINE
  5
40B
330
1F
100
AcDbEntity
  8
0-0
  6
JWW_DASHED1
 62
   120
370
     5
100
AcDbLine
 10
467.1253787468876
 20
183.619167051345
 30
0.0
 11
717.1253787468786
 21
433.6191670513364
 31
0.0
  0
LINE
  5
40C
330
1F
100
AcDbEntity
  8
0-0
  6
JWW_DASHED1
 62
   120
370
     5
100
AcDbLine
 10
127.1253787468882
 20
-156.380832948654
 30
0.0
 11
377.1253787468953
 21
93.61916705135314
 31
0.0
  0
LINE
  5
40D
330
1F
100
AcDbEntity
  8
0-0
  6
JWW_DASHED1
 62
   120
370
     5
100
AcDbLine
 10
467.1253787468825
 20
176.5480992380544
 30
0.0
 11
717.1253787468718
 21
426.5480992380441
 31
0.0
  0
LINE
  5
40E
330
1F
100
AcDbEntity
  8
0-0
  6
JWW_DASHED1
 62
   120
370
     5
100
AcDbLine
 10
127.1253787468857
 20
-163.451900761942
 30
0.0
 11
377.1253787468757
 21
86.54809923804763
 31
0.0
  0
LINE
  5
40F
330
1F
100
AcDbEntity
  8
0-0
  6
JWW_DASHED1
 62
   120
370
     5
100
AcDbLine
 10
467.1253787468859
 20
169.4770314247728
 30
0.0
 11
717.1253787468761
 21
419.4770314247625
 31
0.0
  0
LINE
  5
410
330
1F
100
AcDbEntity
  8
0-0
  6
JWW_DASHED1
 62
   120
370
     5
100
AcDbLine
 10
127.1253787468899
 20
-170.5229685752228
 30
0.0
 11
377.12537874688
 21
79.47703142476641
 31
0.0
  0
LINE
  5
411
330
1F
100
AcDbEntity
  8
0-0
  6
JWW_DASHED1
 62
   120
370
     5
100
AcDbLine
 10
467.1253787468842
 20
162.4059636114848
 30
0.0
 11
717.1253787468752
 21
412.4059636114765
 31
0.0
  0
LINE
  5
412
330
1F
100
AcDbEntity
  8
0-0
  6
JWW_DASHED1
 62
   120
370
     5
100
AcDbLine
 10
127.1253787468848
 20
-177.5940363885142
 30
0.0
 11
377.1253787468765
 21
72.40596361147752
 31
0.0
  0
LINE
  5
413
330
1F
100
AcDbEntity
  8
0-0
  6
JWW_DASHED1
 62
   120
370
     5
100
AcDbLine
 10
467.1253787468876
 20
155.3348957982035
 30
0.0
 11
717.1253787468795
 21
405.3348957981949
 31
0.0
  0
LINE
  5
414
330
1F
100
AcDbEntity
  8
0-0
  6
JWW_DASHED1
 62
   120
370
     5
100
AcDbLine
 10
127.1253787468882
 20
-184.6651042017955
 30
0.0
 11
377.12537874688
 21
65.33489579819587
 31
0.0
  0
LINE
  5
415
330
1F
100
AcDbEntity
  8
0-0
  6
JWW_DASHED1
 62
   120
370
     5
100
AcDbLine
 10
467.1253787468757
 20
148.2638279849061
 30
0.0
 11
717.1253787468837
 21
398.2638279849132
 31
0.0
  0
LINE
  5
416
330
1F
100
AcDbEntity
  8
0-0
  6
JWW_DASHED1
 62
   120
370
     5
100
AcDbLine
 10
127.1253787468925
 20
-191.7361720150775
 30
0.0
 11
377.1253787468842
 21
58.26382798491423
 31
0.0
  0
LINE
  5
417
330
1F
100
AcDbEntity
  8
0-0
  6
JWW_DASHED1
 62
   120
370
     5
100
AcDbLine
 10
467.12537874688
 20
141.1927601716245
 30
0.0
 11
717.1253787468871
 21
391.192760171632
 31
0.0
  0
LINE
  5
418
330
1F
100
AcDbEntity
  8
0-0
  6
JWW_DASHED1
 62
   120
370
     5
100
AcDbLine
 10
127.1253787468814
 20
-198.8072398283741
 30
0.0
 11
377.1253787468885
 21
51.19276017163301
 31
0.0
  0
LINE
  5
419
330
1F
100
AcDbEntity
  8
0-0
  6
JWW_DASHED1
 62
   120
370
     5
100
AcDbLine
 10
467.1253787468885
 20
134.1216923584021
 30
0.0
 11
717.1253787468795
 21
384.1216923583934
 31
0.0
  0
LINE
  5
41A
330
1F
100
AcDbEntity
  8
0-0
  6
JWW_DASHED1
 62
   120
370
     5
100
AcDbLine
 10
127.1253787468891
 20
-205.8783076415969
 30
0.0
 11
377.1253787468962
 21
44.1216923584102
 31
0.0
  0
LINE
  5
41B
330
1F
100
AcDbEntity
  8
0-0
  6
JWW_DASHED1
 62
   120
370
     5
100
AcDbLine
 10
467.1253787468834
 20
127.0506245451119
 30
0.0
 11
717.1253787468735
 21
377.0506245451015
 31
0.0
  0
LINE
  5
41C
330
1F
100
AcDbEntity
  8
0-0
  6
JWW_DASHED1
 62
   120
370
     5
100
AcDbLine
 10
127.1253787468874
 20
-212.9493754548845
 30
0.0
 11
377.1253787468765
 21
37.05062454510511
 31
0.0
  0
LINE
  5
41D
330
1F
100
AcDbEntity
  8
0-0
  6
JWW_DASHED1
 62
   120
370
     5
100
AcDbLine
 10
467.1253787468876
 20
119.9795567318303
 30
0.0
 11
717.1253787468769
 21
369.9795567318199
 31
0.0
  0
LINE
  5
41E
330
1F
100
AcDbEntity
  8
0-0
  6
JWW_DASHED1
 62
   120
370
     5
100
AcDbLine
 10
127.1253787468916
 20
-220.0204432681657
 30
0.0
 11
377.1253787468808
 21
29.97955673182389
 31
0.0
  0
LINE
  5
41F
330
1F
100
AcDbEntity
  8
0-0
  6
JWW_DASHED1
 62
   120
370
     5
100
AcDbLine
 10
467.1253787468842
 20
112.9084889185418
 30
0.0
 11
717.1253787468761
 21
362.9084889185332
 31
0.0
  0
LINE
  5
420
330
1F
100
AcDbEntity
  8
0-0
  6
JWW_DASHED1
 62
   120
370
     5
100
AcDbLine
 10
127.1253787468857
 20
-227.0915110814572
 30
0.0
 11
377.1253787468774
 21
22.90848891853457
 31
0.0
  0
LINE
  5
421
330
1F
100
AcDbEntity
  8
0-0
  6
JWW_DASHED1
 62
   120
370
     5
100
AcDbLine
 10
467.1253787468885
 20
105.8374211052602
 30
0.0
 11
717.1253787468803
 21
355.8374211052519
 31
0.0
  0
LINE
  5
422
330
1F
100
AcDbEntity
  8
0-0
  6
JWW_DASHED1
 62
   120
370
     5
100
AcDbLine
 10
127.1253787468899
 20
-234.1625788947388
 30
0.0
 11
377.1253787468808
 21
15.83742110525336
 31
0.0
  0
LINE
  5
423
330
1F
100
AcDbEntity
  8
0-0
  6
JWW_DASHED1
 62
   120
370
     5
100
AcDbLine
 10
467.1253787468765
 20
98.76635329196276
 30
0.0
 11
717.1253787468837
 21
348.7663532919703
 31
0.0
  0
LINE
  5
424
330
1F
100
AcDbEntity
  8
0-0
  6
JWW_DASHED1
 62
   120
370
     5
100
AcDbLine
 10
127.1253787468933
 20
-241.2336467080205
 30
0.0
 11
377.1253787468851
 21
8.766353291971285
 31
0.0
  0
LINE
  5
425
330
1F
100
AcDbEntity
  8
0-0
  6
JWW_DASHED1
 62
   120
370
     5
100
AcDbLine
 10
467.1253787468808
 20
91.69528547868154
 30
0.0
 11
717.1253787468888
 21
341.6952854786891
 31
0.0
  0
LINE
  5
426
330
1F
100
AcDbEntity
  8
0-0
  6
JWW_DASHED1
 62
   120
370
     5
100
AcDbLine
 10
127.1253787468814
 20
-248.304714521317
 30
0.0
 11
377.1253787468893
 21
1.695285478690067
 31
0.0
  0
LINE
  5
427
330
1F
100
AcDbEntity
  8
0-0
  6
JWW_DASHED1
 62
   120
370
     5
100
AcDbLine
 10
467.1253787468851
 20
84.62421766540032
 30
0.0
 11
717.1253787468761
 21
334.6242176653917
 31
0.0
  0
LINE
  5
428
330
1F
100
AcDbEntity
  8
0-0
  6
JWW_DASHED1
 62
   120
370
     5
100
AcDbLine
 10
127.1253787468857
 20
-255.3757823345987
 30
0.0
 11
377.1253787468927
 21
-5.375782334591577
 31
0.0
  0
LINE
  5
429
330
1F
100
AcDbEntity
  8
0-0
  6
JWW_DASHED1
 62
   120
370
     5
100
AcDbLine
 10
467.1253787468885
 20
77.55314985211868
 30
0.0
 11
717.1253787468803
 21
327.55314985211
 31
0.0
  0
LINE
  5
42A
330
1F
100
AcDbEntity
  8
0-0
  6
JWW_DASHED1
 62
   120
370
     5
100
AcDbLine
 10
127.1253787468899
 20
-262.4468501478804
 30
0.0
 11
377.1253787468808
 21
-12.44685014788899
 31
0.0
  0
LINE
  5
42B
330
1F
100
AcDbEntity
  8
0-0
  6
JWW_DASHED1
 62
   120
370
     5
100
AcDbLine
 10
467.1253787468893
 20
70.4820820388882
 30
0.0
 11
717.1253787468786
 21
320.4820820388774
 31
0.0
  0
LINE
  5
42C
330
1F
100
AcDbEntity
  8
0-0
  6
JWW_DASHED1
 62
   120
370
     5
100
AcDbLine
 10
127.1253787468925
 20
-269.5179179611083
 30
0.0
 11
377.1253787468825
 21
-19.51791796111863
 31
0.0
  0
LINE
  5
42D
330
1F
100
AcDbEntity
  8
0-0
  6
JWW_DASHED1
 62
   120
370
     5
100
AcDbLine
 10
467.1253787468859
 20
63.41101422559888
 30
0.0
 11
717.1253787468769
 21
313.4110142255906
 31
0.0
  0
LINE
  5
42E
330
1F
100
AcDbEntity
  8
0-0
  6
JWW_DASHED1
 62
   120
370
     5
100
AcDbLine
 10
127.1253787468865
 20
-276.5889857744002
 30
0.0
 11
377.1253787468774
 21
-26.5889857744088
 31
0.0
  0
LINE
  5
42F
330
1F
100
AcDbEntity
  8
0-0
  6
JWW_DASHED1
 62
   120
370
     5
100
AcDbLine
 10
467.1253787468893
 20
56.33994641231723
 30
0.0
 11
717.1253787468812
 21
306.339946412309
 31
0.0
  0
LINE
  5
430
330
1F
100
AcDbEntity
  8
0-0
  6
JWW_DASHED1
 62
   120
370
     5
100
AcDbLine
 10
127.1253787468899
 20
-283.6600535876818
 30
0.0
 11
377.1253787468817
 21
-33.66005358769044
 31
0.0
  0
LINE
  5
431
330
1F
100
AcDbEntity
  8
0-0
  6
JWW_DASHED1
 62
   120
370
     5
100
AcDbLine
 10
467.1253787468774
 20
49.26887859902024
 30
0.0
 11
717.1253787468854
 21
299.2688785990273
 31
0.0
  0
LINE
  5
432
330
1F
100
AcDbEntity
  8
0-0
  6
JWW_DASHED1
 62
   120
370
     5
100
AcDbLine
 10
127.1253787468788
 20
-290.7311214009787
 30
0.0
 11
377.1253787468859
 21
-40.73112140097166
 31
0.0
  0
LINE
  5
433
330
1F
100
AcDbEntity
  8
0-0
  6
JWW_DASHED1
 62
   120
370
     5
100
AcDbLine
 10
467.1253787468817
 20
42.1978107857386
 30
0.0
 11
717.1253787468888
 21
292.1978107857461
 31
0.0
  0
LINE
  5
434
330
1F
100
AcDbEntity
  8
0-0
  6
JWW_DASHED1
 62
   120
370
     5
100
AcDbLine
 10
127.1253787468831
 20
-297.80218921426
 30
0.0
 11
377.1253787468902
 21
-47.80218921425288
 31
0.0
  0
LINE
  5
435
330
1F
100
AcDbEntity
  8
0-0
  6
JWW_DASHED1
 62
   120
370
     5
100
AcDbLine
 10
467.1253787468859
 20
35.12674297245738
 30
0.0
 11
717.1253787468778
 21
285.1267429724492
 31
0.0
  0
LINE
  5
436
330
1F
100
AcDbEntity
  8
0-0
  6
JWW_DASHED1
 62
   120
370
     5
100
AcDbLine
 10
127.1253787468865
 20
-304.8732570275421
 30
0.0
 11
377.1253787468945
 21
-54.87325702753409
 31
0.0
  0
LINE
  5
437
330
1F
100
AcDbEntity
  8
0-0
  6
JWW_DASHED1
 62
   120
370
     5
100
AcDbLine
 10
467.1253787468893
 20
28.05567515917573
 30
0.0
 11
717.1253787468812
 21
278.0556751591671
 31
0.0
  0
LINE
  5
438
330
1F
100
AcDbEntity
  8
0-0
  6
JWW_DASHED1
 62
   120
370
     5
100
AcDbLine
 10
127.1253787468908
 20
-311.9443248408232
 30
0.0
 11
377.1253787468817
 21
-61.94432484083194
 31
0.0
  0
LINE
  5
439
330
1F
100
AcDbEntity
  8
0-0
  6
JWW_DASHED1
 62
   120
370
     5
100
AcDbLine
 10
467.1253787468859
 20
20.98460734588642
 30
0.0
 11
717.1253787468752
 21
270.984607345876
 31
0.0
  0
LINE
  5
43A
330
1F
100
AcDbEntity
  8
0-0
  6
JWW_DASHED1
 62
   120
370
     5
100
AcDbLine
 10
127.1253787468899
 20
-319.0153926541096
 30
0.0
 11
377.1253787468791
 21
-69.0153926541204
 31
0.0
  0
LINE
  5
43B
330
1F
100
AcDbEntity
  8
0-0
  6
JWW_DASHED1
 62
   120
370
     5
100
AcDbLine
 10
467.1253787468902
 20
13.9135395326052
 30
0.0
 11
717.1253787468795
 21
263.9135395325944
 31
0.0
  0
LINE
  5
43C
330
1F
100
AcDbEntity
  8
0-0
  6
JWW_DASHED1
 62
   120
370
     5
100
AcDbLine
 10
127.1253787468933
 20
-326.0864604673908
 30
0.0
 11
377.1253787468834
 21
-76.08646046740162
 31
0.0
  0
LINE
  5
43D
330
1F
100
AcDbEntity
  8
0-0
  6
JWW_DASHED1
 62
   120
370
     5
100
AcDbLine
 10
467.125378746874
 20
6.842471719358514
 30
0.0
 11
717.125378746882
 21
256.842471719366
 31
0.0
  0
LINE
  5
43E
330
1F
100
AcDbEntity
  8
0-0
  6
JWW_DASHED1
 62
   120
370
     5
100
AcDbLine
 10
127.1253787468908
 20
-333.1575282806247
 30
0.0
 11
377.1253787468825
 21
-83.15752828063339
 31
0.0
  0
LINE
  5
43F
330
1F
100
AcDbEntity
  8
0-0
  6
JWW_DASHED1
 62
   120
370
     5
100
AcDbLine
 10
467.1253787468783
 20
-0.2285960939227039
 30
0.0
 11
717.1253787468854
 21
249.7714039060844
 31
0.0
  0
LINE
  5
440
330
1F
100
AcDbEntity
  8
0-0
  6
JWW_DASHED1
 62
   120
370
     5
100
AcDbLine
 10
127.1253787468797
 20
-340.2285960939217
 30
0.0
 11
377.1253787468868
 21
-90.2285960939146
 31
0.0
  0
LINE
  5
441
330
1F
100
AcDbEntity
  8
0-0
  6
JWW_DASHED1
 62
   120
370
     5
100
AcDbLine
 10
467.1253787468825
 20
-7.299663907204348
 30
0.0
 11
717.1253787468897
 21
242.7003360928032
 31
0.0
  0
LINE
  5
442
330
1F
100
AcDbEntity
  8
0-0
  6
JWW_DASHED1
 62
   120
370
     5
100
AcDbLine
 10
127.1253787468831
 20
-347.2996639072029
 30
0.0
 11
377.125378746891
 21
-97.29966390719582
 31
0.0
  0
LINE
  5
443
330
1F
100
AcDbEntity
  8
0-0
  6
JWW_DASHED1
 62
   120
370
     5
100
AcDbLine
 10
467.1253787468868
 20
-14.37073172048557
 30
0.0
 11
717.1253787468786
 21
235.6292682795062
 31
0.0
  0
LINE
  5
444
330
1F
100
AcDbEntity
  8
0-0
  6
JWW_DASHED1
 62
   120
370
     5
100
AcDbLine
 10
127.1253787468874
 20
-354.370731720485
 30
0.0
 11
377.1253787468945
 21
-104.370731720477
 31
0.0
  0
LINE
  5
445
330
1F
100
AcDbEntity
  8
0-0
  6
JWW_DASHED1
 62
   120
370
     5
100
AcDbLine
 10
467.1253787468902
 20
-21.44179953376721
 30
0.0
 11
717.125378746882
 21
228.5582004662241
 31
0.0
  0
LINE
  5
446
330
1F
100
AcDbEntity
  8
0-0
  6
JWW_DASHED1
 62
   120
370
     5
100
AcDbLine
 10
127.1253787468916
 20
-361.4417995337662
 30
0.0
 11
377.1253787468825
 21
-111.4417995337749
 31
0.0
  0
LINE
  5
447
330
1F
100
AcDbEntity
  8
0-0
  6
JWW_DASHED1
 62
   120
370
     5
100
AcDbLine
 10
467.1253787468876
 20
-28.5128673470561
 30
0.0
 11
717.1253787468769
 21
221.4871326529335
 31
0.0
  0
LINE
  5
448
330
1F
100
AcDbEntity
  8
0-0
  6
JWW_DASHED1
 62
   120
370
     5
100
AcDbLine
 10
127.1253787468908
 20
-368.5128673470521
 30
0.0
 11
377.1253787468808
 21
-118.5128673470625
 31
0.0
  0
LINE
  5
449
330
1F
100
AcDbEntity
  8
0-0
  6
JWW_DASHED1
 62
   120
370
     5
100
AcDbLine
 10
467.125378746891
 20
-35.58393516033775
 30
0.0
 11
717.1253787468803
 21
214.4160648396519
 31
0.0
  0
LINE
  5
44A
330
1F
100
AcDbEntity
  8
0-0
  6
JWW_DASHED1
 62
   120
370
     5
100
AcDbLine
 10
127.125378746895
 20
-375.5839351603338
 30
0.0
 11
377.1253787468842
 21
-125.5839351603441
 31
0.0
  0
LINE
  5
44B
330
1F
100
AcDbEntity
  8
0-0
  6
JWW_DASHED1
 62
   120
370
     5
100
AcDbLine
 10
467.1253787468868
 20
-42.65500297362749
 30
0.0
 11
717.1253787468786
 21
207.3449970263643
 31
0.0
  0
LINE
  5
44C
330
1F
100
AcDbEntity
  8
0-0
  6
JWW_DASHED1
 62
   120
370
     5
100
AcDbLine
 10
127.1253787468882
 20
-382.6550029736261
 30
0.0
 11
377.1253787468791
 21
-132.6550029736347
 31
0.0
  0
LINE
  5
44D
330
1F
100
AcDbEntity
  8
0-0
  6
JWW_DASHED1
 62
   120
370
     5
100
AcDbLine
 10
467.1253787468748
 20
-49.72607078692491
 30
0.0
 11
717.125378746882
 21
200.2739292130826
 31
0.0
  0
LINE
  5
44E
330
1F
100
AcDbEntity
  8
0-0
  6
JWW_DASHED1
 62
   120
370
     5
100
AcDbLine
 10
127.1253787468916
 20
-389.7260707869082
 30
0.0
 11
377.1253787468834
 21
-139.7260707869164
 31
0.0
  0
LINE
  5
44F
330
1F
100
AcDbEntity
  8
0-0
  6
JWW_DASHED1
 62
   120
370
     5
100
AcDbLine
 10
467.1253787468834
 20
-56.79713860014729
 30
0.0
 11
717.1253787468905
 21
193.2028613998602
 31
0.0
  0
LINE
  5
450
330
1F
100
AcDbEntity
  8
0-0
  6
JWW_DASHED1
 62
   120
370
     5
100
AcDbLine
 10
127.1253787468848
 20
-396.7971386001459
 30
0.0
 11
377.125378746891
 21
-146.7971386001392
 31
0.0
  0
LINE
  5
451
330
1F
100
AcDbEntity
  8
0-0
  6
JWW_DASHED1
 62
   120
370
     5
100
AcDbLine
 10
467.1253787468876
 20
-63.86820641342851
 30
0.0
 11
717.1253787468786
 21
186.1317935865628
 31
0.0
  0
LINE
  5
452
330
1F
100
AcDbEntity
  8
0-0
  6
JWW_DASHED1
 62
   120
370
     5
100
AcDbLine
 10
127.1253787468882
 20
-403.868206413428
 30
0.0
 11
377.1253787468962
 21
-153.86820641342
 31
0.0
  0
LINE
  5
453
330
1F
100
AcDbEntity
  8
0-0
  6
JWW_DASHED1
 62
   120
370
     5
100
AcDbLine
 10
467.1253787468842
 20
-70.9392742267174
 30
0.0
 11
717.1253787468735
 21
179.0607257732722
 31
0.0
  0
LINE
  5
454
330
1F
100
AcDbEntity
  8
0-0
  6
JWW_DASHED1
 62
   120
370
     5
100
AcDbLine
 10
127.1253787468882
 20
-410.9392742267135
 30
0.0
 11
377.1253787468774
 21
-160.9392742267238
 31
0.0
  0
LINE
  5
455
330
1F
100
AcDbEntity
  8
0-0
  6
JWW_DASHED1
 62
   120
370
     5
100
AcDbLine
 10
467.1253787468885
 20
-78.01034203999862
 30
0.0
 11
717.1253787468778
 21
171.989657959991
 31
0.0
  0
LINE
  5
456
330
1F
100
AcDbEntity
  8
0-0
  6
JWW_DASHED1
 62
   120
370
     5
100
AcDbLine
 10
127.1253787468916
 20
-418.0103420399946
 30
0.0
 11
377.1253787468817
 21
-168.0103420400054
 31
0.0
  0
LINE
  5
457
330
1F
100
AcDbEntity
  8
0-0
  6
JWW_DASHED1
 62
   120
370
     5
100
AcDbLine
 10
467.1253787468834
 20
-85.08140985328922
 30
0.0
 11
717.1253787468752
 21
164.9185901467025
 31
0.0
  0
LINE
  5
458
330
1F
100
AcDbEntity
  8
0-0
  6
JWW_DASHED1
 62
   120
370
     5
100
AcDbLine
 10
127.1253787468848
 20
-425.0814098532878
 30
0.0
 11
377.1253787468757
 21
-175.081409853296
 31
0.0
  0
LINE
  5
459
330
1F
100
AcDbEntity
  8
0-0
  6
JWW_DASHED1
 62
   120
370
     5
100
AcDbLine
 10
467.1253787468876
 20
-92.15247766657043
 30
0.0
 11
717.1253787468795
 21
157.8475223334213
 31
0.0
  0
LINE
  5
45A
330
1F
100
AcDbEntity
  8
0-0
  6
JWW_DASHED1
 62
   120
370
     5
100
AcDbLine
 10
127.1253787468882
 20
-432.152477666569
 30
0.0
 11
377.12537874688
 21
-182.1524776665781
 31
0.0
  0
LINE
  5
45B
330
1F
100
AcDbEntity
  8
0-0
  6
JWW_DASHED1
 62
   120
370
     5
100
AcDbLine
 10
467.1253787468757
 20
-99.22354547986785
 30
0.0
 11
717.1253787468829
 21
150.7764545201397
 31
0.0
  0
LINE
  5
45C
330
1F
100
AcDbEntity
  8
0-0
  6
JWW_DASHED1
 62
   120
370
     5
100
AcDbLine
 10
127.1253787468925
 20
-439.2235454798511
 30
0.0
 11
377.1253787468842
 21
-189.2235454798593
 31
0.0
  0
LINE
  5
45D
330
1F
100
AcDbEntity
  8
0-0
  6
JWW_DASHED1
 62
   120
370
     5
100
AcDbLine
 10
467.12537874688
 20
-106.2946132931491
 30
0.0
 11
717.1253787468871
 21
143.705386706858
 31
0.0
  0
LINE
  5
45E
330
1F
100
AcDbEntity
  8
0-0
  6
JWW_DASHED1
 62
   120
370
     5
100
AcDbLine
 10
127.1253787468805
 20
-446.2946132931481
 30
0.0
 11
377.1253787468876
 21
-196.2946132931405
 31
0.0
  0
LINE
  5
45F
330
1F
100
AcDbEntity
  8
0-0
  6
JWW_DASHED1
 62
   120
370
     5
100
AcDbLine
 10
467.1253787468842
 20
-113.3656811064303
 30
0.0
 11
717.1253787468914
 21
136.6343188935768
 31
0.0
  0
LINE
  5
460
330
1F
100
AcDbEntity
  8
0-0
  6
JWW_DASHED1
 62
   120
370
     5
100
AcDbLine
 10
127.1253787468848
 20
-453.3656811064297
 30
0.0
 11
377.1253787468919
 21
-203.3656811064222
 31
0.0
  0
LINE
  5
461
330
1F
100
AcDbEntity
  8
0-0
  6
JWW_DASHED1
 62
   120
370
     5
100
AcDbLine
 10
467.1253787468859
 20
-120.4367489196595
 30
0.0
 11
717.1253787468752
 21
129.5632510803297
 31
0.0
  0
LINE
  5
462
330
1F
100
AcDbEntity
  8
0-0
  6
JWW_DASHED1
 62
   120
370
     5
100
AcDbLine
 10
127.1253787468891
 20
-460.4367489196559
 30
0.0
 11
377.1253787468791
 21
-210.4367489196663
 31
0.0
  0
LINE
  5
463
330
1F
100
AcDbEntity
  8
0-0
  6
JWW_DASHED1
 62
   120
370
     5
100
AcDbLine
 10
467.1253787468893
 20
-127.5078167329416
 30
0.0
 11
717.1253787468786
 21
122.4921832670481
 31
0.0
  0
LINE
  5
464
330
1F
100
AcDbEntity
  8
0-0
  6
JWW_DASHED1
 62
   120
370
     5
100
AcDbLine
 10
127.1253787468933
 20
-467.5078167329376
 30
0.0
 11
377.1253787468825
 21
-217.5078167329475
 31
0.0
  0
LINE
  5
465
330
1F
100
AcDbEntity
  8
0-0
  6
JWW_DASHED1
 62
   120
370
     5
100
AcDbLine
 10
467.1253787468842
 20
-134.5788845462322
 30
0.0
 11
717.1253787468761
 21
115.4211154537596
 31
0.0
  0
LINE
  5
466
330
1F
100
AcDbEntity
  8
0-0
  6
JWW_DASHED1
 62
   120
370
     5
100
AcDbLine
 10
127.1253787468848
 20
-474.5788845462309
 30
0.0
 11
377.1253787468774
 21
-224.5788845462394
 31
0.0
  0
LINE
  5
467
330
1F
100
AcDbEntity
  8
0-0
  6
JWW_DASHED1
 62
   120
370
     5
100
AcDbLine
 10
467.1253787468885
 20
-141.6499523595134
 30
0.0
 11
717.1253787468803
 21
108.3500476404784
 31
0.0
  0
LINE
  5
468
330
1F
100
AcDbEntity
  8
0-0
  6
JWW_DASHED1
 62
   120
370
     5
100
AcDbLine
 10
127.1253787468891
 20
-481.6499523595124
 30
0.0
 11
377.1253787468808
 21
-231.6499523595211
 31
0.0
  0
LINE
  5
469
330
1F
100
AcDbEntity
  8
0-0
  6
JWW_DASHED1
 62
   120
370
     5
100
AcDbLine
 10
467.1253787468765
 20
-148.7210201728108
 30
0.0
 11
717.1253787468837
 21
101.2789798271967
 31
0.0
  0
LINE
  5
46A
330
1F
100
AcDbEntity
  8
0-0
  6
JWW_DASHED1
 62
   120
370
     5
100
AcDbLine
 10
127.1253787468933
 20
-488.7210201727941
 30
0.0
 11
377.1253787468851
 21
-238.7210201728023
 31
0.0
  0
LINE
  5
46B
330
1F
100
AcDbEntity
  8
0-0
  6
JWW_DASHED1
 62
   120
370
     5
100
AcDbLine
 10
467.1253787468808
 20
-155.792087986092
 30
0.0
 11
717.125378746888
 21
94.20791201391509
 31
0.0
  0
LINE
  5
46C
330
1F
100
AcDbEntity
  8
0-0
  6
JWW_DASHED1
 62
   120
370
     5
100
AcDbLine
 10
127.1253787468814
 20
-495.792087986091
 30
0.0
 11
377.1253787468893
 21
-245.7920879860835
 31
0.0
  0
LINE
  5
46D
330
1F
100
AcDbEntity
  8
0-0
  6
JWW_DASHED1
 62
   120
370
     5
100
AcDbLine
 10
467.1253787468842
 20
-162.8631557993737
 30
0.0
 11
717.1253787468761
 21
87.1368442006181
 31
0.0
  0
LINE
  5
46E
330
1F
100
AcDbEntity
  8
0-0
  6
JWW_DASHED1
 62
   120
370
     5
100
AcDbLine
 10
127.1253787468848
 20
-502.8631557993729
 30
0.0
 11
377.1253787468927
 21
-252.8631557993651
 31
0.0
  0
LINE
  5
46F
330
1F
100
AcDbEntity
  8
0-0
  6
JWW_DASHED1
 62
   120
370
     5
100
AcDbLine
 10
467.1253787468885
 20
-169.9342236126553
 30
0.0
 11
717.1253787468803
 21
80.06577638733646
 31
0.0
  0
LINE
  5
470
330
1F
100
AcDbEntity
  8
0-0
  6
JWW_DASHED1
 62
   120
370
     5
100
AcDbLine
 10
127.1253787468891
 20
-509.9342236126541
 30
0.0
 11
377.1253787468808
 21
-259.9342236126621
 31
0.0
  0
LINE
  5
471
330
1F
100
AcDbEntity
  8
0-0
  6
JWW_DASHED1
 62
   120
370
     5
100
AcDbLine
 10
467.1253787468868
 20
-177.0052914259425
 30
0.0
 11
717.1253787468761
 21
72.99470857404671
 31
0.0
  0
LINE
  5
472
330
1F
100
AcDbEntity
  8
0-0
  6
JWW_DASHED1
 62
   120
370
     5
100
AcDbLine
 10
127.1253787468899
 20
-517.0052914259387
 30
0.0
 11
377.12537874688
 21
-267.0052914259493
 31
0.0
  0
LINE
  5
473
330
1F
100
AcDbEntity
  8
0-0
  6
JWW_DASHED1
 62
   120
370
     5
100
AcDbLine
 10
467.1253787468851
 20
-184.0763592391751
 30
0.0
 11
717.1253787468769
 21
65.92364076081665
 31
0.0
  0
LINE
  5
474
330
1F
100
AcDbEntity
  8
0-0
  6
JWW_DASHED1
 62
   120
370
     5
100
AcDbLine
 10
127.1253787468865
 20
-524.0763592391739
 30
0.0
 11
377.1253787468774
 21
-274.0763592391824
 31
0.0
  0
LINE
  5
475
330
1F
100
AcDbEntity
  8
0-0
  6
JWW_DASHED1
 62
   120
370
     5
100
AcDbLine
 10
467.1253787468731
 20
-191.1474270524721
 30
0.0
 11
717.1253787468812
 21
58.85257294753544
 31
0.0
  0
LINE
  5
476
330
1F
100
AcDbEntity
  8
0-0
  6
JWW_DASHED1
 62
   120
370
     5
100
AcDbLine
 10
127.1253787468899
 20
-531.1474270524553
 30
0.0
 11
377.1253787468817
 21
-281.147427052464
 31
0.0
  0
LINE
  5
477
330
1F
100
AcDbEntity
  8
0-0
  6
JWW_DASHED1
 62
   120
370
     5
100
AcDbLine
 10
467.1253787468774
 20
-198.2184948657537
 30
0.0
 11
717.1253787468854
 21
51.78150513425379
 31
0.0
  0
LINE
  5
478
330
1F
100
AcDbEntity
  8
0-0
  6
JWW_DASHED1
 62
   120
370
     5
100
AcDbLine
 10
127.125378746878
 20
-538.2184948657527
 30
0.0
 11
377.1253787468859
 21
-288.2184948657452
 31
0.0
  0
LINE
  5
479
330
1F
100
AcDbEntity
  8
0-0
  6
JWW_DASHED1
 62
   120
370
     5
100
AcDbLine
 10
467.1253787468817
 20
-205.289562679035
 30
0.0
 11
717.1253787468888
 21
44.71043732097215
 31
0.0
  0
LINE
  5
47A
330
1F
100
AcDbEntity
  8
0-0
  6
JWW_DASHED1
 62
   120
370
     5
100
AcDbLine
 10
127.1253787468822
 20
-545.2895626790339
 30
0.0
 11
377.1253787468893
 21
-295.2895626790264
 31
0.0
  0
LINE
  5
47B
330
1F
100
AcDbEntity
  8
0-0
  6
JWW_DASHED1
 62
   120
370
     5
100
AcDbLine
 10
467.1253787468859
 20
-212.3606304923166
 30
0.0
 11
717.1253787468769
 21
37.63936950767516
 31
0.0
  0
LINE
  5
47C
330
1F
100
AcDbEntity
  8
0-0
  6
JWW_DASHED1
 62
   120
370
     5
100
AcDbLine
 10
127.1253787468865
 20
-552.3606304923156
 30
0.0
 11
377.1253787468936
 21
-302.3606304923085
 31
0.0
  0
LINE
  5
47D
330
1F
100
AcDbEntity
  8
0-0
  6
JWW_DASHED1
 62
   120
370
     5
100
AcDbLine
 10
467.1253787468893
 20
-219.4316983055982
 30
0.0
 11
717.1253787468812
 21
30.56830169439351
 31
0.0
  0
LINE
  5
47E
330
1F
100
AcDbEntity
  8
0-0
  6
JWW_DASHED1
 62
   120
370
     5
100
AcDbLine
 10
127.1253787468899
 20
-559.4316983055973
 30
0.0
 11
377.1253787468825
 21
-309.4316983056051
 31
0.0
  0
LINE
  5
47F
330
1F
100
AcDbEntity
  8
0-0
  6
JWW_DASHED1
 62
   120
370
     5
100
AcDbLine
 10
467.1253787468876
 20
-226.5027661188854
 30
0.0
 11
717.1253787468769
 21
23.49723388110419
 31
0.0
  0
LINE
  5
480
330
1F
100
AcDbEntity
  8
0-0
  6
JWW_DASHED1
 62
   120
370
     5
100
AcDbLine
 10
127.1253787468916
 20
-566.5027661188815
 30
0.0
 11
377.1253787468808
 21
-316.5027661188923
 31
0.0
  0
LINE
  5
481
330
1F
100
AcDbEntity
  8
0-0
  6
JWW_DASHED1
 62
   120
370
     5
100
AcDbLine
 10
467.1253787468919
 20
-233.5738339321667
 30
0.0
 11
717.1253787468812
 21
16.42616606782298
 31
0.0
  0
LINE
  5
482
330
1F
100
AcDbEntity
  8
0-0
  6
JWW_DASHED1
 62
   120
370
     5
100
AcDbLine
 10
127.1253787468959
 20
-573.5738339321626
 30
0.0
 11
377.1253787468851
 21
-323.5738339321734
 31
0.0
  0
LINE
  5
483
330
1F
100
AcDbEntity
  8
0-0
  6
JWW_DASHED1
 62
   120
370
     5
100
AcDbLine
 10
467.1253787468859
 20
-240.6449017454581
 30
0.0
 11
717.1253787468769
 21
9.355098254533232
 31
0.0
  0
LINE
  5
484
330
1F
100
AcDbEntity
  8
0-0
  6
JWW_DASHED1
 62
   120
370
     5
100
AcDbLine
 10
127.1253787468865
 20
-580.6449017454573
 30
0.0
 11
377.1253787468783
 21
-330.6449017454657
 31
0.0
  0
LINE
  5
485
330
1F
100
AcDbEntity
  8
0-0
  6
JWW_DASHED1
 62
   120
370
     5
100
AcDbLine
 10
467.125378746874
 20
-247.7159695587555
 30
0.0
 11
717.1253787468812
 21
2.284030441251588
 31
0.0
  0
LINE
  5
486
330
1F
100
AcDbEntity
  8
0-0
  6
JWW_DASHED1
 62
   120
370
     5
100
AcDbLine
 10
127.1253787468908
 20
-587.7159695587385
 30
0.0
 11
377.1253787468825
 21
-337.715969558747
 31
0.0
  0
LINE
  5
487
330
1F
100
AcDbEntity
  8
0-0
  6
JWW_DASHED1
 62
   120
370
     5
100
AcDbLine
 10
467.1253787468825
 20
-254.7870373719779
 30
0.0
 11
717.1253787468897
 21
-4.787037371970797
 31
0.0
  0
LINE
  5
488
330
1F
100
AcDbEntity
  8
0-0
  6
JWW_DASHED1
 62
   120
370
     5
100
AcDbLine
 10
127.1253787468831
 20
-594.7870373719769
 30
0.0
 11
377.125378746891
 21
-344.7870373719698
 31
0.0
  0
LINE
  5
489
330
1F
100
AcDbEntity
  8
0-0
  6
JWW_DASHED1
 62
   120
370
     5
100
AcDbLine
 10
467.1253787468859
 20
-261.8581051852591
 30
0.0
 11
717.1253787468778
 21
-11.85810518526779
 31
0.0
  0
LINE
  5
48A
330
1F
100
AcDbEntity
  8
0-0
  6
JWW_DASHED1
 62
   120
370
     5
100
AcDbLine
 10
127.1253787468874
 20
-601.8581051852585
 30
0.0
 11
377.1253787468945
 21
-351.8581051852515
 31
0.0
  0
LINE
  5
48B
330
1F
100
AcDbEntity
  8
0-0
  6
JWW_DASHED1
 62
   120
370
     5
100
AcDbLine
 10
467.1253787468851
 20
-268.9291729985463
 30
0.0
 11
717.1253787468744
 21
-18.92917299855711
 31
0.0
  0
LINE
  5
48C
330
1F
100
AcDbEntity
  8
0-0
  6
JWW_DASHED1
 62
   120
370
     5
100
AcDbLine
 10
127.1253787468882
 20
-608.9291729985425
 30
0.0
 11
377.1253787468783
 21
-358.9291729985531
 31
0.0
  0
LINE
  5
48D
330
1F
100
AcDbEntity
  8
0-0
  6
JWW_DASHED1
 62
   120
370
     5
100
AcDbLine
 10
467.1253787468885
 20
-276.000240811828
 30
0.0
 11
717.1253787468786
 21
-26.00024081183832
 31
0.0
  0
LINE
  5
48E
330
1F
100
AcDbEntity
  8
0-0
  6
JWW_DASHED1
 62
   120
370
     5
100
AcDbLine
 10
127.1253787468933
 20
-616.0002408118238
 30
0.0
 11
377.1253787468825
 21
-366.0002408118344
 31
0.0
  0
LINE
  5
48F
330
1F
100
AcDbEntity
  8
0-0
  6
JWW_DASHED1
 62
   120
370
     5
100
AcDbLine
 10
467.1253787468825
 20
-283.0713086251199
 30
0.0
 11
717.1253787468744
 21
-33.07130862512807
 31
0.0
  0
LINE
  5
490
330
1F
100
AcDbEntity
  8
0-0
  6
JWW_DASHED1
 62
   120
370
     5
100
AcDbLine
 10
127.1253787468831
 20
-623.0713086251186
 30
0.0
 11
377.1253787468748
 21
-373.0713086251271
 31
0.0
  0
LINE
  5
491
330
1F
100
AcDbEntity
  8
0-0
  6
JWW_DASHED1
 62
   120
370
     5
100
AcDbLine
 10
467.1253787468868
 20
-290.142376438401
 30
0.0
 11
717.1253787468786
 21
-40.14237643840929
 31
0.0
  0
LINE
  5
492
330
1F
100
AcDbEntity
  8
0-0
  6
JWW_DASHED1
 62
   120
370
     5
100
AcDbLine
 10
127.1253787468874
 20
-630.1423764384002
 30
0.0
 11
377.1253787468791
 21
-380.1423764384087
 31
0.0
  0
LINE
  5
493
330
1F
100
AcDbEntity
  8
0-0
  6
JWW_DASHED1
 62
   120
370
     5
100
AcDbLine
 10
467.1253787468748
 20
-297.2134442516984
 30
0.0
 11
717.125378746882
 21
-47.21344425169136
 31
0.0
  0
LINE
  5
494
330
1F
100
AcDbEntity
  8
0-0
  6
JWW_DASHED1
 62
   120
370
     5
100
AcDbLine
 10
127.1253787468916
 20
-637.2134442516815
 30
0.0
 11
377.1253787468834
 21
-387.2134442516899
 31
0.0
  0
LINE
  5
495
330
1F
100
AcDbEntity
  8
0-0
  6
JWW_DASHED1
 62
   120
370
     5
100
AcDbLine
 10
467.1253787468791
 20
-304.2845120649797
 30
0.0
 11
717.1253787468863
 21
-54.28451206497257
 31
0.0
  0
LINE
  5
496
330
1F
100
AcDbEntity
  8
0-0
  6
JWW_DASHED1
 62
   120
370
     5
100
AcDbLine
 10
127.1253787468797
 20
-644.2845120649791
 30
0.0
 11
377.1253787468868
 21
-394.2845120649716
 31
0.0
  0
LINE
  5
497
330
1F
100
AcDbEntity
  8
0-0
  6
JWW_DASHED1
 62
   120
370
     5
100
AcDbLine
 10
467.1253787468825
 20
-311.3555798782609
 30
0.0
 11
717.1253787468905
 21
-61.35557987825379
 31
0.0
  0
LINE
  5
498
330
1F
100
AcDbEntity
  8
0-0
  6
JWW_DASHED1
 62
   120
370
     5
100
AcDbLine
 10
127.1253787468831
 20
-651.3555798782603
 30
0.0
 11
377.125378746891
 21
-401.3555798782533
 31
0.0
  0
LINE
  5
499
330
1F
100
AcDbEntity
  8
0-0
  6
JWW_DASHED1
 62
   120
370
     5
100
AcDbLine
 10
467.1253787468859
 20
-318.4266476914893
 30
0.0
 11
717.1253787468752
 21
-68.42664769149962
 31
0.0
  0
LINE
  5
49A
330
1F
100
AcDbEntity
  8
0-0
  6
JWW_DASHED1
 62
   120
370
     5
100
AcDbLine
 10
127.1253787468899
 20
-658.4266476914853
 30
0.0
 11
377.1253787468791
 21
-408.4266476914952
 31
0.0
  0
LINE
  5
49B
330
1F
100
AcDbEntity
  8
0-0
  6
JWW_DASHED1
 62
   120
370
     5
100
AcDbLine
 10
467.1253787468902
 20
-325.4977155047704
 30
0.0
 11
717.1253787468795
 21
-75.49771550478084
 31
0.0
  0
LINE
  5
49C
330
1F
100
AcDbEntity
  8
0-0
  6
JWW_DASHED1
 62
   120
370
     5
100
AcDbLine
 10
127.1253787468933
 20
-665.4977155047667
 30
0.0
 11
377.1253787468834
 21
-415.4977155047773
 31
0.0
  0
LINE
  5
49D
330
1F
100
AcDbEntity
  8
0-0
  6
JWW_DASHED1
 62
   120
370
     5
100
AcDbLine
 10
467.1253787468834
 20
-332.5687833180627
 30
0.0
 11
717.1253787468752
 21
-82.56878331807101
 31
0.0
  0
LINE
  5
49E
330
1F
100
AcDbEntity
  8
0-0
  6
JWW_DASHED1
 62
   120
370
     5
100
AcDbLine
 10
127.1253787468848
 20
-672.5687833180616
 30
0.0
 11
377.1253787468757
 21
-422.56878331807
 31
0.0
  0
LINE
  5
49F
330
1F
100
AcDbEntity
  8
0-0
  6
JWW_DASHED1
 62
   120
370
     5
100
AcDbLine
 10
467.1253787468876
 20
-339.639851131344
 30
0.0
 11
717.1253787468786
 21
-89.63985113135266
 31
0.0
  0
LINE
  5
4A0
330
1F
100
AcDbEntity
  8
0-0
  6
JWW_DASHED1
 62
   120
370
     5
100
AcDbLine
 10
127.1253787468882
 20
-679.6398511313432
 30
0.0
 11
377.12537874688
 21
-429.6398511313516
 31
0.0
  0
LINE
  5
4A1
330
1F
100
AcDbEntity
  8
0-0
  6
JWW_DASHED1
 62
   120
370
     5
100
AcDbLine
 10
467.1253787468757
 20
-346.7109189446414
 30
0.0
 11
717.1253787468829
 21
-96.7109189446343
 31
0.0
  0
LINE
  5
4A2
330
1F
100
AcDbEntity
  8
0-0
  6
JWW_DASHED1
 62
   120
370
     5
100
AcDbLine
 10
127.1253787468925
 20
-686.7109189446244
 30
0.0
 11
377.1253787468834
 21
-436.7109189446333
 31
0.0
  0
LINE
  5
4A3
330
1F
100
AcDbEntity
  8
0-0
  6
JWW_DASHED1
 62
   120
370
     5
100
AcDbLine
 10
467.1253787468791
 20
-353.7819867579226
 30
0.0
 11
717.1253787468871
 21
-103.7819867579155
 31
0.0
  0
LINE
  5
4A4
330
1F
100
AcDbEntity
  8
0-0
  6
JWW_DASHED1
 62
   120
370
     5
100
AcDbLine
 10
127.1253787468805
 20
-693.781986757922
 30
0.0
 11
377.1253787468876
 21
-443.7819867579141
 31
0.0
  0
LINE
  5
4A5
330
1F
100
AcDbEntity
  8
0-0
  6
JWW_DASHED1
 62
   120
370
     5
100
AcDbLine
 10
467.1253787468834
 20
-360.8530545712047
 30
0.0
 11
717.1253787468752
 21
-110.8530545712129
 31
0.0
  0
LINE
  5
4A6
330
1F
100
AcDbEntity
  8
0-0
  6
JWW_DASHED1
 62
   120
370
     5
100
AcDbLine
 10
127.1253787468848
 20
-700.8530545712033
 30
0.0
 11
377.1253787468919
 21
-450.8530545711957
 31
0.0
  0
LINE
  5
4A7
330
1F
100
AcDbEntity
  8
0-0
  6
JWW_DASHED1
 62
   120
370
     5
100
AcDbLine
 10
467.1253787468876
 20
-367.9241223844859
 30
0.0
 11
717.1253787468795
 21
-117.9241223844942
 31
0.0
  0
LINE
  5
4A8
330
1F
100
AcDbEntity
  8
0-0
  6
JWW_DASHED1
 62
   120
370
     5
100
AcDbLine
 10
127.1253787468882
 20
-707.9241223844847
 30
0.0
 11
377.12537874688
 21
-457.9241223844934
 31
0.0
  0
LINE
  5
4A9
330
1F
100
AcDbEntity
  8
0-0
  6
JWW_DASHED1
 62
   120
370
     5
100
AcDbLine
 10
467.1253787468876
 20
-374.9951901977714
 30
0.0
 11
717.1253787468769
 21
-124.9951901977822
 31
0.0
  0
LINE
  5
4AA
330
1F
100
AcDbEntity
  8
0-0
  6
JWW_DASHED1
 62
   120
370
     5
100
AcDbLine
 10
127.1253787468908
 20
-714.995190197768
 30
0.0
 11
377.1253787468808
 21
-464.9951901977784
 31
0.0
  0
LINE
  5
4AB
330
1F
100
AcDbEntity
  8
0-0
  6
JWW_DASHED1
 62
   120
370
     5
100
AcDbLine
 10
467.1253787468842
 20
-382.0662580110057
 30
0.0
 11
717.1253787468752
 21
-132.066258011014
 31
0.0
  0
LINE
  5
4AC
330
1F
100
AcDbEntity
  8
0-0
  6
JWW_DASHED1
 62
   120
370
     5
100
AcDbLine
 10
127.1253787468848
 20
-722.0662580110045
 30
0.0
 11
377.1253787468765
 21
-472.066258011013
 31
0.0
  0
LINE
  5
4AD
330
1F
100
AcDbEntity
  8
0-0
  6
JWW_DASHED1
 62
   120
370
     5
100
AcDbLine
 10
467.1253787468723
 20
-389.1373258243032
 30
0.0
 11
717.1253787468803
 21
-139.1373258242952
 31
0.0
  0
LINE
  5
4AE
330
1F
100
AcDbEntity
  8
0-0
  6
JWW_DASHED1
 62
   120
370
     5
100
AcDbLine
 10
127.1253787468891
 20
-729.1373258242861
 30
0.0
 11
377.1253787468808
 21
-479.1373258242944
 31
0.0
  0
LINE
  5
4AF
330
1F
100
AcDbEntity
  8
0-0
  6
JWW_DASHED1
 62
   120
370
     5
100
AcDbLine
 10
467.1253787468765
 20
-396.2083936375843
 30
0.0
 11
717.1253787468837
 21
-146.2083936375772
 31
0.0
  0
LINE
  5
4B0
330
1F
100
AcDbEntity
  8
0-0
  6
JWW_DASHED1
 62
   120
370
     5
100
AcDbLine
 10
127.1253787468771
 20
-736.2083936375834
 30
0.0
 11
377.1253787468851
 21
-486.2083936375758
 31
0.0
  0
LINE
  5
4B1
330
1F
100
AcDbEntity
  8
0-0
  6
JWW_DASHED1
 62
   120
370
     5
100
AcDbLine
 10
467.1253787468808
 20
-403.2794614508656
 30
0.0
 11
717.125378746888
 21
-153.2794614508585
 31
0.0
  0
LINE
  5
4B2
330
1F
100
AcDbEntity
  8
0-0
  6
JWW_DASHED1
 62
   120
370
     5
100
AcDbLine
 10
127.1253787468814
 20
-743.279461450865
 30
0.0
 11
377.1253787468885
 21
-493.2794614508575
 31
0.0
  0
LINE
  5
4B3
330
1F
100
AcDbEntity
  8
0-0
  6
JWW_DASHED1
 62
   120
370
     5
100
AcDbLine
 10
467.1253787468842
 20
-410.3505292641472
 30
0.0
 11
717.1253787468761
 21
-160.3505292641559
 31
0.0
  0
LINE
  5
4B4
330
1F
100
AcDbEntity
  8
0-0
  6
JWW_DASHED1
 62
   120
370
     5
100
AcDbLine
 10
127.1253787468848
 20
-750.3505292641464
 30
0.0
 11
377.1253787468927
 21
-500.3505292641389
 31
0.0
  0
LINE
  5
4B5
330
1F
100
AcDbEntity
  8
0-0
  6
JWW_DASHED1
 62
   120
370
     5
100
AcDbLine
 10
467.1253787468885
 20
-417.4215970774288
 30
0.0
 11
717.1253787468803
 21
-167.4215970774371
 31
0.0
  0
LINE
  5
4B6
330
1F
100
AcDbEntity
  8
0-0
  6
JWW_DASHED1
 62
   120
370
     5
100
AcDbLine
 10
127.1253787468899
 20
-757.4215970774277
 30
0.0
 11
377.1253787468808
 21
-507.4215970774363
 31
0.0
  0
LINE
  5
4B7
330
1F
100
AcDbEntity
  8
0-0
  6
JWW_DASHED1
 62
   120
370
     5
100
AcDbLine
 10
467.1253787468885
 20
-424.4926648907143
 30
0.0
 11
717.1253787468778
 21
-174.4926648907247
 31
0.0
  0
LINE
  5
4B8
330
1F
100
AcDbEntity
  8
0-0
  6
JWW_DASHED1
 62
   120
370
     5
100
AcDbLine
 10
127.1253787468916
 20
-764.4926648907108
 30
0.0
 11
377.1253787468817
 21
-514.4926648907209
 31
0.0
  0
LINE
  5
4B9
330
1F
100
AcDbEntity
  8
0-0
  6
JWW_DASHED1
 62
   120
370
     5
100
AcDbLine
 10
467.1253787468927
 20
-431.5637327039956
 30
0.0
 11
717.125378746882
 21
-181.5637327040064
 31
0.0
  0
LINE
  5
4BA
330
1F
100
AcDbEntity
  8
0-0
  6
JWW_DASHED1
 62
   120
370
     5
100
AcDbLine
 10
127.1253787468959
 20
-771.563732703992
 30
0.0
 11
377.1253787468859
 21
-521.5637327040026
 31
0.0
  0
LINE
  5
4BB
330
1F
100
AcDbEntity
  8
0-0
  6
JWW_DASHED1
 62
   120
370
     5
100
AcDbLine
 10
467.1253787468842
 20
-438.6348005172887
 30
0.0
 11
717.1253787468769
 21
-188.6348005172974
 31
0.0
  0
LINE
  5
4BC
330
1F
100
AcDbEntity
  8
0-0
  6
JWW_DASHED1
 62
   120
370
     5
100
AcDbLine
 10
127.1253787468857
 20
-778.6348005172881
 30
0.0
 11
377.1253787468774
 21
-528.6348005172966
 31
0.0
  0
LINE
  5
4BD
330
1F
100
AcDbEntity
  8
0-0
  6
JWW_DASHED1
 62
   120
370
     5
100
AcDbLine
 10
467.1253787468774
 20
-445.7058683305273
 30
0.0
 11
717.1253787468846
 21
-195.7058683305202
 31
0.0
  0
LINE
  5
4BE
330
1F
100
AcDbEntity
  8
0-0
  6
JWW_DASHED1
 62
   120
370
     5
100
AcDbLine
 10
127.125378746878
 20
-785.7058683305263
 30
0.0
 11
377.1253787468859
 21
-535.705868330519
 31
0.0
  0
LINE
  5
4BF
330
1F
100
AcDbEntity
  8
0-0
  6
JWW_DASHED1
 62
   120
370
     5
100
AcDbLine
 10
467.1253787468808
 20
-452.7769361438087
 30
0.0
 11
717.1253787468888
 21
-202.7769361438014
 31
0.0
  0
LINE
  5
4C0
330
1F
100
AcDbEntity
  8
0-0
  6
JWW_DASHED1
 62
   120
370
     5
100
AcDbLine
 10
127.1253787468822
 20
-792.7769361438079
 30
0.0
 11
377.1253787468893
 21
-542.7769361438004
 31
0.0
  0
LINE
  5
4C1
330
1F
100
AcDbEntity
  8
0-0
  6
JWW_DASHED1
 62
   120
370
     5
100
AcDbLine
 10
467.1253787468851
 20
-459.8480039570902
 30
0.0
 11
717.1253787468769
 21
-209.8480039570988
 31
0.0
  0
LINE
  5
4C2
330
1F
100
AcDbEntity
  8
0-0
  6
JWW_DASHED1
 62
   120
370
     5
100
AcDbLine
 10
127.1253787468865
 20
-799.8480039570894
 30
0.0
 11
377.1253787468936
 21
-549.8480039570818
 31
0.0
  0
LINE
  5
4C3
330
1F
100
AcDbEntity
  8
0-0
  6
JWW_DASHED1
 62
   120
370
     5
100
AcDbLine
 10
467.1253787468859
 20
-466.9190717703754
 30
0.0
 11
717.1253787468752
 21
-216.919071770386
 31
0.0
  0
LINE
  5
4C4
330
1F
100
AcDbEntity
  8
0-0
  6
JWW_DASHED1
 62
   120
370
     5
100
AcDbLine
 10
127.1253787468891
 20
-806.9190717703717
 30
0.0
 11
377.1253787468791
 21
-556.9190717703823
 31
0.0
  0
LINE
  5
4C5
330
1F
100
AcDbEntity
  8
0-0
  6
JWW_DASHED1
 62
   120
370
     5
100
AcDbLine
 10
467.1253787468893
 20
-473.9901395836569
 30
0.0
 11
717.1253787468786
 21
-223.9901395836672
 31
0.0
  0
LINE
  5
4C6
330
1F
100
AcDbEntity
  8
0-0
  6
JWW_DASHED1
 62
   120
370
     5
100
AcDbLine
 10
127.1253787468933
 20
-813.9901395836531
 30
0.0
 11
377.1253787468825
 21
-563.9901395836637
 31
0.0
  0
LINE
  5
4C7
330
1F
100
AcDbEntity
  8
0-0
  6
JWW_DASHED1
 62
   120
370
     5
100
AcDbLine
 10
467.1253787468817
 20
-481.0612073969504
 30
0.0
 11
717.1253787468735
 21
-231.0612073969587
 31
0.0
  0
LINE
  5
4C8
330
1F
100
AcDbEntity
  8
0-0
  6
JWW_DASHED1
 62
   120
370
     5
100
AcDbLine
 10
127.1253787468822
 20
-821.0612073969494
 30
0.0
 11
377.125378746874
 21
-571.0612073969579
 31
0.0
  0
LINE
  5
4C9
330
1F
100
AcDbEntity
  8
0-0
  6
JWW_DASHED1
 62
   120
370
     5
100
AcDbLine
 10
467.1253787468859
 20
-488.1322752102319
 30
0.0
 11
717.1253787468769
 21
-238.1322752102403
 31
0.0
  0
LINE
  5
4CA
330
1F
100
AcDbEntity
  8
0-0
  6
JWW_DASHED1
 62
   120
370
     5
100
AcDbLine
 10
127.1253787468865
 20
-828.1322752102307
 30
0.0
 11
377.1253787468774
 21
-578.1322752102395
 31
0.0
  0
LINE
  5
4CB
330
1F
100
AcDbEntity
  8
0-0
  6
JWW_DASHED1
 62
   120
370
     5
100
AcDbLine
 10
467.125378746874
 20
-495.2033430235291
 30
0.0
 11
717.1253787468812
 21
-245.203343023522
 31
0.0
  0
LINE
  5
4CC
330
1F
100
AcDbEntity
  8
0-0
  6
JWW_DASHED1
 62
   120
370
     5
100
AcDbLine
 10
127.1253787468908
 20
-835.2033430235123
 30
0.0
 11
377.1253787468817
 21
-585.203343023521
 31
0.0
  0
LINE
  5
4CD
330
1F
100
AcDbEntity
  8
0-0
  6
JWW_DASHED1
 62
   120
370
     5
100
AcDbLine
 10
467.1253787468774
 20
-502.2744108368107
 30
0.0
 11
717.1253787468854
 21
-252.2744108368032
 31
0.0
  0
LINE
  5
4CE
330
1F
100
AcDbEntity
  8
0-0
  6
JWW_DASHED1
 62
   120
370
     5
100
AcDbLine
 10
127.1253787468788
 20
-842.2744108368094
 30
0.0
 11
377.1253787468859
 21
-592.2744108368024
 31
0.0
  0
LINE
  5
4CF
330
1F
100
AcDbEntity
  8
0-0
  6
JWW_DASHED1
 62
   120
370
     5
100
AcDbLine
 10
467.1253787468859
 20
-509.3454786500331
 30
0.0
 11
717.1253787468778
 21
-259.3454786500417
 31
0.0
  0
LINE
  5
4D0
330
1F
100
AcDbEntity
  8
0-0
  6
JWW_DASHED1
 62
   120
370
     5
100
AcDbLine
 10
127.1253787468865
 20
-849.3454786500323
 30
0.0
 11
377.1253787468783
 21
-599.3454786500408
 31
0.0
  0
LINE
  5
4D1
330
1F
100
AcDbEntity
  8
0-0
  6
JWW_DASHED1
 62
   120
370
     5
100
AcDbLine
 10
467.1253787468868
 20
-516.4165464633179
 30
0.0
 11
717.1253787468761
 21
-266.4165464633285
 31
0.0
  0
LINE
  5
4D2
330
1F
100
AcDbEntity
  8
0-0
  6
JWW_DASHED1
 62
   120
370
     5
100
AcDbLine
 10
127.1253787468908
 20
-856.4165464633141
 30
0.0
 11
377.12537874688
 21
-606.416546463325
 31
0.0
  0
LINE
  5
4D3
330
1F
100
AcDbEntity
  8
0-0
  6
JWW_DASHED1
 62
   120
370
     5
100
AcDbLine
 10
467.125378746891
 20
-523.4876142765996
 30
0.0
 11
717.1253787468803
 21
-273.4876142766097
 31
0.0
  0
LINE
  5
4D4
330
1F
100
AcDbEntity
  8
0-0
  6
JWW_DASHED1
 62
   120
370
     5
100
AcDbLine
 10
127.125378746895
 20
-863.4876142765954
 30
0.0
 11
377.1253787468842
 21
-613.4876142766062
 31
0.0
  0
LINE
  5
4D5
330
1F
100
AcDbEntity
  8
0-0
  6
JWW_DASHED1
 62
   120
370
     5
100
AcDbLine
 10
467.1253787468825
 20
-530.5586820898934
 30
0.0
 11
717.1253787468735
 21
-280.558682089902
 31
0.0
  0
LINE
  5
4D6
330
1F
100
AcDbEntity
  8
0-0
  6
JWW_DASHED1
 62
   120
370
     5
100
AcDbLine
 10
127.1253787468831
 20
-870.5586820898924
 30
0.0
 11
377.1253787468748
 21
-620.5586820899008
 31
0.0
  0
LINE
  5
4D7
330
1F
100
AcDbEntity
  8
0-0
  6
JWW_DASHED1
 62
   120
370
     5
100
AcDbLine
 10
467.1253787468859
 20
-537.6297499031748
 30
0.0
 11
717.1253787468778
 21
-287.6297499031833
 31
0.0
  0
LINE
  5
4D8
330
1F
100
AcDbEntity
  8
0-0
  6
JWW_DASHED1
 62
   120
370
     5
100
AcDbLine
 10
127.1253787468874
 20
-877.6297499031737
 30
0.0
 11
377.1253787468791
 21
-627.6297499031821
 31
0.0
  0
LINE
  5
4D9
330
1F
100
AcDbEntity
  8
0-0
  6
JWW_DASHED1
 62
   120
370
     5
100
AcDbLine
 10
467.125378746874
 20
-544.7008177164722
 30
0.0
 11
717.125378746882
 21
-294.7008177164649
 31
0.0
  0
LINE
  5
4DA
330
1F
100
AcDbEntity
  8
0-0
  6
JWW_DASHED1
 62
   120
370
     5
100
AcDbLine
 10
127.1253787468908
 20
-884.7008177164557
 30
0.0
 11
377.1253787468825
 21
-634.7008177164637
 31
0.0
  0
LINE
  5
4DB
330
1F
100
AcDbEntity
  8
0-0
  6
JWW_DASHED1
 62
   120
370
     5
100
AcDbLine
 10
467.1253787468783
 20
-551.7718855297537
 30
0.0
 11
717.1253787468863
 21
-301.7718855297461
 31
0.0
  0
LINE
  5
4DC
330
1F
100
AcDbEntity
  8
0-0
  6
JWW_DASHED1
 62
   120
370
     5
100
AcDbLine
 10
127.1253787468797
 20
-891.7718855297525
 30
0.0
 11
377.1253787468868
 21
-641.7718855297453
 31
0.0
  0
LINE
  5
4DD
330
1F
100
AcDbEntity
  8
0-0
  6
JWW_DASHED1
 62
   120
370
     5
100
AcDbLine
 10
467.1253787468825
 20
-558.8429533430351
 30
0.0
 11
717.1253787468744
 21
-308.8429533430435
 31
0.0
  0
LINE
  5
4DE
330
1F
100
AcDbEntity
  8
0-0
  6
JWW_DASHED1
 62
   120
370
     5
100
AcDbLine
 10
127.1253787468831
 20
-898.8429533430341
 30
0.0
 11
377.125378746891
 21
-648.8429533430266
 31
0.0
  0
LINE
  5
4DF
330
1F
100
AcDbEntity
  8
0-0
  6
JWW_DASHED1
 62
   120
370
     5
100
AcDbLine
 10
467.1253787468868
 20
-565.9140211563165
 30
0.0
 11
717.1253787468786
 21
-315.9140211563248
 31
0.0
  0
LINE
  5
4E0
330
1F
100
AcDbEntity
  8
0-0
  6
JWW_DASHED1
 62
   120
370
     5
100
AcDbLine
 10
127.1253787468874
 20
-905.9140211563156
 30
0.0
 11
377.1253787468791
 21
-655.914021156324
 31
0.0
  0
LINE
  5
4E1
330
1F
100
AcDbEntity
  8
0-0
  6
JWW_DASHED1
 62
   120
370
     5
100
AcDbLine
 10
467.1253787468919
 20
-572.9850889695421
 30
0.0
 11
717.125378746882
 21
-322.9850889695527
 31
0.0
  0
LINE
  5
4E2
330
1F
100
AcDbEntity
  8
0-0
  6
JWW_DASHED1
 62
   120
370
     5
100
AcDbLine
 10
127.1253787468959
 20
-912.985088969538
 30
0.0
 11
377.1253787468851
 21
-662.9850889695488
 31
0.0
  0
LINE
  5
4E3
330
1F
100
AcDbEntity
  8
0-0
  6
JWW_DASHED1
 62
   120
370
     5
100
AcDbLine
 10
467.1253787468834
 20
-580.0561567828363
 30
0.0
 11
717.1253787468752
 21
-330.056156782845
 31
0.0
  0
LINE
  5
4E4
330
1F
100
AcDbEntity
  8
0-0
  6
JWW_DASHED1
 62
   120
370
     5
100
AcDbLine
 10
128.0490418707928
 20
-919.1324936589265
 30
0.0
 11
377.1253787468757
 21
-670.0561567828438
 31
0.0
  0
LINE
  5
4E5
330
1F
100
AcDbEntity
  8
0-0
  6
JWW_DASHED1
 62
   120
370
     5
100
AcDbLine
 10
467.1253787468876
 20
-587.1272245961178
 30
0.0
 11
717.1253787468786
 21
-337.1272245961267
 31
0.0
  0
LINE
  5
4E6
330
1F
100
AcDbEntity
  8
0-0
  6
JWW_DASHED1
 62
   120
370
     5
100
AcDbLine
 10
135.120109684074
 20
-919.1324936589308
 30
0.0
 11
377.12537874688
 21
-677.127224596125
 31
0.0
  0
LINE
  5
4E7
330
1F
100
AcDbEntity
  8
0-0
  6
JWW_DASHED1
 62
   120
370
     5
100
AcDbLine
 10
467.1253787468757
 20
-594.1982924094152
 30
0.0
 11
717.1253787468829
 21
-344.1982924094078
 31
0.0
  0
LINE
  5
4E8
330
1F
100
AcDbEntity
  8
0-0
  6
JWW_DASHED1
 62
   120
370
     5
100
AcDbLine
 10
142.1911774973714
 20
-919.1324936589193
 30
0.0
 11
377.1253787468842
 21
-684.1982924094067
 31
0.0
  0
LINE
  5
4E9
330
1F
100
AcDbEntity
  8
0-0
  6
JWW_DASHED1
 62
   120
370
     5
100
AcDbLine
 10
467.1253787468791
 20
-601.2693602226966
 30
0.0
 11
717.1253787468871
 21
-351.2693602226891
 31
0.0
  0
LINE
  5
4EA
330
1F
100
AcDbEntity
  8
0-0
  6
JWW_DASHED1
 62
   120
370
     5
100
AcDbLine
 10
149.2622453106518
 20
-919.1324936589237
 30
0.0
 11
377.1253787468876
 21
-691.2693602226883
 31
0.0
  0
LINE
  5
4EB
330
1F
100
AcDbEntity
  8
0-0
  6
JWW_DASHED1
 62
   120
370
     5
100
AcDbLine
 10
467.1253787468834
 20
-608.340428035978
 30
0.0
 11
717.1253787468752
 21
-358.3404280359865
 31
0.0
  0
LINE
  5
4EC
330
1F
100
AcDbEntity
  8
0-0
  6
JWW_DASHED1
 62
   120
370
     5
100
AcDbLine
 10
156.3333131239338
 20
-919.1324936589276
 30
0.0
 11
377.1253787468919
 21
-698.3404280359695
 31
0.0
  0
LINE
  5
4ED
330
1F
100
AcDbEntity
  8
0-0
  6
JWW_DASHED1
 62
   120
370
     5
100
AcDbLine
 10
467.1253787468876
 20
-615.4114958492595
 30
0.0
 11
717.1253787468786
 21
-365.4114958492677
 31
0.0
  0
LINE
  5
4EE
330
1F
100
AcDbEntity
  8
0-0
  6
JWW_DASHED1
 62
   120
370
     5
100
AcDbLine
 10
163.4043809372176
 20
-919.1324936589293
 30
0.0
 11
377.12537874688
 21
-705.4114958492671
 31
0.0
  0
LINE
  5
4EF
330
1F
100
AcDbEntity
  8
0-0
  6
JWW_DASHED1
 62
   120
370
     5
100
AcDbLine
 10
467.1253787468893
 20
-622.4825636625435
 30
0.0
 11
717.1253787468786
 21
-372.4825636625541
 31
0.0
  0
LINE
  5
4F0
330
1F
100
AcDbEntity
  8
0-0
  6
JWW_DASHED1
 62
   120
370
     5
100
AcDbLine
 10
170.4754487504988
 20
-919.1324936589334
 30
0.0
 11
377.1253787468825
 21
-712.4825636625503
 31
0.0
  0
LINE
  5
4F1
330
1F
100
AcDbEntity
  8
0-0
  6
JWW_DASHED1
 62
   120
370
     5
100
AcDbLine
 10
467.1253787468927
 20
-629.5536314758249
 30
0.0
 11
717.1253787468829
 21
-379.5536314758352
 31
0.0
  0
LINE
  5
4F2
330
1F
100
AcDbEntity
  8
0-0
  6
JWW_DASHED1
 62
   120
370
     5
100
AcDbLine
 10
177.54651656378
 20
-919.1324936589374
 30
0.0
 11
377.1253787468859
 21
-719.5536314758315
 31
0.0
  0
LINE
  5
4F3
330
1F
100
AcDbEntity
  8
0-0
  6
JWW_DASHED1
 62
   120
370
     5
100
AcDbLine
 10
467.1253787468859
 20
-636.6246992890904
 30
0.0
 11
717.1253787468778
 21
-386.6246992890985
 31
0.0
  0
LINE
  5
4F4
330
1F
100
AcDbEntity
  8
0-0
  6
JWW_DASHED1
 62
   120
370
     5
100
AcDbLine
 10
184.6175843770485
 20
-919.1324936589269
 30
0.0
 11
377.1253787468783
 21
-726.6246992890976
 31
0.0
  0
LINE
  5
4F5
330
1F
100
AcDbEntity
  8
0-0
  6
JWW_DASHED1
 62
   120
370
     5
100
AcDbLine
 10
467.1253787468765
 20
-643.6957671023579
 30
0.0
 11
717.1253787468837
 21
-393.6957671023508
 31
0.0
  0
LINE
  5
4F6
330
1F
100
AcDbEntity
  8
0-0
  6
JWW_DASHED1
 62
   120
370
     5
100
AcDbLine
 10
191.6886521903126
 20
-919.1324936589215
 30
0.0
 11
377.1253787468842
 21
-733.69576710235
 31
0.0
  0
LINE
  5
4F7
330
1F
100
AcDbEntity
  8
0-0
  6
JWW_DASHED1
 62
   120
370
     5
100
AcDbLine
 10
467.12537874688
 20
-650.7668349156395
 30
0.0
 11
717.125378746888
 21
-400.766834915632
 31
0.0
  0
LINE
  5
4F8
330
1F
100
AcDbEntity
  8
0-0
  6
JWW_DASHED1
 62
   120
370
     5
100
AcDbLine
 10
198.7597200035939
 20
-919.1324936589255
 30
0.0
 11
377.1253787468885
 21
-740.7668349156312
 31
0.0
  0
LINE
  5
4F9
330
1F
100
AcDbEntity
  8
0-0
  6
JWW_DASHED1
 62
   120
370
     5
100
AcDbLine
 10
467.1253787468842
 20
-657.8379027289212
 30
0.0
 11
717.1253787468761
 21
-407.8379027289294
 31
0.0
  0
LINE
  5
4FA
330
1F
100
AcDbEntity
  8
0-0
  6
JWW_DASHED1
 62
   120
370
     5
100
AcDbLine
 10
205.8307878168759
 20
-919.1324936589298
 30
0.0
 11
377.1253787468927
 21
-747.8379027289125
 31
0.0
  0
LINE
  5
4FB
330
1F
100
AcDbEntity
  8
0-0
  6
JWW_DASHED1
 62
   120
370
     5
100
AcDbLine
 10
467.1253787468859
 20
-664.9089705422045
 30
0.0
 11
717.1253787468761
 21
-414.9089705422149
 31
0.0
  0
LINE
  5
4FC
330
1F
100
AcDbEntity
  8
0-0
  6
JWW_DASHED1
 62
   120
370
     5
100
AcDbLine
 10
212.9018556301623
 20
-919.1324936589283
 30
0.0
 11
377.1253787468791
 21
-754.9089705422114
 31
0.0
  0
LINE
  5
4FD
330
1F
100
AcDbEntity
  8
0-0
  6
JWW_DASHED1
 62
   120
370
     5
100
AcDbLine
 10
467.1253787468902
 20
-671.9800383554857
 30
0.0
 11
717.1253787468803
 21
-421.9800383554962
 31
0.0
  0
LINE
  5
4FE
330
1F
100
AcDbEntity
  8
0-0
  6
JWW_DASHED1
 62
   120
370
     5
100
AcDbLine
 10
219.9729234434435
 20
-919.1324936589323
 30
0.0
 11
377.1253787468834
 21
-761.9800383554925
 31
0.0
  0
LINE
  5
4FF
330
1F
100
AcDbEntity
  8
0-0
  6
JWW_DASHED1
 62
   120
370
     5
100
AcDbLine
 10
467.1253787468808
 20
-679.0511061687813
 30
0.0
 11
717.1253787468718
 21
-429.0511061687893
 31
0.0
  0
LINE
  5
500
330
1F
100
AcDbEntity
  8
0-0
  6
JWW_DASHED1
 62
   120
370
     5
100
AcDbLine
 10
227.0439912567409
 20
-919.1324936589206
 30
0.0
 11
377.1253787468731
 21
-769.0511061687887
 31
0.0
  0
LINE
  5
501
330
1F
100
AcDbEntity
  8
0-0
  6
JWW_DASHED1
 62
   120
370
     5
100
AcDbLine
 10
467.1253787468842
 20
-686.1221739820629
 30
0.0
 11
717.1253787468761
 21
-436.1221739820713
 31
0.0
  0
LINE
  5
502
330
1F
100
AcDbEntity
  8
0-0
  6
JWW_DASHED1
 62
   120
370
     5
100
AcDbLine
 10
234.115059070023
 20
-919.1324936589242
 30
0.0
 11
377.1253787468765
 21
-776.1221739820702
 31
0.0
  0
LINE
  5
503
330
1F
100
AcDbEntity
  8
0-0
  6
JWW_DASHED1
 62
   120
370
     5
100
AcDbLine
 10
467.1253787468723
 20
-693.1932417953599
 30
0.0
 11
717.1253787468803
 21
-443.1932417953526
 31
0.0
  0
LINE
  5
504
330
1F
100
AcDbEntity
  8
0-0
  6
JWW_DASHED1
 62
   120
370
     5
100
AcDbLine
 10
241.186126883305
 20
-919.1324936589281
 30
0.0
 11
377.1253787468808
 21
-783.1932417953516
 31
0.0
  0
LINE
  5
505
330
1F
100
AcDbEntity
  8
0-0
  6
JWW_DASHED1
 62
   120
370
     5
100
AcDbLine
 10
467.1253787468791
 20
-700.2643096086117
 30
0.0
 11
717.1253787468863
 21
-450.2643096086046
 31
0.0
  0
LINE
  5
506
330
1F
100
AcDbEntity
  8
0-0
  6
JWW_DASHED1
 62
   120
370
     5
100
AcDbLine
 10
248.2571946965649
 20
-919.1324936589255
 30
0.0
 11
377.1253787468868
 21
-790.2643096086038
 31
0.0
  0
LINE
  5
507
330
1F
100
AcDbEntity
  8
0-0
  6
JWW_DASHED1
 62
   120
370
     5
100
AcDbLine
 10
467.1253787468851
 20
-707.3353774218638
 30
0.0
 11
717.1253787468769
 21
-457.3353774218722
 31
0.0
  0
LINE
  5
508
330
1F
100
AcDbEntity
  8
0-0
  6
JWW_DASHED1
 62
   120
370
     5
100
AcDbLine
 10
255.3282625098172
 20
-919.1324936589317
 30
0.0
 11
377.1253787468936
 21
-797.3353774218552
 31
0.0
  0
LINE
  5
509
330
1F
100
AcDbEntity
  8
0-0
  6
JWW_DASHED1
 62
   120
370
     5
100
AcDbLine
 10
467.1253787468876
 20
-714.4064452351473
 30
0.0
 11
717.1253787468769
 21
-464.4064452351577
 31
0.0
  0
LINE
  5
50A
330
1F
100
AcDbEntity
  8
0-0
  6
JWW_DASHED1
 62
   120
370
     5
100
AcDbLine
 10
262.3993303231069
 20
-919.1324936589274
 30
0.0
 11
377.1253787468808
 21
-804.4064452351537
 31
0.0
  0
LINE
  5
50B
330
1F
100
AcDbEntity
  8
0-0
  6
JWW_DASHED1
 62
   120
370
     5
100
AcDbLine
 10
467.125378746891
 20
-721.4775130484287
 30
0.0
 11
717.1253787468812
 21
-471.4775130484391
 31
0.0
  0
LINE
  5
50C
330
1F
100
AcDbEntity
  8
0-0
  6
JWW_DASHED1
 62
   120
370
     5
100
AcDbLine
 10
269.470398136389
 20
-919.1324936589315
 30
0.0
 11
377.1253787468842
 21
-811.4775130484355
 31
0.0
  0
LINE
  5
50D
330
1F
100
AcDbEntity
  8
0-0
  6
JWW_DASHED1
 62
   120
370
     5
100
AcDbLine
 10
467.1253787468808
 20
-728.5485808617242
 30
0.0
 11
717.1253787468735
 21
-478.5485808617324
 31
0.0
  0
LINE
  5
50E
330
1F
100
AcDbEntity
  8
0-0
  6
JWW_DASHED1
 62
   120
370
     5
100
AcDbLine
 10
276.5414659496864
 20
-919.1324936589189
 30
0.0
 11
377.125378746874
 21
-818.5485808617317
 31
0.0
  0
LINE
  5
50F
330
1F
100
AcDbEntity
  8
0-0
  6
JWW_DASHED1
 62
   120
370
     5
100
AcDbLine
 10
467.1253787468851
 20
-735.6196486750057
 30
0.0
 11
717.1253787468769
 21
-485.6196486750141
 31
0.0
  0
LINE
  5
510
330
1F
100
AcDbEntity
  8
0-0
  6
JWW_DASHED1
 62
   120
370
     5
100
AcDbLine
 10
283.6125337629684
 20
-919.132493658923
 30
0.0
 11
377.1253787468774
 21
-825.6196486750133
 31
0.0
  0
LINE
  5
511
330
1F
100
AcDbEntity
  8
0-0
  6
JWW_DASHED1
 62
   120
370
     5
100
AcDbLine
 10
467.125378746874
 20
-742.6907164883029
 30
0.0
 11
717.1253787468812
 21
-492.6907164882955
 31
0.0
  0
LINE
  5
512
330
1F
100
AcDbEntity
  8
0-0
  6
JWW_DASHED1
 62
   120
370
     5
100
AcDbLine
 10
290.6836015762497
 20
-919.1324936589266
 30
0.0
 11
377.1253787468817
 21
-832.6907164882946
 31
0.0
  0
LINE
  5
513
330
1F
100
AcDbEntity
  8
0-0
  6
JWW_DASHED1
 62
   120
370
     5
100
AcDbLine
 10
467.1253787468774
 20
-749.761784301584
 30
0.0
 11
717.1253787468854
 21
-499.7617843015769
 31
0.0
  0
LINE
  5
514
330
1F
100
AcDbEntity
  8
0-0
  6
JWW_DASHED1
 62
   120
370
     5
100
AcDbLine
 10
297.754669389536
 20
-919.1324936589255
 30
0.0
 11
377.1253787468859
 21
-839.7617843015762
 31
0.0
  0
LINE
  5
515
330
1F
100
AcDbEntity
  8
0-0
  6
JWW_DASHED1
 62
   120
370
     5
100
AcDbLine
 10
467.1253787468817
 20
-756.8328521148657
 30
0.0
 11
717.1253787468735
 21
-506.8328521148744
 31
0.0
  0
LINE
  5
516
330
1F
100
AcDbEntity
  8
0-0
  6
JWW_DASHED1
 62
   120
370
     5
100
AcDbLine
 10
304.8257372028181
 20
-919.1324936589298
 30
0.0
 11
377.1253787468893
 21
-846.8328521148576
 31
0.0
  0
LINE
  5
517
330
1F
100
AcDbEntity
  8
0-0
  6
JWW_DASHED1
 62
   120
370
     5
100
AcDbLine
 10
467.1253787468859
 20
-763.9039199281474
 30
0.0
 11
717.1253787468769
 21
-513.9039199281558
 31
0.0
  0
LINE
  5
518
330
1F
100
AcDbEntity
  8
0-0
  6
JWW_DASHED1
 62
   120
370
     5
100
AcDbLine
 10
311.8968050161104
 20
-919.132493658922
 30
0.0
 11
377.1253787468783
 21
-853.9039199281544
 31
0.0
  0
LINE
  5
519
330
1F
100
AcDbEntity
  8
0-0
  6
JWW_DASHED1
 62
   120
370
     5
100
AcDbLine
 10
467.1253787468927
 20
-770.9749877413713
 30
0.0
 11
717.125378746882
 21
-520.9749877413816
 31
0.0
  0
LINE
  5
51A
330
1F
100
AcDbEntity
  8
0-0
  6
JWW_DASHED1
 62
   120
370
     5
100
AcDbLine
 10
318.9678728293336
 20
-919.13249365893
 30
0.0
 11
377.1253787468859
 21
-860.9749877413778
 31
0.0
  0
LINE
  5
51B
330
1F
100
AcDbEntity
  8
0-0
  6
JWW_DASHED1
 62
   120
370
     5
100
AcDbLine
 10
467.1253787468825
 20
-778.046055554667
 30
0.0
 11
717.1253787468735
 21
-528.0460555546756
 31
0.0
  0
LINE
  5
51C
330
1F
100
AcDbEntity
  8
0-0
  6
JWW_DASHED1
 62
   120
370
     5
100
AcDbLine
 10
326.038940642631
 20
-919.1324936589181
 30
0.0
 11
377.125378746874
 21
-868.0460555546748
 31
0.0
  0
LINE
  5
51D
330
1F
100
AcDbEntity
  8
0-0
  6
JWW_DASHED1
 62
   120
370
     5
100
AcDbLine
 10
467.1253787468859
 20
-785.1171233679486
 30
0.0
 11
717.1253787468778
 21
-535.117123367957
 31
0.0
  0
LINE
  5
51E
330
1F
100
AcDbEntity
  8
0-0
  6
JWW_DASHED1
 62
   120
370
     5
100
AcDbLine
 10
333.1100084559131
 20
-919.1324936589218
 30
0.0
 11
377.1253787468783
 21
-875.1171233679563
 31
0.0
  0
LINE
  5
51F
330
1F
100
AcDbEntity
  8
0-0
  6
JWW_DASHED1
 62
   120
370
     5
100
AcDbLine
 10
467.125378746874
 20
-792.1881911812458
 30
0.0
 11
717.125378746882
 21
-542.1881911812385
 31
0.0
  0
LINE
  5
520
330
1F
100
AcDbEntity
  8
0-0
  6
JWW_DASHED1
 62
   120
370
     5
100
AcDbLine
 10
340.1810762691969
 20
-919.1324936589232
 30
0.0
 11
377.1253787468825
 21
-882.1881911812375
 31
0.0
  0
LINE
  5
521
330
1F
100
AcDbEntity
  8
0-0
  6
JWW_DASHED1
 62
   120
370
     5
100
AcDbLine
 10
467.1253787468791
 20
-799.259258994527
 30
0.0
 11
717.1253787468854
 21
-549.2592589945199
 31
0.0
  0
LINE
  5
522
330
1F
100
AcDbEntity
  8
0-0
  6
JWW_DASHED1
 62
   120
370
     5
100
AcDbLine
 10
347.2521440824781
 20
-919.1324936589276
 30
0.0
 11
377.1253787468859
 21
-889.2592589945193
 31
0.0
  0
LINE
  5
523
330
1F
100
AcDbEntity
  8
0-0
  6
JWW_DASHED1
 62
   120
370
     5
100
AcDbLine
 10
467.1253787468825
 20
-806.3303268078087
 30
0.0
 11
717.1253787468744
 21
-556.3303268078171
 31
0.0
  0
LINE
  5
524
330
1F
100
AcDbEntity
  8
0-0
  6
JWW_DASHED1
 62
   120
370
     5
100
AcDbLine
 10
354.3232118957593
 20
-919.1324936589317
 30
0.0
 11
377.1253787468902
 21
-896.3303268078006
 31
0.0
  0
LINE
  5
525
330
1F
100
AcDbEntity
  8
0-0
  6
JWW_DASHED1
 62
   120
370
     5
100
AcDbLine
 10
467.1253787468859
 20
-813.4013946210903
 30
0.0
 11
717.1253787468778
 21
-563.4013946210987
 31
0.0
  0
LINE
  5
526
330
1F
100
AcDbEntity
  8
0-0
  6
JWW_DASHED1
 62
   120
370
     5
100
AcDbLine
 10
361.3942797090559
 20
-919.1324936589212
 30
0.0
 11
377.1253787468791
 21
-903.4013946210976
 31
0.0
  0
LINE
  5
527
330
1F
100
AcDbEntity
  8
0-0
  6
JWW_DASHED1
 62
   120
370
     5
100
AcDbLine
 10
467.1253787468893
 20
-820.4724624343728
 30
0.0
 11
717.1253787468795
 21
-570.4724624343829
 31
0.0
  0
LINE
  5
528
330
1F
100
AcDbEntity
  8
0-0
  6
JWW_DASHED1
 62
   120
370
     5
100
AcDbLine
 10
368.4653475223371
 20
-919.1324936589249
 30
0.0
 11
377.1253787468825
 21
-910.4724624343792
 31
0.0
  0
LINE
  5
529
330
1F
100
AcDbEntity
  8
0-0
  6
JWW_DASHED1
 62
   120
370
     5
100
AcDbLine
 10
467.1253787468936
 20
-827.5435302476538
 30
0.0
 11
717.1253787468829
 21
-577.5435302476646
 31
0.0
  0
LINE
  5
52A
330
1F
100
AcDbEntity
  8
0-0
  6
JWW_DASHED1
 62
   120
370
     5
100
AcDbLine
 10
375.5364153356192
 20
-919.1324936589283
 30
0.0
 11
377.1253787468868
 21
-917.5435302476607
 31
0.0
  0
LINE
  5
52B
330
1F
100
AcDbEntity
  8
0-0
  6
JWW_DASHED1
 62
   120
370
     5
100
AcDbLine
 10
467.1253787468706
 20
-834.6145980609075
 30
0.0
 11
717.1253787468786
 21
-584.6145980609
 31
0.0
  0
LINE
  5
52C
330
1F
100
AcDbEntity
  8
0-0
  6
JWW_DASHED1
 62
   120
370
     5
100
AcDbLine
 10
467.1253787468757
 20
-841.6856658741888
 30
0.0
 11
717.1253787468829
 21
-591.6856658741814
 31
0.0
  0
LINE
  5
52D
330
1F
100
AcDbEntity
  8
0-0
  6
JWW_DASHED1
 62
   120
370
     5
100
AcDbLine
 10
467.1253787468791
 20
-848.7567336874704
 30
0.0
 11
717.1253787468871
 21
-598.7567336874631
 31
0.0
  0
LINE
  5
52E
330
1F
100
AcDbEntity
  8
0-0
  6
JWW_DASHED1
 62
   120
370
     5
100
AcDbLine
 10
467.1253787468825
 20
-855.827801500752
 30
0.0
 11
717.1253787468752
 21
-605.8278015007601
 31
0.0
  0
LINE
  5
52F
330
1F
100
AcDbEntity
  8
0-0
  6
JWW_DASHED1
 62
   120
370
     5
100
AcDbLine
 10
467.1253787468876
 20
-862.8988693140333
 30
0.0
 11
717.1253787468786
 21
-612.8988693140417
 31
0.0
  0
LINE
  5
530
330
1F
100
AcDbEntity
  8
0-0
  6
JWW_DASHED1
 62
   120
370
     5
100
AcDbLine
 10
467.125378746891
 20
-869.9699371273151
 30
0.0
 11
717.1253787468803
 21
-619.9699371273255
 31
0.0
  0
LINE
  5
531
330
1F
100
AcDbEntity
  8
0-0
  6
JWW_DASHED1
 62
   120
370
     5
100
AcDbLine
 10
467.1253787468953
 20
-877.0410049405963
 30
0.0
 11
717.1253787468846
 21
-627.0410049406069
 31
0.0
  0
LINE
  5
532
330
1F
100
AcDbEntity
  8
0-0
  6
JWW_DASHED1
 62
   120
370
     5
100
AcDbLine
 10
467.1253787468834
 20
-884.1120727538932
 30
0.0
 11
717.1253787468752
 21
-634.1120727539018
 31
0.0
  0
LINE
  5
533
330
1F
100
AcDbEntity
  8
0-0
  6
JWW_DASHED1
 62
   120
370
     5
100
AcDbLine
 10
467.1253787468714
 20
-891.1831405671908
 30
0.0
 11
717.1253787468786
 21
-641.1831405671834
 31
0.0
  0
LINE
  5
534
330
1F
100
AcDbEntity
  8
0-0
  6
JWW_DASHED1
 62
   120
370
     5
100
AcDbLine
 10
467.12537874688
 20
-898.2542083804132
 30
0.0
 11
717.1253787468871
 21
-648.254208380406
 31
0.0
  0
LINE
  5
535
330
1F
100
AcDbEntity
  8
0-0
  6
JWW_DASHED1
 62
   120
370
     5
100
AcDbLine
 10
467.1253787468842
 20
-905.325276193695
 30
0.0
 11
717.1253787468752
 21
-655.3252761937032
 31
0.0
  0
LINE
  5
536
330
1F
100
AcDbEntity
  8
0-0
  6
JWW_DASHED1
 62
   120
370
     5
100
AcDbLine
 10
467.1253787468876
 20
-912.3963440069762
 30
0.0
 11
717.1253787468778
 21
-662.3963440069867
 31
0.0
  0
LINE
  5
537
330
1F
100
AcDbEntity
  8
0-0
  6
JWW_DASHED1
 62
   120
370
     5
100
AcDbLine
 10
467.4602969082162
 20
-919.1324936589333
 30
0.0
 11
717.125378746882
 21
-669.4674118202682
 31
0.0
  0
LINE
  5
538
330
1F
100
AcDbEntity
  8
0-0
  6
JWW_DASHED1
 62
   120
370
     5
100
AcDbLine
 10
474.5313647215136
 20
-919.1324936589215
 30
0.0
 11
717.1253787468718
 21
-676.5384796335635
 31
0.0
  0
LINE
  5
539
330
1F
100
AcDbEntity
  8
0-0
  6
JWW_DASHED1
 62
   120
370
     5
100
AcDbLine
 10
481.6024325347948
 20
-919.1324936589255
 30
0.0
 11
717.1253787468761
 21
-683.6095474468447
 31
0.0
  0
LINE
  5
53A
330
1F
100
AcDbEntity
  8
0-0
  6
JWW_DASHED1
 62
   120
370
     5
100
AcDbLine
 10
488.6735003480914
 20
-919.1324936589147
 30
0.0
 11
717.1253787468803
 21
-690.6806152601264
 31
0.0
  0
LINE
  5
53B
330
1F
100
AcDbEntity
  8
0-0
  6
JWW_DASHED1
 62
   120
370
     5
100
AcDbLine
 10
495.7445681613726
 20
-919.1324936589191
 30
0.0
 11
717.1253787468837
 21
-697.7516830734075
 31
0.0
  0
LINE
  5
53C
330
1F
100
AcDbEntity
  8
0-0
  6
JWW_DASHED1
 62
   120
370
     5
100
AcDbLine
 10
502.8156359746547
 20
-919.132493658923
 30
0.0
 11
717.125378746888
 21
-704.8227508866892
 31
0.0
  0
LINE
  5
53D
330
1F
100
AcDbEntity
  8
0-0
  6
JWW_DASHED1
 62
   120
370
     5
100
AcDbLine
 10
509.8867037878788
 20
-919.1324936589289
 30
0.0
 11
717.1253787468786
 21
-711.8938186999293
 31
0.0
  0
LINE
  5
53E
330
1F
100
AcDbEntity
  8
0-0
  6
JWW_DASHED1
 62
   120
370
     5
100
AcDbLine
 10
516.9577716011609
 20
-919.1324936589327
 30
0.0
 11
717.1253787468829
 21
-718.9648865132107
 31
0.0
  0
LINE
  5
53F
330
1F
100
AcDbEntity
  8
0-0
  6
JWW_DASHED1
 62
   120
370
     5
100
AcDbLine
 10
524.0288394144583
 20
-919.132493658921
 30
0.0
 11
717.1253787468727
 21
-726.0359543265063
 31
0.0
  0
LINE
  5
540
330
1F
100
AcDbEntity
  8
0-0
  6
JWW_DASHED1
 62
   120
370
     5
100
AcDbLine
 10
531.0999072277403
 20
-919.1324936589242
 30
0.0
 11
717.1253787468769
 21
-733.1070221397877
 31
0.0
  0
LINE
  5
541
330
1F
100
AcDbEntity
  8
0-0
  6
JWW_DASHED1
 62
   120
370
     5
100
AcDbLine
 10
538.1709750410326
 20
-919.1324936589169
 30
0.0
 11
717.1253787468803
 21
-740.1780899530693
 31
0.0
  0
LINE
  5
542
330
1F
100
AcDbEntity
  8
0-0
  6
JWW_DASHED1
 62
   120
370
     5
100
AcDbLine
 10
545.2420428543147
 20
-919.1324936589208
 30
0.0
 11
717.1253787468854
 21
-747.2491577663505
 31
0.0
  0
LINE
  5
543
330
1F
100
AcDbEntity
  8
0-0
  6
JWW_DASHED1
 62
   120
370
     5
100
AcDbLine
 10
552.3131106676011
 20
-919.1324936589198
 30
0.0
 11
717.1253787468735
 21
-754.320225579648
 31
0.0
  0
LINE
  5
544
330
1F
100
AcDbEntity
  8
0-0
  6
JWW_DASHED1
 62
   120
370
     5
100
AcDbLine
 10
559.3841784808832
 20
-919.1324936589231
 30
0.0
 11
717.1253787468769
 21
-761.3912933929296
 31
0.0
  0
LINE
  5
545
330
1F
100
AcDbEntity
  8
0-0
  6
JWW_DASHED1
 62
   120
370
     5
100
AcDbLine
 10
566.4552462941643
 20
-919.1324936589269
 30
0.0
 11
717.1253787468803
 21
-768.4623612062121
 31
0.0
  0
LINE
  5
546
330
1F
100
AcDbEntity
  8
0-0
  6
JWW_DASHED1
 62
   120
370
     5
100
AcDbLine
 10
573.5263141074038
 20
-919.1324936589193
 30
0.0
 11
717.1253787468735
 21
-775.5334290194492
 31
0.0
  0
LINE
  5
547
330
1F
100
AcDbEntity
  8
0-0
  6
JWW_DASHED1
 62
   120
370
     5
100
AcDbLine
 10
580.5973819206936
 20
-919.1324936589147
 30
0.0
 11
717.1253787468778
 21
-782.6044968327308
 31
0.0
  0
LINE
  5
548
330
1F
100
AcDbEntity
  8
0-0
  6
JWW_DASHED1
 62
   120
370
     5
100
AcDbLine
 10
587.6684497339747
 20
-919.1324936589186
 30
0.0
 11
717.125378746882
 21
-789.6755646460123
 31
0.0
  0
LINE
  5
549
330
1F
100
AcDbEntity
  8
0-0
  6
JWW_DASHED1
 62
   120
370
     5
100
AcDbLine
 10
594.7395175472568
 20
-919.132493658923
 30
0.0
 11
717.1253787468854
 21
-796.7466324592937
 31
0.0
  0
LINE
  5
54A
330
1F
100
AcDbEntity
  8
0-0
  6
JWW_DASHED1
 62
   120
370
     5
100
AcDbLine
 10
601.8105853605457
 20
-919.1324936589186
 30
0.0
 11
717.1253787468735
 21
-803.8177002725909
 31
0.0
  0
LINE
  5
54B
330
1F
100
AcDbEntity
  8
0-0
  6
JWW_DASHED1
 62
   120
370
     5
100
AcDbLine
 10
608.8816531738278
 20
-919.1324936589223
 30
0.0
 11
717.1253787468778
 21
-810.8887680858724
 31
0.0
  0
LINE
  5
54C
330
1F
100
AcDbEntity
  8
0-0
  6
JWW_DASHED1
 62
   120
370
     5
100
AcDbLine
 10
615.9527209871098
 20
-919.1324936589264
 30
0.0
 11
717.1253787468812
 21
-817.9598358991548
 31
0.0
  0
LINE
  5
54D
330
1F
100
AcDbEntity
  8
0-0
  6
JWW_DASHED1
 62
   120
370
     5
100
AcDbLine
 10
623.0237888003911
 20
-919.1324936589299
 30
0.0
 11
717.1253787468854
 21
-825.030903712436
 31
0.0
  0
LINE
  5
54E
330
1F
100
AcDbEntity
  8
0-0
  6
JWW_DASHED1
 62
   120
370
     5
100
AcDbLine
 10
630.0948566136893
 20
-919.1324936589178
 30
0.0
 11
717.1253787468744
 21
-832.1019715257326
 31
0.0
  0
LINE
  5
54F
330
1F
100
AcDbEntity
  8
0-0
  6
JWW_DASHED1
 62
   120
370
     5
100
AcDbLine
 10
637.1659244269168
 20
-919.1324936589208
 30
0.0
 11
717.125378746882
 21
-839.1730393389552
 31
0.0
  0
LINE
  5
550
330
1F
100
AcDbEntity
  8
0-0
  6
JWW_DASHED1
 62
   120
370
     5
100
AcDbLine
 10
644.2369922401981
 20
-919.1324936589249
 30
0.0
 11
717.1253787468863
 21
-846.2441071522367
 31
0.0
  0
LINE
  5
551
330
1F
100
AcDbEntity
  8
0-0
  6
JWW_DASHED1
 62
   120
370
     5
100
AcDbLine
 10
651.3080600534912
 20
-919.1324936589176
 30
0.0
 11
717.1253787468744
 21
-853.315174965534
 31
0.0
  0
LINE
  5
552
330
1F
100
AcDbEntity
  8
0-0
  6
JWW_DASHED1
 62
   120
370
     5
100
AcDbLine
 10
658.3791278667733
 20
-919.1324936589212
 30
0.0
 11
717.1253787468786
 21
-860.3862427788159
 31
0.0
  0
LINE
  5
553
330
1F
100
AcDbEntity
  8
0-0
  6
JWW_DASHED1
 62
   120
370
     5
100
AcDbLine
 10
665.4501956800545
 20
-919.1324936589249
 30
0.0
 11
717.125378746882
 21
-867.4573105920973
 31
0.0
  0
LINE
  5
554
330
1F
100
AcDbEntity
  8
0-0
  6
JWW_DASHED1
 62
   120
370
     5
100
AcDbLine
 10
672.521263493352
 20
-919.132493658913
 30
0.0
 11
717.125378746871
 21
-874.5283784053943
 31
0.0
  0
LINE
  5
555
330
1F
100
AcDbEntity
  8
0-0
  6
JWW_DASHED1
 62
   120
370
     5
100
AcDbLine
 10
679.5923313066331
 20
-919.1324936589169
 30
0.0
 11
717.1253787468752
 21
-881.5994462186756
 31
0.0
  0
LINE
  5
556
330
1F
100
AcDbEntity
  8
0-0
  6
JWW_DASHED1
 62
   120
370
     5
100
AcDbLine
 10
686.6633991199169
 20
-919.1324936589186
 30
0.0
 11
717.1253787468786
 21
-888.6705140319572
 31
0.0
  0
LINE
  5
557
330
1F
100
AcDbEntity
  8
0-0
  6
JWW_DASHED1
 62
   120
370
     5
100
AcDbLine
 10
693.734466933199
 20
-919.132493658923
 30
0.0
 11
717.1253787468829
 21
-895.7415818452384
 31
0.0
  0
LINE
  5
558
330
1F
100
AcDbEntity
  8
0-0
  6
JWW_DASHED1
 62
   120
370
     5
100
AcDbLine
 10
700.8055347464793
 20
-919.1324936589272
 30
0.0
 11
717.1253787468871
 21
-902.8126496585201
 31
0.0
  0
LINE
  5
559
330
1F
100
AcDbEntity
  8
0-0
  6
JWW_DASHED1
 62
   120
370
     5
100
AcDbLine
 10
707.8766025597171
 20
-919.1324936589203
 30
0.0
 11
717.1253787468795
 21
-909.8837174717582
 31
0.0
  0
LINE
  5
55A
330
1F
100
AcDbEntity
  8
0-0
  6
JWW_DASHED1
 62
   120
370
     5
100
AcDbLine
 10
714.9476703729991
 20
-919.1324936589242
 30
0.0
 11
717.1253787468837
 21
-916.9547852850399
 31
0.0
  0
LINE
  5
55B
330
1F
100
AcDbEntity
  8
寸法
  6
Continuous
 62
   120
370
     5
100
AcDbLine
 10
-2049.874621253115
 20
-1089.132493658926
 30
0.0
 11
-1649.874621253115
 21
-1089.132493658926
 31
0.0
  0
LINE
  5
55C
330
1F
100
AcDbEntity
  8
寸法
  6
Continuous
 62
   120
370
     5
100
AcDbLine
 10
-1849.874621253114
 20
-1069.132493658925
 30
0.0
 11
-1649.874621253115
 21
-1069.132493658925
 31
0.0
  0
LWPOLYLINE
  5
55D
330
1F
100
AcDbEntity
  8
寸法
  6
Continuous
 62
     7
370
     9
100
AcDbPolyline
 90
        4
 70
     1
 43
3.0
 10
-2048.374621253115
 20
-1089.132493658926
 42
0.4142135623731
 10
-2049.874621253115
 20
-1087.632493658926
 42
0.4142135623731
 10
-2051.374621253115
 20
-1089.132493658926
 42
0.4142135623731
 10
-2049.874621253115
 20
-1090.632493658926
 42
0.4142135623731
  0
LWPOLYLINE
  5
55E
330
1F
100
AcDbEntity
  8
寸法
  6
Continuous
 62
     7
370
     9
100
AcDbPolyline
 90
        4
 70
     1
 43
3.0
 10
-1848.374621253114
 20
-1069.132493658925
 42
0.4142135623731
 10
-1849.874621253114
 20
-1067.632493658925
 42
0.4142135623731
 10
-1851.374621253114
 20
-1069.132493658925
 42
0.4142135623731
 10
-1849.874621253114
 20
-1070.632493658925
 42
0.4142135623731
  0
LINE
  5
55F
330
1F
100
AcDbEntity
  8
寸法
  6
Continuous
 62
   120
370
     5
100
AcDbLine
 10
-1569.874621253115
 20
-1539.132493658926
 30
0.0
 11
-1569.874621253115
 21
-1139.132493658926
 31
0.0
  0
LINE
  5
560
330
1F
100
AcDbEntity
  8
寸法
  6
Continuous
 62
   120
370
     5
100
AcDbLine
 10
-1599.874621253115
 20
-1739.132493658926
 30
0.0
 11
-1599.874621253115
 21
-1139.132493658926
 31
0.0
  0
LINE
  5
561
330
1F
100
AcDbEntity
  8
寸法
  6
Continuous
 62
   120
370
     5
100
AcDbLine
 10
17.12537874688511
 20
-1339.132493658925
 30
0.0
 11
17.12537874688511
 21
-1139.132493658926
 31
0.0
  0
LINE
  5
562
330
1F
100
AcDbEntity
  8
寸法
  6
Continuous
 62
   120
370
     5
100
AcDbLine
 10
-792.8746212531147
 20
-1339.132493658925
 30
0.0
 11
-792.8746212531147
 21
-1139.132493658926
 31
0.0
  0
LINE
  5
563
330
1F
100
AcDbEntity
  8
寸法
  6
Continuous
 62
   120
370
     5
100
AcDbLine
 10
-792.8746212531147
 20
-1339.132493658925
 30
0.0
 11
827.1253787468852
 21
-1339.132493658925
 31
0.0
  0
LINE
  5
564
330
1F
100
AcDbEntity
  8
寸法
  6
Continuous
 62
   120
370
     5
100
AcDbLine
 10
-1569.874621253115
 20
-1539.132493658926
 30
0.0
 11
1604.125378746885
 21
-1539.132493658926
 31
0.0
  0
LINE
  5
565
330
1F
100
AcDbEntity
  8
寸法
  6
Continuous
 62
   120
370
     5
100
AcDbLine
 10
1604.125378746885
 20
-1539.132493658926
 30
0.0
 11
1604.125378746885
 21
-1139.132493658926
 31
0.0
  0
LINE
  5
566
330
1F
100
AcDbEntity
  8
寸法
  6
Continuous
 62
   120
370
     5
100
AcDbLine
 10
-1599.874621253115
 20
-1739.132493658926
 30
0.0
 11
1634.125378746885
 21
-1739.132493658926
 31
0.0
  0
LINE
  5
567
330
1F
100
AcDbEntity
  8
寸法
  6
Continuous
 62
   120
370
     5
100
AcDbLine
 10
1634.125378746885
 20
-1739.132493658926
 30
0.0
 11
1634.125378746885
 21
-1139.132493658926
 31
0.0
  0
LINE
  5
568
330
1F
100
AcDbEntity
  8
寸法
  6
Continuous
 62
   120
370
     5
100
AcDbLine
 10
827.1253787468852
 20
-1339.132493658925
 30
0.0
 11
827.1253787468852
 21
-1139.132493658926
 31
0.0
  0
LWPOLYLINE
  5
569
330
1F
100
AcDbEntity
  8
寸法
  6
Continuous
 62
     7
370
     9
100
AcDbPolyline
 90
        4
 70
     1
 43
3.0
 10
-1568.374621253115
 20
-1539.132493658926
 42
0.4142135623731
 10
-1569.874621253115
 20
-1537.632493658926
 42
0.4142135623731
 10
-1571.374621253115
 20
-1539.132493658926
 42
0.4142135623731
 10
-1569.874621253115
 20
-1540.632493658926
 42
0.4142135623731
  0
LWPOLYLINE
  5
56A
330
1F
100
AcDbEntity
  8
寸法
  6
Continuous
 62
     7
370
     9
100
AcDbPolyline
 90
        4
 70
     1
 43
3.0
 10
-1598.374621253115
 20
-1739.132493658926
 42
0.4142135623731
 10
-1599.874621253115
 20
-1737.632493658926
 42
0.4142135623731
 10
-1601.374621253115
 20
-1739.132493658926
 42
0.4142135623731
 10
-1599.874621253115
 20
-1740.632493658926
 42
0.4142135623731
  0
LWPOLYLINE
  5
56B
330
1F
100
AcDbEntity
  8
寸法
  6
Continuous
 62
     7
370
     9
100
AcDbPolyline
 90
        4
 70
     1
 43
3.0
 10
18.62537874688511
 20
-1339.132493658925
 42
0.4142135623731
 10
17.12537874688511
 20
-1337.632493658925
 42
0.4142135623731
 10
15.62537874688511
 20
-1339.132493658925
 42
0.4142135623731
 10
17.12537874688511
 20
-1340.632493658925
 42
0.4142135623731
  0
LWPOLYLINE
  5
56C
330
1F
100
AcDbEntity
  8
寸法
  6
Continuous
 62
     7
370
     9
100
AcDbPolyline
 90
        4
 70
     1
 43
3.0
 10
-791.3746212531147
 20
-1339.132493658925
 42
0.4142135623731
 10
-792.8746212531147
 20
-1337.632493658925
 42
0.4142135623731
 10
-794.3746212531148
 20
-1339.132493658925
 42
0.4142135623731
 10
-792.8746212531147
 20
-1340.632493658925
 42
0.4142135623731
  0
LWPOLYLINE
  5
56D
330
1F
100
AcDbEntity
  8
寸法
  6
Continuous
 62
     7
370
     9
100
AcDbPolyline
 90
        4
 70
     1
 43
3.0
 10
1605.625378746885
 20
-1539.132493658926
 42
0.4142135623731
 10
1604.125378746885
 20
-1537.632493658926
 42
0.4142135623731
 10
1602.625378746885
 20
-1539.132493658926
 42
0.4142135623731
 10
1604.125378746885
 20
-1540.632493658926
 42
0.4142135623731
  0
LWPOLYLINE
  5
56E
330
1F
100
AcDbEntity
  8
寸法
  6
Continuous
 62
     7
370
     9
100
AcDbPolyline
 90
        4
 70
     1
 43
3.0
 10
1635.625378746885
 20
-1739.132493658926
 42
0.4142135623731
 10
1634.125378746885
 20
-1737.632493658926
 42
0.4142135623731
 10
1632.625378746885
 20
-1739.132493658926
 42
0.4142135623731
 10
1634.125378746885
 20
-1740.632493658925
 42
0.4142135623731
  0
LWPOLYLINE
  5
56F
330
1F
100
AcDbEntity
  8
寸法
  6
Continuous
 62
     7
370
     9
100
AcDbPolyline
 90
        4
 70
     1
 43
3.0
 10
828.6253787468852
 20
-1339.132493658925
 42
0.4142135623731
 10
827.1253787468852
 20
-1337.632493658925
 42
0.4142135623731
 10
825.6253787468851
 20
-1339.132493658925
 42
0.4142135623731
 10
827.1253787468852
 20
-1340.632493658925
 42
0.4142135623731
  0
LWPOLYLINE
  5
570
330
1F
100
AcDbEntity
  8
寸法
  6
Continuous
 62
     7
370
     9
100
AcDbPolyline
 90
        4
 70
     1
 43
3.0
 10
-2048.374621253115
 20
1157.867506341074
 42
0.4142135623731
 10
-2049.874621253115
 20
1159.367506341074
 42
0.4142135623731
 10
-2051.374621253115
 20
1157.867506341074
 42
0.4142135623731
 10
-2049.874621253115
 20
1156.367506341074
 42
0.4142135623731
  0
LINE
  5
571
330
1F
100
AcDbEntity
  8
寸法
  6
Continuous
 62
   120
370
     5
100
AcDbLine
 10
-2049.874621253115
 20
1157.867506341074
 30
0.0
 11
-1649.874621253115
 21
1157.867506341074
 31
0.0
  0
LINE
  5
572
330
1F
100
AcDbEntity
  8
寸法
  6
Continuous
 62
   120
370
     5
100
AcDbLine
 10
-2049.874621253115
 20
1157.867506341074
 30
0.0
 11
-2049.874621253115
 21
-1089.132493658926
 31
0.0
  0
LWPOLYLINE
  5
573
330
1F
100
AcDbEntity
  8
寸法
  6
Continuous
 62
     7
370
     9
100
AcDbPolyline
 90
        4
 70
     1
 43
3.0
 10
-1848.374621253114
 20
1113.867506341074
 42
0.4142135623731
 10
-1849.874621253114
 20
1115.367506341073
 42
0.4142135623731
 10
-1851.374621253114
 20
1113.867506341074
 42
0.4142135623731
 10
-1849.874621253114
 20
1112.367506341074
 42
0.4142135623731
  0
LINE
  5
574
330
1F
100
AcDbEntity
  8
寸法
  6
Continuous
 62
   120
370
     5
100
AcDbLine
 10
-1849.874621253114
 20
1113.867506341074
 30
0.0
 11
-1849.874621253114
 21
-1069.132493658925
 31
0.0
  0
LINE
  5
575
330
1F
100
AcDbEntity
  8
寸法
  6
Continuous
 62
   120
370
     5
100
AcDbLine
 10
-1849.874621253114
 20
1113.867506341074
 30
0.0
 11
-1649.874621253115
 21
1113.867506341074
 31
0.0
  0
MTEXT
  5
576
330
1F
100
AcDbEntity
  8
寸法
  6
Continuous
 62
     7
370
    70
100
AcDbMText
 10
-2064.874621253115
 20
-189.8074936589257
 30
0.0
 40
57.14999999999999
 41
412.5
 46
0.0
 71
     7
 72
     1
  1
{\fＭＳ ゴシック|b0|i0|c128|p49;枠外＝2,247}
 11
6.123031769111886E-17
 21
1.0
 31
0.0
 73
     1
 44
1.0
  0
MTEXT
  5
577
330
1F
100
AcDbEntity
  8
寸法
  6
Continuous
 62
     7
370
    70
100
AcDbMText
 10
-1864.874621253114
 20
-195.8074936589253
 30
0.0
 40
57.14999999999999
 41
412.5
 46
0.0
 71
     7
 72
     1
  1
{\fＭＳ ゴシック|b0|i0|c128|p49;ＤＨ＝2,183}
 11
6.123031769111886E-17
 21
1.0
 31
0.0
 73
     1
 44
1.0
  0
MTEXT
  5
578
330
1F
100
AcDbEntity
  8
寸法
  6
Continuous
 62
     7
370
   211
100
AcDbMText
 10
-556.6246212531148
 20
-1333.057493658925
 30
0.0
 40
57.15
 41
337.5
 46
0.0
 71
     7
 72
     1
  1
{\fＭＳ ゴシック|b0|i0|c128|p49;ＤＷ＝810}
 73
     1
 44
1.0
  0
MTEXT
  5
579
330
1F
100
AcDbEntity
  8
寸法
  6
Continuous
 62
     7
370
   211
100
AcDbMText
 10
253.3753787468852
 20
-1333.057493658925
 30
0.0
 40
57.14999999999998
 41
337.4999999999999
 46
0.0
 71
     7
 72
     1
  1
{\fＭＳ ゴシック|b0|i0|c128|p49;ＤＷ＝810}
 73
     1
 44
1.0
  0
MTEXT
  5
57A
330
1F
100
AcDbEntity
  8
寸法
  6
Continuous
 62
     7
370
   211
100
AcDbMText
 10
-189.1246212531157
 20
-1533.057493658926
 30
0.0
 40
57.14999999999999
 41
412.5
 46
0.0
 71
     7
 72
     1
  1
{\fＭＳ ゴシック|b0|i0|c128|p49;枠内＝3,174}
 73
     1
 44
1.0
  0
MTEXT
  5
57B
330
1F
100
AcDbEntity
  8
寸法
  6
Continuous
 62
     7
370
   211
100
AcDbMText
 10
-189.1246212531157
 20
-1733.057493658926
 30
0.0
 40
57.14999999999999
 41
412.5
 46
0.0
 71
     7
 72
     1
  1
{\fＭＳ ゴシック|b0|i0|c128|p49;枠外＝3,234}
 73
     1
 44
1.0
  0
ENDSEC
  0
SECTION
  2
OBJECTS
  0
DICTIONARY
  5
C
330
0
100
AcDbDictionary
281
     1
  3
ACAD_GROUP
350
D
  3
ACAD_LAYOUT
350
1A
  3
ACAD_MATERIAL
350
3B
  3
ACAD_MLEADERSTYLE
350
57D
  3
ACAD_MLINESTYLE
350
17
  3
ACAD_PLOTSETTINGS
350
19
  3
ACAD_PLOTSTYLENAME
350
E
  3
ACAD_TABLESTYLE
350
57C
  3
ACAD_VISUALSTYLE
350
2A
  0
DICTIONARY
  5
D
102
{ACAD_REACTORS
330
C
102
}
330
C
100
AcDbDictionary
281
     1
  0
DICTIONARY
  5
1A
102
{ACAD_REACTORS
330
C
102
}
330
C
100
AcDbDictionary
281
     1
  3
Layout1
350
1E
  3
Layout2
350
26
  3
Model
350
22
  0
DICTIONARY
  5
3B
102
{ACAD_REACTORS
330
C
102
}
330
C
100
AcDbDictionary
281
     1
  3
ByBlock
350
3D
  3
ByLayer
350
3C
  3
Global
350
3E
  0
DICTIONARY
  5
57D
102
{ACAD_REACTORS
330
C
102
}
330
C
100
AcDbDictionary
281
     1
  0
DICTIONARY
  5
17
102
{ACAD_REACTORS
330
C
102
}
330
C
100
AcDbDictionary
281
     1
  3
Standard
350
18
  0
DICTIONARY
  5
19
102
{ACAD_REACTORS
330
C
102
}
330
C
100
AcDbDictionary
281
     1
  0
ACDBDICTIONARYWDFLT
  5
E
102
{ACAD_REACTORS
330
C
102
}
330
C
100
AcDbDictionary
281
     1
  3
Normal
350
F
100
AcDbDictionaryWithDefault
340
F
  0
DICTIONARY
  5
57C
102
{ACAD_REACTORS
330
C
102
}
330
C
100
AcDbDictionary
281
     1
  0
DICTIONARY
  5
2A
102
{ACAD_REACTORS
330
C
102
}
330
C
100
AcDbDictionary
281
     1
  3
2dWireframe
350
2F
  3
3D Hidden
350
31
  3
3dWireframe
350
30
  3
Basic
350
32
  3
Brighten
350
36
  3
ColorChange
350
3A
  3
Conceptual
350
34
  3
Dim
350
35
  3
Facepattern
350
39
  3
Flat
350
2B
  3
FlatWithEdges
350
2C
  3
Gouraud
350
2D
  3
GouraudWithEdges
350
2E
  3
Linepattern
350
38
  3
Realistic
350
33
  3
Thicken
350
37
  0
LAYOUT
  5
1E
102
{ACAD_REACTORS
330
1A
102
}
330
1A
100
AcDbPlotSettings
  1

  2
none_device
  4

  6

 40
0.0
 41
0.0
 42
0.0
 43
0.0
 44
0.0
 45
0.0
 46
0.0
 47
0.0
 48
0.0
 49
0.0
140
0.0
141
0.0
142
1.0
143
1.0
 70
   688
 72
     0
 73
     0
 74
     5
  7

 75
    16
 76
     0
 77
     5
 78
   300
147
1.0
148
0.0
149
0.0
100
AcDbLayout
  1
Layout1
 70
     1
 71
     1
 10
0.0
 20
0.0
 11
420.0
 21
297.0
 12
0.0
 22
0.0
 32
0.0
 14
1.000000000000000E+20
 24
1.000000000000000E+20
 34
1.000000000000000E+20
 15
-1.000000000000000E+20
 25
-1.000000000000000E+20
 35
-1.000000000000000E+20
146
0.0
 13
0.0
 23
0.0
 33
0.0
 16
1.0
 26
0.0
 36
0.0
 17
0.0
 27
1.0
 37
0.0
 76
     0
330
1B
  0
LAYOUT
  5
26
102
{ACAD_REACTORS
330
1A
102
}
330
1A
100
AcDbPlotSettings
  1

  2
none_device
  4

  6

 40
0.0
 41
0.0
 42
0.0
 43
0.0
 44
0.0
 45
0.0
 46
0.0
 47
0.0
 48
0.0
 49
0.0
140
0.0
141
0.0
142
1.0
143
1.0
 70
   688
 72
     0
 73
     0
 74
     5
  7

 75
    16
 76
     0
 77
     5
 78
   300
147
1.0
148
0.0
149
0.0
100
AcDbLayout
  1
Layout2
 70
     1
 71
     2
 10
0.0
 20
0.0
 11
0.0
 21
0.0
 12
0.0
 22
0.0
 32
0.0
 14
0.0
 24
0.0
 34
0.0
 15
0.0
 25
0.0
 35
0.0
146
0.0
 13
0.0
 23
0.0
 33
0.0
 16
1.0
 26
0.0
 36
0.0
 17
0.0
 27
1.0
 37
0.0
 76
     0
330
23
  0
LAYOUT
  5
22
102
{ACAD_REACTORS
330
1A
102
}
330
1A
100
AcDbPlotSettings
  1

  2
none_device
  4

  6

 40
0.0
 41
0.0
 42
0.0
 43
0.0
 44
0.0
 45
0.0
 46
0.0
 47
0.0
 48
0.0
 49
0.0
140
0.0
141
0.0
142
1.0
143
1.0
 70
  1712
 72
     0
 73
     0
 74
     0
  7

 75
     0
 76
     0
 77
     5
 78
   300
147
1.0
148
0.0
149
0.0
100
AcDbLayout
  1
Model
 70
     1
 71
     0
 10
-4455.0
 20
-3150.0
 11
4455.0
 21
3150.0
 12
0.0
 22
0.0
 32
0.0
 14
-4455.0
 24
-3150.0
 34
0.0
 15
4455.0
 25
3150.0
 35
0.0
146
0.0
 13
0.0
 23
0.0
 33
0.0
 16
1.0
 26
0.0
 36
0.0
 17
0.0
 27
1.0
 37
0.0
 76
     0
330
1F
331
29
  0
MATERIAL
  5
3D
102
{ACAD_REACTORS
330
3B
102
}
330
3B
100
AcDbMaterial
  1
ByBlock
 72
     1
 94
      127
  0
MATERIAL
  5
3C
102
{ACAD_REACTORS
330
3B
102
}
330
3B
100
AcDbMaterial
  1
ByLayer
 72
     1
 94
      127
  0
MATERIAL
  5
3E
102
{ACAD_REACTORS
330
3B
102
}
330
3B
100
AcDbMaterial
  1
Global
 72
     1
 94
      127
  0
MLINESTYLE
  5
18
102
{ACAD_REACTORS
330
17
102
}
330
17
100
AcDbMlineStyle
  2
Standard
 70
     0
  3

 62
   256
 51
90.0
 52
90.0
 71
     2
 49
0.5
 62
   256
  6
BYLAYER
 49
-0.5
 62
   256
  6
BYLAYER
  0
ACDBPLACEHOLDER
  5
F
102
{ACAD_REACTORS
330
E
102
}
330
E
  0
VISUALSTYLE
  5
2F
102
{ACAD_REACTORS
330
2A
102
}
330
2A
100
AcDbVisualStyle
  2
2dWireframe
 70
     4
177
     2
291
     0
 71
     0
176
     1
 72
     2
176
     1
 73
     0
176
     1
 90
        0
176
     1
 40
-0.6
176
     1
 41
-30.0
176
     1
 62
     5
 63
     7
421
 16777215
176
     1
 74
     1
176
     1
 91
        4
176
     1
 64
     7
176
     1
 65
   257
176
     1
 75
     1
176
     1
175
     1
176
     1
 42
1.0
176
     1
 92
        0
176
     1
 66
   257
176
     1
 43
1.0
176
     1
 76
     1
176
     1
 77
     6
176
     1
 78
     2
176
     1
 67
     7
176
     1
 79
     5
176
     1
170
     0
176
     1
171
     0
176
     1
290
     0
176
     1
 93
        1
176
     1
 44
0.0
176
     1
173
     0
176
     1
  0
VISUALSTYLE
  5
31
102
{ACAD_REACTORS
330
2A
102
}
330
2A
100
AcDbVisualStyle
  2
3D Hidden
 70
     6
177
     2
291
     0
 71
     1
176
     1
 72
     2
176
     1
 73
     2
176
     1
 90
        0
176
     1
 40
-0.6
176
     1
 41
-30.0
176
     1
 62
     5
 63
     7
421
 16777215
176
     1
 74
     2
176
     1
 91
        2
176
     1
 64
     7
176
     1
 65
   257
176
     1
 75
     2
176
     1
175
     1
176
     1
 42
40.0
176
     1
 92
        0
176
     1
 66
   257
176
     1
 43
1.0
176
     1
 76
     1
176
     1
 77
     6
176
     1
 78
     2
176
     1
 67
     7
176
     1
 79
     3
176
     1
170
     0
176
     1
171
     0
176
     1
290
     0
176
     1
 93
        1
176
     1
 44
0.0
176
     1
173
     0
176
     1
  0
VISUALSTYLE
  5
30
102
{ACAD_REACTORS
330
2A
102
}
330
2A
100
AcDbVisualStyle
  2
3dWireframe
 70
     5
177
     2
291
     0
 71
     0
176
     1
 72
     2
176
     1
 73
     0
176
     1
 90
        0
176
     1
 40
-0.6
176
     1
 41
-30.0
176
     1
 62
     5
 63
     7
421
 16777215
176
     1
 74
     1
176
     1
 91
        4
176
     1
 64
     7
176
     1
 65
   257
176
     1
 75
     1
176
     1
175
     1
176
     1
 42
1.0
176
     1
 92
        0
176
     1
 66
   257
176
     1
 43
1.0
176
     1
 76
     1
176
     1
 77
     6
176
     1
 78
     2
176
     1
 67
     7
176
     1
 79
     5
176
     1
170
     0
176
     1
171
     0
176
     1
290
     0
176
     1
 93
        1
176
     1
 44
0.0
176
     1
173
     0
176
     1
  0
VISUALSTYLE
  5
32
102
{ACAD_REACTORS
330
2A
102
}
330
2A
100
AcDbVisualStyle
  2
Basic
 70
     7
177
     2
291
     1
 71
     1
176
     1
 72
     0
176
     1
 73
     1
176
     1
 90
        0
176
     1
 40
-0.6
176
     1
 41
-30.0
176
     1
 62
     5
 63
     7
421
 16777215
176
     1
 74
     0
176
     1
 91
        4
176
     1
 64
     7
176
     1
 65
   257
176
     1
 75
     1
176
     1
175
     1
176
     1
 42
1.0
176
     1
 92
        8
176
     1
 66
     7
176
     1
 43
1.0
176
     1
 76
     1
176
     1
 77
     6
176
     1
 78
     2
176
     1
 67
     7
176
     1
 79
     5
176
     1
170
     0
176
     1
171
     0
176
     1
290
     0
176
     1
 93
        1
176
     1
 44
0.0
176
     1
173
     0
176
     1
  0
VISUALSTYLE
  5
36
102
{ACAD_REACTORS
330
2A
102
}
330
2A
100
AcDbVisualStyle
  2
Brighten
 70
    12
177
     2
291
     1
 71
     2
176
     1
 72
     2
176
     1
 73
     0
176
     1
 90
        0
176
     1
 40
-0.6
176
     1
 41
-30.0
176
     1
 62
     5
 63
     7
421
 16777215
176
     1
 74
     1
176
     1
 91
        4
176
     1
 64
     7
176
     1
 65
   257
176
     1
 75
     1
176
     1
175
     1
176
     1
 42
1.0
176
     1
 92
        8
176
     1
 66
     7
176
     1
 43
1.0
176
     1
 76
     1
176
     1
 77
     6
176
     1
 78
     2
176
     1
 67
     7
176
     1
 79
     5
176
     1
170
     0
176
     1
171
     0
176
     1
290
     0
176
     1
 93
        1
176
     1
 44
50.0
176
     1
173
     0
176
     1
  0
VISUALSTYLE
  5
3A
102
{ACAD_REACTORS
330
2A
102
}
330
2A
100
AcDbVisualStyle
  2
ColorChange
 70
    16
177
     2
291
     1
 71
     2
176
     1
 72
     2
176
     1
 73
     3
176
     1
 90
        0
176
     1
 40
-0.6
176
     1
 41
-30.0
176
     1
 62
     5
 63
     8
421
  8421504
176
     1
 74
     1
176
     1
 91
        4
176
     1
 64
     7
176
     1
 65
   257
176
     1
 75
     1
176
     1
175
     1
176
     1
 42
1.0
176
     1
 92
        8
176
     1
 66
     8
424
  8421504
176
     1
 43
1.0
176
     1
 76
     1
176
     1
 77
     6
176
     1
 78
     2
176
     1
 67
     7
176
     1
 79
     5
176
     1
170
     0
176
     1
171
     0
176
     1
290
     0
176
     1
 93
        1
176
     1
 44
0.0
176
     1
173
     0
176
     1
  0
VISUALSTYLE
  5
34
102
{ACAD_REACTORS
330
2A
102
}
330
2A
100
AcDbVisualStyle
  2
Conceptual
 70
     9
177
     2
291
     0
 71
     3
176
     1
 72
     2
176
     1
 73
     0
176
     1
 90
        0
176
     1
 40
-0.6
176
     1
 41
-30.0
176
     1
 62
     5
 63
     7
421
 16777215
176
     1
 74
     2
176
     1
 91
        2
176
     1
 64
     7
176
     1
 65
   257
176
     1
 75
     1
176
     1
175
     1
176
     1
 42
40.0
176
     1
 92
        8
176
     1
 66
     7
176
     1
 43
1.0
176
     1
 76
     1
176
     1
 77
     6
176
     1
 78
     2
176
     1
 67
     7
176
     1
 79
     3
176
     1
170
     0
176
     1
171
     0
176
     1
290
     0
176
     1
 93
        1
176
     1
 44
0.0
176
     1
173
     0
176
     1
  0
VISUALSTYLE
  5
35
102
{ACAD_REACTORS
330
2A
102
}
330
2A
100
AcDbVisualStyle
  2
Dim
 70
    11
177
     2
291
     1
 71
     2
176
     1
 72
     2
176
     1
 73
     0
176
     1
 90
        0
176
     1
 40
-0.6
176
     1
 41
-30.0
176
     1
 62
     5
 63
     7
421
 16777215
176
     1
 74
     1
176
     1
 91
        4
176
     1
 64
     7
176
     1
 65
   257
176
     1
 75
     1
176
     1
175
     1
176
     1
 42
1.0
176
     1
 92
        8
176
     1
 66
     7
176
     1
 43
1.0
176
     1
 76
     1
176
     1
 77
     6
176
     1
 78
     2
176
     1
 67
     7
176
     1
 79
     5
176
     1
170
     0
176
     1
171
     0
176
     1
290
     0
176
     1
 93
        1
176
     1
 44
-50.0
176
     1
173
     0
176
     1
  0
VISUALSTYLE
  5
39
102
{ACAD_REACTORS
330
2A
102
}
330
2A
100
AcDbVisualStyle
  2
Facepattern
 70
    15
177
     2
291
     1
 71
     2
176
     1
 72
     2
176
     1
 73
     0
176
     1
 90
        0
176
     1
 40
-0.6
176
     1
 41
-30.0
176
     1
 62
     5
 63
     7
421
 16777215
176
     1
 74
     1
176
     1
 91
        4
176
     1
 64
     7
176
     1
 65
   257
176
     1
 75
     1
176
     1
175
     1
176
     1
 42
1.0
176
     1
 92
        8
176
     1
 66
     7
176
     1
 43
1.0
176
     1
 76
     1
176
     1
 77
     6
176
     1
 78
     2
176
     1
 67
     7
176
     1
 79
     5
176
     1
170
     0
176
     1
171
     0
176
     1
290
     0
176
     1
 93
        1
176
     1
 44
0.0
176
     1
173
     0
176
     1
  0
VISUALSTYLE
  5
2B
102
{ACAD_REACTORS
330
2A
102
}
330
2A
100
AcDbVisualStyle
  2
Flat
 70
     0
177
     2
291
     1
 71
     2
176
     1
 72
     1
176
     1
 73
     1
176
     1
 90
        2
176
     1
 40
-0.6
176
     1
 41
30.0
176
     1
 62
     5
 63
     7
421
 16777215
176
     1
 74
     0
176
     1
 91
        4
176
     1
 64
     7
176
     1
 65
   257
176
     1
 75
     1
176
     1
175
     1
176
     1
 42
1.0
176
     1
 92
        8
176
     1
 66
     7
176
     1
 43
1.0
176
     1
 76
     1
176
     1
 77
     6
176
     1
 78
     2
176
     1
 67
     7
176
     1
 79
     5
176
     1
170
     0
176
     1
171
     0
176
     1
290
     0
176
     1
 93
       13
176
     1
 44
0.0
176
     1
173
     0
176
     1
  0
VISUALSTYLE
  5
2C
102
{ACAD_REACTORS
330
2A
102
}
330
2A
100
AcDbVisualStyle
  2
FlatWithEdges
 70
     1
177
     2
291
     1
 71
     2
176
     1
 72
     1
176
     1
 73
     1
176
     1
 90
        2
176
     1
 40
-0.6
176
     1
 41
30.0
176
     1
 62
     5
 63
     7
421
 16777215
176
     1
 74
     1
176
     1
 91
        4
176
     1
 64
     7
176
     1
 65
   257
176
     1
 75
     1
176
     1
175
     1
176
     1
 42
1.0
176
     1
 92
        0
176
     1
 66
   257
176
     1
 43
1.0
176
     1
 76
     1
176
     1
 77
     6
176
     1
 78
     2
176
     1
 67
     7
176
     1
 79
     5
176
     1
170
     0
176
     1
171
     0
176
     1
290
     0
176
     1
 93
       13
176
     1
 44
0.0
176
     1
173
     0
176
     1
  0
VISUALSTYLE
  5
2D
102
{ACAD_REACTORS
330
2A
102
}
330
2A
100
AcDbVisualStyle
  2
Gouraud
 70
     2
177
     2
291
     1
 71
     2
176
     1
 72
     2
176
     1
 73
     1
176
     1
 90
        2
176
     1
 40
-0.6
176
     1
 41
30.0
176
     1
 62
     5
 63
     7
421
 16777215
176
     1
 74
     0
176
     1
 91
        4
176
     1
 64
     7
176
     1
 65
   257
176
     1
 75
     1
176
     1
175
     1
176
     1
 42
1.0
176
     1
 92
        0
176
     1
 66
     7
176
     1
 43
1.0
176
     1
 76
     1
176
     1
 77
     6
176
     1
 78
     2
176
     1
 67
     7
176
     1
 79
     5
176
     1
170
     0
176
     1
171
     0
176
     1
290
     0
176
     1
 93
       13
176
     1
 44
0.0
176
     1
173
     0
176
     1
  0
VISUALSTYLE
  5
2E
102
{ACAD_REACTORS
330
2A
102
}
330
2A
100
AcDbVisualStyle
  2
GouraudWithEdges
 70
     3
177
     2
291
     1
 71
     2
176
     1
 72
     2
176
     1
 73
     1
176
     1
 90
        2
176
     1
 40
-0.6
176
     1
 41
30.0
176
     1
 62
     5
 63
     7
421
 16777215
176
     1
 74
     1
176
     1
 91
        4
176
     1
 64
     7
176
     1
 65
   257
176
     1
 75
     1
176
     1
175
     1
176
     1
 42
1.0
176
     1
 92
        0
176
     1
 66
   257
176
     1
 43
1.0
176
     1
 76
     1
176
     1
 77
     6
176
     1
 78
     2
176
     1
 67
     7
176
     1
 79
     5
176
     1
170
     0
176
     1
171
     0
176
     1
290
     0
176
     1
 93
       13
176
     1
 44
0.0
176
     1
173
     0
176
     1
  0
VISUALSTYLE
  5
38
102
{ACAD_REACTORS
330
2A
102
}
330
2A
100
AcDbVisualStyle
  2
Linepattern
 70
    14
177
     2
291
     1
 71
     2
176
     1
 72
     2
176
     1
 73
     0
176
     1
 90
        0
176
     1
 40
-0.6
176
     1
 41
-30.0
176
     1
 62
     5
 63
     7
421
 16777215
176
     1
 74
     1
176
     1
 91
        4
176
     1
 64
     7
176
     1
 65
   257
176
     1
 75
     7
176
     1
175
     7
176
     1
 42
1.0
176
     1
 92
        8
176
     1
 66
     7
176
     1
 43
1.0
176
     1
 76
     1
176
     1
 77
     6
176
     1
 78
     2
176
     1
 67
     7
176
     1
 79
     5
176
     1
170
     0
176
     1
171
     0
176
     1
290
     0
176
     1
 93
        1
176
     1
 44
0.0
176
     1
173
     0
176
     1
  0
VISUALSTYLE
  5
33
102
{ACAD_REACTORS
330
2A
102
}
330
2A
100
AcDbVisualStyle
  2
Realistic
 70
     8
177
     2
291
     0
 71
     2
176
     1
 72
     2
176
     1
 73
     0
176
     1
 90
        0
176
     1
 40
-0.6
176
     1
 41
-30.0
176
     1
 62
     5
 63
     7
421
 16777215
176
     1
 74
     1
176
     1
 91
        0
176
     1
 64
     7
176
     1
 65
   257
176
     1
 75
     1
176
     1
175
     1
176
     1
 42
1.0
176
     1
 92
        8
176
     1
 66
     8
424
  7895160
176
     1
 43
1.0
176
     1
 76
     1
176
     1
 77
     6
176
     1
 78
     2
176
     1
 67
     7
176
     1
 79
     5
176
     1
170
     0
176
     1
171
     0
176
     1
290
     0
176
     1
 93
       13
176
     1
 44
0.0
176
     1
173
     0
176
     1
  0
VISUALSTYLE
  5
37
102
{ACAD_REACTORS
330
2A
102
}
330
2A
100
AcDbVisualStyle
  2
Thicken
 70
    13
177
     2
291
     1
 71
     2
176
     1
 72
     2
176
     1
 73
     0
176
     1
 90
        0
176
     1
 40
-0.6
176
     1
 41
-30.0
176
     1
 62
     5
 63
     7
421
 16777215
176
     1
 74
     1
176
     1
 91
        4
176
     1
 64
     7
176
     1
 65
   257
176
     1
 75
     1
176
     1
175
     1
176
     1
 42
1.0
176
     1
 92
       12
176
     1
 66
     7
176
     1
 43
1.0
176
     1
 76
     1
176
     1
 77
     6
176
     1
 78
     2
176
     1
 67
     7
176
     1
 79
     5
176
     1
170
     0
176
     1
171
     0
176
     1
290
     0
176
     1
 93
        1
176
     1
 44
0.0
176
     1
173
     0
176
     1
  0
ENDSEC
  0
EOF
