  0
SECTION
  2
HEADER
  9
$ACADVER
  1
AC1024
  9
$ACADMAINTVER
 70
     6
  9
$DWGCODEPAGE
  3
ANSI_932
  9
$INSBASE
 10
0.0
 20
0.0
 30
0.0
  9
$EXTMIN
 10
-4455.0
 20
-3150.0
 30
0.0
  9
$EXTMAX
 10
4455.0
 20
3150.0
 30
0.0
  9
$LIMMIN
 10
-4455.0
 20
-3150.0
  9
$LIMMAX
 10
4455.0
 20
3150.0
  9
$ORTHOMODE
 70
     0
  9
$REGENMODE
 70
     1
  9
$FILLMODE
 70
     1
  9
$QTEXTMODE
 70
     0
  9
$MIRRTEXT
 70
     1
  9
$LTSCALE
 40
30.0
  9
$ATTMODE
 70
     1
  9
$TEXTSIZE
 40
2.5
  9
$TRACEWID
 40
1.0
  9
$TEXTSTYLE
  7
Standard
  9
$CLAYER
  8
0
  9
$CELTYPE
  6
ByLayer
  9
$CECOLOR
 62
   256
  9
$CELTSCALE
 40
1.0
  9
$DISPSILH
 70
     0
  9
$DIMSCALE
 40
1.0
  9
$DIMASZ
 40
2.5
  9
$DIMEXO
 40
0.625
  9
$DIMDLI
 40
3.75
  9
$DIMRND
 40
0.0
  9
$DIMDLE
 40
0.0
  9
$DIMEXE
 40
1.25
  9
$DIMTP
 40
0.0
  9
$DIMTM
 40
0.0
  9
$DIMTXT
 40
2.5
  9
$DIMCEN
 40
2.5
  9
$DIMTSZ
 40
0.0
  9
$DIMTOL
 70
     0
  9
$DIMLIM
 70
     0
  9
$DIMTIH
 70
     0
  9
$DIMTOH
 70
     0
  9
$DIMSE1
 70
     0
  9
$DIMSE2
 70
     0
  9
$DIMTAD
 70
     1
  9
$DIMZIN
 70
     8
  9
$DIMBLK
  1

  9
$DIMASO
 70
     1
  9
$DIMSHO
 70
     1
  9
$DIMPOST
  1

  9
$DIMAPOST
  1

  9
$DIMALT
 70
     0
  9
$DIMALTD
 70
     3
  9
$DIMALTF
 40
0.03937007874016
  9
$DIMLFAC
 40
1.0
  9
$DIMTOFL
 70
     1
  9
$DIMTVP
 40
0.0
  9
$DIMTIX
 70
     0
  9
$DIMSOXD
 70
     0
  9
$DIMSAH
 70
     0
  9
$DIMBLK1
  1

  9
$DIMBLK2
  1

  9
$DIMSTYLE
  2
ISO-25
  9
$DIMCLRD
 70
     0
  9
$DIMCLRE
 70
     0
  9
$DIMCLRT
 70
     0
  9
$DIMTFAC
 40
1.0
  9
$DIMGAP
 40
0.625
  9
$DIMJUST
 70
     0
  9
$DIMSD1
 70
     0
  9
$DIMSD2
 70
     0
  9
$DIMTOLJ
 70
     0
  9
$DIMTZIN
 70
     8
  9
$DIMALTZ
 70
     0
  9
$DIMALTTZ
 70
     0
  9
$DIMUPT
 70
     0
  9
$DIMDEC
 70
     2
  9
$DIMTDEC
 70
     2
  9
$DIMALTU
 70
     2
  9
$DIMALTTD
 70
     3
  9
$DIMTXSTY
  7
Standard
  9
$DIMAUNIT
 70
     0
  9
$DIMADEC
 70
     0
  9
$DIMALTRND
 40
0.0
  9
$DIMAZIN
 70
     0
  9
$DIMDSEP
 70
    44
  9
$DIMATFIT
 70
     3
  9
$DIMFRAC
 70
     0
  9
$DIMLDRBLK
  1

  9
$DIMLUNIT
 70
     2
  9
$DIMLWD
 70
    -2
  9
$DIMLWE
 70
    -2
  9
$DIMTMOVE
 70
     0
  9
$DIMFXL
 40
1.0
  9
$DIMFXLON
 70
     0
  9
$DIMJOGANG
 40
0.7853981633974483
  9
$DIMTFILL
 70
     0
  9
$DIMTFILLCLR
 70
     0
  9
$DIMARCSYM
 70
     0
  9
$DIMLTYPE
  6

  9
$DIMLTEX1
  6

  9
$DIMLTEX2
  6

  9
$DIMTXTDIRECTION
 70
     0
  9
$LUNITS
 70
     2
  9
$LUPREC
 70
     4
  9
$SKETCHINC
 40
1.0
  9
$FILLETRAD
 40
10.0
  9
$AUNITS
 70
     0
  9
$AUPREC
 70
     0
  9
$MENU
  1
.
  9
$ELEVATION
 40
0.0
  9
$PELEVATION
 40
0.0
  9
$THICKNESS
 40
0.0
  9
$LIMCHECK
 70
     0
  9
$CHAMFERA
 40
10.0
  9
$CHAMFERB
 40
10.0
  9
$CHAMFERC
 40
20.0
  9
$CHAMFERD
 40
0.0
  9
$SKPOLY
 70
     0
  9
$TDCREATE
 40
2457953.400675162
  9
$TDUCREATE
 40
2457953.025675162
  9
$TDUPDATE
 40
2457953.400675173
  9
$TDUUPDATE
 40
2457953.025675173
  9
$TDINDWG
 40
0.0000000116
  9
$TDUSRTIMER
 40
0.0000000116
  9
$USRTIMER
 70
     1
  9
$ANGBASE
 50
0.0
  9
$ANGDIR
 70
     0
  9
$PDMODE
 70
     0
  9
$PDSIZE
 40
0.0
  9
$PLINEWID
 40
0.0
  9
$SPLFRAME
 70
     0
  9
$SPLINETYPE
 70
     6
  9
$SPLINESEGS
 70
     8
  9
$HANDSEED
  5
25A
  9
$SURFTAB1
 70
     6
  9
$SURFTAB2
 70
     6
  9
$SURFTYPE
 70
     6
  9
$SURFU
 70
     6
  9
$SURFV
 70
     6
  9
$UCSBASE
  2

  9
$UCSNAME
  2

  9
$UCSORG
 10
0.0
 20
0.0
 30
0.0
  9
$UCSXDIR
 10
1.0
 20
0.0
 30
0.0
  9
$UCSYDIR
 10
0.0
 20
1.0
 30
0.0
  9
$UCSORTHOREF
  2

  9
$UCSORTHOVIEW
 70
     0
  9
$UCSORGTOP
 10
0.0
 20
0.0
 30
0.0
  9
$UCSORGBOTTOM
 10
0.0
 20
0.0
 30
0.0
  9
$UCSORGLEFT
 10
0.0
 20
0.0
 30
0.0
  9
$UCSORGRIGHT
 10
0.0
 20
0.0
 30
0.0
  9
$UCSORGFRONT
 10
0.0
 20
0.0
 30
0.0
  9
$UCSORGBACK
 10
0.0
 20
0.0
 30
0.0
  9
$PUCSBASE
  2

  9
$PUCSNAME
  2

  9
$PUCSORG
 10
0.0
 20
0.0
 30
0.0
  9
$PUCSXDIR
 10
1.0
 20
0.0
 30
0.0
  9
$PUCSYDIR
 10
0.0
 20
1.0
 30
0.0
  9
$PUCSORTHOREF
  2

  9
$PUCSORTHOVIEW
 70
     0
  9
$PUCSORGTOP
 10
0.0
 20
0.0
 30
0.0
  9
$PUCSORGBOTTOM
 10
0.0
 20
0.0
 30
0.0
  9
$PUCSORGLEFT
 10
0.0
 20
0.0
 30
0.0
  9
$PUCSORGRIGHT
 10
0.0
 20
0.0
 30
0.0
  9
$PUCSORGFRONT
 10
0.0
 20
0.0
 30
0.0
  9
$PUCSORGBACK
 10
0.0
 20
0.0
 30
0.0
  9
$USERI1
 70
     0
  9
$USERI2
 70
     0
  9
$USERI3
 70
     0
  9
$USERI4
 70
     0
  9
$USERI5
 70
     0
  9
$USERR1
 40
0.0
  9
$USERR2
 40
0.0
  9
$USERR3
 40
0.0
  9
$USERR4
 40
0.0
  9
$USERR5
 40
0.0
  9
$WORLDVIEW
 70
     1
  9
$SHADEDGE
 70
     3
  9
$SHADEDIF
 70
    70
  9
$TILEMODE
 70
     1
  9
$MAXACTVP
 70
    64
  9
$PINSBASE
 10
0.0
 20
0.0
 30
0.0
  9
$PLIMCHECK
 70
     0
  9
$PEXTMIN
 10
1.000000000000000E+20
 20
1.000000000000000E+20
 30
1.000000000000000E+20
  9
$PEXTMAX
 10
-1.000000000000000E+20
 20
-1.000000000000000E+20
 30
-1.000000000000000E+20
  9
$PLIMMIN
 10
0.0
 20
0.0
  9
$PLIMMAX
 10
420.0
 20
297.0
  9
$UNITMODE
 70
     0
  9
$VISRETAIN
 70
     1
  9
$PLINEGEN
 70
     0
  9
$PSLTSCALE
 70
     1
  9
$TREEDEPTH
 70
  3020
  9
$CMLSTYLE
  2
Standard
  9
$CMLJUST
 70
     0
  9
$CMLSCALE
 40
20.0
  9
$PROXYGRAPHICS
 70
     1
  9
$MEASUREMENT
 70
     1
  9
$CELWEIGHT
370
    -1
  9
$ENDCAPS
280
     0
  9
$JOINSTYLE
280
     0
  9
$LWDISPLAY
290
     0
  9
$INSUNITS
 70
     4
  9
$HYPERLINKBASE
  1

  9
$STYLESHEET
  1

  9
$XEDIT
290
     1
  9
$CEPSNTYPE
380
     0
  9
$PSTYLEMODE
290
     1
  9
$FINGERPRINTGUID
  2
{FD6A340B-737E-4462-BA62-7A00747306CB}
  9
$VERSIONGUID
  2
{FAEB1C32-E019-11D5-929B-00C0DF256EC4}
  9
$EXTNAMES
290
     1
  9
$PSVPSCALE
 40
0.0
  9
$OLESTARTUP
290
     0
  9
$SORTENTS
280
   127
  9
$INDEXCTL
280
     0
  9
$HIDETEXT
280
     1
  9
$XCLIPFRAME
280
     2
  9
$HALOGAP
280
     0
  9
$OBSCOLOR
 70
   257
  9
$OBSLTYPE
280
     0
  9
$INTERSECTIONDISPLAY
280
     0
  9
$INTERSECTIONCOLOR
 70
   257
  9
$DIMASSOC
280
     2
  9
$PROJECTNAME
  1

  9
$CAMERADISPLAY
290
     0
  9
$LENSLENGTH
 40
50.0
  9
$CAMERAHEIGHT
 40
0.0
  9
$STEPSPERSEC
 40
2.0
  9
$STEPSIZE
 40
6.0
  9
$3DDWFPREC
 40
2.0
  9
$PSOLWIDTH
 40
5.0
  9
$PSOLHEIGHT
 40
80.0
  9
$LOFTANG1
 40
1.570796326794897
  9
$LOFTANG2
 40
1.570796326794897
  9
$LOFTMAG1
 40
0.0
  9
$LOFTMAG2
 40
0.0
  9
$LOFTPARAM
 70
     7
  9
$LOFTNORMALS
280
     1
  9
$LATITUDE
 40
37.795
  9
$LONGITUDE
 40
-122.394
  9
$NORTHDIRECTION
 40
0.0
  9
$TIMEZONE
 70
 -8000
  9
$LIGHTGLYPHDISPLAY
280
     1
  9
$TILEMODELIGHTSYNCH
280
     1
  9
$SOLIDHIST
280
     1
  9
$SHOWHIST
280
     1
  9
$DWFFRAME
280
     2
  9
$DGNFRAME
280
     2
  9
$REALWORLDSCALE
290
     1
  9
$INTERFERECOLOR
 62
   256
  9
$CSHADOW
280
     0
  9
$SHADOWPLANELOCATION
 40
0.0
  0
ENDSEC
  0
SECTION
  2
CLASSES
  0
CLASS
  1
ACDBDICTIONARYWDFLT
  2
AcDbDictionaryWithDefault
  3
ObjectDBX Classes
 90
        0
 91
        4
280
     0
281
     0
  0
CLASS
  1
VISUALSTYLE
  2
AcDbVisualStyle
  3
ObjectDBX Classes
 90
     4095
 91
        4
280
     0
281
     0
  0
CLASS
  1
MATERIAL
  2
AcDbMaterial
  3
ObjectDBX Classes
 90
     1153
 91
        4
280
     0
281
     0
  0
ENDSEC
  0
SECTION
  2
TABLES
  0
TABLE
  2
VPORT
  5
8
330
0
100
AcDbSymbolTable
 70
     1
  0
VPORT
  5
29
330
8
100
AcDbSymbolTableRecord
100
AcDbViewportTableRecord
  2
*Active
 70
     0
 10
0.0
 20
0.0
 11
1.0
 21
1.0
 12
0.0
 22
0.0
 13
0.0
 23
0.0
 14
10.0
 24
10.0
 15
10.0
 25
10.0
 16
0.0
 26
0.0
 36
1.0
 17
0.0
 27
0.0
 37
0.0
 40
6930.000000000001
 41
1.414285714285714
 42
50.0
 43
0.0
 44
0.0
 50
0.0
 51
0.0
 71
     0
 72
 10000
 73
     1
 74
     3
 75
     0
 76
     0
 77
     0
 78
     0
281
     0
 65
     1
110
0.0
120
0.0
130
0.0
111
1.0
121
0.0
131
0.0
112
0.0
122
1.0
132
0.0
 79
     0
146
0.0
 60
     3
 61
     5
292
     1
282
     1
141
0.0
142
0.0
 63
   250
  0
ENDTAB
  0
TABLE
  2
LTYPE
  5
5
330
0
100
AcDbSymbolTable
 70
     2
  0
LTYPE
  5
14
330
5
100
AcDbSymbolTableRecord
100
AcDbLinetypeTableRecord
  2
ByBlock
 70
     0
  3

 72
    65
 73
     0
 40
0.0
  0
LTYPE
  5
15
330
5
100
AcDbSymbolTableRecord
100
AcDbLinetypeTableRecord
  2
ByLayer
 70
     0
  3

 72
    65
 73
     0
 40
0.0
  0
LTYPE
  5
16
330
5
100
AcDbSymbolTableRecord
100
AcDbLinetypeTableRecord
  2
Continuous
 70
     0
  3
Solid line
 72
    65
 73
     0
 40
0.0
  0
LTYPE
  5
3F
330
5
100
AcDbSymbolTableRecord
100
AcDbLinetypeTableRecord
  2
JWW_DASHED1
 70
     0
  3
-  --  --  --  --  --  --  --  -
 72
    65
 73
     2
 40
1.693333333333333
 49
0.8466666666666667
 74
     0
 49
-0.8466666666666667
 74
     0
  0
ENDTAB
  0
TABLE
  2
LAYER
  5
2
330
0
100
AcDbSymbolTable
 70
     4
  0
LAYER
  5
10
330
2
100
AcDbSymbolTableRecord
100
AcDbLayerTableRecord
  2
0
 70
     0
 62
     7
  6
Continuous
370
    -3
390
F
347
3E
  0
LAYER
  5
40
330
2
100
AcDbSymbolTableRecord
100
AcDbLayerTableRecord
  2
0-0
 70
     0
 62
     7
  6
Continuous
370
    -3
390
F
347
3E
  0
LAYER
  5
41
330
2
100
AcDbSymbolTableRecord
100
AcDbLayerTableRecord
  2
文字
 70
     0
 62
     7
  6
Continuous
370
    -3
390
F
347
3E
  0
LAYER
  5
42
330
2
100
AcDbSymbolTableRecord
100
AcDbLayerTableRecord
  2
寸法
 70
     0
 62
     7
  6
Continuous
370
    -3
390
F
347
3E
  0
ENDTAB
  0
TABLE
  2
STYLE
  5
3
330
0
100
AcDbSymbolTable
 70
     1
  0
STYLE
  5
11
330
3
100
AcDbSymbolTableRecord
100
AcDbTextStyleTableRecord
  2
Standard
 70
     0
 40
0.0
 41
1.0
 50
0.0
 71
     0
 42
2.5
  3
txt
  4

  0
ENDTAB
  0
TABLE
  2
VIEW
  5
6
330
0
100
AcDbSymbolTable
 70
     0
  0
ENDTAB
  0
TABLE
  2
UCS
  5
7
330
0
100
AcDbSymbolTable
 70
     0
  0
ENDTAB
  0
TABLE
  2
APPID
  5
9
330
0
100
AcDbSymbolTable
 70
     1
  0
APPID
  5
12
330
9
100
AcDbSymbolTableRecord
100
AcDbRegAppTableRecord
  2
ACAD
 70
     0
  0
ENDTAB
  0
TABLE
  2
DIMSTYLE
  5
A
330
0
100
AcDbSymbolTable
 70
     1
100
AcDbDimStyleTable
  0
DIMSTYLE
105
27
330
A
100
AcDbSymbolTableRecord
100
AcDbDimStyleTableRecord
  2
ISO-25
 70
     0
 41
2.5
 42
0.625
 43
3.75
 44
1.25
 73
     0
 74
     0
 77
     1
 78
     8
140
2.5
141
2.5
143
0.03937007874016
147
0.625
171
     3
172
     1
178
     0
271
     2
272
     2
274
     3
278
    44
283
     0
284
     8
340
11
  0
ENDTAB
  0
TABLE
  2
BLOCK_RECORD
  5
1
330
0
100
AcDbSymbolTable
 70
     1
  0
BLOCK_RECORD
  5
1F
330
1
100
AcDbSymbolTableRecord
100
AcDbBlockTableRecord
  2
*Model_Space
340
22
 70
     0
280
     1
281
     0
  0
BLOCK_RECORD
  5
1B
330
1
100
AcDbSymbolTableRecord
100
AcDbBlockTableRecord
  2
*Paper_Space
340
1E
 70
     0
280
     1
281
     0
  0
BLOCK_RECORD
  5
23
330
1
100
AcDbSymbolTableRecord
100
AcDbBlockTableRecord
  2
*Paper_Space0
340
26
 70
     0
280
     1
281
     0
  0
ENDTAB
  0
ENDSEC
  0
SECTION
  2
BLOCKS
  0
BLOCK
  5
20
330
1F
100
AcDbEntity
  8
0
100
AcDbBlockBegin
  2
*Model_Space
 70
     0
 10
0.0
 20
0.0
 30
0.0
  3
*Model_Space
  1

  0
ENDBLK
  5
21
330
1F
100
AcDbEntity
  8
0
100
AcDbBlockEnd
  0
BLOCK
  5
1C
330
1B
100
AcDbEntity
 67
     1
  8
0
100
AcDbBlockBegin
  2
*Paper_Space
 70
     0
 10
0.0
 20
0.0
 30
0.0
  3
*Paper_Space
  1

  0
ENDBLK
  5
1D
330
1B
100
AcDbEntity
 67
     1
  8
0
100
AcDbBlockEnd
  0
BLOCK
  5
24
330
23
100
AcDbEntity
  8
0
100
AcDbBlockBegin
  2
*Paper_Space0
 70
     0
 10
0.0
 20
0.0
 30
0.0
  3
*Paper_Space0
  1

  0
ENDBLK
  5
25
330
23
100
AcDbEntity
  8
0
100
AcDbBlockEnd
  0
ENDSEC
  0
SECTION
  2
ENTITIES
  0
LINE
  5
43
330
1F
100
AcDbEntity
  8
0-0
  6
Continuous
 62
    92
370
    13
100
AcDbLine
 10
1662.691102168857
 20
-1438.833089590066
 30
0.0
 11
-1571.308897831143
 21
-1438.833089590066
 31
0.0
  0
LINE
  5
44
330
1F
100
AcDbEntity
  8
0-0
  6
Continuous
 62
    92
370
    13
100
AcDbLine
 10
1632.691102168857
 20
-1423.833089590066
 30
0.0
 11
-1541.308897831143
 21
-1423.833089590066
 31
0.0
  0
ARC
  5
45
330
1F
100
AcDbEntity
  8
0-0
  6
Continuous
 62
    92
370
    13
100
AcDbCircle
 10
-24.80889783114089
 20
-401.8330895900657
 30
0.0
 40
1.5
100
AcDbArc
 50
90.0
 51
180.0
  0
LINE
  5
46
330
1F
100
AcDbEntity
  8
0-0
  6
Continuous
 62
    92
370
    13
100
AcDbLine
 10
14.19110216885774
 20
-400.3330895900654
 30
0.0
 11
-24.80889783114089
 21
-400.3330895900654
 31
0.0
  0
ARC
  5
47
330
1F
100
AcDbEntity
  8
0-0
  6
Continuous
 62
    92
370
    13
100
AcDbCircle
 10
14.19110216885774
 20
-401.8330895900657
 30
0.0
 40
1.5
100
AcDbArc
 50
0.0
 51
90.00000000000001
  0
LINE
  5
48
330
1F
100
AcDbEntity
  8
0-0
  6
Continuous
 62
    92
370
    13
100
AcDbLine
 10
15.69110216885808
 20
-520.8330895900649
 30
0.0
 11
15.69110216885808
 21
-401.8330895900657
 31
0.0
  0
ARC
  5
49
330
1F
100
AcDbEntity
  8
0-0
  6
Continuous
 62
    92
370
    13
100
AcDbCircle
 10
14.19110216885774
 20
-520.8330895900649
 30
0.0
 40
1.5
100
AcDbArc
 50
270.0
 51
0.0
  0
LINE
  5
4A
330
1F
100
AcDbEntity
  8
0-0
  6
Continuous
 62
    92
370
    13
100
AcDbLine
 10
-24.80889783114089
 20
-522.333089590067
 30
0.0
 11
14.19110216885774
 21
-522.333089590067
 31
0.0
  0
LINE
  5
4B
330
1F
100
AcDbEntity
  8
0-0
  6
Continuous
 62
    92
370
    13
100
AcDbLine
 10
-26.30889783114123
 20
-520.8330895900649
 30
0.0
 11
-26.30889783114123
 21
-401.8330895900657
 31
0.0
  0
ARC
  5
4C
330
1F
100
AcDbEntity
  8
0-0
  6
Continuous
 62
    92
370
    13
100
AcDbCircle
 10
-24.80889783114089
 20
-520.8330895900649
 30
0.0
 40
1.5
100
AcDbArc
 50
180.0
 51
270.0
  0
ARC
  5
4D
330
1F
100
AcDbEntity
  8
0-0
  6
Continuous
 62
     7
370
     9
100
AcDbCircle
 10
-5.308897831141575
 20
-490.9330895900648
 30
0.0
 40
15.0
100
AcDbArc
 50
180.0
 51
0.0
  0
ARC
  5
4E
330
1F
100
AcDbEntity
  8
0-0
  6
Continuous
 62
     7
370
     9
100
AcDbCircle
 10
-5.308897831141575
 20
-431.7330895900649
 30
0.0
 40
15.0
100
AcDbArc
 50
0.0
 51
180.0
  0
LINE
  5
4F
330
1F
100
AcDbEntity
  8
0-0
  6
Continuous
 62
     7
370
     9
100
AcDbLine
 10
9.691102168858425
 20
-490.9330895900648
 30
0.0
 11
9.691102168858425
 21
-431.7330895900649
 31
0.0
  0
LINE
  5
50
330
1F
100
AcDbEntity
  8
0-0
  6
Continuous
 62
     7
370
     9
100
AcDbLine
 10
-20.30889783114158
 20
-431.7330895900649
 30
0.0
 11
-20.30889783114158
 21
-490.9330895900648
 31
0.0
  0
ARC
  5
51
330
1F
100
AcDbEntity
  8
0-0
  6
Continuous
 62
    92
370
    13
100
AcDbCircle
 10
77.19110216885502
 20
-401.8330895900657
 30
0.0
 40
1.5
100
AcDbArc
 50
90.0
 51
180.0
  0
LINE
  5
52
330
1F
100
AcDbEntity
  8
0-0
  6
Continuous
 62
    92
370
    13
100
AcDbLine
 10
116.1911021688571
 20
-400.3330895900654
 30
0.0
 11
77.19110216885502
 21
-400.3330895900654
 31
0.0
  0
ARC
  5
53
330
1F
100
AcDbEntity
  8
0-0
  6
Continuous
 62
    92
370
    13
100
AcDbCircle
 10
116.1911021688571
 20
-401.8330895900657
 30
0.0
 40
1.5
100
AcDbArc
 50
0.0
 51
90.00000000000001
  0
LINE
  5
54
330
1F
100
AcDbEntity
  8
0-0
  6
Continuous
 62
    92
370
    13
100
AcDbLine
 10
117.6911021688557
 20
-520.8330895900649
 30
0.0
 11
117.6911021688557
 21
-401.8330895900657
 31
0.0
  0
ARC
  5
55
330
1F
100
AcDbEntity
  8
0-0
  6
Continuous
 62
    92
370
    13
100
AcDbCircle
 10
116.1911021688571
 20
-520.8330895900649
 30
0.0
 40
1.5
100
AcDbArc
 50
270.0
 51
0.0
  0
LINE
  5
56
330
1F
100
AcDbEntity
  8
0-0
  6
Continuous
 62
    92
370
    13
100
AcDbLine
 10
77.19110216885502
 20
-522.333089590067
 30
0.0
 11
116.1911021688571
 21
-522.333089590067
 31
0.0
  0
LINE
  5
57
330
1F
100
AcDbEntity
  8
0-0
  6
Continuous
 62
    92
370
    13
100
AcDbLine
 10
75.69110216885724
 20
-520.8330895900649
 30
0.0
 11
75.69110216885724
 21
-401.8330895900657
 31
0.0
  0
ARC
  5
58
330
1F
100
AcDbEntity
  8
0-0
  6
Continuous
 62
    92
370
    13
100
AcDbCircle
 10
77.19110216885502
 20
-520.8330895900649
 30
0.0
 40
1.5
100
AcDbArc
 50
180.0
 51
270.0
  0
ARC
  5
59
330
1F
100
AcDbEntity
  8
0-0
  6
Continuous
 62
     7
370
     9
100
AcDbCircle
 10
96.69110216885605
 20
-490.9330895900648
 30
0.0
 40
15.0
100
AcDbArc
 50
180.0
 51
0.0
  0
ARC
  5
5A
330
1F
100
AcDbEntity
  8
0-0
  6
Continuous
 62
     7
370
     9
100
AcDbCircle
 10
96.69110216885605
 20
-431.7330895900649
 30
0.0
 40
15.0
100
AcDbArc
 50
0.0
 51
180.0
  0
LINE
  5
5B
330
1F
100
AcDbEntity
  8
0-0
  6
Continuous
 62
     7
370
     9
100
AcDbLine
 10
111.691102168856
 20
-490.9330895900648
 30
0.0
 11
111.691102168856
 21
-431.7330895900649
 31
0.0
  0
LINE
  5
5C
330
1F
100
AcDbEntity
  8
0-0
  6
Continuous
 62
     7
370
     9
100
AcDbLine
 10
81.69110216885605
 20
-431.7330895900649
 30
0.0
 11
81.69110216885605
 21
-490.9330895900648
 31
0.0
  0
LINE
  5
5D
330
1F
100
AcDbEntity
  8
0-0
  6
Continuous
 62
    92
370
    13
100
AcDbLine
 10
-764.3088978311428
 20
-1418.833089590066
 30
0.0
 11
45.69110216885723
 21
-1418.833089590066
 31
0.0
  0
LINE
  5
5E
330
1F
100
AcDbEntity
  8
0-0
  6
Continuous
 62
    92
370
    13
100
AcDbLine
 10
855.6911021688572
 20
-1418.833089590066
 30
0.0
 11
45.69110216885723
 21
-1418.833089590066
 31
0.0
  0
LINE
  5
5F
330
1F
100
AcDbEntity
  8
0-0
  6
Continuous
 62
    92
370
    13
100
AcDbLine
 10
-1571.308897831143
 20
808.1669104099346
 30
0.0
 11
1662.691102168857
 21
808.1669104099346
 31
0.0
  0
LINE
  5
60
330
1F
100
AcDbEntity
  8
0-0
  6
Continuous
 62
    92
370
    13
100
AcDbLine
 10
-1541.308897831143
 20
772.1669104099333
 30
0.0
 11
1632.691102168857
 21
772.1669104099333
 31
0.0
  0
LINE
  5
61
330
1F
100
AcDbEntity
  8
0-0
  6
Continuous
 62
    92
370
    13
100
AcDbLine
 10
1632.691102168857
 20
-1438.833089590066
 30
0.0
 11
1632.691102168857
 21
808.1669104099346
 31
0.0
  0
LINE
  5
62
330
1F
100
AcDbEntity
  8
0-0
  6
Continuous
 62
    92
370
    13
100
AcDbLine
 10
-1541.308897831143
 20
-1438.833089590066
 30
0.0
 11
-1541.308897831143
 21
808.1669104099346
 31
0.0
  0
LINE
  5
63
330
1F
100
AcDbEntity
  8
0-0
  6
Continuous
 62
    92
370
    13
100
AcDbLine
 10
1662.691102168857
 20
-1438.833089590066
 30
0.0
 11
1662.691102168857
 21
808.1669104099346
 31
0.0
  0
LINE
  5
64
330
1F
100
AcDbEntity
  8
0-0
  6
Continuous
 62
    92
370
    13
100
AcDbLine
 10
-1571.308897831143
 20
-1438.833089590066
 30
0.0
 11
-1571.308897831143
 21
808.1669104099346
 31
0.0
  0
LINE
  5
65
330
1F
100
AcDbEntity
  8
0-0
  6
Continuous
 62
    92
370
    13
100
AcDbLine
 10
-764.3088978311428
 20
-1418.833089590066
 30
0.0
 11
-764.3088978311428
 21
764.1669104099337
 31
0.0
  0
LINE
  5
66
330
1F
100
AcDbEntity
  8
0-0
  6
JWW_DASHED1
 62
   120
370
     5
100
AcDbLine
 10
-734.3088978311428
 20
-1418.833089590066
 30
0.0
 11
-734.3088978311428
 21
764.1669104099337
 31
0.0
  0
LINE
  5
67
330
1F
100
AcDbEntity
  8
0-0
  6
Continuous
 62
    92
370
    13
100
AcDbLine
 10
-764.3088978311428
 20
764.1669104099337
 30
0.0
 11
45.69110216885723
 21
764.1669104099337
 31
0.0
  0
LINE
  5
68
330
1F
100
AcDbEntity
  8
0-0
  6
Continuous
 62
    92
370
    13
100
AcDbLine
 10
45.69110216885723
 20
-1418.833089590066
 30
0.0
 11
45.69110216885723
 21
764.1669104099337
 31
0.0
  0
LINE
  5
69
330
1F
100
AcDbEntity
  8
0-0
  6
Continuous
 62
    92
370
    13
100
AcDbLine
 10
855.6911021688572
 20
-1418.833089590066
 30
0.0
 11
855.6911021688572
 21
764.1669104099337
 31
0.0
  0
LINE
  5
6A
330
1F
100
AcDbEntity
  8
0-0
  6
JWW_DASHED1
 62
   120
370
     5
100
AcDbLine
 10
825.6911021688572
 20
-1418.833089590066
 30
0.0
 11
825.6911021688572
 21
764.1669104099337
 31
0.0
  0
LINE
  5
6B
330
1F
100
AcDbEntity
  8
0-0
  6
Continuous
 62
    92
370
    13
100
AcDbLine
 10
855.6911021688572
 20
764.1669104099337
 30
0.0
 11
45.69110216885723
 21
764.1669104099337
 31
0.0
  0
LINE
  5
6C
330
1F
100
AcDbEntity
  8
0-0
  6
JWW_DASHED1
 62
   120
370
     5
100
AcDbLine
 10
825.691102168858
 20
-1423.833089590066
 30
0.0
 11
825.691102168858
 21
772.1669104099333
 31
0.0
  0
LINE
  5
6D
330
1F
100
AcDbEntity
  8
0-0
  6
JWW_DASHED1
 62
   120
370
     5
100
AcDbLine
 10
855.691102168858
 20
-1423.833089590066
 30
0.0
 11
855.691102168858
 21
772.1669104099333
 31
0.0
  0
LINE
  5
6E
330
1F
100
AcDbEntity
  8
0-0
  6
JWW_DASHED1
 62
   120
370
     5
100
AcDbLine
 10
-764.308897831142
 20
-1423.833089590066
 30
0.0
 11
-764.308897831142
 21
772.1669104099333
 31
0.0
  0
LINE
  5
6F
330
1F
100
AcDbEntity
  8
0-0
  6
JWW_DASHED1
 62
   120
370
     5
100
AcDbLine
 10
-734.308897831142
 20
-1423.833089590066
 30
0.0
 11
-734.308897831142
 21
772.1669104099333
 31
0.0
  0
LINE
  5
70
330
1F
100
AcDbEntity
  8
0-0
  6
Continuous
 62
    92
370
    13
100
AcDbLine
 10
-654.3088978311448
 20
-1268.833089590066
 30
0.0
 11
-64.30889783114247
 21
-1268.833089590066
 31
0.0
  0
LINE
  5
71
330
1F
100
AcDbEntity
  8
0-0
  6
Continuous
 62
    92
370
    13
100
AcDbLine
 10
155.6911021688553
 20
-1268.833089590066
 30
0.0
 11
745.6911021688575
 21
-1268.833089590066
 31
0.0
  0
LINE
  5
72
330
1F
100
AcDbEntity
  8
0-0
  6
Continuous
 62
    92
370
    13
100
AcDbLine
 10
-654.3088978311448
 20
629.1669104099337
 30
0.0
 11
-64.30889783114247
 21
629.1669104099337
 31
0.0
  0
LINE
  5
73
330
1F
100
AcDbEntity
  8
0-0
  6
Continuous
 62
    92
370
    13
100
AcDbLine
 10
155.6911021688553
 20
629.1669104099337
 30
0.0
 11
745.6911021688575
 21
629.1669104099337
 31
0.0
  0
LINE
  5
74
330
1F
100
AcDbEntity
  8
0-0
  6
Continuous
 62
    92
370
    13
100
AcDbLine
 10
-654.3088978311448
 20
-345.8330895900667
 30
0.0
 11
-64.30889783114247
 21
-345.8330895900667
 31
0.0
  0
LINE
  5
75
330
1F
100
AcDbEntity
  8
0-0
  6
JWW_DASHED1
 62
   120
370
     5
100
AcDbLine
 10
-68.76467621271667
 20
-345.8330895900505
 30
0.0
 11
-64.30889783115953
 21
-341.3773112084921
 31
0.0
  0
LINE
  5
76
330
1F
100
AcDbEntity
  8
0-0
  6
JWW_DASHED1
 62
   120
370
     5
100
AcDbLine
 10
-75.83574402459357
 20
-345.8330895900611
 30
0.0
 11
-64.3088978311493
 21
-334.3062433966156
 31
0.0
  0
LINE
  5
77
330
1F
100
AcDbEntity
  8
0-0
  6
JWW_DASHED1
 62
   120
370
     5
100
AcDbLine
 10
-82.90681183645512
 20
-345.8330895900552
 30
0.0
 11
-64.30889783115441
 21
-327.2351755847545
 31
0.0
  0
LINE
  5
78
330
1F
100
AcDbEntity
  8
0-0
  6
JWW_DASHED1
 62
   120
370
     5
100
AcDbLine
 10
-89.97787964831667
 20
-345.8330895900497
 30
0.0
 11
-64.30889783115953
 21
-320.1641077728938
 31
0.0
  0
LINE
  5
79
330
1F
100
AcDbEntity
  8
0-0
  6
JWW_DASHED1
 62
   120
370
     5
100
AcDbLine
 10
-97.04894746019357
 20
-345.8330895900599
 30
0.0
 11
-64.3088978311493
 21
-313.0930399610173
 31
0.0
  0
LINE
  5
7A
330
1F
100
AcDbEntity
  8
0-0
  6
JWW_DASHED1
 62
   120
370
     5
100
AcDbLine
 10
-104.1200152720534
 20
-345.8330895900539
 30
0.0
 11
-64.30889783115612
 21
-306.0219721491558
 31
0.0
  0
LINE
  5
7B
330
1F
100
AcDbEntity
  8
0-0
  6
JWW_DASHED1
 62
   120
370
     5
100
AcDbLine
 10
-111.1910830839303
 20
-345.8330895900629
 30
0.0
 11
-64.30889783114588
 21
-298.9509043372801
 31
0.0
  0
LINE
  5
7C
330
1F
100
AcDbEntity
  8
0-0
  6
JWW_DASHED1
 62
   120
370
     5
100
AcDbLine
 10
-118.2621508957919
 20
-345.8330895900582
 30
0.0
 11
-64.3088978311527
 21
-291.8798365254195
 31
0.0
  0
LINE
  5
7D
330
1F
100
AcDbEntity
  8
0-0
  6
JWW_DASHED1
 62
   120
370
     5
100
AcDbLine
 10
-125.3332187076517
 20
-345.8330895900522
 30
0.0
 11
-64.30889783115612
 21
-284.8087687135575
 31
0.0
  0
LINE
  5
7E
330
1F
100
AcDbEntity
  8
0-0
  6
JWW_DASHED1
 62
   120
370
     5
100
AcDbLine
 10
-132.4042865195269
 20
-345.8330895900608
 30
0.0
 11
-64.3088978311493
 21
-277.7377009016818
 31
0.0
  0
LINE
  5
7F
330
1F
100
AcDbEntity
  8
0-0
  6
JWW_DASHED1
 62
   120
370
     5
100
AcDbLine
 10
-139.4753543313902
 20
-345.8330895900569
 30
0.0
 11
-64.30889783115441
 21
-270.6666330898212
 31
0.0
  0
LINE
  5
80
330
1F
100
AcDbEntity
  8
0-0
  6
JWW_DASHED1
 62
   120
370
     5
100
AcDbLine
 10
-146.5464221432671
 20
-345.8330895900667
 30
0.0
 11
-64.30889783114418
 21
-263.5955652779447
 31
0.0
  0
LINE
  5
81
330
1F
100
AcDbEntity
  8
0-0
  6
JWW_DASHED1
 62
   120
370
     5
100
AcDbLine
 10
-153.6174899551252
 20
-345.833089590059
 30
0.0
 11
-64.3088978311493
 21
-256.524497466084
 31
0.0
  0
LINE
  5
82
330
1F
100
AcDbEntity
  8
0-0
  6
JWW_DASHED1
 62
   120
370
     5
100
AcDbLine
 10
-160.6885577669885
 20
-345.8330895900556
 30
0.0
 11
-64.30889783115612
 21
-249.4534296542228
 31
0.0
  0
LINE
  5
83
330
1F
100
AcDbEntity
  8
0-0
  6
JWW_DASHED1
 62
   120
370
     5
100
AcDbLine
 10
-167.7596255788654
 20
-345.8330895900659
 30
0.0
 11
-64.30889783114588
 21
-242.3823618423464
 31
0.0
  0
LINE
  5
84
330
1F
100
AcDbEntity
  8
0-0
  6
JWW_DASHED1
 62
   120
370
     5
100
AcDbLine
 10
-174.8306933907235
 20
-345.8330895900573
 30
0.0
 11
-64.3088978311493
 21
-235.311294030484
 31
0.0
  0
LINE
  5
85
330
1F
100
AcDbEntity
  8
0-0
  6
JWW_DASHED1
 62
   120
370
     5
100
AcDbLine
 10
-181.9017612025424
 20
-345.8330895900629
 30
0.0
 11
-64.30889783114588
 21
-228.240226218668
 31
0.0
  0
LINE
  5
86
330
1F
100
AcDbEntity
  8
0-0
  6
JWW_DASHED1
 62
   120
370
     5
100
AcDbLine
 10
-188.9728290144057
 20
-345.8330895900604
 30
0.0
 11
-64.3088978311527
 21
-221.1691584068073
 31
0.0
  0
LINE
  5
87
330
1F
100
AcDbEntity
  8
0-0
  6
JWW_DASHED1
 62
   120
370
     5
100
AcDbLine
 10
-196.0438968262656
 20
-345.8330895900543
 30
0.0
 11
-64.30889783115612
 21
-214.0980905949441
 31
0.0
  0
LINE
  5
88
330
1F
100
AcDbEntity
  8
0-0
  6
JWW_DASHED1
 62
   120
370
     5
100
AcDbLine
 10
-203.114964638139
 20
-345.8330895900608
 30
0.0
 11
-64.3088978311493
 21
-207.0270227830697
 31
0.0
  0
LINE
  5
89
330
1F
100
AcDbEntity
  8
0-0
  6
JWW_DASHED1
 62
   120
370
     5
100
AcDbLine
 10
-210.186032450004
 20
-345.833089590059
 30
0.0
 11
-64.30889783115441
 21
-199.955954971209
 31
0.0
  0
LINE
  5
8A
330
1F
100
AcDbEntity
  8
0-0
  6
JWW_DASHED1
 62
   120
370
     5
100
AcDbLine
 10
-217.2571002618809
 20
-345.8330895900689
 30
0.0
 11
-64.30889783114418
 21
-192.8848871593325
 31
0.0
  0
LINE
  5
8B
330
1F
100
AcDbEntity
  8
0-0
  6
JWW_DASHED1
 62
   120
370
     5
100
AcDbLine
 10
-224.3281680737373
 20
-345.833089590059
 30
0.0
 11
-64.3088978311493
 21
-185.8138193474718
 31
0.0
  0
LINE
  5
8C
330
1F
100
AcDbEntity
  8
0-0
  6
JWW_DASHED1
 62
   120
370
     5
100
AcDbLine
 10
-231.3992358856023
 20
-345.8330895900573
 30
0.0
 11
-64.30889783115612
 21
-178.7427515356107
 31
0.0
  0
LINE
  5
8D
330
1F
100
AcDbEntity
  8
0-0
  6
JWW_DASHED1
 62
   120
370
     5
100
AcDbLine
 10
-238.4703036974792
 20
-345.8330895900676
 30
0.0
 11
-64.30889783114588
 21
-171.6716837237342
 31
0.0
  0
LINE
  5
8E
330
1F
100
AcDbEntity
  8
0-0
  6
JWW_DASHED1
 62
   120
370
     5
100
AcDbLine
 10
-245.5413715093356
 20
-345.8330895900573
 30
0.0
 11
-64.3088978311493
 21
-164.6006159118706
 31
0.0
  0
LINE
  5
8F
330
1F
100
AcDbEntity
  8
0-0
  6
JWW_DASHED1
 62
   120
370
     5
100
AcDbLine
 10
-252.6124393212023
 20
-345.8330895900565
 30
0.0
 11
-64.30889783115782
 21
-157.5295481000128
 31
0.0
  0
LINE
  5
90
330
1F
100
AcDbEntity
  8
0-0
  6
JWW_DASHED1
 62
   120
370
     5
100
AcDbLine
 10
-259.6835071330775
 20
-345.8330895900659
 30
0.0
 11
-64.30889783114759
 21
-150.4584802881359
 31
0.0
  0
LINE
  5
91
330
1F
100
AcDbEntity
  8
0-0
  6
JWW_DASHED1
 62
   120
370
     5
100
AcDbLine
 10
-266.7545749449391
 20
-345.8330895900608
 30
0.0
 11
-64.308897831151
 21
-143.3874124762723
 31
0.0
  0
LINE
  5
92
330
1F
100
AcDbEntity
  8
0-0
  6
JWW_DASHED1
 62
   120
370
     5
100
AcDbLine
 10
-273.8256427568006
 20
-345.8330895900552
 30
0.0
 11
-64.30889783115953
 21
-136.3163446644145
 31
0.0
  0
LINE
  5
93
330
1F
100
AcDbEntity
  8
0-0
  6
JWW_DASHED1
 62
   120
370
     5
100
AcDbLine
 10
-280.8967105686758
 20
-345.833089590065
 30
0.0
 11
-64.3088978311493
 21
-129.2452768525381
 31
0.0
  0
LINE
  5
94
330
1F
100
AcDbEntity
  8
0-0
  6
JWW_DASHED1
 62
   120
370
     5
100
AcDbLine
 10
-287.9677783805374
 20
-345.833089590059
 30
0.0
 11
-64.3088978311527
 21
-122.1742090406735
 31
0.0
  0
LINE
  5
95
330
1F
100
AcDbEntity
  8
0-0
  6
JWW_DASHED1
 62
   120
370
     5
100
AcDbLine
 10
-295.0388461923989
 20
-345.8330895900539
 30
0.0
 11
-64.30889783116294
 21
-115.1031412288167
 31
0.0
  0
LINE
  5
96
330
1F
100
AcDbEntity
  8
0-0
  6
JWW_DASHED1
 62
   120
370
     5
100
AcDbLine
 10
-302.1099140042758
 20
-345.8330895900633
 30
0.0
 11
-64.3088978311527
 21
-108.0320734169398
 31
0.0
  0
LINE
  5
97
330
1F
100
AcDbEntity
  8
0-0
  6
JWW_DASHED1
 62
   120
370
     5
100
AcDbLine
 10
-309.1809818161357
 20
-345.8330895900582
 30
0.0
 11
-64.3088978311527
 21
-100.9610056050752
 31
0.0
  0
LINE
  5
98
330
1F
100
AcDbEntity
  8
0-0
  6
JWW_DASHED1
 62
   120
370
     5
100
AcDbLine
 10
-316.2520496280058
 20
-345.8330895900616
 30
0.0
 11
-64.30889783114759
 21
-93.88993779320259
 31
0.0
  0
LINE
  5
99
330
1F
100
AcDbEntity
  8
0-0
  6
JWW_DASHED1
 62
   120
370
     5
100
AcDbLine
 10
-323.3231174398741
 20
-345.8330895900625
 30
0.0
 11
-64.3088978311527
 21
-86.81886998134189
 31
0.0
  0
LINE
  5
9A
330
1F
100
AcDbEntity
  8
0-0
  6
JWW_DASHED1
 62
   120
370
     5
100
AcDbLine
 10
-337.4652530636058
 20
-345.8330895900594
 30
0.0
 11
-64.3088978311493
 21
-72.67673435760429
 31
0.0
  0
LINE
  5
9B
330
1F
100
AcDbEntity
  8
0-0
  6
JWW_DASHED1
 62
   120
370
     5
100
AcDbLine
 10
-344.5363208754724
 20
-345.8330895900611
 30
0.0
 11
-64.30889783115612
 21
-65.60566654574359
 31
0.0
  0
LINE
  5
9C
330
1F
100
AcDbEntity
  8
0-0
  6
JWW_DASHED1
 62
   120
370
     5
100
AcDbLine
 10
-351.6073886873493
 20
-345.833089590071
 30
0.0
 11
-64.30889783114588
 21
-58.53459873386669
 31
0.0
  0
LINE
  5
9D
330
1F
100
AcDbEntity
  8
0-0
  6
JWW_DASHED1
 62
   120
370
     5
100
AcDbLine
 10
-358.6784564992024
 20
-345.8330895900577
 30
0.0
 11
-64.308897831151
 21
-51.46353092200641
 31
0.0
  0
LINE
  5
9E
330
1F
100
AcDbEntity
  8
0-0
  6
JWW_DASHED1
 62
   120
370
     5
100
AcDbLine
 10
-365.7495243110724
 20
-345.8330895900599
 30
0.0
 11
-64.30889783115782
 21
-44.39246311014571
 31
0.0
  0
LINE
  5
9F
330
1F
100
AcDbEntity
  8
0-0
  6
JWW_DASHED1
 62
   120
370
     5
100
AcDbLine
 10
-372.8205921229493
 20
-345.8330895900701
 30
0.0
 11
-64.30889783114759
 21
-37.32139529826924
 31
0.0
  0
LINE
  5
A0
330
1F
100
AcDbEntity
  8
0-0
  6
JWW_DASHED1
 62
   120
370
     5
100
AcDbLine
 10
-379.8916599348007
 20
-345.8330895900556
 30
0.0
 11
-64.3088978311493
 21
-30.25032748640299
 31
0.0
  0
LINE
  5
A1
330
1F
100
AcDbEntity
  8
0-0
  6
JWW_DASHED1
 62
   120
370
     5
100
AcDbLine
 10
-386.9627277466707
 20
-345.8330895900586
 30
0.0
 11
-64.30889783115953
 21
-23.17925967454741
 31
0.0
  0
LINE
  5
A2
330
1F
100
AcDbEntity
  8
0-0
  6
JWW_DASHED1
 62
   120
370
     5
100
AcDbLine
 10
-394.0337955585476
 20
-345.8330895900689
 30
0.0
 11
-64.3088978311493
 21
-16.10819186267094
 31
0.0
  0
LINE
  5
A3
330
1F
100
AcDbEntity
  8
0-0
  6
JWW_DASHED1
 62
   120
370
     5
100
AcDbLine
 10
-401.1048633704092
 20
-345.8330895900629
 30
0.0
 11
-64.3088978311493
 21
-9.037124050804692
 31
0.0
  0
LINE
  5
A4
330
1F
100
AcDbEntity
  8
0-0
  6
JWW_DASHED1
 62
   120
370
     5
100
AcDbLine
 10
-408.175931182269
 20
-345.8330895900573
 30
0.0
 11
-64.30889783116123
 21
-1.966056238949534
 31
0.0
  0
LINE
  5
A5
330
1F
100
AcDbEntity
  8
0-0
  6
JWW_DASHED1
 62
   120
370
     5
100
AcDbLine
 10
-415.2469989941459
 20
-345.8330895900676
 30
0.0
 11
-64.308897831151
 21
5.105011572927367
 31
0.0
  0
LINE
  5
A6
330
1F
100
AcDbEntity
  8
0-0
  6
JWW_DASHED1
 62
   120
370
     5
100
AcDbLine
 10
-422.3180668059768
 20
-345.833089590059
 30
0.0
 11
-64.3088978311527
 21
12.17607938476419
 31
0.0
  0
LINE
  5
A7
330
1F
100
AcDbEntity
  8
0-0
  6
JWW_DASHED1
 62
   120
370
     5
100
AcDbLine
 10
-429.3891346178145
 20
-345.8330895900577
 30
0.0
 11
-64.308897831151
 21
19.24714719660571
 31
0.0
  0
LINE
  5
A8
330
1F
100
AcDbEntity
  8
0-0
  6
JWW_DASHED1
 62
   120
370
     5
100
AcDbLine
 10
-436.4602024296846
 20
-345.8330895900616
 30
0.0
 11
-64.30889783115782
 21
26.31821500846641
 31
0.0
  0
LINE
  5
A9
330
1F
100
AcDbEntity
  8
0-0
  6
JWW_DASHED1
 62
   120
370
     5
100
AcDbLine
 10
-443.5312702415615
 20
-345.8330895900718
 30
0.0
 11
-64.30889783114759
 21
33.38928282034288
 31
0.0
  0
LINE
  5
AA
330
1F
100
AcDbEntity
  8
0-0
  6
JWW_DASHED1
 62
   120
370
     5
100
AcDbLine
 10
-450.6023380534128
 20
-345.8330895900556
 30
0.0
 11
-64.30889783114588
 21
40.46035063221041
 31
0.0
  0
LINE
  5
AB
330
1F
100
AcDbEntity
  8
0-0
  6
JWW_DASHED1
 62
   120
370
     5
100
AcDbLine
 10
-457.6734058652846
 20
-345.8330895900599
 30
0.0
 11
-64.30889783115953
 21
47.53141844406471
 31
0.0
  0
LINE
  5
AC
330
1F
100
AcDbEntity
  8
0-0
  6
JWW_DASHED1
 62
   120
370
     5
100
AcDbLine
 10
-464.7444736771615
 20
-345.8330895900701
 30
0.0
 11
-64.3088978311493
 21
54.60248625594119
 31
0.0
  0
LINE
  5
AD
330
1F
100
AcDbEntity
  8
0-0
  6
JWW_DASHED1
 62
   120
370
     5
100
AcDbLine
 10
-471.8155414890213
 20
-345.833089590065
 30
0.0
 11
-64.3088978311493
 21
61.67355406780871
 31
0.0
  0
LINE
  5
AE
330
1F
100
AcDbEntity
  8
0-0
  6
JWW_DASHED1
 62
   120
370
     5
100
AcDbLine
 10
-478.8866093008829
 20
-345.833089590059
 30
0.0
 11
-64.30889783116123
 21
68.74462187966259
 31
0.0
  0
LINE
  5
AF
330
1F
100
AcDbEntity
  8
0-0
  6
JWW_DASHED1
 62
   120
370
     5
100
AcDbLine
 10
-485.9576771127598
 20
-345.8330895900693
 30
0.0
 11
-64.308897831151
 21
75.81568969153949
 31
0.0
  0
LINE
  5
B0
330
1F
100
AcDbEntity
  8
0-0
  6
JWW_DASHED1
 62
   120
370
     5
100
AcDbLine
 10
-493.0287449246214
 20
-345.8330895900633
 30
0.0
 11
-64.3088978311493
 21
82.88675750340701
 31
0.0
  0
LINE
  5
B1
330
1F
100
AcDbEntity
  8
0-0
  6
JWW_DASHED1
 62
   120
370
     5
100
AcDbLine
 10
-500.0998127364812
 20
-345.8330895900577
 30
0.0
 11
-64.30889783116294
 21
89.95782531526089
 31
0.0
  0
LINE
  5
B2
330
1F
100
AcDbEntity
  8
0-0
  6
JWW_DASHED1
 62
   120
370
     5
100
AcDbLine
 10
-507.1708805483581
 20
-345.833089590068
 30
0.0
 11
-64.3088978311527
 21
97.02889312713737
 31
0.0
  0
LINE
  5
B3
330
1F
100
AcDbEntity
  8
0-0
  6
JWW_DASHED1
 62
   120
370
     5
100
AcDbLine
 10
-514.2419483602197
 20
-345.8330895900621
 30
0.0
 11
-64.3088978311527
 21
104.0999609390053
 31
0.0
  0
LINE
  5
B4
330
1F
100
AcDbEntity
  8
0-0
  6
JWW_DASHED1
 62
   120
370
     5
100
AcDbLine
 10
-521.3130161720846
 20
-345.8330895900599
 30
0.0
 11
-64.3088978311493
 21
111.171028750875
 31
0.0
  0
LINE
  5
B5
330
1F
100
AcDbEntity
  8
0-0
  6
JWW_DASHED1
 62
   120
370
     5
100
AcDbLine
 10
-528.3840839839581
 20
-345.8330895900667
 30
0.0
 11
-64.30889783115612
 21
118.2420965627357
 31
0.0
  0
LINE
  5
B6
330
1F
100
AcDbEntity
  8
0-0
  6
JWW_DASHED1
 62
   120
370
     5
100
AcDbLine
 10
-535.455151795835
 20
-345.8330895900765
 30
0.0
 11
-64.30889783114588
 21
125.3131643746121
 31
0.0
  0
LINE
  5
B7
330
1F
100
AcDbEntity
  8
0-0
  6
JWW_DASHED1
 62
   120
370
     5
100
AcDbLine
 10
-542.5262196076812
 20
-345.8330895900582
 30
0.0
 11
-64.308897831151
 21
132.3842321864733
 31
0.0
  0
LINE
  5
B8
330
1F
100
AcDbEntity
  8
0-0
  6
JWW_DASHED1
 62
   120
370
     5
100
AcDbLine
 10
-549.5972874195564
 20
-345.8330895900655
 30
0.0
 11
-64.30889783115612
 21
139.455299998334
 31
0.0
  0
LINE
  5
B9
330
1F
100
AcDbEntity
  8
0-0
  6
JWW_DASHED1
 62
   120
370
     5
100
AcDbLine
 10
-556.6683552314316
 20
-345.8330895900752
 30
0.0
 11
-64.30889783114588
 21
146.5263678102104
 31
0.0
  0
LINE
  5
BA
330
1F
100
AcDbEntity
  8
0-0
  6
JWW_DASHED1
 62
   120
370
     5
100
AcDbLine
 10
-563.7394230432812
 20
-345.8330895900565
 30
0.0
 11
-64.3088978311527
 21
153.5974356220711
 31
0.0
  0
LINE
  5
BB
330
1F
100
AcDbEntity
  8
0-0
  6
JWW_DASHED1
 62
   120
370
     5
100
AcDbLine
 10
-570.8104908551547
 20
-345.8330895900642
 30
0.0
 11
-64.30889783115953
 21
160.6685034339318
 31
0.0
  0
LINE
  5
BC
330
1F
100
AcDbEntity
  8
0-0
  6
JWW_DASHED1
 62
   120
370
     5
100
AcDbLine
 10
-577.8815586670316
 20
-345.8330895900735
 30
0.0
 11
-64.3088978311493
 21
167.7395712458087
 31
0.0
  0
LINE
  5
BD
330
1F
100
AcDbEntity
  8
0-0
  6
JWW_DASHED1
 62
   120
370
     5
100
AcDbLine
 10
-584.9526264788778
 20
-345.8330895900543
 30
0.0
 11
-64.30889783114588
 21
174.810639057678
 31
0.0
  0
LINE
  5
BE
330
1F
100
AcDbEntity
  8
0-0
  6
JWW_DASHED1
 62
   120
370
     5
100
AcDbLine
 10
-592.0236942907547
 20
-345.8330895900629
 30
0.0
 11
-64.30889783115953
 21
181.8817068695301
 31
0.0
  0
LINE
  5
BF
330
1F
100
AcDbEntity
  8
0-0
  6
JWW_DASHED1
 62
   120
370
     5
100
AcDbLine
 10
-599.0947621026299
 20
-345.8330895900727
 30
0.0
 11
-64.308897831151
 21
188.9527746814066
 31
0.0
  0
LINE
  5
C0
330
1F
100
AcDbEntity
  8
0-0
  6
JWW_DASHED1
 62
   120
370
     5
100
AcDbLine
 10
-606.1658299144915
 20
-345.8330895900667
 30
0.0
 11
-64.30889783114759
 21
196.0238424932763
 31
0.0
  0
LINE
  5
C1
330
1F
100
AcDbEntity
  8
0-0
  6
JWW_DASHED1
 62
   120
370
     5
100
AcDbLine
 10
-613.2368977263513
 20
-345.8330895900616
 30
0.0
 11
-64.30889783116294
 21
203.0949103051285
 31
0.0
  0
LINE
  5
C2
330
1F
100
AcDbEntity
  8
0-0
  6
JWW_DASHED1
 62
   120
370
     5
100
AcDbLine
 10
-620.3079655382282
 20
-345.8330895900714
 30
0.0
 11
-64.3088978311527
 21
210.1659781170045
 31
0.0
  0
LINE
  5
C3
330
1F
100
AcDbEntity
  8
0-0
  6
JWW_DASHED1
 62
   120
370
     5
100
AcDbLine
 10
-627.3790333500898
 20
-345.8330895900659
 30
0.0
 11
-64.3088978311493
 21
217.2370459288746
 31
0.0
  0
LINE
  5
C4
330
1F
100
AcDbEntity
  8
0-0
  6
JWW_DASHED1
 62
   120
370
     5
100
AcDbLine
 10
-634.4501011619514
 20
-345.8330895900608
 30
0.0
 11
-64.3088978311493
 21
224.3081137407421
 31
0.0
  0
LINE
  5
C5
330
1F
100
AcDbEntity
  8
0-0
  6
JWW_DASHED1
 62
   120
370
     5
100
AcDbLine
 10
-641.5211689738283
 20
-345.8330895900701
 30
0.0
 11
-64.30889783115441
 21
231.3791815526028
 31
0.0
  0
LINE
  5
C6
330
1F
100
AcDbEntity
  8
0-0
  6
JWW_DASHED1
 62
   120
370
     5
100
AcDbLine
 10
-648.5922367856881
 20
-345.8330895900646
 30
0.0
 11
-64.308897831151
 21
238.4502493644729
 31
0.0
  0
LINE
  5
C7
330
1F
100
AcDbEntity
  8
0-0
  6
JWW_DASHED1
 62
   120
370
     5
100
AcDbLine
 10
-654.3088978311516
 20
-344.478682823661
 30
0.0
 11
-64.3088978311493
 21
245.5213171763404
 31
0.0
  0
LINE
  5
C8
330
1F
100
AcDbEntity
  8
0-0
  6
JWW_DASHED1
 62
   120
370
     5
100
AcDbLine
 10
-654.3088978311414
 20
-337.407615011785
 30
0.0
 11
-64.30889783115612
 21
252.5923849882011
 31
0.0
  0
LINE
  5
C9
330
1F
100
AcDbEntity
  8
0-0
  6
JWW_DASHED1
 62
   120
370
     5
100
AcDbLine
 10
-654.3088978311363
 20
-330.3365471999669
 30
0.0
 11
-64.308897831151
 21
259.6634528000187
 31
0.0
  0
LINE
  5
CA
330
1F
100
AcDbEntity
  8
0-0
  6
JWW_DASHED1
 62
   120
370
     5
100
AcDbLine
 10
-654.3088978311414
 20
-323.2654793881062
 30
0.0
 11
-64.30889783114588
 21
266.7345206118897
 31
0.0
  0
LINE
  5
CB
330
1F
100
AcDbEntity
  8
0-0
  6
JWW_DASHED1
 62
   120
370
     5
100
AcDbLine
 10
-654.3088978311482
 20
-316.1944115762455
 30
0.0
 11
-64.30889783116294
 21
273.8055884237401
 31
0.0
  0
LINE
  5
CC
330
1F
100
AcDbEntity
  8
0-0
  6
JWW_DASHED1
 62
   120
370
     5
100
AcDbLine
 10
-654.308897831138
 20
-309.1233437643686
 30
0.0
 11
-64.3088978311527
 21
280.876656235617
 31
0.0
  0
LINE
  5
CD
330
1F
100
AcDbEntity
  8
0-0
  6
JWW_DASHED1
 62
   120
370
     5
100
AcDbLine
 10
-654.3088978311448
 20
-302.0522759525074
 30
0.0
 11
-64.30889783114759
 21
287.947724047488
 31
0.0
  0
LINE
  5
CE
330
1F
100
AcDbEntity
  8
0-0
  6
JWW_DASHED1
 62
   120
370
     5
100
AcDbLine
 10
-654.3088978311499
 20
-294.9812081406472
 30
0.0
 11
-64.3088978311493
 21
295.0187918593542
 31
0.0
  0
LINE
  5
CF
330
1F
100
AcDbEntity
  8
0-0
  6
JWW_DASHED1
 62
   120
370
     5
100
AcDbLine
 10
-654.3088978311397
 20
-287.9101403287703
 30
0.0
 11
-64.30889783115441
 21
302.0898596712149
 31
0.0
  0
LINE
  5
D0
330
1F
100
AcDbEntity
  8
0-0
  6
JWW_DASHED1
 62
   120
370
     5
100
AcDbLine
 10
-654.3088978311448
 20
-280.8390725169087
 30
0.0
 11
-64.3088978311493
 21
309.1609274830863
 31
0.0
  0
LINE
  5
D1
330
1F
100
AcDbEntity
  8
0-0
  6
JWW_DASHED1
 62
   120
370
     5
100
AcDbLine
 10
-654.3088978311516
 20
-273.7680047050489
 30
0.0
 11
-64.3088978311493
 21
316.2319952949525
 31
0.0
  0
LINE
  5
D2
330
1F
100
AcDbEntity
  8
0-0
  6
JWW_DASHED1
 62
   120
370
     5
100
AcDbLine
 10
-654.3088978311414
 20
-266.6969368931724
 30
0.0
 11
-64.30889783115612
 21
323.3030631068132
 31
0.0
  0
LINE
  5
D3
330
1F
100
AcDbEntity
  8
0-0
  6
JWW_DASHED1
 62
   120
370
     5
100
AcDbLine
 10
-654.3088978311312
 20
-259.6258690812959
 30
0.0
 11
-64.30889783114588
 21
330.3741309186897
 31
0.0
  0
LINE
  5
D4
330
1F
100
AcDbEntity
  8
0-0
  6
JWW_DASHED1
 62
   120
370
     5
100
AcDbLine
 10
-654.3088978311533
 20
-252.5548012694506
 30
0.0
 11
-64.3088978311527
 21
337.4451987305504
 31
0.0
  0
LINE
  5
D5
330
1F
100
AcDbEntity
  8
0-0
  6
JWW_DASHED1
 62
   120
370
     5
100
AcDbLine
 10
-654.3088978311448
 20
-245.4837334575745
 30
0.0
 11
-64.30889783115782
 21
344.5162665424115
 31
0.0
  0
LINE
  5
D6
330
1F
100
AcDbEntity
  8
0-0
  6
JWW_DASHED1
 62
   120
370
     5
100
AcDbLine
 10
-654.3088978311346
 20
-238.4126656456976
 30
0.0
 11
-64.3088978311493
 21
351.587334354288
 31
0.0
  0
LINE
  5
D7
330
1F
100
AcDbEntity
  8
0-0
  6
JWW_DASHED1
 62
   120
370
     5
100
AcDbLine
 10
-654.3088978311533
 20
-231.3415978338506
 30
0.0
 11
-64.30889783114247
 21
358.6584021661602
 31
0.0
  0
LINE
  5
D8
330
1F
100
AcDbEntity
  8
0-0
  6
JWW_DASHED1
 62
   120
370
     5
100
AcDbLine
 10
-654.3088978311465
 20
-224.2705300219762
 30
0.0
 11
-64.30889783115953
 21
365.7294699780094
 31
0.0
  0
LINE
  5
D9
330
1F
100
AcDbEntity
  8
0-0
  6
JWW_DASHED1
 62
   120
370
     5
100
AcDbLine
 10
-654.3088978311363
 20
-217.1994622100998
 30
0.0
 11
-64.3088978311493
 21
372.8005377898859
 31
0.0
  0
LINE
  5
DA
330
1F
100
AcDbEntity
  8
0-0
  6
JWW_DASHED1
 62
   120
370
     5
100
AcDbLine
 10
-654.3088978311397
 20
-210.1283943982369
 30
0.0
 11
-64.30889783114418
 21
379.8716056017585
 31
0.0
  0
LINE
  5
DB
330
1F
100
AcDbEntity
  8
0-0
  6
JWW_DASHED1
 62
   120
370
     5
100
AcDbLine
 10
-654.3088978311482
 20
-203.0573265863779
 30
0.0
 11
-64.30889783116294
 21
386.9426734136077
 31
0.0
  0
LINE
  5
DC
330
1F
100
AcDbEntity
  8
0-0
  6
JWW_DASHED1
 62
   120
370
     5
100
AcDbLine
 10
-654.308897831138
 20
-195.9862587745019
 30
0.0
 11
-64.3088978311527
 21
394.0137412254842
 31
0.0
  0
LINE
  5
DD
330
1F
100
AcDbEntity
  8
0-0
  6
JWW_DASHED1
 62
   120
370
     5
100
AcDbLine
 10
-654.3088978311414
 20
-188.9151909626382
 30
0.0
 11
-64.30889783114588
 21
401.0848090373572
 31
0.0
  0
LINE
  5
DE
330
1F
100
AcDbEntity
  8
0-0
  6
JWW_DASHED1
 62
   120
370
     5
100
AcDbLine
 10
-654.3088978311499
 20
-181.8441231507801
 30
0.0
 11
-64.30889783116294
 21
408.1558768492056
 31
0.0
  0
LINE
  5
DF
330
1F
100
AcDbEntity
  8
0-0
  6
JWW_DASHED1
 62
   120
370
     5
100
AcDbLine
 10
-654.3088978311397
 20
-174.7730553389036
 30
0.0
 11
-64.3088978311527
 21
415.2269446610825
 31
0.0
  0
LINE
  5
E0
330
1F
100
AcDbEntity
  8
0-0
  6
JWW_DASHED1
 62
   120
370
     5
100
AcDbLine
 10
-654.3088978311431
 20
-167.7019875270395
 30
0.0
 11
-64.30889783114759
 21
422.2980124729555
 31
0.0
  0
LINE
  5
E1
330
1F
100
AcDbEntity
  8
0-0
  6
JWW_DASHED1
 62
   120
370
     5
100
AcDbLine
 10
-654.3088978311516
 20
-160.6309197151822
 30
0.0
 11
-64.3088978311493
 21
429.3690802848197
 31
0.0
  0
LINE
  5
E2
330
1F
100
AcDbEntity
  8
0-0
  6
JWW_DASHED1
 62
   120
370
     5
100
AcDbLine
 10
-654.3088978311414
 20
-153.5598519033053
 30
0.0
 11
-64.30889783115612
 21
436.4401480966803
 31
0.0
  0
LINE
  5
E3
330
1F
100
AcDbEntity
  8
0-0
  6
JWW_DASHED1
 62
   120
370
     5
100
AcDbLine
 10
-654.3088978311448
 20
-146.4887840914412
 30
0.0
 11
-64.3088978311493
 21
443.5112159085543
 31
0.0
  0
LINE
  5
E4
330
1F
100
AcDbEntity
  8
0-0
  6
JWW_DASHED1
 62
   120
370
     5
100
AcDbLine
 10
-654.3088978311533
 20
-139.4177162795839
 30
0.0
 11
-64.3088978311527
 21
450.5822837204175
 31
0.0
  0
LINE
  5
E5
330
1F
100
AcDbEntity
  8
0-0
  6
JWW_DASHED1
 62
   120
370
     5
100
AcDbLine
 10
-654.3088978311431
 20
-132.346648467707
 30
0.0
 11
-64.30889783115782
 21
457.6533515322786
 31
0.0
  0
LINE
  5
E6
330
1F
100
AcDbEntity
  8
0-0
  6
JWW_DASHED1
 62
   120
370
     5
100
AcDbLine
 10
-654.3088978311346
 20
-125.2755806558305
 30
0.0
 11
-64.30889783114759
 21
464.7244193441551
 31
0.0
  0
LINE
  5
E7
330
1F
100
AcDbEntity
  8
0-0
  6
JWW_DASHED1
 62
   120
370
     5
100
AcDbLine
 10
-654.308897831155
 20
-118.2045128439856
 30
0.0
 11
-64.3088978311527
 21
471.7954871560158
 31
0.0
  0
LINE
  5
E8
330
1F
100
AcDbEntity
  8
0-0
  6
JWW_DASHED1
 62
   120
370
     5
100
AcDbLine
 10
-654.3088978311448
 20
-111.1334450321091
 30
0.0
 11
-64.30889783115953
 21
478.8665549678765
 31
0.0
  0
LINE
  5
E9
330
1F
100
AcDbEntity
  8
0-0
  6
JWW_DASHED1
 62
   120
370
     5
100
AcDbLine
 10
-654.3088978311346
 20
-104.0623772202326
 30
0.0
 11
-64.3088978311493
 21
485.9376227797534
 31
0.0
  0
LINE
  5
EA
330
1F
100
AcDbEntity
  8
0-0
  6
JWW_DASHED1
 62
   120
370
     5
100
AcDbLine
 10
-654.3088978311397
 20
-96.99130940839666
 30
0.0
 11
-64.30889783114418
 21
493.0086905915983
 31
0.0
  0
LINE
  5
EB
330
1F
100
AcDbEntity
  8
0-0
  6
JWW_DASHED1
 62
   120
370
     5
100
AcDbLine
 10
-654.3088978311516
 20
-89.92024159657007
 30
0.0
 11
-64.3088978311493
 21
500.0797584034318
 31
0.0
  0
LINE
  5
EC
330
1F
100
AcDbEntity
  8
0-0
  6
JWW_DASHED1
 62
   120
370
     5
100
AcDbLine
 10
-654.3088978311414
 20
-82.84917378469316
 30
0.0
 11
-64.30889783115612
 21
507.1508262152925
 31
0.0
  0
LINE
  5
ED
330
1F
100
AcDbEntity
  8
0-0
  6
JWW_DASHED1
 62
   120
370
     5
100
AcDbLine
 10
-654.3088978311431
 20
-75.7781059728282
 30
0.0
 11
-64.30889783114759
 21
514.2218940271673
 31
0.0
  0
LINE
  5
EE
330
1F
100
AcDbEntity
  8
0-0
  6
JWW_DASHED1
 62
   120
370
     5
100
AcDbLine
 10
-654.3088978311533
 20
-68.70703816097176
 30
0.0
 11
-64.3088978311527
 21
521.2929618390297
 31
0.0
  0
LINE
  5
EF
330
1F
100
AcDbEntity
  8
0-0
  6
JWW_DASHED1
 62
   120
370
     5
100
AcDbLine
 10
-654.3088978311431
 20
-61.63597034909486
 30
0.0
 11
-64.30889783115782
 21
528.3640296508908
 31
0.0
  0
LINE
  5
F0
330
1F
100
AcDbEntity
  8
0-0
  6
JWW_DASHED1
 62
   120
370
     5
100
AcDbLine
 10
-654.3088978311346
 20
-54.56490253721839
 30
0.0
 11
-64.30889783114759
 21
535.4350974627673
 31
0.0
  0
LINE
  5
F1
330
1F
100
AcDbEntity
  8
0-0
  6
JWW_DASHED1
 62
   120
370
     5
100
AcDbLine
 10
-654.308897831155
 20
-47.49383472537346
 30
0.0
 11
-64.3088978311527
 21
542.506165274628
 31
0.0
  0
LINE
  5
F2
330
1F
100
AcDbEntity
  8
0-0
  6
JWW_DASHED1
 62
   120
370
     5
100
AcDbLine
 10
-654.3088978311448
 20
-40.42276691349699
 30
0.0
 11
-64.30889783115953
 21
549.5772330864886
 31
0.0
  0
LINE
  5
F3
330
1F
100
AcDbEntity
  8
0-0
  6
JWW_DASHED1
 62
   120
370
     5
100
AcDbLine
 10
-654.3088978311346
 20
-33.35169910162051
 30
0.0
 11
-64.3088978311493
 21
556.6483008983655
 31
0.0
  0
LINE
  5
F4
330
1F
100
AcDbEntity
  8
0-0
  6
JWW_DASHED1
 62
   120
370
     5
100
AcDbLine
 10
-654.3088978311516
 20
-26.28063128977004
 30
0.0
 11
-64.30889783114077
 21
563.7193687102408
 31
0.0
  0
LINE
  5
F5
330
1F
100
AcDbEntity
  8
0-0
  6
JWW_DASHED1
 62
   120
370
     5
100
AcDbLine
 10
-654.3088978311482
 20
-19.20956347789868
 30
0.0
 11
-64.30889783116123
 21
570.790436522087
 31
0.0
  0
LINE
  5
F6
330
1F
100
AcDbEntity
  8
0-0
  6
JWW_DASHED1
 62
   120
370
     5
100
AcDbLine
 10
-654.308897831138
 20
-12.13849566602221
 30
0.0
 11
-64.308897831151
 21
577.8615043339635
 31
0.0
  0
LINE
  5
F7
330
1F
100
AcDbEntity
  8
0-0
  6
JWW_DASHED1
 62
   120
370
     5
100
AcDbLine
 10
-654.308897831138
 20
-5.06742785415554
 30
0.0
 11
-64.30889783114247
 21
584.9325721458395
 31
0.0
  0
LINE
  5
F8
330
1F
100
AcDbEntity
  8
0-0
  6
JWW_DASHED1
 62
   120
370
     5
100
AcDbLine
 10
-654.3088978311482
 20
2.003639957699193
 30
0.0
 11
-64.30889783116294
 21
592.0036399576852
 31
0.0
  0
LINE
  5
F9
330
1F
100
AcDbEntity
  8
0-0
  6
JWW_DASHED1
 62
   120
370
     5
100
AcDbLine
 10
-654.308897831138
 20
9.074707769576094
 30
0.0
 11
-64.3088978311527
 21
599.0747077695618
 31
0.0
  0
LINE
  5
FA
330
1F
100
AcDbEntity
  8
0-0
  6
JWW_DASHED1
 62
   120
370
     5
100
AcDbLine
 10
-654.308897831138
 20
16.14577558144276
 30
0.0
 11
-64.30889783114418
 21
606.1457755814378
 31
0.0
  0
LINE
  5
FB
330
1F
100
AcDbEntity
  8
0-0
  6
JWW_DASHED1
 62
   120
370
     5
100
AcDbLine
 10
-654.3088978311516
 20
23.21684339329749
 30
0.0
 11
-64.30889783116464
 21
613.2168433932832
 31
0.0
  0
LINE
  5
FC
330
1F
100
AcDbEntity
  8
0-0
  6
JWW_DASHED1
 62
   120
370
     5
100
AcDbLine
 10
-654.3088978311414
 20
30.2879112051744
 30
0.0
 11
-64.30889783115612
 21
620.2879112051601
 31
0.0
  0
LINE
  5
FD
330
1F
100
AcDbEntity
  8
0-0
  6
JWW_DASHED1
 62
   120
370
     5
100
AcDbLine
 10
-654.3088978311414
 20
37.35897901704107
 30
0.0
 11
-64.30889783114588
 21
627.3589790170365
 31
0.0
  0
LINE
  5
FE
330
1F
100
AcDbEntity
  8
0-0
  6
JWW_DASHED1
 62
   120
370
     5
100
AcDbLine
 10
-654.3088978311516
 20
44.4300468288958
 30
0.0
 11
-69.57203425010556
 21
629.1669104099426
 31
0.0
  0
LINE
  5
FF
330
1F
100
AcDbEntity
  8
0-0
  6
JWW_DASHED1
 62
   120
370
     5
100
AcDbLine
 10
-654.3088978311431
 20
51.50111464077185
 30
0.0
 11
-76.64310206196711
 21
629.1669104099478
 31
0.0
  0
LINE
  5
100
330
1F
100
AcDbEntity
  8
0-0
  6
JWW_DASHED1
 62
   120
370
     5
100
AcDbLine
 10
-654.3088978311329
 20
58.57218245264875
 30
0.0
 11
-83.71416987384401
 21
629.1669104099379
 31
0.0
  0
LINE
  5
101
330
1F
100
AcDbEntity
  8
0-0
  6
JWW_DASHED1
 62
   120
370
     5
100
AcDbLine
 10
-654.308897831155
 20
65.6432502644941
 30
0.0
 11
-90.78523768570386
 21
629.1669104099444
 31
0.0
  0
LINE
  5
102
330
1F
100
AcDbEntity
  8
0-0
  6
JWW_DASHED1
 62
   120
370
     5
100
AcDbLine
 10
-654.3088978311448
 20
72.71431807637015
 30
0.0
 11
-97.85630549756542
 21
629.1669104099494
 31
0.0
  0
LINE
  5
103
330
1F
100
AcDbEntity
  8
0-0
  6
JWW_DASHED1
 62
   120
370
     5
100
AcDbLine
 10
-654.3088978311346
 20
79.78538588824705
 30
0.0
 11
-104.9273733094423
 21
629.1669104099392
 31
0.0
  0
LINE
  5
104
330
1F
100
AcDbEntity
  8
0-0
  6
JWW_DASHED1
 62
   120
370
     5
100
AcDbLine
 10
-654.3088978311567
 20
86.85645370009155
 30
0.0
 11
-111.9984411213022
 21
629.166910409946
 31
0.0
  0
LINE
  5
105
330
1F
100
AcDbEntity
  8
0-0
  6
JWW_DASHED1
 62
   120
370
     5
100
AcDbLine
 10
-654.3088978311465
 20
93.92752151196845
 30
0.0
 11
-119.0695089331654
 21
629.1669104099508
 31
0.0
  0
LINE
  5
106
330
1F
100
AcDbEntity
  8
0-0
  6
JWW_DASHED1
 62
   120
370
     5
100
AcDbLine
 10
-654.308897831138
 20
100.9985893238449
 30
0.0
 11
-126.1405767450423
 21
629.1669104099401
 31
0.0
  0
LINE
  5
107
330
1F
100
AcDbEntity
  8
0-0
  6
JWW_DASHED1
 62
   120
370
     5
100
AcDbLine
 10
-654.3088978311516
 20
108.0696571356975
 30
0.0
 11
-133.2116445569158
 21
629.1669104099324
 31
0.0
  0
LINE
  5
108
330
1F
100
AcDbEntity
  8
0-0
  6
JWW_DASHED1
 62
   120
370
     5
100
AcDbLine
 10
-654.3088978311482
 20
115.1407249475668
 30
0.0
 11
-140.282712368762
 21
629.166910409952
 31
0.0
  0
LINE
  5
109
330
1F
100
AcDbEntity
  8
0-0
  6
JWW_DASHED1
 62
   120
370
     5
100
AcDbLine
 10
-654.308897831138
 20
122.2117927594437
 30
0.0
 11
-147.3537801806389
 21
629.1669104099418
 31
0.0
  0
LINE
  5
10A
330
1F
100
AcDbEntity
  8
0-0
  6
JWW_DASHED1
 62
   120
370
     5
100
AcDbLine
 10
-654.3088978311363
 20
129.282860571312
 30
0.0
 11
-154.4248479925158
 21
629.1669104099316
 31
0.0
  0
LINE
  5
10B
330
1F
100
AcDbEntity
  8
0-0
  6
JWW_DASHED1
 62
   120
370
     5
100
AcDbLine
 10
-654.3088978311499
 20
136.3539283831651
 30
0.0
 11
-161.495915804362
 21
629.1669104099528
 31
0.0
  0
LINE
  5
10C
330
1F
100
AcDbEntity
  8
0-0
  6
JWW_DASHED1
 62
   120
370
     5
100
AcDbLine
 10
-654.3088978311414
 20
143.4249961950411
 30
0.0
 11
-168.5669836162389
 21
629.1669104099426
 31
0.0
  0
LINE
  5
10D
330
1F
100
AcDbEntity
  8
0-0
  6
JWW_DASHED1
 62
   120
370
     5
100
AcDbLine
 10
-654.3088978311414
 20
150.4960640068805
 30
0.0
 11
-175.6380514280851
 21
629.166910409935
 31
0.0
  0
LINE
  5
10E
330
1F
100
AcDbEntity
  8
0-0
  6
JWW_DASHED1
 62
   120
370
     5
100
AcDbLine
 10
-654.3088978311567
 20
157.5671318187037
 30
0.0
 11
-182.7091192399143
 21
629.166910409946
 31
0.0
  0
LINE
  5
10F
330
1F
100
AcDbEntity
  8
0-0
  6
JWW_DASHED1
 62
   120
370
     5
100
AcDbLine
 10
-654.3088978311465
 20
164.6381996305806
 30
0.0
 11
-189.7801870517775
 21
629.1669104099486
 31
0.0
  0
LINE
  5
110
330
1F
100
AcDbEntity
  8
0-0
  6
JWW_DASHED1
 62
   120
370
     5
100
AcDbLine
 10
-654.308897831138
 20
171.709267442457
 30
0.0
 11
-196.8512548636544
 21
629.1669104099384
 31
0.0
  0
LINE
  5
111
330
1F
100
AcDbEntity
  8
0-0
  6
JWW_DASHED1
 62
   120
370
     5
100
AcDbLine
 10
-654.3088978311499
 20
178.7803352543105
 30
0.0
 11
-203.9223226755279
 21
629.1669104099324
 31
0.0
  0
LINE
  5
112
330
1F
100
AcDbEntity
  8
0-0
  6
JWW_DASHED1
 62
   120
370
     5
100
AcDbLine
 10
-654.3088978311482
 20
185.8514030661789
 30
0.0
 11
-210.9933904873776
 21
629.1669104099503
 31
0.0
  0
LINE
  5
113
330
1F
100
AcDbEntity
  8
0-0
  6
JWW_DASHED1
 62
   120
370
     5
100
AcDbLine
 10
-654.308897831138
 20
192.9224708780553
 30
0.0
 11
-218.0644582992545
 21
629.1669104099401
 31
0.0
  0
LINE
  5
114
330
1F
100
AcDbEntity
  8
0-0
  6
JWW_DASHED1
 62
   120
370
     5
100
AcDbLine
 10
-654.3088978311363
 20
199.993538689925
 30
0.0
 11
-225.1355261111314
 21
629.1669104099299
 31
0.0
  0
LINE
  5
115
330
1F
100
AcDbEntity
  8
0-0
  6
JWW_DASHED1
 62
   120
370
     5
100
AcDbLine
 10
-654.3088978311516
 20
207.0646065017768
 30
0.0
 11
-232.2065939229759
 21
629.1669104099516
 31
0.0
  0
LINE
  5
116
330
1F
100
AcDbEntity
  8
0-0
  6
JWW_DASHED1
 62
   120
370
     5
100
AcDbLine
 10
-654.3088978311414
 20
214.1356743136532
 30
0.0
 11
-239.2776617348528
 21
629.166910409941
 31
0.0
  0
LINE
  5
117
330
1F
100
AcDbEntity
  8
0-0
  6
JWW_DASHED1
 62
   120
370
     5
100
AcDbLine
 10
-654.308897831138
 20
221.2067421255233
 30
0.0
 11
-246.3487295467297
 21
629.1669104099308
 31
0.0
  0
LINE
  5
118
330
1F
100
AcDbEntity
  8
0-0
  6
JWW_DASHED1
 62
   120
370
     5
100
AcDbLine
 10
-654.3088978311516
 20
228.2778099373751
 30
0.0
 11
-253.4197973585844
 21
629.1669104099418
 31
0.0
  0
LINE
  5
119
330
1F
100
AcDbEntity
  8
0-0
  6
JWW_DASHED1
 62
   120
370
     5
100
AcDbLine
 10
-654.3088978311414
 20
235.3488777492515
 30
0.0
 11
-260.4908651704511
 21
629.1669104099426
 31
0.0
  0
LINE
  5
11A
330
1F
100
AcDbEntity
  8
0-0
  6
JWW_DASHED1
 62
   120
370
     5
100
AcDbLine
 10
-654.308897831138
 20
242.419945561122
 30
0.0
 11
-267.561932982328
 21
629.1669104099324
 31
0.0
  0
LINE
  5
11B
330
1F
100
AcDbEntity
  8
0-0
  6
JWW_DASHED1
 62
   120
370
     5
100
AcDbLine
 10
-654.308897831155
 20
249.4910133729734
 30
0.0
 11
-274.6330007941844
 21
629.166910409944
 31
0.0
  0
LINE
  5
11C
330
1F
100
AcDbEntity
  8
0-0
  6
JWW_DASHED1
 62
   120
370
     5
100
AcDbLine
 10
-654.3088978311448
 20
256.5620811848498
 30
0.0
 11
-281.7040686060511
 21
629.166910409944
 31
0.0
  0
LINE
  5
11D
330
1F
100
AcDbEntity
  8
0-0
  6
JWW_DASHED1
 62
   120
370
     5
100
AcDbLine
 10
-654.3088978311346
 20
263.6331489967263
 30
0.0
 11
-288.775136417928
 21
629.1669104099333
 31
0.0
  0
LINE
  5
11E
330
1F
100
AcDbEntity
  8
0-0
  6
JWW_DASHED1
 62
   120
370
     5
100
AcDbLine
 10
-654.308897831155
 20
270.7042168085712
 30
0.0
 11
-295.846204229781
 21
629.1669104099452
 31
0.0
  0
LINE
  5
11F
330
1F
100
AcDbEntity
  8
0-0
  6
JWW_DASHED1
 62
   120
370
     5
100
AcDbLine
 10
-654.3088978311465
 20
277.7752846204477
 30
0.0
 11
-302.9172720416477
 21
629.1669104099452
 31
0.0
  0
LINE
  5
120
330
1F
100
AcDbEntity
  8
0-0
  6
JWW_DASHED1
 62
   120
370
     5
100
AcDbLine
 10
-654.3088978311363
 20
284.8463524323246
 30
0.0
 11
-309.9883398535246
 21
629.166910409935
 31
0.0
  0
LINE
  5
121
330
1F
100
AcDbEntity
  8
0-0
  6
JWW_DASHED1
 62
   120
370
     5
100
AcDbLine
 10
-654.3088978311482
 20
291.9174202441798
 30
0.0
 11
-317.0594076653946
 21
629.166910409932
 31
0.0
  0
LINE
  5
122
330
1F
100
AcDbEntity
  8
0-0
  6
JWW_DASHED1
 62
   120
370
     5
100
AcDbLine
 10
-654.3088978311482
 20
298.988488056046
 30
0.0
 11
-324.1304754772477
 21
629.1669104099465
 31
0.0
  0
LINE
  5
123
330
1F
100
AcDbEntity
  8
0-0
  6
JWW_DASHED1
 62
   120
370
     5
100
AcDbLine
 10
-654.308897831138
 20
306.0595558679225
 30
0.0
 11
-331.2015432891246
 21
629.1669104099367
 31
0.0
  0
LINE
  5
124
330
1F
100
AcDbEntity
  8
0-0
  6
JWW_DASHED1
 62
   120
370
     5
100
AcDbLine
 10
-654.3088978311346
 20
313.1306236797939
 30
0.0
 11
-338.2726111010015
 21
629.1669104099265
 31
0.0
  0
LINE
  5
125
330
1F
100
AcDbEntity
  8
0-0
  6
JWW_DASHED1
 62
   120
370
     5
100
AcDbLine
 10
-654.3088978311499
 20
320.2016914916443
 30
0.0
 11
-345.343678912846
 21
629.1669104099478
 31
0.0
  0
LINE
  5
126
330
1F
100
AcDbEntity
  8
0-0
  6
JWW_DASHED1
 62
   120
370
     5
100
AcDbLine
 10
-654.3088978311397
 20
327.2727593035208
 30
0.0
 11
-352.4147467247229
 21
629.1669104099379
 31
0.0
  0
LINE
  5
127
330
1F
100
AcDbEntity
  8
0-0
  6
JWW_DASHED1
 62
   120
370
     5
100
AcDbLine
 10
-654.3088978311346
 20
334.3438271153926
 30
0.0
 11
-359.4858145365998
 21
629.1669104099277
 31
0.0
  0
LINE
  5
128
330
1F
100
AcDbEntity
  8
0-0
  6
JWW_DASHED1
 62
   120
370
     5
100
AcDbLine
 10
-654.3088978311516
 20
341.4148949272422
 30
0.0
 11
-366.5568823484443
 21
629.1669104099491
 31
0.0
  0
LINE
  5
129
330
1F
100
AcDbEntity
  8
0-0
  6
JWW_DASHED1
 62
   120
370
     5
100
AcDbLine
 10
-654.3088978311414
 20
348.4859627391187
 30
0.0
 11
-373.6279501603212
 21
629.1669104099392
 31
0.0
  0
LINE
  5
12A
330
1F
100
AcDbEntity
  8
0-0
  6
JWW_DASHED1
 62
   120
370
     5
100
AcDbLine
 10
-654.3088978311363
 20
355.5570305509909
 30
0.0
 11
-380.6990179721981
 21
629.166910409929
 31
0.0
  0
LINE
  5
12B
330
1F
100
AcDbEntity
  8
0-0
  6
JWW_DASHED1
 62
   120
370
     5
100
AcDbLine
 10
-654.3088978311533
 20
362.6280983628405
 30
0.0
 11
-387.7700857840511
 21
629.1669104099435
 31
0.0
  0
LINE
  5
12C
330
1F
100
AcDbEntity
  8
0-0
  6
JWW_DASHED1
 62
   120
370
     5
100
AcDbLine
 10
-654.3088978311431
 20
369.699166174717
 30
0.0
 11
-394.8411535959212
 21
629.1669104099401
 31
0.0
  0
LINE
  5
12D
330
1F
100
AcDbEntity
  8
0-0
  6
JWW_DASHED1
 62
   120
370
     5
100
AcDbLine
 10
-654.308897831138
 20
376.7702339865896
 30
0.0
 11
-401.9122214077981
 21
629.1669104099303
 31
0.0
  0
LINE
  5
12E
330
1F
100
AcDbEntity
  8
0-0
  6
JWW_DASHED1
 62
   120
370
     5
100
AcDbLine
 10
-654.3088978311414
 20
383.8413017984248
 30
0.0
 11
-408.9832892196272
 21
629.1669104099384
 31
0.0
  0
LINE
  5
12F
330
1F
100
AcDbEntity
  8
0-0
  6
JWW_DASHED1
 62
   120
370
     5
100
AcDbLine
 10
-654.3088978311499
 20
390.9123696102564
 30
0.0
 11
-416.0543570314598
 21
629.166910409946
 31
0.0
  0
LINE
  5
130
330
1F
100
AcDbEntity
  8
0-0
  6
JWW_DASHED1
 62
   120
370
     5
100
AcDbLine
 10
-654.3088978311397
 20
397.9834374221329
 30
0.0
 11
-423.1254248433367
 21
629.1669104099358
 31
0.0
  0
LINE
  5
131
330
1F
100
AcDbEntity
  8
0-0
  6
JWW_DASHED1
 62
   120
370
     5
100
AcDbLine
 10
-654.3088978311346
 20
405.054505234006
 30
0.0
 11
-430.1964926552136
 21
629.166910409926
 31
0.0
  0
LINE
  5
132
330
1F
100
AcDbEntity
  8
0-0
  6
JWW_DASHED1
 62
   120
370
     5
100
AcDbLine
 10
-654.3088978311516
 20
412.1255730458543
 30
0.0
 11
-437.2675604670598
 21
629.1669104099474
 31
0.0
  0
LINE
  5
133
330
1F
100
AcDbEntity
  8
0-0
  6
JWW_DASHED1
 62
   120
370
     5
100
AcDbLine
 10
-654.3088978311414
 20
419.1966408577308
 30
0.0
 11
-444.3386282789367
 21
629.1669104099371
 31
0.0
  0
LINE
  5
134
330
1F
100
AcDbEntity
  8
0-0
  6
JWW_DASHED1
 62
   120
370
     5
100
AcDbLine
 10
-654.3088978311346
 20
426.2677086696047
 30
0.0
 11
-451.4096960908119
 21
629.1669104099274
 31
0.0
  0
LINE
  5
135
330
1F
100
AcDbEntity
  8
0-0
  6
JWW_DASHED1
 62
   120
370
     5
100
AcDbLine
 10
-654.3088978311533
 20
433.3387764814526
 30
0.0
 11
-458.4807639026632
 21
629.1669104099435
 31
0.0
  0
LINE
  5
136
330
1F
100
AcDbEntity
  8
0-0
  6
JWW_DASHED1
 62
   120
370
     5
100
AcDbLine
 10
-654.3088978311431
 20
440.4098442933295
 30
0.0
 11
-465.5518317145333
 21
629.1669104099384
 31
0.0
  0
LINE
  5
137
330
1F
100
AcDbEntity
  8
0-0
  6
JWW_DASHED1
 62
   120
370
     5
100
AcDbLine
 10
-654.3088978311363
 20
447.4809121052026
 30
0.0
 11
-472.6228995264102
 21
629.1669104099286
 31
0.0
  0
LINE
  5
138
330
1F
100
AcDbEntity
  8
0-0
  6
JWW_DASHED1
 62
   120
370
     5
100
AcDbLine
 10
-654.308897831155
 20
454.5519799170505
 30
0.0
 11
-479.6939673382598
 21
629.1669104099452
 31
0.0
  0
LINE
  5
139
330
1F
100
AcDbEntity
  8
0-0
  6
JWW_DASHED1
 62
   120
370
     5
100
AcDbLine
 10
-654.3088978311448
 20
461.623047728927
 30
0.0
 11
-486.7650351501334
 21
629.1669104099401
 31
0.0
  0
LINE
  5
13A
330
1F
100
AcDbEntity
  8
0-0
  6
JWW_DASHED1
 62
   120
370
     5
100
AcDbLine
 10
-654.3088978311346
 20
468.6941155408039
 30
0.0
 11
-493.8361029620103
 21
629.1669104099299
 31
0.0
  0
LINE
  5
13B
330
1F
100
AcDbEntity
  8
0-0
  6
JWW_DASHED1
 62
   120
370
     5
100
AcDbLine
 10
-654.3088978311567
 20
475.7651833526492
 30
0.0
 11
-500.9071707738599
 21
629.1669104099474
 31
0.0
  0
LINE
  5
13C
330
1F
100
AcDbEntity
  8
0-0
  6
JWW_DASHED1
 62
   120
370
     5
100
AcDbLine
 10
-654.3088978311482
 20
482.8362511645253
 30
0.0
 11
-507.9782385857317
 21
629.166910409941
 31
0.0
  0
LINE
  5
13D
330
1F
100
AcDbEntity
  8
0-0
  6
JWW_DASHED1
 62
   120
370
     5
100
AcDbLine
 10
-654.308897831138
 20
489.9073189764017
 30
0.0
 11
-515.0493063976086
 21
629.1669104099311
 31
0.0
  0
LINE
  5
13E
330
1F
100
AcDbEntity
  8
0-0
  6
JWW_DASHED1
 62
   120
370
     5
100
AcDbLine
 10
-654.3088978311448
 20
496.9783867882608
 30
0.0
 11
-522.1203742094735
 21
629.1669104099333
 31
0.0
  0
LINE
  5
13F
330
1F
100
AcDbEntity
  8
0-0
  6
JWW_DASHED1
 62
   120
370
     5
100
AcDbLine
 10
-654.3088978311482
 20
504.0494546001236
 30
0.0
 11
-529.19144202133
 21
629.1669104099426
 31
0.0
  0
LINE
  5
140
330
1F
100
AcDbEntity
  8
0-0
  6
JWW_DASHED1
 62
   120
370
     5
100
AcDbLine
 10
-654.3088978311397
 20
511.120522412
 30
0.0
 11
-536.2625098332069
 21
629.1669104099324
 31
0.0
  0
LINE
  5
141
330
1F
100
AcDbEntity
  8
0-0
  6
JWW_DASHED1
 62
   120
370
     5
100
AcDbLine
 10
-654.3088978311312
 20
518.1915902238748
 30
0.0
 11
-543.3335776450838
 21
629.1669104099221
 31
0.0
  0
LINE
  5
142
330
1F
100
AcDbEntity
  8
0-0
  6
JWW_DASHED1
 62
   120
370
     5
100
AcDbLine
 10
-654.3088978311516
 20
525.2626580357214
 30
0.0
 11
-550.40464545693
 21
629.1669104099435
 31
0.0
  0
LINE
  5
143
330
1F
100
AcDbEntity
  8
0-0
  6
JWW_DASHED1
 62
   120
370
     5
100
AcDbLine
 10
-654.3088978311414
 20
532.3337258475983
 30
0.0
 11
-557.4757132688069
 21
629.1669104099333
 31
0.0
  0
LINE
  5
144
330
1F
100
AcDbEntity
  8
0-0
  6
JWW_DASHED1
 62
   120
370
     5
100
AcDbLine
 10
-654.3088978311329
 20
539.4047936594735
 30
0.0
 11
-564.5467810806838
 21
629.1669104099235
 31
0.0
  0
LINE
  5
145
330
1F
100
AcDbEntity
  8
0-0
  6
JWW_DASHED1
 62
   120
370
     5
100
AcDbLine
 10
-654.3088978311533
 20
546.4758614713197
 30
0.0
 11
-571.61784889253
 21
629.1669104099431
 31
0.0
  0
LINE
  5
146
330
1F
100
AcDbEntity
  8
0-0
  6
JWW_DASHED1
 62
   120
370
     5
100
AcDbLine
 10
-654.3088978311431
 20
553.5469292831963
 30
0.0
 11
-578.6889167044035
 21
629.166910409935
 31
0.0
  0
LINE
  5
147
330
1F
100
AcDbEntity
  8
0-0
  6
JWW_DASHED1
 62
   120
370
     5
100
AcDbLine
 10
-654.3088978311346
 20
560.6179970950718
 30
0.0
 11
-585.7599845162804
 21
629.1669104099248
 31
0.0
  0
LINE
  5
148
330
1F
100
AcDbEntity
  8
0-0
  6
JWW_DASHED1
 62
   120
370
     5
100
AcDbLine
 10
-654.308897831155
 20
567.689064906918
 30
0.0
 11
-592.8310523281283
 21
629.1669104099444
 31
0.0
  0
LINE
  5
149
330
1F
100
AcDbEntity
  8
0-0
  6
JWW_DASHED1
 62
   120
370
     5
100
AcDbLine
 10
-654.3088978311448
 20
574.7601327187945
 30
0.0
 11
-599.9021201400035
 21
629.1669104099362
 31
0.0
  0
LINE
  5
14A
330
1F
100
AcDbEntity
  8
0-0
  6
JWW_DASHED1
 62
   120
370
     5
100
AcDbLine
 10
-654.3088978311346
 20
581.831200530671
 30
0.0
 11
-606.9731879518804
 21
629.1669104099255
 31
0.0
  0
LINE
  5
14B
330
1F
100
AcDbEntity
  8
0-0
  6
JWW_DASHED1
 62
   120
370
     5
100
AcDbLine
 10
-654.3088978311567
 20
588.902268342516
 30
0.0
 11
-614.0442557637266
 21
629.1669104099465
 31
0.0
  0
LINE
  5
14C
330
1F
100
AcDbEntity
  8
0-0
  6
JWW_DASHED1
 62
   120
370
     5
100
AcDbLine
 10
-654.3088978311465
 20
595.9733361543929
 30
0.0
 11
-621.1153235756018
 21
629.1669104099376
 31
0.0
  0
LINE
  5
14D
330
1F
100
AcDbEntity
  8
0-0
  6
JWW_DASHED1
 62
   120
370
     5
100
AcDbLine
 10
-654.308897831138
 20
603.0444039662693
 30
0.0
 11
-628.1863913874787
 21
629.1669104099277
 31
0.0
  0
LINE
  5
14E
330
1F
100
AcDbEntity
  8
0-0
  6
JWW_DASHED1
 62
   120
370
     5
100
AcDbLine
 10
-654.3088978311431
 20
610.1154717781296
 30
0.0
 11
-635.2574591993402
 21
629.1669104099324
 31
0.0
  0
LINE
  5
14F
330
1F
100
AcDbEntity
  8
0-0
  6
JWW_DASHED1
 62
   120
370
     5
100
AcDbLine
 10
-654.3088978311482
 20
617.1865395899907
 30
0.0
 11
-642.3285270112001
 21
629.1669104099384
 31
0.0
  0
LINE
  5
150
330
1F
100
AcDbEntity
  8
0-0
  6
JWW_DASHED1
 62
   120
370
     5
100
AcDbLine
 10
-654.308897831138
 20
624.2576074018672
 30
0.0
 11
-649.399594823077
 21
629.166910409929
 31
0.0
  0
LINE
  5
151
330
1F
100
AcDbEntity
  8
0-0
  6
JWW_DASHED1
 62
   120
370
     5
100
AcDbLine
 10
-330.3941852517357
 20
-345.8330895900569
 30
0.0
 11
-64.30889783115612
 21
-79.7478021694765
 31
0.0
  0
LINE
  5
152
330
1F
100
AcDbEntity
  8
0-0
  6
Continuous
 62
    92
370
    13
100
AcDbLine
 10
-654.3088978311448
 20
-475.8330895900666
 30
0.0
 11
-64.30889783114247
 21
-475.8330895900666
 31
0.0
  0
LINE
  5
153
330
1F
100
AcDbEntity
  8
0-0
  6
Continuous
 62
    92
370
    13
100
AcDbLine
 10
155.6911021688553
 20
-345.8330895900667
 30
0.0
 11
745.6911021688575
 21
-345.8330895900667
 31
0.0
  0
LINE
  5
154
330
1F
100
AcDbEntity
  8
0-0
  6
JWW_DASHED1
 62
   120
370
     5
100
AcDbLine
 10
741.2353237872833
 20
-345.8330895900505
 30
0.0
 11
745.6911021688404
 21
-341.3773112084921
 31
0.0
  0
LINE
  5
155
330
1F
100
AcDbEntity
  8
0-0
  6
JWW_DASHED1
 62
   120
370
     5
100
AcDbLine
 10
734.1642559754064
 20
-345.8330895900611
 30
0.0
 11
745.6911021688506
 21
-334.3062433966156
 31
0.0
  0
LINE
  5
156
330
1F
100
AcDbEntity
  8
0-0
  6
JWW_DASHED1
 62
   120
370
     5
100
AcDbLine
 10
727.0931881635448
 20
-345.8330895900552
 30
0.0
 11
745.6911021688455
 21
-327.2351755847545
 31
0.0
  0
LINE
  5
157
330
1F
100
AcDbEntity
  8
0-0
  6
JWW_DASHED1
 62
   120
370
     5
100
AcDbLine
 10
720.0221203516833
 20
-345.8330895900497
 30
0.0
 11
745.6911021688404
 21
-320.1641077728938
 31
0.0
  0
LINE
  5
158
330
1F
100
AcDbEntity
  8
0-0
  6
JWW_DASHED1
 62
   120
370
     5
100
AcDbLine
 10
712.9510525398064
 20
-345.8330895900599
 30
0.0
 11
745.6911021688506
 21
-313.0930399610173
 31
0.0
  0
LINE
  5
159
330
1F
100
AcDbEntity
  8
0-0
  6
JWW_DASHED1
 62
   120
370
     5
100
AcDbLine
 10
705.8799847279465
 20
-345.8330895900539
 30
0.0
 11
745.6911021688438
 21
-306.0219721491558
 31
0.0
  0
LINE
  5
15A
330
1F
100
AcDbEntity
  8
0-0
  6
JWW_DASHED1
 62
   120
370
     5
100
AcDbLine
 10
698.8089169160696
 20
-345.8330895900629
 30
0.0
 11
745.6911021688541
 21
-298.9509043372801
 31
0.0
  0
LINE
  5
15B
330
1F
100
AcDbEntity
  8
0-0
  6
JWW_DASHED1
 62
   120
370
     5
100
AcDbLine
 10
691.7378491042081
 20
-345.8330895900582
 30
0.0
 11
745.6911021688472
 21
-291.8798365254195
 31
0.0
  0
LINE
  5
15C
330
1F
100
AcDbEntity
  8
0-0
  6
JWW_DASHED1
 62
   120
370
     5
100
AcDbLine
 10
684.6667812923482
 20
-345.8330895900522
 30
0.0
 11
745.6911021688438
 21
-284.8087687135575
 31
0.0
  0
LINE
  5
15D
330
1F
100
AcDbEntity
  8
0-0
  6
JWW_DASHED1
 62
   120
370
     5
100
AcDbLine
 10
677.595713480473
 20
-345.8330895900608
 30
0.0
 11
745.6911021688506
 21
-277.7377009016818
 31
0.0
  0
LINE
  5
15E
330
1F
100
AcDbEntity
  8
0-0
  6
JWW_DASHED1
 62
   120
370
     5
100
AcDbLine
 10
670.5246456686098
 20
-345.8330895900569
 30
0.0
 11
745.6911021688455
 21
-270.6666330898212
 31
0.0
  0
LINE
  5
15F
330
1F
100
AcDbEntity
  8
0-0
  6
JWW_DASHED1
 62
   120
370
     5
100
AcDbLine
 10
663.4535778567329
 20
-345.8330895900667
 30
0.0
 11
745.6911021688558
 21
-263.5955652779447
 31
0.0
  0
LINE
  5
160
330
1F
100
AcDbEntity
  8
0-0
  6
JWW_DASHED1
 62
   120
370
     5
100
AcDbLine
 10
656.3825100448747
 20
-345.833089590059
 30
0.0
 11
745.6911021688506
 21
-256.524497466084
 31
0.0
  0
LINE
  5
161
330
1F
100
AcDbEntity
  8
0-0
  6
JWW_DASHED1
 62
   120
370
     5
100
AcDbLine
 10
649.3114422330115
 20
-345.8330895900556
 30
0.0
 11
745.6911021688438
 21
-249.4534296542228
 31
0.0
  0
LINE
  5
162
330
1F
100
AcDbEntity
  8
0-0
  6
JWW_DASHED1
 62
   120
370
     5
100
AcDbLine
 10
642.2403744211346
 20
-345.8330895900659
 30
0.0
 11
745.6911021688541
 21
-242.3823618423464
 31
0.0
  0
LINE
  5
163
330
1F
100
AcDbEntity
  8
0-0
  6
JWW_DASHED1
 62
   120
370
     5
100
AcDbLine
 10
635.1693066092764
 20
-345.8330895900573
 30
0.0
 11
745.6911021688506
 21
-235.311294030484
 31
0.0
  0
LINE
  5
164
330
1F
100
AcDbEntity
  8
0-0
  6
JWW_DASHED1
 62
   120
370
     5
100
AcDbLine
 10
628.0982387974575
 20
-345.8330895900629
 30
0.0
 11
745.6911021688541
 21
-228.240226218668
 31
0.0
  0
LINE
  5
165
330
1F
100
AcDbEntity
  8
0-0
  6
JWW_DASHED1
 62
   120
370
     5
100
AcDbLine
 10
621.0271709855942
 20
-345.8330895900604
 30
0.0
 11
745.6911021688472
 21
-221.1691584068073
 31
0.0
  0
LINE
  5
166
330
1F
100
AcDbEntity
  8
0-0
  6
JWW_DASHED1
 62
   120
370
     5
100
AcDbLine
 10
613.9561031737344
 20
-345.8330895900543
 30
0.0
 11
745.6911021688438
 21
-214.0980905949441
 31
0.0
  0
LINE
  5
167
330
1F
100
AcDbEntity
  8
0-0
  6
JWW_DASHED1
 62
   120
370
     5
100
AcDbLine
 10
606.8850353618609
 20
-345.8330895900608
 30
0.0
 11
745.6911021688506
 21
-207.0270227830697
 31
0.0
  0
LINE
  5
168
330
1F
100
AcDbEntity
  8
0-0
  6
JWW_DASHED1
 62
   120
370
     5
100
AcDbLine
 10
599.8139675499959
 20
-345.833089590059
 30
0.0
 11
745.6911021688455
 21
-199.955954971209
 31
0.0
  0
LINE
  5
169
330
1F
100
AcDbEntity
  8
0-0
  6
JWW_DASHED1
 62
   120
370
     5
100
AcDbLine
 10
592.742899738119
 20
-345.8330895900689
 30
0.0
 11
745.6911021688558
 21
-192.8848871593325
 31
0.0
  0
LINE
  5
16A
330
1F
100
AcDbEntity
  8
0-0
  6
JWW_DASHED1
 62
   120
370
     5
100
AcDbLine
 10
585.6718319262626
 20
-345.833089590059
 30
0.0
 11
745.6911021688506
 21
-185.8138193474718
 31
0.0
  0
LINE
  5
16B
330
1F
100
AcDbEntity
  8
0-0
  6
JWW_DASHED1
 62
   120
370
     5
100
AcDbLine
 10
578.6007641143976
 20
-345.8330895900573
 30
0.0
 11
745.6911021688438
 21
-178.7427515356107
 31
0.0
  0
LINE
  5
16C
330
1F
100
AcDbEntity
  8
0-0
  6
JWW_DASHED1
 62
   120
370
     5
100
AcDbLine
 10
571.5296963025207
 20
-345.8330895900676
 30
0.0
 11
745.6911021688541
 21
-171.6716837237342
 31
0.0
  0
LINE
  5
16D
330
1F
100
AcDbEntity
  8
0-0
  6
JWW_DASHED1
 62
   120
370
     5
100
AcDbLine
 10
564.4586284906643
 20
-345.8330895900573
 30
0.0
 11
745.6911021688506
 21
-164.6006159118706
 31
0.0
  0
LINE
  5
16E
330
1F
100
AcDbEntity
  8
0-0
  6
JWW_DASHED1
 62
   120
370
     5
100
AcDbLine
 10
557.3875606787976
 20
-345.8330895900565
 30
0.0
 11
745.6911021688421
 21
-157.5295481000128
 31
0.0
  0
LINE
  5
16F
330
1F
100
AcDbEntity
  8
0-0
  6
JWW_DASHED1
 62
   120
370
     5
100
AcDbLine
 10
550.3164928669224
 20
-345.8330895900659
 30
0.0
 11
745.6911021688524
 21
-150.4584802881359
 31
0.0
  0
LINE
  5
170
330
1F
100
AcDbEntity
  8
0-0
  6
JWW_DASHED1
 62
   120
370
     5
100
AcDbLine
 10
543.2454250550609
 20
-345.8330895900608
 30
0.0
 11
745.6911021688489
 21
-143.3874124762723
 31
0.0
  0
LINE
  5
171
330
1F
100
AcDbEntity
  8
0-0
  6
JWW_DASHED1
 62
   120
370
     5
100
AcDbLine
 10
536.1743572431993
 20
-345.8330895900552
 30
0.0
 11
745.6911021688404
 21
-136.3163446644145
 31
0.0
  0
LINE
  5
172
330
1F
100
AcDbEntity
  8
0-0
  6
JWW_DASHED1
 62
   120
370
     5
100
AcDbLine
 10
529.1032894313241
 20
-345.833089590065
 30
0.0
 11
745.6911021688506
 21
-129.2452768525381
 31
0.0
  0
LINE
  5
173
330
1F
100
AcDbEntity
  8
0-0
  6
JWW_DASHED1
 62
   120
370
     5
100
AcDbLine
 10
522.0322216194626
 20
-345.833089590059
 30
0.0
 11
745.6911021688472
 21
-122.1742090406735
 31
0.0
  0
LINE
  5
174
330
1F
100
AcDbEntity
  8
0-0
  6
JWW_DASHED1
 62
   120
370
     5
100
AcDbLine
 10
514.961153807601
 20
-345.8330895900539
 30
0.0
 11
745.691102168837
 21
-115.1031412288167
 31
0.0
  0
LINE
  5
175
330
1F
100
AcDbEntity
  8
0-0
  6
JWW_DASHED1
 62
   120
370
     5
100
AcDbLine
 10
507.8900859957241
 20
-345.8330895900633
 30
0.0
 11
745.6911021688472
 21
-108.0320734169398
 31
0.0
  0
LINE
  5
176
330
1F
100
AcDbEntity
  8
0-0
  6
JWW_DASHED1
 62
   120
370
     5
100
AcDbLine
 10
500.8190181838643
 20
-345.8330895900582
 30
0.0
 11
745.6911021688472
 21
-100.9610056050752
 31
0.0
  0
LINE
  5
177
330
1F
100
AcDbEntity
  8
0-0
  6
JWW_DASHED1
 62
   120
370
     5
100
AcDbLine
 10
493.7479503719942
 20
-345.8330895900616
 30
0.0
 11
745.6911021688524
 21
-93.88993779320259
 31
0.0
  0
LINE
  5
178
330
1F
100
AcDbEntity
  8
0-0
  6
JWW_DASHED1
 62
   120
370
     5
100
AcDbLine
 10
486.6768825601258
 20
-345.8330895900625
 30
0.0
 11
745.6911021688472
 21
-86.81886998134189
 31
0.0
  0
LINE
  5
179
330
1F
100
AcDbEntity
  8
0-0
  6
JWW_DASHED1
 62
   120
370
     5
100
AcDbLine
 10
472.5347469363942
 20
-345.8330895900594
 30
0.0
 11
745.6911021688506
 21
-72.67673435760429
 31
0.0
  0
LINE
  5
17A
330
1F
100
AcDbEntity
  8
0-0
  6
JWW_DASHED1
 62
   120
370
     5
100
AcDbLine
 10
465.4636791245276
 20
-345.8330895900611
 30
0.0
 11
745.6911021688438
 21
-65.60566654574359
 31
0.0
  0
LINE
  5
17B
330
1F
100
AcDbEntity
  8
0-0
  6
JWW_DASHED1
 62
   120
370
     5
100
AcDbLine
 10
458.3926113126507
 20
-345.833089590071
 30
0.0
 11
745.6911021688541
 21
-58.53459873386669
 31
0.0
  0
LINE
  5
17C
330
1F
100
AcDbEntity
  8
0-0
  6
JWW_DASHED1
 62
   120
370
     5
100
AcDbLine
 10
451.3215435007976
 20
-345.8330895900577
 30
0.0
 11
745.6911021688489
 21
-51.46353092200641
 31
0.0
  0
LINE
  5
17D
330
1F
100
AcDbEntity
  8
0-0
  6
JWW_DASHED1
 62
   120
370
     5
100
AcDbLine
 10
444.2504756889276
 20
-345.8330895900599
 30
0.0
 11
745.6911021688421
 21
-44.39246311014571
 31
0.0
  0
LINE
  5
17E
330
1F
100
AcDbEntity
  8
0-0
  6
JWW_DASHED1
 62
   120
370
     5
100
AcDbLine
 10
437.1794078770507
 20
-345.8330895900701
 30
0.0
 11
745.6911021688524
 21
-37.32139529826924
 31
0.0
  0
LINE
  5
17F
330
1F
100
AcDbEntity
  8
0-0
  6
JWW_DASHED1
 62
   120
370
     5
100
AcDbLine
 10
430.1083400651993
 20
-345.8330895900556
 30
0.0
 11
745.6911021688506
 21
-30.25032748640299
 31
0.0
  0
LINE
  5
180
330
1F
100
AcDbEntity
  8
0-0
  6
JWW_DASHED1
 62
   120
370
     5
100
AcDbLine
 10
423.0372722533293
 20
-345.8330895900586
 30
0.0
 11
745.6911021688404
 21
-23.17925967454741
 31
0.0
  0
LINE
  5
181
330
1F
100
AcDbEntity
  8
0-0
  6
JWW_DASHED1
 62
   120
370
     5
100
AcDbLine
 10
415.9662044414524
 20
-345.8330895900689
 30
0.0
 11
745.6911021688506
 21
-16.10819186267094
 31
0.0
  0
LINE
  5
182
330
1F
100
AcDbEntity
  8
0-0
  6
JWW_DASHED1
 62
   120
370
     5
100
AcDbLine
 10
408.8951366295908
 20
-345.8330895900629
 30
0.0
 11
745.6911021688506
 21
-9.037124050804692
 31
0.0
  0
LINE
  5
183
330
1F
100
AcDbEntity
  8
0-0
  6
JWW_DASHED1
 62
   120
370
     5
100
AcDbLine
 10
401.824068817731
 20
-345.8330895900573
 30
0.0
 11
745.6911021688387
 21
-1.966056238949534
 31
0.0
  0
LINE
  5
184
330
1F
100
AcDbEntity
  8
0-0
  6
JWW_DASHED1
 62
   120
370
     5
100
AcDbLine
 10
394.7530010058541
 20
-345.8330895900676
 30
0.0
 11
745.6911021688489
 21
5.105011572927367
 31
0.0
  0
LINE
  5
185
330
1F
100
AcDbEntity
  8
0-0
  6
JWW_DASHED1
 62
   120
370
     5
100
AcDbLine
 10
387.6819331940232
 20
-345.833089590059
 30
0.0
 11
745.6911021688472
 21
12.17607938476419
 31
0.0
  0
LINE
  5
186
330
1F
100
AcDbEntity
  8
0-0
  6
JWW_DASHED1
 62
   120
370
     5
100
AcDbLine
 10
380.6108653821855
 20
-345.8330895900577
 30
0.0
 11
745.6911021688489
 21
19.24714719660571
 31
0.0
  0
LINE
  5
187
330
1F
100
AcDbEntity
  8
0-0
  6
JWW_DASHED1
 62
   120
370
     5
100
AcDbLine
 10
373.5397975703154
 20
-345.8330895900616
 30
0.0
 11
745.6911021688421
 21
26.31821500846641
 31
0.0
  0
LINE
  5
188
330
1F
100
AcDbEntity
  8
0-0
  6
JWW_DASHED1
 62
   120
370
     5
100
AcDbLine
 10
366.4687297584385
 20
-345.8330895900718
 30
0.0
 11
745.6911021688524
 21
33.38928282034288
 31
0.0
  0
LINE
  5
189
330
1F
100
AcDbEntity
  8
0-0
  6
JWW_DASHED1
 62
   120
370
     5
100
AcDbLine
 10
359.3976619465872
 20
-345.8330895900556
 30
0.0
 11
745.6911021688541
 21
40.46035063221041
 31
0.0
  0
LINE
  5
18A
330
1F
100
AcDbEntity
  8
0-0
  6
JWW_DASHED1
 62
   120
370
     5
100
AcDbLine
 10
352.3265941347154
 20
-345.8330895900599
 30
0.0
 11
745.6911021688404
 21
47.53141844406471
 31
0.0
  0
LINE
  5
18B
330
1F
100
AcDbEntity
  8
0-0
  6
JWW_DASHED1
 62
   120
370
     5
100
AcDbLine
 10
345.2555263228385
 20
-345.8330895900701
 30
0.0
 11
745.6911021688506
 21
54.60248625594119
 31
0.0
  0
LINE
  5
18C
330
1F
100
AcDbEntity
  8
0-0
  6
JWW_DASHED1
 62
   120
370
     5
100
AcDbLine
 10
338.1844585109787
 20
-345.833089590065
 30
0.0
 11
745.6911021688506
 21
61.67355406780871
 31
0.0
  0
LINE
  5
18D
330
1F
100
AcDbEntity
  8
0-0
  6
JWW_DASHED1
 62
   120
370
     5
100
AcDbLine
 10
331.1133906991171
 20
-345.833089590059
 30
0.0
 11
745.6911021688387
 21
68.74462187966259
 31
0.0
  0
LINE
  5
18E
330
1F
100
AcDbEntity
  8
0-0
  6
JWW_DASHED1
 62
   120
370
     5
100
AcDbLine
 10
324.0423228872402
 20
-345.8330895900693
 30
0.0
 11
745.6911021688489
 21
75.81568969153949
 31
0.0
  0
LINE
  5
18F
330
1F
100
AcDbEntity
  8
0-0
  6
JWW_DASHED1
 62
   120
370
     5
100
AcDbLine
 10
316.9712550753787
 20
-345.8330895900633
 30
0.0
 11
745.6911021688506
 21
82.88675750340701
 31
0.0
  0
LINE
  5
190
330
1F
100
AcDbEntity
  8
0-0
  6
JWW_DASHED1
 62
   120
370
     5
100
AcDbLine
 10
309.9001872635188
 20
-345.8330895900577
 30
0.0
 11
745.691102168837
 21
89.95782531526089
 31
0.0
  0
LINE
  5
191
330
1F
100
AcDbEntity
  8
0-0
  6
JWW_DASHED1
 62
   120
370
     5
100
AcDbLine
 10
302.8291194516419
 20
-345.833089590068
 30
0.0
 11
745.6911021688472
 21
97.02889312713737
 31
0.0
  0
LINE
  5
192
330
1F
100
AcDbEntity
  8
0-0
  6
JWW_DASHED1
 62
   120
370
     5
100
AcDbLine
 10
295.7580516397804
 20
-345.8330895900621
 30
0.0
 11
745.6911021688472
 21
104.0999609390053
 31
0.0
  0
LINE
  5
193
330
1F
100
AcDbEntity
  8
0-0
  6
JWW_DASHED1
 62
   120
370
     5
100
AcDbLine
 10
288.6869838279154
 20
-345.8330895900599
 30
0.0
 11
745.6911021688506
 21
111.171028750875
 31
0.0
  0
LINE
  5
194
330
1F
100
AcDbEntity
  8
0-0
  6
JWW_DASHED1
 62
   120
370
     5
100
AcDbLine
 10
281.6159160160419
 20
-345.8330895900667
 30
0.0
 11
745.6911021688438
 21
118.2420965627357
 31
0.0
  0
LINE
  5
195
330
1F
100
AcDbEntity
  8
0-0
  6
JWW_DASHED1
 62
   120
370
     5
100
AcDbLine
 10
274.544848204165
 20
-345.8330895900765
 30
0.0
 11
745.6911021688541
 21
125.3131643746121
 31
0.0
  0
LINE
  5
196
330
1F
100
AcDbEntity
  8
0-0
  6
JWW_DASHED1
 62
   120
370
     5
100
AcDbLine
 10
267.4737803923188
 20
-345.8330895900582
 30
0.0
 11
745.6911021688489
 21
132.3842321864733
 31
0.0
  0
LINE
  5
197
330
1F
100
AcDbEntity
  8
0-0
  6
JWW_DASHED1
 62
   120
370
     5
100
AcDbLine
 10
260.4027125804436
 20
-345.8330895900655
 30
0.0
 11
745.6911021688438
 21
139.455299998334
 31
0.0
  0
LINE
  5
198
330
1F
100
AcDbEntity
  8
0-0
  6
JWW_DASHED1
 62
   120
370
     5
100
AcDbLine
 10
253.3316447685684
 20
-345.8330895900752
 30
0.0
 11
745.6911021688541
 21
146.5263678102104
 31
0.0
  0
LINE
  5
199
330
1F
100
AcDbEntity
  8
0-0
  6
JWW_DASHED1
 62
   120
370
     5
100
AcDbLine
 10
246.2605769567188
 20
-345.8330895900565
 30
0.0
 11
745.6911021688472
 21
153.5974356220711
 31
0.0
  0
LINE
  5
19A
330
1F
100
AcDbEntity
  8
0-0
  6
JWW_DASHED1
 62
   120
370
     5
100
AcDbLine
 10
239.1895091448453
 20
-345.8330895900642
 30
0.0
 11
745.6911021688404
 21
160.6685034339318
 31
0.0
  0
LINE
  5
19B
330
1F
100
AcDbEntity
  8
0-0
  6
JWW_DASHED1
 62
   120
370
     5
100
AcDbLine
 10
232.1184413329684
 20
-345.8330895900735
 30
0.0
 11
745.6911021688506
 21
167.7395712458087
 31
0.0
  0
LINE
  5
19C
330
1F
100
AcDbEntity
  8
0-0
  6
JWW_DASHED1
 62
   120
370
     5
100
AcDbLine
 10
225.0473735211222
 20
-345.8330895900543
 30
0.0
 11
745.6911021688541
 21
174.810639057678
 31
0.0
  0
LINE
  5
19D
330
1F
100
AcDbEntity
  8
0-0
  6
JWW_DASHED1
 62
   120
370
     5
100
AcDbLine
 10
217.9763057092453
 20
-345.8330895900629
 30
0.0
 11
745.6911021688404
 21
181.8817068695301
 31
0.0
  0
LINE
  5
19E
330
1F
100
AcDbEntity
  8
0-0
  6
JWW_DASHED1
 62
   120
370
     5
100
AcDbLine
 10
210.9052378973701
 20
-345.8330895900727
 30
0.0
 11
745.6911021688489
 21
188.9527746814066
 31
0.0
  0
LINE
  5
19F
330
1F
100
AcDbEntity
  8
0-0
  6
JWW_DASHED1
 62
   120
370
     5
100
AcDbLine
 10
203.8341700855086
 20
-345.8330895900667
 30
0.0
 11
745.6911021688524
 21
196.0238424932763
 31
0.0
  0
LINE
  5
1A0
330
1F
100
AcDbEntity
  8
0-0
  6
JWW_DASHED1
 62
   120
370
     5
100
AcDbLine
 10
196.7631022736487
 20
-345.8330895900616
 30
0.0
 11
745.691102168837
 21
203.0949103051285
 31
0.0
  0
LINE
  5
1A1
330
1F
100
AcDbEntity
  8
0-0
  6
JWW_DASHED1
 62
   120
370
     5
100
AcDbLine
 10
189.6920344617718
 20
-345.8330895900714
 30
0.0
 11
745.6911021688472
 21
210.1659781170045
 31
0.0
  0
LINE
  5
1A2
330
1F
100
AcDbEntity
  8
0-0
  6
JWW_DASHED1
 62
   120
370
     5
100
AcDbLine
 10
182.6209666499103
 20
-345.8330895900659
 30
0.0
 11
745.6911021688506
 21
217.2370459288746
 31
0.0
  0
LINE
  5
1A3
330
1F
100
AcDbEntity
  8
0-0
  6
JWW_DASHED1
 62
   120
370
     5
100
AcDbLine
 10
175.5498988380487
 20
-345.8330895900608
 30
0.0
 11
745.6911021688506
 21
224.3081137407421
 31
0.0
  0
LINE
  5
1A4
330
1F
100
AcDbEntity
  8
0-0
  6
JWW_DASHED1
 62
   120
370
     5
100
AcDbLine
 10
168.4788310261718
 20
-345.8330895900701
 30
0.0
 11
745.6911021688455
 21
231.3791815526028
 31
0.0
  0
LINE
  5
1A5
330
1F
100
AcDbEntity
  8
0-0
  6
JWW_DASHED1
 62
   120
370
     5
100
AcDbLine
 10
161.407763214312
 20
-345.8330895900646
 30
0.0
 11
745.6911021688489
 21
238.4502493644729
 31
0.0
  0
LINE
  5
1A6
330
1F
100
AcDbEntity
  8
0-0
  6
JWW_DASHED1
 62
   120
370
     5
100
AcDbLine
 10
155.6911021688484
 20
-344.478682823661
 30
0.0
 11
745.6911021688506
 21
245.5213171763404
 31
0.0
  0
LINE
  5
1A7
330
1F
100
AcDbEntity
  8
0-0
  6
JWW_DASHED1
 62
   120
370
     5
100
AcDbLine
 10
155.6911021688587
 20
-337.407615011785
 30
0.0
 11
745.6911021688438
 21
252.5923849882011
 31
0.0
  0
LINE
  5
1A8
330
1F
100
AcDbEntity
  8
0-0
  6
JWW_DASHED1
 62
   120
370
     5
100
AcDbLine
 10
155.6911021688638
 20
-330.3365471999669
 30
0.0
 11
745.6911021688489
 21
259.6634528000187
 31
0.0
  0
LINE
  5
1A9
330
1F
100
AcDbEntity
  8
0-0
  6
JWW_DASHED1
 62
   120
370
     5
100
AcDbLine
 10
155.6911021688587
 20
-323.2654793881062
 30
0.0
 11
745.6911021688541
 21
266.7345206118897
 31
0.0
  0
LINE
  5
1AA
330
1F
100
AcDbEntity
  8
0-0
  6
JWW_DASHED1
 62
   120
370
     5
100
AcDbLine
 10
155.6911021688518
 20
-316.1944115762455
 30
0.0
 11
745.691102168837
 21
273.8055884237401
 31
0.0
  0
LINE
  5
1AB
330
1F
100
AcDbEntity
  8
0-0
  6
JWW_DASHED1
 62
   120
370
     5
100
AcDbLine
 10
155.6911021688621
 20
-309.1233437643686
 30
0.0
 11
745.6911021688472
 21
280.876656235617
 31
0.0
  0
LINE
  5
1AC
330
1F
100
AcDbEntity
  8
0-0
  6
JWW_DASHED1
 62
   120
370
     5
100
AcDbLine
 10
155.6911021688553
 20
-302.0522759525074
 30
0.0
 11
745.6911021688524
 21
287.947724047488
 31
0.0
  0
LINE
  5
1AD
330
1F
100
AcDbEntity
  8
0-0
  6
JWW_DASHED1
 62
   120
370
     5
100
AcDbLine
 10
155.6911021688501
 20
-294.9812081406472
 30
0.0
 11
745.6911021688506
 21
295.0187918593542
 31
0.0
  0
LINE
  5
1AE
330
1F
100
AcDbEntity
  8
0-0
  6
JWW_DASHED1
 62
   120
370
     5
100
AcDbLine
 10
155.6911021688604
 20
-287.9101403287703
 30
0.0
 11
745.6911021688455
 21
302.0898596712149
 31
0.0
  0
LINE
  5
1AF
330
1F
100
AcDbEntity
  8
0-0
  6
JWW_DASHED1
 62
   120
370
     5
100
AcDbLine
 10
155.6911021688553
 20
-280.8390725169087
 30
0.0
 11
745.6911021688506
 21
309.1609274830863
 31
0.0
  0
LINE
  5
1B0
330
1F
100
AcDbEntity
  8
0-0
  6
JWW_DASHED1
 62
   120
370
     5
100
AcDbLine
 10
155.6911021688484
 20
-273.7680047050489
 30
0.0
 11
745.6911021688506
 21
316.2319952949525
 31
0.0
  0
LINE
  5
1B1
330
1F
100
AcDbEntity
  8
0-0
  6
JWW_DASHED1
 62
   120
370
     5
100
AcDbLine
 10
155.6911021688587
 20
-266.6969368931724
 30
0.0
 11
745.6911021688438
 21
323.3030631068132
 31
0.0
  0
LINE
  5
1B2
330
1F
100
AcDbEntity
  8
0-0
  6
JWW_DASHED1
 62
   120
370
     5
100
AcDbLine
 10
155.6911021688689
 20
-259.6258690812959
 30
0.0
 11
745.6911021688541
 21
330.3741309186897
 31
0.0
  0
LINE
  5
1B3
330
1F
100
AcDbEntity
  8
0-0
  6
JWW_DASHED1
 62
   120
370
     5
100
AcDbLine
 10
155.6911021688467
 20
-252.5548012694506
 30
0.0
 11
745.6911021688472
 21
337.4451987305504
 31
0.0
  0
LINE
  5
1B4
330
1F
100
AcDbEntity
  8
0-0
  6
JWW_DASHED1
 62
   120
370
     5
100
AcDbLine
 10
155.6911021688553
 20
-245.4837334575745
 30
0.0
 11
745.6911021688421
 21
344.5162665424115
 31
0.0
  0
LINE
  5
1B5
330
1F
100
AcDbEntity
  8
0-0
  6
JWW_DASHED1
 62
   120
370
     5
100
AcDbLine
 10
155.6911021688655
 20
-238.4126656456976
 30
0.0
 11
745.6911021688506
 21
351.587334354288
 31
0.0
  0
LINE
  5
1B6
330
1F
100
AcDbEntity
  8
0-0
  6
JWW_DASHED1
 62
   120
370
     5
100
AcDbLine
 10
155.6911021688467
 20
-231.3415978338506
 30
0.0
 11
745.6911021688575
 21
358.6584021661602
 31
0.0
  0
LINE
  5
1B7
330
1F
100
AcDbEntity
  8
0-0
  6
JWW_DASHED1
 62
   120
370
     5
100
AcDbLine
 10
155.6911021688535
 20
-224.2705300219762
 30
0.0
 11
745.6911021688404
 21
365.7294699780094
 31
0.0
  0
LINE
  5
1B8
330
1F
100
AcDbEntity
  8
0-0
  6
JWW_DASHED1
 62
   120
370
     5
100
AcDbLine
 10
155.6911021688638
 20
-217.1994622100998
 30
0.0
 11
745.6911021688506
 21
372.8005377898859
 31
0.0
  0
LINE
  5
1B9
330
1F
100
AcDbEntity
  8
0-0
  6
JWW_DASHED1
 62
   120
370
     5
100
AcDbLine
 10
155.6911021688604
 20
-210.1283943982369
 30
0.0
 11
745.6911021688558
 21
379.8716056017585
 31
0.0
  0
LINE
  5
1BA
330
1F
100
AcDbEntity
  8
0-0
  6
JWW_DASHED1
 62
   120
370
     5
100
AcDbLine
 10
155.6911021688518
 20
-203.0573265863779
 30
0.0
 11
745.691102168837
 21
386.9426734136077
 31
0.0
  0
LINE
  5
1BB
330
1F
100
AcDbEntity
  8
0-0
  6
JWW_DASHED1
 62
   120
370
     5
100
AcDbLine
 10
155.6911021688621
 20
-195.9862587745019
 30
0.0
 11
745.6911021688472
 21
394.0137412254842
 31
0.0
  0
LINE
  5
1BC
330
1F
100
AcDbEntity
  8
0-0
  6
JWW_DASHED1
 62
   120
370
     5
100
AcDbLine
 10
155.6911021688587
 20
-188.9151909626382
 30
0.0
 11
745.6911021688541
 21
401.0848090373572
 31
0.0
  0
LINE
  5
1BD
330
1F
100
AcDbEntity
  8
0-0
  6
JWW_DASHED1
 62
   120
370
     5
100
AcDbLine
 10
155.6911021688501
 20
-181.8441231507801
 30
0.0
 11
745.691102168837
 21
408.1558768492056
 31
0.0
  0
LINE
  5
1BE
330
1F
100
AcDbEntity
  8
0-0
  6
JWW_DASHED1
 62
   120
370
     5
100
AcDbLine
 10
155.6911021688604
 20
-174.7730553389036
 30
0.0
 11
745.6911021688472
 21
415.2269446610825
 31
0.0
  0
LINE
  5
1BF
330
1F
100
AcDbEntity
  8
0-0
  6
JWW_DASHED1
 62
   120
370
     5
100
AcDbLine
 10
155.691102168857
 20
-167.7019875270395
 30
0.0
 11
745.6911021688524
 21
422.2980124729555
 31
0.0
  0
LINE
  5
1C0
330
1F
100
AcDbEntity
  8
0-0
  6
JWW_DASHED1
 62
   120
370
     5
100
AcDbLine
 10
155.6911021688484
 20
-160.6309197151822
 30
0.0
 11
745.6911021688506
 21
429.3690802848197
 31
0.0
  0
LINE
  5
1C1
330
1F
100
AcDbEntity
  8
0-0
  6
JWW_DASHED1
 62
   120
370
     5
100
AcDbLine
 10
155.6911021688587
 20
-153.5598519033053
 30
0.0
 11
745.6911021688438
 21
436.4401480966803
 31
0.0
  0
LINE
  5
1C2
330
1F
100
AcDbEntity
  8
0-0
  6
JWW_DASHED1
 62
   120
370
     5
100
AcDbLine
 10
155.6911021688553
 20
-146.4887840914412
 30
0.0
 11
745.6911021688506
 21
443.5112159085543
 31
0.0
  0
LINE
  5
1C3
330
1F
100
AcDbEntity
  8
0-0
  6
JWW_DASHED1
 62
   120
370
     5
100
AcDbLine
 10
155.6911021688467
 20
-139.4177162795839
 30
0.0
 11
745.6911021688472
 21
450.5822837204175
 31
0.0
  0
LINE
  5
1C4
330
1F
100
AcDbEntity
  8
0-0
  6
JWW_DASHED1
 62
   120
370
     5
100
AcDbLine
 10
155.691102168857
 20
-132.346648467707
 30
0.0
 11
745.6911021688421
 21
457.6533515322786
 31
0.0
  0
LINE
  5
1C5
330
1F
100
AcDbEntity
  8
0-0
  6
JWW_DASHED1
 62
   120
370
     5
100
AcDbLine
 10
155.6911021688655
 20
-125.2755806558305
 30
0.0
 11
745.6911021688524
 21
464.7244193441551
 31
0.0
  0
LINE
  5
1C6
330
1F
100
AcDbEntity
  8
0-0
  6
JWW_DASHED1
 62
   120
370
     5
100
AcDbLine
 10
155.691102168845
 20
-118.2045128439856
 30
0.0
 11
745.6911021688472
 21
471.7954871560158
 31
0.0
  0
LINE
  5
1C7
330
1F
100
AcDbEntity
  8
0-0
  6
JWW_DASHED1
 62
   120
370
     5
100
AcDbLine
 10
155.6911021688553
 20
-111.1334450321091
 30
0.0
 11
745.6911021688404
 21
478.8665549678765
 31
0.0
  0
LINE
  5
1C8
330
1F
100
AcDbEntity
  8
0-0
  6
JWW_DASHED1
 62
   120
370
     5
100
AcDbLine
 10
155.6911021688655
 20
-104.0623772202326
 30
0.0
 11
745.6911021688506
 21
485.9376227797534
 31
0.0
  0
LINE
  5
1C9
330
1F
100
AcDbEntity
  8
0-0
  6
JWW_DASHED1
 62
   120
370
     5
100
AcDbLine
 10
155.6911021688604
 20
-96.99130940839666
 30
0.0
 11
745.6911021688558
 21
493.0086905915983
 31
0.0
  0
LINE
  5
1CA
330
1F
100
AcDbEntity
  8
0-0
  6
JWW_DASHED1
 62
   120
370
     5
100
AcDbLine
 10
155.6911021688484
 20
-89.92024159657007
 30
0.0
 11
745.6911021688506
 21
500.0797584034318
 31
0.0
  0
LINE
  5
1CB
330
1F
100
AcDbEntity
  8
0-0
  6
JWW_DASHED1
 62
   120
370
     5
100
AcDbLine
 10
155.6911021688587
 20
-82.84917378469316
 30
0.0
 11
745.6911021688438
 21
507.1508262152925
 31
0.0
  0
LINE
  5
1CC
330
1F
100
AcDbEntity
  8
0-0
  6
JWW_DASHED1
 62
   120
370
     5
100
AcDbLine
 10
155.691102168857
 20
-75.7781059728282
 30
0.0
 11
745.6911021688524
 21
514.2218940271673
 31
0.0
  0
LINE
  5
1CD
330
1F
100
AcDbEntity
  8
0-0
  6
JWW_DASHED1
 62
   120
370
     5
100
AcDbLine
 10
155.6911021688467
 20
-68.70703816097176
 30
0.0
 11
745.6911021688472
 21
521.2929618390297
 31
0.0
  0
LINE
  5
1CE
330
1F
100
AcDbEntity
  8
0-0
  6
JWW_DASHED1
 62
   120
370
     5
100
AcDbLine
 10
155.691102168857
 20
-61.63597034909486
 30
0.0
 11
745.6911021688421
 21
528.3640296508908
 31
0.0
  0
LINE
  5
1CF
330
1F
100
AcDbEntity
  8
0-0
  6
JWW_DASHED1
 62
   120
370
     5
100
AcDbLine
 10
155.6911021688655
 20
-54.56490253721839
 30
0.0
 11
745.6911021688524
 21
535.4350974627673
 31
0.0
  0
LINE
  5
1D0
330
1F
100
AcDbEntity
  8
0-0
  6
JWW_DASHED1
 62
   120
370
     5
100
AcDbLine
 10
155.691102168845
 20
-47.49383472537346
 30
0.0
 11
745.6911021688472
 21
542.506165274628
 31
0.0
  0
LINE
  5
1D1
330
1F
100
AcDbEntity
  8
0-0
  6
JWW_DASHED1
 62
   120
370
     5
100
AcDbLine
 10
155.6911021688553
 20
-40.42276691349699
 30
0.0
 11
745.6911021688404
 21
549.5772330864886
 31
0.0
  0
LINE
  5
1D2
330
1F
100
AcDbEntity
  8
0-0
  6
JWW_DASHED1
 62
   120
370
     5
100
AcDbLine
 10
155.6911021688655
 20
-33.35169910162051
 30
0.0
 11
745.6911021688506
 21
556.6483008983655
 31
0.0
  0
LINE
  5
1D3
330
1F
100
AcDbEntity
  8
0-0
  6
JWW_DASHED1
 62
   120
370
     5
100
AcDbLine
 10
155.6911021688484
 20
-26.28063128977004
 30
0.0
 11
745.6911021688592
 21
563.7193687102408
 31
0.0
  0
LINE
  5
1D4
330
1F
100
AcDbEntity
  8
0-0
  6
JWW_DASHED1
 62
   120
370
     5
100
AcDbLine
 10
155.6911021688518
 20
-19.20956347789868
 30
0.0
 11
745.6911021688387
 21
570.790436522087
 31
0.0
  0
LINE
  5
1D5
330
1F
100
AcDbEntity
  8
0-0
  6
JWW_DASHED1
 62
   120
370
     5
100
AcDbLine
 10
155.6911021688621
 20
-12.13849566602221
 30
0.0
 11
745.6911021688489
 21
577.8615043339635
 31
0.0
  0
LINE
  5
1D6
330
1F
100
AcDbEntity
  8
0-0
  6
JWW_DASHED1
 62
   120
370
     5
100
AcDbLine
 10
155.6911021688621
 20
-5.06742785415554
 30
0.0
 11
745.6911021688575
 21
584.9325721458395
 31
0.0
  0
LINE
  5
1D7
330
1F
100
AcDbEntity
  8
0-0
  6
JWW_DASHED1
 62
   120
370
     5
100
AcDbLine
 10
155.6911021688518
 20
2.003639957699193
 30
0.0
 11
745.691102168837
 21
592.0036399576852
 31
0.0
  0
LINE
  5
1D8
330
1F
100
AcDbEntity
  8
0-0
  6
JWW_DASHED1
 62
   120
370
     5
100
AcDbLine
 10
155.6911021688621
 20
9.074707769576094
 30
0.0
 11
745.6911021688472
 21
599.0747077695618
 31
0.0
  0
LINE
  5
1D9
330
1F
100
AcDbEntity
  8
0-0
  6
JWW_DASHED1
 62
   120
370
     5
100
AcDbLine
 10
155.6911021688621
 20
16.14577558144276
 30
0.0
 11
745.6911021688558
 21
606.1457755814378
 31
0.0
  0
LINE
  5
1DA
330
1F
100
AcDbEntity
  8
0-0
  6
JWW_DASHED1
 62
   120
370
     5
100
AcDbLine
 10
155.6911021688484
 20
23.21684339329749
 30
0.0
 11
745.6911021688353
 21
613.2168433932832
 31
0.0
  0
LINE
  5
1DB
330
1F
100
AcDbEntity
  8
0-0
  6
JWW_DASHED1
 62
   120
370
     5
100
AcDbLine
 10
155.6911021688587
 20
30.2879112051744
 30
0.0
 11
745.6911021688438
 21
620.2879112051601
 31
0.0
  0
LINE
  5
1DC
330
1F
100
AcDbEntity
  8
0-0
  6
JWW_DASHED1
 62
   120
370
     5
100
AcDbLine
 10
155.6911021688587
 20
37.35897901704107
 30
0.0
 11
745.6911021688541
 21
627.3589790170365
 31
0.0
  0
LINE
  5
1DD
330
1F
100
AcDbEntity
  8
0-0
  6
JWW_DASHED1
 62
   120
370
     5
100
AcDbLine
 10
155.6911021688484
 20
44.4300468288958
 30
0.0
 11
740.4279657498944
 21
629.1669104099426
 31
0.0
  0
LINE
  5
1DE
330
1F
100
AcDbEntity
  8
0-0
  6
JWW_DASHED1
 62
   120
370
     5
100
AcDbLine
 10
155.691102168857
 20
51.50111464077185
 30
0.0
 11
733.3568979380328
 21
629.1669104099478
 31
0.0
  0
LINE
  5
1DF
330
1F
100
AcDbEntity
  8
0-0
  6
JWW_DASHED1
 62
   120
370
     5
100
AcDbLine
 10
155.6911021688672
 20
58.57218245264875
 30
0.0
 11
726.2858301261559
 21
629.1669104099379
 31
0.0
  0
LINE
  5
1E0
330
1F
100
AcDbEntity
  8
0-0
  6
JWW_DASHED1
 62
   120
370
     5
100
AcDbLine
 10
155.691102168845
 20
65.6432502644941
 30
0.0
 11
719.2147623142961
 21
629.1669104099444
 31
0.0
  0
LINE
  5
1E1
330
1F
100
AcDbEntity
  8
0-0
  6
JWW_DASHED1
 62
   120
370
     5
100
AcDbLine
 10
155.6911021688553
 20
72.71431807637015
 30
0.0
 11
712.1436945024345
 21
629.1669104099494
 31
0.0
  0
LINE
  5
1E2
330
1F
100
AcDbEntity
  8
0-0
  6
JWW_DASHED1
 62
   120
370
     5
100
AcDbLine
 10
155.6911021688655
 20
79.78538588824705
 30
0.0
 11
705.0726266905576
 21
629.1669104099392
 31
0.0
  0
LINE
  5
1E3
330
1F
100
AcDbEntity
  8
0-0
  6
JWW_DASHED1
 62
   120
370
     5
100
AcDbLine
 10
155.6911021688433
 20
86.85645370009155
 30
0.0
 11
698.0015588786978
 21
629.166910409946
 31
0.0
  0
LINE
  5
1E4
330
1F
100
AcDbEntity
  8
0-0
  6
JWW_DASHED1
 62
   120
370
     5
100
AcDbLine
 10
155.6911021688535
 20
93.92752151196845
 30
0.0
 11
690.9304910668345
 21
629.1669104099508
 31
0.0
  0
LINE
  5
1E5
330
1F
100
AcDbEntity
  8
0-0
  6
JWW_DASHED1
 62
   120
370
     5
100
AcDbLine
 10
155.6911021688621
 20
100.9985893238449
 30
0.0
 11
683.8594232549576
 21
629.1669104099401
 31
0.0
  0
LINE
  5
1E6
330
1F
100
AcDbEntity
  8
0-0
  6
JWW_DASHED1
 62
   120
370
     5
100
AcDbLine
 10
155.6911021688484
 20
108.0696571356975
 30
0.0
 11
676.7883554430841
 21
629.1669104099324
 31
0.0
  0
LINE
  5
1E7
330
1F
100
AcDbEntity
  8
0-0
  6
JWW_DASHED1
 62
   120
370
     5
100
AcDbLine
 10
155.6911021688518
 20
115.1407249475668
 30
0.0
 11
669.7172876312379
 21
629.166910409952
 31
0.0
  0
LINE
  5
1E8
330
1F
100
AcDbEntity
  8
0-0
  6
JWW_DASHED1
 62
   120
370
     5
100
AcDbLine
 10
155.6911021688621
 20
122.2117927594437
 30
0.0
 11
662.646219819361
 21
629.1669104099418
 31
0.0
  0
LINE
  5
1E9
330
1F
100
AcDbEntity
  8
0-0
  6
JWW_DASHED1
 62
   120
370
     5
100
AcDbLine
 10
155.6911021688638
 20
129.282860571312
 30
0.0
 11
655.5751520074841
 21
629.1669104099316
 31
0.0
  0
LINE
  5
1EA
330
1F
100
AcDbEntity
  8
0-0
  6
JWW_DASHED1
 62
   120
370
     5
100
AcDbLine
 10
155.6911021688501
 20
136.3539283831651
 30
0.0
 11
648.5040841956379
 21
629.1669104099528
 31
0.0
  0
LINE
  5
1EB
330
1F
100
AcDbEntity
  8
0-0
  6
JWW_DASHED1
 62
   120
370
     5
100
AcDbLine
 10
155.6911021688587
 20
143.4249961950411
 30
0.0
 11
641.433016383761
 21
629.1669104099426
 31
0.0
  0
LINE
  5
1EC
330
1F
100
AcDbEntity
  8
0-0
  6
JWW_DASHED1
 62
   120
370
     5
100
AcDbLine
 10
155.6911021688587
 20
150.4960640068805
 30
0.0
 11
634.3619485719148
 21
629.166910409935
 31
0.0
  0
LINE
  5
1ED
330
1F
100
AcDbEntity
  8
0-0
  6
JWW_DASHED1
 62
   120
370
     5
100
AcDbLine
 10
155.6911021688433
 20
157.5671318187037
 30
0.0
 11
627.2908807600857
 21
629.166910409946
 31
0.0
  0
LINE
  5
1EE
330
1F
100
AcDbEntity
  8
0-0
  6
JWW_DASHED1
 62
   120
370
     5
100
AcDbLine
 10
155.6911021688535
 20
164.6381996305806
 30
0.0
 11
620.2198129482224
 21
629.1669104099486
 31
0.0
  0
LINE
  5
1EF
330
1F
100
AcDbEntity
  8
0-0
  6
JWW_DASHED1
 62
   120
370
     5
100
AcDbLine
 10
155.6911021688621
 20
171.709267442457
 30
0.0
 11
613.1487451363455
 21
629.1669104099384
 31
0.0
  0
LINE
  5
1F0
330
1F
100
AcDbEntity
  8
0-0
  6
JWW_DASHED1
 62
   120
370
     5
100
AcDbLine
 10
155.6911021688501
 20
178.7803352543105
 30
0.0
 11
606.077677324472
 21
629.1669104099324
 31
0.0
  0
LINE
  5
1F1
330
1F
100
AcDbEntity
  8
0-0
  6
JWW_DASHED1
 62
   120
370
     5
100
AcDbLine
 10
155.6911021688518
 20
185.8514030661789
 30
0.0
 11
599.0066095126224
 21
629.1669104099503
 31
0.0
  0
LINE
  5
1F2
330
1F
100
AcDbEntity
  8
0-0
  6
JWW_DASHED1
 62
   120
370
     5
100
AcDbLine
 10
155.6911021688621
 20
192.9224708780553
 30
0.0
 11
591.9355417007455
 21
629.1669104099401
 31
0.0
  0
LINE
  5
1F3
330
1F
100
AcDbEntity
  8
0-0
  6
JWW_DASHED1
 62
   120
370
     5
100
AcDbLine
 10
155.6911021688638
 20
199.993538689925
 30
0.0
 11
584.8644738888686
 21
629.1669104099299
 31
0.0
  0
LINE
  5
1F4
330
1F
100
AcDbEntity
  8
0-0
  6
JWW_DASHED1
 62
   120
370
     5
100
AcDbLine
 10
155.6911021688484
 20
207.0646065017768
 30
0.0
 11
577.7934060770241
 21
629.1669104099516
 31
0.0
  0
LINE
  5
1F5
330
1F
100
AcDbEntity
  8
0-0
  6
JWW_DASHED1
 62
   120
370
     5
100
AcDbLine
 10
155.6911021688587
 20
214.1356743136532
 30
0.0
 11
570.7223382651472
 21
629.166910409941
 31
0.0
  0
LINE
  5
1F6
330
1F
100
AcDbEntity
  8
0-0
  6
JWW_DASHED1
 62
   120
370
     5
100
AcDbLine
 10
155.6911021688621
 20
221.2067421255233
 30
0.0
 11
563.6512704532703
 21
629.1669104099308
 31
0.0
  0
LINE
  5
1F7
330
1F
100
AcDbEntity
  8
0-0
  6
JWW_DASHED1
 62
   120
370
     5
100
AcDbLine
 10
155.6911021688484
 20
228.2778099373751
 30
0.0
 11
556.5802026414156
 21
629.1669104099418
 31
0.0
  0
LINE
  5
1F8
330
1F
100
AcDbEntity
  8
0-0
  6
JWW_DASHED1
 62
   120
370
     5
100
AcDbLine
 10
155.6911021688587
 20
235.3488777492515
 30
0.0
 11
549.5091348295489
 21
629.1669104099426
 31
0.0
  0
LINE
  5
1F9
330
1F
100
AcDbEntity
  8
0-0
  6
JWW_DASHED1
 62
   120
370
     5
100
AcDbLine
 10
155.6911021688621
 20
242.419945561122
 30
0.0
 11
542.438067017672
 21
629.1669104099324
 31
0.0
  0
LINE
  5
1FA
330
1F
100
AcDbEntity
  8
0-0
  6
JWW_DASHED1
 62
   120
370
     5
100
AcDbLine
 10
155.691102168845
 20
249.4910133729734
 30
0.0
 11
535.3669992058155
 21
629.166910409944
 31
0.0
  0
LINE
  5
1FB
330
1F
100
AcDbEntity
  8
0-0
  6
JWW_DASHED1
 62
   120
370
     5
100
AcDbLine
 10
155.6911021688553
 20
256.5620811848498
 30
0.0
 11
528.2959313939489
 21
629.166910409944
 31
0.0
  0
LINE
  5
1FC
330
1F
100
AcDbEntity
  8
0-0
  6
JWW_DASHED1
 62
   120
370
     5
100
AcDbLine
 10
155.6911021688655
 20
263.6331489967263
 30
0.0
 11
521.224863582072
 21
629.1669104099333
 31
0.0
  0
LINE
  5
1FD
330
1F
100
AcDbEntity
  8
0-0
  6
JWW_DASHED1
 62
   120
370
     5
100
AcDbLine
 10
155.691102168845
 20
270.7042168085712
 30
0.0
 11
514.153795770219
 21
629.1669104099452
 31
0.0
  0
LINE
  5
1FE
330
1F
100
AcDbEntity
  8
0-0
  6
JWW_DASHED1
 62
   120
370
     5
100
AcDbLine
 10
155.6911021688535
 20
277.7752846204477
 30
0.0
 11
507.0827279583523
 21
629.1669104099452
 31
0.0
  0
LINE
  5
1FF
330
1F
100
AcDbEntity
  8
0-0
  6
JWW_DASHED1
 62
   120
370
     5
100
AcDbLine
 10
155.6911021688638
 20
284.8463524323246
 30
0.0
 11
500.0116601464754
 21
629.166910409935
 31
0.0
  0
LINE
  5
200
330
1F
100
AcDbEntity
  8
0-0
  6
JWW_DASHED1
 62
   120
370
     5
100
AcDbLine
 10
155.6911021688518
 20
291.9174202441798
 30
0.0
 11
492.9405923346053
 21
629.166910409932
 31
0.0
  0
LINE
  5
201
330
1F
100
AcDbEntity
  8
0-0
  6
JWW_DASHED1
 62
   120
370
     5
100
AcDbLine
 10
155.6911021688518
 20
298.988488056046
 30
0.0
 11
485.8695245227523
 21
629.1669104099465
 31
0.0
  0
LINE
  5
202
330
1F
100
AcDbEntity
  8
0-0
  6
JWW_DASHED1
 62
   120
370
     5
100
AcDbLine
 10
155.6911021688621
 20
306.0595558679225
 30
0.0
 11
478.7984567108754
 21
629.1669104099367
 31
0.0
  0
LINE
  5
203
330
1F
100
AcDbEntity
  8
0-0
  6
JWW_DASHED1
 62
   120
370
     5
100
AcDbLine
 10
155.6911021688655
 20
313.1306236797939
 30
0.0
 11
471.7273888989985
 21
629.1669104099265
 31
0.0
  0
LINE
  5
204
330
1F
100
AcDbEntity
  8
0-0
  6
JWW_DASHED1
 62
   120
370
     5
100
AcDbLine
 10
155.6911021688501
 20
320.2016914916443
 30
0.0
 11
464.656321087154
 21
629.1669104099478
 31
0.0
  0
LINE
  5
205
330
1F
100
AcDbEntity
  8
0-0
  6
JWW_DASHED1
 62
   120
370
     5
100
AcDbLine
 10
155.6911021688604
 20
327.2727593035208
 30
0.0
 11
457.5852532752771
 21
629.1669104099379
 31
0.0
  0
LINE
  5
206
330
1F
100
AcDbEntity
  8
0-0
  6
JWW_DASHED1
 62
   120
370
     5
100
AcDbLine
 10
155.6911021688655
 20
334.3438271153926
 30
0.0
 11
450.5141854634002
 21
629.1669104099277
 31
0.0
  0
LINE
  5
207
330
1F
100
AcDbEntity
  8
0-0
  6
JWW_DASHED1
 62
   120
370
     5
100
AcDbLine
 10
155.6911021688484
 20
341.4148949272422
 30
0.0
 11
443.4431176515557
 21
629.1669104099491
 31
0.0
  0
LINE
  5
208
330
1F
100
AcDbEntity
  8
0-0
  6
JWW_DASHED1
 62
   120
370
     5
100
AcDbLine
 10
155.6911021688587
 20
348.4859627391187
 30
0.0
 11
436.3720498396788
 21
629.1669104099392
 31
0.0
  0
LINE
  5
209
330
1F
100
AcDbEntity
  8
0-0
  6
JWW_DASHED1
 62
   120
370
     5
100
AcDbLine
 10
155.6911021688638
 20
355.5570305509909
 30
0.0
 11
429.3009820278019
 21
629.166910409929
 31
0.0
  0
LINE
  5
20A
330
1F
100
AcDbEntity
  8
0-0
  6
JWW_DASHED1
 62
   120
370
     5
100
AcDbLine
 10
155.6911021688467
 20
362.6280983628405
 30
0.0
 11
422.2299142159489
 21
629.1669104099435
 31
0.0
  0
LINE
  5
20B
330
1F
100
AcDbEntity
  8
0-0
  6
JWW_DASHED1
 62
   120
370
     5
100
AcDbLine
 10
155.691102168857
 20
369.699166174717
 30
0.0
 11
415.1588464040788
 21
629.1669104099401
 31
0.0
  0
LINE
  5
20C
330
1F
100
AcDbEntity
  8
0-0
  6
JWW_DASHED1
 62
   120
370
     5
100
AcDbLine
 10
155.6911021688621
 20
376.7702339865896
 30
0.0
 11
408.0877785922019
 21
629.1669104099303
 31
0.0
  0
LINE
  5
20D
330
1F
100
AcDbEntity
  8
0-0
  6
JWW_DASHED1
 62
   120
370
     5
100
AcDbLine
 10
155.6911021688587
 20
383.8413017984248
 30
0.0
 11
401.0167107803728
 21
629.1669104099384
 31
0.0
  0
LINE
  5
20E
330
1F
100
AcDbEntity
  8
0-0
  6
JWW_DASHED1
 62
   120
370
     5
100
AcDbLine
 10
155.6911021688501
 20
390.9123696102564
 30
0.0
 11
393.9456429685402
 21
629.166910409946
 31
0.0
  0
LINE
  5
20F
330
1F
100
AcDbEntity
  8
0-0
  6
JWW_DASHED1
 62
   120
370
     5
100
AcDbLine
 10
155.6911021688604
 20
397.9834374221329
 30
0.0
 11
386.8745751566633
 21
629.1669104099358
 31
0.0
  0
LINE
  5
210
330
1F
100
AcDbEntity
  8
0-0
  6
JWW_DASHED1
 62
   120
370
     5
100
AcDbLine
 10
155.6911021688655
 20
405.054505234006
 30
0.0
 11
379.8035073447864
 21
629.166910409926
 31
0.0
  0
LINE
  5
211
330
1F
100
AcDbEntity
  8
0-0
  6
JWW_DASHED1
 62
   120
370
     5
100
AcDbLine
 10
155.6911021688484
 20
412.1255730458543
 30
0.0
 11
372.7324395329402
 21
629.1669104099474
 31
0.0
  0
LINE
  5
212
330
1F
100
AcDbEntity
  8
0-0
  6
JWW_DASHED1
 62
   120
370
     5
100
AcDbLine
 10
155.6911021688587
 20
419.1966408577308
 30
0.0
 11
365.6613717210633
 21
629.1669104099371
 31
0.0
  0
LINE
  5
213
330
1F
100
AcDbEntity
  8
0-0
  6
JWW_DASHED1
 62
   120
370
     5
100
AcDbLine
 10
155.6911021688655
 20
426.2677086696047
 30
0.0
 11
358.5903039091881
 21
629.1669104099274
 31
0.0
  0
LINE
  5
214
330
1F
100
AcDbEntity
  8
0-0
  6
JWW_DASHED1
 62
   120
370
     5
100
AcDbLine
 10
155.6911021688467
 20
433.3387764814526
 30
0.0
 11
351.5192360973368
 21
629.1669104099435
 31
0.0
  0
LINE
  5
215
330
1F
100
AcDbEntity
  8
0-0
  6
JWW_DASHED1
 62
   120
370
     5
100
AcDbLine
 10
155.691102168857
 20
440.4098442933295
 30
0.0
 11
344.4481682854667
 21
629.1669104099384
 31
0.0
  0
LINE
  5
216
330
1F
100
AcDbEntity
  8
0-0
  6
JWW_DASHED1
 62
   120
370
     5
100
AcDbLine
 10
155.6911021688638
 20
447.4809121052026
 30
0.0
 11
337.3771004735898
 21
629.1669104099286
 31
0.0
  0
LINE
  5
217
330
1F
100
AcDbEntity
  8
0-0
  6
JWW_DASHED1
 62
   120
370
     5
100
AcDbLine
 10
155.691102168845
 20
454.5519799170505
 30
0.0
 11
330.3060326617402
 21
629.1669104099452
 31
0.0
  0
LINE
  5
218
330
1F
100
AcDbEntity
  8
0-0
  6
JWW_DASHED1
 62
   120
370
     5
100
AcDbLine
 10
155.6911021688553
 20
461.623047728927
 30
0.0
 11
323.2349648498667
 21
629.1669104099401
 31
0.0
  0
LINE
  5
219
330
1F
100
AcDbEntity
  8
0-0
  6
JWW_DASHED1
 62
   120
370
     5
100
AcDbLine
 10
155.6911021688655
 20
468.6941155408039
 30
0.0
 11
316.1638970379898
 21
629.1669104099299
 31
0.0
  0
LINE
  5
21A
330
1F
100
AcDbEntity
  8
0-0
  6
JWW_DASHED1
 62
   120
370
     5
100
AcDbLine
 10
155.6911021688433
 20
475.7651833526492
 30
0.0
 11
309.0928292261402
 21
629.1669104099474
 31
0.0
  0
LINE
  5
21B
330
1F
100
AcDbEntity
  8
0-0
  6
JWW_DASHED1
 62
   120
370
     5
100
AcDbLine
 10
155.6911021688518
 20
482.8362511645253
 30
0.0
 11
302.0217614142684
 21
629.166910409941
 31
0.0
  0
LINE
  5
21C
330
1F
100
AcDbEntity
  8
0-0
  6
JWW_DASHED1
 62
   120
370
     5
100
AcDbLine
 10
155.6911021688621
 20
489.9073189764017
 30
0.0
 11
294.9506936023915
 21
629.1669104099311
 31
0.0
  0
LINE
  5
21D
330
1F
100
AcDbEntity
  8
0-0
  6
JWW_DASHED1
 62
   120
370
     5
100
AcDbLine
 10
155.6911021688553
 20
496.9783867882608
 30
0.0
 11
287.8796257905265
 21
629.1669104099333
 31
0.0
  0
LINE
  5
21E
330
1F
100
AcDbEntity
  8
0-0
  6
JWW_DASHED1
 62
   120
370
     5
100
AcDbLine
 10
155.6911021688518
 20
504.0494546001236
 30
0.0
 11
280.8085579786701
 21
629.1669104099426
 31
0.0
  0
LINE
  5
21F
330
1F
100
AcDbEntity
  8
0-0
  6
JWW_DASHED1
 62
   120
370
     5
100
AcDbLine
 10
155.6911021688604
 20
511.120522412
 30
0.0
 11
273.7374901667932
 21
629.1669104099324
 31
0.0
  0
LINE
  5
220
330
1F
100
AcDbEntity
  8
0-0
  6
JWW_DASHED1
 62
   120
370
     5
100
AcDbLine
 10
155.6911021688689
 20
518.1915902238748
 30
0.0
 11
266.6664223549163
 21
629.1669104099221
 31
0.0
  0
LINE
  5
221
330
1F
100
AcDbEntity
  8
0-0
  6
JWW_DASHED1
 62
   120
370
     5
100
AcDbLine
 10
155.6911021688484
 20
525.2626580357214
 30
0.0
 11
259.5953545430701
 21
629.1669104099435
 31
0.0
  0
LINE
  5
222
330
1F
100
AcDbEntity
  8
0-0
  6
JWW_DASHED1
 62
   120
370
     5
100
AcDbLine
 10
155.6911021688587
 20
532.3337258475983
 30
0.0
 11
252.5242867311932
 21
629.1669104099333
 31
0.0
  0
LINE
  5
223
330
1F
100
AcDbEntity
  8
0-0
  6
JWW_DASHED1
 62
   120
370
     5
100
AcDbLine
 10
155.6911021688672
 20
539.4047936594735
 30
0.0
 11
245.4532189193163
 21
629.1669104099235
 31
0.0
  0
LINE
  5
224
330
1F
100
AcDbEntity
  8
0-0
  6
JWW_DASHED1
 62
   120
370
     5
100
AcDbLine
 10
155.6911021688467
 20
546.4758614713197
 30
0.0
 11
238.3821511074701
 21
629.1669104099431
 31
0.0
  0
LINE
  5
225
330
1F
100
AcDbEntity
  8
0-0
  6
JWW_DASHED1
 62
   120
370
     5
100
AcDbLine
 10
155.691102168857
 20
553.5469292831963
 30
0.0
 11
231.3110832955966
 21
629.166910409935
 31
0.0
  0
LINE
  5
226
330
1F
100
AcDbEntity
  8
0-0
  6
JWW_DASHED1
 62
   120
370
     5
100
AcDbLine
 10
155.6911021688655
 20
560.6179970950718
 30
0.0
 11
224.2400154837197
 21
629.1669104099248
 31
0.0
  0
LINE
  5
227
330
1F
100
AcDbEntity
  8
0-0
  6
JWW_DASHED1
 62
   120
370
     5
100
AcDbLine
 10
155.691102168845
 20
567.689064906918
 30
0.0
 11
217.1689476718718
 21
629.1669104099444
 31
0.0
  0
LINE
  5
228
330
1F
100
AcDbEntity
  8
0-0
  6
JWW_DASHED1
 62
   120
370
     5
100
AcDbLine
 10
155.6911021688553
 20
574.7601327187945
 30
0.0
 11
210.0978798599966
 21
629.1669104099362
 31
0.0
  0
LINE
  5
229
330
1F
100
AcDbEntity
  8
0-0
  6
JWW_DASHED1
 62
   120
370
     5
100
AcDbLine
 10
155.6911021688655
 20
581.831200530671
 30
0.0
 11
203.0268120481197
 21
629.1669104099255
 31
0.0
  0
LINE
  5
22A
330
1F
100
AcDbEntity
  8
0-0
  6
JWW_DASHED1
 62
   120
370
     5
100
AcDbLine
 10
155.6911021688433
 20
588.902268342516
 30
0.0
 11
195.9557442362735
 21
629.1669104099465
 31
0.0
  0
LINE
  5
22B
330
1F
100
AcDbEntity
  8
0-0
  6
JWW_DASHED1
 62
   120
370
     5
100
AcDbLine
 10
155.6911021688535
 20
595.9733361543929
 30
0.0
 11
188.8846764243983
 21
629.1669104099376
 31
0.0
  0
LINE
  5
22C
330
1F
100
AcDbEntity
  8
0-0
  6
JWW_DASHED1
 62
   120
370
     5
100
AcDbLine
 10
155.6911021688621
 20
603.0444039662693
 30
0.0
 11
181.8136086125214
 21
629.1669104099277
 31
0.0
  0
LINE
  5
22D
330
1F
100
AcDbEntity
  8
0-0
  6
JWW_DASHED1
 62
   120
370
     5
100
AcDbLine
 10
155.691102168857
 20
610.1154717781296
 30
0.0
 11
174.7425408006598
 21
629.1669104099324
 31
0.0
  0
LINE
  5
22E
330
1F
100
AcDbEntity
  8
0-0
  6
JWW_DASHED1
 62
   120
370
     5
100
AcDbLine
 10
155.6911021688518
 20
617.1865395899907
 30
0.0
 11
167.6714729888
 21
629.1669104099384
 31
0.0
  0
LINE
  5
22F
330
1F
100
AcDbEntity
  8
0-0
  6
JWW_DASHED1
 62
   120
370
     5
100
AcDbLine
 10
155.6911021688621
 20
624.2576074018672
 30
0.0
 11
160.6004051769231
 21
629.166910409929
 31
0.0
  0
LINE
  5
230
330
1F
100
AcDbEntity
  8
0-0
  6
JWW_DASHED1
 62
   120
370
     5
100
AcDbLine
 10
479.6058147482643
 20
-345.8330895900569
 30
0.0
 11
745.6911021688438
 21
-79.7478021694765
 31
0.0
  0
LINE
  5
231
330
1F
100
AcDbEntity
  8
0-0
  6
Continuous
 62
    92
370
    13
100
AcDbLine
 10
155.6911021688553
 20
-475.8330895900666
 30
0.0
 11
745.6911021688575
 21
-475.8330895900666
 31
0.0
  0
LINE
  5
232
330
1F
100
AcDbEntity
  8
0-0
  6
Continuous
 62
    92
370
    13
100
AcDbLine
 10
-64.30889783114247
 20
-1418.833089590066
 30
0.0
 11
-64.30889783114247
 21
764.1669104099337
 31
0.0
  0
LINE
  5
233
330
1F
100
AcDbEntity
  8
0-0
  6
Continuous
 62
    92
370
    13
100
AcDbLine
 10
-654.3088978311448
 20
-1418.833089590066
 30
0.0
 11
-654.3088978311448
 21
764.1669104099337
 31
0.0
  0
LINE
  5
234
330
1F
100
AcDbEntity
  8
0-0
  6
Continuous
 62
    92
370
    13
100
AcDbLine
 10
745.6911021688575
 20
-1418.833089590066
 30
0.0
 11
745.6911021688575
 21
764.1669104099337
 31
0.0
  0
LINE
  5
235
330
1F
100
AcDbEntity
  8
0-0
  6
Continuous
 62
    92
370
    13
100
AcDbLine
 10
155.6911021688553
 20
-1418.833089590066
 30
0.0
 11
155.6911021688553
 21
764.1669104099337
 31
0.0
  0
MTEXT
  5
236
330
1F
100
AcDbEntity
  8
文字
  6
Continuous
 62
     7
370
     9
100
AcDbMText
 10
-2121.308897831144
 20
1109.150060375316
 30
0.0
 40
45.71999999999997
 41
1620.0
 46
0.0
 71
     7
 72
     1
  1
{\fＭＳ ゴシック|b0|i0|c128|p49;※ＣＨは縦木目柄、ＣＹは横木目柄のデザインとなります。}
 73
     1
 44
1.0
  0
LINE
  5
237
330
1F
100
AcDbEntity
  8
寸法
  6
Continuous
 62
   120
370
     5
100
AcDbLine
 10
-2021.308897831143
 20
-1438.833089590066
 30
0.0
 11
-1621.308897831143
 21
-1438.833089590066
 31
0.0
  0
LINE
  5
238
330
1F
100
AcDbEntity
  8
寸法
  6
Continuous
 62
   120
370
     5
100
AcDbLine
 10
-1821.308897831143
 20
-1418.833089590065
 30
0.0
 11
-1621.308897831143
 21
-1418.833089590065
 31
0.0
  0
LWPOLYLINE
  5
239
330
1F
100
AcDbEntity
  8
寸法
  6
Continuous
 62
     7
370
     9
100
AcDbPolyline
 90
        4
 70
     1
 43
3.0
 10
-2019.808897831143
 20
-1438.833089590066
 42
0.4142135623731
 10
-2021.308897831143
 20
-1437.333089590066
 42
0.4142135623731
 10
-2022.808897831143
 20
-1438.833089590066
 42
0.4142135623731
 10
-2021.308897831143
 20
-1440.333089590065
 42
0.4142135623731
  0
LWPOLYLINE
  5
23A
330
1F
100
AcDbEntity
  8
寸法
  6
Continuous
 62
     7
370
     9
100
AcDbPolyline
 90
        4
 70
     1
 43
3.0
 10
-1819.808897831143
 20
-1418.833089590065
 42
0.4142135623731
 10
-1821.308897831143
 20
-1417.333089590065
 42
0.4142135623731
 10
-1822.808897831142
 20
-1418.833089590065
 42
0.4142135623731
 10
-1821.308897831143
 20
-1420.333089590065
 42
0.4142135623731
  0
LINE
  5
23B
330
1F
100
AcDbEntity
  8
寸法
  6
Continuous
 62
   120
370
     5
100
AcDbLine
 10
-1541.308897831143
 20
-1888.833089590066
 30
0.0
 11
-1541.308897831143
 21
-1488.833089590066
 31
0.0
  0
LINE
  5
23C
330
1F
100
AcDbEntity
  8
寸法
  6
Continuous
 62
   120
370
     5
100
AcDbLine
 10
-1571.308897831143
 20
-2088.833089590066
 30
0.0
 11
-1571.308897831143
 21
-1488.833089590066
 31
0.0
  0
LINE
  5
23D
330
1F
100
AcDbEntity
  8
寸法
  6
Continuous
 62
   120
370
     5
100
AcDbLine
 10
45.69110216885723
 20
-1688.833089590065
 30
0.0
 11
45.69110216885723
 21
-1488.833089590066
 31
0.0
  0
LINE
  5
23E
330
1F
100
AcDbEntity
  8
寸法
  6
Continuous
 62
   120
370
     5
100
AcDbLine
 10
-764.3088978311428
 20
-1688.833089590065
 30
0.0
 11
-764.3088978311428
 21
-1488.833089590066
 31
0.0
  0
LINE
  5
23F
330
1F
100
AcDbEntity
  8
寸法
  6
Continuous
 62
   120
370
     5
100
AcDbLine
 10
-764.3088978311428
 20
-1688.833089590065
 30
0.0
 11
855.6911021688572
 21
-1688.833089590065
 31
0.0
  0
LINE
  5
240
330
1F
100
AcDbEntity
  8
寸法
  6
Continuous
 62
   120
370
     5
100
AcDbLine
 10
-1541.308897831143
 20
-1888.833089590066
 30
0.0
 11
1632.691102168857
 21
-1888.833089590066
 31
0.0
  0
LINE
  5
241
330
1F
100
AcDbEntity
  8
寸法
  6
Continuous
 62
   120
370
     5
100
AcDbLine
 10
1632.691102168857
 20
-1888.833089590066
 30
0.0
 11
1632.691102168857
 21
-1488.833089590066
 31
0.0
  0
LINE
  5
242
330
1F
100
AcDbEntity
  8
寸法
  6
Continuous
 62
   120
370
     5
100
AcDbLine
 10
-1571.308897831143
 20
-2088.833089590066
 30
0.0
 11
1662.691102168857
 21
-2088.833089590065
 31
0.0
  0
LINE
  5
243
330
1F
100
AcDbEntity
  8
寸法
  6
Continuous
 62
   120
370
     5
100
AcDbLine
 10
1662.691102168857
 20
-2088.833089590065
 30
0.0
 11
1662.691102168857
 21
-1488.833089590066
 31
0.0
  0
LINE
  5
244
330
1F
100
AcDbEntity
  8
寸法
  6
Continuous
 62
   120
370
     5
100
AcDbLine
 10
855.6911021688572
 20
-1688.833089590065
 30
0.0
 11
855.6911021688572
 21
-1488.833089590066
 31
0.0
  0
LWPOLYLINE
  5
245
330
1F
100
AcDbEntity
  8
寸法
  6
Continuous
 62
     7
370
     9
100
AcDbPolyline
 90
        4
 70
     1
 43
3.0
 10
-1539.808897831143
 20
-1888.833089590066
 42
0.4142135623731
 10
-1541.308897831143
 20
-1887.333089590066
 42
0.4142135623731
 10
-1542.808897831143
 20
-1888.833089590066
 42
0.4142135623731
 10
-1541.308897831143
 20
-1890.333089590065
 42
0.4142135623731
  0
LWPOLYLINE
  5
246
330
1F
100
AcDbEntity
  8
寸法
  6
Continuous
 62
     7
370
     9
100
AcDbPolyline
 90
        4
 70
     1
 43
3.0
 10
-1569.808897831143
 20
-2088.833089590066
 42
0.4142135623731
 10
-1571.308897831143
 20
-2087.333089590066
 42
0.4142135623731
 10
-1572.808897831143
 20
-2088.833089590066
 42
0.4142135623731
 10
-1571.308897831143
 20
-2090.333089590066
 42
0.4142135623731
  0
LWPOLYLINE
  5
247
330
1F
100
AcDbEntity
  8
寸法
  6
Continuous
 62
     7
370
     9
100
AcDbPolyline
 90
        4
 70
     1
 43
3.0
 10
47.19110216885723
 20
-1688.833089590065
 42
0.4142135623731
 10
45.69110216885723
 20
-1687.333089590065
 42
0.4142135623731
 10
44.19110216885723
 20
-1688.833089590065
 42
0.4142135623731
 10
45.69110216885723
 20
-1690.333089590065
 42
0.4142135623731
  0
LWPOLYLINE
  5
248
330
1F
100
AcDbEntity
  8
寸法
  6
Continuous
 62
     7
370
     9
100
AcDbPolyline
 90
        4
 70
     1
 43
3.0
 10
-762.8088978311426
 20
-1688.833089590065
 42
0.4142135623731
 10
-764.3088978311428
 20
-1687.333089590065
 42
0.4142135623731
 10
-765.8088978311428
 20
-1688.833089590065
 42
0.4142135623731
 10
-764.3088978311428
 20
-1690.333089590065
 42
0.4142135623731
  0
LWPOLYLINE
  5
249
330
1F
100
AcDbEntity
  8
寸法
  6
Continuous
 62
     7
370
     9
100
AcDbPolyline
 90
        4
 70
     1
 43
3.0
 10
1634.191102168857
 20
-1888.833089590066
 42
0.4142135623731
 10
1632.691102168857
 20
-1887.333089590066
 42
0.4142135623731
 10
1631.191102168857
 20
-1888.833089590066
 42
0.4142135623731
 10
1632.691102168857
 20
-1890.333089590065
 42
0.4142135623731
  0
LWPOLYLINE
  5
24A
330
1F
100
AcDbEntity
  8
寸法
  6
Continuous
 62
     7
370
     9
100
AcDbPolyline
 90
        4
 70
     1
 43
3.0
 10
1664.191102168857
 20
-2088.833089590065
 42
0.4142135623731
 10
1662.691102168857
 20
-2087.333089590065
 42
0.4142135623731
 10
1661.191102168857
 20
-2088.833089590065
 42
0.4142135623731
 10
1662.691102168857
 20
-2090.333089590065
 42
0.4142135623731
  0
LWPOLYLINE
  5
24B
330
1F
100
AcDbEntity
  8
寸法
  6
Continuous
 62
     7
370
     9
100
AcDbPolyline
 90
        4
 70
     1
 43
3.0
 10
857.1911021688572
 20
-1688.833089590065
 42
0.4142135623731
 10
855.6911021688572
 20
-1687.333089590065
 42
0.4142135623731
 10
854.1911021688571
 20
-1688.833089590065
 42
0.4142135623731
 10
855.6911021688572
 20
-1690.333089590065
 42
0.4142135623731
  0
LWPOLYLINE
  5
24C
330
1F
100
AcDbEntity
  8
寸法
  6
Continuous
 62
     7
370
     9
100
AcDbPolyline
 90
        4
 70
     1
 43
3.0
 10
-2019.808897831143
 20
808.1669104099346
 42
0.4142135623731
 10
-2021.308897831143
 20
809.6669104099346
 42
0.4142135623731
 10
-2022.808897831143
 20
808.1669104099346
 42
0.4142135623731
 10
-2021.308897831143
 20
806.6669104099346
 42
0.4142135623731
  0
LINE
  5
24D
330
1F
100
AcDbEntity
  8
寸法
  6
Continuous
 62
   120
370
     5
100
AcDbLine
 10
-2021.308897831143
 20
808.1669104099346
 30
0.0
 11
-1621.308897831143
 21
808.1669104099346
 31
0.0
  0
LINE
  5
24E
330
1F
100
AcDbEntity
  8
寸法
  6
Continuous
 62
   120
370
     5
100
AcDbLine
 10
-2021.308897831143
 20
808.1669104099346
 30
0.0
 11
-2021.308897831143
 21
-1438.833089590066
 31
0.0
  0
LWPOLYLINE
  5
24F
330
1F
100
AcDbEntity
  8
寸法
  6
Continuous
 62
     7
370
     9
100
AcDbPolyline
 90
        4
 70
     1
 43
3.0
 10
-1819.808897831143
 20
764.1669104099337
 42
0.4142135623731
 10
-1821.308897831143
 20
765.6669104099337
 42
0.4142135623731
 10
-1822.808897831142
 20
764.1669104099337
 42
0.4142135623731
 10
-1821.308897831143
 20
762.6669104099337
 42
0.4142135623731
  0
LINE
  5
250
330
1F
100
AcDbEntity
  8
寸法
  6
Continuous
 62
   120
370
     5
100
AcDbLine
 10
-1821.308897831143
 20
764.1669104099337
 30
0.0
 11
-1821.308897831143
 21
-1418.833089590065
 31
0.0
  0
LINE
  5
251
330
1F
100
AcDbEntity
  8
寸法
  6
Continuous
 62
   120
370
     5
100
AcDbLine
 10
-1821.308897831143
 20
764.1669104099337
 30
0.0
 11
-1621.308897831143
 21
764.1669104099337
 31
0.0
  0
MTEXT
  5
252
330
1F
100
AcDbEntity
  8
寸法
  6
Continuous
 62
     7
370
    70
100
AcDbMText
 10
-2036.308897831143
 20
-539.5080895900653
 30
0.0
 40
57.14999999999999
 41
412.5
 46
0.0
 71
     7
 72
     1
  1
{\fＭＳ ゴシック|b0|i0|c128|p49;枠外＝2,247}
 11
6.123031769111886E-17
 21
1.0
 31
0.0
 73
     1
 44
1.0
  0
MTEXT
  5
253
330
1F
100
AcDbEntity
  8
寸法
  6
Continuous
 62
     7
370
    70
100
AcDbMText
 10
-1836.308897831143
 20
-545.508089590065
 30
0.0
 40
57.14999999999999
 41
412.5
 46
0.0
 71
     7
 72
     1
  1
{\fＭＳ ゴシック|b0|i0|c128|p49;ＤＨ＝2,183}
 11
6.123031769111886E-17
 21
1.0
 31
0.0
 73
     1
 44
1.0
  0
MTEXT
  5
254
330
1F
100
AcDbEntity
  8
寸法
  6
Continuous
 62
     7
370
   211
100
AcDbMText
 10
-528.0588978311428
 20
-1682.758089590065
 30
0.0
 40
57.15000000000001
 41
337.5000000000001
 46
0.0
 71
     7
 72
     1
  1
{\fＭＳ ゴシック|b0|i0|c128|p49;ＤＷ＝810}
 73
     1
 44
1.0
  0
MTEXT
  5
255
330
1F
100
AcDbEntity
  8
寸法
  6
Continuous
 62
     7
370
   211
100
AcDbMText
 10
281.9411021688572
 20
-1682.758089590065
 30
0.0
 40
57.14999999999998
 41
337.4999999999999
 46
0.0
 71
     7
 72
     1
  1
{\fＭＳ ゴシック|b0|i0|c128|p49;ＤＷ＝810}
 73
     1
 44
1.0
  0
MTEXT
  5
256
330
1F
100
AcDbEntity
  8
寸法
  6
Continuous
 62
     7
370
   211
100
AcDbMText
 10
-160.5588978311436
 20
-1882.758089590066
 30
0.0
 40
57.14999999999999
 41
412.5
 46
0.0
 71
     7
 72
     1
  1
{\fＭＳ ゴシック|b0|i0|c128|p49;枠内＝3,174}
 73
     1
 44
1.0
  0
MTEXT
  5
257
330
1F
100
AcDbEntity
  8
寸法
  6
Continuous
 62
     7
370
   211
100
AcDbMText
 10
-160.5588978311436
 20
-2082.758089590066
 30
0.0
 40
57.14999999999999
 41
412.5
 46
0.0
 71
     7
 72
     1
  1
{\fＭＳ ゴシック|b0|i0|c128|p49;枠外＝3,234}
 73
     1
 44
1.0
  0
ENDSEC
  0
SECTION
  2
OBJECTS
  0
DICTIONARY
  5
C
330
0
100
AcDbDictionary
281
     1
  3
ACAD_GROUP
350
D
  3
ACAD_LAYOUT
350
1A
  3
ACAD_MATERIAL
350
3B
  3
ACAD_MLEADERSTYLE
350
259
  3
ACAD_MLINESTYLE
350
17
  3
ACAD_PLOTSETTINGS
350
19
  3
ACAD_PLOTSTYLENAME
350
E
  3
ACAD_TABLESTYLE
350
258
  3
ACAD_VISUALSTYLE
350
2A
  0
DICTIONARY
  5
D
102
{ACAD_REACTORS
330
C
102
}
330
C
100
AcDbDictionary
281
     1
  0
DICTIONARY
  5
1A
102
{ACAD_REACTORS
330
C
102
}
330
C
100
AcDbDictionary
281
     1
  3
Layout1
350
1E
  3
Layout2
350
26
  3
Model
350
22
  0
DICTIONARY
  5
3B
102
{ACAD_REACTORS
330
C
102
}
330
C
100
AcDbDictionary
281
     1
  3
ByBlock
350
3D
  3
ByLayer
350
3C
  3
Global
350
3E
  0
DICTIONARY
  5
259
102
{ACAD_REACTORS
330
C
102
}
330
C
100
AcDbDictionary
281
     1
  0
DICTIONARY
  5
17
102
{ACAD_REACTORS
330
C
102
}
330
C
100
AcDbDictionary
281
     1
  3
Standard
350
18
  0
DICTIONARY
  5
19
102
{ACAD_REACTORS
330
C
102
}
330
C
100
AcDbDictionary
281
     1
  0
ACDBDICTIONARYWDFLT
  5
E
102
{ACAD_REACTORS
330
C
102
}
330
C
100
AcDbDictionary
281
     1
  3
Normal
350
F
100
AcDbDictionaryWithDefault
340
F
  0
DICTIONARY
  5
258
102
{ACAD_REACTORS
330
C
102
}
330
C
100
AcDbDictionary
281
     1
  0
DICTIONARY
  5
2A
102
{ACAD_REACTORS
330
C
102
}
330
C
100
AcDbDictionary
281
     1
  3
2dWireframe
350
2F
  3
3D Hidden
350
31
  3
3dWireframe
350
30
  3
Basic
350
32
  3
Brighten
350
36
  3
ColorChange
350
3A
  3
Conceptual
350
34
  3
Dim
350
35
  3
Facepattern
350
39
  3
Flat
350
2B
  3
FlatWithEdges
350
2C
  3
Gouraud
350
2D
  3
GouraudWithEdges
350
2E
  3
Linepattern
350
38
  3
Realistic
350
33
  3
Thicken
350
37
  0
LAYOUT
  5
1E
102
{ACAD_REACTORS
330
1A
102
}
330
1A
100
AcDbPlotSettings
  1

  2
none_device
  4

  6

 40
0.0
 41
0.0
 42
0.0
 43
0.0
 44
0.0
 45
0.0
 46
0.0
 47
0.0
 48
0.0
 49
0.0
140
0.0
141
0.0
142
1.0
143
1.0
 70
   688
 72
     0
 73
     0
 74
     5
  7

 75
    16
 76
     0
 77
     5
 78
   300
147
1.0
148
0.0
149
0.0
100
AcDbLayout
  1
Layout1
 70
     1
 71
     1
 10
0.0
 20
0.0
 11
420.0
 21
297.0
 12
0.0
 22
0.0
 32
0.0
 14
1.000000000000000E+20
 24
1.000000000000000E+20
 34
1.000000000000000E+20
 15
-1.000000000000000E+20
 25
-1.000000000000000E+20
 35
-1.000000000000000E+20
146
0.0
 13
0.0
 23
0.0
 33
0.0
 16
1.0
 26
0.0
 36
0.0
 17
0.0
 27
1.0
 37
0.0
 76
     0
330
1B
  0
LAYOUT
  5
26
102
{ACAD_REACTORS
330
1A
102
}
330
1A
100
AcDbPlotSettings
  1

  2
none_device
  4

  6

 40
0.0
 41
0.0
 42
0.0
 43
0.0
 44
0.0
 45
0.0
 46
0.0
 47
0.0
 48
0.0
 49
0.0
140
0.0
141
0.0
142
1.0
143
1.0
 70
   688
 72
     0
 73
     0
 74
     5
  7

 75
    16
 76
     0
 77
     5
 78
   300
147
1.0
148
0.0
149
0.0
100
AcDbLayout
  1
Layout2
 70
     1
 71
     2
 10
0.0
 20
0.0
 11
0.0
 21
0.0
 12
0.0
 22
0.0
 32
0.0
 14
0.0
 24
0.0
 34
0.0
 15
0.0
 25
0.0
 35
0.0
146
0.0
 13
0.0
 23
0.0
 33
0.0
 16
1.0
 26
0.0
 36
0.0
 17
0.0
 27
1.0
 37
0.0
 76
     0
330
23
  0
LAYOUT
  5
22
102
{ACAD_REACTORS
330
1A
102
}
330
1A
100
AcDbPlotSettings
  1

  2
none_device
  4

  6

 40
0.0
 41
0.0
 42
0.0
 43
0.0
 44
0.0
 45
0.0
 46
0.0
 47
0.0
 48
0.0
 49
0.0
140
0.0
141
0.0
142
1.0
143
1.0
 70
  1712
 72
     0
 73
     0
 74
     0
  7

 75
     0
 76
     0
 77
     5
 78
   300
147
1.0
148
0.0
149
0.0
100
AcDbLayout
  1
Model
 70
     1
 71
     0
 10
-4455.0
 20
-3150.0
 11
4455.0
 21
3150.0
 12
0.0
 22
0.0
 32
0.0
 14
-4455.0
 24
-3150.0
 34
0.0
 15
4455.0
 25
3150.0
 35
0.0
146
0.0
 13
0.0
 23
0.0
 33
0.0
 16
1.0
 26
0.0
 36
0.0
 17
0.0
 27
1.0
 37
0.0
 76
     0
330
1F
331
29
  0
MATERIAL
  5
3D
102
{ACAD_REACTORS
330
3B
102
}
330
3B
100
AcDbMaterial
  1
ByBlock
 72
     1
 94
      127
  0
MATERIAL
  5
3C
102
{ACAD_REACTORS
330
3B
102
}
330
3B
100
AcDbMaterial
  1
ByLayer
 72
     1
 94
      127
  0
MATERIAL
  5
3E
102
{ACAD_REACTORS
330
3B
102
}
330
3B
100
AcDbMaterial
  1
Global
 72
     1
 94
      127
  0
MLINESTYLE
  5
18
102
{ACAD_REACTORS
330
17
102
}
330
17
100
AcDbMlineStyle
  2
Standard
 70
     0
  3

 62
   256
 51
90.0
 52
90.0
 71
     2
 49
0.5
 62
   256
  6
BYLAYER
 49
-0.5
 62
   256
  6
BYLAYER
  0
ACDBPLACEHOLDER
  5
F
102
{ACAD_REACTORS
330
E
102
}
330
E
  0
VISUALSTYLE
  5
2F
102
{ACAD_REACTORS
330
2A
102
}
330
2A
100
AcDbVisualStyle
  2
2dWireframe
 70
     4
177
     2
291
     0
 71
     0
176
     1
 72
     2
176
     1
 73
     0
176
     1
 90
        0
176
     1
 40
-0.6
176
     1
 41
-30.0
176
     1
 62
     5
 63
     7
421
 16777215
176
     1
 74
     1
176
     1
 91
        4
176
     1
 64
     7
176
     1
 65
   257
176
     1
 75
     1
176
     1
175
     1
176
     1
 42
1.0
176
     1
 92
        0
176
     1
 66
   257
176
     1
 43
1.0
176
     1
 76
     1
176
     1
 77
     6
176
     1
 78
     2
176
     1
 67
     7
176
     1
 79
     5
176
     1
170
     0
176
     1
171
     0
176
     1
290
     0
176
     1
 93
        1
176
     1
 44
0.0
176
     1
173
     0
176
     1
  0
VISUALSTYLE
  5
31
102
{ACAD_REACTORS
330
2A
102
}
330
2A
100
AcDbVisualStyle
  2
3D Hidden
 70
     6
177
     2
291
     0
 71
     1
176
     1
 72
     2
176
     1
 73
     2
176
     1
 90
        0
176
     1
 40
-0.6
176
     1
 41
-30.0
176
     1
 62
     5
 63
     7
421
 16777215
176
     1
 74
     2
176
     1
 91
        2
176
     1
 64
     7
176
     1
 65
   257
176
     1
 75
     2
176
     1
175
     1
176
     1
 42
40.0
176
     1
 92
        0
176
     1
 66
   257
176
     1
 43
1.0
176
     1
 76
     1
176
     1
 77
     6
176
     1
 78
     2
176
     1
 67
     7
176
     1
 79
     3
176
     1
170
     0
176
     1
171
     0
176
     1
290
     0
176
     1
 93
        1
176
     1
 44
0.0
176
     1
173
     0
176
     1
  0
VISUALSTYLE
  5
30
102
{ACAD_REACTORS
330
2A
102
}
330
2A
100
AcDbVisualStyle
  2
3dWireframe
 70
     5
177
     2
291
     0
 71
     0
176
     1
 72
     2
176
     1
 73
     0
176
     1
 90
        0
176
     1
 40
-0.6
176
     1
 41
-30.0
176
     1
 62
     5
 63
     7
421
 16777215
176
     1
 74
     1
176
     1
 91
        4
176
     1
 64
     7
176
     1
 65
   257
176
     1
 75
     1
176
     1
175
     1
176
     1
 42
1.0
176
     1
 92
        0
176
     1
 66
   257
176
     1
 43
1.0
176
     1
 76
     1
176
     1
 77
     6
176
     1
 78
     2
176
     1
 67
     7
176
     1
 79
     5
176
     1
170
     0
176
     1
171
     0
176
     1
290
     0
176
     1
 93
        1
176
     1
 44
0.0
176
     1
173
     0
176
     1
  0
VISUALSTYLE
  5
32
102
{ACAD_REACTORS
330
2A
102
}
330
2A
100
AcDbVisualStyle
  2
Basic
 70
     7
177
     2
291
     1
 71
     1
176
     1
 72
     0
176
     1
 73
     1
176
     1
 90
        0
176
     1
 40
-0.6
176
     1
 41
-30.0
176
     1
 62
     5
 63
     7
421
 16777215
176
     1
 74
     0
176
     1
 91
        4
176
     1
 64
     7
176
     1
 65
   257
176
     1
 75
     1
176
     1
175
     1
176
     1
 42
1.0
176
     1
 92
        8
176
     1
 66
     7
176
     1
 43
1.0
176
     1
 76
     1
176
     1
 77
     6
176
     1
 78
     2
176
     1
 67
     7
176
     1
 79
     5
176
     1
170
     0
176
     1
171
     0
176
     1
290
     0
176
     1
 93
        1
176
     1
 44
0.0
176
     1
173
     0
176
     1
  0
VISUALSTYLE
  5
36
102
{ACAD_REACTORS
330
2A
102
}
330
2A
100
AcDbVisualStyle
  2
Brighten
 70
    12
177
     2
291
     1
 71
     2
176
     1
 72
     2
176
     1
 73
     0
176
     1
 90
        0
176
     1
 40
-0.6
176
     1
 41
-30.0
176
     1
 62
     5
 63
     7
421
 16777215
176
     1
 74
     1
176
     1
 91
        4
176
     1
 64
     7
176
     1
 65
   257
176
     1
 75
     1
176
     1
175
     1
176
     1
 42
1.0
176
     1
 92
        8
176
     1
 66
     7
176
     1
 43
1.0
176
     1
 76
     1
176
     1
 77
     6
176
     1
 78
     2
176
     1
 67
     7
176
     1
 79
     5
176
     1
170
     0
176
     1
171
     0
176
     1
290
     0
176
     1
 93
        1
176
     1
 44
50.0
176
     1
173
     0
176
     1
  0
VISUALSTYLE
  5
3A
102
{ACAD_REACTORS
330
2A
102
}
330
2A
100
AcDbVisualStyle
  2
ColorChange
 70
    16
177
     2
291
     1
 71
     2
176
     1
 72
     2
176
     1
 73
     3
176
     1
 90
        0
176
     1
 40
-0.6
176
     1
 41
-30.0
176
     1
 62
     5
 63
     8
421
  8421504
176
     1
 74
     1
176
     1
 91
        4
176
     1
 64
     7
176
     1
 65
   257
176
     1
 75
     1
176
     1
175
     1
176
     1
 42
1.0
176
     1
 92
        8
176
     1
 66
     8
424
  8421504
176
     1
 43
1.0
176
     1
 76
     1
176
     1
 77
     6
176
     1
 78
     2
176
     1
 67
     7
176
     1
 79
     5
176
     1
170
     0
176
     1
171
     0
176
     1
290
     0
176
     1
 93
        1
176
     1
 44
0.0
176
     1
173
     0
176
     1
  0
VISUALSTYLE
  5
34
102
{ACAD_REACTORS
330
2A
102
}
330
2A
100
AcDbVisualStyle
  2
Conceptual
 70
     9
177
     2
291
     0
 71
     3
176
     1
 72
     2
176
     1
 73
     0
176
     1
 90
        0
176
     1
 40
-0.6
176
     1
 41
-30.0
176
     1
 62
     5
 63
     7
421
 16777215
176
     1
 74
     2
176
     1
 91
        2
176
     1
 64
     7
176
     1
 65
   257
176
     1
 75
     1
176
     1
175
     1
176
     1
 42
40.0
176
     1
 92
        8
176
     1
 66
     7
176
     1
 43
1.0
176
     1
 76
     1
176
     1
 77
     6
176
     1
 78
     2
176
     1
 67
     7
176
     1
 79
     3
176
     1
170
     0
176
     1
171
     0
176
     1
290
     0
176
     1
 93
        1
176
     1
 44
0.0
176
     1
173
     0
176
     1
  0
VISUALSTYLE
  5
35
102
{ACAD_REACTORS
330
2A
102
}
330
2A
100
AcDbVisualStyle
  2
Dim
 70
    11
177
     2
291
     1
 71
     2
176
     1
 72
     2
176
     1
 73
     0
176
     1
 90
        0
176
     1
 40
-0.6
176
     1
 41
-30.0
176
     1
 62
     5
 63
     7
421
 16777215
176
     1
 74
     1
176
     1
 91
        4
176
     1
 64
     7
176
     1
 65
   257
176
     1
 75
     1
176
     1
175
     1
176
     1
 42
1.0
176
     1
 92
        8
176
     1
 66
     7
176
     1
 43
1.0
176
     1
 76
     1
176
     1
 77
     6
176
     1
 78
     2
176
     1
 67
     7
176
     1
 79
     5
176
     1
170
     0
176
     1
171
     0
176
     1
290
     0
176
     1
 93
        1
176
     1
 44
-50.0
176
     1
173
     0
176
     1
  0
VISUALSTYLE
  5
39
102
{ACAD_REACTORS
330
2A
102
}
330
2A
100
AcDbVisualStyle
  2
Facepattern
 70
    15
177
     2
291
     1
 71
     2
176
     1
 72
     2
176
     1
 73
     0
176
     1
 90
        0
176
     1
 40
-0.6
176
     1
 41
-30.0
176
     1
 62
     5
 63
     7
421
 16777215
176
     1
 74
     1
176
     1
 91
        4
176
     1
 64
     7
176
     1
 65
   257
176
     1
 75
     1
176
     1
175
     1
176
     1
 42
1.0
176
     1
 92
        8
176
     1
 66
     7
176
     1
 43
1.0
176
     1
 76
     1
176
     1
 77
     6
176
     1
 78
     2
176
     1
 67
     7
176
     1
 79
     5
176
     1
170
     0
176
     1
171
     0
176
     1
290
     0
176
     1
 93
        1
176
     1
 44
0.0
176
     1
173
     0
176
     1
  0
VISUALSTYLE
  5
2B
102
{ACAD_REACTORS
330
2A
102
}
330
2A
100
AcDbVisualStyle
  2
Flat
 70
     0
177
     2
291
     1
 71
     2
176
     1
 72
     1
176
     1
 73
     1
176
     1
 90
        2
176
     1
 40
-0.6
176
     1
 41
30.0
176
     1
 62
     5
 63
     7
421
 16777215
176
     1
 74
     0
176
     1
 91
        4
176
     1
 64
     7
176
     1
 65
   257
176
     1
 75
     1
176
     1
175
     1
176
     1
 42
1.0
176
     1
 92
        8
176
     1
 66
     7
176
     1
 43
1.0
176
     1
 76
     1
176
     1
 77
     6
176
     1
 78
     2
176
     1
 67
     7
176
     1
 79
     5
176
     1
170
     0
176
     1
171
     0
176
     1
290
     0
176
     1
 93
       13
176
     1
 44
0.0
176
     1
173
     0
176
     1
  0
VISUALSTYLE
  5
2C
102
{ACAD_REACTORS
330
2A
102
}
330
2A
100
AcDbVisualStyle
  2
FlatWithEdges
 70
     1
177
     2
291
     1
 71
     2
176
     1
 72
     1
176
     1
 73
     1
176
     1
 90
        2
176
     1
 40
-0.6
176
     1
 41
30.0
176
     1
 62
     5
 63
     7
421
 16777215
176
     1
 74
     1
176
     1
 91
        4
176
     1
 64
     7
176
     1
 65
   257
176
     1
 75
     1
176
     1
175
     1
176
     1
 42
1.0
176
     1
 92
        0
176
     1
 66
   257
176
     1
 43
1.0
176
     1
 76
     1
176
     1
 77
     6
176
     1
 78
     2
176
     1
 67
     7
176
     1
 79
     5
176
     1
170
     0
176
     1
171
     0
176
     1
290
     0
176
     1
 93
       13
176
     1
 44
0.0
176
     1
173
     0
176
     1
  0
VISUALSTYLE
  5
2D
102
{ACAD_REACTORS
330
2A
102
}
330
2A
100
AcDbVisualStyle
  2
Gouraud
 70
     2
177
     2
291
     1
 71
     2
176
     1
 72
     2
176
     1
 73
     1
176
     1
 90
        2
176
     1
 40
-0.6
176
     1
 41
30.0
176
     1
 62
     5
 63
     7
421
 16777215
176
     1
 74
     0
176
     1
 91
        4
176
     1
 64
     7
176
     1
 65
   257
176
     1
 75
     1
176
     1
175
     1
176
     1
 42
1.0
176
     1
 92
        0
176
     1
 66
     7
176
     1
 43
1.0
176
     1
 76
     1
176
     1
 77
     6
176
     1
 78
     2
176
     1
 67
     7
176
     1
 79
     5
176
     1
170
     0
176
     1
171
     0
176
     1
290
     0
176
     1
 93
       13
176
     1
 44
0.0
176
     1
173
     0
176
     1
  0
VISUALSTYLE
  5
2E
102
{ACAD_REACTORS
330
2A
102
}
330
2A
100
AcDbVisualStyle
  2
GouraudWithEdges
 70
     3
177
     2
291
     1
 71
     2
176
     1
 72
     2
176
     1
 73
     1
176
     1
 90
        2
176
     1
 40
-0.6
176
     1
 41
30.0
176
     1
 62
     5
 63
     7
421
 16777215
176
     1
 74
     1
176
     1
 91
        4
176
     1
 64
     7
176
     1
 65
   257
176
     1
 75
     1
176
     1
175
     1
176
     1
 42
1.0
176
     1
 92
        0
176
     1
 66
   257
176
     1
 43
1.0
176
     1
 76
     1
176
     1
 77
     6
176
     1
 78
     2
176
     1
 67
     7
176
     1
 79
     5
176
     1
170
     0
176
     1
171
     0
176
     1
290
     0
176
     1
 93
       13
176
     1
 44
0.0
176
     1
173
     0
176
     1
  0
VISUALSTYLE
  5
38
102
{ACAD_REACTORS
330
2A
102
}
330
2A
100
AcDbVisualStyle
  2
Linepattern
 70
    14
177
     2
291
     1
 71
     2
176
     1
 72
     2
176
     1
 73
     0
176
     1
 90
        0
176
     1
 40
-0.6
176
     1
 41
-30.0
176
     1
 62
     5
 63
     7
421
 16777215
176
     1
 74
     1
176
     1
 91
        4
176
     1
 64
     7
176
     1
 65
   257
176
     1
 75
     7
176
     1
175
     7
176
     1
 42
1.0
176
     1
 92
        8
176
     1
 66
     7
176
     1
 43
1.0
176
     1
 76
     1
176
     1
 77
     6
176
     1
 78
     2
176
     1
 67
     7
176
     1
 79
     5
176
     1
170
     0
176
     1
171
     0
176
     1
290
     0
176
     1
 93
        1
176
     1
 44
0.0
176
     1
173
     0
176
     1
  0
VISUALSTYLE
  5
33
102
{ACAD_REACTORS
330
2A
102
}
330
2A
100
AcDbVisualStyle
  2
Realistic
 70
     8
177
     2
291
     0
 71
     2
176
     1
 72
     2
176
     1
 73
     0
176
     1
 90
        0
176
     1
 40
-0.6
176
     1
 41
-30.0
176
     1
 62
     5
 63
     7
421
 16777215
176
     1
 74
     1
176
     1
 91
        0
176
     1
 64
     7
176
     1
 65
   257
176
     1
 75
     1
176
     1
175
     1
176
     1
 42
1.0
176
     1
 92
        8
176
     1
 66
     8
424
  7895160
176
     1
 43
1.0
176
     1
 76
     1
176
     1
 77
     6
176
     1
 78
     2
176
     1
 67
     7
176
     1
 79
     5
176
     1
170
     0
176
     1
171
     0
176
     1
290
     0
176
     1
 93
       13
176
     1
 44
0.0
176
     1
173
     0
176
     1
  0
VISUALSTYLE
  5
37
102
{ACAD_REACTORS
330
2A
102
}
330
2A
100
AcDbVisualStyle
  2
Thicken
 70
    13
177
     2
291
     1
 71
     2
176
     1
 72
     2
176
     1
 73
     0
176
     1
 90
        0
176
     1
 40
-0.6
176
     1
 41
-30.0
176
     1
 62
     5
 63
     7
421
 16777215
176
     1
 74
     1
176
     1
 91
        4
176
     1
 64
     7
176
     1
 65
   257
176
     1
 75
     1
176
     1
175
     1
176
     1
 42
1.0
176
     1
 92
       12
176
     1
 66
     7
176
     1
 43
1.0
176
     1
 76
     1
176
     1
 77
     6
176
     1
 78
     2
176
     1
 67
     7
176
     1
 79
     5
176
     1
170
     0
176
     1
171
     0
176
     1
290
     0
176
     1
 93
        1
176
     1
 44
0.0
176
     1
173
     0
176
     1
  0
ENDSEC
  0
EOF
