  0
SECTION
  2
HEADER
  9
$ACADVER
  1
AC1024
  9
$ACADMAINTVER
 70
     6
  9
$DWGCODEPAGE
  3
ANSI_932
  9
$INSBASE
 10
0.0
 20
0.0
 30
0.0
  9
$EXTMIN
 10
-4455.0
 20
-3150.0
 30
0.0
  9
$EXTMAX
 10
4455.0
 20
3150.0
 30
0.0
  9
$LIMMIN
 10
-4455.0
 20
-3150.0
  9
$LIMMAX
 10
4455.0
 20
3150.0
  9
$ORTHOMODE
 70
     0
  9
$REGENMODE
 70
     1
  9
$FILLMODE
 70
     1
  9
$QTEXTMODE
 70
     0
  9
$MIRRTEXT
 70
     1
  9
$LTSCALE
 40
30.0
  9
$ATTMODE
 70
     1
  9
$TEXTSIZE
 40
2.5
  9
$TRACEWID
 40
1.0
  9
$TEXTSTYLE
  7
Standard
  9
$CLAYER
  8
0
  9
$CELTYPE
  6
ByLayer
  9
$CECOLOR
 62
   256
  9
$CELTSCALE
 40
1.0
  9
$DISPSILH
 70
     0
  9
$DIMSCALE
 40
1.0
  9
$DIMASZ
 40
2.5
  9
$DIMEXO
 40
0.625
  9
$DIMDLI
 40
3.75
  9
$DIMRND
 40
0.0
  9
$DIMDLE
 40
0.0
  9
$DIMEXE
 40
1.25
  9
$DIMTP
 40
0.0
  9
$DIMTM
 40
0.0
  9
$DIMTXT
 40
2.5
  9
$DIMCEN
 40
2.5
  9
$DIMTSZ
 40
0.0
  9
$DIMTOL
 70
     0
  9
$DIMLIM
 70
     0
  9
$DIMTIH
 70
     0
  9
$DIMTOH
 70
     0
  9
$DIMSE1
 70
     0
  9
$DIMSE2
 70
     0
  9
$DIMTAD
 70
     1
  9
$DIMZIN
 70
     8
  9
$DIMBLK
  1

  9
$DIMASO
 70
     1
  9
$DIMSHO
 70
     1
  9
$DIMPOST
  1

  9
$DIMAPOST
  1

  9
$DIMALT
 70
     0
  9
$DIMALTD
 70
     3
  9
$DIMALTF
 40
0.03937007874016
  9
$DIMLFAC
 40
1.0
  9
$DIMTOFL
 70
     1
  9
$DIMTVP
 40
0.0
  9
$DIMTIX
 70
     0
  9
$DIMSOXD
 70
     0
  9
$DIMSAH
 70
     0
  9
$DIMBLK1
  1

  9
$DIMBLK2
  1

  9
$DIMSTYLE
  2
ISO-25
  9
$DIMCLRD
 70
     0
  9
$DIMCLRE
 70
     0
  9
$DIMCLRT
 70
     0
  9
$DIMTFAC
 40
1.0
  9
$DIMGAP
 40
0.625
  9
$DIMJUST
 70
     0
  9
$DIMSD1
 70
     0
  9
$DIMSD2
 70
     0
  9
$DIMTOLJ
 70
     0
  9
$DIMTZIN
 70
     8
  9
$DIMALTZ
 70
     0
  9
$DIMALTTZ
 70
     0
  9
$DIMUPT
 70
     0
  9
$DIMDEC
 70
     2
  9
$DIMTDEC
 70
     2
  9
$DIMALTU
 70
     2
  9
$DIMALTTD
 70
     3
  9
$DIMTXSTY
  7
Standard
  9
$DIMAUNIT
 70
     0
  9
$DIMADEC
 70
     0
  9
$DIMALTRND
 40
0.0
  9
$DIMAZIN
 70
     0
  9
$DIMDSEP
 70
    44
  9
$DIMATFIT
 70
     3
  9
$DIMFRAC
 70
     0
  9
$DIMLDRBLK
  1

  9
$DIMLUNIT
 70
     2
  9
$DIMLWD
 70
    -2
  9
$DIMLWE
 70
    -2
  9
$DIMTMOVE
 70
     0
  9
$DIMFXL
 40
1.0
  9
$DIMFXLON
 70
     0
  9
$DIMJOGANG
 40
0.7853981633974483
  9
$DIMTFILL
 70
     0
  9
$DIMTFILLCLR
 70
     0
  9
$DIMARCSYM
 70
     0
  9
$DIMLTYPE
  6

  9
$DIMLTEX1
  6

  9
$DIMLTEX2
  6

  9
$DIMTXTDIRECTION
 70
     0
  9
$LUNITS
 70
     2
  9
$LUPREC
 70
     4
  9
$SKETCHINC
 40
1.0
  9
$FILLETRAD
 40
10.0
  9
$AUNITS
 70
     0
  9
$AUPREC
 70
     0
  9
$MENU
  1
.
  9
$ELEVATION
 40
0.0
  9
$PELEVATION
 40
0.0
  9
$THICKNESS
 40
0.0
  9
$LIMCHECK
 70
     0
  9
$CHAMFERA
 40
10.0
  9
$CHAMFERB
 40
10.0
  9
$CHAMFERC
 40
20.0
  9
$CHAMFERD
 40
0.0
  9
$SKPOLY
 70
     0
  9
$TDCREATE
 40
2457953.400642072
  9
$TDUCREATE
 40
2457953.025642072
  9
$TDUPDATE
 40
2457953.400642083
  9
$TDUUPDATE
 40
2457953.025642083
  9
$TDINDWG
 40
0.0000000116
  9
$TDUSRTIMER
 40
0.0000000116
  9
$USRTIMER
 70
     1
  9
$ANGBASE
 50
0.0
  9
$ANGDIR
 70
     0
  9
$PDMODE
 70
     0
  9
$PDSIZE
 40
0.0
  9
$PLINEWID
 40
0.0
  9
$SPLFRAME
 70
     0
  9
$SPLINETYPE
 70
     6
  9
$SPLINESEGS
 70
     8
  9
$HANDSEED
  5
2A1
  9
$SURFTAB1
 70
     6
  9
$SURFTAB2
 70
     6
  9
$SURFTYPE
 70
     6
  9
$SURFU
 70
     6
  9
$SURFV
 70
     6
  9
$UCSBASE
  2

  9
$UCSNAME
  2

  9
$UCSORG
 10
0.0
 20
0.0
 30
0.0
  9
$UCSXDIR
 10
1.0
 20
0.0
 30
0.0
  9
$UCSYDIR
 10
0.0
 20
1.0
 30
0.0
  9
$UCSORTHOREF
  2

  9
$UCSORTHOVIEW
 70
     0
  9
$UCSORGTOP
 10
0.0
 20
0.0
 30
0.0
  9
$UCSORGBOTTOM
 10
0.0
 20
0.0
 30
0.0
  9
$UCSORGLEFT
 10
0.0
 20
0.0
 30
0.0
  9
$UCSORGRIGHT
 10
0.0
 20
0.0
 30
0.0
  9
$UCSORGFRONT
 10
0.0
 20
0.0
 30
0.0
  9
$UCSORGBACK
 10
0.0
 20
0.0
 30
0.0
  9
$PUCSBASE
  2

  9
$PUCSNAME
  2

  9
$PUCSORG
 10
0.0
 20
0.0
 30
0.0
  9
$PUCSXDIR
 10
1.0
 20
0.0
 30
0.0
  9
$PUCSYDIR
 10
0.0
 20
1.0
 30
0.0
  9
$PUCSORTHOREF
  2

  9
$PUCSORTHOVIEW
 70
     0
  9
$PUCSORGTOP
 10
0.0
 20
0.0
 30
0.0
  9
$PUCSORGBOTTOM
 10
0.0
 20
0.0
 30
0.0
  9
$PUCSORGLEFT
 10
0.0
 20
0.0
 30
0.0
  9
$PUCSORGRIGHT
 10
0.0
 20
0.0
 30
0.0
  9
$PUCSORGFRONT
 10
0.0
 20
0.0
 30
0.0
  9
$PUCSORGBACK
 10
0.0
 20
0.0
 30
0.0
  9
$USERI1
 70
     0
  9
$USERI2
 70
     0
  9
$USERI3
 70
     0
  9
$USERI4
 70
     0
  9
$USERI5
 70
     0
  9
$USERR1
 40
0.0
  9
$USERR2
 40
0.0
  9
$USERR3
 40
0.0
  9
$USERR4
 40
0.0
  9
$USERR5
 40
0.0
  9
$WORLDVIEW
 70
     1
  9
$SHADEDGE
 70
     3
  9
$SHADEDIF
 70
    70
  9
$TILEMODE
 70
     1
  9
$MAXACTVP
 70
    64
  9
$PINSBASE
 10
0.0
 20
0.0
 30
0.0
  9
$PLIMCHECK
 70
     0
  9
$PEXTMIN
 10
1.000000000000000E+20
 20
1.000000000000000E+20
 30
1.000000000000000E+20
  9
$PEXTMAX
 10
-1.000000000000000E+20
 20
-1.000000000000000E+20
 30
-1.000000000000000E+20
  9
$PLIMMIN
 10
0.0
 20
0.0
  9
$PLIMMAX
 10
420.0
 20
297.0
  9
$UNITMODE
 70
     0
  9
$VISRETAIN
 70
     1
  9
$PLINEGEN
 70
     0
  9
$PSLTSCALE
 70
     1
  9
$TREEDEPTH
 70
  3020
  9
$CMLSTYLE
  2
Standard
  9
$CMLJUST
 70
     0
  9
$CMLSCALE
 40
20.0
  9
$PROXYGRAPHICS
 70
     1
  9
$MEASUREMENT
 70
     1
  9
$CELWEIGHT
370
    -1
  9
$ENDCAPS
280
     0
  9
$JOINSTYLE
280
     0
  9
$LWDISPLAY
290
     0
  9
$INSUNITS
 70
     4
  9
$HYPERLINKBASE
  1

  9
$STYLESHEET
  1

  9
$XEDIT
290
     1
  9
$CEPSNTYPE
380
     0
  9
$PSTYLEMODE
290
     1
  9
$FINGERPRINTGUID
  2
{9BCEFA23-E3A3-4D5A-8977-5ED230A1F662}
  9
$VERSIONGUID
  2
{FAEB1C32-E019-11D5-929B-00C0DF256EC4}
  9
$EXTNAMES
290
     1
  9
$PSVPSCALE
 40
0.0
  9
$OLESTARTUP
290
     0
  9
$SORTENTS
280
   127
  9
$INDEXCTL
280
     0
  9
$HIDETEXT
280
     1
  9
$XCLIPFRAME
280
     2
  9
$HALOGAP
280
     0
  9
$OBSCOLOR
 70
   257
  9
$OBSLTYPE
280
     0
  9
$INTERSECTIONDISPLAY
280
     0
  9
$INTERSECTIONCOLOR
 70
   257
  9
$DIMASSOC
280
     2
  9
$PROJECTNAME
  1

  9
$CAMERADISPLAY
290
     0
  9
$LENSLENGTH
 40
50.0
  9
$CAMERAHEIGHT
 40
0.0
  9
$STEPSPERSEC
 40
2.0
  9
$STEPSIZE
 40
6.0
  9
$3DDWFPREC
 40
2.0
  9
$PSOLWIDTH
 40
5.0
  9
$PSOLHEIGHT
 40
80.0
  9
$LOFTANG1
 40
1.570796326794897
  9
$LOFTANG2
 40
1.570796326794897
  9
$LOFTMAG1
 40
0.0
  9
$LOFTMAG2
 40
0.0
  9
$LOFTPARAM
 70
     7
  9
$LOFTNORMALS
280
     1
  9
$LATITUDE
 40
37.795
  9
$LONGITUDE
 40
-122.394
  9
$NORTHDIRECTION
 40
0.0
  9
$TIMEZONE
 70
 -8000
  9
$LIGHTGLYPHDISPLAY
280
     1
  9
$TILEMODELIGHTSYNCH
280
     1
  9
$SOLIDHIST
280
     1
  9
$SHOWHIST
280
     1
  9
$DWFFRAME
280
     2
  9
$DGNFRAME
280
     2
  9
$REALWORLDSCALE
290
     1
  9
$INTERFERECOLOR
 62
   256
  9
$CSHADOW
280
     0
  9
$SHADOWPLANELOCATION
 40
0.0
  0
ENDSEC
  0
SECTION
  2
CLASSES
  0
CLASS
  1
ACDBDICTIONARYWDFLT
  2
AcDbDictionaryWithDefault
  3
ObjectDBX Classes
 90
        0
 91
        4
280
     0
281
     0
  0
CLASS
  1
VISUALSTYLE
  2
AcDbVisualStyle
  3
ObjectDBX Classes
 90
     4095
 91
        4
280
     0
281
     0
  0
CLASS
  1
MATERIAL
  2
AcDbMaterial
  3
ObjectDBX Classes
 90
     1153
 91
        4
280
     0
281
     0
  0
ENDSEC
  0
SECTION
  2
TABLES
  0
TABLE
  2
VPORT
  5
8
330
0
100
AcDbSymbolTable
 70
     1
  0
VPORT
  5
29
330
8
100
AcDbSymbolTableRecord
100
AcDbViewportTableRecord
  2
*Active
 70
     0
 10
0.0
 20
0.0
 11
1.0
 21
1.0
 12
0.0
 22
0.0
 13
0.0
 23
0.0
 14
10.0
 24
10.0
 15
10.0
 25
10.0
 16
0.0
 26
0.0
 36
1.0
 17
0.0
 27
0.0
 37
0.0
 40
6930.000000000001
 41
1.414285714285714
 42
50.0
 43
0.0
 44
0.0
 50
0.0
 51
0.0
 71
     0
 72
 10000
 73
     1
 74
     3
 75
     0
 76
     0
 77
     0
 78
     0
281
     0
 65
     1
110
0.0
120
0.0
130
0.0
111
1.0
121
0.0
131
0.0
112
0.0
122
1.0
132
0.0
 79
     0
146
0.0
 60
     3
 61
     5
292
     1
282
     1
141
0.0
142
0.0
 63
   250
  0
ENDTAB
  0
TABLE
  2
LTYPE
  5
5
330
0
100
AcDbSymbolTable
 70
     2
  0
LTYPE
  5
14
330
5
100
AcDbSymbolTableRecord
100
AcDbLinetypeTableRecord
  2
ByBlock
 70
     0
  3

 72
    65
 73
     0
 40
0.0
  0
LTYPE
  5
15
330
5
100
AcDbSymbolTableRecord
100
AcDbLinetypeTableRecord
  2
ByLayer
 70
     0
  3

 72
    65
 73
     0
 40
0.0
  0
LTYPE
  5
16
330
5
100
AcDbSymbolTableRecord
100
AcDbLinetypeTableRecord
  2
Continuous
 70
     0
  3
Solid line
 72
    65
 73
     0
 40
0.0
  0
LTYPE
  5
3F
330
5
100
AcDbSymbolTableRecord
100
AcDbLinetypeTableRecord
  2
JWW_DASHED1
 70
     0
  3
-  --  --  --  --  --  --  --  -
 72
    65
 73
     2
 40
1.693333333333333
 49
0.8466666666666667
 74
     0
 49
-0.8466666666666667
 74
     0
  0
ENDTAB
  0
TABLE
  2
LAYER
  5
2
330
0
100
AcDbSymbolTable
 70
     3
  0
LAYER
  5
10
330
2
100
AcDbSymbolTableRecord
100
AcDbLayerTableRecord
  2
0
 70
     0
 62
     7
  6
Continuous
370
    -3
390
F
347
3E
  0
LAYER
  5
40
330
2
100
AcDbSymbolTableRecord
100
AcDbLayerTableRecord
  2
0-0
 70
     0
 62
     7
  6
Continuous
370
    -3
390
F
347
3E
  0
LAYER
  5
41
330
2
100
AcDbSymbolTableRecord
100
AcDbLayerTableRecord
  2
寸法
 70
     0
 62
     7
  6
Continuous
370
    -3
390
F
347
3E
  0
ENDTAB
  0
TABLE
  2
STYLE
  5
3
330
0
100
AcDbSymbolTable
 70
     1
  0
STYLE
  5
11
330
3
100
AcDbSymbolTableRecord
100
AcDbTextStyleTableRecord
  2
Standard
 70
     0
 40
0.0
 41
1.0
 50
0.0
 71
     0
 42
2.5
  3
txt
  4

  0
ENDTAB
  0
TABLE
  2
VIEW
  5
6
330
0
100
AcDbSymbolTable
 70
     0
  0
ENDTAB
  0
TABLE
  2
UCS
  5
7
330
0
100
AcDbSymbolTable
 70
     0
  0
ENDTAB
  0
TABLE
  2
APPID
  5
9
330
0
100
AcDbSymbolTable
 70
     1
  0
APPID
  5
12
330
9
100
AcDbSymbolTableRecord
100
AcDbRegAppTableRecord
  2
ACAD
 70
     0
  0
ENDTAB
  0
TABLE
  2
DIMSTYLE
  5
A
330
0
100
AcDbSymbolTable
 70
     1
100
AcDbDimStyleTable
  0
DIMSTYLE
105
27
330
A
100
AcDbSymbolTableRecord
100
AcDbDimStyleTableRecord
  2
ISO-25
 70
     0
 41
2.5
 42
0.625
 43
3.75
 44
1.25
 73
     0
 74
     0
 77
     1
 78
     8
140
2.5
141
2.5
143
0.03937007874016
147
0.625
171
     3
172
     1
178
     0
271
     2
272
     2
274
     3
278
    44
283
     0
284
     8
340
11
  0
ENDTAB
  0
TABLE
  2
BLOCK_RECORD
  5
1
330
0
100
AcDbSymbolTable
 70
     1
  0
BLOCK_RECORD
  5
1F
330
1
100
AcDbSymbolTableRecord
100
AcDbBlockTableRecord
  2
*Model_Space
340
22
 70
     0
280
     1
281
     0
  0
BLOCK_RECORD
  5
1B
330
1
100
AcDbSymbolTableRecord
100
AcDbBlockTableRecord
  2
*Paper_Space
340
1E
 70
     0
280
     1
281
     0
  0
BLOCK_RECORD
  5
23
330
1
100
AcDbSymbolTableRecord
100
AcDbBlockTableRecord
  2
*Paper_Space0
340
26
 70
     0
280
     1
281
     0
  0
ENDTAB
  0
ENDSEC
  0
SECTION
  2
BLOCKS
  0
BLOCK
  5
20
330
1F
100
AcDbEntity
  8
0
100
AcDbBlockBegin
  2
*Model_Space
 70
     0
 10
0.0
 20
0.0
 30
0.0
  3
*Model_Space
  1

  0
ENDBLK
  5
21
330
1F
100
AcDbEntity
  8
0
100
AcDbBlockEnd
  0
BLOCK
  5
1C
330
1B
100
AcDbEntity
 67
     1
  8
0
100
AcDbBlockBegin
  2
*Paper_Space
 70
     0
 10
0.0
 20
0.0
 30
0.0
  3
*Paper_Space
  1

  0
ENDBLK
  5
1D
330
1B
100
AcDbEntity
 67
     1
  8
0
100
AcDbBlockEnd
  0
BLOCK
  5
24
330
23
100
AcDbEntity
  8
0
100
AcDbBlockBegin
  2
*Paper_Space0
 70
     0
 10
0.0
 20
0.0
 30
0.0
  3
*Paper_Space0
  1

  0
ENDBLK
  5
25
330
23
100
AcDbEntity
  8
0
100
AcDbBlockEnd
  0
ENDSEC
  0
SECTION
  2
ENTITIES
  0
LINE
  5
42
330
1F
100
AcDbEntity
  8
0-0
  6
Continuous
 62
    92
370
    13
100
AcDbLine
 10
1241.532186175927
 20
-1061.324877414847
 30
0.0
 11
-1182.467813824072
 21
-1061.324877414847
 31
0.0
  0
LINE
  5
43
330
1F
100
AcDbEntity
  8
0-0
  6
Continuous
 62
    92
370
    13
100
AcDbLine
 10
1211.532186175927
 20
-1046.324877414847
 30
0.0
 11
-1152.467813824072
 21
-1046.324877414847
 31
0.0
  0
ARC
  5
44
330
1F
100
AcDbEntity
  8
0-0
  6
Continuous
 62
    92
370
    13
100
AcDbCircle
 10
-1123.967813824074
 20
-24.32487741484735
 30
0.0
 40
1.5
100
AcDbArc
 50
90.0
 51
180.0
  0
LINE
  5
45
330
1F
100
AcDbEntity
  8
0-0
  6
Continuous
 62
    92
370
    13
100
AcDbLine
 10
-1084.967813824073
 20
-22.82487741484701
 30
0.0
 11
-1123.967813824074
 21
-22.82487741484701
 31
0.0
  0
ARC
  5
46
330
1F
100
AcDbEntity
  8
0-0
  6
Continuous
 62
    92
370
    13
100
AcDbCircle
 10
-1084.967813824073
 20
-24.32487741484735
 30
0.0
 40
1.5
100
AcDbArc
 50
0.0
 51
90.00000000000001
  0
LINE
  5
47
330
1F
100
AcDbEntity
  8
0-0
  6
Continuous
 62
    92
370
    13
100
AcDbLine
 10
-1083.467813824076
 20
-143.3248774148466
 30
0.0
 11
-1083.467813824076
 21
-24.32487741484735
 31
0.0
  0
ARC
  5
48
330
1F
100
AcDbEntity
  8
0-0
  6
Continuous
 62
    92
370
    13
100
AcDbCircle
 10
-1084.967813824073
 20
-143.3248774148466
 30
0.0
 40
1.5
100
AcDbArc
 50
270.0
 51
0.0
  0
LINE
  5
49
330
1F
100
AcDbEntity
  8
0-0
  6
Continuous
 62
    92
370
    13
100
AcDbLine
 10
-1123.967813824074
 20
-144.8248774148486
 30
0.0
 11
-1084.967813824073
 21
-144.8248774148486
 31
0.0
  0
LINE
  5
4A
330
1F
100
AcDbEntity
  8
0-0
  6
Continuous
 62
    92
370
    13
100
AcDbLine
 10
-1125.467813824072
 20
-143.3248774148466
 30
0.0
 11
-1125.467813824072
 21
-24.32487741484735
 31
0.0
  0
ARC
  5
4B
330
1F
100
AcDbEntity
  8
0-0
  6
Continuous
 62
    92
370
    13
100
AcDbCircle
 10
-1123.967813824074
 20
-143.3248774148466
 30
0.0
 40
1.5
100
AcDbArc
 50
180.0
 51
270.0
  0
ARC
  5
4C
330
1F
100
AcDbEntity
  8
0-0
  6
Continuous
 62
     7
370
     9
100
AcDbCircle
 10
-1104.467813824074
 20
-113.4248774148465
 30
0.0
 40
15.0
100
AcDbArc
 50
180.0
 51
0.0
  0
ARC
  5
4D
330
1F
100
AcDbEntity
  8
0-0
  6
Continuous
 62
     7
370
     9
100
AcDbCircle
 10
-1104.467813824074
 20
-54.22487741484659
 30
0.0
 40
15.0
100
AcDbArc
 50
0.0
 51
180.0
  0
LINE
  5
4E
330
1F
100
AcDbEntity
  8
0-0
  6
Continuous
 62
     7
370
     9
100
AcDbLine
 10
-1089.467813824074
 20
-113.4248774148465
 30
0.0
 11
-1089.467813824074
 21
-54.22487741484659
 31
0.0
  0
LINE
  5
4F
330
1F
100
AcDbEntity
  8
0-0
  6
Continuous
 62
     7
370
     9
100
AcDbLine
 10
-1119.467813824074
 20
-54.22487741484659
 30
0.0
 11
-1119.467813824074
 21
-113.4248774148465
 31
0.0
  0
ARC
  5
50
330
1F
100
AcDbEntity
  8
0-0
  6
Continuous
 62
    92
370
    13
100
AcDbCircle
 10
-343.9678138240736
 20
-24.32487741484735
 30
0.0
 40
1.5
100
AcDbArc
 50
90.0
 51
180.0
  0
LINE
  5
51
330
1F
100
AcDbEntity
  8
0-0
  6
Continuous
 62
    92
370
    13
100
AcDbLine
 10
-304.9678138240732
 20
-22.82487741484701
 30
0.0
 11
-343.9678138240736
 21
-22.82487741484701
 31
0.0
  0
ARC
  5
52
330
1F
100
AcDbEntity
  8
0-0
  6
Continuous
 62
    92
370
    13
100
AcDbCircle
 10
-304.9678138240732
 20
-24.32487741484735
 30
0.0
 40
1.5
100
AcDbArc
 50
0.0
 51
90.00000000000001
  0
LINE
  5
53
330
1F
100
AcDbEntity
  8
0-0
  6
Continuous
 62
    92
370
    13
100
AcDbLine
 10
-303.4678138240763
 20
-143.3248774148466
 30
0.0
 11
-303.4678138240763
 21
-24.32487741484735
 31
0.0
  0
ARC
  5
54
330
1F
100
AcDbEntity
  8
0-0
  6
Continuous
 62
    92
370
    13
100
AcDbCircle
 10
-304.9678138240732
 20
-143.3248774148466
 30
0.0
 40
1.5
100
AcDbArc
 50
270.0
 51
0.0
  0
LINE
  5
55
330
1F
100
AcDbEntity
  8
0-0
  6
Continuous
 62
    92
370
    13
100
AcDbLine
 10
-343.9678138240736
 20
-144.8248774148486
 30
0.0
 11
-304.9678138240732
 21
-144.8248774148486
 31
0.0
  0
LINE
  5
56
330
1F
100
AcDbEntity
  8
0-0
  6
Continuous
 62
    92
370
    13
100
AcDbLine
 10
-345.4678138240722
 20
-143.3248774148466
 30
0.0
 11
-345.4678138240722
 21
-24.32487741484735
 31
0.0
  0
ARC
  5
57
330
1F
100
AcDbEntity
  8
0-0
  6
Continuous
 62
    92
370
    13
100
AcDbCircle
 10
-343.9678138240736
 20
-143.3248774148466
 30
0.0
 40
1.5
100
AcDbArc
 50
180.0
 51
270.0
  0
ARC
  5
58
330
1F
100
AcDbEntity
  8
0-0
  6
Continuous
 62
     7
370
     9
100
AcDbCircle
 10
-324.4678138240743
 20
-113.4248774148465
 30
0.0
 40
15.0
100
AcDbArc
 50
180.0
 51
0.0
  0
ARC
  5
59
330
1F
100
AcDbEntity
  8
0-0
  6
Continuous
 62
     7
370
     9
100
AcDbCircle
 10
-324.4678138240743
 20
-54.22487741484659
 30
0.0
 40
15.0
100
AcDbArc
 50
0.0
 51
180.0
  0
LINE
  5
5A
330
1F
100
AcDbEntity
  8
0-0
  6
Continuous
 62
     7
370
     9
100
AcDbLine
 10
-309.4678138240743
 20
-113.4248774148465
 30
0.0
 11
-309.4678138240743
 21
-54.22487741484659
 31
0.0
  0
LINE
  5
5B
330
1F
100
AcDbEntity
  8
0-0
  6
Continuous
 62
     7
370
     9
100
AcDbLine
 10
-339.4678138240743
 20
-54.22487741484659
 30
0.0
 11
-339.4678138240743
 21
-113.4248774148465
 31
0.0
  0
ARC
  5
5C
330
1F
100
AcDbEntity
  8
0-0
  6
Continuous
 62
    92
370
    13
100
AcDbCircle
 10
1144.032186175931
 20
-24.32487741484735
 30
0.0
 40
1.5
100
AcDbArc
 50
90.0
 51
180.0
  0
LINE
  5
5D
330
1F
100
AcDbEntity
  8
0-0
  6
Continuous
 62
    92
370
    13
100
AcDbLine
 10
1183.032186175929
 20
-22.82487741484701
 30
0.0
 11
1144.032186175931
 21
-22.82487741484701
 31
0.0
  0
ARC
  5
5E
330
1F
100
AcDbEntity
  8
0-0
  6
Continuous
 62
    92
370
    13
100
AcDbCircle
 10
1183.032186175929
 20
-24.32487741484735
 30
0.0
 40
1.5
100
AcDbArc
 50
0.0
 51
90.00000000000001
  0
LINE
  5
5F
330
1F
100
AcDbEntity
  8
0-0
  6
Continuous
 62
    92
370
    13
100
AcDbLine
 10
1184.53218617593
 20
-143.3248774148466
 30
0.0
 11
1184.53218617593
 21
-24.32487741484735
 31
0.0
  0
ARC
  5
60
330
1F
100
AcDbEntity
  8
0-0
  6
Continuous
 62
    92
370
    13
100
AcDbCircle
 10
1183.032186175929
 20
-143.3248774148466
 30
0.0
 40
1.5
100
AcDbArc
 50
270.0
 51
0.0
  0
LINE
  5
61
330
1F
100
AcDbEntity
  8
0-0
  6
Continuous
 62
    92
370
    13
100
AcDbLine
 10
1144.032186175931
 20
-144.8248774148486
 30
0.0
 11
1183.032186175929
 21
-144.8248774148486
 31
0.0
  0
LINE
  5
62
330
1F
100
AcDbEntity
  8
0-0
  6
Continuous
 62
    92
370
    13
100
AcDbLine
 10
1142.53218617593
 20
-143.3248774148466
 30
0.0
 11
1142.53218617593
 21
-24.32487741484735
 31
0.0
  0
ARC
  5
63
330
1F
100
AcDbEntity
  8
0-0
  6
Continuous
 62
    92
370
    13
100
AcDbCircle
 10
1144.032186175931
 20
-143.3248774148466
 30
0.0
 40
1.5
100
AcDbArc
 50
180.0
 51
270.0
  0
ARC
  5
64
330
1F
100
AcDbEntity
  8
0-0
  6
Continuous
 62
     7
370
     9
100
AcDbCircle
 10
1163.53218617593
 20
-113.4248774148465
 30
0.0
 40
15.0
100
AcDbArc
 50
180.0
 51
0.0
  0
ARC
  5
65
330
1F
100
AcDbEntity
  8
0-0
  6
Continuous
 62
     7
370
     9
100
AcDbCircle
 10
1163.53218617593
 20
-54.22487741484659
 30
0.0
 40
15.0
100
AcDbArc
 50
0.0
 51
180.0
  0
LINE
  5
66
330
1F
100
AcDbEntity
  8
0-0
  6
Continuous
 62
     7
370
     9
100
AcDbLine
 10
1178.53218617593
 20
-113.4248774148465
 30
0.0
 11
1178.53218617593
 21
-54.22487741484659
 31
0.0
  0
LINE
  5
67
330
1F
100
AcDbEntity
  8
0-0
  6
Continuous
 62
     7
370
     9
100
AcDbLine
 10
1148.53218617593
 20
-54.22487741484659
 30
0.0
 11
1148.53218617593
 21
-113.4248774148465
 31
0.0
  0
LINE
  5
68
330
1F
100
AcDbEntity
  8
0-0
  6
JWW_DASHED1
 62
   120
370
     5
100
AcDbLine
 10
-1152.467813824072
 20
-1041.324877414848
 30
0.0
 11
-1155.467813824072
 21
-1041.324877414848
 31
0.0
  0
LINE
  5
69
330
1F
100
AcDbEntity
  8
0-0
  6
JWW_DASHED1
 62
   120
370
     5
100
AcDbLine
 10
1211.532186175927
 20
-1041.324877414848
 30
0.0
 11
1214.532186175928
 21
-1041.324877414848
 31
0.0
  0
LINE
  5
6A
330
1F
100
AcDbEntity
  8
0-0
  6
Continuous
 62
    92
370
    13
100
AcDbLine
 10
-1152.467813824072
 20
-1041.324877414848
 30
0.0
 11
1211.532186175927
 21
-1041.324877414848
 31
0.0
  0
LINE
  5
6B
330
1F
100
AcDbEntity
  8
0-0
  6
Continuous
 62
    92
370
    13
100
AcDbLine
 10
-1152.467813824072
 20
-1061.324877414847
 30
0.0
 11
-1152.467813824072
 21
1185.675122585153
 31
0.0
  0
LINE
  5
6C
330
1F
100
AcDbEntity
  8
0-0
  6
Continuous
 62
    92
370
    13
100
AcDbLine
 10
-1182.467813824072
 20
1185.675122585153
 30
0.0
 11
1241.532186175927
 21
1185.675122585153
 31
0.0
  0
LINE
  5
6D
330
1F
100
AcDbEntity
  8
0-0
  6
Continuous
 62
    92
370
    13
100
AcDbLine
 10
-1152.467813824072
 20
1149.675122585151
 30
0.0
 11
1211.532186175927
 21
1149.675122585151
 31
0.0
  0
LINE
  5
6E
330
1F
100
AcDbEntity
  8
0-0
  6
Continuous
 62
    92
370
    13
100
AcDbLine
 10
1211.532186175927
 20
-1061.324877414847
 30
0.0
 11
1211.532186175927
 21
1185.675122585153
 31
0.0
  0
LINE
  5
6F
330
1F
100
AcDbEntity
  8
0-0
  6
Continuous
 62
    92
370
    13
100
AcDbLine
 10
1241.532186175927
 20
-1061.324877414847
 30
0.0
 11
1241.532186175927
 21
1185.675122585153
 31
0.0
  0
LINE
  5
70
330
1F
100
AcDbEntity
  8
0-0
  6
Continuous
 62
    92
370
    13
100
AcDbLine
 10
-1182.467813824072
 20
-1061.324877414847
 30
0.0
 11
-1182.467813824072
 21
1185.675122585153
 31
0.0
  0
LINE
  5
71
330
1F
100
AcDbEntity
  8
0-0
  6
JWW_DASHED1
 62
   120
370
     5
100
AcDbLine
 10
-1155.467813824072
 20
-1041.324877414848
 30
0.0
 11
-1155.467813824072
 21
1141.675122585152
 31
0.0
  0
LINE
  5
72
330
1F
100
AcDbEntity
  8
0-0
  6
Continuous
 62
    92
370
    13
100
AcDbLine
 10
404.5321861759278
 20
-1041.324877414848
 30
0.0
 11
404.5321861759278
 21
1141.675122585152
 31
0.0
  0
LINE
  5
73
330
1F
100
AcDbEntity
  8
0-0
  6
JWW_DASHED1
 62
   120
370
     5
100
AcDbLine
 10
-1155.467813824072
 20
1141.675122585152
 30
0.0
 11
-1152.467813824072
 21
1141.675122585152
 31
0.0
  0
LINE
  5
74
330
1F
100
AcDbEntity
  8
0-0
  6
JWW_DASHED1
 62
   120
370
     5
100
AcDbLine
 10
-345.4678138240722
 20
-1041.324877414848
 30
0.0
 11
-345.4678138240722
 21
1141.675122585152
 31
0.0
  0
LINE
  5
75
330
1F
100
AcDbEntity
  8
0-0
  6
JWW_DASHED1
 62
   120
370
     5
100
AcDbLine
 10
434.5321861759278
 20
-1041.324877414848
 30
0.0
 11
434.5321861759278
 21
1141.675122585152
 31
0.0
  0
LINE
  5
76
330
1F
100
AcDbEntity
  8
0-0
  6
JWW_DASHED1
 62
   120
370
     5
100
AcDbLine
 10
1214.532186175928
 20
-1041.324877414848
 30
0.0
 11
1214.532186175928
 21
1141.675122585152
 31
0.0
  0
LINE
  5
77
330
1F
100
AcDbEntity
  8
0-0
  6
JWW_DASHED1
 62
   120
370
     5
100
AcDbLine
 10
1214.532186175928
 20
1141.675122585152
 30
0.0
 11
1211.532186175927
 21
1141.675122585152
 31
0.0
  0
LINE
  5
78
330
1F
100
AcDbEntity
  8
0-0
  6
Continuous
 62
    92
370
    13
100
AcDbLine
 10
-1152.467813824072
 20
1141.675122585152
 30
0.0
 11
1211.532186175927
 21
1141.675122585152
 31
0.0
  0
LINE
  5
79
330
1F
100
AcDbEntity
  8
0-0
  6
Continuous
 62
    92
370
    13
100
AcDbLine
 10
-375.4678138240722
 20
1141.675122585152
 30
0.0
 11
-375.4678138240722
 21
-1041.324877414848
 31
0.0
  0
LINE
  5
7A
330
1F
100
AcDbEntity
  8
0-0
  6
Continuous
 62
     7
370
     9
100
AcDbLine
 10
695.5321861759292
 20
-1033.324877414848
 30
0.0
 11
923.5321861759264
 21
-1033.324877414848
 31
0.0
  0
LINE
  5
7B
330
1F
100
AcDbEntity
  8
0-0
  6
Continuous
 62
     7
370
     9
100
AcDbLine
 10
-84.46781382407082
 20
-1033.324877414847
 30
0.0
 11
143.5321861759265
 21
-1033.324877414847
 31
0.0
  0
LINE
  5
7C
330
1F
100
AcDbEntity
  8
0-0
  6
Continuous
 62
     7
370
     9
100
AcDbLine
 10
-864.4678138240708
 20
-1033.324877414847
 30
0.0
 11
-636.4678138240736
 21
-1033.324877414847
 31
0.0
  0
LINE
  5
7D
330
1F
100
AcDbEntity
  8
0-0
  6
Continuous
 62
    92
370
    13
100
AcDbLine
 10
923.5321861759264
 20
1141.675122585153
 30
0.0
 11
923.5321861759264
 21
-1041.324877414847
 31
0.0
  0
LINE
  5
7E
330
1F
100
AcDbEntity
  8
0-0
  6
Continuous
 62
    92
370
    13
100
AcDbLine
 10
143.5321861759265
 20
1141.675122585153
 30
0.0
 11
143.5321861759265
 21
-1041.324877414847
 31
0.0
  0
LINE
  5
7F
330
1F
100
AcDbEntity
  8
0-0
  6
Continuous
 62
    92
370
    13
100
AcDbLine
 10
-636.4678138240736
 20
1141.675122585153
 30
0.0
 11
-636.4678138240736
 21
-1041.324877414847
 31
0.0
  0
LINE
  5
80
330
1F
100
AcDbEntity
  8
0-0
  6
Continuous
 62
    92
370
    13
100
AcDbLine
 10
695.5321861759292
 20
1141.675122585153
 30
0.0
 11
695.5321861759292
 21
-1041.324877414847
 31
0.0
  0
LINE
  5
81
330
1F
100
AcDbEntity
  8
0-0
  6
Continuous
 62
    92
370
    13
100
AcDbLine
 10
-84.46781382407082
 20
1141.675122585153
 30
0.0
 11
-84.46781382407082
 21
-1041.324877414847
 31
0.0
  0
LINE
  5
82
330
1F
100
AcDbEntity
  8
0-0
  6
Continuous
 62
    92
370
    13
100
AcDbLine
 10
-864.4678138240708
 20
1141.675122585153
 30
0.0
 11
-864.4678138240708
 21
-1041.324877414847
 31
0.0
  0
LINE
  5
83
330
1F
100
AcDbEntity
  8
0-0
  6
Continuous
 62
     7
370
     9
100
AcDbLine
 10
695.5321861759292
 20
1133.675122585153
 30
0.0
 11
923.5321861759264
 21
1133.675122585153
 31
0.0
  0
LINE
  5
84
330
1F
100
AcDbEntity
  8
0-0
  6
Continuous
 62
     7
370
     9
100
AcDbLine
 10
-84.46781382407082
 20
1133.675122585153
 30
0.0
 11
143.5321861759265
 21
1133.675122585153
 31
0.0
  0
LINE
  5
85
330
1F
100
AcDbEntity
  8
0-0
  6
Continuous
 62
     7
370
     9
100
AcDbLine
 10
-864.4678138240708
 20
1133.675122585153
 30
0.0
 11
-636.4678138240736
 21
1133.675122585153
 31
0.0
  0
LINE
  5
86
330
1F
100
AcDbEntity
  8
0-0
  6
JWW_DASHED1
 62
   120
370
     5
100
AcDbLine
 10
-864.4678138240862
 20
1126.718111452318
 30
0.0
 11
-857.5108026912376
 21
1133.675122585166
 31
0.0
  0
LINE
  5
87
330
1F
100
AcDbEntity
  8
0-0
  6
JWW_DASHED1
 62
   120
370
     5
100
AcDbLine
 10
-864.4678138240879
 20
1112.575975830001
 30
0.0
 11
-843.3686670689223
 21
1133.675122585167
 31
0.0
  0
LINE
  5
88
330
1F
100
AcDbEntity
  8
0-0
  6
JWW_DASHED1
 62
   120
370
     5
100
AcDbLine
 10
-864.4678138240896
 20
1098.433840207684
 30
0.0
 11
-829.226531446606
 21
1133.675122585168
 31
0.0
  0
LINE
  5
89
330
1F
100
AcDbEntity
  8
0-0
  6
JWW_DASHED1
 62
   120
370
     5
100
AcDbLine
 10
-864.4678138240921
 20
1084.291704585368
 30
0.0
 11
-815.0843958242898
 21
1133.675122585169
 31
0.0
  0
LINE
  5
8A
330
1F
100
AcDbEntity
  8
0-0
  6
JWW_DASHED1
 62
   120
370
     5
100
AcDbLine
 10
-864.4678138240794
 20
1070.149568963066
 30
0.0
 11
-800.9422602019897
 21
1133.675122585155
 31
0.0
  0
LINE
  5
8B
330
1F
100
AcDbEntity
  8
0-0
  6
JWW_DASHED1
 62
   120
370
     5
100
AcDbLine
 10
-864.4678138240811
 20
1056.007433340749
 30
0.0
 11
-786.8001245796744
 21
1133.675122585157
 31
0.0
  0
LINE
  5
8C
330
1F
100
AcDbEntity
  8
0-0
  6
JWW_DASHED1
 62
   120
370
     5
100
AcDbLine
 10
-864.4678138240699
 20
1041.865297718419
 30
0.0
 11
-772.6579889573377
 21
1133.67512258515
 31
0.0
  0
LINE
  5
8D
330
1F
100
AcDbEntity
  8
0-0
  6
JWW_DASHED1
 62
   120
370
     5
100
AcDbLine
 10
-864.4678138240743
 20
1027.723162096073
 30
0.0
 11
-758.5158533349916
 21
1133.675122585155
 31
0.0
  0
LINE
  5
8E
330
1F
100
AcDbEntity
  8
0-0
  6
JWW_DASHED1
 62
   120
370
     5
100
AcDbLine
 10
-864.467813824076
 20
1013.581026473757
 30
0.0
 11
-744.3737177126745
 21
1133.675122585158
 31
0.0
  0
LINE
  5
8F
330
1F
100
AcDbEntity
  8
0-0
  6
JWW_DASHED1
 62
   120
370
     5
100
AcDbLine
 10
-864.4678138240777
 20
999.4388908514404
 30
0.0
 11
-730.2315820903583
 21
1133.67512258516
 31
0.0
  0
LINE
  5
90
330
1F
100
AcDbEntity
  8
0-0
  6
JWW_DASHED1
 62
   120
370
     5
100
AcDbLine
 10
-864.4678138240794
 20
985.2967552291237
 30
0.0
 11
-716.0894464680421
 21
1133.675122585162
 31
0.0
  0
LINE
  5
91
330
1F
100
AcDbEntity
  8
0-0
  6
JWW_DASHED1
 62
   120
370
     5
100
AcDbLine
 10
-864.4678138240828
 20
971.1546196068066
 30
0.0
 11
-701.9473108457361
 21
1133.675122585153
 31
0.0
  0
LINE
  5
92
330
1F
100
AcDbEntity
  8
0-0
  6
JWW_DASHED1
 62
   120
370
     5
100
AcDbLine
 10
-864.4678138240845
 20
957.01248398449
 30
0.0
 11
-687.8051752234198
 21
1133.675122585154
 31
0.0
  0
LINE
  5
93
330
1F
100
AcDbEntity
  8
0-0
  6
JWW_DASHED1
 62
   120
370
     5
100
AcDbLine
 10
-864.4678138240862
 20
942.8703483621733
 30
0.0
 11
-673.6630396011036
 21
1133.675122585156
 31
0.0
  0
LINE
  5
94
330
1F
100
AcDbEntity
  8
0-0
  6
JWW_DASHED1
 62
   120
370
     5
100
AcDbLine
 10
-864.4678138240887
 20
928.7282127398566
 30
0.0
 11
-659.5209039787882
 21
1133.675122585157
 31
0.0
  0
LINE
  5
95
330
1F
100
AcDbEntity
  8
0-0
  6
JWW_DASHED1
 62
   120
370
     5
100
AcDbLine
 10
-864.4678138240913
 20
914.58607711754
 30
0.0
 11
-645.3787683564728
 21
1133.675122585159
 31
0.0
  0
LINE
  5
96
330
1F
100
AcDbEntity
  8
0-0
  6
JWW_DASHED1
 62
   120
370
     5
100
AcDbLine
 10
-864.4678138240794
 20
900.4439414952369
 30
0.0
 11
-636.4678138240658
 21
1128.44394149525
 31
0.0
  0
LINE
  5
97
330
1F
100
AcDbEntity
  8
0-0
  6
JWW_DASHED1
 62
   120
370
     5
100
AcDbLine
 10
-864.4678138240811
 20
886.3018058729203
 30
0.0
 11
-636.4678138240685
 21
1114.301805872933
 31
0.0
  0
LINE
  5
98
330
1F
100
AcDbEntity
  8
0-0
  6
JWW_DASHED1
 62
   120
370
     5
100
AcDbLine
 10
-864.4678138240674
 20
872.1596702506195
 30
0.0
 11
-636.4678138240702
 21
1100.159670250617
 31
0.0
  0
LINE
  5
99
330
1F
100
AcDbEntity
  8
0-0
  6
JWW_DASHED1
 62
   120
370
     5
100
AcDbLine
 10
-864.4678138240699
 20
858.0175346283028
 30
0.0
 11
-636.4678138240736
 21
1086.0175346283
 31
0.0
  0
LINE
  5
9A
330
1F
100
AcDbEntity
  8
0-0
  6
JWW_DASHED1
 62
   120
370
     5
100
AcDbLine
 10
-864.4678138240726
 20
843.8753990059856
 30
0.0
 11
-636.4678138240753
 21
1071.875399005983
 31
0.0
  0
LINE
  5
9B
330
1F
100
AcDbEntity
  8
0-0
  6
JWW_DASHED1
 62
   120
370
     5
100
AcDbLine
 10
-864.4678138240726
 20
829.7332633836711
 30
0.0
 11
-636.467813824077
 21
1057.733263383667
 31
0.0
  0
LINE
  5
9C
330
1F
100
AcDbEntity
  8
0-0
  6
JWW_DASHED1
 62
   120
370
     5
100
AcDbLine
 10
-864.467813824075
 20
815.5911277613541
 30
0.0
 11
-636.4678138240787
 21
1043.59112776135
 31
0.0
  0
LINE
  5
9D
330
1F
100
AcDbEntity
  8
0-0
  6
JWW_DASHED1
 62
   120
370
     5
100
AcDbLine
 10
-864.4678138240777
 20
801.4489921390374
 30
0.0
 11
-636.4678138240812
 21
1029.448992139033
 31
0.0
  0
LINE
  5
9E
330
1F
100
AcDbEntity
  8
0-0
  6
JWW_DASHED1
 62
   120
370
     5
100
AcDbLine
 10
-864.4678138240794
 20
787.3068565167207
 30
0.0
 11
-636.4678138240838
 21
1015.306856516717
 31
0.0
  0
LINE
  5
9F
330
1F
100
AcDbEntity
  8
0-0
  6
JWW_DASHED1
 62
   120
370
     5
100
AcDbLine
 10
-864.4678138240811
 20
773.1647208944041
 30
0.0
 11
-636.4678138240702
 21
1001.164720894416
 31
0.0
  0
LINE
  5
A0
330
1F
100
AcDbEntity
  8
0-0
  6
JWW_DASHED1
 62
   120
370
     5
100
AcDbLine
 10
-864.4678138240828
 20
759.0225852720879
 30
0.0
 11
-636.4678138240719
 21
987.0225852720991
 31
0.0
  0
LINE
  5
A1
330
1F
100
AcDbEntity
  8
0-0
  6
JWW_DASHED1
 62
   120
370
     5
100
AcDbLine
 10
-864.4678138240862
 20
744.8804496497708
 30
0.0
 11
-636.4678138240736
 21
972.8804496497826
 31
0.0
  0
LINE
  5
A2
330
1F
100
AcDbEntity
  8
0-0
  6
JWW_DASHED1
 62
   120
370
     5
100
AcDbLine
 10
-864.4678138240879
 20
730.7383140274545
 30
0.0
 11
-636.4678138240761
 21
958.7383140274659
 31
0.0
  0
LINE
  5
A3
330
1F
100
AcDbEntity
  8
0-0
  6
JWW_DASHED1
 62
   120
370
     5
100
AcDbLine
 10
-864.4678138240921
 20
716.596178405108
 30
0.0
 11
-636.4678138240804
 21
944.5961784051194
 31
0.0
  0
LINE
  5
A4
330
1F
100
AcDbEntity
  8
0-0
  6
JWW_DASHED1
 62
   120
370
     5
100
AcDbLine
 10
-864.4678138240682
 20
702.4540427827906
 30
0.0
 11
-636.467813824071
 21
930.4540427827874
 31
0.0
  0
LINE
  5
A5
330
1F
100
AcDbEntity
  8
0-0
  6
JWW_DASHED1
 62
   120
370
     5
100
AcDbLine
 10
-864.4678138240699
 20
688.3119071604739
 30
0.0
 11
-636.4678138240727
 21
916.3119071604712
 31
0.0
  0
LINE
  5
A6
330
1F
100
AcDbEntity
  8
0-0
  6
JWW_DASHED1
 62
   120
370
     5
100
AcDbLine
 10
-864.4678138240726
 20
674.1697715381572
 30
0.0
 11
-636.4678138240753
 21
902.169771538154
 31
0.0
  0
LINE
  5
A7
330
1F
100
AcDbEntity
  8
0-0
  6
JWW_DASHED1
 62
   120
370
     5
100
AcDbLine
 10
-864.4678138240708
 20
660.027635915844
 30
0.0
 11
-636.4678138240753
 21
888.0276359158391
 31
0.0
  0
LINE
  5
A8
330
1F
100
AcDbEntity
  8
0-0
  6
JWW_DASHED1
 62
   120
370
     5
100
AcDbLine
 10
-864.4678138240733
 20
645.8855002935269
 30
0.0
 11
-636.4678138240787
 21
873.885500293522
 31
0.0
  0
LINE
  5
A9
330
1F
100
AcDbEntity
  8
0-0
  6
JWW_DASHED1
 62
   120
370
     5
100
AcDbLine
 10
-864.467813824076
 20
631.7433646712097
 30
0.0
 11
-636.4678138240804
 21
859.7433646712058
 31
0.0
  0
LINE
  5
AA
330
1F
100
AcDbEntity
  8
0-0
  6
JWW_DASHED1
 62
   120
370
     5
100
AcDbLine
 10
-864.4678138240777
 20
617.6012290488932
 30
0.0
 11
-636.4678138240821
 21
845.6012290488887
 31
0.0
  0
LINE
  5
AB
330
1F
100
AcDbEntity
  8
0-0
  6
JWW_DASHED1
 62
   120
370
     5
100
AcDbLine
 10
-864.4678138240811
 20
603.459093426576
 30
0.0
 11
-636.4678138240685
 21
831.4590934265882
 31
0.0
  0
LINE
  5
AC
330
1F
100
AcDbEntity
  8
0-0
  6
JWW_DASHED1
 62
   120
370
     5
100
AcDbLine
 10
-864.4678138240828
 20
589.3169578042598
 30
0.0
 11
-636.467813824071
 21
817.3169578042712
 31
0.0
  0
LINE
  5
AD
330
1F
100
AcDbEntity
  8
0-0
  6
JWW_DASHED1
 62
   120
370
     5
100
AcDbLine
 10
-864.4678138240845
 20
575.1748221819436
 30
0.0
 11
-636.4678138240736
 21
803.1748221819545
 31
0.0
  0
LINE
  5
AE
330
1F
100
AcDbEntity
  8
0-0
  6
JWW_DASHED1
 62
   120
370
     5
100
AcDbLine
 10
-864.4678138240862
 20
561.0326865596265
 30
0.0
 11
-636.4678138240753
 21
789.0326865596383
 31
0.0
  0
LINE
  5
AF
330
1F
100
AcDbEntity
  8
0-0
  6
JWW_DASHED1
 62
   120
370
     5
100
AcDbLine
 10
-864.4678138240896
 20
546.8905509373094
 30
0.0
 11
-636.467813824077
 21
774.8905509373212
 31
0.0
  0
LINE
  5
B0
330
1F
100
AcDbEntity
  8
0-0
  6
JWW_DASHED1
 62
   120
370
     5
100
AcDbLine
 10
-864.4678138240794
 20
532.7484153150046
 30
0.0
 11
-636.4678138240668
 21
760.7484153150174
 31
0.0
  0
LINE
  5
B1
330
1F
100
AcDbEntity
  8
0-0
  6
JWW_DASHED1
 62
   120
370
     5
100
AcDbLine
 10
-864.4678138240819
 20
518.6062796926876
 30
0.0
 11
-636.4678138240685
 21
746.6062796927007
 31
0.0
  0
LINE
  5
B2
330
1F
100
AcDbEntity
  8
0-0
  6
JWW_DASHED1
 62
   120
370
     5
100
AcDbLine
 10
-864.4678138240691
 20
504.4641440703867
 30
0.0
 11
-636.4678138240719
 21
732.4641440703836
 31
0.0
  0
LINE
  5
B3
330
1F
100
AcDbEntity
  8
0-0
  6
JWW_DASHED1
 62
   120
370
     5
100
AcDbLine
 10
-864.4678138240708
 20
490.3220084480697
 30
0.0
 11
-636.4678138240736
 21
718.3220084480673
 31
0.0
  0
LINE
  5
B4
330
1F
100
AcDbEntity
  8
0-0
  6
JWW_DASHED1
 62
   120
370
     5
100
AcDbLine
 10
-864.4678138240733
 20
476.1798728257526
 30
0.0
 11
-636.4678138240753
 21
704.1798728257503
 31
0.0
  0
LINE
  5
B5
330
1F
100
AcDbEntity
  8
0-0
  6
JWW_DASHED1
 62
   120
370
     5
100
AcDbLine
 10
-864.4678138240708
 20
462.0377372034406
 30
0.0
 11
-636.4678138240753
 21
690.0377372034366
 31
0.0
  0
LINE
  5
B6
330
1F
100
AcDbEntity
  8
0-0
  6
JWW_DASHED1
 62
   120
370
     5
100
AcDbLine
 10
-864.4678138240733
 20
447.8956015811235
 30
0.0
 11
-636.467813824077
 21
675.89560158112
 31
0.0
  0
LINE
  5
B7
330
1F
100
AcDbEntity
  8
0-0
  6
JWW_DASHED1
 62
   120
370
     5
100
AcDbLine
 10
-864.467813824075
 20
433.7534659588073
 30
0.0
 11
-636.4678138240787
 21
661.7534659588033
 31
0.0
  0
LINE
  5
B8
330
1F
100
AcDbEntity
  8
0-0
  6
JWW_DASHED1
 62
   120
370
     5
100
AcDbLine
 10
-864.4678138240768
 20
419.6113303364911
 30
0.0
 11
-636.4678138240821
 21
647.6113303364862
 31
0.0
  0
LINE
  5
B9
330
1F
100
AcDbEntity
  8
0-0
  6
JWW_DASHED1
 62
   120
370
     5
100
AcDbLine
 10
-864.4678138240794
 20
405.469194714174
 30
0.0
 11
-636.4678138240675
 21
633.4691947141857
 31
0.0
  0
LINE
  5
BA
330
1F
100
AcDbEntity
  8
0-0
  6
JWW_DASHED1
 62
   120
370
     5
100
AcDbLine
 10
-864.4678138240862
 20
391.3270590917984
 30
0.0
 11
-636.4678138240736
 21
619.3270590918103
 31
0.0
  0
LINE
  5
BB
330
1F
100
AcDbEntity
  8
0-0
  6
JWW_DASHED1
 62
   120
370
     5
100
AcDbLine
 10
-864.4678138240879
 20
377.1849234694818
 30
0.0
 11
-636.467813824077
 21
605.1849234694931
 31
0.0
  0
LINE
  5
BC
330
1F
100
AcDbEntity
  8
0-0
  6
JWW_DASHED1
 62
   120
370
     5
100
AcDbLine
 10
-864.4678138240794
 20
363.0427878471754
 30
0.0
 11
-636.4678138240668
 21
591.0427878471885
 31
0.0
  0
LINE
  5
BD
330
1F
100
AcDbEntity
  8
0-0
  6
JWW_DASHED1
 62
   120
370
     5
100
AcDbLine
 10
-864.4678138240819
 20
348.9006522248587
 30
0.0
 11
-636.4678138240693
 21
576.9006522248714
 31
0.0
  0
LINE
  5
BE
330
1F
100
AcDbEntity
  8
0-0
  6
JWW_DASHED1
 62
   120
370
     5
100
AcDbLine
 10
-864.4678138240691
 20
334.7585166025574
 30
0.0
 11
-636.4678138240719
 21
562.7585166025542
 31
0.0
  0
LINE
  5
BF
330
1F
100
AcDbEntity
  8
0-0
  6
JWW_DASHED1
 62
   120
370
     5
100
AcDbLine
 10
-864.4678138240708
 20
320.6163809802404
 30
0.0
 11
-636.4678138240736
 21
548.6163809802381
 31
0.0
  0
LINE
  5
C0
330
1F
100
AcDbEntity
  8
0-0
  6
JWW_DASHED1
 62
   120
370
     5
100
AcDbLine
 10
-864.4678138240733
 20
306.4742453579237
 30
0.0
 11
-636.4678138240753
 21
534.4742453579214
 31
0.0
  0
LINE
  5
C1
330
1F
100
AcDbEntity
  8
0-0
  6
JWW_DASHED1
 62
   120
370
     5
100
AcDbLine
 10
-864.4678138240691
 20
292.3321097356134
 30
0.0
 11
-636.4678138240736
 21
520.332109735609
 31
0.0
  0
LINE
  5
C2
330
1F
100
AcDbEntity
  8
0-0
  6
JWW_DASHED1
 62
   120
370
     5
100
AcDbLine
 10
-864.4678138240716
 20
278.1899741132963
 30
0.0
 11
-636.4678138240753
 21
506.1899741132924
 31
0.0
  0
LINE
  5
C3
330
1F
100
AcDbEntity
  8
0-0
  6
JWW_DASHED1
 62
   120
370
     5
100
AcDbLine
 10
-864.4678138240733
 20
264.0478384909801
 30
0.0
 11
-636.4678138240787
 21
492.0478384909752
 31
0.0
  0
LINE
  5
C4
330
1F
100
AcDbEntity
  8
0-0
  6
JWW_DASHED1
 62
   120
370
     5
100
AcDbLine
 10
-864.467813824076
 20
249.905702868663
 30
0.0
 11
-636.4678138240804
 21
477.9057028686582
 31
0.0
  0
LINE
  5
C5
330
1F
100
AcDbEntity
  8
0-0
  6
JWW_DASHED1
 62
   120
370
     5
100
AcDbLine
 10
-864.4678138240785
 20
235.7635672463459
 30
0.0
 11
-636.4678138240829
 21
463.7635672463415
 31
0.0
  0
LINE
  5
C6
330
1F
100
AcDbEntity
  8
0-0
  6
JWW_DASHED1
 62
   120
370
     5
100
AcDbLine
 10
-864.4678138240811
 20
221.6214316240293
 30
0.0
 11
-636.4678138240685
 21
449.6214316240415
 31
0.0
  0
LINE
  5
C7
330
1F
100
AcDbEntity
  8
0-0
  6
JWW_DASHED1
 62
   120
370
     5
100
AcDbLine
 10
-864.4678138240828
 20
207.479296001713
 30
0.0
 11
-636.467813824071
 21
435.4792960017244
 31
0.0
  0
LINE
  5
C8
330
1F
100
AcDbEntity
  8
0-0
  6
JWW_DASHED1
 62
   120
370
     5
100
AcDbLine
 10
-864.4678138240845
 20
193.3371603793964
 30
0.0
 11
-636.4678138240736
 21
421.3371603794077
 31
0.0
  0
LINE
  5
C9
330
1F
100
AcDbEntity
  8
0-0
  6
JWW_DASHED1
 62
   120
370
     5
100
AcDbLine
 10
-864.4678138240862
 20
179.1950247570797
 30
0.0
 11
-636.4678138240753
 21
407.1950247570907
 31
0.0
  0
LINE
  5
CA
330
1F
100
AcDbEntity
  8
0-0
  6
JWW_DASHED1
 62
   120
370
     5
100
AcDbLine
 10
-864.4678138240811
 20
165.0528891347712
 30
0.0
 11
-636.4678138240668
 21
393.0528891347847
 31
0.0
  0
LINE
  5
CB
330
1F
100
AcDbEntity
  8
0-0
  6
JWW_DASHED1
 62
   120
370
     5
100
AcDbLine
 10
-864.4678138240828
 20
150.9107535124541
 30
0.0
 11
-636.4678138240702
 21
378.9107535124675
 31
0.0
  0
LINE
  5
CC
330
1F
100
AcDbEntity
  8
0-0
  6
JWW_DASHED1
 62
   120
370
     5
100
AcDbLine
 10
-864.4678138240691
 20
136.7686178901536
 30
0.0
 11
-636.4678138240719
 21
364.7686178901509
 31
0.0
  0
LINE
  5
CD
330
1F
100
AcDbEntity
  8
0-0
  6
JWW_DASHED1
 62
   120
370
     5
100
AcDbLine
 10
-864.4678138240708
 20
122.6264822678374
 30
0.0
 11
-636.4678138240744
 21
350.6264822678338
 31
0.0
  0
LINE
  5
CE
330
1F
100
AcDbEntity
  8
0-0
  6
JWW_DASHED1
 62
   120
370
     5
100
AcDbLine
 10
-864.4678138240733
 20
108.4843466455203
 30
0.0
 11
-636.4678138240761
 21
336.4843466455176
 31
0.0
  0
LINE
  5
CF
330
1F
100
AcDbEntity
  8
0-0
  6
JWW_DASHED1
 62
   120
370
     5
100
AcDbLine
 10
-864.467813824076
 20
94.34221102320322
 30
0.0
 11
-636.4678138240787
 21
322.3422110232005
 31
0.0
  0
LINE
  5
D0
330
1F
100
AcDbEntity
  8
0-0
  6
JWW_DASHED1
 62
   120
370
     5
100
AcDbLine
 10
-864.4678138240708
 20
80.20007540089381
 30
0.0
 11
-636.4678138240753
 21
308.2000754008898
 31
0.0
  0
LINE
  5
D1
330
1F
100
AcDbEntity
  8
0-0
  6
JWW_DASHED1
 62
   120
370
     5
100
AcDbLine
 10
-864.4678138240777
 20
66.05793977851832
 30
0.0
 11
-636.4678138240804
 21
294.0579397785148
 31
0.0
  0
LINE
  5
D2
330
1F
100
AcDbEntity
  8
0-0
  6
JWW_DASHED1
 62
   120
370
     5
100
AcDbLine
 10
-864.4678138240794
 20
51.91580415620123
 30
0.0
 11
-636.4678138240675
 21
279.9158041562134
 31
0.0
  0
LINE
  5
D3
330
1F
100
AcDbEntity
  8
0-0
  6
JWW_DASHED1
 62
   120
370
     5
100
AcDbLine
 10
-864.4678138240811
 20
37.773668533885
 30
0.0
 11
-636.4678138240702
 21
265.7736685338963
 31
0.0
  0
LINE
  5
D4
330
1F
100
AcDbEntity
  8
0-0
  6
JWW_DASHED1
 62
   120
370
     5
100
AcDbLine
 10
-864.4678138240836
 20
23.63153291156877
 30
0.0
 11
-636.4678138240719
 21
251.6315329115797
 31
0.0
  0
LINE
  5
D5
330
1F
100
AcDbEntity
  8
0-0
  6
JWW_DASHED1
 62
   120
370
     5
100
AcDbLine
 10
-864.4678138240862
 20
9.489397289251684
 30
0.0
 11
-636.4678138240753
 21
237.4893972892626
 31
0.0
  0
LINE
  5
D6
330
1F
100
AcDbEntity
  8
0-0
  6
JWW_DASHED1
 62
   120
370
     5
100
AcDbLine
 10
-864.4678138240811
 20
-4.652738333058153
 30
0.0
 11
-636.4678138240675
 21
223.3472616669553
 31
0.0
  0
LINE
  5
D7
330
1F
100
AcDbEntity
  8
0-0
  6
JWW_DASHED1
 62
   120
370
     5
100
AcDbLine
 10
-864.4678138240828
 20
-18.79487395537481
 30
0.0
 11
-636.4678138240702
 21
209.2051260446382
 31
0.0
  0
LINE
  5
D8
330
1F
100
AcDbEntity
  8
0-0
  6
JWW_DASHED1
 62
   120
370
     5
100
AcDbLine
 10
-864.4678138240691
 20
-32.9370095776757
 30
0.0
 11
-636.4678138240719
 21
195.0629904223216
 31
0.0
  0
LINE
  5
D9
330
1F
100
AcDbEntity
  8
0-0
  6
JWW_DASHED1
 62
   120
370
     5
100
AcDbLine
 10
-864.4678138240726
 20
-47.07914519999235
 30
0.0
 11
-636.4678138240753
 21
180.9208548000045
 31
0.0
  0
LINE
  5
DA
330
1F
100
AcDbEntity
  8
0-0
  6
JWW_DASHED1
 62
   120
370
     5
100
AcDbLine
 10
-864.4678138240743
 20
-61.22128082230901
 30
0.0
 11
-636.467813824077
 21
166.7787191776878
 31
0.0
  0
LINE
  5
DB
330
1F
100
AcDbEntity
  8
0-0
  6
JWW_DASHED1
 62
   120
370
     5
100
AcDbLine
 10
-864.467813824076
 20
-75.36341644462567
 30
0.0
 11
-636.4678138240787
 21
152.6365835553712
 31
0.0
  0
LINE
  5
DC
330
1F
100
AcDbEntity
  8
0-0
  6
JWW_DASHED1
 62
   120
370
     5
100
AcDbLine
 10
-864.4678138240699
 20
-89.50555206693423
 30
0.0
 11
-636.4678138240736
 21
138.4944479330618
 31
0.0
  0
LINE
  5
DD
330
1F
100
AcDbEntity
  8
0-0
  6
JWW_DASHED1
 62
   120
370
     5
100
AcDbLine
 10
-864.4678138240716
 20
-103.6476876892505
 30
0.0
 11
-636.4678138240761
 21
124.3523123107455
 31
0.0
  0
LINE
  5
DE
330
1F
100
AcDbEntity
  8
0-0
  6
JWW_DASHED1
 62
   120
370
     5
100
AcDbLine
 10
-864.4678138240743
 20
-117.7898233115671
 30
0.0
 11
-636.4678138240787
 21
110.2101766884284
 31
0.0
  0
LINE
  5
DF
330
1F
100
AcDbEntity
  8
0-0
  6
JWW_DASHED1
 62
   120
370
     5
100
AcDbLine
 10
-864.467813824076
 20
-131.9319589338838
 30
0.0
 11
-636.4678138240804
 21
96.06804106611136
 31
0.0
  0
LINE
  5
E0
330
1F
100
AcDbEntity
  8
0-0
  6
JWW_DASHED1
 62
   120
370
     5
100
AcDbLine
 10
-864.4678138240785
 20
-146.0740945562009
 30
0.0
 11
-636.4678138240668
 21
81.9259054438109
 31
0.0
  0
LINE
  5
E1
330
1F
100
AcDbEntity
  8
0-0
  6
JWW_DASHED1
 62
   120
370
     5
100
AcDbLine
 10
-864.4678138240811
 20
-160.2162301785175
 30
0.0
 11
-636.4678138240685
 21
67.78376982149467
 31
0.0
  0
LINE
  5
E2
330
1F
100
AcDbEntity
  8
0-0
  6
JWW_DASHED1
 62
   120
370
     5
100
AcDbLine
 10
-864.4678138240828
 20
-174.3583658008346
 30
0.0
 11
-636.467813824071
 21
53.64163419917759
 31
0.0
  0
LINE
  5
E3
330
1F
100
AcDbEntity
  8
0-0
  6
JWW_DASHED1
 62
   120
370
     5
100
AcDbLine
 10
-864.4678138240845
 20
-188.5005014231508
 30
0.0
 11
-636.4678138240736
 21
39.4994985768605
 31
0.0
  0
LINE
  5
E4
330
1F
100
AcDbEntity
  8
0-0
  6
JWW_DASHED1
 62
   120
370
     5
100
AcDbLine
 10
-864.4678138240811
 20
-202.6426370454611
 30
0.0
 11
-636.4678138240685
 21
25.35736295455152
 31
0.0
  0
LINE
  5
E5
330
1F
100
AcDbEntity
  8
0-0
  6
JWW_DASHED1
 62
   120
370
     5
100
AcDbLine
 10
-864.4678138240828
 20
-216.7847726677782
 30
0.0
 11
-636.4678138240702
 21
11.21522733223486
 31
0.0
  0
LINE
  5
E6
330
1F
100
AcDbEntity
  8
0-0
  6
JWW_DASHED1
 62
   120
370
     5
100
AcDbLine
 10
-864.4678138240699
 20
-230.9269082900795
 30
0.0
 11
-636.4678138240727
 21
-2.926908290082224
 31
0.0
  0
LINE
  5
E7
330
1F
100
AcDbEntity
  8
0-0
  6
JWW_DASHED1
 62
   120
370
     5
100
AcDbLine
 10
-864.4678138240726
 20
-245.0690439123962
 30
0.0
 11
-636.4678138240744
 21
-17.06904391239846
 31
0.0
  0
LINE
  5
E8
330
1F
100
AcDbEntity
  8
0-0
  6
JWW_DASHED1
 62
   120
370
     5
100
AcDbLine
 10
-864.4678138240691
 20
-259.2111795347623
 30
0.0
 11
-636.4678138240727
 21
-31.21117953476585
 31
0.0
  0
LINE
  5
E9
330
1F
100
AcDbEntity
  8
0-0
  6
JWW_DASHED1
 62
   120
370
     5
100
AcDbLine
 10
-864.4678138240716
 20
-273.3533151570794
 30
0.0
 11
-636.4678138240753
 21
-45.35331515708251
 31
0.0
  0
LINE
  5
EA
330
1F
100
AcDbEntity
  8
0-0
  6
JWW_DASHED1
 62
   120
370
     5
100
AcDbLine
 10
-864.4678138240733
 20
-287.4954507793956
 30
0.0
 11
-636.467813824077
 21
-59.49545077939959
 31
0.0
  0
LINE
  5
EB
330
1F
100
AcDbEntity
  8
0-0
  6
JWW_DASHED1
 62
   120
370
     5
100
AcDbLine
 10
-864.467813824075
 20
-301.6375864017118
 30
0.0
 11
-636.4678138240804
 21
-73.63758640171667
 31
0.0
  0
LINE
  5
EC
330
1F
100
AcDbEntity
  8
0-0
  6
JWW_DASHED1
 62
   120
370
     5
100
AcDbLine
 10
-864.4678138240777
 20
-315.7797220240289
 30
0.0
 11
-636.4678138240658
 21
-87.77972202401713
 31
0.0
  0
LINE
  5
ED
330
1F
100
AcDbEntity
  8
0-0
  6
JWW_DASHED1
 62
   120
370
     5
100
AcDbLine
 10
-864.4678138240794
 20
-329.9218576463455
 30
0.0
 11
-636.4678138240675
 21
-101.9218576463334
 31
0.0
  0
LINE
  5
EE
330
1F
100
AcDbEntity
  8
0-0
  6
JWW_DASHED1
 62
   120
370
     5
100
AcDbLine
 10
-864.4678138240819
 20
-344.0639932686618
 30
0.0
 11
-636.4678138240702
 21
-116.0639932686504
 31
0.0
  0
LINE
  5
EF
330
1F
100
AcDbEntity
  8
0-0
  6
JWW_DASHED1
 62
   120
370
     5
100
AcDbLine
 10
-864.4678138240845
 20
-358.2061288909789
 30
0.0
 11
-636.4678138240727
 21
-130.2061288909671
 31
0.0
  0
LINE
  5
F0
330
1F
100
AcDbEntity
  8
0-0
  6
JWW_DASHED1
 62
   120
370
     5
100
AcDbLine
 10
-864.4678138240811
 20
-372.3482645132904
 30
0.0
 11
-636.4678138240675
 21
-144.3482645132769
 31
0.0
  0
LINE
  5
F1
330
1F
100
AcDbEntity
  8
0-0
  6
JWW_DASHED1
 62
   120
370
     5
100
AcDbLine
 10
-864.4678138240836
 20
-386.4904001356075
 30
0.0
 11
-636.4678138240702
 21
-158.490400135594
 31
0.0
  0
LINE
  5
F2
330
1F
100
AcDbEntity
  8
0-0
  6
JWW_DASHED1
 62
   120
370
     5
100
AcDbLine
 10
-864.4678138240708
 20
-400.6325357579084
 30
0.0
 11
-636.4678138240727
 21
-172.6325357579107
 31
0.0
  0
LINE
  5
F3
330
1F
100
AcDbEntity
  8
0-0
  6
JWW_DASHED1
 62
   120
370
     5
100
AcDbLine
 10
-864.4678138240726
 20
-414.7746713802255
 30
0.0
 11
-636.4678138240753
 21
-186.7746713802278
 31
0.0
  0
LINE
  5
F4
330
1F
100
AcDbEntity
  8
0-0
  6
JWW_DASHED1
 62
   120
370
     5
100
AcDbLine
 10
-864.467813824075
 20
-428.9168070025426
 30
0.0
 11
-636.467813824077
 21
-200.9168070025449
 31
0.0
  0
LINE
  5
F5
330
1F
100
AcDbEntity
  8
0-0
  6
JWW_DASHED1
 62
   120
370
     5
100
AcDbLine
 10
-864.4678138240777
 20
-443.0589426248592
 30
0.0
 11
-636.4678138240795
 21
-215.0589426248615
 31
0.0
  0
LINE
  5
F6
330
1F
100
AcDbEntity
  8
0-0
  6
JWW_DASHED1
 62
   120
370
     5
100
AcDbLine
 10
-864.4678138240674
 20
-457.2010782471643
 30
0.0
 11
-636.4678138240719
 21
-229.2010782471688
 31
0.0
  0
LINE
  5
F7
330
1F
100
AcDbEntity
  8
0-0
  6
JWW_DASHED1
 62
   120
370
     5
100
AcDbLine
 10
-864.4678138240708
 20
-471.343213869481
 30
0.0
 11
-636.4678138240744
 21
-243.343213869485
 31
0.0
  0
LINE
  5
F8
330
1F
100
AcDbEntity
  8
0-0
  6
JWW_DASHED1
 62
   120
370
     5
100
AcDbLine
 10
-864.4678138240726
 20
-485.4853494917981
 30
0.0
 11
-636.4678138240761
 21
-257.4853494918017
 31
0.0
  0
LINE
  5
F9
330
1F
100
AcDbEntity
  8
0-0
  6
JWW_DASHED1
 62
   120
370
     5
100
AcDbLine
 10
-864.4678138240743
 20
-499.6274851141143
 30
0.0
 11
-636.4678138240787
 21
-271.6274851141184
 31
0.0
  0
LINE
  5
FA
330
1F
100
AcDbEntity
  8
0-0
  6
JWW_DASHED1
 62
   120
370
     5
100
AcDbLine
 10
-864.467813824076
 20
-513.7696207364306
 30
0.0
 11
-636.467813824065
 21
-285.7696207364197
 31
0.0
  0
LINE
  5
FB
330
1F
100
AcDbEntity
  8
0-0
  6
JWW_DASHED1
 62
   120
370
     5
100
AcDbLine
 10
-864.4678138240785
 20
-527.9117563587477
 30
0.0
 11
-636.4678138240675
 21
-299.9117563587367
 31
0.0
  0
LINE
  5
FC
330
1F
100
AcDbEntity
  8
0-0
  6
JWW_DASHED1
 62
   120
370
     5
100
AcDbLine
 10
-864.4678138240811
 20
-542.0538919810647
 30
0.0
 11
-636.4678138240702
 21
-314.0538919810534
 31
0.0
  0
LINE
  5
FD
330
1F
100
AcDbEntity
  8
0-0
  6
JWW_DASHED1
 62
   120
370
     5
100
AcDbLine
 10
-864.4678138240828
 20
-556.1960276033814
 30
0.0
 11
-636.4678138240719
 21
-328.1960276033701
 31
0.0
  0
LINE
  5
FE
330
1F
100
AcDbEntity
  8
0-0
  6
JWW_DASHED1
 62
   120
370
     5
100
AcDbLine
 10
-864.4678138240828
 20
-570.3381632256946
 30
0.0
 11
-636.4678138240685
 21
-342.3381632256816
 31
0.0
  0
LINE
  5
FF
330
1F
100
AcDbEntity
  8
0-0
  6
JWW_DASHED1
 62
   120
370
     5
100
AcDbLine
 10
-864.4678138240845
 20
-584.4802988480117
 30
0.0
 11
-636.467813824071
 21
-356.4802988479983
 31
0.0
  0
LINE
  5
100
330
1F
100
AcDbEntity
  8
0-0
  6
JWW_DASHED1
 62
   120
370
     5
100
AcDbLine
 10
-864.4678138240708
 20
-598.6224344703122
 30
0.0
 11
-636.4678138240736
 21
-370.6224344703153
 31
0.0
  0
LINE
  5
101
330
1F
100
AcDbEntity
  8
0-0
  6
JWW_DASHED1
 62
   120
370
     5
100
AcDbLine
 10
-864.4678138240726
 20
-612.7645700926292
 30
0.0
 11
-636.4678138240761
 21
-384.764570092632
 31
0.0
  0
LINE
  5
102
330
1F
100
AcDbEntity
  8
0-0
  6
JWW_DASHED1
 62
   120
370
     5
100
AcDbLine
 10
-864.4678138240777
 20
-626.9067057149757
 30
0.0
 11
-636.4678138240804
 21
-398.9067057149781
 31
0.0
  0
LINE
  5
103
330
1F
100
AcDbEntity
  8
0-0
  6
JWW_DASHED1
 62
   120
370
     5
100
AcDbLine
 10
-864.4678138240691
 20
-641.0488413373087
 30
0.0
 11
-636.4678138240736
 21
-413.0488413373131
 31
0.0
  0
LINE
  5
104
330
1F
100
AcDbEntity
  8
0-0
  6
JWW_DASHED1
 62
   120
370
     5
100
AcDbLine
 10
-864.4678138240708
 20
-655.1909769596252
 30
0.0
 11
-636.4678138240753
 21
-427.1909769596297
 31
0.0
  0
LINE
  5
105
330
1F
100
AcDbEntity
  8
0-0
  6
JWW_DASHED1
 62
   120
370
     5
100
AcDbLine
 10
-864.4678138240726
 20
-669.3331125819419
 30
0.0
 11
-636.467813824077
 21
-441.3331125819464
 31
0.0
  0
LINE
  5
106
330
1F
100
AcDbEntity
  8
0-0
  6
JWW_DASHED1
 62
   120
370
     5
100
AcDbLine
 10
-864.467813824075
 20
-683.4752482042586
 30
0.0
 11
-636.4678138240641
 21
-455.4752482042477
 31
0.0
  0
LINE
  5
107
330
1F
100
AcDbEntity
  8
0-0
  6
JWW_DASHED1
 62
   120
370
     5
100
AcDbLine
 10
-864.4678138240777
 20
-697.6173838265756
 30
0.0
 11
-636.4678138240658
 21
-469.6173838265639
 31
0.0
  0
LINE
  5
108
330
1F
100
AcDbEntity
  8
0-0
  6
JWW_DASHED1
 62
   120
370
     5
100
AcDbLine
 10
-864.4678138240802
 20
-711.7595194488923
 30
0.0
 11
-636.4678138240685
 21
-483.7595194488802
 31
0.0
  0
LINE
  5
109
330
1F
100
AcDbEntity
  8
0-0
  6
JWW_DASHED1
 62
   120
370
     5
100
AcDbLine
 10
-864.4678138240819
 20
-725.901655071209
 30
0.0
 11
-636.4678138240702
 21
-497.9016550711972
 31
0.0
  0
LINE
  5
10A
330
1F
100
AcDbEntity
  8
0-0
  6
JWW_DASHED1
 62
   120
370
     5
100
AcDbLine
 10
-864.4678138240819
 20
-740.0437906935235
 30
0.0
 11
-636.4678138240685
 21
-512.0437906935105
 31
0.0
  0
LINE
  5
10B
330
1F
100
AcDbEntity
  8
0-0
  6
JWW_DASHED1
 62
   120
370
     5
100
AcDbLine
 10
-864.4678138240845
 20
-754.1859263158402
 30
0.0
 11
-636.4678138240719
 21
-526.1859263158276
 31
0.0
  0
LINE
  5
10C
330
1F
100
AcDbEntity
  8
0-0
  6
JWW_DASHED1
 62
   120
370
     5
100
AcDbLine
 10
-864.4678138240716
 20
-768.3280619381419
 30
0.0
 11
-636.4678138240736
 21
-540.3280619381438
 31
0.0
  0
LINE
  5
10D
330
1F
100
AcDbEntity
  8
0-0
  6
JWW_DASHED1
 62
   120
370
     5
100
AcDbLine
 10
-864.4678138240733
 20
-782.4701975604586
 30
0.0
 11
-636.4678138240761
 21
-554.4701975604613
 31
0.0
  0
LINE
  5
10E
330
1F
100
AcDbEntity
  8
0-0
  6
JWW_DASHED1
 62
   120
370
     5
100
AcDbLine
 10
-864.467813824076
 20
-796.6123331827753
 30
0.0
 11
-636.4678138240778
 21
-568.6123331827775
 31
0.0
  0
LINE
  5
10F
330
1F
100
AcDbEntity
  8
0-0
  6
JWW_DASHED1
 62
   120
370
     5
100
AcDbLine
 10
-864.4678138240777
 20
-810.7544688050918
 30
0.0
 11
-636.4678138240804
 21
-582.7544688050938
 31
0.0
  0
LINE
  5
110
330
1F
100
AcDbEntity
  8
0-0
  6
JWW_DASHED1
 62
   120
370
     5
100
AcDbLine
 10
-864.4678138240657
 20
-824.8966044273941
 30
0.0
 11
-636.4678138240702
 21
-596.8966044273989
 31
0.0
  0
LINE
  5
111
330
1F
100
AcDbEntity
  8
0-0
  6
JWW_DASHED1
 62
   120
370
     5
100
AcDbLine
 10
-864.4678138240674
 20
-839.0387400497111
 30
0.0
 11
-636.4678138240727
 21
-611.0387400497156
 31
0.0
  0
LINE
  5
112
330
1F
100
AcDbEntity
  8
0-0
  6
JWW_DASHED1
 62
   120
370
     5
100
AcDbLine
 10
-864.4678138240708
 20
-853.1808756720278
 30
0.0
 11
-636.4678138240744
 21
-625.1808756720322
 31
0.0
  0
LINE
  5
113
330
1F
100
AcDbEntity
  8
0-0
  6
JWW_DASHED1
 62
   120
370
     5
100
AcDbLine
 10
-864.4678138240726
 20
-867.323011294345
 30
0.0
 11
-636.4678138240761
 21
-639.3230112943485
 31
0.0
  0
LINE
  5
114
330
1F
100
AcDbEntity
  8
0-0
  6
JWW_DASHED1
 62
   120
370
     5
100
AcDbLine
 10
-864.467813824075
 20
-881.465146916662
 30
0.0
 11
-636.4678138240633
 21
-653.4651469166498
 31
0.0
  0
LINE
  5
115
330
1F
100
AcDbEntity
  8
0-0
  6
JWW_DASHED1
 62
   120
370
     5
100
AcDbLine
 10
-864.4678138240768
 20
-895.6072825389782
 30
0.0
 11
-636.467813824065
 21
-667.6072825389665
 31
0.0
  0
LINE
  5
116
330
1F
100
AcDbEntity
  8
0-0
  6
JWW_DASHED1
 62
   120
370
     5
100
AcDbLine
 10
-864.4678138240785
 20
-909.7494181612944
 30
0.0
 11
-636.4678138240675
 21
-681.7494181612835
 31
0.0
  0
LINE
  5
117
330
1F
100
AcDbEntity
  8
0-0
  6
JWW_DASHED1
 62
   120
370
     5
100
AcDbLine
 10
-864.4678138240811
 20
-923.8915537836115
 30
0.0
 11
-636.4678138240702
 21
-695.8915537836006
 31
0.0
  0
LINE
  5
118
330
1F
100
AcDbEntity
  8
0-0
  6
JWW_DASHED1
 62
   120
370
     5
100
AcDbLine
 10
-864.4678138240828
 20
-938.0336894059274
 30
0.0
 11
-636.4678138240702
 21
-710.0336894059151
 31
0.0
  0
LINE
  5
119
330
1F
100
AcDbEntity
  8
0-0
  6
JWW_DASHED1
 62
   120
370
     5
100
AcDbLine
 10
-864.4678138240845
 20
-952.1758250282439
 30
0.0
 11
-636.4678138240719
 21
-724.1758250282314
 31
0.0
  0
LINE
  5
11A
330
1F
100
AcDbEntity
  8
0-0
  6
JWW_DASHED1
 62
   120
370
     5
100
AcDbLine
 10
-864.4678138240708
 20
-966.3179606505453
 30
0.0
 11
-636.4678138240736
 21
-738.3179606505475
 31
0.0
  0
LINE
  5
11B
330
1F
100
AcDbEntity
  8
0-0
  6
JWW_DASHED1
 62
   120
370
     5
100
AcDbLine
 10
-864.4678138240743
 20
-980.4600962728624
 30
0.0
 11
-636.4678138240761
 21
-752.4600962728647
 31
0.0
  0
LINE
  5
11C
330
1F
100
AcDbEntity
  8
0-0
  6
JWW_DASHED1
 62
   120
370
     5
100
AcDbLine
 10
-864.467813824076
 20
-994.6022318951791
 30
0.0
 11
-636.4678138240787
 21
-766.6022318951814
 31
0.0
  0
LINE
  5
11D
330
1F
100
AcDbEntity
  8
0-0
  6
JWW_DASHED1
 62
   120
370
     5
100
AcDbLine
 10
-864.4678138240674
 20
-1008.744367517539
 30
0.0
 11
-636.4678138240719
 21
-780.7443675175437
 31
0.0
  0
LINE
  5
11E
330
1F
100
AcDbEntity
  8
0-0
  6
JWW_DASHED1
 62
   120
370
     5
100
AcDbLine
 10
-864.4678138240691
 20
-1022.886503139856
 30
0.0
 11
-636.4678138240736
 21
-794.8865031398602
 31
0.0
  0
LINE
  5
11F
330
1F
100
AcDbEntity
  8
0-0
  6
JWW_DASHED1
 62
   120
370
     5
100
AcDbLine
 10
-860.7640524767471
 20
-1033.324877414848
 30
0.0
 11
-636.4678138240753
 21
-809.0286387621766
 31
0.0
  0
LINE
  5
120
330
1F
100
AcDbEntity
  8
0-0
  6
JWW_DASHED1
 62
   120
370
     5
100
AcDbLine
 10
-846.6219168544318
 20
-1033.324877414847
 30
0.0
 11
-636.4678138240616
 21
-823.1707743844778
 31
0.0
  0
LINE
  5
121
330
1F
100
AcDbEntity
  8
0-0
  6
JWW_DASHED1
 62
   120
370
     5
100
AcDbLine
 10
-832.4797812321156
 20
-1033.324877414846
 30
0.0
 11
-636.4678138240641
 21
-837.3129100067945
 31
0.0
  0
LINE
  5
122
330
1F
100
AcDbEntity
  8
0-0
  6
JWW_DASHED1
 62
   120
370
     5
100
AcDbLine
 10
-818.3376456098001
 20
-1033.324877414845
 30
0.0
 11
-636.4678138240668
 21
-851.4550456291107
 31
0.0
  0
LINE
  5
123
330
1F
100
AcDbEntity
  8
0-0
  6
JWW_DASHED1
 62
   120
370
     5
100
AcDbLine
 10
-804.1955099874848
 20
-1033.324877414843
 30
0.0
 11
-636.4678138240685
 21
-865.5971812514279
 31
0.0
  0
LINE
  5
124
330
1F
100
AcDbEntity
  8
0-0
  6
JWW_DASHED1
 62
   120
370
     5
100
AcDbLine
 10
-790.0533743651686
 20
-1033.324877414842
 30
0.0
 11
-636.4678138240702
 21
-879.739316873744
 31
0.0
  0
LINE
  5
125
330
1F
100
AcDbEntity
  8
0-0
  6
JWW_DASHED1
 62
   120
370
     5
100
AcDbLine
 10
-775.9112387428523
 20
-1033.32487741484
 30
0.0
 11
-636.4678138240719
 21
-893.8814524960599
 31
0.0
  0
LINE
  5
126
330
1F
100
AcDbEntity
  8
0-0
  6
JWW_DASHED1
 62
   120
370
     5
100
AcDbLine
 10
-761.7691031205361
 20
-1033.324877414839
 30
0.0
 11
-636.4678138240736
 21
-908.0235881183769
 31
0.0
  0
LINE
  5
127
330
1F
100
AcDbEntity
  8
0-0
  6
JWW_DASHED1
 62
   120
370
     5
100
AcDbLine
 10
-747.6269674982284
 20
-1033.324877414846
 30
0.0
 11
-636.467813824077
 21
-922.1657237406936
 31
0.0
  0
LINE
  5
128
330
1F
100
AcDbEntity
  8
0-0
  6
JWW_DASHED1
 62
   120
370
     5
100
AcDbLine
 10
-733.4848318759122
 20
-1033.324877414844
 30
0.0
 11
-636.4678138240787
 21
-936.3078593630107
 31
0.0
  0
LINE
  5
129
330
1F
100
AcDbEntity
  8
0-0
  6
JWW_DASHED1
 62
   120
370
     5
100
AcDbLine
 10
-719.3426962535942
 20
-1033.324877414841
 30
0.0
 11
-636.4678138240812
 21
-950.4499949853277
 31
0.0
  0
LINE
  5
12A
330
1F
100
AcDbEntity
  8
0-0
  6
JWW_DASHED1
 62
   120
370
     5
100
AcDbLine
 10
-705.2005606312933
 20
-1033.324877414854
 30
0.0
 11
-636.4678138240685
 21
-964.5921306076286
 31
0.0
  0
LINE
  5
12B
330
1F
100
AcDbEntity
  8
0-0
  6
JWW_DASHED1
 62
   120
370
     5
100
AcDbLine
 10
-691.0584250089771
 20
-1033.324877414852
 30
0.0
 11
-636.4678138240702
 21
-978.7342662299457
 31
0.0
  0
LINE
  5
12C
330
1F
100
AcDbEntity
  8
0-0
  6
JWW_DASHED1
 62
   120
370
     5
100
AcDbLine
 10
-676.9162893866609
 20
-1033.32487741485
 30
0.0
 11
-636.4678138240727
 21
-992.8764018522628
 31
0.0
  0
LINE
  5
12D
330
1F
100
AcDbEntity
  8
0-0
  6
JWW_DASHED1
 62
   120
370
     5
100
AcDbLine
 10
-662.7741537643429
 20
-1033.324877414848
 30
0.0
 11
-636.4678138240744
 21
-1007.018537474579
 31
0.0
  0
LINE
  5
12E
330
1F
100
AcDbEntity
  8
0-0
  6
JWW_DASHED1
 62
   120
370
     5
100
AcDbLine
 10
-648.632018142042
 20
-1033.32487741486
 30
0.0
 11
-636.4678138240607
 21
-1021.160673096879
 31
0.0
  0
LINE
  5
12F
330
1F
100
AcDbEntity
  8
0-0
  6
JWW_DASHED1
 62
   120
370
     5
100
AcDbLine
 10
-84.46781382408616
 20
1126.718111452318
 30
0.0
 11
-77.51080269123761
 21
1133.675122585166
 31
0.0
  0
LINE
  5
130
330
1F
100
AcDbEntity
  8
0-0
  6
JWW_DASHED1
 62
   120
370
     5
100
AcDbLine
 10
-84.46781382408787
 20
1112.575975830001
 30
0.0
 11
-63.36866706892224
 21
1133.675122585167
 31
0.0
  0
LINE
  5
131
330
1F
100
AcDbEntity
  8
0-0
  6
JWW_DASHED1
 62
   120
370
     5
100
AcDbLine
 10
-84.46781382408957
 20
1098.433840207684
 30
0.0
 11
-49.226531446606
 21
1133.675122585168
 31
0.0
  0
LINE
  5
132
330
1F
100
AcDbEntity
  8
0-0
  6
JWW_DASHED1
 62
   120
370
     5
100
AcDbLine
 10
-84.46781382409213
 20
1084.291704585368
 30
0.0
 11
-35.08439582428977
 21
1133.675122585169
 31
0.0
  0
LINE
  5
133
330
1F
100
AcDbEntity
  8
0-0
  6
JWW_DASHED1
 62
   120
370
     5
100
AcDbLine
 10
-84.46781382407934
 20
1070.149568963066
 30
0.0
 11
-20.94226020198974
 21
1133.675122585155
 31
0.0
  0
LINE
  5
134
330
1F
100
AcDbEntity
  8
0-0
  6
JWW_DASHED1
 62
   120
370
     5
100
AcDbLine
 10
-84.46781382408105
 20
1056.007433340749
 30
0.0
 11
-6.80012457967436
 21
1133.675122585157
 31
0.0
  0
LINE
  5
135
330
1F
100
AcDbEntity
  8
0-0
  6
JWW_DASHED1
 62
   120
370
     5
100
AcDbLine
 10
-84.46781382406996
 20
1041.865297718419
 30
0.0
 11
7.342011042662335
 21
1133.67512258515
 31
0.0
  0
LINE
  5
136
330
1F
100
AcDbEntity
  8
0-0
  6
JWW_DASHED1
 62
   120
370
     5
100
AcDbLine
 10
-84.46781382407423
 20
1027.723162096073
 30
0.0
 11
21.48414666500841
 21
1133.675122585155
 31
0.0
  0
LINE
  5
137
330
1F
100
AcDbEntity
  8
0-0
  6
JWW_DASHED1
 62
   120
370
     5
100
AcDbLine
 10
-84.46781382407593
 20
1013.581026473757
 30
0.0
 11
35.62628228732549
 21
1133.675122585158
 31
0.0
  0
LINE
  5
138
330
1F
100
AcDbEntity
  8
0-0
  6
JWW_DASHED1
 62
   120
370
     5
100
AcDbLine
 10
-84.46781382407764
 20
999.4388908514404
 30
0.0
 11
49.76841790964173
 21
1133.67512258516
 31
0.0
  0
LINE
  5
139
330
1F
100
AcDbEntity
  8
0-0
  6
JWW_DASHED1
 62
   120
370
     5
100
AcDbLine
 10
-84.46781382407934
 20
985.2967552291237
 30
0.0
 11
63.91055353195796
 21
1133.675122585162
 31
0.0
  0
LINE
  5
13A
330
1F
100
AcDbEntity
  8
0-0
  6
JWW_DASHED1
 62
   120
370
     5
100
AcDbLine
 10
-84.46781382408275
 20
971.1546196068066
 30
0.0
 11
78.05268915426396
 21
1133.675122585153
 31
0.0
  0
LINE
  5
13B
330
1F
100
AcDbEntity
  8
0-0
  6
JWW_DASHED1
 62
   120
370
     5
100
AcDbLine
 10
-84.46781382408446
 20
957.01248398449
 30
0.0
 11
92.19482477658019
 21
1133.675122585154
 31
0.0
  0
LINE
  5
13C
330
1F
100
AcDbEntity
  8
0-0
  6
JWW_DASHED1
 62
   120
370
     5
100
AcDbLine
 10
-84.46781382408616
 20
942.8703483621733
 30
0.0
 11
106.3369603988964
 21
1133.675122585156
 31
0.0
  0
LINE
  5
13D
330
1F
100
AcDbEntity
  8
0-0
  6
JWW_DASHED1
 62
   120
370
     5
100
AcDbLine
 10
-84.46781382408872
 20
928.7282127398566
 30
0.0
 11
120.4790960212118
 21
1133.675122585157
 31
0.0
  0
LINE
  5
13E
330
1F
100
AcDbEntity
  8
0-0
  6
JWW_DASHED1
 62
   120
370
     5
100
AcDbLine
 10
-84.46781382409128
 20
914.58607711754
 30
0.0
 11
134.6212316435272
 21
1133.675122585159
 31
0.0
  0
LINE
  5
13F
330
1F
100
AcDbEntity
  8
0-0
  6
JWW_DASHED1
 62
   120
370
     5
100
AcDbLine
 10
-84.46781382407934
 20
900.4439414952369
 30
0.0
 11
143.5321861759341
 21
1128.44394149525
 31
0.0
  0
LINE
  5
140
330
1F
100
AcDbEntity
  8
0-0
  6
JWW_DASHED1
 62
   120
370
     5
100
AcDbLine
 10
-84.46781382408105
 20
886.3018058729203
 30
0.0
 11
143.5321861759316
 21
1114.301805872933
 31
0.0
  0
LINE
  5
141
330
1F
100
AcDbEntity
  8
0-0
  6
JWW_DASHED1
 62
   120
370
     5
100
AcDbLine
 10
-84.4678138240674
 20
872.1596702506195
 30
0.0
 11
143.5321861759299
 21
1100.159670250617
 31
0.0
  0
LINE
  5
142
330
1F
100
AcDbEntity
  8
0-0
  6
JWW_DASHED1
 62
   120
370
     5
100
AcDbLine
 10
-84.46781382406996
 20
858.0175346283028
 30
0.0
 11
143.5321861759265
 21
1086.0175346283
 31
0.0
  0
LINE
  5
143
330
1F
100
AcDbEntity
  8
0-0
  6
JWW_DASHED1
 62
   120
370
     5
100
AcDbLine
 10
-84.46781382407252
 20
843.8753990059856
 30
0.0
 11
143.5321861759247
 21
1071.875399005983
 31
0.0
  0
LINE
  5
144
330
1F
100
AcDbEntity
  8
0-0
  6
JWW_DASHED1
 62
   120
370
     5
100
AcDbLine
 10
-84.46781382407252
 20
829.7332633836711
 30
0.0
 11
143.532186175923
 21
1057.733263383667
 31
0.0
  0
LINE
  5
145
330
1F
100
AcDbEntity
  8
0-0
  6
JWW_DASHED1
 62
   120
370
     5
100
AcDbLine
 10
-84.46781382407508
 20
815.5911277613541
 30
0.0
 11
143.5321861759213
 21
1043.59112776135
 31
0.0
  0
LINE
  5
146
330
1F
100
AcDbEntity
  8
0-0
  6
JWW_DASHED1
 62
   120
370
     5
100
AcDbLine
 10
-84.46781382407764
 20
801.4489921390374
 30
0.0
 11
143.5321861759188
 21
1029.448992139033
 31
0.0
  0
LINE
  5
147
330
1F
100
AcDbEntity
  8
0-0
  6
JWW_DASHED1
 62
   120
370
     5
100
AcDbLine
 10
-84.46781382407934
 20
787.3068565167207
 30
0.0
 11
143.5321861759162
 21
1015.306856516717
 31
0.0
  0
LINE
  5
148
330
1F
100
AcDbEntity
  8
0-0
  6
JWW_DASHED1
 62
   120
370
     5
100
AcDbLine
 10
-84.46781382408105
 20
773.1647208944041
 30
0.0
 11
143.5321861759299
 21
1001.164720894416
 31
0.0
  0
LINE
  5
149
330
1F
100
AcDbEntity
  8
0-0
  6
JWW_DASHED1
 62
   120
370
     5
100
AcDbLine
 10
-84.46781382408275
 20
759.0225852720879
 30
0.0
 11
143.5321861759282
 21
987.0225852720991
 31
0.0
  0
LINE
  5
14A
330
1F
100
AcDbEntity
  8
0-0
  6
JWW_DASHED1
 62
   120
370
     5
100
AcDbLine
 10
-84.46781382408616
 20
744.8804496497708
 30
0.0
 11
143.5321861759265
 21
972.8804496497826
 31
0.0
  0
LINE
  5
14B
330
1F
100
AcDbEntity
  8
0-0
  6
JWW_DASHED1
 62
   120
370
     5
100
AcDbLine
 10
-84.46781382408787
 20
730.7383140274545
 30
0.0
 11
143.5321861759239
 21
958.7383140274659
 31
0.0
  0
LINE
  5
14C
330
1F
100
AcDbEntity
  8
0-0
  6
JWW_DASHED1
 62
   120
370
     5
100
AcDbLine
 10
-84.46781382409213
 20
716.596178405108
 30
0.0
 11
143.5321861759196
 21
944.5961784051194
 31
0.0
  0
LINE
  5
14D
330
1F
100
AcDbEntity
  8
0-0
  6
JWW_DASHED1
 62
   120
370
     5
100
AcDbLine
 10
-84.46781382406826
 20
702.4540427827906
 30
0.0
 11
143.532186175929
 21
930.4540427827874
 31
0.0
  0
LINE
  5
14E
330
1F
100
AcDbEntity
  8
0-0
  6
JWW_DASHED1
 62
   120
370
     5
100
AcDbLine
 10
-84.46781382406996
 20
688.3119071604739
 30
0.0
 11
143.5321861759273
 21
916.3119071604712
 31
0.0
  0
LINE
  5
14F
330
1F
100
AcDbEntity
  8
0-0
  6
JWW_DASHED1
 62
   120
370
     5
100
AcDbLine
 10
-84.46781382407252
 20
674.1697715381572
 30
0.0
 11
143.5321861759247
 21
902.169771538154
 31
0.0
  0
LINE
  5
150
330
1F
100
AcDbEntity
  8
0-0
  6
JWW_DASHED1
 62
   120
370
     5
100
AcDbLine
 10
-84.46781382407082
 20
660.027635915844
 30
0.0
 11
143.5321861759247
 21
888.0276359158391
 31
0.0
  0
LINE
  5
151
330
1F
100
AcDbEntity
  8
0-0
  6
JWW_DASHED1
 62
   120
370
     5
100
AcDbLine
 10
-84.46781382407337
 20
645.8855002935269
 30
0.0
 11
143.5321861759213
 21
873.885500293522
 31
0.0
  0
LINE
  5
152
330
1F
100
AcDbEntity
  8
0-0
  6
JWW_DASHED1
 62
   120
370
     5
100
AcDbLine
 10
-84.46781382407593
 20
631.7433646712097
 30
0.0
 11
143.5321861759196
 21
859.7433646712058
 31
0.0
  0
LINE
  5
153
330
1F
100
AcDbEntity
  8
0-0
  6
JWW_DASHED1
 62
   120
370
     5
100
AcDbLine
 10
-84.46781382407764
 20
617.6012290488932
 30
0.0
 11
143.5321861759179
 21
845.6012290488887
 31
0.0
  0
LINE
  5
154
330
1F
100
AcDbEntity
  8
0-0
  6
JWW_DASHED1
 62
   120
370
     5
100
AcDbLine
 10
-84.46781382408105
 20
603.459093426576
 30
0.0
 11
143.5321861759316
 21
831.4590934265882
 31
0.0
  0
LINE
  5
155
330
1F
100
AcDbEntity
  8
0-0
  6
JWW_DASHED1
 62
   120
370
     5
100
AcDbLine
 10
-84.46781382408275
 20
589.3169578042598
 30
0.0
 11
143.532186175929
 21
817.3169578042712
 31
0.0
  0
LINE
  5
156
330
1F
100
AcDbEntity
  8
0-0
  6
JWW_DASHED1
 62
   120
370
     5
100
AcDbLine
 10
-84.46781382408446
 20
575.1748221819436
 30
0.0
 11
143.5321861759265
 21
803.1748221819545
 31
0.0
  0
LINE
  5
157
330
1F
100
AcDbEntity
  8
0-0
  6
JWW_DASHED1
 62
   120
370
     5
100
AcDbLine
 10
-84.46781382408616
 20
561.0326865596265
 30
0.0
 11
143.5321861759247
 21
789.0326865596383
 31
0.0
  0
LINE
  5
158
330
1F
100
AcDbEntity
  8
0-0
  6
JWW_DASHED1
 62
   120
370
     5
100
AcDbLine
 10
-84.46781382408957
 20
546.8905509373094
 30
0.0
 11
143.532186175923
 21
774.8905509373212
 31
0.0
  0
LINE
  5
159
330
1F
100
AcDbEntity
  8
0-0
  6
JWW_DASHED1
 62
   120
370
     5
100
AcDbLine
 10
-84.46781382407934
 20
532.7484153150046
 30
0.0
 11
143.5321861759333
 21
760.7484153150174
 31
0.0
  0
LINE
  5
15A
330
1F
100
AcDbEntity
  8
0-0
  6
JWW_DASHED1
 62
   120
370
     5
100
AcDbLine
 10
-84.4678138240819
 20
518.6062796926876
 30
0.0
 11
143.5321861759316
 21
746.6062796927007
 31
0.0
  0
LINE
  5
15B
330
1F
100
AcDbEntity
  8
0-0
  6
JWW_DASHED1
 62
   120
370
     5
100
AcDbLine
 10
-84.46781382406911
 20
504.4641440703867
 30
0.0
 11
143.5321861759282
 21
732.4641440703836
 31
0.0
  0
LINE
  5
15C
330
1F
100
AcDbEntity
  8
0-0
  6
JWW_DASHED1
 62
   120
370
     5
100
AcDbLine
 10
-84.46781382407082
 20
490.3220084480697
 30
0.0
 11
143.5321861759265
 21
718.3220084480673
 31
0.0
  0
LINE
  5
15D
330
1F
100
AcDbEntity
  8
0-0
  6
JWW_DASHED1
 62
   120
370
     5
100
AcDbLine
 10
-84.46781382407337
 20
476.1798728257526
 30
0.0
 11
143.5321861759247
 21
704.1798728257503
 31
0.0
  0
LINE
  5
15E
330
1F
100
AcDbEntity
  8
0-0
  6
JWW_DASHED1
 62
   120
370
     5
100
AcDbLine
 10
-84.46781382407082
 20
462.0377372034406
 30
0.0
 11
143.5321861759247
 21
690.0377372034366
 31
0.0
  0
LINE
  5
15F
330
1F
100
AcDbEntity
  8
0-0
  6
JWW_DASHED1
 62
   120
370
     5
100
AcDbLine
 10
-84.46781382407337
 20
447.8956015811235
 30
0.0
 11
143.532186175923
 21
675.89560158112
 31
0.0
  0
LINE
  5
160
330
1F
100
AcDbEntity
  8
0-0
  6
JWW_DASHED1
 62
   120
370
     5
100
AcDbLine
 10
-84.46781382407508
 20
433.7534659588073
 30
0.0
 11
143.5321861759213
 21
661.7534659588033
 31
0.0
  0
LINE
  5
161
330
1F
100
AcDbEntity
  8
0-0
  6
JWW_DASHED1
 62
   120
370
     5
100
AcDbLine
 10
-84.46781382407679
 20
419.6113303364911
 30
0.0
 11
143.5321861759179
 21
647.6113303364862
 31
0.0
  0
LINE
  5
162
330
1F
100
AcDbEntity
  8
0-0
  6
JWW_DASHED1
 62
   120
370
     5
100
AcDbLine
 10
-84.46781382407934
 20
405.469194714174
 30
0.0
 11
143.5321861759324
 21
633.4691947141857
 31
0.0
  0
LINE
  5
163
330
1F
100
AcDbEntity
  8
0-0
  6
JWW_DASHED1
 62
   120
370
     5
100
AcDbLine
 10
-84.46781382408616
 20
391.3270590917984
 30
0.0
 11
143.5321861759265
 21
619.3270590918103
 31
0.0
  0
LINE
  5
164
330
1F
100
AcDbEntity
  8
0-0
  6
JWW_DASHED1
 62
   120
370
     5
100
AcDbLine
 10
-84.46781382408787
 20
377.1849234694818
 30
0.0
 11
143.532186175923
 21
605.1849234694931
 31
0.0
  0
LINE
  5
165
330
1F
100
AcDbEntity
  8
0-0
  6
JWW_DASHED1
 62
   120
370
     5
100
AcDbLine
 10
-84.46781382407934
 20
363.0427878471754
 30
0.0
 11
143.5321861759333
 21
591.0427878471885
 31
0.0
  0
LINE
  5
166
330
1F
100
AcDbEntity
  8
0-0
  6
JWW_DASHED1
 62
   120
370
     5
100
AcDbLine
 10
-84.4678138240819
 20
348.9006522248587
 30
0.0
 11
143.5321861759307
 21
576.9006522248714
 31
0.0
  0
LINE
  5
167
330
1F
100
AcDbEntity
  8
0-0
  6
JWW_DASHED1
 62
   120
370
     5
100
AcDbLine
 10
-84.46781382406911
 20
334.7585166025574
 30
0.0
 11
143.5321861759282
 21
562.7585166025542
 31
0.0
  0
LINE
  5
168
330
1F
100
AcDbEntity
  8
0-0
  6
JWW_DASHED1
 62
   120
370
     5
100
AcDbLine
 10
-84.46781382407082
 20
320.6163809802404
 30
0.0
 11
143.5321861759265
 21
548.6163809802381
 31
0.0
  0
LINE
  5
169
330
1F
100
AcDbEntity
  8
0-0
  6
JWW_DASHED1
 62
   120
370
     5
100
AcDbLine
 10
-84.46781382407337
 20
306.4742453579237
 30
0.0
 11
143.5321861759247
 21
534.4742453579214
 31
0.0
  0
LINE
  5
16A
330
1F
100
AcDbEntity
  8
0-0
  6
JWW_DASHED1
 62
   120
370
     5
100
AcDbLine
 10
-84.46781382406911
 20
292.3321097356134
 30
0.0
 11
143.5321861759265
 21
520.332109735609
 31
0.0
  0
LINE
  5
16B
330
1F
100
AcDbEntity
  8
0-0
  6
JWW_DASHED1
 62
   120
370
     5
100
AcDbLine
 10
-84.46781382407167
 20
278.1899741132963
 30
0.0
 11
143.5321861759247
 21
506.1899741132924
 31
0.0
  0
LINE
  5
16C
330
1F
100
AcDbEntity
  8
0-0
  6
JWW_DASHED1
 62
   120
370
     5
100
AcDbLine
 10
-84.46781382407337
 20
264.0478384909801
 30
0.0
 11
143.5321861759213
 21
492.0478384909752
 31
0.0
  0
LINE
  5
16D
330
1F
100
AcDbEntity
  8
0-0
  6
JWW_DASHED1
 62
   120
370
     5
100
AcDbLine
 10
-84.46781382407593
 20
249.905702868663
 30
0.0
 11
143.5321861759196
 21
477.9057028686582
 31
0.0
  0
LINE
  5
16E
330
1F
100
AcDbEntity
  8
0-0
  6
JWW_DASHED1
 62
   120
370
     5
100
AcDbLine
 10
-84.46781382407849
 20
235.7635672463459
 30
0.0
 11
143.5321861759171
 21
463.7635672463415
 31
0.0
  0
LINE
  5
16F
330
1F
100
AcDbEntity
  8
0-0
  6
JWW_DASHED1
 62
   120
370
     5
100
AcDbLine
 10
-84.46781382408105
 20
221.6214316240293
 30
0.0
 11
143.5321861759316
 21
449.6214316240415
 31
0.0
  0
LINE
  5
170
330
1F
100
AcDbEntity
  8
0-0
  6
JWW_DASHED1
 62
   120
370
     5
100
AcDbLine
 10
-84.46781382408275
 20
207.479296001713
 30
0.0
 11
143.532186175929
 21
435.4792960017244
 31
0.0
  0
LINE
  5
171
330
1F
100
AcDbEntity
  8
0-0
  6
JWW_DASHED1
 62
   120
370
     5
100
AcDbLine
 10
-84.46781382408446
 20
193.3371603793964
 30
0.0
 11
143.5321861759265
 21
421.3371603794077
 31
0.0
  0
LINE
  5
172
330
1F
100
AcDbEntity
  8
0-0
  6
JWW_DASHED1
 62
   120
370
     5
100
AcDbLine
 10
-84.46781382408616
 20
179.1950247570797
 30
0.0
 11
143.5321861759247
 21
407.1950247570907
 31
0.0
  0
LINE
  5
173
330
1F
100
AcDbEntity
  8
0-0
  6
JWW_DASHED1
 62
   120
370
     5
100
AcDbLine
 10
-84.46781382408105
 20
165.0528891347712
 30
0.0
 11
143.5321861759333
 21
393.0528891347847
 31
0.0
  0
LINE
  5
174
330
1F
100
AcDbEntity
  8
0-0
  6
JWW_DASHED1
 62
   120
370
     5
100
AcDbLine
 10
-84.46781382408275
 20
150.9107535124541
 30
0.0
 11
143.5321861759299
 21
378.9107535124675
 31
0.0
  0
LINE
  5
175
330
1F
100
AcDbEntity
  8
0-0
  6
JWW_DASHED1
 62
   120
370
     5
100
AcDbLine
 10
-84.46781382406911
 20
136.7686178901536
 30
0.0
 11
143.5321861759282
 21
364.7686178901509
 31
0.0
  0
LINE
  5
176
330
1F
100
AcDbEntity
  8
0-0
  6
JWW_DASHED1
 62
   120
370
     5
100
AcDbLine
 10
-84.46781382407082
 20
122.6264822678374
 30
0.0
 11
143.5321861759256
 21
350.6264822678338
 31
0.0
  0
LINE
  5
177
330
1F
100
AcDbEntity
  8
0-0
  6
JWW_DASHED1
 62
   120
370
     5
100
AcDbLine
 10
-84.46781382407337
 20
108.4843466455203
 30
0.0
 11
143.5321861759239
 21
336.4843466455176
 31
0.0
  0
LINE
  5
178
330
1F
100
AcDbEntity
  8
0-0
  6
JWW_DASHED1
 62
   120
370
     5
100
AcDbLine
 10
-84.46781382407593
 20
94.34221102320322
 30
0.0
 11
143.5321861759213
 21
322.3422110232005
 31
0.0
  0
LINE
  5
179
330
1F
100
AcDbEntity
  8
0-0
  6
JWW_DASHED1
 62
   120
370
     5
100
AcDbLine
 10
-84.46781382407082
 20
80.20007540089381
 30
0.0
 11
143.5321861759247
 21
308.2000754008898
 31
0.0
  0
LINE
  5
17A
330
1F
100
AcDbEntity
  8
0-0
  6
JWW_DASHED1
 62
   120
370
     5
100
AcDbLine
 10
-84.46781382407764
 20
66.05793977851832
 30
0.0
 11
143.5321861759196
 21
294.0579397785148
 31
0.0
  0
LINE
  5
17B
330
1F
100
AcDbEntity
  8
0-0
  6
JWW_DASHED1
 62
   120
370
     5
100
AcDbLine
 10
-84.46781382407934
 20
51.91580415620123
 30
0.0
 11
143.5321861759324
 21
279.9158041562134
 31
0.0
  0
LINE
  5
17C
330
1F
100
AcDbEntity
  8
0-0
  6
JWW_DASHED1
 62
   120
370
     5
100
AcDbLine
 10
-84.46781382408105
 20
37.773668533885
 30
0.0
 11
143.5321861759299
 21
265.7736685338963
 31
0.0
  0
LINE
  5
17D
330
1F
100
AcDbEntity
  8
0-0
  6
JWW_DASHED1
 62
   120
370
     5
100
AcDbLine
 10
-84.4678138240836
 20
23.63153291156877
 30
0.0
 11
143.5321861759282
 21
251.6315329115797
 31
0.0
  0
LINE
  5
17E
330
1F
100
AcDbEntity
  8
0-0
  6
JWW_DASHED1
 62
   120
370
     5
100
AcDbLine
 10
-84.46781382408616
 20
9.489397289251684
 30
0.0
 11
143.5321861759247
 21
237.4893972892626
 31
0.0
  0
LINE
  5
17F
330
1F
100
AcDbEntity
  8
0-0
  6
JWW_DASHED1
 62
   120
370
     5
100
AcDbLine
 10
-84.46781382408105
 20
-4.652738333058153
 30
0.0
 11
143.5321861759324
 21
223.3472616669553
 31
0.0
  0
LINE
  5
180
330
1F
100
AcDbEntity
  8
0-0
  6
JWW_DASHED1
 62
   120
370
     5
100
AcDbLine
 10
-84.46781382408275
 20
-18.79487395537481
 30
0.0
 11
143.5321861759299
 21
209.2051260446382
 31
0.0
  0
LINE
  5
181
330
1F
100
AcDbEntity
  8
0-0
  6
JWW_DASHED1
 62
   120
370
     5
100
AcDbLine
 10
-84.46781382406911
 20
-32.9370095776757
 30
0.0
 11
143.5321861759282
 21
195.0629904223216
 31
0.0
  0
LINE
  5
182
330
1F
100
AcDbEntity
  8
0-0
  6
JWW_DASHED1
 62
   120
370
     5
100
AcDbLine
 10
-84.46781382407252
 20
-47.07914519999235
 30
0.0
 11
143.5321861759247
 21
180.9208548000045
 31
0.0
  0
LINE
  5
183
330
1F
100
AcDbEntity
  8
0-0
  6
JWW_DASHED1
 62
   120
370
     5
100
AcDbLine
 10
-84.46781382407423
 20
-61.22128082230901
 30
0.0
 11
143.532186175923
 21
166.7787191776878
 31
0.0
  0
LINE
  5
184
330
1F
100
AcDbEntity
  8
0-0
  6
JWW_DASHED1
 62
   120
370
     5
100
AcDbLine
 10
-84.46781382407593
 20
-75.36341644462567
 30
0.0
 11
143.5321861759213
 21
152.6365835553712
 31
0.0
  0
LINE
  5
185
330
1F
100
AcDbEntity
  8
0-0
  6
JWW_DASHED1
 62
   120
370
     5
100
AcDbLine
 10
-84.46781382406996
 20
-89.50555206693423
 30
0.0
 11
143.5321861759265
 21
138.4944479330618
 31
0.0
  0
LINE
  5
186
330
1F
100
AcDbEntity
  8
0-0
  6
JWW_DASHED1
 62
   120
370
     5
100
AcDbLine
 10
-84.46781382407167
 20
-103.6476876892505
 30
0.0
 11
143.5321861759239
 21
124.3523123107455
 31
0.0
  0
LINE
  5
187
330
1F
100
AcDbEntity
  8
0-0
  6
JWW_DASHED1
 62
   120
370
     5
100
AcDbLine
 10
-84.46781382407423
 20
-117.7898233115671
 30
0.0
 11
143.5321861759213
 21
110.2101766884284
 31
0.0
  0
LINE
  5
188
330
1F
100
AcDbEntity
  8
0-0
  6
JWW_DASHED1
 62
   120
370
     5
100
AcDbLine
 10
-84.46781382407593
 20
-131.9319589338838
 30
0.0
 11
143.5321861759196
 21
96.06804106611136
 31
0.0
  0
LINE
  5
189
330
1F
100
AcDbEntity
  8
0-0
  6
JWW_DASHED1
 62
   120
370
     5
100
AcDbLine
 10
-84.46781382407849
 20
-146.0740945562009
 30
0.0
 11
143.5321861759333
 21
81.9259054438109
 31
0.0
  0
LINE
  5
18A
330
1F
100
AcDbEntity
  8
0-0
  6
JWW_DASHED1
 62
   120
370
     5
100
AcDbLine
 10
-84.46781382408105
 20
-160.2162301785175
 30
0.0
 11
143.5321861759316
 21
67.78376982149467
 31
0.0
  0
LINE
  5
18B
330
1F
100
AcDbEntity
  8
0-0
  6
JWW_DASHED1
 62
   120
370
     5
100
AcDbLine
 10
-84.46781382408275
 20
-174.3583658008346
 30
0.0
 11
143.532186175929
 21
53.64163419917759
 31
0.0
  0
LINE
  5
18C
330
1F
100
AcDbEntity
  8
0-0
  6
JWW_DASHED1
 62
   120
370
     5
100
AcDbLine
 10
-84.46781382408446
 20
-188.5005014231508
 30
0.0
 11
143.5321861759265
 21
39.4994985768605
 31
0.0
  0
LINE
  5
18D
330
1F
100
AcDbEntity
  8
0-0
  6
JWW_DASHED1
 62
   120
370
     5
100
AcDbLine
 10
-84.46781382408105
 20
-202.6426370454611
 30
0.0
 11
143.5321861759316
 21
25.35736295455152
 31
0.0
  0
LINE
  5
18E
330
1F
100
AcDbEntity
  8
0-0
  6
JWW_DASHED1
 62
   120
370
     5
100
AcDbLine
 10
-84.46781382408275
 20
-216.7847726677782
 30
0.0
 11
143.5321861759299
 21
11.21522733223486
 31
0.0
  0
LINE
  5
18F
330
1F
100
AcDbEntity
  8
0-0
  6
JWW_DASHED1
 62
   120
370
     5
100
AcDbLine
 10
-84.46781382406996
 20
-230.9269082900795
 30
0.0
 11
143.5321861759273
 21
-2.926908290082224
 31
0.0
  0
LINE
  5
190
330
1F
100
AcDbEntity
  8
0-0
  6
JWW_DASHED1
 62
   120
370
     5
100
AcDbLine
 10
-84.46781382407252
 20
-245.0690439123962
 30
0.0
 11
143.5321861759256
 21
-17.06904391239846
 31
0.0
  0
LINE
  5
191
330
1F
100
AcDbEntity
  8
0-0
  6
JWW_DASHED1
 62
   120
370
     5
100
AcDbLine
 10
-84.46781382406911
 20
-259.2111795347623
 30
0.0
 11
143.5321861759273
 21
-31.21117953476585
 31
0.0
  0
LINE
  5
192
330
1F
100
AcDbEntity
  8
0-0
  6
JWW_DASHED1
 62
   120
370
     5
100
AcDbLine
 10
-84.46781382407167
 20
-273.3533151570794
 30
0.0
 11
143.5321861759247
 21
-45.35331515708251
 31
0.0
  0
LINE
  5
193
330
1F
100
AcDbEntity
  8
0-0
  6
JWW_DASHED1
 62
   120
370
     5
100
AcDbLine
 10
-84.46781382407337
 20
-287.4954507793956
 30
0.0
 11
143.532186175923
 21
-59.49545077939959
 31
0.0
  0
LINE
  5
194
330
1F
100
AcDbEntity
  8
0-0
  6
JWW_DASHED1
 62
   120
370
     5
100
AcDbLine
 10
-84.46781382407508
 20
-301.6375864017118
 30
0.0
 11
143.5321861759196
 21
-73.63758640171667
 31
0.0
  0
LINE
  5
195
330
1F
100
AcDbEntity
  8
0-0
  6
JWW_DASHED1
 62
   120
370
     5
100
AcDbLine
 10
-84.46781382407764
 20
-315.7797220240289
 30
0.0
 11
143.5321861759341
 21
-87.77972202401713
 31
0.0
  0
LINE
  5
196
330
1F
100
AcDbEntity
  8
0-0
  6
JWW_DASHED1
 62
   120
370
     5
100
AcDbLine
 10
-84.46781382407934
 20
-329.9218576463455
 30
0.0
 11
143.5321861759324
 21
-101.9218576463334
 31
0.0
  0
LINE
  5
197
330
1F
100
AcDbEntity
  8
0-0
  6
JWW_DASHED1
 62
   120
370
     5
100
AcDbLine
 10
-84.4678138240819
 20
-344.0639932686618
 30
0.0
 11
143.5321861759299
 21
-116.0639932686504
 31
0.0
  0
LINE
  5
198
330
1F
100
AcDbEntity
  8
0-0
  6
JWW_DASHED1
 62
   120
370
     5
100
AcDbLine
 10
-84.46781382408446
 20
-358.2061288909789
 30
0.0
 11
143.5321861759273
 21
-130.2061288909671
 31
0.0
  0
LINE
  5
199
330
1F
100
AcDbEntity
  8
0-0
  6
JWW_DASHED1
 62
   120
370
     5
100
AcDbLine
 10
-84.46781382408105
 20
-372.3482645132904
 30
0.0
 11
143.5321861759324
 21
-144.3482645132769
 31
0.0
  0
LINE
  5
19A
330
1F
100
AcDbEntity
  8
0-0
  6
JWW_DASHED1
 62
   120
370
     5
100
AcDbLine
 10
-84.4678138240836
 20
-386.4904001356075
 30
0.0
 11
143.5321861759299
 21
-158.490400135594
 31
0.0
  0
LINE
  5
19B
330
1F
100
AcDbEntity
  8
0-0
  6
JWW_DASHED1
 62
   120
370
     5
100
AcDbLine
 10
-84.46781382407082
 20
-400.6325357579084
 30
0.0
 11
143.5321861759273
 21
-172.6325357579107
 31
0.0
  0
LINE
  5
19C
330
1F
100
AcDbEntity
  8
0-0
  6
JWW_DASHED1
 62
   120
370
     5
100
AcDbLine
 10
-84.46781382407252
 20
-414.7746713802255
 30
0.0
 11
143.5321861759247
 21
-186.7746713802278
 31
0.0
  0
LINE
  5
19D
330
1F
100
AcDbEntity
  8
0-0
  6
JWW_DASHED1
 62
   120
370
     5
100
AcDbLine
 10
-84.46781382407508
 20
-428.9168070025426
 30
0.0
 11
143.532186175923
 21
-200.9168070025449
 31
0.0
  0
LINE
  5
19E
330
1F
100
AcDbEntity
  8
0-0
  6
JWW_DASHED1
 62
   120
370
     5
100
AcDbLine
 10
-84.46781382407764
 20
-443.0589426248592
 30
0.0
 11
143.5321861759205
 21
-215.0589426248615
 31
0.0
  0
LINE
  5
19F
330
1F
100
AcDbEntity
  8
0-0
  6
JWW_DASHED1
 62
   120
370
     5
100
AcDbLine
 10
-84.4678138240674
 20
-457.2010782471643
 30
0.0
 11
143.5321861759282
 21
-229.2010782471688
 31
0.0
  0
LINE
  5
1A0
330
1F
100
AcDbEntity
  8
0-0
  6
JWW_DASHED1
 62
   120
370
     5
100
AcDbLine
 10
-84.46781382407082
 20
-471.343213869481
 30
0.0
 11
143.5321861759256
 21
-243.343213869485
 31
0.0
  0
LINE
  5
1A1
330
1F
100
AcDbEntity
  8
0-0
  6
JWW_DASHED1
 62
   120
370
     5
100
AcDbLine
 10
-84.46781382407252
 20
-485.4853494917981
 30
0.0
 11
143.5321861759239
 21
-257.4853494918017
 31
0.0
  0
LINE
  5
1A2
330
1F
100
AcDbEntity
  8
0-0
  6
JWW_DASHED1
 62
   120
370
     5
100
AcDbLine
 10
-84.46781382407423
 20
-499.6274851141143
 30
0.0
 11
143.5321861759213
 21
-271.6274851141184
 31
0.0
  0
LINE
  5
1A3
330
1F
100
AcDbEntity
  8
0-0
  6
JWW_DASHED1
 62
   120
370
     5
100
AcDbLine
 10
-84.46781382407593
 20
-513.7696207364306
 30
0.0
 11
143.532186175935
 21
-285.7696207364197
 31
0.0
  0
LINE
  5
1A4
330
1F
100
AcDbEntity
  8
0-0
  6
JWW_DASHED1
 62
   120
370
     5
100
AcDbLine
 10
-84.46781382407849
 20
-527.9117563587477
 30
0.0
 11
143.5321861759324
 21
-299.9117563587367
 31
0.0
  0
LINE
  5
1A5
330
1F
100
AcDbEntity
  8
0-0
  6
JWW_DASHED1
 62
   120
370
     5
100
AcDbLine
 10
-84.46781382408105
 20
-542.0538919810647
 30
0.0
 11
143.5321861759299
 21
-314.0538919810534
 31
0.0
  0
LINE
  5
1A6
330
1F
100
AcDbEntity
  8
0-0
  6
JWW_DASHED1
 62
   120
370
     5
100
AcDbLine
 10
-84.46781382408275
 20
-556.1960276033814
 30
0.0
 11
143.5321861759282
 21
-328.1960276033701
 31
0.0
  0
LINE
  5
1A7
330
1F
100
AcDbEntity
  8
0-0
  6
JWW_DASHED1
 62
   120
370
     5
100
AcDbLine
 10
-84.46781382408275
 20
-570.3381632256946
 30
0.0
 11
143.5321861759316
 21
-342.3381632256816
 31
0.0
  0
LINE
  5
1A8
330
1F
100
AcDbEntity
  8
0-0
  6
JWW_DASHED1
 62
   120
370
     5
100
AcDbLine
 10
-84.46781382408446
 20
-584.4802988480117
 30
0.0
 11
143.532186175929
 21
-356.4802988479983
 31
0.0
  0
LINE
  5
1A9
330
1F
100
AcDbEntity
  8
0-0
  6
JWW_DASHED1
 62
   120
370
     5
100
AcDbLine
 10
-84.46781382407082
 20
-598.6224344703122
 30
0.0
 11
143.5321861759265
 21
-370.6224344703153
 31
0.0
  0
LINE
  5
1AA
330
1F
100
AcDbEntity
  8
0-0
  6
JWW_DASHED1
 62
   120
370
     5
100
AcDbLine
 10
-84.46781382407252
 20
-612.7645700926292
 30
0.0
 11
143.5321861759239
 21
-384.764570092632
 31
0.0
  0
LINE
  5
1AB
330
1F
100
AcDbEntity
  8
0-0
  6
JWW_DASHED1
 62
   120
370
     5
100
AcDbLine
 10
-84.46781382407764
 20
-626.9067057149757
 30
0.0
 11
143.5321861759196
 21
-398.9067057149781
 31
0.0
  0
LINE
  5
1AC
330
1F
100
AcDbEntity
  8
0-0
  6
JWW_DASHED1
 62
   120
370
     5
100
AcDbLine
 10
-84.46781382406911
 20
-641.0488413373087
 30
0.0
 11
143.5321861759265
 21
-413.0488413373131
 31
0.0
  0
LINE
  5
1AD
330
1F
100
AcDbEntity
  8
0-0
  6
JWW_DASHED1
 62
   120
370
     5
100
AcDbLine
 10
-84.46781382407082
 20
-655.1909769596252
 30
0.0
 11
143.5321861759247
 21
-427.1909769596297
 31
0.0
  0
LINE
  5
1AE
330
1F
100
AcDbEntity
  8
0-0
  6
JWW_DASHED1
 62
   120
370
     5
100
AcDbLine
 10
-84.46781382407252
 20
-669.3331125819419
 30
0.0
 11
143.532186175923
 21
-441.3331125819464
 31
0.0
  0
LINE
  5
1AF
330
1F
100
AcDbEntity
  8
0-0
  6
JWW_DASHED1
 62
   120
370
     5
100
AcDbLine
 10
-84.46781382407508
 20
-683.4752482042586
 30
0.0
 11
143.5321861759358
 21
-455.4752482042477
 31
0.0
  0
LINE
  5
1B0
330
1F
100
AcDbEntity
  8
0-0
  6
JWW_DASHED1
 62
   120
370
     5
100
AcDbLine
 10
-84.46781382407764
 20
-697.6173838265756
 30
0.0
 11
143.5321861759341
 21
-469.6173838265639
 31
0.0
  0
LINE
  5
1B1
330
1F
100
AcDbEntity
  8
0-0
  6
JWW_DASHED1
 62
   120
370
     5
100
AcDbLine
 10
-84.4678138240802
 20
-711.7595194488923
 30
0.0
 11
143.5321861759316
 21
-483.7595194488802
 31
0.0
  0
LINE
  5
1B2
330
1F
100
AcDbEntity
  8
0-0
  6
JWW_DASHED1
 62
   120
370
     5
100
AcDbLine
 10
-84.4678138240819
 20
-725.901655071209
 30
0.0
 11
143.5321861759299
 21
-497.9016550711972
 31
0.0
  0
LINE
  5
1B3
330
1F
100
AcDbEntity
  8
0-0
  6
JWW_DASHED1
 62
   120
370
     5
100
AcDbLine
 10
-84.4678138240819
 20
-740.0437906935235
 30
0.0
 11
143.5321861759316
 21
-512.0437906935105
 31
0.0
  0
LINE
  5
1B4
330
1F
100
AcDbEntity
  8
0-0
  6
JWW_DASHED1
 62
   120
370
     5
100
AcDbLine
 10
-84.46781382408446
 20
-754.1859263158402
 30
0.0
 11
143.5321861759282
 21
-526.1859263158276
 31
0.0
  0
LINE
  5
1B5
330
1F
100
AcDbEntity
  8
0-0
  6
JWW_DASHED1
 62
   120
370
     5
100
AcDbLine
 10
-84.46781382407167
 20
-768.3280619381419
 30
0.0
 11
143.5321861759265
 21
-540.3280619381438
 31
0.0
  0
LINE
  5
1B6
330
1F
100
AcDbEntity
  8
0-0
  6
JWW_DASHED1
 62
   120
370
     5
100
AcDbLine
 10
-84.46781382407337
 20
-782.4701975604586
 30
0.0
 11
143.5321861759239
 21
-554.4701975604613
 31
0.0
  0
LINE
  5
1B7
330
1F
100
AcDbEntity
  8
0-0
  6
JWW_DASHED1
 62
   120
370
     5
100
AcDbLine
 10
-84.46781382407593
 20
-796.6123331827753
 30
0.0
 11
143.5321861759222
 21
-568.6123331827775
 31
0.0
  0
LINE
  5
1B8
330
1F
100
AcDbEntity
  8
0-0
  6
JWW_DASHED1
 62
   120
370
     5
100
AcDbLine
 10
-84.46781382407764
 20
-810.7544688050918
 30
0.0
 11
143.5321861759196
 21
-582.7544688050938
 31
0.0
  0
LINE
  5
1B9
330
1F
100
AcDbEntity
  8
0-0
  6
JWW_DASHED1
 62
   120
370
     5
100
AcDbLine
 10
-84.4678138240657
 20
-824.8966044273941
 30
0.0
 11
143.5321861759299
 21
-596.8966044273989
 31
0.0
  0
LINE
  5
1BA
330
1F
100
AcDbEntity
  8
0-0
  6
JWW_DASHED1
 62
   120
370
     5
100
AcDbLine
 10
-84.4678138240674
 20
-839.0387400497111
 30
0.0
 11
143.5321861759273
 21
-611.0387400497156
 31
0.0
  0
LINE
  5
1BB
330
1F
100
AcDbEntity
  8
0-0
  6
JWW_DASHED1
 62
   120
370
     5
100
AcDbLine
 10
-84.46781382407082
 20
-853.1808756720278
 30
0.0
 11
143.5321861759256
 21
-625.1808756720322
 31
0.0
  0
LINE
  5
1BC
330
1F
100
AcDbEntity
  8
0-0
  6
JWW_DASHED1
 62
   120
370
     5
100
AcDbLine
 10
-84.46781382407252
 20
-867.323011294345
 30
0.0
 11
143.5321861759239
 21
-639.3230112943485
 31
0.0
  0
LINE
  5
1BD
330
1F
100
AcDbEntity
  8
0-0
  6
JWW_DASHED1
 62
   120
370
     5
100
AcDbLine
 10
-84.46781382407508
 20
-881.465146916662
 30
0.0
 11
143.5321861759367
 21
-653.4651469166498
 31
0.0
  0
LINE
  5
1BE
330
1F
100
AcDbEntity
  8
0-0
  6
JWW_DASHED1
 62
   120
370
     5
100
AcDbLine
 10
-84.46781382407679
 20
-895.6072825389782
 30
0.0
 11
143.532186175935
 21
-667.6072825389665
 31
0.0
  0
LINE
  5
1BF
330
1F
100
AcDbEntity
  8
0-0
  6
JWW_DASHED1
 62
   120
370
     5
100
AcDbLine
 10
-84.46781382407849
 20
-909.7494181612944
 30
0.0
 11
143.5321861759324
 21
-681.7494181612835
 31
0.0
  0
LINE
  5
1C0
330
1F
100
AcDbEntity
  8
0-0
  6
JWW_DASHED1
 62
   120
370
     5
100
AcDbLine
 10
-84.46781382408105
 20
-923.8915537836115
 30
0.0
 11
143.5321861759299
 21
-695.8915537836006
 31
0.0
  0
LINE
  5
1C1
330
1F
100
AcDbEntity
  8
0-0
  6
JWW_DASHED1
 62
   120
370
     5
100
AcDbLine
 10
-84.46781382408275
 20
-938.0336894059274
 30
0.0
 11
143.5321861759299
 21
-710.0336894059151
 31
0.0
  0
LINE
  5
1C2
330
1F
100
AcDbEntity
  8
0-0
  6
JWW_DASHED1
 62
   120
370
     5
100
AcDbLine
 10
-84.46781382408446
 20
-952.1758250282439
 30
0.0
 11
143.5321861759282
 21
-724.1758250282314
 31
0.0
  0
LINE
  5
1C3
330
1F
100
AcDbEntity
  8
0-0
  6
JWW_DASHED1
 62
   120
370
     5
100
AcDbLine
 10
-84.46781382407082
 20
-966.3179606505453
 30
0.0
 11
143.5321861759265
 21
-738.3179606505475
 31
0.0
  0
LINE
  5
1C4
330
1F
100
AcDbEntity
  8
0-0
  6
JWW_DASHED1
 62
   120
370
     5
100
AcDbLine
 10
-84.46781382407423
 20
-980.4600962728624
 30
0.0
 11
143.5321861759239
 21
-752.4600962728647
 31
0.0
  0
LINE
  5
1C5
330
1F
100
AcDbEntity
  8
0-0
  6
JWW_DASHED1
 62
   120
370
     5
100
AcDbLine
 10
-84.46781382407593
 20
-994.6022318951791
 30
0.0
 11
143.5321861759213
 21
-766.6022318951814
 31
0.0
  0
LINE
  5
1C6
330
1F
100
AcDbEntity
  8
0-0
  6
JWW_DASHED1
 62
   120
370
     5
100
AcDbLine
 10
-84.4678138240674
 20
-1008.744367517539
 30
0.0
 11
143.5321861759282
 21
-780.7443675175437
 31
0.0
  0
LINE
  5
1C7
330
1F
100
AcDbEntity
  8
0-0
  6
JWW_DASHED1
 62
   120
370
     5
100
AcDbLine
 10
-84.46781382406911
 20
-1022.886503139856
 30
0.0
 11
143.5321861759265
 21
-794.8865031398602
 31
0.0
  0
LINE
  5
1C8
330
1F
100
AcDbEntity
  8
0-0
  6
JWW_DASHED1
 62
   120
370
     5
100
AcDbLine
 10
-80.76405247674714
 20
-1033.324877414848
 30
0.0
 11
143.5321861759247
 21
-809.0286387621766
 31
0.0
  0
LINE
  5
1C9
330
1F
100
AcDbEntity
  8
0-0
  6
JWW_DASHED1
 62
   120
370
     5
100
AcDbLine
 10
-66.62191685443176
 20
-1033.324877414847
 30
0.0
 11
143.5321861759384
 21
-823.1707743844778
 31
0.0
  0
LINE
  5
1CA
330
1F
100
AcDbEntity
  8
0-0
  6
JWW_DASHED1
 62
   120
370
     5
100
AcDbLine
 10
-52.47978123211553
 20
-1033.324877414846
 30
0.0
 11
143.5321861759358
 21
-837.3129100067945
 31
0.0
  0
LINE
  5
1CB
330
1F
100
AcDbEntity
  8
0-0
  6
JWW_DASHED1
 62
   120
370
     5
100
AcDbLine
 10
-38.33764560980015
 20
-1033.324877414845
 30
0.0
 11
143.5321861759333
 21
-851.4550456291107
 31
0.0
  0
LINE
  5
1CC
330
1F
100
AcDbEntity
  8
0-0
  6
JWW_DASHED1
 62
   120
370
     5
100
AcDbLine
 10
-24.19550998748477
 20
-1033.324877414843
 30
0.0
 11
143.5321861759316
 21
-865.5971812514279
 31
0.0
  0
LINE
  5
1CD
330
1F
100
AcDbEntity
  8
0-0
  6
JWW_DASHED1
 62
   120
370
     5
100
AcDbLine
 10
-10.05337436516854
 20
-1033.324877414842
 30
0.0
 11
143.5321861759299
 21
-879.739316873744
 31
0.0
  0
LINE
  5
1CE
330
1F
100
AcDbEntity
  8
0-0
  6
JWW_DASHED1
 62
   120
370
     5
100
AcDbLine
 10
4.088761257147695
 20
-1033.32487741484
 30
0.0
 11
143.5321861759282
 21
-893.8814524960599
 31
0.0
  0
LINE
  5
1CF
330
1F
100
AcDbEntity
  8
0-0
  6
JWW_DASHED1
 62
   120
370
     5
100
AcDbLine
 10
18.23089687946393
 20
-1033.324877414839
 30
0.0
 11
143.5321861759265
 21
-908.0235881183769
 31
0.0
  0
LINE
  5
1D0
330
1F
100
AcDbEntity
  8
0-0
  6
JWW_DASHED1
 62
   120
370
     5
100
AcDbLine
 10
32.37303250177163
 20
-1033.324877414846
 30
0.0
 11
143.532186175923
 21
-922.1657237406936
 31
0.0
  0
LINE
  5
1D1
330
1F
100
AcDbEntity
  8
0-0
  6
JWW_DASHED1
 62
   120
370
     5
100
AcDbLine
 10
46.51516812408786
 20
-1033.324877414844
 30
0.0
 11
143.5321861759213
 21
-936.3078593630107
 31
0.0
  0
LINE
  5
1D2
330
1F
100
AcDbEntity
  8
0-0
  6
JWW_DASHED1
 62
   120
370
     5
100
AcDbLine
 10
60.6573037464058
 20
-1033.324877414841
 30
0.0
 11
143.5321861759188
 21
-950.4499949853277
 31
0.0
  0
LINE
  5
1D3
330
1F
100
AcDbEntity
  8
0-0
  6
JWW_DASHED1
 62
   120
370
     5
100
AcDbLine
 10
74.79943936870669
 20
-1033.324877414854
 30
0.0
 11
143.5321861759316
 21
-964.5921306076286
 31
0.0
  0
LINE
  5
1D4
330
1F
100
AcDbEntity
  8
0-0
  6
JWW_DASHED1
 62
   120
370
     5
100
AcDbLine
 10
88.94157499102292
 20
-1033.324877414852
 30
0.0
 11
143.5321861759299
 21
-978.7342662299457
 31
0.0
  0
LINE
  5
1D5
330
1F
100
AcDbEntity
  8
0-0
  6
JWW_DASHED1
 62
   120
370
     5
100
AcDbLine
 10
103.0837106133392
 20
-1033.32487741485
 30
0.0
 11
143.5321861759273
 21
-992.8764018522628
 31
0.0
  0
LINE
  5
1D6
330
1F
100
AcDbEntity
  8
0-0
  6
JWW_DASHED1
 62
   120
370
     5
100
AcDbLine
 10
117.2258462356571
 20
-1033.324877414848
 30
0.0
 11
143.5321861759256
 21
-1007.018537474579
 31
0.0
  0
LINE
  5
1D7
330
1F
100
AcDbEntity
  8
0-0
  6
JWW_DASHED1
 62
   120
370
     5
100
AcDbLine
 10
131.367981857958
 20
-1033.32487741486
 30
0.0
 11
143.5321861759392
 21
-1021.160673096879
 31
0.0
  0
LINE
  5
1D8
330
1F
100
AcDbEntity
  8
0-0
  6
JWW_DASHED1
 62
   120
370
     5
100
AcDbLine
 10
695.5321861759138
 20
1126.718111452318
 30
0.0
 11
702.4891973087624
 21
1133.675122585166
 31
0.0
  0
LINE
  5
1D9
330
1F
100
AcDbEntity
  8
0-0
  6
JWW_DASHED1
 62
   120
370
     5
100
AcDbLine
 10
695.5321861759121
 20
1112.575975830001
 30
0.0
 11
716.6313329310777
 21
1133.675122585167
 31
0.0
  0
LINE
  5
1DA
330
1F
100
AcDbEntity
  8
0-0
  6
JWW_DASHED1
 62
   120
370
     5
100
AcDbLine
 10
695.5321861759104
 20
1098.433840207684
 30
0.0
 11
730.773468553394
 21
1133.675122585168
 31
0.0
  0
LINE
  5
1DB
330
1F
100
AcDbEntity
  8
0-0
  6
JWW_DASHED1
 62
   120
370
     5
100
AcDbLine
 10
695.5321861759079
 20
1084.291704585368
 30
0.0
 11
744.9156041757102
 21
1133.675122585169
 31
0.0
  0
LINE
  5
1DC
330
1F
100
AcDbEntity
  8
0-0
  6
JWW_DASHED1
 62
   120
370
     5
100
AcDbLine
 10
695.5321861759206
 20
1070.149568963066
 30
0.0
 11
759.0577397980103
 21
1133.675122585155
 31
0.0
  0
LINE
  5
1DD
330
1F
100
AcDbEntity
  8
0-0
  6
JWW_DASHED1
 62
   120
370
     5
100
AcDbLine
 10
695.5321861759189
 20
1056.007433340749
 30
0.0
 11
773.1998754203256
 21
1133.675122585157
 31
0.0
  0
LINE
  5
1DE
330
1F
100
AcDbEntity
  8
0-0
  6
JWW_DASHED1
 62
   120
370
     5
100
AcDbLine
 10
695.5321861759301
 20
1041.865297718419
 30
0.0
 11
787.3420110426623
 21
1133.67512258515
 31
0.0
  0
LINE
  5
1DF
330
1F
100
AcDbEntity
  8
0-0
  6
JWW_DASHED1
 62
   120
370
     5
100
AcDbLine
 10
695.5321861759257
 20
1027.723162096073
 30
0.0
 11
801.4841466650084
 21
1133.675122585155
 31
0.0
  0
LINE
  5
1E0
330
1F
100
AcDbEntity
  8
0-0
  6
JWW_DASHED1
 62
   120
370
     5
100
AcDbLine
 10
695.532186175924
 20
1013.581026473757
 30
0.0
 11
815.6262822873255
 21
1133.675122585158
 31
0.0
  0
LINE
  5
1E1
330
1F
100
AcDbEntity
  8
0-0
  6
JWW_DASHED1
 62
   120
370
     5
100
AcDbLine
 10
695.5321861759223
 20
999.4388908514404
 30
0.0
 11
829.7684179096417
 21
1133.67512258516
 31
0.0
  0
LINE
  5
1E2
330
1F
100
AcDbEntity
  8
0-0
  6
JWW_DASHED1
 62
   120
370
     5
100
AcDbLine
 10
695.5321861759206
 20
985.2967552291237
 30
0.0
 11
843.9105535319579
 21
1133.675122585162
 31
0.0
  0
LINE
  5
1E3
330
1F
100
AcDbEntity
  8
0-0
  6
JWW_DASHED1
 62
   120
370
     5
100
AcDbLine
 10
695.5321861759172
 20
971.1546196068066
 30
0.0
 11
858.0526891542639
 21
1133.675122585153
 31
0.0
  0
LINE
  5
1E4
330
1F
100
AcDbEntity
  8
0-0
  6
JWW_DASHED1
 62
   120
370
     5
100
AcDbLine
 10
695.5321861759155
 20
957.01248398449
 30
0.0
 11
872.1948247765802
 21
1133.675122585154
 31
0.0
  0
LINE
  5
1E5
330
1F
100
AcDbEntity
  8
0-0
  6
JWW_DASHED1
 62
   120
370
     5
100
AcDbLine
 10
695.5321861759138
 20
942.8703483621733
 30
0.0
 11
886.3369603988964
 21
1133.675122585156
 31
0.0
  0
LINE
  5
1E6
330
1F
100
AcDbEntity
  8
0-0
  6
JWW_DASHED1
 62
   120
370
     5
100
AcDbLine
 10
695.5321861759113
 20
928.7282127398566
 30
0.0
 11
900.4790960212118
 21
1133.675122585157
 31
0.0
  0
LINE
  5
1E7
330
1F
100
AcDbEntity
  8
0-0
  6
JWW_DASHED1
 62
   120
370
     5
100
AcDbLine
 10
695.5321861759087
 20
914.58607711754
 30
0.0
 11
914.6212316435272
 21
1133.675122585159
 31
0.0
  0
LINE
  5
1E8
330
1F
100
AcDbEntity
  8
0-0
  6
JWW_DASHED1
 62
   120
370
     5
100
AcDbLine
 10
695.5321861759206
 20
900.4439414952369
 30
0.0
 11
923.5321861759342
 21
1128.44394149525
 31
0.0
  0
LINE
  5
1E9
330
1F
100
AcDbEntity
  8
0-0
  6
JWW_DASHED1
 62
   120
370
     5
100
AcDbLine
 10
695.5321861759189
 20
886.3018058729203
 30
0.0
 11
923.5321861759315
 21
1114.301805872933
 31
0.0
  0
LINE
  5
1EA
330
1F
100
AcDbEntity
  8
0-0
  6
JWW_DASHED1
 62
   120
370
     5
100
AcDbLine
 10
695.5321861759326
 20
872.1596702506195
 30
0.0
 11
923.5321861759298
 21
1100.159670250617
 31
0.0
  0
LINE
  5
1EB
330
1F
100
AcDbEntity
  8
0-0
  6
JWW_DASHED1
 62
   120
370
     5
100
AcDbLine
 10
695.5321861759301
 20
858.0175346283028
 30
0.0
 11
923.5321861759264
 21
1086.0175346283
 31
0.0
  0
LINE
  5
1EC
330
1F
100
AcDbEntity
  8
0-0
  6
JWW_DASHED1
 62
   120
370
     5
100
AcDbLine
 10
695.5321861759274
 20
843.8753990059856
 30
0.0
 11
923.5321861759247
 21
1071.875399005983
 31
0.0
  0
LINE
  5
1ED
330
1F
100
AcDbEntity
  8
0-0
  6
JWW_DASHED1
 62
   120
370
     5
100
AcDbLine
 10
695.5321861759274
 20
829.7332633836711
 30
0.0
 11
923.532186175923
 21
1057.733263383667
 31
0.0
  0
LINE
  5
1EE
330
1F
100
AcDbEntity
  8
0-0
  6
JWW_DASHED1
 62
   120
370
     5
100
AcDbLine
 10
695.532186175925
 20
815.5911277613541
 30
0.0
 11
923.5321861759213
 21
1043.59112776135
 31
0.0
  0
LINE
  5
1EF
330
1F
100
AcDbEntity
  8
0-0
  6
JWW_DASHED1
 62
   120
370
     5
100
AcDbLine
 10
695.5321861759223
 20
801.4489921390374
 30
0.0
 11
923.5321861759188
 21
1029.448992139033
 31
0.0
  0
LINE
  5
1F0
330
1F
100
AcDbEntity
  8
0-0
  6
JWW_DASHED1
 62
   120
370
     5
100
AcDbLine
 10
695.5321861759206
 20
787.3068565167207
 30
0.0
 11
923.5321861759162
 21
1015.306856516717
 31
0.0
  0
LINE
  5
1F1
330
1F
100
AcDbEntity
  8
0-0
  6
JWW_DASHED1
 62
   120
370
     5
100
AcDbLine
 10
695.5321861759189
 20
773.1647208944041
 30
0.0
 11
923.5321861759298
 21
1001.164720894416
 31
0.0
  0
LINE
  5
1F2
330
1F
100
AcDbEntity
  8
0-0
  6
JWW_DASHED1
 62
   120
370
     5
100
AcDbLine
 10
695.5321861759172
 20
759.0225852720879
 30
0.0
 11
923.5321861759281
 21
987.0225852720991
 31
0.0
  0
LINE
  5
1F3
330
1F
100
AcDbEntity
  8
0-0
  6
JWW_DASHED1
 62
   120
370
     5
100
AcDbLine
 10
695.5321861759138
 20
744.8804496497708
 30
0.0
 11
923.5321861759264
 21
972.8804496497826
 31
0.0
  0
LINE
  5
1F4
330
1F
100
AcDbEntity
  8
0-0
  6
JWW_DASHED1
 62
   120
370
     5
100
AcDbLine
 10
695.5321861759121
 20
730.7383140274545
 30
0.0
 11
923.5321861759239
 21
958.7383140274659
 31
0.0
  0
LINE
  5
1F5
330
1F
100
AcDbEntity
  8
0-0
  6
JWW_DASHED1
 62
   120
370
     5
100
AcDbLine
 10
695.5321861759079
 20
716.596178405108
 30
0.0
 11
923.5321861759196
 21
944.5961784051194
 31
0.0
  0
LINE
  5
1F6
330
1F
100
AcDbEntity
  8
0-0
  6
JWW_DASHED1
 62
   120
370
     5
100
AcDbLine
 10
695.5321861759318
 20
702.4540427827906
 30
0.0
 11
923.532186175929
 21
930.4540427827874
 31
0.0
  0
LINE
  5
1F7
330
1F
100
AcDbEntity
  8
0-0
  6
JWW_DASHED1
 62
   120
370
     5
100
AcDbLine
 10
695.5321861759301
 20
688.3119071604739
 30
0.0
 11
923.5321861759273
 21
916.3119071604712
 31
0.0
  0
LINE
  5
1F8
330
1F
100
AcDbEntity
  8
0-0
  6
JWW_DASHED1
 62
   120
370
     5
100
AcDbLine
 10
695.5321861759274
 20
674.1697715381572
 30
0.0
 11
923.5321861759247
 21
902.169771538154
 31
0.0
  0
LINE
  5
1F9
330
1F
100
AcDbEntity
  8
0-0
  6
JWW_DASHED1
 62
   120
370
     5
100
AcDbLine
 10
695.5321861759292
 20
660.027635915844
 30
0.0
 11
923.5321861759247
 21
888.0276359158391
 31
0.0
  0
LINE
  5
1FA
330
1F
100
AcDbEntity
  8
0-0
  6
JWW_DASHED1
 62
   120
370
     5
100
AcDbLine
 10
695.5321861759267
 20
645.8855002935269
 30
0.0
 11
923.5321861759213
 21
873.885500293522
 31
0.0
  0
LINE
  5
1FB
330
1F
100
AcDbEntity
  8
0-0
  6
JWW_DASHED1
 62
   120
370
     5
100
AcDbLine
 10
695.532186175924
 20
631.7433646712097
 30
0.0
 11
923.5321861759196
 21
859.7433646712058
 31
0.0
  0
LINE
  5
1FC
330
1F
100
AcDbEntity
  8
0-0
  6
JWW_DASHED1
 62
   120
370
     5
100
AcDbLine
 10
695.5321861759223
 20
617.6012290488932
 30
0.0
 11
923.5321861759179
 21
845.6012290488887
 31
0.0
  0
LINE
  5
1FD
330
1F
100
AcDbEntity
  8
0-0
  6
JWW_DASHED1
 62
   120
370
     5
100
AcDbLine
 10
695.5321861759189
 20
603.459093426576
 30
0.0
 11
923.5321861759315
 21
831.4590934265882
 31
0.0
  0
LINE
  5
1FE
330
1F
100
AcDbEntity
  8
0-0
  6
JWW_DASHED1
 62
   120
370
     5
100
AcDbLine
 10
695.5321861759172
 20
589.3169578042598
 30
0.0
 11
923.532186175929
 21
817.3169578042712
 31
0.0
  0
LINE
  5
1FF
330
1F
100
AcDbEntity
  8
0-0
  6
JWW_DASHED1
 62
   120
370
     5
100
AcDbLine
 10
695.5321861759155
 20
575.1748221819436
 30
0.0
 11
923.5321861759264
 21
803.1748221819545
 31
0.0
  0
LINE
  5
200
330
1F
100
AcDbEntity
  8
0-0
  6
JWW_DASHED1
 62
   120
370
     5
100
AcDbLine
 10
695.5321861759138
 20
561.0326865596265
 30
0.0
 11
923.5321861759247
 21
789.0326865596383
 31
0.0
  0
LINE
  5
201
330
1F
100
AcDbEntity
  8
0-0
  6
JWW_DASHED1
 62
   120
370
     5
100
AcDbLine
 10
695.5321861759104
 20
546.8905509373094
 30
0.0
 11
923.532186175923
 21
774.8905509373212
 31
0.0
  0
LINE
  5
202
330
1F
100
AcDbEntity
  8
0-0
  6
JWW_DASHED1
 62
   120
370
     5
100
AcDbLine
 10
695.5321861759206
 20
532.7484153150046
 30
0.0
 11
923.5321861759332
 21
760.7484153150174
 31
0.0
  0
LINE
  5
203
330
1F
100
AcDbEntity
  8
0-0
  6
JWW_DASHED1
 62
   120
370
     5
100
AcDbLine
 10
695.5321861759181
 20
518.6062796926876
 30
0.0
 11
923.5321861759315
 21
746.6062796927007
 31
0.0
  0
LINE
  5
204
330
1F
100
AcDbEntity
  8
0-0
  6
JWW_DASHED1
 62
   120
370
     5
100
AcDbLine
 10
695.5321861759309
 20
504.4641440703867
 30
0.0
 11
923.5321861759281
 21
732.4641440703836
 31
0.0
  0
LINE
  5
205
330
1F
100
AcDbEntity
  8
0-0
  6
JWW_DASHED1
 62
   120
370
     5
100
AcDbLine
 10
695.5321861759292
 20
490.3220084480697
 30
0.0
 11
923.5321861759264
 21
718.3220084480673
 31
0.0
  0
LINE
  5
206
330
1F
100
AcDbEntity
  8
0-0
  6
JWW_DASHED1
 62
   120
370
     5
100
AcDbLine
 10
695.5321861759267
 20
476.1798728257526
 30
0.0
 11
923.5321861759247
 21
704.1798728257503
 31
0.0
  0
LINE
  5
207
330
1F
100
AcDbEntity
  8
0-0
  6
JWW_DASHED1
 62
   120
370
     5
100
AcDbLine
 10
695.5321861759292
 20
462.0377372034406
 30
0.0
 11
923.5321861759247
 21
690.0377372034366
 31
0.0
  0
LINE
  5
208
330
1F
100
AcDbEntity
  8
0-0
  6
JWW_DASHED1
 62
   120
370
     5
100
AcDbLine
 10
695.5321861759267
 20
447.8956015811235
 30
0.0
 11
923.532186175923
 21
675.89560158112
 31
0.0
  0
LINE
  5
209
330
1F
100
AcDbEntity
  8
0-0
  6
JWW_DASHED1
 62
   120
370
     5
100
AcDbLine
 10
695.532186175925
 20
433.7534659588073
 30
0.0
 11
923.5321861759213
 21
661.7534659588033
 31
0.0
  0
LINE
  5
20A
330
1F
100
AcDbEntity
  8
0-0
  6
JWW_DASHED1
 62
   120
370
     5
100
AcDbLine
 10
695.5321861759232
 20
419.6113303364911
 30
0.0
 11
923.5321861759179
 21
647.6113303364862
 31
0.0
  0
LINE
  5
20B
330
1F
100
AcDbEntity
  8
0-0
  6
JWW_DASHED1
 62
   120
370
     5
100
AcDbLine
 10
695.5321861759206
 20
405.469194714174
 30
0.0
 11
923.5321861759325
 21
633.4691947141857
 31
0.0
  0
LINE
  5
20C
330
1F
100
AcDbEntity
  8
0-0
  6
JWW_DASHED1
 62
   120
370
     5
100
AcDbLine
 10
695.5321861759138
 20
391.3270590917984
 30
0.0
 11
923.5321861759264
 21
619.3270590918103
 31
0.0
  0
LINE
  5
20D
330
1F
100
AcDbEntity
  8
0-0
  6
JWW_DASHED1
 62
   120
370
     5
100
AcDbLine
 10
695.5321861759121
 20
377.1849234694818
 30
0.0
 11
923.532186175923
 21
605.1849234694931
 31
0.0
  0
LINE
  5
20E
330
1F
100
AcDbEntity
  8
0-0
  6
JWW_DASHED1
 62
   120
370
     5
100
AcDbLine
 10
695.5321861759206
 20
363.0427878471754
 30
0.0
 11
923.5321861759332
 21
591.0427878471885
 31
0.0
  0
LINE
  5
20F
330
1F
100
AcDbEntity
  8
0-0
  6
JWW_DASHED1
 62
   120
370
     5
100
AcDbLine
 10
695.5321861759181
 20
348.9006522248587
 30
0.0
 11
923.5321861759307
 21
576.9006522248714
 31
0.0
  0
LINE
  5
210
330
1F
100
AcDbEntity
  8
0-0
  6
JWW_DASHED1
 62
   120
370
     5
100
AcDbLine
 10
695.5321861759309
 20
334.7585166025574
 30
0.0
 11
923.5321861759281
 21
562.7585166025542
 31
0.0
  0
LINE
  5
211
330
1F
100
AcDbEntity
  8
0-0
  6
JWW_DASHED1
 62
   120
370
     5
100
AcDbLine
 10
695.5321861759292
 20
320.6163809802404
 30
0.0
 11
923.5321861759264
 21
548.6163809802381
 31
0.0
  0
LINE
  5
212
330
1F
100
AcDbEntity
  8
0-0
  6
JWW_DASHED1
 62
   120
370
     5
100
AcDbLine
 10
695.5321861759267
 20
306.4742453579237
 30
0.0
 11
923.5321861759247
 21
534.4742453579214
 31
0.0
  0
LINE
  5
213
330
1F
100
AcDbEntity
  8
0-0
  6
JWW_DASHED1
 62
   120
370
     5
100
AcDbLine
 10
695.5321861759309
 20
292.3321097356134
 30
0.0
 11
923.5321861759264
 21
520.332109735609
 31
0.0
  0
LINE
  5
214
330
1F
100
AcDbEntity
  8
0-0
  6
JWW_DASHED1
 62
   120
370
     5
100
AcDbLine
 10
695.5321861759284
 20
278.1899741132963
 30
0.0
 11
923.5321861759247
 21
506.1899741132924
 31
0.0
  0
LINE
  5
215
330
1F
100
AcDbEntity
  8
0-0
  6
JWW_DASHED1
 62
   120
370
     5
100
AcDbLine
 10
695.5321861759267
 20
264.0478384909801
 30
0.0
 11
923.5321861759213
 21
492.0478384909752
 31
0.0
  0
LINE
  5
216
330
1F
100
AcDbEntity
  8
0-0
  6
JWW_DASHED1
 62
   120
370
     5
100
AcDbLine
 10
695.532186175924
 20
249.905702868663
 30
0.0
 11
923.5321861759196
 21
477.9057028686582
 31
0.0
  0
LINE
  5
217
330
1F
100
AcDbEntity
  8
0-0
  6
JWW_DASHED1
 62
   120
370
     5
100
AcDbLine
 10
695.5321861759215
 20
235.7635672463459
 30
0.0
 11
923.5321861759171
 21
463.7635672463415
 31
0.0
  0
LINE
  5
218
330
1F
100
AcDbEntity
  8
0-0
  6
JWW_DASHED1
 62
   120
370
     5
100
AcDbLine
 10
695.5321861759189
 20
221.6214316240293
 30
0.0
 11
923.5321861759315
 21
449.6214316240415
 31
0.0
  0
LINE
  5
219
330
1F
100
AcDbEntity
  8
0-0
  6
JWW_DASHED1
 62
   120
370
     5
100
AcDbLine
 10
695.5321861759172
 20
207.479296001713
 30
0.0
 11
923.532186175929
 21
435.4792960017244
 31
0.0
  0
LINE
  5
21A
330
1F
100
AcDbEntity
  8
0-0
  6
JWW_DASHED1
 62
   120
370
     5
100
AcDbLine
 10
695.5321861759155
 20
193.3371603793964
 30
0.0
 11
923.5321861759264
 21
421.3371603794077
 31
0.0
  0
LINE
  5
21B
330
1F
100
AcDbEntity
  8
0-0
  6
JWW_DASHED1
 62
   120
370
     5
100
AcDbLine
 10
695.5321861759138
 20
179.1950247570797
 30
0.0
 11
923.5321861759247
 21
407.1950247570907
 31
0.0
  0
LINE
  5
21C
330
1F
100
AcDbEntity
  8
0-0
  6
JWW_DASHED1
 62
   120
370
     5
100
AcDbLine
 10
695.5321861759189
 20
165.0528891347712
 30
0.0
 11
923.5321861759332
 21
393.0528891347847
 31
0.0
  0
LINE
  5
21D
330
1F
100
AcDbEntity
  8
0-0
  6
JWW_DASHED1
 62
   120
370
     5
100
AcDbLine
 10
695.5321861759172
 20
150.9107535124541
 30
0.0
 11
923.5321861759298
 21
378.9107535124675
 31
0.0
  0
LINE
  5
21E
330
1F
100
AcDbEntity
  8
0-0
  6
JWW_DASHED1
 62
   120
370
     5
100
AcDbLine
 10
695.5321861759309
 20
136.7686178901536
 30
0.0
 11
923.5321861759281
 21
364.7686178901509
 31
0.0
  0
LINE
  5
21F
330
1F
100
AcDbEntity
  8
0-0
  6
JWW_DASHED1
 62
   120
370
     5
100
AcDbLine
 10
695.5321861759292
 20
122.6264822678374
 30
0.0
 11
923.5321861759256
 21
350.6264822678338
 31
0.0
  0
LINE
  5
220
330
1F
100
AcDbEntity
  8
0-0
  6
JWW_DASHED1
 62
   120
370
     5
100
AcDbLine
 10
695.5321861759267
 20
108.4843466455203
 30
0.0
 11
923.5321861759239
 21
336.4843466455176
 31
0.0
  0
LINE
  5
221
330
1F
100
AcDbEntity
  8
0-0
  6
JWW_DASHED1
 62
   120
370
     5
100
AcDbLine
 10
695.532186175924
 20
94.34221102320322
 30
0.0
 11
923.5321861759213
 21
322.3422110232005
 31
0.0
  0
LINE
  5
222
330
1F
100
AcDbEntity
  8
0-0
  6
JWW_DASHED1
 62
   120
370
     5
100
AcDbLine
 10
695.5321861759292
 20
80.20007540089381
 30
0.0
 11
923.5321861759247
 21
308.2000754008898
 31
0.0
  0
LINE
  5
223
330
1F
100
AcDbEntity
  8
0-0
  6
JWW_DASHED1
 62
   120
370
     5
100
AcDbLine
 10
695.5321861759223
 20
66.05793977851832
 30
0.0
 11
923.5321861759196
 21
294.0579397785148
 31
0.0
  0
LINE
  5
224
330
1F
100
AcDbEntity
  8
0-0
  6
JWW_DASHED1
 62
   120
370
     5
100
AcDbLine
 10
695.5321861759206
 20
51.91580415620123
 30
0.0
 11
923.5321861759325
 21
279.9158041562134
 31
0.0
  0
LINE
  5
225
330
1F
100
AcDbEntity
  8
0-0
  6
JWW_DASHED1
 62
   120
370
     5
100
AcDbLine
 10
695.5321861759189
 20
37.773668533885
 30
0.0
 11
923.5321861759298
 21
265.7736685338963
 31
0.0
  0
LINE
  5
226
330
1F
100
AcDbEntity
  8
0-0
  6
JWW_DASHED1
 62
   120
370
     5
100
AcDbLine
 10
695.5321861759164
 20
23.63153291156877
 30
0.0
 11
923.5321861759281
 21
251.6315329115797
 31
0.0
  0
LINE
  5
227
330
1F
100
AcDbEntity
  8
0-0
  6
JWW_DASHED1
 62
   120
370
     5
100
AcDbLine
 10
695.5321861759138
 20
9.489397289251684
 30
0.0
 11
923.5321861759247
 21
237.4893972892626
 31
0.0
  0
LINE
  5
228
330
1F
100
AcDbEntity
  8
0-0
  6
JWW_DASHED1
 62
   120
370
     5
100
AcDbLine
 10
695.5321861759189
 20
-4.652738333058153
 30
0.0
 11
923.5321861759325
 21
223.3472616669553
 31
0.0
  0
LINE
  5
229
330
1F
100
AcDbEntity
  8
0-0
  6
JWW_DASHED1
 62
   120
370
     5
100
AcDbLine
 10
695.5321861759172
 20
-18.79487395537481
 30
0.0
 11
923.5321861759298
 21
209.2051260446382
 31
0.0
  0
LINE
  5
22A
330
1F
100
AcDbEntity
  8
0-0
  6
JWW_DASHED1
 62
   120
370
     5
100
AcDbLine
 10
695.5321861759309
 20
-32.9370095776757
 30
0.0
 11
923.5321861759281
 21
195.0629904223216
 31
0.0
  0
LINE
  5
22B
330
1F
100
AcDbEntity
  8
0-0
  6
JWW_DASHED1
 62
   120
370
     5
100
AcDbLine
 10
695.5321861759274
 20
-47.07914519999235
 30
0.0
 11
923.5321861759247
 21
180.9208548000045
 31
0.0
  0
LINE
  5
22C
330
1F
100
AcDbEntity
  8
0-0
  6
JWW_DASHED1
 62
   120
370
     5
100
AcDbLine
 10
695.5321861759257
 20
-61.22128082230901
 30
0.0
 11
923.532186175923
 21
166.7787191776878
 31
0.0
  0
LINE
  5
22D
330
1F
100
AcDbEntity
  8
0-0
  6
JWW_DASHED1
 62
   120
370
     5
100
AcDbLine
 10
695.532186175924
 20
-75.36341644462567
 30
0.0
 11
923.5321861759213
 21
152.6365835553712
 31
0.0
  0
LINE
  5
22E
330
1F
100
AcDbEntity
  8
0-0
  6
JWW_DASHED1
 62
   120
370
     5
100
AcDbLine
 10
695.5321861759301
 20
-89.50555206693423
 30
0.0
 11
923.5321861759264
 21
138.4944479330618
 31
0.0
  0
LINE
  5
22F
330
1F
100
AcDbEntity
  8
0-0
  6
JWW_DASHED1
 62
   120
370
     5
100
AcDbLine
 10
695.5321861759284
 20
-103.6476876892505
 30
0.0
 11
923.5321861759239
 21
124.3523123107455
 31
0.0
  0
LINE
  5
230
330
1F
100
AcDbEntity
  8
0-0
  6
JWW_DASHED1
 62
   120
370
     5
100
AcDbLine
 10
695.5321861759257
 20
-117.7898233115671
 30
0.0
 11
923.5321861759213
 21
110.2101766884284
 31
0.0
  0
LINE
  5
231
330
1F
100
AcDbEntity
  8
0-0
  6
JWW_DASHED1
 62
   120
370
     5
100
AcDbLine
 10
695.532186175924
 20
-131.9319589338838
 30
0.0
 11
923.5321861759196
 21
96.06804106611136
 31
0.0
  0
LINE
  5
232
330
1F
100
AcDbEntity
  8
0-0
  6
JWW_DASHED1
 62
   120
370
     5
100
AcDbLine
 10
695.5321861759215
 20
-146.0740945562009
 30
0.0
 11
923.5321861759332
 21
81.9259054438109
 31
0.0
  0
LINE
  5
233
330
1F
100
AcDbEntity
  8
0-0
  6
JWW_DASHED1
 62
   120
370
     5
100
AcDbLine
 10
695.5321861759189
 20
-160.2162301785175
 30
0.0
 11
923.5321861759315
 21
67.78376982149467
 31
0.0
  0
LINE
  5
234
330
1F
100
AcDbEntity
  8
0-0
  6
JWW_DASHED1
 62
   120
370
     5
100
AcDbLine
 10
695.5321861759172
 20
-174.3583658008346
 30
0.0
 11
923.532186175929
 21
53.64163419917759
 31
0.0
  0
LINE
  5
235
330
1F
100
AcDbEntity
  8
0-0
  6
JWW_DASHED1
 62
   120
370
     5
100
AcDbLine
 10
695.5321861759155
 20
-188.5005014231508
 30
0.0
 11
923.5321861759264
 21
39.4994985768605
 31
0.0
  0
LINE
  5
236
330
1F
100
AcDbEntity
  8
0-0
  6
JWW_DASHED1
 62
   120
370
     5
100
AcDbLine
 10
695.5321861759189
 20
-202.6426370454611
 30
0.0
 11
923.5321861759315
 21
25.35736295455152
 31
0.0
  0
LINE
  5
237
330
1F
100
AcDbEntity
  8
0-0
  6
JWW_DASHED1
 62
   120
370
     5
100
AcDbLine
 10
695.5321861759172
 20
-216.7847726677782
 30
0.0
 11
923.5321861759298
 21
11.21522733223486
 31
0.0
  0
LINE
  5
238
330
1F
100
AcDbEntity
  8
0-0
  6
JWW_DASHED1
 62
   120
370
     5
100
AcDbLine
 10
695.5321861759301
 20
-230.9269082900795
 30
0.0
 11
923.5321861759273
 21
-2.926908290082224
 31
0.0
  0
LINE
  5
239
330
1F
100
AcDbEntity
  8
0-0
  6
JWW_DASHED1
 62
   120
370
     5
100
AcDbLine
 10
695.5321861759274
 20
-245.0690439123962
 30
0.0
 11
923.5321861759256
 21
-17.06904391239846
 31
0.0
  0
LINE
  5
23A
330
1F
100
AcDbEntity
  8
0-0
  6
JWW_DASHED1
 62
   120
370
     5
100
AcDbLine
 10
695.5321861759309
 20
-259.2111795347623
 30
0.0
 11
923.5321861759273
 21
-31.21117953476585
 31
0.0
  0
LINE
  5
23B
330
1F
100
AcDbEntity
  8
0-0
  6
JWW_DASHED1
 62
   120
370
     5
100
AcDbLine
 10
695.5321861759284
 20
-273.3533151570794
 30
0.0
 11
923.5321861759247
 21
-45.35331515708251
 31
0.0
  0
LINE
  5
23C
330
1F
100
AcDbEntity
  8
0-0
  6
JWW_DASHED1
 62
   120
370
     5
100
AcDbLine
 10
695.5321861759267
 20
-287.4954507793956
 30
0.0
 11
923.532186175923
 21
-59.49545077939959
 31
0.0
  0
LINE
  5
23D
330
1F
100
AcDbEntity
  8
0-0
  6
JWW_DASHED1
 62
   120
370
     5
100
AcDbLine
 10
695.532186175925
 20
-301.6375864017118
 30
0.0
 11
923.5321861759196
 21
-73.63758640171667
 31
0.0
  0
LINE
  5
23E
330
1F
100
AcDbEntity
  8
0-0
  6
JWW_DASHED1
 62
   120
370
     5
100
AcDbLine
 10
695.5321861759223
 20
-315.7797220240289
 30
0.0
 11
923.5321861759342
 21
-87.77972202401713
 31
0.0
  0
LINE
  5
23F
330
1F
100
AcDbEntity
  8
0-0
  6
JWW_DASHED1
 62
   120
370
     5
100
AcDbLine
 10
695.5321861759206
 20
-329.9218576463455
 30
0.0
 11
923.5321861759325
 21
-101.9218576463334
 31
0.0
  0
LINE
  5
240
330
1F
100
AcDbEntity
  8
0-0
  6
JWW_DASHED1
 62
   120
370
     5
100
AcDbLine
 10
695.5321861759181
 20
-344.0639932686618
 30
0.0
 11
923.5321861759298
 21
-116.0639932686504
 31
0.0
  0
LINE
  5
241
330
1F
100
AcDbEntity
  8
0-0
  6
JWW_DASHED1
 62
   120
370
     5
100
AcDbLine
 10
695.5321861759155
 20
-358.2061288909789
 30
0.0
 11
923.5321861759273
 21
-130.2061288909671
 31
0.0
  0
LINE
  5
242
330
1F
100
AcDbEntity
  8
0-0
  6
JWW_DASHED1
 62
   120
370
     5
100
AcDbLine
 10
695.5321861759189
 20
-372.3482645132904
 30
0.0
 11
923.5321861759325
 21
-144.3482645132769
 31
0.0
  0
LINE
  5
243
330
1F
100
AcDbEntity
  8
0-0
  6
JWW_DASHED1
 62
   120
370
     5
100
AcDbLine
 10
695.5321861759164
 20
-386.4904001356075
 30
0.0
 11
923.5321861759298
 21
-158.490400135594
 31
0.0
  0
LINE
  5
244
330
1F
100
AcDbEntity
  8
0-0
  6
JWW_DASHED1
 62
   120
370
     5
100
AcDbLine
 10
695.5321861759292
 20
-400.6325357579084
 30
0.0
 11
923.5321861759273
 21
-172.6325357579107
 31
0.0
  0
LINE
  5
245
330
1F
100
AcDbEntity
  8
0-0
  6
JWW_DASHED1
 62
   120
370
     5
100
AcDbLine
 10
695.5321861759274
 20
-414.7746713802255
 30
0.0
 11
923.5321861759247
 21
-186.7746713802278
 31
0.0
  0
LINE
  5
246
330
1F
100
AcDbEntity
  8
0-0
  6
JWW_DASHED1
 62
   120
370
     5
100
AcDbLine
 10
695.532186175925
 20
-428.9168070025426
 30
0.0
 11
923.532186175923
 21
-200.9168070025449
 31
0.0
  0
LINE
  5
247
330
1F
100
AcDbEntity
  8
0-0
  6
JWW_DASHED1
 62
   120
370
     5
100
AcDbLine
 10
695.5321861759223
 20
-443.0589426248592
 30
0.0
 11
923.5321861759205
 21
-215.0589426248615
 31
0.0
  0
LINE
  5
248
330
1F
100
AcDbEntity
  8
0-0
  6
JWW_DASHED1
 62
   120
370
     5
100
AcDbLine
 10
695.5321861759326
 20
-457.2010782471643
 30
0.0
 11
923.5321861759281
 21
-229.2010782471688
 31
0.0
  0
LINE
  5
249
330
1F
100
AcDbEntity
  8
0-0
  6
JWW_DASHED1
 62
   120
370
     5
100
AcDbLine
 10
695.5321861759292
 20
-471.343213869481
 30
0.0
 11
923.5321861759256
 21
-243.343213869485
 31
0.0
  0
LINE
  5
24A
330
1F
100
AcDbEntity
  8
0-0
  6
JWW_DASHED1
 62
   120
370
     5
100
AcDbLine
 10
695.5321861759274
 20
-485.4853494917981
 30
0.0
 11
923.5321861759239
 21
-257.4853494918017
 31
0.0
  0
LINE
  5
24B
330
1F
100
AcDbEntity
  8
0-0
  6
JWW_DASHED1
 62
   120
370
     5
100
AcDbLine
 10
695.5321861759257
 20
-499.6274851141143
 30
0.0
 11
923.5321861759213
 21
-271.6274851141184
 31
0.0
  0
LINE
  5
24C
330
1F
100
AcDbEntity
  8
0-0
  6
JWW_DASHED1
 62
   120
370
     5
100
AcDbLine
 10
695.532186175924
 20
-513.7696207364306
 30
0.0
 11
923.532186175935
 21
-285.7696207364197
 31
0.0
  0
LINE
  5
24D
330
1F
100
AcDbEntity
  8
0-0
  6
JWW_DASHED1
 62
   120
370
     5
100
AcDbLine
 10
695.5321861759215
 20
-527.9117563587477
 30
0.0
 11
923.5321861759325
 21
-299.9117563587367
 31
0.0
  0
LINE
  5
24E
330
1F
100
AcDbEntity
  8
0-0
  6
JWW_DASHED1
 62
   120
370
     5
100
AcDbLine
 10
695.5321861759189
 20
-542.0538919810647
 30
0.0
 11
923.5321861759298
 21
-314.0538919810534
 31
0.0
  0
LINE
  5
24F
330
1F
100
AcDbEntity
  8
0-0
  6
JWW_DASHED1
 62
   120
370
     5
100
AcDbLine
 10
695.5321861759172
 20
-556.1960276033814
 30
0.0
 11
923.5321861759281
 21
-328.1960276033701
 31
0.0
  0
LINE
  5
250
330
1F
100
AcDbEntity
  8
0-0
  6
JWW_DASHED1
 62
   120
370
     5
100
AcDbLine
 10
695.5321861759172
 20
-570.3381632256946
 30
0.0
 11
923.5321861759315
 21
-342.3381632256816
 31
0.0
  0
LINE
  5
251
330
1F
100
AcDbEntity
  8
0-0
  6
JWW_DASHED1
 62
   120
370
     5
100
AcDbLine
 10
695.5321861759155
 20
-584.4802988480117
 30
0.0
 11
923.532186175929
 21
-356.4802988479983
 31
0.0
  0
LINE
  5
252
330
1F
100
AcDbEntity
  8
0-0
  6
JWW_DASHED1
 62
   120
370
     5
100
AcDbLine
 10
695.5321861759292
 20
-598.6224344703122
 30
0.0
 11
923.5321861759264
 21
-370.6224344703153
 31
0.0
  0
LINE
  5
253
330
1F
100
AcDbEntity
  8
0-0
  6
JWW_DASHED1
 62
   120
370
     5
100
AcDbLine
 10
695.5321861759274
 20
-612.7645700926292
 30
0.0
 11
923.5321861759239
 21
-384.764570092632
 31
0.0
  0
LINE
  5
254
330
1F
100
AcDbEntity
  8
0-0
  6
JWW_DASHED1
 62
   120
370
     5
100
AcDbLine
 10
695.5321861759223
 20
-626.9067057149757
 30
0.0
 11
923.5321861759196
 21
-398.9067057149781
 31
0.0
  0
LINE
  5
255
330
1F
100
AcDbEntity
  8
0-0
  6
JWW_DASHED1
 62
   120
370
     5
100
AcDbLine
 10
695.5321861759309
 20
-641.0488413373087
 30
0.0
 11
923.5321861759264
 21
-413.0488413373131
 31
0.0
  0
LINE
  5
256
330
1F
100
AcDbEntity
  8
0-0
  6
JWW_DASHED1
 62
   120
370
     5
100
AcDbLine
 10
695.5321861759292
 20
-655.1909769596252
 30
0.0
 11
923.5321861759247
 21
-427.1909769596297
 31
0.0
  0
LINE
  5
257
330
1F
100
AcDbEntity
  8
0-0
  6
JWW_DASHED1
 62
   120
370
     5
100
AcDbLine
 10
695.5321861759274
 20
-669.3331125819419
 30
0.0
 11
923.532186175923
 21
-441.3331125819464
 31
0.0
  0
LINE
  5
258
330
1F
100
AcDbEntity
  8
0-0
  6
JWW_DASHED1
 62
   120
370
     5
100
AcDbLine
 10
695.532186175925
 20
-683.4752482042586
 30
0.0
 11
923.5321861759359
 21
-455.4752482042477
 31
0.0
  0
LINE
  5
259
330
1F
100
AcDbEntity
  8
0-0
  6
JWW_DASHED1
 62
   120
370
     5
100
AcDbLine
 10
695.5321861759223
 20
-697.6173838265756
 30
0.0
 11
923.5321861759342
 21
-469.6173838265639
 31
0.0
  0
LINE
  5
25A
330
1F
100
AcDbEntity
  8
0-0
  6
JWW_DASHED1
 62
   120
370
     5
100
AcDbLine
 10
695.5321861759198
 20
-711.7595194488923
 30
0.0
 11
923.5321861759315
 21
-483.7595194488802
 31
0.0
  0
LINE
  5
25B
330
1F
100
AcDbEntity
  8
0-0
  6
JWW_DASHED1
 62
   120
370
     5
100
AcDbLine
 10
695.5321861759181
 20
-725.901655071209
 30
0.0
 11
923.5321861759298
 21
-497.9016550711972
 31
0.0
  0
LINE
  5
25C
330
1F
100
AcDbEntity
  8
0-0
  6
JWW_DASHED1
 62
   120
370
     5
100
AcDbLine
 10
695.5321861759181
 20
-740.0437906935235
 30
0.0
 11
923.5321861759315
 21
-512.0437906935105
 31
0.0
  0
LINE
  5
25D
330
1F
100
AcDbEntity
  8
0-0
  6
JWW_DASHED1
 62
   120
370
     5
100
AcDbLine
 10
695.5321861759155
 20
-754.1859263158402
 30
0.0
 11
923.5321861759281
 21
-526.1859263158276
 31
0.0
  0
LINE
  5
25E
330
1F
100
AcDbEntity
  8
0-0
  6
JWW_DASHED1
 62
   120
370
     5
100
AcDbLine
 10
695.5321861759284
 20
-768.3280619381419
 30
0.0
 11
923.5321861759264
 21
-540.3280619381438
 31
0.0
  0
LINE
  5
25F
330
1F
100
AcDbEntity
  8
0-0
  6
JWW_DASHED1
 62
   120
370
     5
100
AcDbLine
 10
695.5321861759267
 20
-782.4701975604586
 30
0.0
 11
923.5321861759239
 21
-554.4701975604613
 31
0.0
  0
LINE
  5
260
330
1F
100
AcDbEntity
  8
0-0
  6
JWW_DASHED1
 62
   120
370
     5
100
AcDbLine
 10
695.532186175924
 20
-796.6123331827753
 30
0.0
 11
923.5321861759222
 21
-568.6123331827775
 31
0.0
  0
LINE
  5
261
330
1F
100
AcDbEntity
  8
0-0
  6
JWW_DASHED1
 62
   120
370
     5
100
AcDbLine
 10
695.5321861759223
 20
-810.7544688050918
 30
0.0
 11
923.5321861759196
 21
-582.7544688050938
 31
0.0
  0
LINE
  5
262
330
1F
100
AcDbEntity
  8
0-0
  6
JWW_DASHED1
 62
   120
370
     5
100
AcDbLine
 10
695.5321861759343
 20
-824.8966044273941
 30
0.0
 11
923.5321861759298
 21
-596.8966044273989
 31
0.0
  0
LINE
  5
263
330
1F
100
AcDbEntity
  8
0-0
  6
JWW_DASHED1
 62
   120
370
     5
100
AcDbLine
 10
695.5321861759326
 20
-839.0387400497111
 30
0.0
 11
923.5321861759273
 21
-611.0387400497156
 31
0.0
  0
LINE
  5
264
330
1F
100
AcDbEntity
  8
0-0
  6
JWW_DASHED1
 62
   120
370
     5
100
AcDbLine
 10
695.5321861759292
 20
-853.1808756720278
 30
0.0
 11
923.5321861759256
 21
-625.1808756720322
 31
0.0
  0
LINE
  5
265
330
1F
100
AcDbEntity
  8
0-0
  6
JWW_DASHED1
 62
   120
370
     5
100
AcDbLine
 10
695.5321861759274
 20
-867.323011294345
 30
0.0
 11
923.5321861759239
 21
-639.3230112943485
 31
0.0
  0
LINE
  5
266
330
1F
100
AcDbEntity
  8
0-0
  6
JWW_DASHED1
 62
   120
370
     5
100
AcDbLine
 10
695.532186175925
 20
-881.465146916662
 30
0.0
 11
923.5321861759367
 21
-653.4651469166498
 31
0.0
  0
LINE
  5
267
330
1F
100
AcDbEntity
  8
0-0
  6
JWW_DASHED1
 62
   120
370
     5
100
AcDbLine
 10
695.5321861759232
 20
-895.6072825389782
 30
0.0
 11
923.532186175935
 21
-667.6072825389665
 31
0.0
  0
LINE
  5
268
330
1F
100
AcDbEntity
  8
0-0
  6
JWW_DASHED1
 62
   120
370
     5
100
AcDbLine
 10
695.5321861759215
 20
-909.7494181612944
 30
0.0
 11
923.5321861759325
 21
-681.7494181612835
 31
0.0
  0
LINE
  5
269
330
1F
100
AcDbEntity
  8
0-0
  6
JWW_DASHED1
 62
   120
370
     5
100
AcDbLine
 10
695.5321861759189
 20
-923.8915537836115
 30
0.0
 11
923.5321861759298
 21
-695.8915537836006
 31
0.0
  0
LINE
  5
26A
330
1F
100
AcDbEntity
  8
0-0
  6
JWW_DASHED1
 62
   120
370
     5
100
AcDbLine
 10
695.5321861759172
 20
-938.0336894059274
 30
0.0
 11
923.5321861759298
 21
-710.0336894059151
 31
0.0
  0
LINE
  5
26B
330
1F
100
AcDbEntity
  8
0-0
  6
JWW_DASHED1
 62
   120
370
     5
100
AcDbLine
 10
695.5321861759155
 20
-952.1758250282439
 30
0.0
 11
923.5321861759281
 21
-724.1758250282314
 31
0.0
  0
LINE
  5
26C
330
1F
100
AcDbEntity
  8
0-0
  6
JWW_DASHED1
 62
   120
370
     5
100
AcDbLine
 10
695.5321861759292
 20
-966.3179606505453
 30
0.0
 11
923.5321861759264
 21
-738.3179606505475
 31
0.0
  0
LINE
  5
26D
330
1F
100
AcDbEntity
  8
0-0
  6
JWW_DASHED1
 62
   120
370
     5
100
AcDbLine
 10
695.5321861759257
 20
-980.4600962728624
 30
0.0
 11
923.5321861759239
 21
-752.4600962728647
 31
0.0
  0
LINE
  5
26E
330
1F
100
AcDbEntity
  8
0-0
  6
JWW_DASHED1
 62
   120
370
     5
100
AcDbLine
 10
695.532186175924
 20
-994.6022318951791
 30
0.0
 11
923.5321861759213
 21
-766.6022318951814
 31
0.0
  0
LINE
  5
26F
330
1F
100
AcDbEntity
  8
0-0
  6
JWW_DASHED1
 62
   120
370
     5
100
AcDbLine
 10
695.5321861759326
 20
-1008.744367517539
 30
0.0
 11
923.5321861759281
 21
-780.7443675175437
 31
0.0
  0
LINE
  5
270
330
1F
100
AcDbEntity
  8
0-0
  6
JWW_DASHED1
 62
   120
370
     5
100
AcDbLine
 10
695.5321861759309
 20
-1022.886503139856
 30
0.0
 11
923.5321861759264
 21
-794.8865031398602
 31
0.0
  0
LINE
  5
271
330
1F
100
AcDbEntity
  8
0-0
  6
JWW_DASHED1
 62
   120
370
     5
100
AcDbLine
 10
699.2359475232529
 20
-1033.324877414848
 30
0.0
 11
923.5321861759247
 21
-809.0286387621766
 31
0.0
  0
LINE
  5
272
330
1F
100
AcDbEntity
  8
0-0
  6
JWW_DASHED1
 62
   120
370
     5
100
AcDbLine
 10
713.3780831455682
 20
-1033.324877414847
 30
0.0
 11
923.5321861759384
 21
-823.1707743844778
 31
0.0
  0
LINE
  5
273
330
1F
100
AcDbEntity
  8
0-0
  6
JWW_DASHED1
 62
   120
370
     5
100
AcDbLine
 10
727.5202187678844
 20
-1033.324877414846
 30
0.0
 11
923.5321861759359
 21
-837.3129100067945
 31
0.0
  0
LINE
  5
274
330
1F
100
AcDbEntity
  8
0-0
  6
JWW_DASHED1
 62
   120
370
     5
100
AcDbLine
 10
741.6623543901999
 20
-1033.324877414845
 30
0.0
 11
923.5321861759332
 21
-851.4550456291107
 31
0.0
  0
LINE
  5
275
330
1F
100
AcDbEntity
  8
0-0
  6
JWW_DASHED1
 62
   120
370
     5
100
AcDbLine
 10
755.8044900125152
 20
-1033.324877414843
 30
0.0
 11
923.5321861759315
 21
-865.5971812514279
 31
0.0
  0
LINE
  5
276
330
1F
100
AcDbEntity
  8
0-0
  6
JWW_DASHED1
 62
   120
370
     5
100
AcDbLine
 10
769.9466256348314
 20
-1033.324877414842
 30
0.0
 11
923.5321861759298
 21
-879.739316873744
 31
0.0
  0
LINE
  5
277
330
1F
100
AcDbEntity
  8
0-0
  6
JWW_DASHED1
 62
   120
370
     5
100
AcDbLine
 10
784.0887612571477
 20
-1033.32487741484
 30
0.0
 11
923.5321861759281
 21
-893.8814524960599
 31
0.0
  0
LINE
  5
278
330
1F
100
AcDbEntity
  8
0-0
  6
JWW_DASHED1
 62
   120
370
     5
100
AcDbLine
 10
798.2308968794639
 20
-1033.324877414839
 30
0.0
 11
923.5321861759264
 21
-908.0235881183769
 31
0.0
  0
LINE
  5
279
330
1F
100
AcDbEntity
  8
0-0
  6
JWW_DASHED1
 62
   120
370
     5
100
AcDbLine
 10
812.3730325017716
 20
-1033.324877414846
 30
0.0
 11
923.532186175923
 21
-922.1657237406936
 31
0.0
  0
LINE
  5
27A
330
1F
100
AcDbEntity
  8
0-0
  6
JWW_DASHED1
 62
   120
370
     5
100
AcDbLine
 10
826.5151681240878
 20
-1033.324877414844
 30
0.0
 11
923.5321861759213
 21
-936.3078593630107
 31
0.0
  0
LINE
  5
27B
330
1F
100
AcDbEntity
  8
0-0
  6
JWW_DASHED1
 62
   120
370
     5
100
AcDbLine
 10
840.6573037464058
 20
-1033.324877414841
 30
0.0
 11
923.5321861759188
 21
-950.4499949853277
 31
0.0
  0
LINE
  5
27C
330
1F
100
AcDbEntity
  8
0-0
  6
JWW_DASHED1
 62
   120
370
     5
100
AcDbLine
 10
854.7994393687067
 20
-1033.324877414854
 30
0.0
 11
923.5321861759315
 21
-964.5921306076286
 31
0.0
  0
LINE
  5
27D
330
1F
100
AcDbEntity
  8
0-0
  6
JWW_DASHED1
 62
   120
370
     5
100
AcDbLine
 10
868.9415749910229
 20
-1033.324877414852
 30
0.0
 11
923.5321861759298
 21
-978.7342662299457
 31
0.0
  0
LINE
  5
27E
330
1F
100
AcDbEntity
  8
0-0
  6
JWW_DASHED1
 62
   120
370
     5
100
AcDbLine
 10
883.0837106133391
 20
-1033.32487741485
 30
0.0
 11
923.5321861759273
 21
-992.8764018522628
 31
0.0
  0
LINE
  5
27F
330
1F
100
AcDbEntity
  8
0-0
  6
JWW_DASHED1
 62
   120
370
     5
100
AcDbLine
 10
897.2258462356571
 20
-1033.324877414848
 30
0.0
 11
923.5321861759256
 21
-1007.018537474579
 31
0.0
  0
LINE
  5
280
330
1F
100
AcDbEntity
  8
0-0
  6
JWW_DASHED1
 62
   120
370
     5
100
AcDbLine
 10
911.367981857958
 20
-1033.32487741486
 30
0.0
 11
923.5321861759393
 21
-1021.160673096879
 31
0.0
  0
LINE
  5
281
330
1F
100
AcDbEntity
  8
寸法
  6
Continuous
 62
   120
370
     5
100
AcDbLine
 10
-1632.467813824073
 20
-1061.324877414847
 30
0.0
 11
-1232.467813824074
 21
-1061.324877414847
 31
0.0
  0
LINE
  5
282
330
1F
100
AcDbEntity
  8
寸法
  6
Continuous
 62
   120
370
     5
100
AcDbLine
 10
-1432.467813824073
 20
-1041.324877414847
 30
0.0
 11
-1232.467813824074
 21
-1041.324877414847
 31
0.0
  0
LWPOLYLINE
  5
283
330
1F
100
AcDbEntity
  8
寸法
  6
Continuous
 62
     7
370
     9
100
AcDbPolyline
 90
        4
 70
     1
 43
3.0
 10
-1630.967813824073
 20
-1061.324877414847
 42
0.4142135623731
 10
-1632.467813824073
 20
-1059.824877414847
 42
0.4142135623731
 10
-1633.967813824073
 20
-1061.324877414847
 42
0.4142135623731
 10
-1632.467813824073
 20
-1062.824877414847
 42
0.4142135623731
  0
LWPOLYLINE
  5
284
330
1F
100
AcDbEntity
  8
寸法
  6
Continuous
 62
     7
370
     9
100
AcDbPolyline
 90
        4
 70
     1
 43
3.0
 10
-1430.967813824073
 20
-1041.324877414847
 42
0.4142135623731
 10
-1432.467813824073
 20
-1039.824877414847
 42
0.4142135623731
 10
-1433.967813824072
 20
-1041.324877414847
 42
0.4142135623731
 10
-1432.467813824073
 20
-1042.824877414846
 42
0.4142135623731
  0
LINE
  5
285
330
1F
100
AcDbEntity
  8
寸法
  6
Continuous
 62
   120
370
     5
100
AcDbLine
 10
-1152.467813824072
 20
-1511.324877414847
 30
0.0
 11
-1152.467813824072
 21
-1111.324877414848
 31
0.0
  0
LINE
  5
286
330
1F
100
AcDbEntity
  8
寸法
  6
Continuous
 62
   120
370
     5
100
AcDbLine
 10
-1182.467813824072
 20
-1711.324877414848
 30
0.0
 11
-1182.467813824072
 21
-1111.324877414848
 31
0.0
  0
LINE
  5
287
330
1F
100
AcDbEntity
  8
寸法
  6
Continuous
 62
   120
370
     5
100
AcDbLine
 10
-1152.467813824072
 20
-1511.324877414847
 30
0.0
 11
1211.532186175927
 21
-1511.324877414847
 31
0.0
  0
LINE
  5
288
330
1F
100
AcDbEntity
  8
寸法
  6
Continuous
 62
   120
370
     5
100
AcDbLine
 10
1211.532186175927
 20
-1511.324877414847
 30
0.0
 11
1211.532186175927
 21
-1111.324877414848
 31
0.0
  0
LINE
  5
289
330
1F
100
AcDbEntity
  8
寸法
  6
Continuous
 62
   120
370
     5
100
AcDbLine
 10
-1182.467813824072
 20
-1711.324877414848
 30
0.0
 11
1241.532186175927
 21
-1711.324877414847
 31
0.0
  0
LINE
  5
28A
330
1F
100
AcDbEntity
  8
寸法
  6
Continuous
 62
   120
370
     5
100
AcDbLine
 10
1241.532186175927
 20
-1711.324877414847
 30
0.0
 11
1241.532186175927
 21
-1111.324877414848
 31
0.0
  0
LINE
  5
28B
330
1F
100
AcDbEntity
  8
寸法
  6
Continuous
 62
   120
370
     5
100
AcDbLine
 10
404.5321861759278
 20
-1311.324877414847
 30
0.0
 11
404.5321861759278
 21
-1111.324877414848
 31
0.0
  0
LINE
  5
28C
330
1F
100
AcDbEntity
  8
寸法
  6
Continuous
 62
   120
370
     5
100
AcDbLine
 10
1214.532186175928
 20
-1311.324877414847
 30
0.0
 11
1214.532186175928
 21
-1111.324877414848
 31
0.0
  0
LINE
  5
28D
330
1F
100
AcDbEntity
  8
寸法
  6
Continuous
 62
   120
370
     5
100
AcDbLine
 10
1214.532186175928
 20
-1311.324877414847
 30
0.0
 11
404.5321861759278
 21
-1311.324877414847
 31
0.0
  0
LWPOLYLINE
  5
28E
330
1F
100
AcDbEntity
  8
寸法
  6
Continuous
 62
     7
370
     9
100
AcDbPolyline
 90
        4
 70
     1
 43
3.0
 10
-1150.967813824072
 20
-1511.324877414847
 42
0.4142135623731
 10
-1152.467813824072
 20
-1509.824877414847
 42
0.4142135623731
 10
-1153.967813824072
 20
-1511.324877414847
 42
0.4142135623731
 10
-1152.467813824072
 20
-1512.824877414847
 42
0.4142135623731
  0
LWPOLYLINE
  5
28F
330
1F
100
AcDbEntity
  8
寸法
  6
Continuous
 62
     7
370
     9
100
AcDbPolyline
 90
        4
 70
     1
 43
3.0
 10
-1180.967813824072
 20
-1711.324877414848
 42
0.4142135623731
 10
-1182.467813824072
 20
-1709.824877414848
 42
0.4142135623731
 10
-1183.967813824072
 20
-1711.324877414848
 42
0.4142135623731
 10
-1182.467813824072
 20
-1712.824877414848
 42
0.4142135623731
  0
LWPOLYLINE
  5
290
330
1F
100
AcDbEntity
  8
寸法
  6
Continuous
 62
     7
370
     9
100
AcDbPolyline
 90
        4
 70
     1
 43
3.0
 10
1213.032186175927
 20
-1511.324877414847
 42
0.4142135623731
 10
1211.532186175927
 20
-1509.824877414847
 42
0.4142135623731
 10
1210.032186175927
 20
-1511.324877414847
 42
0.4142135623731
 10
1211.532186175927
 20
-1512.824877414847
 42
0.4142135623731
  0
LWPOLYLINE
  5
291
330
1F
100
AcDbEntity
  8
寸法
  6
Continuous
 62
     7
370
     9
100
AcDbPolyline
 90
        4
 70
     1
 43
3.0
 10
1243.032186175927
 20
-1711.324877414847
 42
0.4142135623731
 10
1241.532186175927
 20
-1709.824877414847
 42
0.4142135623731
 10
1240.032186175927
 20
-1711.324877414847
 42
0.4142135623731
 10
1241.532186175927
 20
-1712.824877414847
 42
0.4142135623731
  0
LWPOLYLINE
  5
292
330
1F
100
AcDbEntity
  8
寸法
  6
Continuous
 62
     7
370
     9
100
AcDbPolyline
 90
        4
 70
     1
 43
3.0
 10
406.0321861759278
 20
-1311.324877414847
 42
0.4142135623731
 10
404.5321861759278
 20
-1309.824877414847
 42
0.4142135623731
 10
403.0321861759277
 20
-1311.324877414847
 42
0.4142135623731
 10
404.5321861759278
 20
-1312.824877414846
 42
0.4142135623731
  0
LWPOLYLINE
  5
293
330
1F
100
AcDbEntity
  8
寸法
  6
Continuous
 62
     7
370
     9
100
AcDbPolyline
 90
        4
 70
     1
 43
3.0
 10
1216.032186175928
 20
-1311.324877414847
 42
0.4142135623731
 10
1214.532186175928
 20
-1309.824877414847
 42
0.4142135623731
 10
1213.032186175928
 20
-1311.324877414847
 42
0.4142135623731
 10
1214.532186175928
 20
-1312.824877414846
 42
0.4142135623731
  0
LWPOLYLINE
  5
294
330
1F
100
AcDbEntity
  8
寸法
  6
Continuous
 62
     7
370
     9
100
AcDbPolyline
 90
        4
 70
     1
 43
3.0
 10
-1630.967813824073
 20
1185.675122585153
 42
0.4142135623731
 10
-1632.467813824073
 20
1187.175122585153
 42
0.4142135623731
 10
-1633.967813824073
 20
1185.675122585153
 42
0.4142135623731
 10
-1632.467813824073
 20
1184.175122585153
 42
0.4142135623731
  0
LINE
  5
295
330
1F
100
AcDbEntity
  8
寸法
  6
Continuous
 62
   120
370
     5
100
AcDbLine
 10
-1632.467813824073
 20
1185.675122585153
 30
0.0
 11
-1232.467813824074
 21
1185.675122585153
 31
0.0
  0
LINE
  5
296
330
1F
100
AcDbEntity
  8
寸法
  6
Continuous
 62
   120
370
     5
100
AcDbLine
 10
-1632.467813824073
 20
1185.675122585153
 30
0.0
 11
-1632.467813824073
 21
-1061.324877414847
 31
0.0
  0
LWPOLYLINE
  5
297
330
1F
100
AcDbEntity
  8
寸法
  6
Continuous
 62
     7
370
     9
100
AcDbPolyline
 90
        4
 70
     1
 43
3.0
 10
-1430.967813824073
 20
1141.675122585152
 42
0.4142135623731
 10
-1432.467813824073
 20
1143.175122585152
 42
0.4142135623731
 10
-1433.967813824072
 20
1141.675122585152
 42
0.4142135623731
 10
-1432.467813824073
 20
1140.175122585152
 42
0.4142135623731
  0
LINE
  5
298
330
1F
100
AcDbEntity
  8
寸法
  6
Continuous
 62
   120
370
     5
100
AcDbLine
 10
-1432.467813824073
 20
1141.675122585152
 30
0.0
 11
-1432.467813824073
 21
-1041.324877414847
 31
0.0
  0
LINE
  5
299
330
1F
100
AcDbEntity
  8
寸法
  6
Continuous
 62
   120
370
     5
100
AcDbLine
 10
-1432.467813824073
 20
1141.675122585152
 30
0.0
 11
-1232.467813824074
 21
1141.675122585152
 31
0.0
  0
MTEXT
  5
29A
330
1F
100
AcDbEntity
  8
寸法
  6
Continuous
 62
     7
370
    70
100
AcDbMText
 10
-1647.467813824073
 20
-161.9998774148471
 30
0.0
 40
57.14999999999999
 41
412.5
 46
0.0
 71
     7
 72
     1
  1
{\fＭＳ ゴシック|b0|i0|c128|p49;枠外＝2,247}
 11
6.123031769111886E-17
 21
1.0
 31
0.0
 73
     1
 44
1.0
  0
MTEXT
  5
29B
330
1F
100
AcDbEntity
  8
寸法
  6
Continuous
 62
     7
370
    70
100
AcDbMText
 10
-1447.467813824073
 20
-167.9998774148467
 30
0.0
 40
57.14999999999999
 41
412.5
 46
0.0
 71
     7
 72
     1
  1
{\fＭＳ ゴシック|b0|i0|c128|p49;ＤＨ＝2,183}
 11
6.123031769111886E-17
 21
1.0
 31
0.0
 73
     1
 44
1.0
  0
MTEXT
  5
29C
330
1F
100
AcDbEntity
  8
寸法
  6
Continuous
 62
     7
370
   211
100
AcDbMText
 10
640.7821861759278
 20
-1305.249877414847
 30
0.0
 40
57.15
 41
337.5
 46
0.0
 71
     7
 72
     1
  1
{\fＭＳ ゴシック|b0|i0|c128|p49;ＤＷ＝810}
 73
     1
 44
1.0
  0
MTEXT
  5
29D
330
1F
100
AcDbEntity
  8
寸法
  6
Continuous
 62
     7
370
   211
100
AcDbMText
 10
-176.7178138240722
 20
-1505.249877414847
 30
0.0
 40
57.14999999999999
 41
412.5
 46
0.0
 71
     7
 72
     1
  1
{\fＭＳ ゴシック|b0|i0|c128|p49;枠内＝2,364}
 73
     1
 44
1.0
  0
MTEXT
  5
29E
330
1F
100
AcDbEntity
  8
寸法
  6
Continuous
 62
     7
370
   211
100
AcDbMText
 10
-176.7178138240722
 20
-1705.249877414848
 30
0.0
 40
57.14999999999999
 41
412.5
 46
0.0
 71
     7
 72
     1
  1
{\fＭＳ ゴシック|b0|i0|c128|p49;枠外＝2,424}
 73
     1
 44
1.0
  0
ENDSEC
  0
SECTION
  2
OBJECTS
  0
DICTIONARY
  5
C
330
0
100
AcDbDictionary
281
     1
  3
ACAD_GROUP
350
D
  3
ACAD_LAYOUT
350
1A
  3
ACAD_MATERIAL
350
3B
  3
ACAD_MLEADERSTYLE
350
2A0
  3
ACAD_MLINESTYLE
350
17
  3
ACAD_PLOTSETTINGS
350
19
  3
ACAD_PLOTSTYLENAME
350
E
  3
ACAD_TABLESTYLE
350
29F
  3
ACAD_VISUALSTYLE
350
2A
  0
DICTIONARY
  5
D
102
{ACAD_REACTORS
330
C
102
}
330
C
100
AcDbDictionary
281
     1
  0
DICTIONARY
  5
1A
102
{ACAD_REACTORS
330
C
102
}
330
C
100
AcDbDictionary
281
     1
  3
Layout1
350
1E
  3
Layout2
350
26
  3
Model
350
22
  0
DICTIONARY
  5
3B
102
{ACAD_REACTORS
330
C
102
}
330
C
100
AcDbDictionary
281
     1
  3
ByBlock
350
3D
  3
ByLayer
350
3C
  3
Global
350
3E
  0
DICTIONARY
  5
2A0
102
{ACAD_REACTORS
330
C
102
}
330
C
100
AcDbDictionary
281
     1
  0
DICTIONARY
  5
17
102
{ACAD_REACTORS
330
C
102
}
330
C
100
AcDbDictionary
281
     1
  3
Standard
350
18
  0
DICTIONARY
  5
19
102
{ACAD_REACTORS
330
C
102
}
330
C
100
AcDbDictionary
281
     1
  0
ACDBDICTIONARYWDFLT
  5
E
102
{ACAD_REACTORS
330
C
102
}
330
C
100
AcDbDictionary
281
     1
  3
Normal
350
F
100
AcDbDictionaryWithDefault
340
F
  0
DICTIONARY
  5
29F
102
{ACAD_REACTORS
330
C
102
}
330
C
100
AcDbDictionary
281
     1
  0
DICTIONARY
  5
2A
102
{ACAD_REACTORS
330
C
102
}
330
C
100
AcDbDictionary
281
     1
  3
2dWireframe
350
2F
  3
3D Hidden
350
31
  3
3dWireframe
350
30
  3
Basic
350
32
  3
Brighten
350
36
  3
ColorChange
350
3A
  3
Conceptual
350
34
  3
Dim
350
35
  3
Facepattern
350
39
  3
Flat
350
2B
  3
FlatWithEdges
350
2C
  3
Gouraud
350
2D
  3
GouraudWithEdges
350
2E
  3
Linepattern
350
38
  3
Realistic
350
33
  3
Thicken
350
37
  0
LAYOUT
  5
1E
102
{ACAD_REACTORS
330
1A
102
}
330
1A
100
AcDbPlotSettings
  1

  2
none_device
  4

  6

 40
0.0
 41
0.0
 42
0.0
 43
0.0
 44
0.0
 45
0.0
 46
0.0
 47
0.0
 48
0.0
 49
0.0
140
0.0
141
0.0
142
1.0
143
1.0
 70
   688
 72
     0
 73
     0
 74
     5
  7

 75
    16
 76
     0
 77
     5
 78
   300
147
1.0
148
0.0
149
0.0
100
AcDbLayout
  1
Layout1
 70
     1
 71
     1
 10
0.0
 20
0.0
 11
420.0
 21
297.0
 12
0.0
 22
0.0
 32
0.0
 14
1.000000000000000E+20
 24
1.000000000000000E+20
 34
1.000000000000000E+20
 15
-1.000000000000000E+20
 25
-1.000000000000000E+20
 35
-1.000000000000000E+20
146
0.0
 13
0.0
 23
0.0
 33
0.0
 16
1.0
 26
0.0
 36
0.0
 17
0.0
 27
1.0
 37
0.0
 76
     0
330
1B
  0
LAYOUT
  5
26
102
{ACAD_REACTORS
330
1A
102
}
330
1A
100
AcDbPlotSettings
  1

  2
none_device
  4

  6

 40
0.0
 41
0.0
 42
0.0
 43
0.0
 44
0.0
 45
0.0
 46
0.0
 47
0.0
 48
0.0
 49
0.0
140
0.0
141
0.0
142
1.0
143
1.0
 70
   688
 72
     0
 73
     0
 74
     5
  7

 75
    16
 76
     0
 77
     5
 78
   300
147
1.0
148
0.0
149
0.0
100
AcDbLayout
  1
Layout2
 70
     1
 71
     2
 10
0.0
 20
0.0
 11
0.0
 21
0.0
 12
0.0
 22
0.0
 32
0.0
 14
0.0
 24
0.0
 34
0.0
 15
0.0
 25
0.0
 35
0.0
146
0.0
 13
0.0
 23
0.0
 33
0.0
 16
1.0
 26
0.0
 36
0.0
 17
0.0
 27
1.0
 37
0.0
 76
     0
330
23
  0
LAYOUT
  5
22
102
{ACAD_REACTORS
330
1A
102
}
330
1A
100
AcDbPlotSettings
  1

  2
none_device
  4

  6

 40
0.0
 41
0.0
 42
0.0
 43
0.0
 44
0.0
 45
0.0
 46
0.0
 47
0.0
 48
0.0
 49
0.0
140
0.0
141
0.0
142
1.0
143
1.0
 70
  1712
 72
     0
 73
     0
 74
     0
  7

 75
     0
 76
     0
 77
     5
 78
   300
147
1.0
148
0.0
149
0.0
100
AcDbLayout
  1
Model
 70
     1
 71
     0
 10
-4455.0
 20
-3150.0
 11
4455.0
 21
3150.0
 12
0.0
 22
0.0
 32
0.0
 14
-4455.0
 24
-3150.0
 34
0.0
 15
4455.0
 25
3150.0
 35
0.0
146
0.0
 13
0.0
 23
0.0
 33
0.0
 16
1.0
 26
0.0
 36
0.0
 17
0.0
 27
1.0
 37
0.0
 76
     0
330
1F
331
29
  0
MATERIAL
  5
3D
102
{ACAD_REACTORS
330
3B
102
}
330
3B
100
AcDbMaterial
  1
ByBlock
 72
     1
 94
      127
  0
MATERIAL
  5
3C
102
{ACAD_REACTORS
330
3B
102
}
330
3B
100
AcDbMaterial
  1
ByLayer
 72
     1
 94
      127
  0
MATERIAL
  5
3E
102
{ACAD_REACTORS
330
3B
102
}
330
3B
100
AcDbMaterial
  1
Global
 72
     1
 94
      127
  0
MLINESTYLE
  5
18
102
{ACAD_REACTORS
330
17
102
}
330
17
100
AcDbMlineStyle
  2
Standard
 70
     0
  3

 62
   256
 51
90.0
 52
90.0
 71
     2
 49
0.5
 62
   256
  6
BYLAYER
 49
-0.5
 62
   256
  6
BYLAYER
  0
ACDBPLACEHOLDER
  5
F
102
{ACAD_REACTORS
330
E
102
}
330
E
  0
VISUALSTYLE
  5
2F
102
{ACAD_REACTORS
330
2A
102
}
330
2A
100
AcDbVisualStyle
  2
2dWireframe
 70
     4
177
     2
291
     0
 71
     0
176
     1
 72
     2
176
     1
 73
     0
176
     1
 90
        0
176
     1
 40
-0.6
176
     1
 41
-30.0
176
     1
 62
     5
 63
     7
421
 16777215
176
     1
 74
     1
176
     1
 91
        4
176
     1
 64
     7
176
     1
 65
   257
176
     1
 75
     1
176
     1
175
     1
176
     1
 42
1.0
176
     1
 92
        0
176
     1
 66
   257
176
     1
 43
1.0
176
     1
 76
     1
176
     1
 77
     6
176
     1
 78
     2
176
     1
 67
     7
176
     1
 79
     5
176
     1
170
     0
176
     1
171
     0
176
     1
290
     0
176
     1
 93
        1
176
     1
 44
0.0
176
     1
173
     0
176
     1
  0
VISUALSTYLE
  5
31
102
{ACAD_REACTORS
330
2A
102
}
330
2A
100
AcDbVisualStyle
  2
3D Hidden
 70
     6
177
     2
291
     0
 71
     1
176
     1
 72
     2
176
     1
 73
     2
176
     1
 90
        0
176
     1
 40
-0.6
176
     1
 41
-30.0
176
     1
 62
     5
 63
     7
421
 16777215
176
     1
 74
     2
176
     1
 91
        2
176
     1
 64
     7
176
     1
 65
   257
176
     1
 75
     2
176
     1
175
     1
176
     1
 42
40.0
176
     1
 92
        0
176
     1
 66
   257
176
     1
 43
1.0
176
     1
 76
     1
176
     1
 77
     6
176
     1
 78
     2
176
     1
 67
     7
176
     1
 79
     3
176
     1
170
     0
176
     1
171
     0
176
     1
290
     0
176
     1
 93
        1
176
     1
 44
0.0
176
     1
173
     0
176
     1
  0
VISUALSTYLE
  5
30
102
{ACAD_REACTORS
330
2A
102
}
330
2A
100
AcDbVisualStyle
  2
3dWireframe
 70
     5
177
     2
291
     0
 71
     0
176
     1
 72
     2
176
     1
 73
     0
176
     1
 90
        0
176
     1
 40
-0.6
176
     1
 41
-30.0
176
     1
 62
     5
 63
     7
421
 16777215
176
     1
 74
     1
176
     1
 91
        4
176
     1
 64
     7
176
     1
 65
   257
176
     1
 75
     1
176
     1
175
     1
176
     1
 42
1.0
176
     1
 92
        0
176
     1
 66
   257
176
     1
 43
1.0
176
     1
 76
     1
176
     1
 77
     6
176
     1
 78
     2
176
     1
 67
     7
176
     1
 79
     5
176
     1
170
     0
176
     1
171
     0
176
     1
290
     0
176
     1
 93
        1
176
     1
 44
0.0
176
     1
173
     0
176
     1
  0
VISUALSTYLE
  5
32
102
{ACAD_REACTORS
330
2A
102
}
330
2A
100
AcDbVisualStyle
  2
Basic
 70
     7
177
     2
291
     1
 71
     1
176
     1
 72
     0
176
     1
 73
     1
176
     1
 90
        0
176
     1
 40
-0.6
176
     1
 41
-30.0
176
     1
 62
     5
 63
     7
421
 16777215
176
     1
 74
     0
176
     1
 91
        4
176
     1
 64
     7
176
     1
 65
   257
176
     1
 75
     1
176
     1
175
     1
176
     1
 42
1.0
176
     1
 92
        8
176
     1
 66
     7
176
     1
 43
1.0
176
     1
 76
     1
176
     1
 77
     6
176
     1
 78
     2
176
     1
 67
     7
176
     1
 79
     5
176
     1
170
     0
176
     1
171
     0
176
     1
290
     0
176
     1
 93
        1
176
     1
 44
0.0
176
     1
173
     0
176
     1
  0
VISUALSTYLE
  5
36
102
{ACAD_REACTORS
330
2A
102
}
330
2A
100
AcDbVisualStyle
  2
Brighten
 70
    12
177
     2
291
     1
 71
     2
176
     1
 72
     2
176
     1
 73
     0
176
     1
 90
        0
176
     1
 40
-0.6
176
     1
 41
-30.0
176
     1
 62
     5
 63
     7
421
 16777215
176
     1
 74
     1
176
     1
 91
        4
176
     1
 64
     7
176
     1
 65
   257
176
     1
 75
     1
176
     1
175
     1
176
     1
 42
1.0
176
     1
 92
        8
176
     1
 66
     7
176
     1
 43
1.0
176
     1
 76
     1
176
     1
 77
     6
176
     1
 78
     2
176
     1
 67
     7
176
     1
 79
     5
176
     1
170
     0
176
     1
171
     0
176
     1
290
     0
176
     1
 93
        1
176
     1
 44
50.0
176
     1
173
     0
176
     1
  0
VISUALSTYLE
  5
3A
102
{ACAD_REACTORS
330
2A
102
}
330
2A
100
AcDbVisualStyle
  2
ColorChange
 70
    16
177
     2
291
     1
 71
     2
176
     1
 72
     2
176
     1
 73
     3
176
     1
 90
        0
176
     1
 40
-0.6
176
     1
 41
-30.0
176
     1
 62
     5
 63
     8
421
  8421504
176
     1
 74
     1
176
     1
 91
        4
176
     1
 64
     7
176
     1
 65
   257
176
     1
 75
     1
176
     1
175
     1
176
     1
 42
1.0
176
     1
 92
        8
176
     1
 66
     8
424
  8421504
176
     1
 43
1.0
176
     1
 76
     1
176
     1
 77
     6
176
     1
 78
     2
176
     1
 67
     7
176
     1
 79
     5
176
     1
170
     0
176
     1
171
     0
176
     1
290
     0
176
     1
 93
        1
176
     1
 44
0.0
176
     1
173
     0
176
     1
  0
VISUALSTYLE
  5
34
102
{ACAD_REACTORS
330
2A
102
}
330
2A
100
AcDbVisualStyle
  2
Conceptual
 70
     9
177
     2
291
     0
 71
     3
176
     1
 72
     2
176
     1
 73
     0
176
     1
 90
        0
176
     1
 40
-0.6
176
     1
 41
-30.0
176
     1
 62
     5
 63
     7
421
 16777215
176
     1
 74
     2
176
     1
 91
        2
176
     1
 64
     7
176
     1
 65
   257
176
     1
 75
     1
176
     1
175
     1
176
     1
 42
40.0
176
     1
 92
        8
176
     1
 66
     7
176
     1
 43
1.0
176
     1
 76
     1
176
     1
 77
     6
176
     1
 78
     2
176
     1
 67
     7
176
     1
 79
     3
176
     1
170
     0
176
     1
171
     0
176
     1
290
     0
176
     1
 93
        1
176
     1
 44
0.0
176
     1
173
     0
176
     1
  0
VISUALSTYLE
  5
35
102
{ACAD_REACTORS
330
2A
102
}
330
2A
100
AcDbVisualStyle
  2
Dim
 70
    11
177
     2
291
     1
 71
     2
176
     1
 72
     2
176
     1
 73
     0
176
     1
 90
        0
176
     1
 40
-0.6
176
     1
 41
-30.0
176
     1
 62
     5
 63
     7
421
 16777215
176
     1
 74
     1
176
     1
 91
        4
176
     1
 64
     7
176
     1
 65
   257
176
     1
 75
     1
176
     1
175
     1
176
     1
 42
1.0
176
     1
 92
        8
176
     1
 66
     7
176
     1
 43
1.0
176
     1
 76
     1
176
     1
 77
     6
176
     1
 78
     2
176
     1
 67
     7
176
     1
 79
     5
176
     1
170
     0
176
     1
171
     0
176
     1
290
     0
176
     1
 93
        1
176
     1
 44
-50.0
176
     1
173
     0
176
     1
  0
VISUALSTYLE
  5
39
102
{ACAD_REACTORS
330
2A
102
}
330
2A
100
AcDbVisualStyle
  2
Facepattern
 70
    15
177
     2
291
     1
 71
     2
176
     1
 72
     2
176
     1
 73
     0
176
     1
 90
        0
176
     1
 40
-0.6
176
     1
 41
-30.0
176
     1
 62
     5
 63
     7
421
 16777215
176
     1
 74
     1
176
     1
 91
        4
176
     1
 64
     7
176
     1
 65
   257
176
     1
 75
     1
176
     1
175
     1
176
     1
 42
1.0
176
     1
 92
        8
176
     1
 66
     7
176
     1
 43
1.0
176
     1
 76
     1
176
     1
 77
     6
176
     1
 78
     2
176
     1
 67
     7
176
     1
 79
     5
176
     1
170
     0
176
     1
171
     0
176
     1
290
     0
176
     1
 93
        1
176
     1
 44
0.0
176
     1
173
     0
176
     1
  0
VISUALSTYLE
  5
2B
102
{ACAD_REACTORS
330
2A
102
}
330
2A
100
AcDbVisualStyle
  2
Flat
 70
     0
177
     2
291
     1
 71
     2
176
     1
 72
     1
176
     1
 73
     1
176
     1
 90
        2
176
     1
 40
-0.6
176
     1
 41
30.0
176
     1
 62
     5
 63
     7
421
 16777215
176
     1
 74
     0
176
     1
 91
        4
176
     1
 64
     7
176
     1
 65
   257
176
     1
 75
     1
176
     1
175
     1
176
     1
 42
1.0
176
     1
 92
        8
176
     1
 66
     7
176
     1
 43
1.0
176
     1
 76
     1
176
     1
 77
     6
176
     1
 78
     2
176
     1
 67
     7
176
     1
 79
     5
176
     1
170
     0
176
     1
171
     0
176
     1
290
     0
176
     1
 93
       13
176
     1
 44
0.0
176
     1
173
     0
176
     1
  0
VISUALSTYLE
  5
2C
102
{ACAD_REACTORS
330
2A
102
}
330
2A
100
AcDbVisualStyle
  2
FlatWithEdges
 70
     1
177
     2
291
     1
 71
     2
176
     1
 72
     1
176
     1
 73
     1
176
     1
 90
        2
176
     1
 40
-0.6
176
     1
 41
30.0
176
     1
 62
     5
 63
     7
421
 16777215
176
     1
 74
     1
176
     1
 91
        4
176
     1
 64
     7
176
     1
 65
   257
176
     1
 75
     1
176
     1
175
     1
176
     1
 42
1.0
176
     1
 92
        0
176
     1
 66
   257
176
     1
 43
1.0
176
     1
 76
     1
176
     1
 77
     6
176
     1
 78
     2
176
     1
 67
     7
176
     1
 79
     5
176
     1
170
     0
176
     1
171
     0
176
     1
290
     0
176
     1
 93
       13
176
     1
 44
0.0
176
     1
173
     0
176
     1
  0
VISUALSTYLE
  5
2D
102
{ACAD_REACTORS
330
2A
102
}
330
2A
100
AcDbVisualStyle
  2
Gouraud
 70
     2
177
     2
291
     1
 71
     2
176
     1
 72
     2
176
     1
 73
     1
176
     1
 90
        2
176
     1
 40
-0.6
176
     1
 41
30.0
176
     1
 62
     5
 63
     7
421
 16777215
176
     1
 74
     0
176
     1
 91
        4
176
     1
 64
     7
176
     1
 65
   257
176
     1
 75
     1
176
     1
175
     1
176
     1
 42
1.0
176
     1
 92
        0
176
     1
 66
     7
176
     1
 43
1.0
176
     1
 76
     1
176
     1
 77
     6
176
     1
 78
     2
176
     1
 67
     7
176
     1
 79
     5
176
     1
170
     0
176
     1
171
     0
176
     1
290
     0
176
     1
 93
       13
176
     1
 44
0.0
176
     1
173
     0
176
     1
  0
VISUALSTYLE
  5
2E
102
{ACAD_REACTORS
330
2A
102
}
330
2A
100
AcDbVisualStyle
  2
GouraudWithEdges
 70
     3
177
     2
291
     1
 71
     2
176
     1
 72
     2
176
     1
 73
     1
176
     1
 90
        2
176
     1
 40
-0.6
176
     1
 41
30.0
176
     1
 62
     5
 63
     7
421
 16777215
176
     1
 74
     1
176
     1
 91
        4
176
     1
 64
     7
176
     1
 65
   257
176
     1
 75
     1
176
     1
175
     1
176
     1
 42
1.0
176
     1
 92
        0
176
     1
 66
   257
176
     1
 43
1.0
176
     1
 76
     1
176
     1
 77
     6
176
     1
 78
     2
176
     1
 67
     7
176
     1
 79
     5
176
     1
170
     0
176
     1
171
     0
176
     1
290
     0
176
     1
 93
       13
176
     1
 44
0.0
176
     1
173
     0
176
     1
  0
VISUALSTYLE
  5
38
102
{ACAD_REACTORS
330
2A
102
}
330
2A
100
AcDbVisualStyle
  2
Linepattern
 70
    14
177
     2
291
     1
 71
     2
176
     1
 72
     2
176
     1
 73
     0
176
     1
 90
        0
176
     1
 40
-0.6
176
     1
 41
-30.0
176
     1
 62
     5
 63
     7
421
 16777215
176
     1
 74
     1
176
     1
 91
        4
176
     1
 64
     7
176
     1
 65
   257
176
     1
 75
     7
176
     1
175
     7
176
     1
 42
1.0
176
     1
 92
        8
176
     1
 66
     7
176
     1
 43
1.0
176
     1
 76
     1
176
     1
 77
     6
176
     1
 78
     2
176
     1
 67
     7
176
     1
 79
     5
176
     1
170
     0
176
     1
171
     0
176
     1
290
     0
176
     1
 93
        1
176
     1
 44
0.0
176
     1
173
     0
176
     1
  0
VISUALSTYLE
  5
33
102
{ACAD_REACTORS
330
2A
102
}
330
2A
100
AcDbVisualStyle
  2
Realistic
 70
     8
177
     2
291
     0
 71
     2
176
     1
 72
     2
176
     1
 73
     0
176
     1
 90
        0
176
     1
 40
-0.6
176
     1
 41
-30.0
176
     1
 62
     5
 63
     7
421
 16777215
176
     1
 74
     1
176
     1
 91
        0
176
     1
 64
     7
176
     1
 65
   257
176
     1
 75
     1
176
     1
175
     1
176
     1
 42
1.0
176
     1
 92
        8
176
     1
 66
     8
424
  7895160
176
     1
 43
1.0
176
     1
 76
     1
176
     1
 77
     6
176
     1
 78
     2
176
     1
 67
     7
176
     1
 79
     5
176
     1
170
     0
176
     1
171
     0
176
     1
290
     0
176
     1
 93
       13
176
     1
 44
0.0
176
     1
173
     0
176
     1
  0
VISUALSTYLE
  5
37
102
{ACAD_REACTORS
330
2A
102
}
330
2A
100
AcDbVisualStyle
  2
Thicken
 70
    13
177
     2
291
     1
 71
     2
176
     1
 72
     2
176
     1
 73
     0
176
     1
 90
        0
176
     1
 40
-0.6
176
     1
 41
-30.0
176
     1
 62
     5
 63
     7
421
 16777215
176
     1
 74
     1
176
     1
 91
        4
176
     1
 64
     7
176
     1
 65
   257
176
     1
 75
     1
176
     1
175
     1
176
     1
 42
1.0
176
     1
 92
       12
176
     1
 66
     7
176
     1
 43
1.0
176
     1
 76
     1
176
     1
 77
     6
176
     1
 78
     2
176
     1
 67
     7
176
     1
 79
     5
176
     1
170
     0
176
     1
171
     0
176
     1
290
     0
176
     1
 93
        1
176
     1
 44
0.0
176
     1
173
     0
176
     1
  0
ENDSEC
  0
EOF
