  0
SECTION
  2
HEADER
  9
$ACADVER
  1
AC1024
  9
$ACADMAINTVER
 70
     6
  9
$DWGCODEPAGE
  3
ANSI_932
  9
$INSBASE
 10
0.0
 20
0.0
 30
0.0
  9
$EXTMIN
 10
-4455.0
 20
-3150.0
 30
0.0
  9
$EXTMAX
 10
4455.0
 20
3150.0
 30
0.0
  9
$LIMMIN
 10
-4455.0
 20
-3150.0
  9
$LIMMAX
 10
4455.0
 20
3150.0
  9
$ORTHOMODE
 70
     0
  9
$REGENMODE
 70
     1
  9
$FILLMODE
 70
     1
  9
$QTEXTMODE
 70
     0
  9
$MIRRTEXT
 70
     1
  9
$LTSCALE
 40
30.0
  9
$ATTMODE
 70
     1
  9
$TEXTSIZE
 40
2.5
  9
$TRACEWID
 40
1.0
  9
$TEXTSTYLE
  7
Standard
  9
$CLAYER
  8
0
  9
$CELTYPE
  6
ByLayer
  9
$CECOLOR
 62
   256
  9
$CELTSCALE
 40
1.0
  9
$DISPSILH
 70
     0
  9
$DIMSCALE
 40
1.0
  9
$DIMASZ
 40
2.5
  9
$DIMEXO
 40
0.625
  9
$DIMDLI
 40
3.75
  9
$DIMRND
 40
0.0
  9
$DIMDLE
 40
0.0
  9
$DIMEXE
 40
1.25
  9
$DIMTP
 40
0.0
  9
$DIMTM
 40
0.0
  9
$DIMTXT
 40
2.5
  9
$DIMCEN
 40
2.5
  9
$DIMTSZ
 40
0.0
  9
$DIMTOL
 70
     0
  9
$DIMLIM
 70
     0
  9
$DIMTIH
 70
     0
  9
$DIMTOH
 70
     0
  9
$DIMSE1
 70
     0
  9
$DIMSE2
 70
     0
  9
$DIMTAD
 70
     1
  9
$DIMZIN
 70
     8
  9
$DIMBLK
  1

  9
$DIMASO
 70
     1
  9
$DIMSHO
 70
     1
  9
$DIMPOST
  1

  9
$DIMAPOST
  1

  9
$DIMALT
 70
     0
  9
$DIMALTD
 70
     3
  9
$DIMALTF
 40
0.03937007874016
  9
$DIMLFAC
 40
1.0
  9
$DIMTOFL
 70
     1
  9
$DIMTVP
 40
0.0
  9
$DIMTIX
 70
     0
  9
$DIMSOXD
 70
     0
  9
$DIMSAH
 70
     0
  9
$DIMBLK1
  1

  9
$DIMBLK2
  1

  9
$DIMSTYLE
  2
ISO-25
  9
$DIMCLRD
 70
     0
  9
$DIMCLRE
 70
     0
  9
$DIMCLRT
 70
     0
  9
$DIMTFAC
 40
1.0
  9
$DIMGAP
 40
0.625
  9
$DIMJUST
 70
     0
  9
$DIMSD1
 70
     0
  9
$DIMSD2
 70
     0
  9
$DIMTOLJ
 70
     0
  9
$DIMTZIN
 70
     8
  9
$DIMALTZ
 70
     0
  9
$DIMALTTZ
 70
     0
  9
$DIMUPT
 70
     0
  9
$DIMDEC
 70
     2
  9
$DIMTDEC
 70
     2
  9
$DIMALTU
 70
     2
  9
$DIMALTTD
 70
     3
  9
$DIMTXSTY
  7
Standard
  9
$DIMAUNIT
 70
     0
  9
$DIMADEC
 70
     0
  9
$DIMALTRND
 40
0.0
  9
$DIMAZIN
 70
     0
  9
$DIMDSEP
 70
    44
  9
$DIMATFIT
 70
     3
  9
$DIMFRAC
 70
     0
  9
$DIMLDRBLK
  1

  9
$DIMLUNIT
 70
     2
  9
$DIMLWD
 70
    -2
  9
$DIMLWE
 70
    -2
  9
$DIMTMOVE
 70
     0
  9
$DIMFXL
 40
1.0
  9
$DIMFXLON
 70
     0
  9
$DIMJOGANG
 40
0.7853981633974483
  9
$DIMTFILL
 70
     0
  9
$DIMTFILLCLR
 70
     0
  9
$DIMARCSYM
 70
     0
  9
$DIMLTYPE
  6

  9
$DIMLTEX1
  6

  9
$DIMLTEX2
  6

  9
$DIMTXTDIRECTION
 70
     0
  9
$LUNITS
 70
     2
  9
$LUPREC
 70
     4
  9
$SKETCHINC
 40
1.0
  9
$FILLETRAD
 40
10.0
  9
$AUNITS
 70
     0
  9
$AUPREC
 70
     0
  9
$MENU
  1
.
  9
$ELEVATION
 40
0.0
  9
$PELEVATION
 40
0.0
  9
$THICKNESS
 40
0.0
  9
$LIMCHECK
 70
     0
  9
$CHAMFERA
 40
10.0
  9
$CHAMFERB
 40
10.0
  9
$CHAMFERC
 40
20.0
  9
$CHAMFERD
 40
0.0
  9
$SKPOLY
 70
     0
  9
$TDCREATE
 40
2457953.400637917
  9
$TDUCREATE
 40
2457953.025637917
  9
$TDUPDATE
 40
2457953.400637928
  9
$TDUUPDATE
 40
2457953.025637928
  9
$TDINDWG
 40
0.0000000116
  9
$TDUSRTIMER
 40
0.0000000116
  9
$USRTIMER
 70
     1
  9
$ANGBASE
 50
0.0
  9
$ANGDIR
 70
     0
  9
$PDMODE
 70
     0
  9
$PDSIZE
 40
0.0
  9
$PLINEWID
 40
0.0
  9
$SPLFRAME
 70
     0
  9
$SPLINETYPE
 70
     6
  9
$SPLINESEGS
 70
     8
  9
$HANDSEED
  5
340
  9
$SURFTAB1
 70
     6
  9
$SURFTAB2
 70
     6
  9
$SURFTYPE
 70
     6
  9
$SURFU
 70
     6
  9
$SURFV
 70
     6
  9
$UCSBASE
  2

  9
$UCSNAME
  2

  9
$UCSORG
 10
0.0
 20
0.0
 30
0.0
  9
$UCSXDIR
 10
1.0
 20
0.0
 30
0.0
  9
$UCSYDIR
 10
0.0
 20
1.0
 30
0.0
  9
$UCSORTHOREF
  2

  9
$UCSORTHOVIEW
 70
     0
  9
$UCSORGTOP
 10
0.0
 20
0.0
 30
0.0
  9
$UCSORGBOTTOM
 10
0.0
 20
0.0
 30
0.0
  9
$UCSORGLEFT
 10
0.0
 20
0.0
 30
0.0
  9
$UCSORGRIGHT
 10
0.0
 20
0.0
 30
0.0
  9
$UCSORGFRONT
 10
0.0
 20
0.0
 30
0.0
  9
$UCSORGBACK
 10
0.0
 20
0.0
 30
0.0
  9
$PUCSBASE
  2

  9
$PUCSNAME
  2

  9
$PUCSORG
 10
0.0
 20
0.0
 30
0.0
  9
$PUCSXDIR
 10
1.0
 20
0.0
 30
0.0
  9
$PUCSYDIR
 10
0.0
 20
1.0
 30
0.0
  9
$PUCSORTHOREF
  2

  9
$PUCSORTHOVIEW
 70
     0
  9
$PUCSORGTOP
 10
0.0
 20
0.0
 30
0.0
  9
$PUCSORGBOTTOM
 10
0.0
 20
0.0
 30
0.0
  9
$PUCSORGLEFT
 10
0.0
 20
0.0
 30
0.0
  9
$PUCSORGRIGHT
 10
0.0
 20
0.0
 30
0.0
  9
$PUCSORGFRONT
 10
0.0
 20
0.0
 30
0.0
  9
$PUCSORGBACK
 10
0.0
 20
0.0
 30
0.0
  9
$USERI1
 70
     0
  9
$USERI2
 70
     0
  9
$USERI3
 70
     0
  9
$USERI4
 70
     0
  9
$USERI5
 70
     0
  9
$USERR1
 40
0.0
  9
$USERR2
 40
0.0
  9
$USERR3
 40
0.0
  9
$USERR4
 40
0.0
  9
$USERR5
 40
0.0
  9
$WORLDVIEW
 70
     1
  9
$SHADEDGE
 70
     3
  9
$SHADEDIF
 70
    70
  9
$TILEMODE
 70
     1
  9
$MAXACTVP
 70
    64
  9
$PINSBASE
 10
0.0
 20
0.0
 30
0.0
  9
$PLIMCHECK
 70
     0
  9
$PEXTMIN
 10
1.000000000000000E+20
 20
1.000000000000000E+20
 30
1.000000000000000E+20
  9
$PEXTMAX
 10
-1.000000000000000E+20
 20
-1.000000000000000E+20
 30
-1.000000000000000E+20
  9
$PLIMMIN
 10
0.0
 20
0.0
  9
$PLIMMAX
 10
420.0
 20
297.0
  9
$UNITMODE
 70
     0
  9
$VISRETAIN
 70
     1
  9
$PLINEGEN
 70
     0
  9
$PSLTSCALE
 70
     1
  9
$TREEDEPTH
 70
  3020
  9
$CMLSTYLE
  2
Standard
  9
$CMLJUST
 70
     0
  9
$CMLSCALE
 40
20.0
  9
$PROXYGRAPHICS
 70
     1
  9
$MEASUREMENT
 70
     1
  9
$CELWEIGHT
370
    -1
  9
$ENDCAPS
280
     0
  9
$JOINSTYLE
280
     0
  9
$LWDISPLAY
290
     0
  9
$INSUNITS
 70
     4
  9
$HYPERLINKBASE
  1

  9
$STYLESHEET
  1

  9
$XEDIT
290
     1
  9
$CEPSNTYPE
380
     0
  9
$PSTYLEMODE
290
     1
  9
$FINGERPRINTGUID
  2
{1C4B37D1-2CE3-4952-9D41-AC351EC2BC25}
  9
$VERSIONGUID
  2
{FAEB1C32-E019-11D5-929B-00C0DF256EC4}
  9
$EXTNAMES
290
     1
  9
$PSVPSCALE
 40
0.0
  9
$OLESTARTUP
290
     0
  9
$SORTENTS
280
   127
  9
$INDEXCTL
280
     0
  9
$HIDETEXT
280
     1
  9
$XCLIPFRAME
280
     2
  9
$HALOGAP
280
     0
  9
$OBSCOLOR
 70
   257
  9
$OBSLTYPE
280
     0
  9
$INTERSECTIONDISPLAY
280
     0
  9
$INTERSECTIONCOLOR
 70
   257
  9
$DIMASSOC
280
     2
  9
$PROJECTNAME
  1

  9
$CAMERADISPLAY
290
     0
  9
$LENSLENGTH
 40
50.0
  9
$CAMERAHEIGHT
 40
0.0
  9
$STEPSPERSEC
 40
2.0
  9
$STEPSIZE
 40
6.0
  9
$3DDWFPREC
 40
2.0
  9
$PSOLWIDTH
 40
5.0
  9
$PSOLHEIGHT
 40
80.0
  9
$LOFTANG1
 40
1.570796326794897
  9
$LOFTANG2
 40
1.570796326794897
  9
$LOFTMAG1
 40
0.0
  9
$LOFTMAG2
 40
0.0
  9
$LOFTPARAM
 70
     7
  9
$LOFTNORMALS
280
     1
  9
$LATITUDE
 40
37.795
  9
$LONGITUDE
 40
-122.394
  9
$NORTHDIRECTION
 40
0.0
  9
$TIMEZONE
 70
 -8000
  9
$LIGHTGLYPHDISPLAY
280
     1
  9
$TILEMODELIGHTSYNCH
280
     1
  9
$SOLIDHIST
280
     1
  9
$SHOWHIST
280
     1
  9
$DWFFRAME
280
     2
  9
$DGNFRAME
280
     2
  9
$REALWORLDSCALE
290
     1
  9
$INTERFERECOLOR
 62
   256
  9
$CSHADOW
280
     0
  9
$SHADOWPLANELOCATION
 40
0.0
  0
ENDSEC
  0
SECTION
  2
CLASSES
  0
CLASS
  1
ACDBDICTIONARYWDFLT
  2
AcDbDictionaryWithDefault
  3
ObjectDBX Classes
 90
        0
 91
        4
280
     0
281
     0
  0
CLASS
  1
VISUALSTYLE
  2
AcDbVisualStyle
  3
ObjectDBX Classes
 90
     4095
 91
        4
280
     0
281
     0
  0
CLASS
  1
MATERIAL
  2
AcDbMaterial
  3
ObjectDBX Classes
 90
     1153
 91
        4
280
     0
281
     0
  0
ENDSEC
  0
SECTION
  2
TABLES
  0
TABLE
  2
VPORT
  5
8
330
0
100
AcDbSymbolTable
 70
     1
  0
VPORT
  5
29
330
8
100
AcDbSymbolTableRecord
100
AcDbViewportTableRecord
  2
*Active
 70
     0
 10
0.0
 20
0.0
 11
1.0
 21
1.0
 12
0.0
 22
0.0
 13
0.0
 23
0.0
 14
10.0
 24
10.0
 15
10.0
 25
10.0
 16
0.0
 26
0.0
 36
1.0
 17
0.0
 27
0.0
 37
0.0
 40
6930.000000000001
 41
1.414285714285714
 42
50.0
 43
0.0
 44
0.0
 50
0.0
 51
0.0
 71
     0
 72
 10000
 73
     1
 74
     3
 75
     0
 76
     0
 77
     0
 78
     0
281
     0
 65
     1
110
0.0
120
0.0
130
0.0
111
1.0
121
0.0
131
0.0
112
0.0
122
1.0
132
0.0
 79
     0
146
0.0
 60
     3
 61
     5
292
     1
282
     1
141
0.0
142
0.0
 63
   250
  0
ENDTAB
  0
TABLE
  2
LTYPE
  5
5
330
0
100
AcDbSymbolTable
 70
     2
  0
LTYPE
  5
14
330
5
100
AcDbSymbolTableRecord
100
AcDbLinetypeTableRecord
  2
ByBlock
 70
     0
  3

 72
    65
 73
     0
 40
0.0
  0
LTYPE
  5
15
330
5
100
AcDbSymbolTableRecord
100
AcDbLinetypeTableRecord
  2
ByLayer
 70
     0
  3

 72
    65
 73
     0
 40
0.0
  0
LTYPE
  5
16
330
5
100
AcDbSymbolTableRecord
100
AcDbLinetypeTableRecord
  2
Continuous
 70
     0
  3
Solid line
 72
    65
 73
     0
 40
0.0
  0
LTYPE
  5
3F
330
5
100
AcDbSymbolTableRecord
100
AcDbLinetypeTableRecord
  2
JWW_DASHED1
 70
     0
  3
-  --  --  --  --  --  --  --  -
 72
    65
 73
     2
 40
1.693333333333333
 49
0.8466666666666667
 74
     0
 49
-0.8466666666666667
 74
     0
  0
ENDTAB
  0
TABLE
  2
LAYER
  5
2
330
0
100
AcDbSymbolTable
 70
     3
  0
LAYER
  5
10
330
2
100
AcDbSymbolTableRecord
100
AcDbLayerTableRecord
  2
0
 70
     0
 62
     7
  6
Continuous
370
    -3
390
F
347
3E
  0
LAYER
  5
40
330
2
100
AcDbSymbolTableRecord
100
AcDbLayerTableRecord
  2
0-0
 70
     0
 62
     7
  6
Continuous
370
    -3
390
F
347
3E
  0
LAYER
  5
41
330
2
100
AcDbSymbolTableRecord
100
AcDbLayerTableRecord
  2
寸法
 70
     0
 62
     7
  6
Continuous
370
    -3
390
F
347
3E
  0
ENDTAB
  0
TABLE
  2
STYLE
  5
3
330
0
100
AcDbSymbolTable
 70
     1
  0
STYLE
  5
11
330
3
100
AcDbSymbolTableRecord
100
AcDbTextStyleTableRecord
  2
Standard
 70
     0
 40
0.0
 41
1.0
 50
0.0
 71
     0
 42
2.5
  3
txt
  4

  0
ENDTAB
  0
TABLE
  2
VIEW
  5
6
330
0
100
AcDbSymbolTable
 70
     0
  0
ENDTAB
  0
TABLE
  2
UCS
  5
7
330
0
100
AcDbSymbolTable
 70
     0
  0
ENDTAB
  0
TABLE
  2
APPID
  5
9
330
0
100
AcDbSymbolTable
 70
     1
  0
APPID
  5
12
330
9
100
AcDbSymbolTableRecord
100
AcDbRegAppTableRecord
  2
ACAD
 70
     0
  0
ENDTAB
  0
TABLE
  2
DIMSTYLE
  5
A
330
0
100
AcDbSymbolTable
 70
     1
100
AcDbDimStyleTable
  0
DIMSTYLE
105
27
330
A
100
AcDbSymbolTableRecord
100
AcDbDimStyleTableRecord
  2
ISO-25
 70
     0
 41
2.5
 42
0.625
 43
3.75
 44
1.25
 73
     0
 74
     0
 77
     1
 78
     8
140
2.5
141
2.5
143
0.03937007874016
147
0.625
171
     3
172
     1
178
     0
271
     2
272
     2
274
     3
278
    44
283
     0
284
     8
340
11
  0
ENDTAB
  0
TABLE
  2
BLOCK_RECORD
  5
1
330
0
100
AcDbSymbolTable
 70
     1
  0
BLOCK_RECORD
  5
1F
330
1
100
AcDbSymbolTableRecord
100
AcDbBlockTableRecord
  2
*Model_Space
340
22
 70
     0
280
     1
281
     0
  0
BLOCK_RECORD
  5
1B
330
1
100
AcDbSymbolTableRecord
100
AcDbBlockTableRecord
  2
*Paper_Space
340
1E
 70
     0
280
     1
281
     0
  0
BLOCK_RECORD
  5
23
330
1
100
AcDbSymbolTableRecord
100
AcDbBlockTableRecord
  2
*Paper_Space0
340
26
 70
     0
280
     1
281
     0
  0
ENDTAB
  0
ENDSEC
  0
SECTION
  2
BLOCKS
  0
BLOCK
  5
20
330
1F
100
AcDbEntity
  8
0
100
AcDbBlockBegin
  2
*Model_Space
 70
     0
 10
0.0
 20
0.0
 30
0.0
  3
*Model_Space
  1

  0
ENDBLK
  5
21
330
1F
100
AcDbEntity
  8
0
100
AcDbBlockEnd
  0
BLOCK
  5
1C
330
1B
100
AcDbEntity
 67
     1
  8
0
100
AcDbBlockBegin
  2
*Paper_Space
 70
     0
 10
0.0
 20
0.0
 30
0.0
  3
*Paper_Space
  1

  0
ENDBLK
  5
1D
330
1B
100
AcDbEntity
 67
     1
  8
0
100
AcDbBlockEnd
  0
BLOCK
  5
24
330
23
100
AcDbEntity
  8
0
100
AcDbBlockBegin
  2
*Paper_Space0
 70
     0
 10
0.0
 20
0.0
 30
0.0
  3
*Paper_Space0
  1

  0
ENDBLK
  5
25
330
23
100
AcDbEntity
  8
0
100
AcDbBlockEnd
  0
ENDSEC
  0
SECTION
  2
ENTITIES
  0
LINE
  5
42
330
1F
100
AcDbEntity
  8
0-0
  6
Continuous
 62
    92
370
    13
100
AcDbLine
 10
1235.180437439376
 20
-1067.538262324505
 30
0.0
 11
-1188.819562560623
 21
-1067.538262324505
 31
0.0
  0
LINE
  5
43
330
1F
100
AcDbEntity
  8
0-0
  6
Continuous
 62
    92
370
    13
100
AcDbLine
 10
1205.180437439376
 20
-1052.538262324505
 30
0.0
 11
-1158.819562560623
 21
-1052.538262324505
 31
0.0
  0
ARC
  5
44
330
1F
100
AcDbEntity
  8
0-0
  6
Continuous
 62
    92
370
    13
100
AcDbCircle
 10
-1130.319562560625
 20
-30.5382623245049
 30
0.0
 40
1.5
100
AcDbArc
 50
90.0
 51
180.0
  0
LINE
  5
45
330
1F
100
AcDbEntity
  8
0-0
  6
Continuous
 62
    92
370
    13
100
AcDbLine
 10
-1091.319562560624
 20
-29.03826232450456
 30
0.0
 11
-1130.319562560625
 21
-29.03826232450456
 31
0.0
  0
ARC
  5
46
330
1F
100
AcDbEntity
  8
0-0
  6
Continuous
 62
    92
370
    13
100
AcDbCircle
 10
-1091.319562560624
 20
-30.5382623245049
 30
0.0
 40
1.5
100
AcDbArc
 50
0.0
 51
90.00000000000001
  0
LINE
  5
47
330
1F
100
AcDbEntity
  8
0-0
  6
Continuous
 62
    92
370
    13
100
AcDbLine
 10
-1089.819562560627
 20
-149.5382623245041
 30
0.0
 11
-1089.819562560627
 21
-30.5382623245049
 31
0.0
  0
ARC
  5
48
330
1F
100
AcDbEntity
  8
0-0
  6
Continuous
 62
    92
370
    13
100
AcDbCircle
 10
-1091.319562560624
 20
-149.5382623245041
 30
0.0
 40
1.5
100
AcDbArc
 50
270.0
 51
0.0
  0
LINE
  5
49
330
1F
100
AcDbEntity
  8
0-0
  6
Continuous
 62
    92
370
    13
100
AcDbLine
 10
-1130.319562560625
 20
-151.0382623245061
 30
0.0
 11
-1091.319562560624
 21
-151.0382623245061
 31
0.0
  0
LINE
  5
4A
330
1F
100
AcDbEntity
  8
0-0
  6
Continuous
 62
    92
370
    13
100
AcDbLine
 10
-1131.819562560623
 20
-149.5382623245041
 30
0.0
 11
-1131.819562560623
 21
-30.5382623245049
 31
0.0
  0
ARC
  5
4B
330
1F
100
AcDbEntity
  8
0-0
  6
Continuous
 62
    92
370
    13
100
AcDbCircle
 10
-1130.319562560625
 20
-149.5382623245041
 30
0.0
 40
1.5
100
AcDbArc
 50
180.0
 51
270.0
  0
ARC
  5
4C
330
1F
100
AcDbEntity
  8
0-0
  6
Continuous
 62
     7
370
     9
100
AcDbCircle
 10
-1110.819562560625
 20
-119.638262324504
 30
0.0
 40
15.0
100
AcDbArc
 50
180.0
 51
0.0
  0
ARC
  5
4D
330
1F
100
AcDbEntity
  8
0-0
  6
Continuous
 62
     7
370
     9
100
AcDbCircle
 10
-1110.819562560625
 20
-60.43826232450414
 30
0.0
 40
15.0
100
AcDbArc
 50
0.0
 51
180.0
  0
LINE
  5
4E
330
1F
100
AcDbEntity
  8
0-0
  6
Continuous
 62
     7
370
     9
100
AcDbLine
 10
-1095.819562560625
 20
-119.638262324504
 30
0.0
 11
-1095.819562560625
 21
-60.43826232450414
 31
0.0
  0
LINE
  5
4F
330
1F
100
AcDbEntity
  8
0-0
  6
Continuous
 62
     7
370
     9
100
AcDbLine
 10
-1125.819562560625
 20
-60.43826232450414
 30
0.0
 11
-1125.819562560625
 21
-119.638262324504
 31
0.0
  0
ARC
  5
50
330
1F
100
AcDbEntity
  8
0-0
  6
Continuous
 62
    92
370
    13
100
AcDbCircle
 10
-350.3195625606247
 20
-30.5382623245049
 30
0.0
 40
1.5
100
AcDbArc
 50
90.0
 51
180.0
  0
LINE
  5
51
330
1F
100
AcDbEntity
  8
0-0
  6
Continuous
 62
    92
370
    13
100
AcDbLine
 10
-311.3195625606244
 20
-29.03826232450456
 30
0.0
 11
-350.3195625606247
 21
-29.03826232450456
 31
0.0
  0
ARC
  5
52
330
1F
100
AcDbEntity
  8
0-0
  6
Continuous
 62
    92
370
    13
100
AcDbCircle
 10
-311.3195625606244
 20
-30.5382623245049
 30
0.0
 40
1.5
100
AcDbArc
 50
0.0
 51
90.00000000000001
  0
LINE
  5
53
330
1F
100
AcDbEntity
  8
0-0
  6
Continuous
 62
    92
370
    13
100
AcDbLine
 10
-309.8195625606274
 20
-149.5382623245041
 30
0.0
 11
-309.8195625606274
 21
-30.5382623245049
 31
0.0
  0
ARC
  5
54
330
1F
100
AcDbEntity
  8
0-0
  6
Continuous
 62
    92
370
    13
100
AcDbCircle
 10
-311.3195625606244
 20
-149.5382623245041
 30
0.0
 40
1.5
100
AcDbArc
 50
270.0
 51
0.0
  0
LINE
  5
55
330
1F
100
AcDbEntity
  8
0-0
  6
Continuous
 62
    92
370
    13
100
AcDbLine
 10
-350.3195625606247
 20
-151.0382623245061
 30
0.0
 11
-311.3195625606244
 21
-151.0382623245061
 31
0.0
  0
LINE
  5
56
330
1F
100
AcDbEntity
  8
0-0
  6
Continuous
 62
    92
370
    13
100
AcDbLine
 10
-351.8195625606234
 20
-149.5382623245041
 30
0.0
 11
-351.8195625606234
 21
-30.5382623245049
 31
0.0
  0
ARC
  5
57
330
1F
100
AcDbEntity
  8
0-0
  6
Continuous
 62
    92
370
    13
100
AcDbCircle
 10
-350.3195625606247
 20
-149.5382623245041
 30
0.0
 40
1.5
100
AcDbArc
 50
180.0
 51
270.0
  0
ARC
  5
58
330
1F
100
AcDbEntity
  8
0-0
  6
Continuous
 62
     7
370
     9
100
AcDbCircle
 10
-330.8195625606254
 20
-119.638262324504
 30
0.0
 40
15.0
100
AcDbArc
 50
180.0
 51
0.0
  0
ARC
  5
59
330
1F
100
AcDbEntity
  8
0-0
  6
Continuous
 62
     7
370
     9
100
AcDbCircle
 10
-330.8195625606254
 20
-60.43826232450414
 30
0.0
 40
15.0
100
AcDbArc
 50
0.0
 51
180.0
  0
LINE
  5
5A
330
1F
100
AcDbEntity
  8
0-0
  6
Continuous
 62
     7
370
     9
100
AcDbLine
 10
-315.8195625606254
 20
-119.638262324504
 30
0.0
 11
-315.8195625606254
 21
-60.43826232450414
 31
0.0
  0
LINE
  5
5B
330
1F
100
AcDbEntity
  8
0-0
  6
Continuous
 62
     7
370
     9
100
AcDbLine
 10
-345.8195625606254
 20
-60.43826232450414
 30
0.0
 11
-345.8195625606254
 21
-119.638262324504
 31
0.0
  0
ARC
  5
5C
330
1F
100
AcDbEntity
  8
0-0
  6
Continuous
 62
    92
370
    13
100
AcDbCircle
 10
1137.680437439379
 20
-30.5382623245049
 30
0.0
 40
1.5
100
AcDbArc
 50
90.0
 51
180.0
  0
LINE
  5
5D
330
1F
100
AcDbEntity
  8
0-0
  6
Continuous
 62
    92
370
    13
100
AcDbLine
 10
1176.680437439378
 20
-29.03826232450456
 30
0.0
 11
1137.680437439379
 21
-29.03826232450456
 31
0.0
  0
ARC
  5
5E
330
1F
100
AcDbEntity
  8
0-0
  6
Continuous
 62
    92
370
    13
100
AcDbCircle
 10
1176.680437439378
 20
-30.5382623245049
 30
0.0
 40
1.5
100
AcDbArc
 50
0.0
 51
90.00000000000001
  0
LINE
  5
5F
330
1F
100
AcDbEntity
  8
0-0
  6
Continuous
 62
    92
370
    13
100
AcDbLine
 10
1178.180437439378
 20
-149.5382623245041
 30
0.0
 11
1178.180437439378
 21
-30.5382623245049
 31
0.0
  0
ARC
  5
60
330
1F
100
AcDbEntity
  8
0-0
  6
Continuous
 62
    92
370
    13
100
AcDbCircle
 10
1176.680437439378
 20
-149.5382623245041
 30
0.0
 40
1.5
100
AcDbArc
 50
270.0
 51
0.0
  0
LINE
  5
61
330
1F
100
AcDbEntity
  8
0-0
  6
Continuous
 62
    92
370
    13
100
AcDbLine
 10
1137.680437439379
 20
-151.0382623245061
 30
0.0
 11
1176.680437439378
 21
-151.0382623245061
 31
0.0
  0
LINE
  5
62
330
1F
100
AcDbEntity
  8
0-0
  6
Continuous
 62
    92
370
    13
100
AcDbLine
 10
1136.180437439379
 20
-149.5382623245041
 30
0.0
 11
1136.180437439379
 21
-30.5382623245049
 31
0.0
  0
ARC
  5
63
330
1F
100
AcDbEntity
  8
0-0
  6
Continuous
 62
    92
370
    13
100
AcDbCircle
 10
1137.680437439379
 20
-149.5382623245041
 30
0.0
 40
1.5
100
AcDbArc
 50
180.0
 51
270.0
  0
ARC
  5
64
330
1F
100
AcDbEntity
  8
0-0
  6
Continuous
 62
     7
370
     9
100
AcDbCircle
 10
1157.180437439379
 20
-119.638262324504
 30
0.0
 40
15.0
100
AcDbArc
 50
180.0
 51
0.0
  0
ARC
  5
65
330
1F
100
AcDbEntity
  8
0-0
  6
Continuous
 62
     7
370
     9
100
AcDbCircle
 10
1157.180437439379
 20
-60.43826232450414
 30
0.0
 40
15.0
100
AcDbArc
 50
0.0
 51
180.0
  0
LINE
  5
66
330
1F
100
AcDbEntity
  8
0-0
  6
Continuous
 62
     7
370
     9
100
AcDbLine
 10
1172.180437439379
 20
-119.638262324504
 30
0.0
 11
1172.180437439379
 21
-60.43826232450414
 31
0.0
  0
LINE
  5
67
330
1F
100
AcDbEntity
  8
0-0
  6
Continuous
 62
     7
370
     9
100
AcDbLine
 10
1142.180437439379
 20
-60.43826232450414
 30
0.0
 11
1142.180437439379
 21
-119.638262324504
 31
0.0
  0
LINE
  5
68
330
1F
100
AcDbEntity
  8
0-0
  6
JWW_DASHED1
 62
   120
370
     5
100
AcDbLine
 10
-1158.819562560623
 20
-1047.538262324505
 30
0.0
 11
-1161.819562560623
 21
-1047.538262324505
 31
0.0
  0
LINE
  5
69
330
1F
100
AcDbEntity
  8
0-0
  6
JWW_DASHED1
 62
   120
370
     5
100
AcDbLine
 10
1205.180437439376
 20
-1047.538262324505
 30
0.0
 11
1208.180437439377
 21
-1047.538262324505
 31
0.0
  0
LINE
  5
6A
330
1F
100
AcDbEntity
  8
0-0
  6
Continuous
 62
    92
370
    13
100
AcDbLine
 10
-1158.819562560623
 20
-1047.538262324505
 30
0.0
 11
1205.180437439376
 21
-1047.538262324505
 31
0.0
  0
LINE
  5
6B
330
1F
100
AcDbEntity
  8
0-0
  6
Continuous
 62
    92
370
    13
100
AcDbLine
 10
-1158.819562560623
 20
-1067.538262324505
 30
0.0
 11
-1158.819562560623
 21
1179.461737675495
 31
0.0
  0
LINE
  5
6C
330
1F
100
AcDbEntity
  8
0-0
  6
Continuous
 62
    92
370
    13
100
AcDbLine
 10
-1188.819562560623
 20
1179.461737675495
 30
0.0
 11
1235.180437439376
 21
1179.461737675495
 31
0.0
  0
LINE
  5
6D
330
1F
100
AcDbEntity
  8
0-0
  6
Continuous
 62
    92
370
    13
100
AcDbLine
 10
-1158.819562560623
 20
1143.461737675494
 30
0.0
 11
1205.180437439376
 21
1143.461737675494
 31
0.0
  0
LINE
  5
6E
330
1F
100
AcDbEntity
  8
0-0
  6
Continuous
 62
    92
370
    13
100
AcDbLine
 10
1205.180437439376
 20
-1067.538262324505
 30
0.0
 11
1205.180437439376
 21
1179.461737675495
 31
0.0
  0
LINE
  5
6F
330
1F
100
AcDbEntity
  8
0-0
  6
Continuous
 62
    92
370
    13
100
AcDbLine
 10
1235.180437439376
 20
-1067.538262324505
 30
0.0
 11
1235.180437439376
 21
1179.461737675495
 31
0.0
  0
LINE
  5
70
330
1F
100
AcDbEntity
  8
0-0
  6
Continuous
 62
    92
370
    13
100
AcDbLine
 10
-1188.819562560623
 20
-1067.538262324505
 30
0.0
 11
-1188.819562560623
 21
1179.461737675495
 31
0.0
  0
LINE
  5
71
330
1F
100
AcDbEntity
  8
0-0
  6
JWW_DASHED1
 62
   120
370
     5
100
AcDbLine
 10
-1161.819562560623
 20
-1047.538262324505
 30
0.0
 11
-1161.819562560623
 21
1135.461737675495
 31
0.0
  0
LINE
  5
72
330
1F
100
AcDbEntity
  8
0-0
  6
Continuous
 62
    92
370
    13
100
AcDbLine
 10
398.1804374393766
 20
-1047.538262324505
 30
0.0
 11
398.1804374393766
 21
1135.461737675495
 31
0.0
  0
LINE
  5
73
330
1F
100
AcDbEntity
  8
0-0
  6
JWW_DASHED1
 62
   120
370
     5
100
AcDbLine
 10
-1161.819562560623
 20
1135.461737675495
 30
0.0
 11
-1158.819562560623
 21
1135.461737675495
 31
0.0
  0
LINE
  5
74
330
1F
100
AcDbEntity
  8
0-0
  6
JWW_DASHED1
 62
   120
370
     5
100
AcDbLine
 10
-351.8195625606234
 20
-1047.538262324505
 30
0.0
 11
-351.8195625606234
 21
1135.461737675495
 31
0.0
  0
LINE
  5
75
330
1F
100
AcDbEntity
  8
0-0
  6
JWW_DASHED1
 62
   120
370
     5
100
AcDbLine
 10
428.1804374393766
 20
-1047.538262324505
 30
0.0
 11
428.1804374393766
 21
1135.461737675495
 31
0.0
  0
LINE
  5
76
330
1F
100
AcDbEntity
  8
0-0
  6
JWW_DASHED1
 62
   120
370
     5
100
AcDbLine
 10
1208.180437439377
 20
-1047.538262324505
 30
0.0
 11
1208.180437439377
 21
1135.461737675495
 31
0.0
  0
LINE
  5
77
330
1F
100
AcDbEntity
  8
0-0
  6
JWW_DASHED1
 62
   120
370
     5
100
AcDbLine
 10
1208.180437439377
 20
1135.461737675495
 30
0.0
 11
1205.180437439376
 21
1135.461737675495
 31
0.0
  0
LINE
  5
78
330
1F
100
AcDbEntity
  8
0-0
  6
Continuous
 62
    92
370
    13
100
AcDbLine
 10
-1158.819562560623
 20
1135.461737675495
 30
0.0
 11
1205.180437439376
 21
1135.461737675495
 31
0.0
  0
LINE
  5
79
330
1F
100
AcDbEntity
  8
0-0
  6
Continuous
 62
    92
370
    13
100
AcDbLine
 10
-381.8195625606234
 20
1135.461737675495
 30
0.0
 11
-381.8195625606234
 21
-1047.538262324505
 31
0.0
  0
LINE
  5
7A
330
1F
100
AcDbEntity
  8
0-0
  6
Continuous
 62
     7
370
     9
100
AcDbLine
 10
-775.8195625606256
 20
-1039.538262324505
 30
0.0
 11
-737.8195625606253
 21
-1039.538262324505
 31
0.0
  0
LINE
  5
7B
330
1F
100
AcDbEntity
  8
0-0
  6
JWW_DASHED1
 62
   120
370
     5
100
AcDbLine
 10
-775.8195625606256
 20
-1002.740963163092
 30
0.0
 11
-737.8195625606287
 21
-964.7409631630919
 31
0.0
  0
LINE
  5
7C
330
1F
100
AcDbEntity
  8
0-0
  6
JWW_DASHED1
 62
   120
370
     5
100
AcDbLine
 10
-775.8195625606256
 20
-992.8414682279301
 30
0.0
 11
-737.8195625606253
 21
-954.8414682279272
 31
0.0
  0
LINE
  5
7D
330
1F
100
AcDbEntity
  8
0-0
  6
JWW_DASHED1
 62
   120
370
     5
100
AcDbLine
 10
-775.8195625606256
 20
-982.9419732927116
 30
0.0
 11
-737.8195625606185
 21
-944.941973292703
 31
0.0
  0
LINE
  5
7E
330
1F
100
AcDbEntity
  8
0-0
  6
JWW_DASHED1
 62
   120
370
     5
100
AcDbLine
 10
-775.8195625606256
 20
-973.0424783574994
 30
0.0
 11
-737.8195625606253
 21
-935.0424783574949
 31
0.0
  0
LINE
  5
7F
330
1F
100
AcDbEntity
  8
0-0
  6
JWW_DASHED1
 62
   120
370
     5
100
AcDbLine
 10
-775.8195625606256
 20
-963.1429834223308
 30
0.0
 11
-737.8195625606219
 21
-925.14298342233
 31
0.0
  0
LINE
  5
80
330
1F
100
AcDbEntity
  8
0-0
  6
JWW_DASHED1
 62
   120
370
     5
100
AcDbLine
 10
-775.8195625606256
 20
-953.2434884871166
 30
0.0
 11
-737.8195625606321
 21
-915.2434884871219
 31
0.0
  0
LINE
  5
81
330
1F
100
AcDbEntity
  8
0-0
  6
JWW_DASHED1
 62
   120
370
     5
100
AcDbLine
 10
-775.8195625606256
 20
-943.3439935518983
 30
0.0
 11
-737.8195625606219
 21
-905.343993551898
 31
0.0
  0
LINE
  5
82
330
1F
100
AcDbEntity
  8
0-0
  6
JWW_DASHED1
 62
   120
370
     5
100
AcDbLine
 10
-775.8195625606256
 20
-933.4444986167371
 30
0.0
 11
-737.8195625606185
 21
-895.4444986167331
 31
0.0
  0
LINE
  5
83
330
1F
100
AcDbEntity
  8
0-0
  6
JWW_DASHED1
 62
   120
370
     5
100
AcDbLine
 10
-775.8195625606256
 20
-923.5450036815233
 30
0.0
 11
-737.8195625606287
 21
-885.545003681525
 31
0.0
  0
LINE
  5
84
330
1F
100
AcDbEntity
  8
0-0
  6
JWW_DASHED1
 62
   120
370
     5
100
AcDbLine
 10
-775.8195625606256
 20
-913.6455087463057
 30
0.0
 11
-737.8195625606185
 21
-875.645508746301
 31
0.0
  0
LINE
  5
85
330
1F
100
AcDbEntity
  8
0-0
  6
JWW_DASHED1
 62
   120
370
     5
100
AcDbLine
 10
-775.8195625606256
 20
-903.7460138111433
 30
0.0
 11
-737.8195625606321
 21
-865.746013811152
 31
0.0
  0
LINE
  5
86
330
1F
100
AcDbEntity
  8
0-0
  6
JWW_DASHED1
 62
   120
370
     5
100
AcDbLine
 10
-775.8195625606256
 20
-893.8465188759296
 30
0.0
 11
-737.8195625606253
 21
-855.8465188759284
 31
0.0
  0
LINE
  5
87
330
1F
100
AcDbEntity
  8
0-0
  6
JWW_DASHED1
 62
   120
370
     5
100
AcDbLine
 10
-775.8195625606256
 20
-883.9470239407157
 30
0.0
 11
-737.8195625606185
 21
-845.9470239407044
 31
0.0
  0
LINE
  5
88
330
1F
100
AcDbEntity
  8
0-0
  6
JWW_DASHED1
 62
   120
370
     5
100
AcDbLine
 10
-775.8195625606256
 20
-874.0475290055524
 30
0.0
 11
-737.8195625606321
 21
-836.047529005555
 31
0.0
  0
LINE
  5
89
330
1F
100
AcDbEntity
  8
0-0
  6
JWW_DASHED1
 62
   120
370
     5
100
AcDbLine
 10
-775.8195625606256
 20
-864.1480340703399
 30
0.0
 11
-737.8195625606253
 21
-826.1480340703312
 31
0.0
  0
LINE
  5
8A
330
1F
100
AcDbEntity
  8
0-0
  6
JWW_DASHED1
 62
   120
370
     5
100
AcDbLine
 10
-775.8195625606256
 20
-854.248539135167
 30
0.0
 11
-737.8195625606185
 21
-816.2485391351665
 31
0.0
  0
LINE
  5
8B
330
1F
100
AcDbEntity
  8
0-0
  6
JWW_DASHED1
 62
   120
370
     5
100
AcDbLine
 10
-775.8195625606256
 20
-844.3490441999519
 30
0.0
 11
-737.8195625606287
 21
-806.3490441999581
 31
0.0
  0
LINE
  5
8C
330
1F
100
AcDbEntity
  8
0-0
  6
JWW_DASHED1
 62
   120
370
     5
100
AcDbLine
 10
-775.8195625606256
 20
-834.4495492647396
 30
0.0
 11
-737.8195625606219
 21
-796.4495492647345
 31
0.0
  0
LINE
  5
8D
330
1F
100
AcDbEntity
  8
0-0
  6
JWW_DASHED1
 62
   120
370
     5
100
AcDbLine
 10
-775.8195625606256
 20
-824.5500543295778
 30
0.0
 11
-737.8195625606185
 21
-786.5500543295693
 31
0.0
  0
LINE
  5
8E
330
1F
100
AcDbEntity
  8
0-0
  6
JWW_DASHED1
 62
   120
370
     5
100
AcDbLine
 10
-775.8195625606256
 20
-814.6505593943579
 30
0.0
 11
-737.8195625606253
 21
-776.6505593943615
 31
0.0
  0
LINE
  5
8F
330
1F
100
AcDbEntity
  8
0-0
  6
JWW_DASHED1
 62
   120
370
     5
100
AcDbLine
 10
-775.8195625606256
 20
-804.7510644591464
 30
0.0
 11
-737.8195625606185
 21
-766.7510644591375
 31
0.0
  0
LINE
  5
90
330
1F
100
AcDbEntity
  8
0-0
  6
JWW_DASHED1
 62
   120
370
     5
100
AcDbLine
 10
-775.8195625606256
 20
-794.8515695239831
 30
0.0
 11
-737.8195625606321
 21
-756.8515695239882
 31
0.0
  0
LINE
  5
91
330
1F
100
AcDbEntity
  8
0-0
  6
JWW_DASHED1
 62
   120
370
     5
100
AcDbLine
 10
-775.8195625606256
 20
-784.9520745887689
 30
0.0
 11
-737.8195625606253
 21
-746.9520745887645
 31
0.0
  0
LINE
  5
92
330
1F
100
AcDbEntity
  8
0-0
  6
JWW_DASHED1
 62
   120
370
     5
100
AcDbLine
 10
-775.8195625606256
 20
-775.0525796535536
 30
0.0
 11
-737.8195625606321
 21
-737.0525796535564
 31
0.0
  0
LINE
  5
93
330
1F
100
AcDbEntity
  8
0-0
  6
JWW_DASHED1
 62
   120
370
     5
100
AcDbLine
 10
-775.8195625606256
 20
-765.1530847183897
 30
0.0
 11
-737.8195625606287
 21
-727.1530847183915
 31
0.0
  0
LINE
  5
94
330
1F
100
AcDbEntity
  8
0-0
  6
JWW_DASHED1
 62
   120
370
     5
100
AcDbLine
 10
-775.8195625606256
 20
-755.253589783175
 30
0.0
 11
-737.8195625606219
 21
-717.2535897831676
 31
0.0
  0
LINE
  5
95
330
1F
100
AcDbEntity
  8
0-0
  6
JWW_DASHED1
 62
   120
370
     5
100
AcDbLine
 10
-775.8195625606256
 20
-745.3540948479581
 30
0.0
 11
-737.8195625606287
 21
-707.3540948479593
 31
0.0
  0
LINE
  5
96
330
1F
100
AcDbEntity
  8
0-0
  6
JWW_DASHED1
 62
   120
370
     5
100
AcDbLine
 10
-775.8195625606256
 20
-735.4545999127886
 30
0.0
 11
-737.8195625606253
 21
-697.4545999127946
 31
0.0
  0
LINE
  5
97
330
1F
100
AcDbEntity
  8
0-0
  6
JWW_DASHED1
 62
   120
370
     5
100
AcDbLine
 10
-775.8195625606256
 20
-725.5551049775819
 30
0.0
 11
-737.8195625606185
 21
-687.5551049775706
 31
0.0
  0
LINE
  5
98
330
1F
100
AcDbEntity
  8
0-0
  6
JWW_DASHED1
 62
   120
370
     5
100
AcDbLine
 10
-775.8195625606256
 20
-715.6556100423572
 30
0.0
 11
-737.8195625606253
 21
-677.6556100423626
 31
0.0
  0
LINE
  5
99
330
1F
100
AcDbEntity
  8
0-0
  6
JWW_DASHED1
 62
   120
370
     5
100
AcDbLine
 10
-775.8195625606256
 20
-705.7561151071992
 30
0.0
 11
-737.8195625606253
 21
-667.7561151071975
 31
0.0
  0
LINE
  5
9A
330
1F
100
AcDbEntity
  8
0-0
  6
JWW_DASHED1
 62
   120
370
     5
100
AcDbLine
 10
-775.8195625606256
 20
-695.856620171985
 30
0.0
 11
-737.8195625606185
 21
-657.8566201719738
 31
0.0
  0
LINE
  5
9B
330
1F
100
AcDbEntity
  8
0-0
  6
JWW_DASHED1
 62
   120
370
     5
100
AcDbLine
 10
-775.8195625606256
 20
-685.9571252367672
 30
0.0
 11
-737.8195625606253
 21
-647.9571252367655
 31
0.0
  0
LINE
  5
9C
330
1F
100
AcDbEntity
  8
0-0
  6
JWW_DASHED1
 62
   120
370
     5
100
AcDbLine
 10
-775.8195625606256
 20
-676.0576303016059
 30
0.0
 11
-737.8195625606219
 21
-638.0576303016007
 31
0.0
  0
LINE
  5
9D
330
1F
100
AcDbEntity
  8
0-0
  6
JWW_DASHED1
 62
   120
370
     5
100
AcDbLine
 10
-775.8195625606256
 20
-666.1581353663864
 30
0.0
 11
-737.8195625606287
 21
-628.1581353663927
 31
0.0
  0
LINE
  5
9E
330
1F
100
AcDbEntity
  8
0-0
  6
JWW_DASHED1
 62
   120
370
     5
100
AcDbLine
 10
-775.8195625606256
 20
-656.2586404311737
 30
0.0
 11
-737.8195625606219
 21
-618.2586404311687
 31
0.0
  0
LINE
  5
9F
330
1F
100
AcDbEntity
  8
0-0
  6
JWW_DASHED1
 62
   120
370
     5
100
AcDbLine
 10
-775.8195625606256
 20
-646.3591454960122
 30
0.0
 11
-737.8195625606185
 21
-608.3591454960036
 31
0.0
  0
LINE
  5
A0
330
1F
100
AcDbEntity
  8
0-0
  6
JWW_DASHED1
 62
   120
370
     5
100
AcDbLine
 10
-775.8195625606256
 20
-636.4596505607929
 30
0.0
 11
-737.8195625606253
 21
-598.4596505607956
 31
0.0
  0
LINE
  5
A1
330
1F
100
AcDbEntity
  8
0-0
  6
JWW_DASHED1
 62
   120
370
     5
100
AcDbLine
 10
-775.8195625606256
 20
-626.5601556255729
 30
0.0
 11
-737.8195625606185
 21
-588.5601556255721
 31
0.0
  0
LINE
  5
A2
330
1F
100
AcDbEntity
  8
0-0
  6
JWW_DASHED1
 62
   120
370
     5
100
AcDbLine
 10
-775.8195625606256
 20
-616.6606606904203
 30
0.0
 11
-737.8195625606321
 21
-578.6606606904227
 31
0.0
  0
LINE
  5
A3
330
1F
100
AcDbEntity
  8
0-0
  6
JWW_DASHED1
 62
   120
370
     5
100
AcDbLine
 10
-775.8195625606256
 20
-606.7611657552033
 30
0.0
 11
-737.8195625606253
 21
-568.7611657551988
 31
0.0
  0
LINE
  5
A4
330
1F
100
AcDbEntity
  8
0-0
  6
JWW_DASHED1
 62
   120
370
     5
100
AcDbLine
 10
-775.8195625606256
 20
-596.8616708199835
 30
0.0
 11
-737.8195625606185
 21
-558.8616708199745
 31
0.0
  0
LINE
  5
A5
330
1F
100
AcDbEntity
  8
0-0
  6
JWW_DASHED1
 62
   120
370
     5
100
AcDbLine
 10
-775.8195625606256
 20
-586.9621758848232
 30
0.0
 11
-737.8195625606321
 21
-548.9621758848256
 31
0.0
  0
LINE
  5
A6
330
1F
100
AcDbEntity
  8
0-0
  6
JWW_DASHED1
 62
   120
370
     5
100
AcDbLine
 10
-775.8195625606256
 20
-577.0626809496036
 30
0.0
 11
-737.8195625606219
 21
-539.0626809496016
 31
0.0
  0
LINE
  5
A7
330
1F
100
AcDbEntity
  8
0-0
  6
JWW_DASHED1
 62
   120
370
     5
100
AcDbLine
 10
-775.8195625606256
 20
-567.163186014389
 30
0.0
 11
-737.8195625606321
 21
-529.1631860143937
 31
0.0
  0
LINE
  5
A8
330
1F
100
AcDbEntity
  8
0-0
  6
JWW_DASHED1
 62
   120
370
     5
100
AcDbLine
 10
-775.8195625606256
 20
-557.2636910792233
 30
0.0
 11
-737.8195625606253
 21
-519.2636910792285
 31
0.0
  0
LINE
  5
A9
330
1F
100
AcDbEntity
  8
0-0
  6
JWW_DASHED1
 62
   120
370
     5
100
AcDbLine
 10
-775.8195625606256
 20
-547.3641961440092
 30
0.0
 11
-737.8195625606185
 21
-509.3641961440053
 31
0.0
  0
LINE
  5
AA
330
1F
100
AcDbEntity
  8
0-0
  6
JWW_DASHED1
 62
   120
370
     5
100
AcDbLine
 10
-775.8195625606256
 20
-537.464701208795
 30
0.0
 11
-737.8195625606287
 21
-499.4647012087971
 31
0.0
  0
LINE
  5
AB
330
1F
100
AcDbEntity
  8
0-0
  6
JWW_DASHED1
 62
   120
370
     5
100
AcDbLine
 10
-775.8195625606256
 20
-527.5652062736332
 30
0.0
 11
-737.8195625606253
 21
-489.5652062736319
 31
0.0
  0
LINE
  5
AC
330
1F
100
AcDbEntity
  8
0-0
  6
JWW_DASHED1
 62
   120
370
     5
100
AcDbLine
 10
-775.8195625606256
 20
-517.6657113384138
 30
0.0
 11
-737.8195625606321
 21
-479.6657113384236
 31
0.0
  0
LINE
  5
AD
330
1F
100
AcDbEntity
  8
0-0
  6
JWW_DASHED1
 62
   120
370
     5
100
AcDbLine
 10
-775.8195625606256
 20
-507.7662164032013
 30
0.0
 11
-737.8195625606253
 21
-469.7662164032
 31
0.0
  0
LINE
  5
AE
330
1F
100
AcDbEntity
  8
0-0
  6
JWW_DASHED1
 62
   120
370
     5
100
AcDbLine
 10
-775.8195625606256
 20
-497.8667214680391
 30
0.0
 11
-737.8195625606219
 21
-459.8667214680353
 31
0.0
  0
LINE
  5
AF
330
1F
100
AcDbEntity
  8
0-0
  6
JWW_DASHED1
 62
   120
370
     5
100
AcDbLine
 10
-775.8195625606256
 20
-487.9672265328257
 30
0.0
 11
-737.8195625606321
 21
-449.9672265328266
 31
0.0
  0
LINE
  5
B0
330
1F
100
AcDbEntity
  8
0-0
  6
JWW_DASHED1
 62
   120
370
     5
100
AcDbLine
 10
-775.8195625606256
 20
-478.0677315976051
 30
0.0
 11
-737.8195625606253
 21
-440.067731597603
 31
0.0
  0
LINE
  5
B1
330
1F
100
AcDbEntity
  8
0-0
  6
JWW_DASHED1
 62
   120
370
     5
100
AcDbLine
 10
-775.8195625606256
 20
-468.1682366624391
 30
0.0
 11
-737.8195625606185
 21
-430.1682366624382
 31
0.0
  0
LINE
  5
B2
330
1F
100
AcDbEntity
  8
0-0
  6
JWW_DASHED1
 62
   120
370
     5
100
AcDbLine
 10
-775.8195625606256
 20
-458.268741727224
 30
0.0
 11
-737.8195625606287
 21
-420.2687417272304
 31
0.0
  0
LINE
  5
B3
330
1F
100
AcDbEntity
  8
0-0
  6
JWW_DASHED1
 62
   120
370
     5
100
AcDbLine
 10
-775.8195625606256
 20
-448.369246792011
 30
0.0
 11
-737.8195625606219
 21
-410.3692467920064
 31
0.0
  0
LINE
  5
B4
330
1F
100
AcDbEntity
  8
0-0
  6
JWW_DASHED1
 62
   120
370
     5
100
AcDbLine
 10
-775.8195625606256
 20
-438.4697518568501
 30
0.0
 11
-737.8195625606185
 21
-400.4697518568412
 31
0.0
  0
LINE
  5
B5
330
1F
100
AcDbEntity
  8
0-0
  6
JWW_DASHED1
 62
   120
370
     5
100
AcDbLine
 10
-775.8195625606256
 20
-428.5702569216303
 30
0.0
 11
-737.8195625606253
 21
-390.5702569216334
 31
0.0
  0
LINE
  5
B6
330
1F
100
AcDbEntity
  8
0-0
  6
JWW_DASHED1
 62
   120
370
     5
100
AcDbLine
 10
-775.8195625606256
 20
-418.6707619864183
 30
0.0
 11
-737.8195625606185
 21
-380.6707619864093
 31
0.0
  0
LINE
  5
B7
330
1F
100
AcDbEntity
  8
0-0
  6
JWW_DASHED1
 62
   120
370
     5
100
AcDbLine
 10
-775.8195625606256
 20
-408.7712670512505
 30
0.0
 11
-737.8195625606253
 21
-370.7712670512548
 31
0.0
  0
LINE
  5
B8
330
1F
100
AcDbEntity
  8
0-0
  6
JWW_DASHED1
 62
   120
370
     5
100
AcDbLine
 10
-775.8195625606256
 20
-398.8717721160401
 30
0.0
 11
-737.8195625606253
 21
-360.8717721160363
 31
0.0
  0
LINE
  5
B9
330
1F
100
AcDbEntity
  8
0-0
  6
JWW_DASHED1
 62
   120
370
     5
100
AcDbLine
 10
-775.8195625606256
 20
-388.9722771808263
 30
0.0
 11
-737.8195625606321
 21
-350.9722771808281
 31
0.0
  0
LINE
  5
BA
330
1F
100
AcDbEntity
  8
0-0
  6
JWW_DASHED1
 62
   120
370
     5
100
AcDbLine
 10
-775.8195625606256
 20
-379.072782245662
 30
0.0
 11
-737.8195625606287
 21
-341.0727822456633
 31
0.0
  0
LINE
  5
BB
330
1F
100
AcDbEntity
  8
0-0
  6
JWW_DASHED1
 62
   120
370
     5
100
AcDbLine
 10
-775.8195625606256
 20
-369.1732873104397
 30
0.0
 11
-737.8195625606219
 21
-331.1732873104393
 31
0.0
  0
LINE
  5
BC
330
1F
100
AcDbEntity
  8
0-0
  6
JWW_DASHED1
 62
   120
370
     5
100
AcDbLine
 10
-775.8195625606256
 20
-359.273792375225
 30
0.0
 11
-737.8195625606287
 21
-321.2737923752314
 31
0.0
  0
LINE
  5
BD
330
1F
100
AcDbEntity
  8
0-0
  6
JWW_DASHED1
 62
   120
370
     5
100
AcDbLine
 10
-775.8195625606256
 20
-349.3742974400611
 30
0.0
 11
-737.8195625606253
 21
-311.3742974400662
 31
0.0
  0
LINE
  5
BE
330
1F
100
AcDbEntity
  8
0-0
  6
JWW_DASHED1
 62
   120
370
     5
100
AcDbLine
 10
-775.8195625606256
 20
-339.4748025048528
 30
0.0
 11
-737.8195625606185
 21
-301.4748025048422
 31
0.0
  0
LINE
  5
BF
330
1F
100
AcDbEntity
  8
0-0
  6
JWW_DASHED1
 62
   120
370
     5
100
AcDbLine
 10
-775.8195625606256
 20
-329.5753075696292
 30
0.0
 11
-737.8195625606253
 21
-291.5753075696344
 31
0.0
  0
LINE
  5
C0
330
1F
100
AcDbEntity
  8
0-0
  6
JWW_DASHED1
 62
   120
370
     5
100
AcDbLine
 10
-775.8195625606256
 20
-319.6758126344713
 30
0.0
 11
-737.8195625606253
 21
-281.6758126344692
 31
0.0
  0
LINE
  5
C1
330
1F
100
AcDbEntity
  8
0-0
  6
JWW_DASHED1
 62
   120
370
     5
100
AcDbLine
 10
-775.8195625606256
 20
-309.7763176992579
 30
0.0
 11
-737.8195625606185
 21
-271.7763176992452
 31
0.0
  0
LINE
  5
C2
330
1F
100
AcDbEntity
  8
0-0
  6
JWW_DASHED1
 62
   120
370
     5
100
AcDbLine
 10
-775.8195625606256
 20
-299.8768227640394
 30
0.0
 11
-737.8195625606253
 21
-261.8768227640373
 31
0.0
  0
LINE
  5
C3
330
1F
100
AcDbEntity
  8
0-0
  6
JWW_DASHED1
 62
   120
370
     5
100
AcDbLine
 10
-775.8195625606256
 20
-289.9773278288777
 30
0.0
 11
-737.8195625606219
 21
-251.9773278288721
 31
0.0
  0
LINE
  5
C4
330
1F
100
AcDbEntity
  8
0-0
  6
JWW_DASHED1
 62
   120
370
     5
100
AcDbLine
 10
-775.8195625606256
 20
-280.0778328936579
 30
0.0
 11
-737.8195625606287
 21
-242.0778328936643
 31
0.0
  0
LINE
  5
C5
330
1F
100
AcDbEntity
  8
0-0
  6
JWW_DASHED1
 62
   120
370
     5
100
AcDbLine
 10
-775.8195625606256
 20
-270.1783379584739
 30
0.0
 11
-737.8195625606253
 21
-232.1783379584701
 31
0.0
  0
LINE
  5
C6
330
1F
100
AcDbEntity
  8
0-0
  6
JWW_DASHED1
 62
   120
370
     5
100
AcDbLine
 10
-775.8195625606256
 20
-260.2788430232764
 30
0.0
 11
-737.8195625606185
 21
-222.2788430232755
 31
0.0
  0
LINE
  5
C7
330
1F
100
AcDbEntity
  8
0-0
  6
JWW_DASHED1
 62
   120
370
     5
100
AcDbLine
 10
-775.8195625606256
 20
-250.3793480880634
 30
0.0
 11
-737.8195625606253
 21
-212.3793480880677
 31
0.0
  0
LINE
  5
C8
330
1F
100
AcDbEntity
  8
0-0
  6
JWW_DASHED1
 62
   120
370
     5
100
AcDbLine
 10
-775.8195625606256
 20
-240.4798531528735
 30
0.0
 11
-737.8195625606219
 21
-202.4798531528731
 31
0.0
  0
LINE
  5
C9
330
1F
100
AcDbEntity
  8
0-0
  6
JWW_DASHED1
 62
   120
370
     5
100
AcDbLine
 10
-775.8195625606256
 20
-230.5803582176912
 30
0.0
 11
-737.8195625606321
 21
-192.5803582176943
 31
0.0
  0
LINE
  5
CA
330
1F
100
AcDbEntity
  8
0-0
  6
JWW_DASHED1
 62
   120
370
     5
100
AcDbLine
 10
-775.8195625606256
 20
-220.6808632824762
 30
0.0
 11
-737.8195625606253
 21
-182.6808632824702
 31
0.0
  0
LINE
  5
CB
330
1F
100
AcDbEntity
  8
0-0
  6
JWW_DASHED1
 62
   120
370
     5
100
AcDbLine
 10
-775.8195625606256
 20
-210.7813683473063
 30
0.0
 11
-737.8195625606219
 21
-172.7813683473059
 31
0.0
  0
LINE
  5
CC
330
1F
100
AcDbEntity
  8
0-0
  6
JWW_DASHED1
 62
   120
370
     5
100
AcDbLine
 10
-775.8195625606256
 20
-200.8818734120963
 30
0.0
 11
-737.8195625606321
 21
-162.8818734120972
 31
0.0
  0
LINE
  5
CD
330
1F
100
AcDbEntity
  8
0-0
  6
JWW_DASHED1
 62
   120
370
     5
100
AcDbLine
 10
-775.8195625606256
 20
-190.9823784768744
 30
0.0
 11
-737.8195625606219
 21
-152.982378476874
 31
0.0
  0
LINE
  5
CE
330
1F
100
AcDbEntity
  8
0-0
  6
JWW_DASHED1
 62
   120
370
     5
100
AcDbLine
 10
-775.8195625606256
 20
-181.0828835417126
 30
0.0
 11
-737.8195625606185
 21
-143.0828835417088
 31
0.0
  0
LINE
  5
CF
330
1F
100
AcDbEntity
  8
0-0
  6
JWW_DASHED1
 62
   120
370
     5
100
AcDbLine
 10
-775.8195625606256
 20
-171.183388606498
 30
0.0
 11
-737.8195625606287
 21
-133.183388606501
 31
0.0
  0
LINE
  5
D0
330
1F
100
AcDbEntity
  8
0-0
  6
JWW_DASHED1
 62
   120
370
     5
100
AcDbLine
 10
-775.8195625606256
 20
-161.2838936712808
 30
0.0
 11
-737.8195625606185
 21
-123.283893671277
 31
0.0
  0
LINE
  5
D1
330
1F
100
AcDbEntity
  8
0-0
  6
JWW_DASHED1
 62
   120
370
     5
100
AcDbLine
 10
-775.8195625606256
 20
-151.3843987361224
 30
0.0
 11
-737.8195625606185
 21
-113.3843987361118
 31
0.0
  0
LINE
  5
D2
330
1F
100
AcDbEntity
  8
0-0
  6
JWW_DASHED1
 62
   120
370
     5
100
AcDbLine
 10
-775.8195625606256
 20
-141.4849038009044
 30
0.0
 11
-737.8195625606253
 21
-103.484903800904
 31
0.0
  0
LINE
  5
D3
330
1F
100
AcDbEntity
  8
0-0
  6
JWW_DASHED1
 62
   120
370
     5
100
AcDbLine
 10
-775.8195625606256
 20
-131.5854088656906
 30
0.0
 11
-737.8195625606185
 21
-93.58540886567994
 31
0.0
  0
LINE
  5
D4
330
1F
100
AcDbEntity
  8
0-0
  6
JWW_DASHED1
 62
   120
370
     5
100
AcDbLine
 10
-775.8195625606256
 20
-121.6859139305237
 30
0.0
 11
-737.8195625606219
 21
-83.68591393052327
 31
0.0
  0
LINE
  5
D5
330
1F
100
AcDbEntity
  8
0-0
  6
JWW_DASHED1
 62
   120
370
     5
100
AcDbLine
 10
-775.8195625606256
 20
-111.7864189953124
 30
0.0
 11
-737.8195625606219
 21
-73.78641899530692
 31
0.0
  0
LINE
  5
D6
330
1F
100
AcDbEntity
  8
0-0
  6
JWW_DASHED1
 62
   120
370
     5
100
AcDbLine
 10
-775.8195625606256
 20
-101.8869240600961
 30
0.0
 11
-737.8195625606321
 21
-63.88692406009909
 31
0.0
  0
LINE
  5
D7
330
1F
100
AcDbEntity
  8
0-0
  6
JWW_DASHED1
 62
   120
370
     5
100
AcDbLine
 10
-775.8195625606256
 20
-91.98742912492747
 30
0.0
 11
-737.8195625606287
 21
-53.9874291249339
 31
0.0
  0
LINE
  5
D8
330
1F
100
AcDbEntity
  8
0-0
  6
JWW_DASHED1
 62
   120
370
     5
100
AcDbLine
 10
-775.8195625606256
 20
-82.08793418971155
 30
0.0
 11
-737.8195625606185
 21
-44.08793418970987
 31
0.0
  0
LINE
  5
D9
330
1F
100
AcDbEntity
  8
0-0
  6
JWW_DASHED1
 62
   120
370
     5
100
AcDbLine
 10
-775.8195625606256
 20
-72.18843925449562
 30
0.0
 11
-737.8195625606287
 21
-34.18843925450204
 31
0.0
  0
LINE
  5
DA
330
1F
100
AcDbEntity
  8
0-0
  6
JWW_DASHED1
 62
   120
370
     5
100
AcDbLine
 10
-775.8195625606256
 20
-62.28894431934194
 30
0.0
 11
-737.8195625606253
 21
-24.28894431933685
 31
0.0
  0
LINE
  5
DB
330
1F
100
AcDbEntity
  8
0-0
  6
JWW_DASHED1
 62
   120
370
     5
100
AcDbLine
 10
-775.8195625606256
 20
-52.38944938412132
 30
0.0
 11
-737.8195625606185
 21
-14.38944938411325
 31
0.0
  0
LINE
  5
DC
330
1F
100
AcDbEntity
  8
0-0
  6
JWW_DASHED1
 62
   120
370
     5
100
AcDbLine
 10
-775.8195625606256
 20
-42.48995444890198
 30
0.0
 11
-737.8195625606253
 21
-4.489954448904996
 31
0.0
  0
LINE
  5
DD
330
1F
100
AcDbEntity
  8
0-0
  6
JWW_DASHED1
 62
   120
370
     5
100
AcDbLine
 10
-775.8195625606256
 20
-32.59045951374404
 30
0.0
 11
-737.8195625606253
 21
5.409540486259772
 31
0.0
  0
LINE
  5
DE
330
1F
100
AcDbEntity
  8
0-0
  6
JWW_DASHED1
 62
   120
370
     5
100
AcDbLine
 10
-775.8195625606256
 20
-22.69096457852768
 30
0.0
 11
-737.819562560615
 21
15.3090354214838
 31
0.0
  0
LINE
  5
DF
330
1F
100
AcDbEntity
  8
0-0
  6
JWW_DASHED1
 62
   120
370
     5
100
AcDbLine
 10
-775.8195625606256
 20
-12.79146964331176
 30
0.0
 11
-737.8195625606253
 21
25.20853035669205
 31
0.0
  0
LINE
  5
E0
330
1F
100
AcDbEntity
  8
0-0
  6
JWW_DASHED1
 62
   120
370
     5
100
AcDbLine
 10
-775.8195625606256
 20
-2.8919747081504
 30
0.0
 11
-737.8195625606219
 21
35.10802529185682
 31
0.0
  0
LINE
  5
E1
330
1F
100
AcDbEntity
  8
0-0
  6
JWW_DASHED1
 62
   120
370
     5
100
AcDbLine
 10
-775.8195625606256
 20
7.007520227066379
 30
0.0
 11
-737.8195625606287
 21
45.00752022706507
 31
0.0
  0
LINE
  5
E2
330
1F
100
AcDbEntity
  8
0-0
  6
JWW_DASHED1
 62
   120
370
     5
100
AcDbLine
 10
-775.8195625606256
 20
16.90701516228827
 30
0.0
 11
-737.8195625606219
 21
54.90701516228867
 31
0.0
  0
LINE
  5
E3
330
1F
100
AcDbEntity
  8
0-0
  6
JWW_DASHED1
 62
   120
370
     5
100
AcDbLine
 10
-775.8195625606256
 20
26.80651009744196
 30
0.0
 11
-737.8195625606185
 21
64.80651009745387
 31
0.0
  0
LINE
  5
E4
330
1F
100
AcDbEntity
  8
0-0
  6
JWW_DASHED1
 62
   120
370
     5
100
AcDbLine
 10
-775.8195625606256
 20
36.70600503266769
 30
0.0
 11
-737.8195625606253
 21
74.7060050326617
 31
0.0
  0
LINE
  5
E5
330
1F
100
AcDbEntity
  8
0-0
  6
JWW_DASHED1
 62
   120
370
     5
100
AcDbLine
 10
-775.8195625606256
 20
46.60549996788106
 30
0.0
 11
-737.8195625606185
 21
84.60549996788572
 31
0.0
  0
LINE
  5
E6
330
1F
100
AcDbEntity
  8
0-0
  6
JWW_DASHED1
 62
   120
370
     5
100
AcDbLine
 10
-775.8195625606256
 20
56.50499490303687
 30
0.0
 11
-737.8195625606321
 21
94.50499490303514
 31
0.0
  0
LINE
  5
E7
330
1F
100
AcDbEntity
  8
0-0
  6
JWW_DASHED1
 62
   120
370
     5
100
AcDbLine
 10
-775.8195625606256
 20
66.40448983825749
 30
0.0
 11
-737.8195625606253
 21
104.4044898382587
 31
0.0
  0
LINE
  5
E8
330
1F
100
AcDbEntity
  8
0-0
  6
JWW_DASHED1
 62
   120
370
     5
100
AcDbLine
 10
-775.8195625606256
 20
76.30398477347171
 30
0.0
 11
-737.8195625606185
 21
114.3039847734823
 31
0.0
  0
LINE
  5
E9
330
1F
100
AcDbEntity
  8
0-0
  6
JWW_DASHED1
 62
   120
370
     5
100
AcDbLine
 10
-775.8195625606256
 20
86.20347970863776
 30
0.0
 11
-737.8195625606287
 21
124.2034797086322
 31
0.0
  0
LINE
  5
EA
330
1F
100
AcDbEntity
  8
0-0
  6
JWW_DASHED1
 62
   120
370
     5
100
AcDbLine
 10
-775.8195625606256
 20
96.10297464385027
 30
0.0
 11
-737.8195625606219
 21
134.1029746438558
 31
0.0
  0
LINE
  5
EB
330
1F
100
AcDbEntity
  8
0-0
  6
JWW_DASHED1
 62
   120
370
     5
100
AcDbLine
 10
-775.8195625606256
 20
106.0024695790688
 30
0.0
 11
-737.8195625606185
 21
144.0024695790734
 31
0.0
  0
LINE
  5
EC
330
1F
100
AcDbEntity
  8
0-0
  6
JWW_DASHED1
 62
   120
370
     5
100
AcDbLine
 10
-775.8195625606256
 20
115.901964514231
 30
0.0
 11
-737.8195625606253
 21
153.9019645142288
 31
0.0
  0
LINE
  5
ED
330
1F
100
AcDbEntity
  8
0-0
  6
JWW_DASHED1
 62
   120
370
     5
100
AcDbLine
 10
-775.8195625606256
 20
125.8014594494516
 30
0.0
 11
-737.8195625606185
 21
163.8014594494524
 31
0.0
  0
LINE
  5
EE
330
1F
100
AcDbEntity
  8
0-0
  6
JWW_DASHED1
 62
   120
370
     5
100
AcDbLine
 10
-775.8195625606256
 20
135.700954384659
 30
0.0
 11
-737.8195625606287
 21
173.7009543846607
 31
0.0
  0
LINE
  5
EF
330
1F
100
AcDbEntity
  8
0-0
  6
JWW_DASHED1
 62
   120
370
     5
100
AcDbLine
 10
-775.8195625606256
 20
145.6004493198216
 30
0.0
 11
-737.8195625606253
 21
183.6004493198254
 31
0.0
  0
LINE
  5
F0
330
1F
100
AcDbEntity
  8
0-0
  6
JWW_DASHED1
 62
   120
370
     5
100
AcDbLine
 10
-775.8195625606256
 20
155.4999442550435
 30
0.0
 11
-737.8195625606321
 21
193.4999442550337
 31
0.0
  0
LINE
  5
F1
330
1F
100
AcDbEntity
  8
0-0
  6
JWW_DASHED1
 62
   120
370
     5
100
AcDbLine
 10
-775.8195625606256
 20
165.3994391902535
 30
0.0
 11
-737.8195625606253
 21
203.3994391902573
 31
0.0
  0
LINE
  5
F2
330
1F
100
AcDbEntity
  8
0-0
  6
JWW_DASHED1
 62
   120
370
     5
100
AcDbLine
 10
-775.8195625606256
 20
175.2989341254221
 30
0.0
 11
-737.8195625606219
 21
213.2989341254225
 31
0.0
  0
LINE
  5
F3
330
1F
100
AcDbEntity
  8
0-0
  6
JWW_DASHED1
 62
   120
370
     5
100
AcDbLine
 10
-775.8195625606256
 20
185.1984290606333
 30
0.0
 11
-737.8195625606321
 21
223.1984290606303
 31
0.0
  0
LINE
  5
F4
330
1F
100
AcDbEntity
  8
0-0
  6
JWW_DASHED1
 62
   120
370
     5
100
AcDbLine
 10
-775.8195625606256
 20
195.0979239958539
 30
0.0
 11
-737.8195625606219
 21
233.0979239958543
 31
0.0
  0
LINE
  5
F5
330
1F
100
AcDbEntity
  8
0-0
  6
JWW_DASHED1
 62
   120
370
     5
100
AcDbLine
 10
-775.8195625606256
 20
204.9974189310149
 30
0.0
 11
-737.8195625606185
 21
242.9974189310195
 31
0.0
  0
LINE
  5
F6
330
1F
100
AcDbEntity
  8
0-0
  6
JWW_DASHED1
 62
   120
370
     5
100
AcDbLine
 10
-775.8195625606256
 20
214.8969138662295
 30
0.0
 11
-737.8195625606287
 21
252.8969138662274
 31
0.0
  0
LINE
  5
F7
330
1F
100
AcDbEntity
  8
0-0
  6
JWW_DASHED1
 62
   120
370
     5
100
AcDbLine
 10
-775.8195625606256
 20
224.7964088014476
 30
0.0
 11
-737.8195625606185
 21
262.7964088014514
 31
0.0
  0
LINE
  5
F8
330
1F
100
AcDbEntity
  8
0-0
  6
JWW_DASHED1
 62
   120
370
     5
100
AcDbLine
 10
-775.8195625606256
 20
234.6959037366047
 30
0.0
 11
-737.8195625606185
 21
272.6959037366166
 31
0.0
  0
LINE
  5
F9
330
1F
100
AcDbEntity
  8
0-0
  6
JWW_DASHED1
 62
   120
370
     5
100
AcDbLine
 10
-775.8195625606256
 20
244.5953986718223
 30
0.0
 11
-737.8195625606253
 21
282.5953986718244
 31
0.0
  0
LINE
  5
FA
330
1F
100
AcDbEntity
  8
0-0
  6
JWW_DASHED1
 62
   120
370
     5
100
AcDbLine
 10
-775.8195625606256
 20
254.4948936070365
 30
0.0
 11
-737.8195625606185
 21
292.4948936070484
 31
0.0
  0
LINE
  5
FB
330
1F
100
AcDbEntity
  8
0-0
  6
JWW_DASHED1
 62
   120
370
     5
100
AcDbLine
 10
-775.8195625606256
 20
264.394388542206
 30
0.0
 11
-737.819562560615
 21
302.3943885422132
 31
0.0
  0
LINE
  5
FC
330
1F
100
AcDbEntity
  8
0-0
  6
JWW_DASHED1
 62
   120
370
     5
100
AcDbLine
 10
-775.8195625606256
 20
274.2938834774159
 30
0.0
 11
-737.8195625606219
 21
312.2938834774214
 31
0.0
  0
LINE
  5
FD
330
1F
100
AcDbEntity
  8
0-0
  6
JWW_DASHED1
 62
   120
370
     5
100
AcDbLine
 10
-775.8195625606256
 20
284.1933784126323
 30
0.0
 11
-737.8195625606321
 21
322.1933784126293
 31
0.0
  0
LINE
  5
FE
330
1F
100
AcDbEntity
  8
0-0
  6
JWW_DASHED1
 62
   120
370
     5
100
AcDbLine
 10
-775.8195625606256
 20
294.0928733477941
 30
0.0
 11
-737.8195625606287
 21
332.0928733477945
 31
0.0
  0
LINE
  5
FF
330
1F
100
AcDbEntity
  8
0-0
  6
JWW_DASHED1
 62
   120
370
     5
100
AcDbLine
 10
-775.8195625606256
 20
303.9923682830172
 30
0.0
 11
-737.8195625606185
 21
341.9923682830181
 31
0.0
  0
LINE
  5
100
330
1F
100
AcDbEntity
  8
0-0
  6
JWW_DASHED1
 62
   120
370
     5
100
AcDbLine
 10
-775.8195625606256
 20
313.8918632182327
 30
0.0
 11
-737.8195625606287
 21
351.8918632182263
 31
0.0
  0
LINE
  5
101
330
1F
100
AcDbEntity
  8
0-0
  6
JWW_DASHED1
 62
   120
370
     5
100
AcDbLine
 10
-775.8195625606256
 20
323.7913581533882
 30
0.0
 11
-737.8195625606253
 21
361.7913581533911
 31
0.0
  0
LINE
  5
102
330
1F
100
AcDbEntity
  8
0-0
  6
JWW_DASHED1
 62
   120
370
     5
100
AcDbLine
 10
-775.8195625606256
 20
333.690853088607
 30
0.0
 11
-737.8195625606185
 21
371.6908530886151
 31
0.0
  0
LINE
  5
103
330
1F
100
AcDbEntity
  8
0-0
  6
JWW_DASHED1
 62
   120
370
     5
100
AcDbLine
 10
-775.8195625606256
 20
343.5903480237999
 30
0.0
 11
-737.8195625606287
 21
381.5903480237935
 31
0.0
  0
LINE
  5
104
330
1F
100
AcDbEntity
  8
0-0
  6
JWW_DASHED1
 62
   120
370
     5
100
AcDbLine
 10
-775.8195625606256
 20
353.4898429589844
 30
0.0
 11
-737.8195625606253
 21
391.4898429589881
 31
0.0
  0
LINE
  5
105
330
1F
100
AcDbEntity
  8
0-0
  6
JWW_DASHED1
 62
   120
370
     5
100
AcDbLine
 10
-775.8195625606256
 20
363.3893378941998
 30
0.0
 11
-737.819562560615
 21
401.3893378942122
 31
0.0
  0
LINE
  5
106
330
1F
100
AcDbEntity
  8
0-0
  6
JWW_DASHED1
 62
   120
370
     5
100
AcDbLine
 10
-775.8195625606256
 20
373.2888328293667
 30
0.0
 11
-737.8195625606287
 21
411.2888328293611
 31
0.0
  0
LINE
  5
107
330
1F
100
AcDbEntity
  8
0-0
  6
JWW_DASHED1
 62
   120
370
     5
100
AcDbLine
 10
-775.8195625606256
 20
383.1883277645767
 30
0.0
 11
-737.8195625606219
 21
421.1883277645852
 31
0.0
  0
LINE
  5
108
330
1F
100
AcDbEntity
  8
0-0
  6
JWW_DASHED1
 62
   120
370
     5
100
AcDbLine
 10
-775.8195625606256
 20
393.0878226997952
 30
0.0
 11
-737.8195625606287
 21
431.087822699793
 31
0.0
  0
LINE
  5
109
330
1F
100
AcDbEntity
  8
0-0
  6
JWW_DASHED1
 62
   120
370
     5
100
AcDbLine
 10
-775.8195625606256
 20
402.9873176349633
 30
0.0
 11
-737.8195625606253
 21
440.9873176349582
 31
0.0
  0
LINE
  5
10A
330
1F
100
AcDbEntity
  8
0-0
  6
JWW_DASHED1
 62
   120
370
     5
100
AcDbLine
 10
-775.8195625606256
 20
412.8868125701712
 30
0.0
 11
-737.8195625606185
 21
450.8868125701818
 31
0.0
  0
LINE
  5
10B
330
1F
100
AcDbEntity
  8
0-0
  6
JWW_DASHED1
 62
   120
370
     5
100
AcDbLine
 10
-775.8195625606256
 20
422.7863075053961
 30
0.0
 11
-737.8195625606253
 21
460.78630750539
 31
0.0
  0
LINE
  5
10C
330
1F
100
AcDbEntity
  8
0-0
  6
JWW_DASHED1
 62
   120
370
     5
100
AcDbLine
 10
-775.8195625606256
 20
432.6858024405464
 30
0.0
 11
-737.8195625606253
 21
470.6858024405548
 31
0.0
  0
LINE
  5
10D
330
1F
100
AcDbEntity
  8
0-0
  6
JWW_DASHED1
 62
   120
370
     5
100
AcDbLine
 10
-775.8195625606256
 20
442.5852973757661
 30
0.0
 11
-737.8195625606321
 21
480.585297375763
 31
0.0
  0
LINE
  5
10E
330
1F
100
AcDbEntity
  8
0-0
  6
JWW_DASHED1
 62
   120
370
     5
100
AcDbLine
 10
-775.8195625606256
 20
452.4847923109854
 30
0.0
 11
-737.8195625606253
 21
490.4847923109867
 31
0.0
  0
LINE
  5
10F
330
1F
100
AcDbEntity
  8
0-0
  6
JWW_DASHED1
 62
   120
370
     5
100
AcDbLine
 10
-775.8195625606256
 20
462.3842872461472
 30
0.0
 11
-737.8195625606219
 21
500.3842872461519
 31
0.0
  0
LINE
  5
110
330
1F
100
AcDbEntity
  8
0-0
  6
JWW_DASHED1
 62
   120
370
     5
100
AcDbLine
 10
-775.8195625606256
 20
472.2837821813657
 30
0.0
 11
-737.8195625606287
 21
510.2837821813602
 31
0.0
  0
LINE
  5
111
330
1F
100
AcDbEntity
  8
0-0
  6
JWW_DASHED1
 62
   120
370
     5
100
AcDbLine
 10
-775.8195625606256
 20
482.1832771165782
 30
0.0
 11
-737.8195625606219
 21
520.1832771165837
 31
0.0
  0
LINE
  5
112
330
1F
100
AcDbEntity
  8
0-0
  6
JWW_DASHED1
 62
   120
370
     5
100
AcDbLine
 10
-775.8195625606256
 20
492.08277205174
 30
0.0
 11
-737.8195625606185
 21
530.0827720517489
 31
0.0
  0
LINE
  5
113
330
1F
100
AcDbEntity
  8
0-0
  6
JWW_DASHED1
 62
   120
370
     5
100
AcDbLine
 10
-775.8195625606256
 20
501.9822669869598
 30
0.0
 11
-737.8195625606253
 21
539.9822669869568
 31
0.0
  0
LINE
  5
114
330
1F
100
AcDbEntity
  8
0-0
  6
JWW_DASHED1
 62
   120
370
     5
100
AcDbLine
 10
-775.8195625606256
 20
511.8817619221787
 30
0.0
 11
-737.8195625606185
 21
549.8817619221808
 31
0.0
  0
LINE
  5
115
330
1F
100
AcDbEntity
  8
0-0
  6
JWW_DASHED1
 62
   120
370
     5
100
AcDbLine
 10
-775.8195625606256
 20
521.7812568573302
 30
0.0
 11
-737.8195625606185
 21
559.7812568573455
 31
0.0
  0
LINE
  5
116
330
1F
100
AcDbEntity
  8
0-0
  6
JWW_DASHED1
 62
   120
370
     5
100
AcDbLine
 10
-775.8195625606256
 20
531.6807517925499
 30
0.0
 11
-737.8195625606253
 21
569.6807517925538
 31
0.0
  0
LINE
  5
117
330
1F
100
AcDbEntity
  8
0-0
  6
JWW_DASHED1
 62
   120
370
     5
100
AcDbLine
 10
-775.8195625606256
 20
541.5802467277689
 30
0.0
 11
-737.8195625606185
 21
579.5802467277779
 31
0.0
  0
LINE
  5
118
330
1F
100
AcDbEntity
  8
0-0
  6
JWW_DASHED1
 62
   120
370
     5
100
AcDbLine
 10
-775.8195625606256
 20
551.4797416629281
 30
0.0
 11
-737.819562560615
 21
589.4797416629405
 31
0.0
  0
LINE
  5
119
330
1F
100
AcDbEntity
  8
0-0
  6
JWW_DASHED1
 62
   120
370
     5
100
AcDbLine
 10
-775.8195625606256
 20
561.3792365981496
 30
0.0
 11
-737.8195625606219
 21
599.3792365981508
 31
0.0
  0
LINE
  5
11A
330
1F
100
AcDbEntity
  8
0-0
  6
JWW_DASHED1
 62
   120
370
     5
100
AcDbLine
 10
-775.8195625606256
 20
571.2787315333617
 30
0.0
 11
-737.8195625606321
 21
609.2787315333587
 31
0.0
  0
LINE
  5
11B
330
1F
100
AcDbEntity
  8
0-0
  6
JWW_DASHED1
 62
   120
370
     5
100
AcDbLine
 10
-775.8195625606256
 20
581.178226468529
 30
0.0
 11
-737.8195625606253
 21
619.1782264685239
 31
0.0
  0
LINE
  5
11C
330
1F
100
AcDbEntity
  8
0-0
  6
JWW_DASHED1
 62
   120
370
     5
100
AcDbLine
 10
-775.8195625606256
 20
591.0777214037437
 30
0.0
 11
-737.8195625606185
 21
629.0777214037474
 31
0.0
  0
LINE
  5
11D
330
1F
100
AcDbEntity
  8
0-0
  6
JWW_DASHED1
 62
   120
370
     5
100
AcDbLine
 10
-775.8195625606256
 20
600.9772163389553
 30
0.0
 11
-737.8195625606287
 21
638.9772163389557
 31
0.0
  0
LINE
  5
11E
330
1F
100
AcDbEntity
  8
0-0
  6
JWW_DASHED1
 62
   120
370
     5
100
AcDbLine
 10
-775.8195625606256
 20
610.8767112741192
 30
0.0
 11
-737.8195625606253
 21
648.87671127412
 31
0.0
  0
LINE
  5
11F
330
1F
100
AcDbEntity
  8
0-0
  6
JWW_DASHED1
 62
   120
370
     5
100
AcDbLine
 10
-775.8195625606256
 20
620.7762062093334
 30
0.0
 11
-737.8195625606185
 21
658.7762062093445
 31
0.0
  0
LINE
  5
120
330
1F
100
AcDbEntity
  8
0-0
  6
JWW_DASHED1
 62
   120
370
     5
100
AcDbLine
 10
-775.8195625606256
 20
630.6757011445507
 30
0.0
 11
-737.8195625606253
 21
668.6757011445527
 31
0.0
  0
LINE
  5
121
330
1F
100
AcDbEntity
  8
0-0
  6
JWW_DASHED1
 62
   120
370
     5
100
AcDbLine
 10
-775.8195625606256
 20
640.5751960797129
 30
0.0
 11
-737.8195625606219
 21
678.5751960797176
 31
0.0
  0
LINE
  5
122
330
1F
100
AcDbEntity
  8
0-0
  6
JWW_DASHED1
 62
   120
370
     5
100
AcDbLine
 10
-775.8195625606256
 20
650.4746910149339
 30
0.0
 11
-737.819562560615
 21
688.4746910149411
 31
0.0
  0
LINE
  5
123
330
1F
100
AcDbEntity
  8
0-0
  6
JWW_DASHED1
 62
   120
370
     5
100
AcDbLine
 10
-775.8195625606256
 20
660.3741859501408
 30
0.0
 11
-737.8195625606253
 21
698.3741859501494
 31
0.0
  0
LINE
  5
124
330
1F
100
AcDbEntity
  8
0-0
  6
JWW_DASHED1
 62
   120
370
     5
100
AcDbLine
 10
-775.8195625606256
 20
670.2736808853128
 30
0.0
 11
-737.8195625606185
 21
708.2736808853145
 31
0.0
  0
LINE
  5
125
330
1F
100
AcDbEntity
  8
0-0
  6
JWW_DASHED1
 62
   120
370
     5
100
AcDbLine
 10
-775.8195625606256
 20
680.1731758205289
 30
0.0
 11
-737.8195625606287
 21
718.1731758205219
 31
0.0
  0
LINE
  5
126
330
1F
100
AcDbEntity
  8
0-0
  6
JWW_DASHED1
 62
   120
370
     5
100
AcDbLine
 10
-775.8195625606256
 20
690.0726707557455
 30
0.0
 11
-737.8195625606185
 21
728.0726707557465
 31
0.0
  0
LINE
  5
127
330
1F
100
AcDbEntity
  8
0-0
  6
JWW_DASHED1
 62
   120
370
     5
100
AcDbLine
 10
-775.8195625606256
 20
699.9721656909031
 30
0.0
 11
-737.8195625606185
 21
737.9721656909112
 31
0.0
  0
LINE
  5
128
330
1F
100
AcDbEntity
  8
0-0
  6
JWW_DASHED1
 62
   120
370
     5
100
AcDbLine
 10
-775.8195625606256
 20
709.8716606261224
 30
0.0
 11
-737.8195625606253
 21
747.8716606261195
 31
0.0
  0
LINE
  5
129
330
1F
100
AcDbEntity
  8
0-0
  6
JWW_DASHED1
 62
   120
370
     5
100
AcDbLine
 10
-775.8195625606256
 20
719.771155561335
 30
0.0
 11
-737.8195625606185
 21
757.771155561343
 31
0.0
  0
LINE
  5
12A
330
1F
100
AcDbEntity
  8
0-0
  6
JWW_DASHED1
 62
   120
370
     5
100
AcDbLine
 10
-775.8195625606256
 20
729.670650496495
 30
0.0
 11
-737.8195625606321
 21
767.6706504964925
 31
0.0
  0
LINE
  5
12B
330
1F
100
AcDbEntity
  8
0-0
  6
JWW_DASHED1
 62
   120
370
     5
100
AcDbLine
 10
-775.8195625606256
 20
739.5701454317114
 30
0.0
 11
-737.8195625606253
 21
777.5701454317165
 31
0.0
  0
LINE
  5
12C
330
1F
100
AcDbEntity
  8
0-0
  6
JWW_DASHED1
 62
   120
370
     5
100
AcDbLine
 10
-775.8195625606256
 20
749.4696403669286
 30
0.0
 11
-737.819562560615
 21
787.4696403669401
 31
0.0
  0
LINE
  5
12D
330
1F
100
AcDbEntity
  8
0-0
  6
JWW_DASHED1
 62
   120
370
     5
100
AcDbLine
 10
-775.8195625606256
 20
759.3691353020955
 30
0.0
 11
-737.8195625606287
 21
797.369135302089
 31
0.0
  0
LINE
  5
12E
330
1F
100
AcDbEntity
  8
0-0
  6
JWW_DASHED1
 62
   120
370
     5
100
AcDbLine
 10
-775.8195625606256
 20
769.2686302373058
 30
0.0
 11
-737.8195625606219
 21
807.2686302373131
 31
0.0
  0
LINE
  5
12F
330
1F
100
AcDbEntity
  8
0-0
  6
JWW_DASHED1
 62
   120
370
     5
100
AcDbLine
 10
-775.8195625606256
 20
779.1681251725282
 30
0.0
 11
-737.8195625606116
 21
817.1681251725367
 31
0.0
  0
LINE
  5
130
330
1F
100
AcDbEntity
  8
0-0
  6
JWW_DASHED1
 62
   120
370
     5
100
AcDbLine
 10
-775.8195625606256
 20
789.0676201076922
 30
0.0
 11
-737.8195625606253
 21
827.0676201076861
 31
0.0
  0
LINE
  5
131
330
1F
100
AcDbEntity
  8
0-0
  6
JWW_DASHED1
 62
   120
370
     5
100
AcDbLine
 10
-775.8195625606256
 20
798.9671150428995
 30
0.0
 11
-737.8195625606185
 21
836.9671150429101
 31
0.0
  0
LINE
  5
132
330
1F
100
AcDbEntity
  8
0-0
  6
JWW_DASHED1
 62
   120
370
     5
100
AcDbLine
 10
-775.8195625606256
 20
808.8666099781235
 30
0.0
 11
-737.8195625606253
 21
846.866609978118
 31
0.0
  0
LINE
  5
133
330
1F
100
AcDbEntity
  8
0-0
  6
JWW_DASHED1
 62
   120
370
     5
100
AcDbLine
 10
-775.8195625606256
 20
828.6655998485038
 30
0.0
 11
-737.8195625606253
 21
866.6655998484928
 31
0.0
  0
LINE
  5
134
330
1F
100
AcDbEntity
  8
0-0
  6
JWW_DASHED1
 62
   120
370
     5
100
AcDbLine
 10
-775.8195625606256
 20
818.7661049132853
 30
0.0
 11
-737.8195625606253
 21
856.7661049132789
 31
0.0
  0
LINE
  5
135
330
1F
100
AcDbEntity
  8
0-0
  6
JWW_DASHED1
 62
   120
370
     5
100
AcDbLine
 10
-775.8195625606256
 20
-1012.640458098257
 30
0.0
 11
-737.8195625606287
 21
-974.6404580982567
 31
0.0
  0
LINE
  5
136
330
1F
100
AcDbEntity
  8
0-0
  6
JWW_DASHED1
 62
   120
370
     5
100
AcDbLine
 10
-775.8195625606256
 20
-1022.539953033421
 30
0.0
 11
-737.8195625606287
 21
-984.5399530334215
 31
0.0
  0
LINE
  5
137
330
1F
100
AcDbEntity
  8
0-0
  6
JWW_DASHED1
 62
   120
370
     5
100
AcDbLine
 10
-775.8195625606256
 20
-1032.439447968586
 30
0.0
 11
-737.8195625606287
 21
-994.4394479685863
 31
0.0
  0
LINE
  5
138
330
1F
100
AcDbEntity
  8
0-0
  6
JWW_DASHED1
 62
   120
370
     5
100
AcDbLine
 10
-773.0188819813804
 20
-1039.538262324505
 30
0.0
 11
-737.8195625606287
 21
-1004.338942903751
 31
0.0
  0
LINE
  5
139
330
1F
100
AcDbEntity
  8
0-0
  6
JWW_DASHED1
 62
   120
370
     5
100
AcDbLine
 10
-743.3203971758883
 20
-1039.538262324505
 30
0.0
 11
-737.8195625606287
 21
-1034.037427709245
 31
0.0
  0
LINE
  5
13A
330
1F
100
AcDbEntity
  8
0-0
  6
JWW_DASHED1
 62
   120
370
     5
100
AcDbLine
 10
-763.1193870462162
 20
-1039.538262324505
 30
0.0
 11
-737.8195625606287
 21
-1014.238437838916
 31
0.0
  0
LINE
  5
13B
330
1F
100
AcDbEntity
  8
0-0
  6
JWW_DASHED1
 62
   120
370
     5
100
AcDbLine
 10
-753.2198921110518
 20
-1039.538262324505
 30
0.0
 11
-737.8195625606287
 21
-1024.137932774081
 31
0.0
  0
LINE
  5
13C
330
1F
100
AcDbEntity
  8
0-0
  6
JWW_DASHED1
 62
   120
370
     5
100
AcDbLine
 10
-775.8195625606256
 20
838.5650947837223
 30
0.0
 11
-737.8195625606253
 21
876.5650947837112
 31
0.0
  0
LINE
  5
13D
330
1F
100
AcDbEntity
  8
0-0
  6
JWW_DASHED1
 62
   120
370
     5
100
AcDbLine
 10
-775.8195625606256
 20
848.4645897189408
 30
0.0
 11
-737.8195625606253
 21
886.4645897189297
 31
0.0
  0
LINE
  5
13E
330
1F
100
AcDbEntity
  8
0-0
  6
JWW_DASHED1
 62
   120
370
     5
100
AcDbLine
 10
-775.8195625606256
 20
858.3640846541593
 30
0.0
 11
-737.8195625606253
 21
896.3640846541482
 31
0.0
  0
LINE
  5
13F
330
1F
100
AcDbEntity
  8
0-0
  6
JWW_DASHED1
 62
   120
370
     5
100
AcDbLine
 10
-775.8195625606256
 20
868.2635795893773
 30
0.0
 11
-737.8195625606253
 21
906.2635795893666
 31
0.0
  0
LINE
  5
140
330
1F
100
AcDbEntity
  8
0-0
  6
JWW_DASHED1
 62
   120
370
     5
100
AcDbLine
 10
-775.8195625606256
 20
878.1630745245963
 30
0.0
 11
-737.8195625606253
 21
916.1630745245851
 31
0.0
  0
LINE
  5
141
330
1F
100
AcDbEntity
  8
0-0
  6
Continuous
 62
    92
370
    13
100
AcDbLine
 10
-775.8195625606256
 20
1135.461737675496
 30
0.0
 11
-775.8195625606256
 21
-1047.538262324505
 31
0.0
  0
LINE
  5
142
330
1F
100
AcDbEntity
  8
0-0
  6
Continuous
 62
    92
370
    13
100
AcDbLine
 10
-737.8195625606253
 20
1135.461737675496
 30
0.0
 11
-737.8195625606253
 21
-1047.538262324505
 31
0.0
  0
LINE
  5
143
330
1F
100
AcDbEntity
  8
0-0
  6
Continuous
 62
     7
370
     9
100
AcDbLine
 10
-775.8195625606256
 20
1127.461737675498
 30
0.0
 11
-737.8195625606253
 21
1127.461737675498
 31
0.0
  0
LINE
  5
144
330
1F
100
AcDbEntity
  8
0-0
  6
JWW_DASHED1
 62
   120
370
     5
100
AcDbLine
 10
-775.8195625606256
 20
888.0625694598148
 30
0.0
 11
-737.8195625606253
 21
926.0625694598036
 31
0.0
  0
LINE
  5
145
330
1F
100
AcDbEntity
  8
0-0
  6
JWW_DASHED1
 62
   120
370
     5
100
AcDbLine
 10
-775.8195625606256
 20
917.7610542654702
 30
0.0
 11
-737.8195625606253
 21
955.761054265459
 31
0.0
  0
LINE
  5
146
330
1F
100
AcDbEntity
  8
0-0
  6
JWW_DASHED1
 62
   120
370
     5
100
AcDbLine
 10
-775.8195625606256
 20
897.9620643950332
 30
0.0
 11
-737.8195625606253
 21
935.9620643950221
 31
0.0
  0
LINE
  5
147
330
1F
100
AcDbEntity
  8
0-0
  6
JWW_DASHED1
 62
   120
370
     5
100
AcDbLine
 10
-775.8195625606256
 20
907.8615593302517
 30
0.0
 11
-737.8195625606253
 21
945.8615593302407
 31
0.0
  0
LINE
  5
148
330
1F
100
AcDbEntity
  8
0-0
  6
JWW_DASHED1
 62
   120
370
     5
100
AcDbLine
 10
-775.8195625606256
 20
937.5600441359072
 30
0.0
 11
-737.8195625606253
 21
975.5600441358961
 31
0.0
  0
LINE
  5
149
330
1F
100
AcDbEntity
  8
0-0
  6
JWW_DASHED1
 62
   120
370
     5
100
AcDbLine
 10
-775.8195625606256
 20
927.6605492006887
 30
0.0
 11
-737.8195625606253
 21
965.6605492006776
 31
0.0
  0
LINE
  5
14A
330
1F
100
AcDbEntity
  8
0-0
  6
JWW_DASHED1
 62
   120
370
     5
100
AcDbLine
 10
-775.8195625606256
 20
957.3590340063441
 30
0.0
 11
-737.8195625606253
 21
995.359034006333
 31
0.0
  0
LINE
  5
14B
330
1F
100
AcDbEntity
  8
0-0
  6
JWW_DASHED1
 62
   120
370
     5
100
AcDbLine
 10
-775.8195625606256
 20
947.4595390711256
 30
0.0
 11
-737.8195625606253
 21
985.4595390711145
 31
0.0
  0
LINE
  5
14C
330
1F
100
AcDbEntity
  8
0-0
  6
JWW_DASHED1
 62
   120
370
     5
100
AcDbLine
 10
-775.8195625606256
 20
977.158023876781
 30
0.0
 11
-737.8195625606253
 21
1015.15802387677
 31
0.0
  0
LINE
  5
14D
330
1F
100
AcDbEntity
  8
0-0
  6
JWW_DASHED1
 62
   120
370
     5
100
AcDbLine
 10
-775.8195625606256
 20
967.2585289415626
 30
0.0
 11
-737.8195625606253
 21
1005.258528941552
 31
0.0
  0
LINE
  5
14E
330
1F
100
AcDbEntity
  8
0-0
  6
JWW_DASHED1
 62
   120
370
     5
100
AcDbLine
 10
-775.8195625606256
 20
996.9570137472181
 30
0.0
 11
-737.8195625606253
 21
1034.957013747207
 31
0.0
  0
LINE
  5
14F
330
1F
100
AcDbEntity
  8
0-0
  6
JWW_DASHED1
 62
   120
370
     5
100
AcDbLine
 10
-775.8195625606256
 20
987.0575188119996
 30
0.0
 11
-737.8195625606253
 21
1025.057518811988
 31
0.0
  0
LINE
  5
150
330
1F
100
AcDbEntity
  8
0-0
  6
JWW_DASHED1
 62
   120
370
     5
100
AcDbLine
 10
-775.8195625606256
 20
1016.756003617655
 30
0.0
 11
-737.8195625606253
 21
1054.756003617644
 31
0.0
  0
LINE
  5
151
330
1F
100
AcDbEntity
  8
0-0
  6
JWW_DASHED1
 62
   120
370
     5
100
AcDbLine
 10
-775.8195625606256
 20
1006.856508682437
 30
0.0
 11
-737.8195625606253
 21
1044.856508682426
 31
0.0
  0
LINE
  5
152
330
1F
100
AcDbEntity
  8
0-0
  6
JWW_DASHED1
 62
   120
370
     5
100
AcDbLine
 10
-775.8195625606256
 20
1036.554993488092
 30
0.0
 11
-737.8195625606253
 21
1074.554993488081
 31
0.0
  0
LINE
  5
153
330
1F
100
AcDbEntity
  8
0-0
  6
JWW_DASHED1
 62
   120
370
     5
100
AcDbLine
 10
-775.8195625606256
 20
1026.655498552873
 30
0.0
 11
-737.8195625606253
 21
1064.655498552862
 31
0.0
  0
LINE
  5
154
330
1F
100
AcDbEntity
  8
0-0
  6
JWW_DASHED1
 62
   120
370
     5
100
AcDbLine
 10
-775.8195625606256
 20
1056.353983358529
 30
0.0
 11
-737.8195625606253
 21
1094.353983358518
 31
0.0
  0
LINE
  5
155
330
1F
100
AcDbEntity
  8
0-0
  6
JWW_DASHED1
 62
   120
370
     5
100
AcDbLine
 10
-775.8195625606256
 20
1046.454488423311
 30
0.0
 11
-737.8195625606253
 21
1084.454488423299
 31
0.0
  0
LINE
  5
156
330
1F
100
AcDbEntity
  8
0-0
  6
JWW_DASHED1
 62
   120
370
     5
100
AcDbLine
 10
-775.8195625606256
 20
1076.152973228966
 30
0.0
 11
-737.8195625606253
 21
1114.152973228955
 31
0.0
  0
LINE
  5
157
330
1F
100
AcDbEntity
  8
0-0
  6
JWW_DASHED1
 62
   120
370
     5
100
AcDbLine
 10
-775.8195625606256
 20
1066.253478293747
 30
0.0
 11
-737.8195625606253
 21
1104.253478293736
 31
0.0
  0
LINE
  5
158
330
1F
100
AcDbEntity
  8
0-0
  6
JWW_DASHED1
 62
   120
370
     5
100
AcDbLine
 10
-775.8195625606256
 20
1086.052468164184
 30
0.0
 11
-737.8195625606253
 21
1124.052468164173
 31
0.0
  0
LINE
  5
159
330
1F
100
AcDbEntity
  8
0-0
  6
JWW_DASHED1
 62
   120
370
     5
100
AcDbLine
 10
-775.8195625606256
 20
1115.75095296984
 30
0.0
 11
-764.1087778549647
 21
1127.461737675498
 31
0.0
  0
LINE
  5
15A
330
1F
100
AcDbEntity
  8
0-0
  6
JWW_DASHED1
 62
   120
370
     5
100
AcDbLine
 10
-775.8195625606256
 20
1095.951963099403
 30
0.0
 11
-744.3097879845218
 21
1127.461737675498
 31
0.0
  0
LINE
  5
15B
330
1F
100
AcDbEntity
  8
0-0
  6
JWW_DASHED1
 62
   120
370
     5
100
AcDbLine
 10
-775.8195625606256
 20
1105.851458034621
 30
0.0
 11
-754.2092829197431
 21
1127.461737675498
 31
0.0
  0
LINE
  5
15C
330
1F
100
AcDbEntity
  8
0-0
  6
Continuous
 62
     7
370
     9
100
AcDbLine
 10
4.180437439374316
 20
-1039.538262324505
 30
0.0
 11
42.18043743937471
 21
-1039.538262324505
 31
0.0
  0
LINE
  5
15D
330
1F
100
AcDbEntity
  8
0-0
  6
JWW_DASHED1
 62
   120
370
     5
100
AcDbLine
 10
4.180437439374316
 20
-1002.740963163092
 30
0.0
 11
42.1804374393713
 21
-964.7409631630919
 31
0.0
  0
LINE
  5
15E
330
1F
100
AcDbEntity
  8
0-0
  6
JWW_DASHED1
 62
   120
370
     5
100
AcDbLine
 10
4.180437439374316
 20
-992.8414682279301
 30
0.0
 11
42.18043743937471
 21
-954.8414682279272
 31
0.0
  0
LINE
  5
15F
330
1F
100
AcDbEntity
  8
0-0
  6
JWW_DASHED1
 62
   120
370
     5
100
AcDbLine
 10
4.180437439374316
 20
-982.9419732927116
 30
0.0
 11
42.18043743938154
 21
-944.941973292703
 31
0.0
  0
LINE
  5
160
330
1F
100
AcDbEntity
  8
0-0
  6
JWW_DASHED1
 62
   120
370
     5
100
AcDbLine
 10
4.180437439374316
 20
-973.0424783574994
 30
0.0
 11
42.18043743937471
 21
-935.0424783574949
 31
0.0
  0
LINE
  5
161
330
1F
100
AcDbEntity
  8
0-0
  6
JWW_DASHED1
 62
   120
370
     5
100
AcDbLine
 10
4.180437439374316
 20
-963.1429834223308
 30
0.0
 11
42.18043743937812
 21
-925.14298342233
 31
0.0
  0
LINE
  5
162
330
1F
100
AcDbEntity
  8
0-0
  6
JWW_DASHED1
 62
   120
370
     5
100
AcDbLine
 10
4.180437439374316
 20
-953.2434884871166
 30
0.0
 11
42.18043743936789
 21
-915.2434884871219
 31
0.0
  0
LINE
  5
163
330
1F
100
AcDbEntity
  8
0-0
  6
JWW_DASHED1
 62
   120
370
     5
100
AcDbLine
 10
4.180437439374316
 20
-943.3439935518983
 30
0.0
 11
42.18043743937812
 21
-905.343993551898
 31
0.0
  0
LINE
  5
164
330
1F
100
AcDbEntity
  8
0-0
  6
JWW_DASHED1
 62
   120
370
     5
100
AcDbLine
 10
4.180437439374316
 20
-933.4444986167371
 30
0.0
 11
42.18043743938154
 21
-895.4444986167331
 31
0.0
  0
LINE
  5
165
330
1F
100
AcDbEntity
  8
0-0
  6
JWW_DASHED1
 62
   120
370
     5
100
AcDbLine
 10
4.180437439374316
 20
-923.5450036815233
 30
0.0
 11
42.1804374393713
 21
-885.545003681525
 31
0.0
  0
LINE
  5
166
330
1F
100
AcDbEntity
  8
0-0
  6
JWW_DASHED1
 62
   120
370
     5
100
AcDbLine
 10
4.180437439374316
 20
-913.6455087463057
 30
0.0
 11
42.18043743938154
 21
-875.645508746301
 31
0.0
  0
LINE
  5
167
330
1F
100
AcDbEntity
  8
0-0
  6
JWW_DASHED1
 62
   120
370
     5
100
AcDbLine
 10
4.180437439374316
 20
-903.7460138111433
 30
0.0
 11
42.18043743936789
 21
-865.746013811152
 31
0.0
  0
LINE
  5
168
330
1F
100
AcDbEntity
  8
0-0
  6
JWW_DASHED1
 62
   120
370
     5
100
AcDbLine
 10
4.180437439374316
 20
-893.8465188759296
 30
0.0
 11
42.18043743937471
 21
-855.8465188759284
 31
0.0
  0
LINE
  5
169
330
1F
100
AcDbEntity
  8
0-0
  6
JWW_DASHED1
 62
   120
370
     5
100
AcDbLine
 10
4.180437439374316
 20
-883.9470239407157
 30
0.0
 11
42.18043743938154
 21
-845.9470239407044
 31
0.0
  0
LINE
  5
16A
330
1F
100
AcDbEntity
  8
0-0
  6
JWW_DASHED1
 62
   120
370
     5
100
AcDbLine
 10
4.180437439374316
 20
-874.0475290055524
 30
0.0
 11
42.18043743936789
 21
-836.047529005555
 31
0.0
  0
LINE
  5
16B
330
1F
100
AcDbEntity
  8
0-0
  6
JWW_DASHED1
 62
   120
370
     5
100
AcDbLine
 10
4.180437439374316
 20
-864.1480340703399
 30
0.0
 11
42.18043743937471
 21
-826.1480340703312
 31
0.0
  0
LINE
  5
16C
330
1F
100
AcDbEntity
  8
0-0
  6
JWW_DASHED1
 62
   120
370
     5
100
AcDbLine
 10
4.180437439374316
 20
-854.248539135167
 30
0.0
 11
42.18043743938154
 21
-816.2485391351665
 31
0.0
  0
LINE
  5
16D
330
1F
100
AcDbEntity
  8
0-0
  6
JWW_DASHED1
 62
   120
370
     5
100
AcDbLine
 10
4.180437439374316
 20
-844.3490441999519
 30
0.0
 11
42.1804374393713
 21
-806.3490441999581
 31
0.0
  0
LINE
  5
16E
330
1F
100
AcDbEntity
  8
0-0
  6
JWW_DASHED1
 62
   120
370
     5
100
AcDbLine
 10
4.180437439374316
 20
-834.4495492647396
 30
0.0
 11
42.18043743937812
 21
-796.4495492647345
 31
0.0
  0
LINE
  5
16F
330
1F
100
AcDbEntity
  8
0-0
  6
JWW_DASHED1
 62
   120
370
     5
100
AcDbLine
 10
4.180437439374316
 20
-824.5500543295778
 30
0.0
 11
42.18043743938154
 21
-786.5500543295693
 31
0.0
  0
LINE
  5
170
330
1F
100
AcDbEntity
  8
0-0
  6
JWW_DASHED1
 62
   120
370
     5
100
AcDbLine
 10
4.180437439374316
 20
-814.6505593943579
 30
0.0
 11
42.18043743937471
 21
-776.6505593943615
 31
0.0
  0
LINE
  5
171
330
1F
100
AcDbEntity
  8
0-0
  6
JWW_DASHED1
 62
   120
370
     5
100
AcDbLine
 10
4.180437439374316
 20
-804.7510644591464
 30
0.0
 11
42.18043743938154
 21
-766.7510644591375
 31
0.0
  0
LINE
  5
172
330
1F
100
AcDbEntity
  8
0-0
  6
JWW_DASHED1
 62
   120
370
     5
100
AcDbLine
 10
4.180437439374316
 20
-794.8515695239831
 30
0.0
 11
42.18043743936789
 21
-756.8515695239882
 31
0.0
  0
LINE
  5
173
330
1F
100
AcDbEntity
  8
0-0
  6
JWW_DASHED1
 62
   120
370
     5
100
AcDbLine
 10
4.180437439374316
 20
-784.9520745887689
 30
0.0
 11
42.18043743937471
 21
-746.9520745887645
 31
0.0
  0
LINE
  5
174
330
1F
100
AcDbEntity
  8
0-0
  6
JWW_DASHED1
 62
   120
370
     5
100
AcDbLine
 10
4.180437439374316
 20
-775.0525796535536
 30
0.0
 11
42.18043743936789
 21
-737.0525796535564
 31
0.0
  0
LINE
  5
175
330
1F
100
AcDbEntity
  8
0-0
  6
JWW_DASHED1
 62
   120
370
     5
100
AcDbLine
 10
4.180437439374316
 20
-765.1530847183897
 30
0.0
 11
42.1804374393713
 21
-727.1530847183915
 31
0.0
  0
LINE
  5
176
330
1F
100
AcDbEntity
  8
0-0
  6
JWW_DASHED1
 62
   120
370
     5
100
AcDbLine
 10
4.180437439374316
 20
-755.253589783175
 30
0.0
 11
42.18043743937812
 21
-717.2535897831676
 31
0.0
  0
LINE
  5
177
330
1F
100
AcDbEntity
  8
0-0
  6
JWW_DASHED1
 62
   120
370
     5
100
AcDbLine
 10
4.180437439374316
 20
-745.3540948479581
 30
0.0
 11
42.1804374393713
 21
-707.3540948479593
 31
0.0
  0
LINE
  5
178
330
1F
100
AcDbEntity
  8
0-0
  6
JWW_DASHED1
 62
   120
370
     5
100
AcDbLine
 10
4.180437439374316
 20
-735.4545999127886
 30
0.0
 11
42.18043743937471
 21
-697.4545999127946
 31
0.0
  0
LINE
  5
179
330
1F
100
AcDbEntity
  8
0-0
  6
JWW_DASHED1
 62
   120
370
     5
100
AcDbLine
 10
4.180437439374316
 20
-725.5551049775819
 30
0.0
 11
42.18043743938154
 21
-687.5551049775706
 31
0.0
  0
LINE
  5
17A
330
1F
100
AcDbEntity
  8
0-0
  6
JWW_DASHED1
 62
   120
370
     5
100
AcDbLine
 10
4.180437439374316
 20
-715.6556100423572
 30
0.0
 11
42.18043743937471
 21
-677.6556100423626
 31
0.0
  0
LINE
  5
17B
330
1F
100
AcDbEntity
  8
0-0
  6
JWW_DASHED1
 62
   120
370
     5
100
AcDbLine
 10
4.180437439374316
 20
-705.7561151071992
 30
0.0
 11
42.18043743937471
 21
-667.7561151071975
 31
0.0
  0
LINE
  5
17C
330
1F
100
AcDbEntity
  8
0-0
  6
JWW_DASHED1
 62
   120
370
     5
100
AcDbLine
 10
4.180437439374316
 20
-695.856620171985
 30
0.0
 11
42.18043743938154
 21
-657.8566201719738
 31
0.0
  0
LINE
  5
17D
330
1F
100
AcDbEntity
  8
0-0
  6
JWW_DASHED1
 62
   120
370
     5
100
AcDbLine
 10
4.180437439374316
 20
-685.9571252367672
 30
0.0
 11
42.18043743937471
 21
-647.9571252367655
 31
0.0
  0
LINE
  5
17E
330
1F
100
AcDbEntity
  8
0-0
  6
JWW_DASHED1
 62
   120
370
     5
100
AcDbLine
 10
4.180437439374316
 20
-676.0576303016059
 30
0.0
 11
42.18043743937812
 21
-638.0576303016007
 31
0.0
  0
LINE
  5
17F
330
1F
100
AcDbEntity
  8
0-0
  6
JWW_DASHED1
 62
   120
370
     5
100
AcDbLine
 10
4.180437439374316
 20
-666.1581353663864
 30
0.0
 11
42.1804374393713
 21
-628.1581353663927
 31
0.0
  0
LINE
  5
180
330
1F
100
AcDbEntity
  8
0-0
  6
JWW_DASHED1
 62
   120
370
     5
100
AcDbLine
 10
4.180437439374316
 20
-656.2586404311737
 30
0.0
 11
42.18043743937812
 21
-618.2586404311687
 31
0.0
  0
LINE
  5
181
330
1F
100
AcDbEntity
  8
0-0
  6
JWW_DASHED1
 62
   120
370
     5
100
AcDbLine
 10
4.180437439374316
 20
-646.3591454960122
 30
0.0
 11
42.18043743938154
 21
-608.3591454960036
 31
0.0
  0
LINE
  5
182
330
1F
100
AcDbEntity
  8
0-0
  6
JWW_DASHED1
 62
   120
370
     5
100
AcDbLine
 10
4.180437439374316
 20
-636.4596505607929
 30
0.0
 11
42.18043743937471
 21
-598.4596505607956
 31
0.0
  0
LINE
  5
183
330
1F
100
AcDbEntity
  8
0-0
  6
JWW_DASHED1
 62
   120
370
     5
100
AcDbLine
 10
4.180437439374316
 20
-626.5601556255729
 30
0.0
 11
42.18043743938154
 21
-588.5601556255721
 31
0.0
  0
LINE
  5
184
330
1F
100
AcDbEntity
  8
0-0
  6
JWW_DASHED1
 62
   120
370
     5
100
AcDbLine
 10
4.180437439374316
 20
-616.6606606904203
 30
0.0
 11
42.18043743936789
 21
-578.6606606904227
 31
0.0
  0
LINE
  5
185
330
1F
100
AcDbEntity
  8
0-0
  6
JWW_DASHED1
 62
   120
370
     5
100
AcDbLine
 10
4.180437439374316
 20
-606.7611657552033
 30
0.0
 11
42.18043743937471
 21
-568.7611657551988
 31
0.0
  0
LINE
  5
186
330
1F
100
AcDbEntity
  8
0-0
  6
JWW_DASHED1
 62
   120
370
     5
100
AcDbLine
 10
4.180437439374316
 20
-596.8616708199835
 30
0.0
 11
42.18043743938154
 21
-558.8616708199745
 31
0.0
  0
LINE
  5
187
330
1F
100
AcDbEntity
  8
0-0
  6
JWW_DASHED1
 62
   120
370
     5
100
AcDbLine
 10
4.180437439374316
 20
-586.9621758848232
 30
0.0
 11
42.18043743936789
 21
-548.9621758848256
 31
0.0
  0
LINE
  5
188
330
1F
100
AcDbEntity
  8
0-0
  6
JWW_DASHED1
 62
   120
370
     5
100
AcDbLine
 10
4.180437439374316
 20
-577.0626809496036
 30
0.0
 11
42.18043743937812
 21
-539.0626809496016
 31
0.0
  0
LINE
  5
189
330
1F
100
AcDbEntity
  8
0-0
  6
JWW_DASHED1
 62
   120
370
     5
100
AcDbLine
 10
4.180437439374316
 20
-567.163186014389
 30
0.0
 11
42.18043743936789
 21
-529.1631860143937
 31
0.0
  0
LINE
  5
18A
330
1F
100
AcDbEntity
  8
0-0
  6
JWW_DASHED1
 62
   120
370
     5
100
AcDbLine
 10
4.180437439374316
 20
-557.2636910792233
 30
0.0
 11
42.18043743937471
 21
-519.2636910792285
 31
0.0
  0
LINE
  5
18B
330
1F
100
AcDbEntity
  8
0-0
  6
JWW_DASHED1
 62
   120
370
     5
100
AcDbLine
 10
4.180437439374316
 20
-547.3641961440092
 30
0.0
 11
42.18043743938154
 21
-509.3641961440053
 31
0.0
  0
LINE
  5
18C
330
1F
100
AcDbEntity
  8
0-0
  6
JWW_DASHED1
 62
   120
370
     5
100
AcDbLine
 10
4.180437439374316
 20
-537.464701208795
 30
0.0
 11
42.1804374393713
 21
-499.4647012087971
 31
0.0
  0
LINE
  5
18D
330
1F
100
AcDbEntity
  8
0-0
  6
JWW_DASHED1
 62
   120
370
     5
100
AcDbLine
 10
4.180437439374316
 20
-527.5652062736332
 30
0.0
 11
42.18043743937471
 21
-489.5652062736319
 31
0.0
  0
LINE
  5
18E
330
1F
100
AcDbEntity
  8
0-0
  6
JWW_DASHED1
 62
   120
370
     5
100
AcDbLine
 10
4.180437439374316
 20
-517.6657113384138
 30
0.0
 11
42.18043743936789
 21
-479.6657113384236
 31
0.0
  0
LINE
  5
18F
330
1F
100
AcDbEntity
  8
0-0
  6
JWW_DASHED1
 62
   120
370
     5
100
AcDbLine
 10
4.180437439374316
 20
-507.7662164032013
 30
0.0
 11
42.18043743937471
 21
-469.7662164032
 31
0.0
  0
LINE
  5
190
330
1F
100
AcDbEntity
  8
0-0
  6
JWW_DASHED1
 62
   120
370
     5
100
AcDbLine
 10
4.180437439374316
 20
-497.8667214680391
 30
0.0
 11
42.18043743937812
 21
-459.8667214680353
 31
0.0
  0
LINE
  5
191
330
1F
100
AcDbEntity
  8
0-0
  6
JWW_DASHED1
 62
   120
370
     5
100
AcDbLine
 10
4.180437439374316
 20
-487.9672265328257
 30
0.0
 11
42.18043743936789
 21
-449.9672265328266
 31
0.0
  0
LINE
  5
192
330
1F
100
AcDbEntity
  8
0-0
  6
JWW_DASHED1
 62
   120
370
     5
100
AcDbLine
 10
4.180437439374316
 20
-478.0677315976051
 30
0.0
 11
42.18043743937471
 21
-440.067731597603
 31
0.0
  0
LINE
  5
193
330
1F
100
AcDbEntity
  8
0-0
  6
JWW_DASHED1
 62
   120
370
     5
100
AcDbLine
 10
4.180437439374316
 20
-468.1682366624391
 30
0.0
 11
42.18043743938154
 21
-430.1682366624382
 31
0.0
  0
LINE
  5
194
330
1F
100
AcDbEntity
  8
0-0
  6
JWW_DASHED1
 62
   120
370
     5
100
AcDbLine
 10
4.180437439374316
 20
-458.268741727224
 30
0.0
 11
42.1804374393713
 21
-420.2687417272304
 31
0.0
  0
LINE
  5
195
330
1F
100
AcDbEntity
  8
0-0
  6
JWW_DASHED1
 62
   120
370
     5
100
AcDbLine
 10
4.180437439374316
 20
-448.369246792011
 30
0.0
 11
42.18043743937812
 21
-410.3692467920064
 31
0.0
  0
LINE
  5
196
330
1F
100
AcDbEntity
  8
0-0
  6
JWW_DASHED1
 62
   120
370
     5
100
AcDbLine
 10
4.180437439374316
 20
-438.4697518568501
 30
0.0
 11
42.18043743938154
 21
-400.4697518568412
 31
0.0
  0
LINE
  5
197
330
1F
100
AcDbEntity
  8
0-0
  6
JWW_DASHED1
 62
   120
370
     5
100
AcDbLine
 10
4.180437439374316
 20
-428.5702569216303
 30
0.0
 11
42.18043743937471
 21
-390.5702569216334
 31
0.0
  0
LINE
  5
198
330
1F
100
AcDbEntity
  8
0-0
  6
JWW_DASHED1
 62
   120
370
     5
100
AcDbLine
 10
4.180437439374316
 20
-418.6707619864183
 30
0.0
 11
42.18043743938154
 21
-380.6707619864093
 31
0.0
  0
LINE
  5
199
330
1F
100
AcDbEntity
  8
0-0
  6
JWW_DASHED1
 62
   120
370
     5
100
AcDbLine
 10
4.180437439374316
 20
-408.7712670512505
 30
0.0
 11
42.18043743937471
 21
-370.7712670512548
 31
0.0
  0
LINE
  5
19A
330
1F
100
AcDbEntity
  8
0-0
  6
JWW_DASHED1
 62
   120
370
     5
100
AcDbLine
 10
4.180437439374316
 20
-398.8717721160401
 30
0.0
 11
42.18043743937471
 21
-360.8717721160363
 31
0.0
  0
LINE
  5
19B
330
1F
100
AcDbEntity
  8
0-0
  6
JWW_DASHED1
 62
   120
370
     5
100
AcDbLine
 10
4.180437439374316
 20
-388.9722771808263
 30
0.0
 11
42.18043743936789
 21
-350.9722771808281
 31
0.0
  0
LINE
  5
19C
330
1F
100
AcDbEntity
  8
0-0
  6
JWW_DASHED1
 62
   120
370
     5
100
AcDbLine
 10
4.180437439374316
 20
-379.072782245662
 30
0.0
 11
42.1804374393713
 21
-341.0727822456633
 31
0.0
  0
LINE
  5
19D
330
1F
100
AcDbEntity
  8
0-0
  6
JWW_DASHED1
 62
   120
370
     5
100
AcDbLine
 10
4.180437439374316
 20
-369.1732873104397
 30
0.0
 11
42.18043743937812
 21
-331.1732873104393
 31
0.0
  0
LINE
  5
19E
330
1F
100
AcDbEntity
  8
0-0
  6
JWW_DASHED1
 62
   120
370
     5
100
AcDbLine
 10
4.180437439374316
 20
-359.273792375225
 30
0.0
 11
42.1804374393713
 21
-321.2737923752314
 31
0.0
  0
LINE
  5
19F
330
1F
100
AcDbEntity
  8
0-0
  6
JWW_DASHED1
 62
   120
370
     5
100
AcDbLine
 10
4.180437439374316
 20
-349.3742974400611
 30
0.0
 11
42.18043743937471
 21
-311.3742974400662
 31
0.0
  0
LINE
  5
1A0
330
1F
100
AcDbEntity
  8
0-0
  6
JWW_DASHED1
 62
   120
370
     5
100
AcDbLine
 10
4.180437439374316
 20
-339.4748025048528
 30
0.0
 11
42.18043743938154
 21
-301.4748025048422
 31
0.0
  0
LINE
  5
1A1
330
1F
100
AcDbEntity
  8
0-0
  6
JWW_DASHED1
 62
   120
370
     5
100
AcDbLine
 10
4.180437439374316
 20
-329.5753075696292
 30
0.0
 11
42.18043743937471
 21
-291.5753075696344
 31
0.0
  0
LINE
  5
1A2
330
1F
100
AcDbEntity
  8
0-0
  6
JWW_DASHED1
 62
   120
370
     5
100
AcDbLine
 10
4.180437439374316
 20
-319.6758126344713
 30
0.0
 11
42.18043743937471
 21
-281.6758126344692
 31
0.0
  0
LINE
  5
1A3
330
1F
100
AcDbEntity
  8
0-0
  6
JWW_DASHED1
 62
   120
370
     5
100
AcDbLine
 10
4.180437439374316
 20
-309.7763176992579
 30
0.0
 11
42.18043743938154
 21
-271.7763176992452
 31
0.0
  0
LINE
  5
1A4
330
1F
100
AcDbEntity
  8
0-0
  6
JWW_DASHED1
 62
   120
370
     5
100
AcDbLine
 10
4.180437439374316
 20
-299.8768227640394
 30
0.0
 11
42.18043743937471
 21
-261.8768227640373
 31
0.0
  0
LINE
  5
1A5
330
1F
100
AcDbEntity
  8
0-0
  6
JWW_DASHED1
 62
   120
370
     5
100
AcDbLine
 10
4.180437439374316
 20
-289.9773278288777
 30
0.0
 11
42.18043743937812
 21
-251.9773278288721
 31
0.0
  0
LINE
  5
1A6
330
1F
100
AcDbEntity
  8
0-0
  6
JWW_DASHED1
 62
   120
370
     5
100
AcDbLine
 10
4.180437439374316
 20
-280.0778328936579
 30
0.0
 11
42.1804374393713
 21
-242.0778328936643
 31
0.0
  0
LINE
  5
1A7
330
1F
100
AcDbEntity
  8
0-0
  6
JWW_DASHED1
 62
   120
370
     5
100
AcDbLine
 10
4.180437439374316
 20
-270.1783379584739
 30
0.0
 11
42.18043743937471
 21
-232.1783379584701
 31
0.0
  0
LINE
  5
1A8
330
1F
100
AcDbEntity
  8
0-0
  6
JWW_DASHED1
 62
   120
370
     5
100
AcDbLine
 10
4.180437439374316
 20
-260.2788430232764
 30
0.0
 11
42.18043743938154
 21
-222.2788430232755
 31
0.0
  0
LINE
  5
1A9
330
1F
100
AcDbEntity
  8
0-0
  6
JWW_DASHED1
 62
   120
370
     5
100
AcDbLine
 10
4.180437439374316
 20
-250.3793480880634
 30
0.0
 11
42.18043743937471
 21
-212.3793480880677
 31
0.0
  0
LINE
  5
1AA
330
1F
100
AcDbEntity
  8
0-0
  6
JWW_DASHED1
 62
   120
370
     5
100
AcDbLine
 10
4.180437439374316
 20
-240.4798531528735
 30
0.0
 11
42.18043743937812
 21
-202.4798531528731
 31
0.0
  0
LINE
  5
1AB
330
1F
100
AcDbEntity
  8
0-0
  6
JWW_DASHED1
 62
   120
370
     5
100
AcDbLine
 10
4.180437439374316
 20
-230.5803582176912
 30
0.0
 11
42.18043743936789
 21
-192.5803582176943
 31
0.0
  0
LINE
  5
1AC
330
1F
100
AcDbEntity
  8
0-0
  6
JWW_DASHED1
 62
   120
370
     5
100
AcDbLine
 10
4.180437439374316
 20
-220.6808632824762
 30
0.0
 11
42.18043743937471
 21
-182.6808632824702
 31
0.0
  0
LINE
  5
1AD
330
1F
100
AcDbEntity
  8
0-0
  6
JWW_DASHED1
 62
   120
370
     5
100
AcDbLine
 10
4.180437439374316
 20
-210.7813683473063
 30
0.0
 11
42.18043743937812
 21
-172.7813683473059
 31
0.0
  0
LINE
  5
1AE
330
1F
100
AcDbEntity
  8
0-0
  6
JWW_DASHED1
 62
   120
370
     5
100
AcDbLine
 10
4.180437439374316
 20
-200.8818734120963
 30
0.0
 11
42.18043743936789
 21
-162.8818734120972
 31
0.0
  0
LINE
  5
1AF
330
1F
100
AcDbEntity
  8
0-0
  6
JWW_DASHED1
 62
   120
370
     5
100
AcDbLine
 10
4.180437439374316
 20
-190.9823784768744
 30
0.0
 11
42.18043743937812
 21
-152.982378476874
 31
0.0
  0
LINE
  5
1B0
330
1F
100
AcDbEntity
  8
0-0
  6
JWW_DASHED1
 62
   120
370
     5
100
AcDbLine
 10
4.180437439374316
 20
-181.0828835417126
 30
0.0
 11
42.18043743938154
 21
-143.0828835417088
 31
0.0
  0
LINE
  5
1B1
330
1F
100
AcDbEntity
  8
0-0
  6
JWW_DASHED1
 62
   120
370
     5
100
AcDbLine
 10
4.180437439374316
 20
-171.183388606498
 30
0.0
 11
42.1804374393713
 21
-133.183388606501
 31
0.0
  0
LINE
  5
1B2
330
1F
100
AcDbEntity
  8
0-0
  6
JWW_DASHED1
 62
   120
370
     5
100
AcDbLine
 10
4.180437439374316
 20
-161.2838936712808
 30
0.0
 11
42.18043743938154
 21
-123.283893671277
 31
0.0
  0
LINE
  5
1B3
330
1F
100
AcDbEntity
  8
0-0
  6
JWW_DASHED1
 62
   120
370
     5
100
AcDbLine
 10
4.180437439374316
 20
-151.3843987361224
 30
0.0
 11
42.18043743938154
 21
-113.3843987361118
 31
0.0
  0
LINE
  5
1B4
330
1F
100
AcDbEntity
  8
0-0
  6
JWW_DASHED1
 62
   120
370
     5
100
AcDbLine
 10
4.180437439374316
 20
-141.4849038009044
 30
0.0
 11
42.18043743937471
 21
-103.484903800904
 31
0.0
  0
LINE
  5
1B5
330
1F
100
AcDbEntity
  8
0-0
  6
JWW_DASHED1
 62
   120
370
     5
100
AcDbLine
 10
4.180437439374316
 20
-131.5854088656906
 30
0.0
 11
42.18043743938154
 21
-93.58540886567994
 31
0.0
  0
LINE
  5
1B6
330
1F
100
AcDbEntity
  8
0-0
  6
JWW_DASHED1
 62
   120
370
     5
100
AcDbLine
 10
4.180437439374316
 20
-121.6859139305237
 30
0.0
 11
42.18043743937812
 21
-83.68591393052327
 31
0.0
  0
LINE
  5
1B7
330
1F
100
AcDbEntity
  8
0-0
  6
JWW_DASHED1
 62
   120
370
     5
100
AcDbLine
 10
4.180437439374316
 20
-111.7864189953124
 30
0.0
 11
42.18043743937812
 21
-73.78641899530692
 31
0.0
  0
LINE
  5
1B8
330
1F
100
AcDbEntity
  8
0-0
  6
JWW_DASHED1
 62
   120
370
     5
100
AcDbLine
 10
4.180437439374316
 20
-101.8869240600961
 30
0.0
 11
42.18043743936789
 21
-63.88692406009909
 31
0.0
  0
LINE
  5
1B9
330
1F
100
AcDbEntity
  8
0-0
  6
JWW_DASHED1
 62
   120
370
     5
100
AcDbLine
 10
4.180437439374316
 20
-91.98742912492747
 30
0.0
 11
42.1804374393713
 21
-53.9874291249339
 31
0.0
  0
LINE
  5
1BA
330
1F
100
AcDbEntity
  8
0-0
  6
JWW_DASHED1
 62
   120
370
     5
100
AcDbLine
 10
4.180437439374316
 20
-82.08793418971155
 30
0.0
 11
42.18043743938154
 21
-44.08793418970987
 31
0.0
  0
LINE
  5
1BB
330
1F
100
AcDbEntity
  8
0-0
  6
JWW_DASHED1
 62
   120
370
     5
100
AcDbLine
 10
4.180437439374316
 20
-72.18843925449562
 30
0.0
 11
42.1804374393713
 21
-34.18843925450204
 31
0.0
  0
LINE
  5
1BC
330
1F
100
AcDbEntity
  8
0-0
  6
JWW_DASHED1
 62
   120
370
     5
100
AcDbLine
 10
4.180437439374316
 20
-62.28894431934194
 30
0.0
 11
42.18043743937471
 21
-24.28894431933685
 31
0.0
  0
LINE
  5
1BD
330
1F
100
AcDbEntity
  8
0-0
  6
JWW_DASHED1
 62
   120
370
     5
100
AcDbLine
 10
4.180437439374316
 20
-52.38944938412132
 30
0.0
 11
42.18043743938154
 21
-14.38944938411325
 31
0.0
  0
LINE
  5
1BE
330
1F
100
AcDbEntity
  8
0-0
  6
JWW_DASHED1
 62
   120
370
     5
100
AcDbLine
 10
4.180437439374316
 20
-42.48995444890198
 30
0.0
 11
42.18043743937471
 21
-4.489954448904996
 31
0.0
  0
LINE
  5
1BF
330
1F
100
AcDbEntity
  8
0-0
  6
JWW_DASHED1
 62
   120
370
     5
100
AcDbLine
 10
4.180437439374316
 20
-32.59045951374404
 30
0.0
 11
42.18043743937471
 21
5.409540486259772
 31
0.0
  0
LINE
  5
1C0
330
1F
100
AcDbEntity
  8
0-0
  6
JWW_DASHED1
 62
   120
370
     5
100
AcDbLine
 10
4.180437439374316
 20
-22.69096457852768
 30
0.0
 11
42.18043743938495
 21
15.3090354214838
 31
0.0
  0
LINE
  5
1C1
330
1F
100
AcDbEntity
  8
0-0
  6
JWW_DASHED1
 62
   120
370
     5
100
AcDbLine
 10
4.180437439374316
 20
-12.79146964331176
 30
0.0
 11
42.18043743937471
 21
25.20853035669205
 31
0.0
  0
LINE
  5
1C2
330
1F
100
AcDbEntity
  8
0-0
  6
JWW_DASHED1
 62
   120
370
     5
100
AcDbLine
 10
4.180437439374316
 20
-2.8919747081504
 30
0.0
 11
42.18043743937812
 21
35.10802529185682
 31
0.0
  0
LINE
  5
1C3
330
1F
100
AcDbEntity
  8
0-0
  6
JWW_DASHED1
 62
   120
370
     5
100
AcDbLine
 10
4.180437439374316
 20
7.007520227066379
 30
0.0
 11
42.1804374393713
 21
45.00752022706507
 31
0.0
  0
LINE
  5
1C4
330
1F
100
AcDbEntity
  8
0-0
  6
JWW_DASHED1
 62
   120
370
     5
100
AcDbLine
 10
4.180437439374316
 20
16.90701516228827
 30
0.0
 11
42.18043743937812
 21
54.90701516228867
 31
0.0
  0
LINE
  5
1C5
330
1F
100
AcDbEntity
  8
0-0
  6
JWW_DASHED1
 62
   120
370
     5
100
AcDbLine
 10
4.180437439374316
 20
26.80651009744196
 30
0.0
 11
42.18043743938154
 21
64.80651009745387
 31
0.0
  0
LINE
  5
1C6
330
1F
100
AcDbEntity
  8
0-0
  6
JWW_DASHED1
 62
   120
370
     5
100
AcDbLine
 10
4.180437439374316
 20
36.70600503266769
 30
0.0
 11
42.18043743937471
 21
74.7060050326617
 31
0.0
  0
LINE
  5
1C7
330
1F
100
AcDbEntity
  8
0-0
  6
JWW_DASHED1
 62
   120
370
     5
100
AcDbLine
 10
4.180437439374316
 20
46.60549996788106
 30
0.0
 11
42.18043743938154
 21
84.60549996788572
 31
0.0
  0
LINE
  5
1C8
330
1F
100
AcDbEntity
  8
0-0
  6
JWW_DASHED1
 62
   120
370
     5
100
AcDbLine
 10
4.180437439374316
 20
56.50499490303687
 30
0.0
 11
42.18043743936789
 21
94.50499490303514
 31
0.0
  0
LINE
  5
1C9
330
1F
100
AcDbEntity
  8
0-0
  6
JWW_DASHED1
 62
   120
370
     5
100
AcDbLine
 10
4.180437439374316
 20
66.40448983825749
 30
0.0
 11
42.18043743937471
 21
104.4044898382587
 31
0.0
  0
LINE
  5
1CA
330
1F
100
AcDbEntity
  8
0-0
  6
JWW_DASHED1
 62
   120
370
     5
100
AcDbLine
 10
4.180437439374316
 20
76.30398477347171
 30
0.0
 11
42.18043743938154
 21
114.3039847734823
 31
0.0
  0
LINE
  5
1CB
330
1F
100
AcDbEntity
  8
0-0
  6
JWW_DASHED1
 62
   120
370
     5
100
AcDbLine
 10
4.180437439374316
 20
86.20347970863776
 30
0.0
 11
42.1804374393713
 21
124.2034797086322
 31
0.0
  0
LINE
  5
1CC
330
1F
100
AcDbEntity
  8
0-0
  6
JWW_DASHED1
 62
   120
370
     5
100
AcDbLine
 10
4.180437439374316
 20
96.10297464385027
 30
0.0
 11
42.18043743937812
 21
134.1029746438558
 31
0.0
  0
LINE
  5
1CD
330
1F
100
AcDbEntity
  8
0-0
  6
JWW_DASHED1
 62
   120
370
     5
100
AcDbLine
 10
4.180437439374316
 20
106.0024695790688
 30
0.0
 11
42.18043743938154
 21
144.0024695790734
 31
0.0
  0
LINE
  5
1CE
330
1F
100
AcDbEntity
  8
0-0
  6
JWW_DASHED1
 62
   120
370
     5
100
AcDbLine
 10
4.180437439374316
 20
115.901964514231
 30
0.0
 11
42.18043743937471
 21
153.9019645142288
 31
0.0
  0
LINE
  5
1CF
330
1F
100
AcDbEntity
  8
0-0
  6
JWW_DASHED1
 62
   120
370
     5
100
AcDbLine
 10
4.180437439374316
 20
125.8014594494516
 30
0.0
 11
42.18043743938154
 21
163.8014594494524
 31
0.0
  0
LINE
  5
1D0
330
1F
100
AcDbEntity
  8
0-0
  6
JWW_DASHED1
 62
   120
370
     5
100
AcDbLine
 10
4.180437439374316
 20
135.700954384659
 30
0.0
 11
42.1804374393713
 21
173.7009543846607
 31
0.0
  0
LINE
  5
1D1
330
1F
100
AcDbEntity
  8
0-0
  6
JWW_DASHED1
 62
   120
370
     5
100
AcDbLine
 10
4.180437439374316
 20
145.6004493198216
 30
0.0
 11
42.18043743937471
 21
183.6004493198254
 31
0.0
  0
LINE
  5
1D2
330
1F
100
AcDbEntity
  8
0-0
  6
JWW_DASHED1
 62
   120
370
     5
100
AcDbLine
 10
4.180437439374316
 20
155.4999442550435
 30
0.0
 11
42.18043743936789
 21
193.4999442550337
 31
0.0
  0
LINE
  5
1D3
330
1F
100
AcDbEntity
  8
0-0
  6
JWW_DASHED1
 62
   120
370
     5
100
AcDbLine
 10
4.180437439374316
 20
165.3994391902535
 30
0.0
 11
42.18043743937471
 21
203.3994391902573
 31
0.0
  0
LINE
  5
1D4
330
1F
100
AcDbEntity
  8
0-0
  6
JWW_DASHED1
 62
   120
370
     5
100
AcDbLine
 10
4.180437439374316
 20
175.2989341254221
 30
0.0
 11
42.18043743937812
 21
213.2989341254225
 31
0.0
  0
LINE
  5
1D5
330
1F
100
AcDbEntity
  8
0-0
  6
JWW_DASHED1
 62
   120
370
     5
100
AcDbLine
 10
4.180437439374316
 20
185.1984290606333
 30
0.0
 11
42.18043743936789
 21
223.1984290606303
 31
0.0
  0
LINE
  5
1D6
330
1F
100
AcDbEntity
  8
0-0
  6
JWW_DASHED1
 62
   120
370
     5
100
AcDbLine
 10
4.180437439374316
 20
195.0979239958539
 30
0.0
 11
42.18043743937812
 21
233.0979239958543
 31
0.0
  0
LINE
  5
1D7
330
1F
100
AcDbEntity
  8
0-0
  6
JWW_DASHED1
 62
   120
370
     5
100
AcDbLine
 10
4.180437439374316
 20
204.9974189310149
 30
0.0
 11
42.18043743938154
 21
242.9974189310195
 31
0.0
  0
LINE
  5
1D8
330
1F
100
AcDbEntity
  8
0-0
  6
JWW_DASHED1
 62
   120
370
     5
100
AcDbLine
 10
4.180437439374316
 20
214.8969138662295
 30
0.0
 11
42.1804374393713
 21
252.8969138662274
 31
0.0
  0
LINE
  5
1D9
330
1F
100
AcDbEntity
  8
0-0
  6
JWW_DASHED1
 62
   120
370
     5
100
AcDbLine
 10
4.180437439374316
 20
224.7964088014476
 30
0.0
 11
42.18043743938154
 21
262.7964088014514
 31
0.0
  0
LINE
  5
1DA
330
1F
100
AcDbEntity
  8
0-0
  6
JWW_DASHED1
 62
   120
370
     5
100
AcDbLine
 10
4.180437439374316
 20
234.6959037366047
 30
0.0
 11
42.18043743938154
 21
272.6959037366166
 31
0.0
  0
LINE
  5
1DB
330
1F
100
AcDbEntity
  8
0-0
  6
JWW_DASHED1
 62
   120
370
     5
100
AcDbLine
 10
4.180437439374316
 20
244.5953986718223
 30
0.0
 11
42.18043743937471
 21
282.5953986718244
 31
0.0
  0
LINE
  5
1DC
330
1F
100
AcDbEntity
  8
0-0
  6
JWW_DASHED1
 62
   120
370
     5
100
AcDbLine
 10
4.180437439374316
 20
254.4948936070365
 30
0.0
 11
42.18043743938154
 21
292.4948936070484
 31
0.0
  0
LINE
  5
1DD
330
1F
100
AcDbEntity
  8
0-0
  6
JWW_DASHED1
 62
   120
370
     5
100
AcDbLine
 10
4.180437439374316
 20
264.394388542206
 30
0.0
 11
42.18043743938495
 21
302.3943885422132
 31
0.0
  0
LINE
  5
1DE
330
1F
100
AcDbEntity
  8
0-0
  6
JWW_DASHED1
 62
   120
370
     5
100
AcDbLine
 10
4.180437439374316
 20
274.2938834774159
 30
0.0
 11
42.18043743937812
 21
312.2938834774214
 31
0.0
  0
LINE
  5
1DF
330
1F
100
AcDbEntity
  8
0-0
  6
JWW_DASHED1
 62
   120
370
     5
100
AcDbLine
 10
4.180437439374316
 20
284.1933784126323
 30
0.0
 11
42.18043743936789
 21
322.1933784126293
 31
0.0
  0
LINE
  5
1E0
330
1F
100
AcDbEntity
  8
0-0
  6
JWW_DASHED1
 62
   120
370
     5
100
AcDbLine
 10
4.180437439374316
 20
294.0928733477941
 30
0.0
 11
42.1804374393713
 21
332.0928733477945
 31
0.0
  0
LINE
  5
1E1
330
1F
100
AcDbEntity
  8
0-0
  6
JWW_DASHED1
 62
   120
370
     5
100
AcDbLine
 10
4.180437439374316
 20
303.9923682830172
 30
0.0
 11
42.18043743938154
 21
341.9923682830181
 31
0.0
  0
LINE
  5
1E2
330
1F
100
AcDbEntity
  8
0-0
  6
JWW_DASHED1
 62
   120
370
     5
100
AcDbLine
 10
4.180437439374316
 20
313.8918632182327
 30
0.0
 11
42.1804374393713
 21
351.8918632182263
 31
0.0
  0
LINE
  5
1E3
330
1F
100
AcDbEntity
  8
0-0
  6
JWW_DASHED1
 62
   120
370
     5
100
AcDbLine
 10
4.180437439374316
 20
323.7913581533882
 30
0.0
 11
42.18043743937471
 21
361.7913581533911
 31
0.0
  0
LINE
  5
1E4
330
1F
100
AcDbEntity
  8
0-0
  6
JWW_DASHED1
 62
   120
370
     5
100
AcDbLine
 10
4.180437439374316
 20
333.690853088607
 30
0.0
 11
42.18043743938154
 21
371.6908530886151
 31
0.0
  0
LINE
  5
1E5
330
1F
100
AcDbEntity
  8
0-0
  6
JWW_DASHED1
 62
   120
370
     5
100
AcDbLine
 10
4.180437439374316
 20
343.5903480237999
 30
0.0
 11
42.1804374393713
 21
381.5903480237935
 31
0.0
  0
LINE
  5
1E6
330
1F
100
AcDbEntity
  8
0-0
  6
JWW_DASHED1
 62
   120
370
     5
100
AcDbLine
 10
4.180437439374316
 20
353.4898429589844
 30
0.0
 11
42.18043743937471
 21
391.4898429589881
 31
0.0
  0
LINE
  5
1E7
330
1F
100
AcDbEntity
  8
0-0
  6
JWW_DASHED1
 62
   120
370
     5
100
AcDbLine
 10
4.180437439374316
 20
363.3893378941998
 30
0.0
 11
42.18043743938495
 21
401.3893378942122
 31
0.0
  0
LINE
  5
1E8
330
1F
100
AcDbEntity
  8
0-0
  6
JWW_DASHED1
 62
   120
370
     5
100
AcDbLine
 10
4.180437439374316
 20
373.2888328293667
 30
0.0
 11
42.1804374393713
 21
411.2888328293611
 31
0.0
  0
LINE
  5
1E9
330
1F
100
AcDbEntity
  8
0-0
  6
JWW_DASHED1
 62
   120
370
     5
100
AcDbLine
 10
4.180437439374316
 20
383.1883277645767
 30
0.0
 11
42.18043743937812
 21
421.1883277645852
 31
0.0
  0
LINE
  5
1EA
330
1F
100
AcDbEntity
  8
0-0
  6
JWW_DASHED1
 62
   120
370
     5
100
AcDbLine
 10
4.180437439374316
 20
393.0878226997952
 30
0.0
 11
42.1804374393713
 21
431.087822699793
 31
0.0
  0
LINE
  5
1EB
330
1F
100
AcDbEntity
  8
0-0
  6
JWW_DASHED1
 62
   120
370
     5
100
AcDbLine
 10
4.180437439374316
 20
402.9873176349633
 30
0.0
 11
42.18043743937471
 21
440.9873176349582
 31
0.0
  0
LINE
  5
1EC
330
1F
100
AcDbEntity
  8
0-0
  6
JWW_DASHED1
 62
   120
370
     5
100
AcDbLine
 10
4.180437439374316
 20
412.8868125701712
 30
0.0
 11
42.18043743938154
 21
450.8868125701818
 31
0.0
  0
LINE
  5
1ED
330
1F
100
AcDbEntity
  8
0-0
  6
JWW_DASHED1
 62
   120
370
     5
100
AcDbLine
 10
4.180437439374316
 20
422.7863075053961
 30
0.0
 11
42.18043743937471
 21
460.78630750539
 31
0.0
  0
LINE
  5
1EE
330
1F
100
AcDbEntity
  8
0-0
  6
JWW_DASHED1
 62
   120
370
     5
100
AcDbLine
 10
4.180437439374316
 20
432.6858024405464
 30
0.0
 11
42.18043743937471
 21
470.6858024405548
 31
0.0
  0
LINE
  5
1EF
330
1F
100
AcDbEntity
  8
0-0
  6
JWW_DASHED1
 62
   120
370
     5
100
AcDbLine
 10
4.180437439374316
 20
442.5852973757661
 30
0.0
 11
42.18043743936789
 21
480.585297375763
 31
0.0
  0
LINE
  5
1F0
330
1F
100
AcDbEntity
  8
0-0
  6
JWW_DASHED1
 62
   120
370
     5
100
AcDbLine
 10
4.180437439374316
 20
452.4847923109854
 30
0.0
 11
42.18043743937471
 21
490.4847923109867
 31
0.0
  0
LINE
  5
1F1
330
1F
100
AcDbEntity
  8
0-0
  6
JWW_DASHED1
 62
   120
370
     5
100
AcDbLine
 10
4.180437439374316
 20
462.3842872461472
 30
0.0
 11
42.18043743937812
 21
500.3842872461519
 31
0.0
  0
LINE
  5
1F2
330
1F
100
AcDbEntity
  8
0-0
  6
JWW_DASHED1
 62
   120
370
     5
100
AcDbLine
 10
4.180437439374316
 20
472.2837821813657
 30
0.0
 11
42.1804374393713
 21
510.2837821813602
 31
0.0
  0
LINE
  5
1F3
330
1F
100
AcDbEntity
  8
0-0
  6
JWW_DASHED1
 62
   120
370
     5
100
AcDbLine
 10
4.180437439374316
 20
482.1832771165782
 30
0.0
 11
42.18043743937812
 21
520.1832771165837
 31
0.0
  0
LINE
  5
1F4
330
1F
100
AcDbEntity
  8
0-0
  6
JWW_DASHED1
 62
   120
370
     5
100
AcDbLine
 10
4.180437439374316
 20
492.08277205174
 30
0.0
 11
42.18043743938154
 21
530.0827720517489
 31
0.0
  0
LINE
  5
1F5
330
1F
100
AcDbEntity
  8
0-0
  6
JWW_DASHED1
 62
   120
370
     5
100
AcDbLine
 10
4.180437439374316
 20
501.9822669869598
 30
0.0
 11
42.18043743937471
 21
539.9822669869568
 31
0.0
  0
LINE
  5
1F6
330
1F
100
AcDbEntity
  8
0-0
  6
JWW_DASHED1
 62
   120
370
     5
100
AcDbLine
 10
4.180437439374316
 20
511.8817619221787
 30
0.0
 11
42.18043743938154
 21
549.8817619221808
 31
0.0
  0
LINE
  5
1F7
330
1F
100
AcDbEntity
  8
0-0
  6
JWW_DASHED1
 62
   120
370
     5
100
AcDbLine
 10
4.180437439374316
 20
521.7812568573302
 30
0.0
 11
42.18043743938154
 21
559.7812568573455
 31
0.0
  0
LINE
  5
1F8
330
1F
100
AcDbEntity
  8
0-0
  6
JWW_DASHED1
 62
   120
370
     5
100
AcDbLine
 10
4.180437439374316
 20
531.6807517925499
 30
0.0
 11
42.18043743937471
 21
569.6807517925538
 31
0.0
  0
LINE
  5
1F9
330
1F
100
AcDbEntity
  8
0-0
  6
JWW_DASHED1
 62
   120
370
     5
100
AcDbLine
 10
4.180437439374316
 20
541.5802467277689
 30
0.0
 11
42.18043743938154
 21
579.5802467277779
 31
0.0
  0
LINE
  5
1FA
330
1F
100
AcDbEntity
  8
0-0
  6
JWW_DASHED1
 62
   120
370
     5
100
AcDbLine
 10
4.180437439374316
 20
551.4797416629281
 30
0.0
 11
42.18043743938495
 21
589.4797416629405
 31
0.0
  0
LINE
  5
1FB
330
1F
100
AcDbEntity
  8
0-0
  6
JWW_DASHED1
 62
   120
370
     5
100
AcDbLine
 10
4.180437439374316
 20
561.3792365981496
 30
0.0
 11
42.18043743937812
 21
599.3792365981508
 31
0.0
  0
LINE
  5
1FC
330
1F
100
AcDbEntity
  8
0-0
  6
JWW_DASHED1
 62
   120
370
     5
100
AcDbLine
 10
4.180437439374316
 20
571.2787315333617
 30
0.0
 11
42.18043743936789
 21
609.2787315333587
 31
0.0
  0
LINE
  5
1FD
330
1F
100
AcDbEntity
  8
0-0
  6
JWW_DASHED1
 62
   120
370
     5
100
AcDbLine
 10
4.180437439374316
 20
581.178226468529
 30
0.0
 11
42.18043743937471
 21
619.1782264685239
 31
0.0
  0
LINE
  5
1FE
330
1F
100
AcDbEntity
  8
0-0
  6
JWW_DASHED1
 62
   120
370
     5
100
AcDbLine
 10
4.180437439374316
 20
591.0777214037437
 30
0.0
 11
42.18043743938154
 21
629.0777214037474
 31
0.0
  0
LINE
  5
1FF
330
1F
100
AcDbEntity
  8
0-0
  6
JWW_DASHED1
 62
   120
370
     5
100
AcDbLine
 10
4.180437439374316
 20
600.9772163389553
 30
0.0
 11
42.1804374393713
 21
638.9772163389557
 31
0.0
  0
LINE
  5
200
330
1F
100
AcDbEntity
  8
0-0
  6
JWW_DASHED1
 62
   120
370
     5
100
AcDbLine
 10
4.180437439374316
 20
610.8767112741192
 30
0.0
 11
42.18043743937471
 21
648.87671127412
 31
0.0
  0
LINE
  5
201
330
1F
100
AcDbEntity
  8
0-0
  6
JWW_DASHED1
 62
   120
370
     5
100
AcDbLine
 10
4.180437439374316
 20
620.7762062093334
 30
0.0
 11
42.18043743938154
 21
658.7762062093445
 31
0.0
  0
LINE
  5
202
330
1F
100
AcDbEntity
  8
0-0
  6
JWW_DASHED1
 62
   120
370
     5
100
AcDbLine
 10
4.180437439374316
 20
630.6757011445507
 30
0.0
 11
42.18043743937471
 21
668.6757011445527
 31
0.0
  0
LINE
  5
203
330
1F
100
AcDbEntity
  8
0-0
  6
JWW_DASHED1
 62
   120
370
     5
100
AcDbLine
 10
4.180437439374316
 20
640.5751960797129
 30
0.0
 11
42.18043743937812
 21
678.5751960797176
 31
0.0
  0
LINE
  5
204
330
1F
100
AcDbEntity
  8
0-0
  6
JWW_DASHED1
 62
   120
370
     5
100
AcDbLine
 10
4.180437439374316
 20
650.4746910149339
 30
0.0
 11
42.18043743938495
 21
688.4746910149411
 31
0.0
  0
LINE
  5
205
330
1F
100
AcDbEntity
  8
0-0
  6
JWW_DASHED1
 62
   120
370
     5
100
AcDbLine
 10
4.180437439374316
 20
660.3741859501408
 30
0.0
 11
42.18043743937471
 21
698.3741859501494
 31
0.0
  0
LINE
  5
206
330
1F
100
AcDbEntity
  8
0-0
  6
JWW_DASHED1
 62
   120
370
     5
100
AcDbLine
 10
4.180437439374316
 20
670.2736808853128
 30
0.0
 11
42.18043743938154
 21
708.2736808853145
 31
0.0
  0
LINE
  5
207
330
1F
100
AcDbEntity
  8
0-0
  6
JWW_DASHED1
 62
   120
370
     5
100
AcDbLine
 10
4.180437439374316
 20
680.1731758205289
 30
0.0
 11
42.1804374393713
 21
718.1731758205219
 31
0.0
  0
LINE
  5
208
330
1F
100
AcDbEntity
  8
0-0
  6
JWW_DASHED1
 62
   120
370
     5
100
AcDbLine
 10
4.180437439374316
 20
690.0726707557455
 30
0.0
 11
42.18043743938154
 21
728.0726707557465
 31
0.0
  0
LINE
  5
209
330
1F
100
AcDbEntity
  8
0-0
  6
JWW_DASHED1
 62
   120
370
     5
100
AcDbLine
 10
4.180437439374316
 20
699.9721656909031
 30
0.0
 11
42.18043743938154
 21
737.9721656909112
 31
0.0
  0
LINE
  5
20A
330
1F
100
AcDbEntity
  8
0-0
  6
JWW_DASHED1
 62
   120
370
     5
100
AcDbLine
 10
4.180437439374316
 20
709.8716606261224
 30
0.0
 11
42.18043743937471
 21
747.8716606261195
 31
0.0
  0
LINE
  5
20B
330
1F
100
AcDbEntity
  8
0-0
  6
JWW_DASHED1
 62
   120
370
     5
100
AcDbLine
 10
4.180437439374316
 20
719.771155561335
 30
0.0
 11
42.18043743938154
 21
757.771155561343
 31
0.0
  0
LINE
  5
20C
330
1F
100
AcDbEntity
  8
0-0
  6
JWW_DASHED1
 62
   120
370
     5
100
AcDbLine
 10
4.180437439374316
 20
729.670650496495
 30
0.0
 11
42.18043743936789
 21
767.6706504964925
 31
0.0
  0
LINE
  5
20D
330
1F
100
AcDbEntity
  8
0-0
  6
JWW_DASHED1
 62
   120
370
     5
100
AcDbLine
 10
4.180437439374316
 20
739.5701454317114
 30
0.0
 11
42.18043743937471
 21
777.5701454317165
 31
0.0
  0
LINE
  5
20E
330
1F
100
AcDbEntity
  8
0-0
  6
JWW_DASHED1
 62
   120
370
     5
100
AcDbLine
 10
4.180437439374316
 20
749.4696403669286
 30
0.0
 11
42.18043743938495
 21
787.4696403669401
 31
0.0
  0
LINE
  5
20F
330
1F
100
AcDbEntity
  8
0-0
  6
JWW_DASHED1
 62
   120
370
     5
100
AcDbLine
 10
4.180437439374316
 20
759.3691353020955
 30
0.0
 11
42.1804374393713
 21
797.369135302089
 31
0.0
  0
LINE
  5
210
330
1F
100
AcDbEntity
  8
0-0
  6
JWW_DASHED1
 62
   120
370
     5
100
AcDbLine
 10
4.180437439374316
 20
769.2686302373058
 30
0.0
 11
42.18043743937812
 21
807.2686302373131
 31
0.0
  0
LINE
  5
211
330
1F
100
AcDbEntity
  8
0-0
  6
JWW_DASHED1
 62
   120
370
     5
100
AcDbLine
 10
4.180437439374316
 20
779.1681251725282
 30
0.0
 11
42.18043743938836
 21
817.1681251725367
 31
0.0
  0
LINE
  5
212
330
1F
100
AcDbEntity
  8
0-0
  6
JWW_DASHED1
 62
   120
370
     5
100
AcDbLine
 10
4.180437439374316
 20
789.0676201076922
 30
0.0
 11
42.18043743937471
 21
827.0676201076861
 31
0.0
  0
LINE
  5
213
330
1F
100
AcDbEntity
  8
0-0
  6
JWW_DASHED1
 62
   120
370
     5
100
AcDbLine
 10
4.180437439374316
 20
798.9671150428995
 30
0.0
 11
42.18043743938154
 21
836.9671150429101
 31
0.0
  0
LINE
  5
214
330
1F
100
AcDbEntity
  8
0-0
  6
JWW_DASHED1
 62
   120
370
     5
100
AcDbLine
 10
4.180437439374316
 20
808.8666099781235
 30
0.0
 11
42.18043743937471
 21
846.866609978118
 31
0.0
  0
LINE
  5
215
330
1F
100
AcDbEntity
  8
0-0
  6
JWW_DASHED1
 62
   120
370
     5
100
AcDbLine
 10
4.180437439374316
 20
828.6655998485038
 30
0.0
 11
42.18043743937471
 21
866.6655998484928
 31
0.0
  0
LINE
  5
216
330
1F
100
AcDbEntity
  8
0-0
  6
JWW_DASHED1
 62
   120
370
     5
100
AcDbLine
 10
4.180437439374316
 20
818.7661049132853
 30
0.0
 11
42.18043743937471
 21
856.7661049132789
 31
0.0
  0
LINE
  5
217
330
1F
100
AcDbEntity
  8
0-0
  6
JWW_DASHED1
 62
   120
370
     5
100
AcDbLine
 10
4.180437439374316
 20
-1012.640458098257
 30
0.0
 11
42.1804374393713
 21
-974.6404580982567
 31
0.0
  0
LINE
  5
218
330
1F
100
AcDbEntity
  8
0-0
  6
JWW_DASHED1
 62
   120
370
     5
100
AcDbLine
 10
4.180437439374316
 20
-1022.539953033421
 30
0.0
 11
42.1804374393713
 21
-984.5399530334215
 31
0.0
  0
LINE
  5
219
330
1F
100
AcDbEntity
  8
0-0
  6
JWW_DASHED1
 62
   120
370
     5
100
AcDbLine
 10
4.180437439374316
 20
-1032.439447968586
 30
0.0
 11
42.1804374393713
 21
-994.4394479685863
 31
0.0
  0
LINE
  5
21A
330
1F
100
AcDbEntity
  8
0-0
  6
JWW_DASHED1
 62
   120
370
     5
100
AcDbLine
 10
6.981118018619554
 20
-1039.538262324505
 30
0.0
 11
42.1804374393713
 21
-1004.338942903751
 31
0.0
  0
LINE
  5
21B
330
1F
100
AcDbEntity
  8
0-0
  6
JWW_DASHED1
 62
   120
370
     5
100
AcDbLine
 10
36.67960282411173
 20
-1039.538262324505
 30
0.0
 11
42.1804374393713
 21
-1034.037427709245
 31
0.0
  0
LINE
  5
21C
330
1F
100
AcDbEntity
  8
0-0
  6
JWW_DASHED1
 62
   120
370
     5
100
AcDbLine
 10
16.8806129537839
 20
-1039.538262324505
 30
0.0
 11
42.1804374393713
 21
-1014.238437838916
 31
0.0
  0
LINE
  5
21D
330
1F
100
AcDbEntity
  8
0-0
  6
JWW_DASHED1
 62
   120
370
     5
100
AcDbLine
 10
26.78010788894824
 20
-1039.538262324505
 30
0.0
 11
42.1804374393713
 21
-1024.137932774081
 31
0.0
  0
LINE
  5
21E
330
1F
100
AcDbEntity
  8
0-0
  6
JWW_DASHED1
 62
   120
370
     5
100
AcDbLine
 10
4.180437439374316
 20
838.5650947837223
 30
0.0
 11
42.18043743937471
 21
876.5650947837112
 31
0.0
  0
LINE
  5
21F
330
1F
100
AcDbEntity
  8
0-0
  6
JWW_DASHED1
 62
   120
370
     5
100
AcDbLine
 10
4.180437439374316
 20
848.4645897189408
 30
0.0
 11
42.18043743937471
 21
886.4645897189297
 31
0.0
  0
LINE
  5
220
330
1F
100
AcDbEntity
  8
0-0
  6
JWW_DASHED1
 62
   120
370
     5
100
AcDbLine
 10
4.180437439374316
 20
858.3640846541593
 30
0.0
 11
42.18043743937471
 21
896.3640846541482
 31
0.0
  0
LINE
  5
221
330
1F
100
AcDbEntity
  8
0-0
  6
JWW_DASHED1
 62
   120
370
     5
100
AcDbLine
 10
4.180437439374316
 20
868.2635795893773
 30
0.0
 11
42.18043743937471
 21
906.2635795893666
 31
0.0
  0
LINE
  5
222
330
1F
100
AcDbEntity
  8
0-0
  6
JWW_DASHED1
 62
   120
370
     5
100
AcDbLine
 10
4.180437439374316
 20
878.1630745245963
 30
0.0
 11
42.18043743937471
 21
916.1630745245851
 31
0.0
  0
LINE
  5
223
330
1F
100
AcDbEntity
  8
0-0
  6
Continuous
 62
    92
370
    13
100
AcDbLine
 10
4.180437439374316
 20
1135.461737675496
 30
0.0
 11
4.180437439374316
 21
-1047.538262324505
 31
0.0
  0
LINE
  5
224
330
1F
100
AcDbEntity
  8
0-0
  6
Continuous
 62
    92
370
    13
100
AcDbLine
 10
42.18043743937471
 20
1135.461737675496
 30
0.0
 11
42.18043743937471
 21
-1047.538262324505
 31
0.0
  0
LINE
  5
225
330
1F
100
AcDbEntity
  8
0-0
  6
Continuous
 62
     7
370
     9
100
AcDbLine
 10
4.180437439374316
 20
1127.461737675498
 30
0.0
 11
42.18043743937471
 21
1127.461737675498
 31
0.0
  0
LINE
  5
226
330
1F
100
AcDbEntity
  8
0-0
  6
JWW_DASHED1
 62
   120
370
     5
100
AcDbLine
 10
4.180437439374316
 20
888.0625694598148
 30
0.0
 11
42.18043743937471
 21
926.0625694598036
 31
0.0
  0
LINE
  5
227
330
1F
100
AcDbEntity
  8
0-0
  6
JWW_DASHED1
 62
   120
370
     5
100
AcDbLine
 10
4.180437439374316
 20
917.7610542654702
 30
0.0
 11
42.18043743937471
 21
955.761054265459
 31
0.0
  0
LINE
  5
228
330
1F
100
AcDbEntity
  8
0-0
  6
JWW_DASHED1
 62
   120
370
     5
100
AcDbLine
 10
4.180437439374316
 20
897.9620643950332
 30
0.0
 11
42.18043743937471
 21
935.9620643950221
 31
0.0
  0
LINE
  5
229
330
1F
100
AcDbEntity
  8
0-0
  6
JWW_DASHED1
 62
   120
370
     5
100
AcDbLine
 10
4.180437439374316
 20
907.8615593302517
 30
0.0
 11
42.18043743937471
 21
945.8615593302407
 31
0.0
  0
LINE
  5
22A
330
1F
100
AcDbEntity
  8
0-0
  6
JWW_DASHED1
 62
   120
370
     5
100
AcDbLine
 10
4.180437439374316
 20
937.5600441359072
 30
0.0
 11
42.18043743937471
 21
975.5600441358961
 31
0.0
  0
LINE
  5
22B
330
1F
100
AcDbEntity
  8
0-0
  6
JWW_DASHED1
 62
   120
370
     5
100
AcDbLine
 10
4.180437439374316
 20
927.6605492006887
 30
0.0
 11
42.18043743937471
 21
965.6605492006776
 31
0.0
  0
LINE
  5
22C
330
1F
100
AcDbEntity
  8
0-0
  6
JWW_DASHED1
 62
   120
370
     5
100
AcDbLine
 10
4.180437439374316
 20
957.3590340063441
 30
0.0
 11
42.18043743937471
 21
995.359034006333
 31
0.0
  0
LINE
  5
22D
330
1F
100
AcDbEntity
  8
0-0
  6
JWW_DASHED1
 62
   120
370
     5
100
AcDbLine
 10
4.180437439374316
 20
947.4595390711256
 30
0.0
 11
42.18043743937471
 21
985.4595390711145
 31
0.0
  0
LINE
  5
22E
330
1F
100
AcDbEntity
  8
0-0
  6
JWW_DASHED1
 62
   120
370
     5
100
AcDbLine
 10
4.180437439374316
 20
977.158023876781
 30
0.0
 11
42.18043743937471
 21
1015.15802387677
 31
0.0
  0
LINE
  5
22F
330
1F
100
AcDbEntity
  8
0-0
  6
JWW_DASHED1
 62
   120
370
     5
100
AcDbLine
 10
4.180437439374316
 20
967.2585289415626
 30
0.0
 11
42.18043743937471
 21
1005.258528941552
 31
0.0
  0
LINE
  5
230
330
1F
100
AcDbEntity
  8
0-0
  6
JWW_DASHED1
 62
   120
370
     5
100
AcDbLine
 10
4.180437439374316
 20
996.9570137472181
 30
0.0
 11
42.18043743937471
 21
1034.957013747207
 31
0.0
  0
LINE
  5
231
330
1F
100
AcDbEntity
  8
0-0
  6
JWW_DASHED1
 62
   120
370
     5
100
AcDbLine
 10
4.180437439374316
 20
987.0575188119996
 30
0.0
 11
42.18043743937471
 21
1025.057518811988
 31
0.0
  0
LINE
  5
232
330
1F
100
AcDbEntity
  8
0-0
  6
JWW_DASHED1
 62
   120
370
     5
100
AcDbLine
 10
4.180437439374316
 20
1016.756003617655
 30
0.0
 11
42.18043743937471
 21
1054.756003617644
 31
0.0
  0
LINE
  5
233
330
1F
100
AcDbEntity
  8
0-0
  6
JWW_DASHED1
 62
   120
370
     5
100
AcDbLine
 10
4.180437439374316
 20
1006.856508682437
 30
0.0
 11
42.18043743937471
 21
1044.856508682426
 31
0.0
  0
LINE
  5
234
330
1F
100
AcDbEntity
  8
0-0
  6
JWW_DASHED1
 62
   120
370
     5
100
AcDbLine
 10
4.180437439374316
 20
1036.554993488092
 30
0.0
 11
42.18043743937471
 21
1074.554993488081
 31
0.0
  0
LINE
  5
235
330
1F
100
AcDbEntity
  8
0-0
  6
JWW_DASHED1
 62
   120
370
     5
100
AcDbLine
 10
4.180437439374316
 20
1026.655498552873
 30
0.0
 11
42.18043743937471
 21
1064.655498552862
 31
0.0
  0
LINE
  5
236
330
1F
100
AcDbEntity
  8
0-0
  6
JWW_DASHED1
 62
   120
370
     5
100
AcDbLine
 10
4.180437439374316
 20
1056.353983358529
 30
0.0
 11
42.18043743937471
 21
1094.353983358518
 31
0.0
  0
LINE
  5
237
330
1F
100
AcDbEntity
  8
0-0
  6
JWW_DASHED1
 62
   120
370
     5
100
AcDbLine
 10
4.180437439374316
 20
1046.454488423311
 30
0.0
 11
42.18043743937471
 21
1084.454488423299
 31
0.0
  0
LINE
  5
238
330
1F
100
AcDbEntity
  8
0-0
  6
JWW_DASHED1
 62
   120
370
     5
100
AcDbLine
 10
4.180437439374316
 20
1076.152973228966
 30
0.0
 11
42.18043743937471
 21
1114.152973228955
 31
0.0
  0
LINE
  5
239
330
1F
100
AcDbEntity
  8
0-0
  6
JWW_DASHED1
 62
   120
370
     5
100
AcDbLine
 10
4.180437439374316
 20
1066.253478293747
 30
0.0
 11
42.18043743937471
 21
1104.253478293736
 31
0.0
  0
LINE
  5
23A
330
1F
100
AcDbEntity
  8
0-0
  6
JWW_DASHED1
 62
   120
370
     5
100
AcDbLine
 10
4.180437439374316
 20
1086.052468164184
 30
0.0
 11
42.18043743937471
 21
1124.052468164173
 31
0.0
  0
LINE
  5
23B
330
1F
100
AcDbEntity
  8
0-0
  6
JWW_DASHED1
 62
   120
370
     5
100
AcDbLine
 10
4.180437439374316
 20
1115.75095296984
 30
0.0
 11
15.89122214503575
 21
1127.461737675498
 31
0.0
  0
LINE
  5
23C
330
1F
100
AcDbEntity
  8
0-0
  6
JWW_DASHED1
 62
   120
370
     5
100
AcDbLine
 10
4.180437439374316
 20
1095.951963099403
 30
0.0
 11
35.69021201547869
 21
1127.461737675498
 31
0.0
  0
LINE
  5
23D
330
1F
100
AcDbEntity
  8
0-0
  6
JWW_DASHED1
 62
   120
370
     5
100
AcDbLine
 10
4.180437439374316
 20
1105.851458034621
 30
0.0
 11
25.79071708025722
 21
1127.461737675498
 31
0.0
  0
LINE
  5
23E
330
1F
100
AcDbEntity
  8
0-0
  6
Continuous
 62
     7
370
     9
100
AcDbLine
 10
784.1804374393744
 20
-1039.538262324505
 30
0.0
 11
822.1804374393747
 21
-1039.538262324505
 31
0.0
  0
LINE
  5
23F
330
1F
100
AcDbEntity
  8
0-0
  6
JWW_DASHED1
 62
   120
370
     5
100
AcDbLine
 10
784.1804374393744
 20
-1002.740963163092
 30
0.0
 11
822.1804374393713
 21
-964.7409631630919
 31
0.0
  0
LINE
  5
240
330
1F
100
AcDbEntity
  8
0-0
  6
JWW_DASHED1
 62
   120
370
     5
100
AcDbLine
 10
784.1804374393744
 20
-992.8414682279301
 30
0.0
 11
822.1804374393747
 21
-954.8414682279272
 31
0.0
  0
LINE
  5
241
330
1F
100
AcDbEntity
  8
0-0
  6
JWW_DASHED1
 62
   120
370
     5
100
AcDbLine
 10
784.1804374393744
 20
-982.9419732927116
 30
0.0
 11
822.1804374393815
 21
-944.941973292703
 31
0.0
  0
LINE
  5
242
330
1F
100
AcDbEntity
  8
0-0
  6
JWW_DASHED1
 62
   120
370
     5
100
AcDbLine
 10
784.1804374393744
 20
-973.0424783574994
 30
0.0
 11
822.1804374393747
 21
-935.0424783574949
 31
0.0
  0
LINE
  5
243
330
1F
100
AcDbEntity
  8
0-0
  6
JWW_DASHED1
 62
   120
370
     5
100
AcDbLine
 10
784.1804374393744
 20
-963.1429834223308
 30
0.0
 11
822.1804374393781
 21
-925.14298342233
 31
0.0
  0
LINE
  5
244
330
1F
100
AcDbEntity
  8
0-0
  6
JWW_DASHED1
 62
   120
370
     5
100
AcDbLine
 10
784.1804374393744
 20
-953.2434884871166
 30
0.0
 11
822.1804374393679
 21
-915.2434884871219
 31
0.0
  0
LINE
  5
245
330
1F
100
AcDbEntity
  8
0-0
  6
JWW_DASHED1
 62
   120
370
     5
100
AcDbLine
 10
784.1804374393744
 20
-943.3439935518983
 30
0.0
 11
822.1804374393781
 21
-905.343993551898
 31
0.0
  0
LINE
  5
246
330
1F
100
AcDbEntity
  8
0-0
  6
JWW_DASHED1
 62
   120
370
     5
100
AcDbLine
 10
784.1804374393744
 20
-933.4444986167371
 30
0.0
 11
822.1804374393815
 21
-895.4444986167331
 31
0.0
  0
LINE
  5
247
330
1F
100
AcDbEntity
  8
0-0
  6
JWW_DASHED1
 62
   120
370
     5
100
AcDbLine
 10
784.1804374393744
 20
-923.5450036815233
 30
0.0
 11
822.1804374393713
 21
-885.545003681525
 31
0.0
  0
LINE
  5
248
330
1F
100
AcDbEntity
  8
0-0
  6
JWW_DASHED1
 62
   120
370
     5
100
AcDbLine
 10
784.1804374393744
 20
-913.6455087463057
 30
0.0
 11
822.1804374393815
 21
-875.645508746301
 31
0.0
  0
LINE
  5
249
330
1F
100
AcDbEntity
  8
0-0
  6
JWW_DASHED1
 62
   120
370
     5
100
AcDbLine
 10
784.1804374393744
 20
-903.7460138111433
 30
0.0
 11
822.1804374393679
 21
-865.746013811152
 31
0.0
  0
LINE
  5
24A
330
1F
100
AcDbEntity
  8
0-0
  6
JWW_DASHED1
 62
   120
370
     5
100
AcDbLine
 10
784.1804374393744
 20
-893.8465188759296
 30
0.0
 11
822.1804374393747
 21
-855.8465188759284
 31
0.0
  0
LINE
  5
24B
330
1F
100
AcDbEntity
  8
0-0
  6
JWW_DASHED1
 62
   120
370
     5
100
AcDbLine
 10
784.1804374393744
 20
-883.9470239407157
 30
0.0
 11
822.1804374393815
 21
-845.9470239407044
 31
0.0
  0
LINE
  5
24C
330
1F
100
AcDbEntity
  8
0-0
  6
JWW_DASHED1
 62
   120
370
     5
100
AcDbLine
 10
784.1804374393744
 20
-874.0475290055524
 30
0.0
 11
822.1804374393679
 21
-836.047529005555
 31
0.0
  0
LINE
  5
24D
330
1F
100
AcDbEntity
  8
0-0
  6
JWW_DASHED1
 62
   120
370
     5
100
AcDbLine
 10
784.1804374393744
 20
-864.1480340703399
 30
0.0
 11
822.1804374393747
 21
-826.1480340703312
 31
0.0
  0
LINE
  5
24E
330
1F
100
AcDbEntity
  8
0-0
  6
JWW_DASHED1
 62
   120
370
     5
100
AcDbLine
 10
784.1804374393744
 20
-854.248539135167
 30
0.0
 11
822.1804374393815
 21
-816.2485391351665
 31
0.0
  0
LINE
  5
24F
330
1F
100
AcDbEntity
  8
0-0
  6
JWW_DASHED1
 62
   120
370
     5
100
AcDbLine
 10
784.1804374393744
 20
-844.3490441999519
 30
0.0
 11
822.1804374393713
 21
-806.3490441999581
 31
0.0
  0
LINE
  5
250
330
1F
100
AcDbEntity
  8
0-0
  6
JWW_DASHED1
 62
   120
370
     5
100
AcDbLine
 10
784.1804374393744
 20
-834.4495492647396
 30
0.0
 11
822.1804374393781
 21
-796.4495492647345
 31
0.0
  0
LINE
  5
251
330
1F
100
AcDbEntity
  8
0-0
  6
JWW_DASHED1
 62
   120
370
     5
100
AcDbLine
 10
784.1804374393744
 20
-824.5500543295778
 30
0.0
 11
822.1804374393815
 21
-786.5500543295693
 31
0.0
  0
LINE
  5
252
330
1F
100
AcDbEntity
  8
0-0
  6
JWW_DASHED1
 62
   120
370
     5
100
AcDbLine
 10
784.1804374393744
 20
-814.6505593943579
 30
0.0
 11
822.1804374393747
 21
-776.6505593943615
 31
0.0
  0
LINE
  5
253
330
1F
100
AcDbEntity
  8
0-0
  6
JWW_DASHED1
 62
   120
370
     5
100
AcDbLine
 10
784.1804374393744
 20
-804.7510644591464
 30
0.0
 11
822.1804374393815
 21
-766.7510644591375
 31
0.0
  0
LINE
  5
254
330
1F
100
AcDbEntity
  8
0-0
  6
JWW_DASHED1
 62
   120
370
     5
100
AcDbLine
 10
784.1804374393744
 20
-794.8515695239831
 30
0.0
 11
822.1804374393679
 21
-756.8515695239882
 31
0.0
  0
LINE
  5
255
330
1F
100
AcDbEntity
  8
0-0
  6
JWW_DASHED1
 62
   120
370
     5
100
AcDbLine
 10
784.1804374393744
 20
-784.9520745887689
 30
0.0
 11
822.1804374393747
 21
-746.9520745887645
 31
0.0
  0
LINE
  5
256
330
1F
100
AcDbEntity
  8
0-0
  6
JWW_DASHED1
 62
   120
370
     5
100
AcDbLine
 10
784.1804374393744
 20
-775.0525796535536
 30
0.0
 11
822.1804374393679
 21
-737.0525796535564
 31
0.0
  0
LINE
  5
257
330
1F
100
AcDbEntity
  8
0-0
  6
JWW_DASHED1
 62
   120
370
     5
100
AcDbLine
 10
784.1804374393744
 20
-765.1530847183897
 30
0.0
 11
822.1804374393713
 21
-727.1530847183915
 31
0.0
  0
LINE
  5
258
330
1F
100
AcDbEntity
  8
0-0
  6
JWW_DASHED1
 62
   120
370
     5
100
AcDbLine
 10
784.1804374393744
 20
-755.253589783175
 30
0.0
 11
822.1804374393781
 21
-717.2535897831676
 31
0.0
  0
LINE
  5
259
330
1F
100
AcDbEntity
  8
0-0
  6
JWW_DASHED1
 62
   120
370
     5
100
AcDbLine
 10
784.1804374393744
 20
-745.3540948479581
 30
0.0
 11
822.1804374393713
 21
-707.3540948479593
 31
0.0
  0
LINE
  5
25A
330
1F
100
AcDbEntity
  8
0-0
  6
JWW_DASHED1
 62
   120
370
     5
100
AcDbLine
 10
784.1804374393744
 20
-735.4545999127886
 30
0.0
 11
822.1804374393747
 21
-697.4545999127946
 31
0.0
  0
LINE
  5
25B
330
1F
100
AcDbEntity
  8
0-0
  6
JWW_DASHED1
 62
   120
370
     5
100
AcDbLine
 10
784.1804374393744
 20
-725.5551049775819
 30
0.0
 11
822.1804374393815
 21
-687.5551049775706
 31
0.0
  0
LINE
  5
25C
330
1F
100
AcDbEntity
  8
0-0
  6
JWW_DASHED1
 62
   120
370
     5
100
AcDbLine
 10
784.1804374393744
 20
-715.6556100423572
 30
0.0
 11
822.1804374393747
 21
-677.6556100423626
 31
0.0
  0
LINE
  5
25D
330
1F
100
AcDbEntity
  8
0-0
  6
JWW_DASHED1
 62
   120
370
     5
100
AcDbLine
 10
784.1804374393744
 20
-705.7561151071992
 30
0.0
 11
822.1804374393747
 21
-667.7561151071975
 31
0.0
  0
LINE
  5
25E
330
1F
100
AcDbEntity
  8
0-0
  6
JWW_DASHED1
 62
   120
370
     5
100
AcDbLine
 10
784.1804374393744
 20
-695.856620171985
 30
0.0
 11
822.1804374393815
 21
-657.8566201719738
 31
0.0
  0
LINE
  5
25F
330
1F
100
AcDbEntity
  8
0-0
  6
JWW_DASHED1
 62
   120
370
     5
100
AcDbLine
 10
784.1804374393744
 20
-685.9571252367672
 30
0.0
 11
822.1804374393747
 21
-647.9571252367655
 31
0.0
  0
LINE
  5
260
330
1F
100
AcDbEntity
  8
0-0
  6
JWW_DASHED1
 62
   120
370
     5
100
AcDbLine
 10
784.1804374393744
 20
-676.0576303016059
 30
0.0
 11
822.1804374393781
 21
-638.0576303016007
 31
0.0
  0
LINE
  5
261
330
1F
100
AcDbEntity
  8
0-0
  6
JWW_DASHED1
 62
   120
370
     5
100
AcDbLine
 10
784.1804374393744
 20
-666.1581353663864
 30
0.0
 11
822.1804374393713
 21
-628.1581353663927
 31
0.0
  0
LINE
  5
262
330
1F
100
AcDbEntity
  8
0-0
  6
JWW_DASHED1
 62
   120
370
     5
100
AcDbLine
 10
784.1804374393744
 20
-656.2586404311737
 30
0.0
 11
822.1804374393781
 21
-618.2586404311687
 31
0.0
  0
LINE
  5
263
330
1F
100
AcDbEntity
  8
0-0
  6
JWW_DASHED1
 62
   120
370
     5
100
AcDbLine
 10
784.1804374393744
 20
-646.3591454960122
 30
0.0
 11
822.1804374393815
 21
-608.3591454960036
 31
0.0
  0
LINE
  5
264
330
1F
100
AcDbEntity
  8
0-0
  6
JWW_DASHED1
 62
   120
370
     5
100
AcDbLine
 10
784.1804374393744
 20
-636.4596505607929
 30
0.0
 11
822.1804374393747
 21
-598.4596505607956
 31
0.0
  0
LINE
  5
265
330
1F
100
AcDbEntity
  8
0-0
  6
JWW_DASHED1
 62
   120
370
     5
100
AcDbLine
 10
784.1804374393744
 20
-626.5601556255729
 30
0.0
 11
822.1804374393815
 21
-588.5601556255721
 31
0.0
  0
LINE
  5
266
330
1F
100
AcDbEntity
  8
0-0
  6
JWW_DASHED1
 62
   120
370
     5
100
AcDbLine
 10
784.1804374393744
 20
-616.6606606904203
 30
0.0
 11
822.1804374393679
 21
-578.6606606904227
 31
0.0
  0
LINE
  5
267
330
1F
100
AcDbEntity
  8
0-0
  6
JWW_DASHED1
 62
   120
370
     5
100
AcDbLine
 10
784.1804374393744
 20
-606.7611657552033
 30
0.0
 11
822.1804374393747
 21
-568.7611657551988
 31
0.0
  0
LINE
  5
268
330
1F
100
AcDbEntity
  8
0-0
  6
JWW_DASHED1
 62
   120
370
     5
100
AcDbLine
 10
784.1804374393744
 20
-596.8616708199835
 30
0.0
 11
822.1804374393815
 21
-558.8616708199745
 31
0.0
  0
LINE
  5
269
330
1F
100
AcDbEntity
  8
0-0
  6
JWW_DASHED1
 62
   120
370
     5
100
AcDbLine
 10
784.1804374393744
 20
-586.9621758848232
 30
0.0
 11
822.1804374393679
 21
-548.9621758848256
 31
0.0
  0
LINE
  5
26A
330
1F
100
AcDbEntity
  8
0-0
  6
JWW_DASHED1
 62
   120
370
     5
100
AcDbLine
 10
784.1804374393744
 20
-577.0626809496036
 30
0.0
 11
822.1804374393781
 21
-539.0626809496016
 31
0.0
  0
LINE
  5
26B
330
1F
100
AcDbEntity
  8
0-0
  6
JWW_DASHED1
 62
   120
370
     5
100
AcDbLine
 10
784.1804374393744
 20
-567.163186014389
 30
0.0
 11
822.1804374393679
 21
-529.1631860143937
 31
0.0
  0
LINE
  5
26C
330
1F
100
AcDbEntity
  8
0-0
  6
JWW_DASHED1
 62
   120
370
     5
100
AcDbLine
 10
784.1804374393744
 20
-557.2636910792233
 30
0.0
 11
822.1804374393747
 21
-519.2636910792285
 31
0.0
  0
LINE
  5
26D
330
1F
100
AcDbEntity
  8
0-0
  6
JWW_DASHED1
 62
   120
370
     5
100
AcDbLine
 10
784.1804374393744
 20
-547.3641961440092
 30
0.0
 11
822.1804374393815
 21
-509.3641961440053
 31
0.0
  0
LINE
  5
26E
330
1F
100
AcDbEntity
  8
0-0
  6
JWW_DASHED1
 62
   120
370
     5
100
AcDbLine
 10
784.1804374393744
 20
-537.464701208795
 30
0.0
 11
822.1804374393713
 21
-499.4647012087971
 31
0.0
  0
LINE
  5
26F
330
1F
100
AcDbEntity
  8
0-0
  6
JWW_DASHED1
 62
   120
370
     5
100
AcDbLine
 10
784.1804374393744
 20
-527.5652062736332
 30
0.0
 11
822.1804374393747
 21
-489.5652062736319
 31
0.0
  0
LINE
  5
270
330
1F
100
AcDbEntity
  8
0-0
  6
JWW_DASHED1
 62
   120
370
     5
100
AcDbLine
 10
784.1804374393744
 20
-517.6657113384138
 30
0.0
 11
822.1804374393679
 21
-479.6657113384236
 31
0.0
  0
LINE
  5
271
330
1F
100
AcDbEntity
  8
0-0
  6
JWW_DASHED1
 62
   120
370
     5
100
AcDbLine
 10
784.1804374393744
 20
-507.7662164032013
 30
0.0
 11
822.1804374393747
 21
-469.7662164032
 31
0.0
  0
LINE
  5
272
330
1F
100
AcDbEntity
  8
0-0
  6
JWW_DASHED1
 62
   120
370
     5
100
AcDbLine
 10
784.1804374393744
 20
-497.8667214680391
 30
0.0
 11
822.1804374393781
 21
-459.8667214680353
 31
0.0
  0
LINE
  5
273
330
1F
100
AcDbEntity
  8
0-0
  6
JWW_DASHED1
 62
   120
370
     5
100
AcDbLine
 10
784.1804374393744
 20
-487.9672265328257
 30
0.0
 11
822.1804374393679
 21
-449.9672265328266
 31
0.0
  0
LINE
  5
274
330
1F
100
AcDbEntity
  8
0-0
  6
JWW_DASHED1
 62
   120
370
     5
100
AcDbLine
 10
784.1804374393744
 20
-478.0677315976051
 30
0.0
 11
822.1804374393747
 21
-440.067731597603
 31
0.0
  0
LINE
  5
275
330
1F
100
AcDbEntity
  8
0-0
  6
JWW_DASHED1
 62
   120
370
     5
100
AcDbLine
 10
784.1804374393744
 20
-468.1682366624391
 30
0.0
 11
822.1804374393815
 21
-430.1682366624382
 31
0.0
  0
LINE
  5
276
330
1F
100
AcDbEntity
  8
0-0
  6
JWW_DASHED1
 62
   120
370
     5
100
AcDbLine
 10
784.1804374393744
 20
-458.268741727224
 30
0.0
 11
822.1804374393713
 21
-420.2687417272304
 31
0.0
  0
LINE
  5
277
330
1F
100
AcDbEntity
  8
0-0
  6
JWW_DASHED1
 62
   120
370
     5
100
AcDbLine
 10
784.1804374393744
 20
-448.369246792011
 30
0.0
 11
822.1804374393781
 21
-410.3692467920064
 31
0.0
  0
LINE
  5
278
330
1F
100
AcDbEntity
  8
0-0
  6
JWW_DASHED1
 62
   120
370
     5
100
AcDbLine
 10
784.1804374393744
 20
-438.4697518568501
 30
0.0
 11
822.1804374393815
 21
-400.4697518568412
 31
0.0
  0
LINE
  5
279
330
1F
100
AcDbEntity
  8
0-0
  6
JWW_DASHED1
 62
   120
370
     5
100
AcDbLine
 10
784.1804374393744
 20
-428.5702569216303
 30
0.0
 11
822.1804374393747
 21
-390.5702569216334
 31
0.0
  0
LINE
  5
27A
330
1F
100
AcDbEntity
  8
0-0
  6
JWW_DASHED1
 62
   120
370
     5
100
AcDbLine
 10
784.1804374393744
 20
-418.6707619864183
 30
0.0
 11
822.1804374393815
 21
-380.6707619864093
 31
0.0
  0
LINE
  5
27B
330
1F
100
AcDbEntity
  8
0-0
  6
JWW_DASHED1
 62
   120
370
     5
100
AcDbLine
 10
784.1804374393744
 20
-408.7712670512505
 30
0.0
 11
822.1804374393747
 21
-370.7712670512548
 31
0.0
  0
LINE
  5
27C
330
1F
100
AcDbEntity
  8
0-0
  6
JWW_DASHED1
 62
   120
370
     5
100
AcDbLine
 10
784.1804374393744
 20
-398.8717721160401
 30
0.0
 11
822.1804374393747
 21
-360.8717721160363
 31
0.0
  0
LINE
  5
27D
330
1F
100
AcDbEntity
  8
0-0
  6
JWW_DASHED1
 62
   120
370
     5
100
AcDbLine
 10
784.1804374393744
 20
-388.9722771808263
 30
0.0
 11
822.1804374393679
 21
-350.9722771808281
 31
0.0
  0
LINE
  5
27E
330
1F
100
AcDbEntity
  8
0-0
  6
JWW_DASHED1
 62
   120
370
     5
100
AcDbLine
 10
784.1804374393744
 20
-379.072782245662
 30
0.0
 11
822.1804374393713
 21
-341.0727822456633
 31
0.0
  0
LINE
  5
27F
330
1F
100
AcDbEntity
  8
0-0
  6
JWW_DASHED1
 62
   120
370
     5
100
AcDbLine
 10
784.1804374393744
 20
-369.1732873104397
 30
0.0
 11
822.1804374393781
 21
-331.1732873104393
 31
0.0
  0
LINE
  5
280
330
1F
100
AcDbEntity
  8
0-0
  6
JWW_DASHED1
 62
   120
370
     5
100
AcDbLine
 10
784.1804374393744
 20
-359.273792375225
 30
0.0
 11
822.1804374393713
 21
-321.2737923752314
 31
0.0
  0
LINE
  5
281
330
1F
100
AcDbEntity
  8
0-0
  6
JWW_DASHED1
 62
   120
370
     5
100
AcDbLine
 10
784.1804374393744
 20
-349.3742974400611
 30
0.0
 11
822.1804374393747
 21
-311.3742974400662
 31
0.0
  0
LINE
  5
282
330
1F
100
AcDbEntity
  8
0-0
  6
JWW_DASHED1
 62
   120
370
     5
100
AcDbLine
 10
784.1804374393744
 20
-339.4748025048528
 30
0.0
 11
822.1804374393815
 21
-301.4748025048422
 31
0.0
  0
LINE
  5
283
330
1F
100
AcDbEntity
  8
0-0
  6
JWW_DASHED1
 62
   120
370
     5
100
AcDbLine
 10
784.1804374393744
 20
-329.5753075696292
 30
0.0
 11
822.1804374393747
 21
-291.5753075696344
 31
0.0
  0
LINE
  5
284
330
1F
100
AcDbEntity
  8
0-0
  6
JWW_DASHED1
 62
   120
370
     5
100
AcDbLine
 10
784.1804374393744
 20
-319.6758126344713
 30
0.0
 11
822.1804374393747
 21
-281.6758126344692
 31
0.0
  0
LINE
  5
285
330
1F
100
AcDbEntity
  8
0-0
  6
JWW_DASHED1
 62
   120
370
     5
100
AcDbLine
 10
784.1804374393744
 20
-309.7763176992579
 30
0.0
 11
822.1804374393815
 21
-271.7763176992452
 31
0.0
  0
LINE
  5
286
330
1F
100
AcDbEntity
  8
0-0
  6
JWW_DASHED1
 62
   120
370
     5
100
AcDbLine
 10
784.1804374393744
 20
-299.8768227640394
 30
0.0
 11
822.1804374393747
 21
-261.8768227640373
 31
0.0
  0
LINE
  5
287
330
1F
100
AcDbEntity
  8
0-0
  6
JWW_DASHED1
 62
   120
370
     5
100
AcDbLine
 10
784.1804374393744
 20
-289.9773278288777
 30
0.0
 11
822.1804374393781
 21
-251.9773278288721
 31
0.0
  0
LINE
  5
288
330
1F
100
AcDbEntity
  8
0-0
  6
JWW_DASHED1
 62
   120
370
     5
100
AcDbLine
 10
784.1804374393744
 20
-280.0778328936579
 30
0.0
 11
822.1804374393713
 21
-242.0778328936643
 31
0.0
  0
LINE
  5
289
330
1F
100
AcDbEntity
  8
0-0
  6
JWW_DASHED1
 62
   120
370
     5
100
AcDbLine
 10
784.1804374393744
 20
-270.1783379584739
 30
0.0
 11
822.1804374393747
 21
-232.1783379584701
 31
0.0
  0
LINE
  5
28A
330
1F
100
AcDbEntity
  8
0-0
  6
JWW_DASHED1
 62
   120
370
     5
100
AcDbLine
 10
784.1804374393744
 20
-260.2788430232764
 30
0.0
 11
822.1804374393815
 21
-222.2788430232755
 31
0.0
  0
LINE
  5
28B
330
1F
100
AcDbEntity
  8
0-0
  6
JWW_DASHED1
 62
   120
370
     5
100
AcDbLine
 10
784.1804374393744
 20
-250.3793480880634
 30
0.0
 11
822.1804374393747
 21
-212.3793480880677
 31
0.0
  0
LINE
  5
28C
330
1F
100
AcDbEntity
  8
0-0
  6
JWW_DASHED1
 62
   120
370
     5
100
AcDbLine
 10
784.1804374393744
 20
-240.4798531528735
 30
0.0
 11
822.1804374393781
 21
-202.4798531528731
 31
0.0
  0
LINE
  5
28D
330
1F
100
AcDbEntity
  8
0-0
  6
JWW_DASHED1
 62
   120
370
     5
100
AcDbLine
 10
784.1804374393744
 20
-230.5803582176912
 30
0.0
 11
822.1804374393679
 21
-192.5803582176943
 31
0.0
  0
LINE
  5
28E
330
1F
100
AcDbEntity
  8
0-0
  6
JWW_DASHED1
 62
   120
370
     5
100
AcDbLine
 10
784.1804374393744
 20
-220.6808632824762
 30
0.0
 11
822.1804374393747
 21
-182.6808632824702
 31
0.0
  0
LINE
  5
28F
330
1F
100
AcDbEntity
  8
0-0
  6
JWW_DASHED1
 62
   120
370
     5
100
AcDbLine
 10
784.1804374393744
 20
-210.7813683473063
 30
0.0
 11
822.1804374393781
 21
-172.7813683473059
 31
0.0
  0
LINE
  5
290
330
1F
100
AcDbEntity
  8
0-0
  6
JWW_DASHED1
 62
   120
370
     5
100
AcDbLine
 10
784.1804374393744
 20
-200.8818734120963
 30
0.0
 11
822.1804374393679
 21
-162.8818734120972
 31
0.0
  0
LINE
  5
291
330
1F
100
AcDbEntity
  8
0-0
  6
JWW_DASHED1
 62
   120
370
     5
100
AcDbLine
 10
784.1804374393744
 20
-190.9823784768744
 30
0.0
 11
822.1804374393781
 21
-152.982378476874
 31
0.0
  0
LINE
  5
292
330
1F
100
AcDbEntity
  8
0-0
  6
JWW_DASHED1
 62
   120
370
     5
100
AcDbLine
 10
784.1804374393744
 20
-181.0828835417126
 30
0.0
 11
822.1804374393815
 21
-143.0828835417088
 31
0.0
  0
LINE
  5
293
330
1F
100
AcDbEntity
  8
0-0
  6
JWW_DASHED1
 62
   120
370
     5
100
AcDbLine
 10
784.1804374393744
 20
-171.183388606498
 30
0.0
 11
822.1804374393713
 21
-133.183388606501
 31
0.0
  0
LINE
  5
294
330
1F
100
AcDbEntity
  8
0-0
  6
JWW_DASHED1
 62
   120
370
     5
100
AcDbLine
 10
784.1804374393744
 20
-161.2838936712808
 30
0.0
 11
822.1804374393815
 21
-123.283893671277
 31
0.0
  0
LINE
  5
295
330
1F
100
AcDbEntity
  8
0-0
  6
JWW_DASHED1
 62
   120
370
     5
100
AcDbLine
 10
784.1804374393744
 20
-151.3843987361224
 30
0.0
 11
822.1804374393815
 21
-113.3843987361118
 31
0.0
  0
LINE
  5
296
330
1F
100
AcDbEntity
  8
0-0
  6
JWW_DASHED1
 62
   120
370
     5
100
AcDbLine
 10
784.1804374393744
 20
-141.4849038009044
 30
0.0
 11
822.1804374393747
 21
-103.484903800904
 31
0.0
  0
LINE
  5
297
330
1F
100
AcDbEntity
  8
0-0
  6
JWW_DASHED1
 62
   120
370
     5
100
AcDbLine
 10
784.1804374393744
 20
-131.5854088656906
 30
0.0
 11
822.1804374393815
 21
-93.58540886567994
 31
0.0
  0
LINE
  5
298
330
1F
100
AcDbEntity
  8
0-0
  6
JWW_DASHED1
 62
   120
370
     5
100
AcDbLine
 10
784.1804374393744
 20
-121.6859139305237
 30
0.0
 11
822.1804374393781
 21
-83.68591393052327
 31
0.0
  0
LINE
  5
299
330
1F
100
AcDbEntity
  8
0-0
  6
JWW_DASHED1
 62
   120
370
     5
100
AcDbLine
 10
784.1804374393744
 20
-111.7864189953124
 30
0.0
 11
822.1804374393781
 21
-73.78641899530692
 31
0.0
  0
LINE
  5
29A
330
1F
100
AcDbEntity
  8
0-0
  6
JWW_DASHED1
 62
   120
370
     5
100
AcDbLine
 10
784.1804374393744
 20
-101.8869240600961
 30
0.0
 11
822.1804374393679
 21
-63.88692406009909
 31
0.0
  0
LINE
  5
29B
330
1F
100
AcDbEntity
  8
0-0
  6
JWW_DASHED1
 62
   120
370
     5
100
AcDbLine
 10
784.1804374393744
 20
-91.98742912492747
 30
0.0
 11
822.1804374393713
 21
-53.9874291249339
 31
0.0
  0
LINE
  5
29C
330
1F
100
AcDbEntity
  8
0-0
  6
JWW_DASHED1
 62
   120
370
     5
100
AcDbLine
 10
784.1804374393744
 20
-82.08793418971155
 30
0.0
 11
822.1804374393815
 21
-44.08793418970987
 31
0.0
  0
LINE
  5
29D
330
1F
100
AcDbEntity
  8
0-0
  6
JWW_DASHED1
 62
   120
370
     5
100
AcDbLine
 10
784.1804374393744
 20
-72.18843925449562
 30
0.0
 11
822.1804374393713
 21
-34.18843925450204
 31
0.0
  0
LINE
  5
29E
330
1F
100
AcDbEntity
  8
0-0
  6
JWW_DASHED1
 62
   120
370
     5
100
AcDbLine
 10
784.1804374393744
 20
-62.28894431934194
 30
0.0
 11
822.1804374393747
 21
-24.28894431933685
 31
0.0
  0
LINE
  5
29F
330
1F
100
AcDbEntity
  8
0-0
  6
JWW_DASHED1
 62
   120
370
     5
100
AcDbLine
 10
784.1804374393744
 20
-52.38944938412132
 30
0.0
 11
822.1804374393815
 21
-14.38944938411325
 31
0.0
  0
LINE
  5
2A0
330
1F
100
AcDbEntity
  8
0-0
  6
JWW_DASHED1
 62
   120
370
     5
100
AcDbLine
 10
784.1804374393744
 20
-42.48995444890198
 30
0.0
 11
822.1804374393747
 21
-4.489954448904996
 31
0.0
  0
LINE
  5
2A1
330
1F
100
AcDbEntity
  8
0-0
  6
JWW_DASHED1
 62
   120
370
     5
100
AcDbLine
 10
784.1804374393744
 20
-32.59045951374404
 30
0.0
 11
822.1804374393747
 21
5.409540486259772
 31
0.0
  0
LINE
  5
2A2
330
1F
100
AcDbEntity
  8
0-0
  6
JWW_DASHED1
 62
   120
370
     5
100
AcDbLine
 10
784.1804374393744
 20
-22.69096457852768
 30
0.0
 11
822.180437439385
 21
15.3090354214838
 31
0.0
  0
LINE
  5
2A3
330
1F
100
AcDbEntity
  8
0-0
  6
JWW_DASHED1
 62
   120
370
     5
100
AcDbLine
 10
784.1804374393744
 20
-12.79146964331176
 30
0.0
 11
822.1804374393747
 21
25.20853035669205
 31
0.0
  0
LINE
  5
2A4
330
1F
100
AcDbEntity
  8
0-0
  6
JWW_DASHED1
 62
   120
370
     5
100
AcDbLine
 10
784.1804374393744
 20
-2.8919747081504
 30
0.0
 11
822.1804374393781
 21
35.10802529185682
 31
0.0
  0
LINE
  5
2A5
330
1F
100
AcDbEntity
  8
0-0
  6
JWW_DASHED1
 62
   120
370
     5
100
AcDbLine
 10
784.1804374393744
 20
7.007520227066379
 30
0.0
 11
822.1804374393713
 21
45.00752022706507
 31
0.0
  0
LINE
  5
2A6
330
1F
100
AcDbEntity
  8
0-0
  6
JWW_DASHED1
 62
   120
370
     5
100
AcDbLine
 10
784.1804374393744
 20
16.90701516228827
 30
0.0
 11
822.1804374393781
 21
54.90701516228867
 31
0.0
  0
LINE
  5
2A7
330
1F
100
AcDbEntity
  8
0-0
  6
JWW_DASHED1
 62
   120
370
     5
100
AcDbLine
 10
784.1804374393744
 20
26.80651009744196
 30
0.0
 11
822.1804374393815
 21
64.80651009745387
 31
0.0
  0
LINE
  5
2A8
330
1F
100
AcDbEntity
  8
0-0
  6
JWW_DASHED1
 62
   120
370
     5
100
AcDbLine
 10
784.1804374393744
 20
36.70600503266769
 30
0.0
 11
822.1804374393747
 21
74.7060050326617
 31
0.0
  0
LINE
  5
2A9
330
1F
100
AcDbEntity
  8
0-0
  6
JWW_DASHED1
 62
   120
370
     5
100
AcDbLine
 10
784.1804374393744
 20
46.60549996788106
 30
0.0
 11
822.1804374393815
 21
84.60549996788572
 31
0.0
  0
LINE
  5
2AA
330
1F
100
AcDbEntity
  8
0-0
  6
JWW_DASHED1
 62
   120
370
     5
100
AcDbLine
 10
784.1804374393744
 20
56.50499490303687
 30
0.0
 11
822.1804374393679
 21
94.50499490303514
 31
0.0
  0
LINE
  5
2AB
330
1F
100
AcDbEntity
  8
0-0
  6
JWW_DASHED1
 62
   120
370
     5
100
AcDbLine
 10
784.1804374393744
 20
66.40448983825749
 30
0.0
 11
822.1804374393747
 21
104.4044898382587
 31
0.0
  0
LINE
  5
2AC
330
1F
100
AcDbEntity
  8
0-0
  6
JWW_DASHED1
 62
   120
370
     5
100
AcDbLine
 10
784.1804374393744
 20
76.30398477347171
 30
0.0
 11
822.1804374393815
 21
114.3039847734823
 31
0.0
  0
LINE
  5
2AD
330
1F
100
AcDbEntity
  8
0-0
  6
JWW_DASHED1
 62
   120
370
     5
100
AcDbLine
 10
784.1804374393744
 20
86.20347970863776
 30
0.0
 11
822.1804374393713
 21
124.2034797086322
 31
0.0
  0
LINE
  5
2AE
330
1F
100
AcDbEntity
  8
0-0
  6
JWW_DASHED1
 62
   120
370
     5
100
AcDbLine
 10
784.1804374393744
 20
96.10297464385027
 30
0.0
 11
822.1804374393781
 21
134.1029746438558
 31
0.0
  0
LINE
  5
2AF
330
1F
100
AcDbEntity
  8
0-0
  6
JWW_DASHED1
 62
   120
370
     5
100
AcDbLine
 10
784.1804374393744
 20
106.0024695790688
 30
0.0
 11
822.1804374393815
 21
144.0024695790734
 31
0.0
  0
LINE
  5
2B0
330
1F
100
AcDbEntity
  8
0-0
  6
JWW_DASHED1
 62
   120
370
     5
100
AcDbLine
 10
784.1804374393744
 20
115.901964514231
 30
0.0
 11
822.1804374393747
 21
153.9019645142288
 31
0.0
  0
LINE
  5
2B1
330
1F
100
AcDbEntity
  8
0-0
  6
JWW_DASHED1
 62
   120
370
     5
100
AcDbLine
 10
784.1804374393744
 20
125.8014594494516
 30
0.0
 11
822.1804374393815
 21
163.8014594494524
 31
0.0
  0
LINE
  5
2B2
330
1F
100
AcDbEntity
  8
0-0
  6
JWW_DASHED1
 62
   120
370
     5
100
AcDbLine
 10
784.1804374393744
 20
135.700954384659
 30
0.0
 11
822.1804374393713
 21
173.7009543846607
 31
0.0
  0
LINE
  5
2B3
330
1F
100
AcDbEntity
  8
0-0
  6
JWW_DASHED1
 62
   120
370
     5
100
AcDbLine
 10
784.1804374393744
 20
145.6004493198216
 30
0.0
 11
822.1804374393747
 21
183.6004493198254
 31
0.0
  0
LINE
  5
2B4
330
1F
100
AcDbEntity
  8
0-0
  6
JWW_DASHED1
 62
   120
370
     5
100
AcDbLine
 10
784.1804374393744
 20
155.4999442550435
 30
0.0
 11
822.1804374393679
 21
193.4999442550337
 31
0.0
  0
LINE
  5
2B5
330
1F
100
AcDbEntity
  8
0-0
  6
JWW_DASHED1
 62
   120
370
     5
100
AcDbLine
 10
784.1804374393744
 20
165.3994391902535
 30
0.0
 11
822.1804374393747
 21
203.3994391902573
 31
0.0
  0
LINE
  5
2B6
330
1F
100
AcDbEntity
  8
0-0
  6
JWW_DASHED1
 62
   120
370
     5
100
AcDbLine
 10
784.1804374393744
 20
175.2989341254221
 30
0.0
 11
822.1804374393781
 21
213.2989341254225
 31
0.0
  0
LINE
  5
2B7
330
1F
100
AcDbEntity
  8
0-0
  6
JWW_DASHED1
 62
   120
370
     5
100
AcDbLine
 10
784.1804374393744
 20
185.1984290606333
 30
0.0
 11
822.1804374393679
 21
223.1984290606303
 31
0.0
  0
LINE
  5
2B8
330
1F
100
AcDbEntity
  8
0-0
  6
JWW_DASHED1
 62
   120
370
     5
100
AcDbLine
 10
784.1804374393744
 20
195.0979239958539
 30
0.0
 11
822.1804374393781
 21
233.0979239958543
 31
0.0
  0
LINE
  5
2B9
330
1F
100
AcDbEntity
  8
0-0
  6
JWW_DASHED1
 62
   120
370
     5
100
AcDbLine
 10
784.1804374393744
 20
204.9974189310149
 30
0.0
 11
822.1804374393815
 21
242.9974189310195
 31
0.0
  0
LINE
  5
2BA
330
1F
100
AcDbEntity
  8
0-0
  6
JWW_DASHED1
 62
   120
370
     5
100
AcDbLine
 10
784.1804374393744
 20
214.8969138662295
 30
0.0
 11
822.1804374393713
 21
252.8969138662274
 31
0.0
  0
LINE
  5
2BB
330
1F
100
AcDbEntity
  8
0-0
  6
JWW_DASHED1
 62
   120
370
     5
100
AcDbLine
 10
784.1804374393744
 20
224.7964088014476
 30
0.0
 11
822.1804374393815
 21
262.7964088014514
 31
0.0
  0
LINE
  5
2BC
330
1F
100
AcDbEntity
  8
0-0
  6
JWW_DASHED1
 62
   120
370
     5
100
AcDbLine
 10
784.1804374393744
 20
234.6959037366047
 30
0.0
 11
822.1804374393815
 21
272.6959037366166
 31
0.0
  0
LINE
  5
2BD
330
1F
100
AcDbEntity
  8
0-0
  6
JWW_DASHED1
 62
   120
370
     5
100
AcDbLine
 10
784.1804374393744
 20
244.5953986718223
 30
0.0
 11
822.1804374393747
 21
282.5953986718244
 31
0.0
  0
LINE
  5
2BE
330
1F
100
AcDbEntity
  8
0-0
  6
JWW_DASHED1
 62
   120
370
     5
100
AcDbLine
 10
784.1804374393744
 20
254.4948936070365
 30
0.0
 11
822.1804374393815
 21
292.4948936070484
 31
0.0
  0
LINE
  5
2BF
330
1F
100
AcDbEntity
  8
0-0
  6
JWW_DASHED1
 62
   120
370
     5
100
AcDbLine
 10
784.1804374393744
 20
264.394388542206
 30
0.0
 11
822.180437439385
 21
302.3943885422132
 31
0.0
  0
LINE
  5
2C0
330
1F
100
AcDbEntity
  8
0-0
  6
JWW_DASHED1
 62
   120
370
     5
100
AcDbLine
 10
784.1804374393744
 20
274.2938834774159
 30
0.0
 11
822.1804374393781
 21
312.2938834774214
 31
0.0
  0
LINE
  5
2C1
330
1F
100
AcDbEntity
  8
0-0
  6
JWW_DASHED1
 62
   120
370
     5
100
AcDbLine
 10
784.1804374393744
 20
284.1933784126323
 30
0.0
 11
822.1804374393679
 21
322.1933784126293
 31
0.0
  0
LINE
  5
2C2
330
1F
100
AcDbEntity
  8
0-0
  6
JWW_DASHED1
 62
   120
370
     5
100
AcDbLine
 10
784.1804374393744
 20
294.0928733477941
 30
0.0
 11
822.1804374393713
 21
332.0928733477945
 31
0.0
  0
LINE
  5
2C3
330
1F
100
AcDbEntity
  8
0-0
  6
JWW_DASHED1
 62
   120
370
     5
100
AcDbLine
 10
784.1804374393744
 20
303.9923682830172
 30
0.0
 11
822.1804374393815
 21
341.9923682830181
 31
0.0
  0
LINE
  5
2C4
330
1F
100
AcDbEntity
  8
0-0
  6
JWW_DASHED1
 62
   120
370
     5
100
AcDbLine
 10
784.1804374393744
 20
313.8918632182327
 30
0.0
 11
822.1804374393713
 21
351.8918632182263
 31
0.0
  0
LINE
  5
2C5
330
1F
100
AcDbEntity
  8
0-0
  6
JWW_DASHED1
 62
   120
370
     5
100
AcDbLine
 10
784.1804374393744
 20
323.7913581533882
 30
0.0
 11
822.1804374393747
 21
361.7913581533911
 31
0.0
  0
LINE
  5
2C6
330
1F
100
AcDbEntity
  8
0-0
  6
JWW_DASHED1
 62
   120
370
     5
100
AcDbLine
 10
784.1804374393744
 20
333.690853088607
 30
0.0
 11
822.1804374393815
 21
371.6908530886151
 31
0.0
  0
LINE
  5
2C7
330
1F
100
AcDbEntity
  8
0-0
  6
JWW_DASHED1
 62
   120
370
     5
100
AcDbLine
 10
784.1804374393744
 20
343.5903480237999
 30
0.0
 11
822.1804374393713
 21
381.5903480237935
 31
0.0
  0
LINE
  5
2C8
330
1F
100
AcDbEntity
  8
0-0
  6
JWW_DASHED1
 62
   120
370
     5
100
AcDbLine
 10
784.1804374393744
 20
353.4898429589844
 30
0.0
 11
822.1804374393747
 21
391.4898429589881
 31
0.0
  0
LINE
  5
2C9
330
1F
100
AcDbEntity
  8
0-0
  6
JWW_DASHED1
 62
   120
370
     5
100
AcDbLine
 10
784.1804374393744
 20
363.3893378941998
 30
0.0
 11
822.180437439385
 21
401.3893378942122
 31
0.0
  0
LINE
  5
2CA
330
1F
100
AcDbEntity
  8
0-0
  6
JWW_DASHED1
 62
   120
370
     5
100
AcDbLine
 10
784.1804374393744
 20
373.2888328293667
 30
0.0
 11
822.1804374393713
 21
411.2888328293611
 31
0.0
  0
LINE
  5
2CB
330
1F
100
AcDbEntity
  8
0-0
  6
JWW_DASHED1
 62
   120
370
     5
100
AcDbLine
 10
784.1804374393744
 20
383.1883277645767
 30
0.0
 11
822.1804374393781
 21
421.1883277645852
 31
0.0
  0
LINE
  5
2CC
330
1F
100
AcDbEntity
  8
0-0
  6
JWW_DASHED1
 62
   120
370
     5
100
AcDbLine
 10
784.1804374393744
 20
393.0878226997952
 30
0.0
 11
822.1804374393713
 21
431.087822699793
 31
0.0
  0
LINE
  5
2CD
330
1F
100
AcDbEntity
  8
0-0
  6
JWW_DASHED1
 62
   120
370
     5
100
AcDbLine
 10
784.1804374393744
 20
402.9873176349633
 30
0.0
 11
822.1804374393747
 21
440.9873176349582
 31
0.0
  0
LINE
  5
2CE
330
1F
100
AcDbEntity
  8
0-0
  6
JWW_DASHED1
 62
   120
370
     5
100
AcDbLine
 10
784.1804374393744
 20
412.8868125701712
 30
0.0
 11
822.1804374393815
 21
450.8868125701818
 31
0.0
  0
LINE
  5
2CF
330
1F
100
AcDbEntity
  8
0-0
  6
JWW_DASHED1
 62
   120
370
     5
100
AcDbLine
 10
784.1804374393744
 20
422.7863075053961
 30
0.0
 11
822.1804374393747
 21
460.78630750539
 31
0.0
  0
LINE
  5
2D0
330
1F
100
AcDbEntity
  8
0-0
  6
JWW_DASHED1
 62
   120
370
     5
100
AcDbLine
 10
784.1804374393744
 20
432.6858024405464
 30
0.0
 11
822.1804374393747
 21
470.6858024405548
 31
0.0
  0
LINE
  5
2D1
330
1F
100
AcDbEntity
  8
0-0
  6
JWW_DASHED1
 62
   120
370
     5
100
AcDbLine
 10
784.1804374393744
 20
442.5852973757661
 30
0.0
 11
822.1804374393679
 21
480.585297375763
 31
0.0
  0
LINE
  5
2D2
330
1F
100
AcDbEntity
  8
0-0
  6
JWW_DASHED1
 62
   120
370
     5
100
AcDbLine
 10
784.1804374393744
 20
452.4847923109854
 30
0.0
 11
822.1804374393747
 21
490.4847923109867
 31
0.0
  0
LINE
  5
2D3
330
1F
100
AcDbEntity
  8
0-0
  6
JWW_DASHED1
 62
   120
370
     5
100
AcDbLine
 10
784.1804374393744
 20
462.3842872461472
 30
0.0
 11
822.1804374393781
 21
500.3842872461519
 31
0.0
  0
LINE
  5
2D4
330
1F
100
AcDbEntity
  8
0-0
  6
JWW_DASHED1
 62
   120
370
     5
100
AcDbLine
 10
784.1804374393744
 20
472.2837821813657
 30
0.0
 11
822.1804374393713
 21
510.2837821813602
 31
0.0
  0
LINE
  5
2D5
330
1F
100
AcDbEntity
  8
0-0
  6
JWW_DASHED1
 62
   120
370
     5
100
AcDbLine
 10
784.1804374393744
 20
482.1832771165782
 30
0.0
 11
822.1804374393781
 21
520.1832771165837
 31
0.0
  0
LINE
  5
2D6
330
1F
100
AcDbEntity
  8
0-0
  6
JWW_DASHED1
 62
   120
370
     5
100
AcDbLine
 10
784.1804374393744
 20
492.08277205174
 30
0.0
 11
822.1804374393815
 21
530.0827720517489
 31
0.0
  0
LINE
  5
2D7
330
1F
100
AcDbEntity
  8
0-0
  6
JWW_DASHED1
 62
   120
370
     5
100
AcDbLine
 10
784.1804374393744
 20
501.9822669869598
 30
0.0
 11
822.1804374393747
 21
539.9822669869568
 31
0.0
  0
LINE
  5
2D8
330
1F
100
AcDbEntity
  8
0-0
  6
JWW_DASHED1
 62
   120
370
     5
100
AcDbLine
 10
784.1804374393744
 20
511.8817619221787
 30
0.0
 11
822.1804374393815
 21
549.8817619221808
 31
0.0
  0
LINE
  5
2D9
330
1F
100
AcDbEntity
  8
0-0
  6
JWW_DASHED1
 62
   120
370
     5
100
AcDbLine
 10
784.1804374393744
 20
521.7812568573302
 30
0.0
 11
822.1804374393815
 21
559.7812568573455
 31
0.0
  0
LINE
  5
2DA
330
1F
100
AcDbEntity
  8
0-0
  6
JWW_DASHED1
 62
   120
370
     5
100
AcDbLine
 10
784.1804374393744
 20
531.6807517925499
 30
0.0
 11
822.1804374393747
 21
569.6807517925538
 31
0.0
  0
LINE
  5
2DB
330
1F
100
AcDbEntity
  8
0-0
  6
JWW_DASHED1
 62
   120
370
     5
100
AcDbLine
 10
784.1804374393744
 20
541.5802467277689
 30
0.0
 11
822.1804374393815
 21
579.5802467277779
 31
0.0
  0
LINE
  5
2DC
330
1F
100
AcDbEntity
  8
0-0
  6
JWW_DASHED1
 62
   120
370
     5
100
AcDbLine
 10
784.1804374393744
 20
551.4797416629281
 30
0.0
 11
822.180437439385
 21
589.4797416629405
 31
0.0
  0
LINE
  5
2DD
330
1F
100
AcDbEntity
  8
0-0
  6
JWW_DASHED1
 62
   120
370
     5
100
AcDbLine
 10
784.1804374393744
 20
561.3792365981496
 30
0.0
 11
822.1804374393781
 21
599.3792365981508
 31
0.0
  0
LINE
  5
2DE
330
1F
100
AcDbEntity
  8
0-0
  6
JWW_DASHED1
 62
   120
370
     5
100
AcDbLine
 10
784.1804374393744
 20
571.2787315333617
 30
0.0
 11
822.1804374393679
 21
609.2787315333587
 31
0.0
  0
LINE
  5
2DF
330
1F
100
AcDbEntity
  8
0-0
  6
JWW_DASHED1
 62
   120
370
     5
100
AcDbLine
 10
784.1804374393744
 20
581.178226468529
 30
0.0
 11
822.1804374393747
 21
619.1782264685239
 31
0.0
  0
LINE
  5
2E0
330
1F
100
AcDbEntity
  8
0-0
  6
JWW_DASHED1
 62
   120
370
     5
100
AcDbLine
 10
784.1804374393744
 20
591.0777214037437
 30
0.0
 11
822.1804374393815
 21
629.0777214037474
 31
0.0
  0
LINE
  5
2E1
330
1F
100
AcDbEntity
  8
0-0
  6
JWW_DASHED1
 62
   120
370
     5
100
AcDbLine
 10
784.1804374393744
 20
600.9772163389553
 30
0.0
 11
822.1804374393713
 21
638.9772163389557
 31
0.0
  0
LINE
  5
2E2
330
1F
100
AcDbEntity
  8
0-0
  6
JWW_DASHED1
 62
   120
370
     5
100
AcDbLine
 10
784.1804374393744
 20
610.8767112741192
 30
0.0
 11
822.1804374393747
 21
648.87671127412
 31
0.0
  0
LINE
  5
2E3
330
1F
100
AcDbEntity
  8
0-0
  6
JWW_DASHED1
 62
   120
370
     5
100
AcDbLine
 10
784.1804374393744
 20
620.7762062093334
 30
0.0
 11
822.1804374393815
 21
658.7762062093445
 31
0.0
  0
LINE
  5
2E4
330
1F
100
AcDbEntity
  8
0-0
  6
JWW_DASHED1
 62
   120
370
     5
100
AcDbLine
 10
784.1804374393744
 20
630.6757011445507
 30
0.0
 11
822.1804374393747
 21
668.6757011445527
 31
0.0
  0
LINE
  5
2E5
330
1F
100
AcDbEntity
  8
0-0
  6
JWW_DASHED1
 62
   120
370
     5
100
AcDbLine
 10
784.1804374393744
 20
640.5751960797129
 30
0.0
 11
822.1804374393781
 21
678.5751960797176
 31
0.0
  0
LINE
  5
2E6
330
1F
100
AcDbEntity
  8
0-0
  6
JWW_DASHED1
 62
   120
370
     5
100
AcDbLine
 10
784.1804374393744
 20
650.4746910149339
 30
0.0
 11
822.180437439385
 21
688.4746910149411
 31
0.0
  0
LINE
  5
2E7
330
1F
100
AcDbEntity
  8
0-0
  6
JWW_DASHED1
 62
   120
370
     5
100
AcDbLine
 10
784.1804374393744
 20
660.3741859501408
 30
0.0
 11
822.1804374393747
 21
698.3741859501494
 31
0.0
  0
LINE
  5
2E8
330
1F
100
AcDbEntity
  8
0-0
  6
JWW_DASHED1
 62
   120
370
     5
100
AcDbLine
 10
784.1804374393744
 20
670.2736808853128
 30
0.0
 11
822.1804374393815
 21
708.2736808853145
 31
0.0
  0
LINE
  5
2E9
330
1F
100
AcDbEntity
  8
0-0
  6
JWW_DASHED1
 62
   120
370
     5
100
AcDbLine
 10
784.1804374393744
 20
680.1731758205289
 30
0.0
 11
822.1804374393713
 21
718.1731758205219
 31
0.0
  0
LINE
  5
2EA
330
1F
100
AcDbEntity
  8
0-0
  6
JWW_DASHED1
 62
   120
370
     5
100
AcDbLine
 10
784.1804374393744
 20
690.0726707557455
 30
0.0
 11
822.1804374393815
 21
728.0726707557465
 31
0.0
  0
LINE
  5
2EB
330
1F
100
AcDbEntity
  8
0-0
  6
JWW_DASHED1
 62
   120
370
     5
100
AcDbLine
 10
784.1804374393744
 20
699.9721656909031
 30
0.0
 11
822.1804374393815
 21
737.9721656909112
 31
0.0
  0
LINE
  5
2EC
330
1F
100
AcDbEntity
  8
0-0
  6
JWW_DASHED1
 62
   120
370
     5
100
AcDbLine
 10
784.1804374393744
 20
709.8716606261224
 30
0.0
 11
822.1804374393747
 21
747.8716606261195
 31
0.0
  0
LINE
  5
2ED
330
1F
100
AcDbEntity
  8
0-0
  6
JWW_DASHED1
 62
   120
370
     5
100
AcDbLine
 10
784.1804374393744
 20
719.771155561335
 30
0.0
 11
822.1804374393815
 21
757.771155561343
 31
0.0
  0
LINE
  5
2EE
330
1F
100
AcDbEntity
  8
0-0
  6
JWW_DASHED1
 62
   120
370
     5
100
AcDbLine
 10
784.1804374393744
 20
729.670650496495
 30
0.0
 11
822.1804374393679
 21
767.6706504964925
 31
0.0
  0
LINE
  5
2EF
330
1F
100
AcDbEntity
  8
0-0
  6
JWW_DASHED1
 62
   120
370
     5
100
AcDbLine
 10
784.1804374393744
 20
739.5701454317114
 30
0.0
 11
822.1804374393747
 21
777.5701454317165
 31
0.0
  0
LINE
  5
2F0
330
1F
100
AcDbEntity
  8
0-0
  6
JWW_DASHED1
 62
   120
370
     5
100
AcDbLine
 10
784.1804374393744
 20
749.4696403669286
 30
0.0
 11
822.180437439385
 21
787.4696403669401
 31
0.0
  0
LINE
  5
2F1
330
1F
100
AcDbEntity
  8
0-0
  6
JWW_DASHED1
 62
   120
370
     5
100
AcDbLine
 10
784.1804374393744
 20
759.3691353020955
 30
0.0
 11
822.1804374393713
 21
797.369135302089
 31
0.0
  0
LINE
  5
2F2
330
1F
100
AcDbEntity
  8
0-0
  6
JWW_DASHED1
 62
   120
370
     5
100
AcDbLine
 10
784.1804374393744
 20
769.2686302373058
 30
0.0
 11
822.1804374393781
 21
807.2686302373131
 31
0.0
  0
LINE
  5
2F3
330
1F
100
AcDbEntity
  8
0-0
  6
JWW_DASHED1
 62
   120
370
     5
100
AcDbLine
 10
784.1804374393744
 20
779.1681251725282
 30
0.0
 11
822.1804374393884
 21
817.1681251725367
 31
0.0
  0
LINE
  5
2F4
330
1F
100
AcDbEntity
  8
0-0
  6
JWW_DASHED1
 62
   120
370
     5
100
AcDbLine
 10
784.1804374393744
 20
789.0676201076922
 30
0.0
 11
822.1804374393747
 21
827.0676201076861
 31
0.0
  0
LINE
  5
2F5
330
1F
100
AcDbEntity
  8
0-0
  6
JWW_DASHED1
 62
   120
370
     5
100
AcDbLine
 10
784.1804374393744
 20
798.9671150428995
 30
0.0
 11
822.1804374393815
 21
836.9671150429101
 31
0.0
  0
LINE
  5
2F6
330
1F
100
AcDbEntity
  8
0-0
  6
JWW_DASHED1
 62
   120
370
     5
100
AcDbLine
 10
784.1804374393744
 20
808.8666099781235
 30
0.0
 11
822.1804374393747
 21
846.866609978118
 31
0.0
  0
LINE
  5
2F7
330
1F
100
AcDbEntity
  8
0-0
  6
JWW_DASHED1
 62
   120
370
     5
100
AcDbLine
 10
784.1804374393744
 20
828.6655998485038
 30
0.0
 11
822.1804374393747
 21
866.6655998484928
 31
0.0
  0
LINE
  5
2F8
330
1F
100
AcDbEntity
  8
0-0
  6
JWW_DASHED1
 62
   120
370
     5
100
AcDbLine
 10
784.1804374393744
 20
818.7661049132853
 30
0.0
 11
822.1804374393747
 21
856.7661049132789
 31
0.0
  0
LINE
  5
2F9
330
1F
100
AcDbEntity
  8
0-0
  6
JWW_DASHED1
 62
   120
370
     5
100
AcDbLine
 10
784.1804374393744
 20
-1012.640458098257
 30
0.0
 11
822.1804374393713
 21
-974.6404580982567
 31
0.0
  0
LINE
  5
2FA
330
1F
100
AcDbEntity
  8
0-0
  6
JWW_DASHED1
 62
   120
370
     5
100
AcDbLine
 10
784.1804374393744
 20
-1022.539953033421
 30
0.0
 11
822.1804374393713
 21
-984.5399530334215
 31
0.0
  0
LINE
  5
2FB
330
1F
100
AcDbEntity
  8
0-0
  6
JWW_DASHED1
 62
   120
370
     5
100
AcDbLine
 10
784.1804374393744
 20
-1032.439447968586
 30
0.0
 11
822.1804374393713
 21
-994.4394479685863
 31
0.0
  0
LINE
  5
2FC
330
1F
100
AcDbEntity
  8
0-0
  6
JWW_DASHED1
 62
   120
370
     5
100
AcDbLine
 10
786.9811180186196
 20
-1039.538262324505
 30
0.0
 11
822.1804374393713
 21
-1004.338942903751
 31
0.0
  0
LINE
  5
2FD
330
1F
100
AcDbEntity
  8
0-0
  6
JWW_DASHED1
 62
   120
370
     5
100
AcDbLine
 10
816.6796028241117
 20
-1039.538262324505
 30
0.0
 11
822.1804374393713
 21
-1034.037427709245
 31
0.0
  0
LINE
  5
2FE
330
1F
100
AcDbEntity
  8
0-0
  6
JWW_DASHED1
 62
   120
370
     5
100
AcDbLine
 10
796.8806129537838
 20
-1039.538262324505
 30
0.0
 11
822.1804374393713
 21
-1014.238437838916
 31
0.0
  0
LINE
  5
2FF
330
1F
100
AcDbEntity
  8
0-0
  6
JWW_DASHED1
 62
   120
370
     5
100
AcDbLine
 10
806.7801078889482
 20
-1039.538262324505
 30
0.0
 11
822.1804374393713
 21
-1024.137932774081
 31
0.0
  0
LINE
  5
300
330
1F
100
AcDbEntity
  8
0-0
  6
JWW_DASHED1
 62
   120
370
     5
100
AcDbLine
 10
784.1804374393744
 20
838.5650947837223
 30
0.0
 11
822.1804374393747
 21
876.5650947837112
 31
0.0
  0
LINE
  5
301
330
1F
100
AcDbEntity
  8
0-0
  6
JWW_DASHED1
 62
   120
370
     5
100
AcDbLine
 10
784.1804374393744
 20
848.4645897189408
 30
0.0
 11
822.1804374393747
 21
886.4645897189297
 31
0.0
  0
LINE
  5
302
330
1F
100
AcDbEntity
  8
0-0
  6
JWW_DASHED1
 62
   120
370
     5
100
AcDbLine
 10
784.1804374393744
 20
858.3640846541593
 30
0.0
 11
822.1804374393747
 21
896.3640846541482
 31
0.0
  0
LINE
  5
303
330
1F
100
AcDbEntity
  8
0-0
  6
JWW_DASHED1
 62
   120
370
     5
100
AcDbLine
 10
784.1804374393744
 20
868.2635795893773
 30
0.0
 11
822.1804374393747
 21
906.2635795893666
 31
0.0
  0
LINE
  5
304
330
1F
100
AcDbEntity
  8
0-0
  6
JWW_DASHED1
 62
   120
370
     5
100
AcDbLine
 10
784.1804374393744
 20
878.1630745245963
 30
0.0
 11
822.1804374393747
 21
916.1630745245851
 31
0.0
  0
LINE
  5
305
330
1F
100
AcDbEntity
  8
0-0
  6
Continuous
 62
    92
370
    13
100
AcDbLine
 10
784.1804374393744
 20
1135.461737675496
 30
0.0
 11
784.1804374393744
 21
-1047.538262324505
 31
0.0
  0
LINE
  5
306
330
1F
100
AcDbEntity
  8
0-0
  6
Continuous
 62
    92
370
    13
100
AcDbLine
 10
822.1804374393747
 20
1135.461737675496
 30
0.0
 11
822.1804374393747
 21
-1047.538262324505
 31
0.0
  0
LINE
  5
307
330
1F
100
AcDbEntity
  8
0-0
  6
Continuous
 62
     7
370
     9
100
AcDbLine
 10
784.1804374393744
 20
1127.461737675498
 30
0.0
 11
822.1804374393747
 21
1127.461737675498
 31
0.0
  0
LINE
  5
308
330
1F
100
AcDbEntity
  8
0-0
  6
JWW_DASHED1
 62
   120
370
     5
100
AcDbLine
 10
784.1804374393744
 20
888.0625694598148
 30
0.0
 11
822.1804374393747
 21
926.0625694598036
 31
0.0
  0
LINE
  5
309
330
1F
100
AcDbEntity
  8
0-0
  6
JWW_DASHED1
 62
   120
370
     5
100
AcDbLine
 10
784.1804374393744
 20
917.7610542654702
 30
0.0
 11
822.1804374393747
 21
955.761054265459
 31
0.0
  0
LINE
  5
30A
330
1F
100
AcDbEntity
  8
0-0
  6
JWW_DASHED1
 62
   120
370
     5
100
AcDbLine
 10
784.1804374393744
 20
897.9620643950332
 30
0.0
 11
822.1804374393747
 21
935.9620643950221
 31
0.0
  0
LINE
  5
30B
330
1F
100
AcDbEntity
  8
0-0
  6
JWW_DASHED1
 62
   120
370
     5
100
AcDbLine
 10
784.1804374393744
 20
907.8615593302517
 30
0.0
 11
822.1804374393747
 21
945.8615593302407
 31
0.0
  0
LINE
  5
30C
330
1F
100
AcDbEntity
  8
0-0
  6
JWW_DASHED1
 62
   120
370
     5
100
AcDbLine
 10
784.1804374393744
 20
937.5600441359072
 30
0.0
 11
822.1804374393747
 21
975.5600441358961
 31
0.0
  0
LINE
  5
30D
330
1F
100
AcDbEntity
  8
0-0
  6
JWW_DASHED1
 62
   120
370
     5
100
AcDbLine
 10
784.1804374393744
 20
927.6605492006887
 30
0.0
 11
822.1804374393747
 21
965.6605492006776
 31
0.0
  0
LINE
  5
30E
330
1F
100
AcDbEntity
  8
0-0
  6
JWW_DASHED1
 62
   120
370
     5
100
AcDbLine
 10
784.1804374393744
 20
957.3590340063441
 30
0.0
 11
822.1804374393747
 21
995.359034006333
 31
0.0
  0
LINE
  5
30F
330
1F
100
AcDbEntity
  8
0-0
  6
JWW_DASHED1
 62
   120
370
     5
100
AcDbLine
 10
784.1804374393744
 20
947.4595390711256
 30
0.0
 11
822.1804374393747
 21
985.4595390711145
 31
0.0
  0
LINE
  5
310
330
1F
100
AcDbEntity
  8
0-0
  6
JWW_DASHED1
 62
   120
370
     5
100
AcDbLine
 10
784.1804374393744
 20
977.158023876781
 30
0.0
 11
822.1804374393747
 21
1015.15802387677
 31
0.0
  0
LINE
  5
311
330
1F
100
AcDbEntity
  8
0-0
  6
JWW_DASHED1
 62
   120
370
     5
100
AcDbLine
 10
784.1804374393744
 20
967.2585289415626
 30
0.0
 11
822.1804374393747
 21
1005.258528941552
 31
0.0
  0
LINE
  5
312
330
1F
100
AcDbEntity
  8
0-0
  6
JWW_DASHED1
 62
   120
370
     5
100
AcDbLine
 10
784.1804374393744
 20
996.9570137472181
 30
0.0
 11
822.1804374393747
 21
1034.957013747207
 31
0.0
  0
LINE
  5
313
330
1F
100
AcDbEntity
  8
0-0
  6
JWW_DASHED1
 62
   120
370
     5
100
AcDbLine
 10
784.1804374393744
 20
987.0575188119996
 30
0.0
 11
822.1804374393747
 21
1025.057518811988
 31
0.0
  0
LINE
  5
314
330
1F
100
AcDbEntity
  8
0-0
  6
JWW_DASHED1
 62
   120
370
     5
100
AcDbLine
 10
784.1804374393744
 20
1016.756003617655
 30
0.0
 11
822.1804374393747
 21
1054.756003617644
 31
0.0
  0
LINE
  5
315
330
1F
100
AcDbEntity
  8
0-0
  6
JWW_DASHED1
 62
   120
370
     5
100
AcDbLine
 10
784.1804374393744
 20
1006.856508682437
 30
0.0
 11
822.1804374393747
 21
1044.856508682426
 31
0.0
  0
LINE
  5
316
330
1F
100
AcDbEntity
  8
0-0
  6
JWW_DASHED1
 62
   120
370
     5
100
AcDbLine
 10
784.1804374393744
 20
1036.554993488092
 30
0.0
 11
822.1804374393747
 21
1074.554993488081
 31
0.0
  0
LINE
  5
317
330
1F
100
AcDbEntity
  8
0-0
  6
JWW_DASHED1
 62
   120
370
     5
100
AcDbLine
 10
784.1804374393744
 20
1026.655498552873
 30
0.0
 11
822.1804374393747
 21
1064.655498552862
 31
0.0
  0
LINE
  5
318
330
1F
100
AcDbEntity
  8
0-0
  6
JWW_DASHED1
 62
   120
370
     5
100
AcDbLine
 10
784.1804374393744
 20
1056.353983358529
 30
0.0
 11
822.1804374393747
 21
1094.353983358518
 31
0.0
  0
LINE
  5
319
330
1F
100
AcDbEntity
  8
0-0
  6
JWW_DASHED1
 62
   120
370
     5
100
AcDbLine
 10
784.1804374393744
 20
1046.454488423311
 30
0.0
 11
822.1804374393747
 21
1084.454488423299
 31
0.0
  0
LINE
  5
31A
330
1F
100
AcDbEntity
  8
0-0
  6
JWW_DASHED1
 62
   120
370
     5
100
AcDbLine
 10
784.1804374393744
 20
1076.152973228966
 30
0.0
 11
822.1804374393747
 21
1114.152973228955
 31
0.0
  0
LINE
  5
31B
330
1F
100
AcDbEntity
  8
0-0
  6
JWW_DASHED1
 62
   120
370
     5
100
AcDbLine
 10
784.1804374393744
 20
1066.253478293747
 30
0.0
 11
822.1804374393747
 21
1104.253478293736
 31
0.0
  0
LINE
  5
31C
330
1F
100
AcDbEntity
  8
0-0
  6
JWW_DASHED1
 62
   120
370
     5
100
AcDbLine
 10
784.1804374393744
 20
1086.052468164184
 30
0.0
 11
822.1804374393747
 21
1124.052468164173
 31
0.0
  0
LINE
  5
31D
330
1F
100
AcDbEntity
  8
0-0
  6
JWW_DASHED1
 62
   120
370
     5
100
AcDbLine
 10
784.1804374393744
 20
1115.75095296984
 30
0.0
 11
795.8912221450357
 21
1127.461737675498
 31
0.0
  0
LINE
  5
31E
330
1F
100
AcDbEntity
  8
0-0
  6
JWW_DASHED1
 62
   120
370
     5
100
AcDbLine
 10
784.1804374393744
 20
1095.951963099403
 30
0.0
 11
815.6902120154787
 21
1127.461737675498
 31
0.0
  0
LINE
  5
31F
330
1F
100
AcDbEntity
  8
0-0
  6
JWW_DASHED1
 62
   120
370
     5
100
AcDbLine
 10
784.1804374393744
 20
1105.851458034621
 30
0.0
 11
805.7907170802572
 21
1127.461737675498
 31
0.0
  0
LINE
  5
320
330
1F
100
AcDbEntity
  8
寸法
  6
Continuous
 62
   120
370
     5
100
AcDbLine
 10
-1638.819562560624
 20
-1067.538262324505
 30
0.0
 11
-1238.819562560625
 21
-1067.538262324505
 31
0.0
  0
LINE
  5
321
330
1F
100
AcDbEntity
  8
寸法
  6
Continuous
 62
   120
370
     5
100
AcDbLine
 10
-1438.819562560624
 20
-1047.538262324504
 30
0.0
 11
-1238.819562560625
 21
-1047.538262324504
 31
0.0
  0
LWPOLYLINE
  5
322
330
1F
100
AcDbEntity
  8
寸法
  6
Continuous
 62
     7
370
     9
100
AcDbPolyline
 90
        4
 70
     1
 43
3.0
 10
-1637.319562560624
 20
-1067.538262324505
 42
0.4142135623731
 10
-1638.819562560624
 20
-1066.038262324505
 42
0.4142135623731
 10
-1640.319562560624
 20
-1067.538262324505
 42
0.4142135623731
 10
-1638.819562560624
 20
-1069.038262324505
 42
0.4142135623731
  0
LWPOLYLINE
  5
323
330
1F
100
AcDbEntity
  8
寸法
  6
Continuous
 62
     7
370
     9
100
AcDbPolyline
 90
        4
 70
     1
 43
3.0
 10
-1437.319562560624
 20
-1047.538262324504
 42
0.4142135623731
 10
-1438.819562560624
 20
-1046.038262324504
 42
0.4142135623731
 10
-1440.319562560624
 20
-1047.538262324504
 42
0.4142135623731
 10
-1438.819562560624
 20
-1049.038262324504
 42
0.4142135623731
  0
LINE
  5
324
330
1F
100
AcDbEntity
  8
寸法
  6
Continuous
 62
   120
370
     5
100
AcDbLine
 10
-1158.819562560623
 20
-1517.538262324505
 30
0.0
 11
-1158.819562560623
 21
-1117.538262324505
 31
0.0
  0
LINE
  5
325
330
1F
100
AcDbEntity
  8
寸法
  6
Continuous
 62
   120
370
     5
100
AcDbLine
 10
-1188.819562560623
 20
-1717.538262324505
 30
0.0
 11
-1188.819562560623
 21
-1117.538262324505
 31
0.0
  0
LINE
  5
326
330
1F
100
AcDbEntity
  8
寸法
  6
Continuous
 62
   120
370
     5
100
AcDbLine
 10
-1158.819562560623
 20
-1517.538262324505
 30
0.0
 11
1205.180437439376
 21
-1517.538262324505
 31
0.0
  0
LINE
  5
327
330
1F
100
AcDbEntity
  8
寸法
  6
Continuous
 62
   120
370
     5
100
AcDbLine
 10
1205.180437439376
 20
-1517.538262324505
 30
0.0
 11
1205.180437439376
 21
-1117.538262324505
 31
0.0
  0
LINE
  5
328
330
1F
100
AcDbEntity
  8
寸法
  6
Continuous
 62
   120
370
     5
100
AcDbLine
 10
-1188.819562560623
 20
-1717.538262324505
 30
0.0
 11
1235.180437439376
 21
-1717.538262324505
 31
0.0
  0
LINE
  5
329
330
1F
100
AcDbEntity
  8
寸法
  6
Continuous
 62
   120
370
     5
100
AcDbLine
 10
1235.180437439376
 20
-1717.538262324505
 30
0.0
 11
1235.180437439376
 21
-1117.538262324505
 31
0.0
  0
LINE
  5
32A
330
1F
100
AcDbEntity
  8
寸法
  6
Continuous
 62
   120
370
     5
100
AcDbLine
 10
398.1804374393766
 20
-1317.538262324504
 30
0.0
 11
398.1804374393766
 21
-1117.538262324505
 31
0.0
  0
LINE
  5
32B
330
1F
100
AcDbEntity
  8
寸法
  6
Continuous
 62
   120
370
     5
100
AcDbLine
 10
1208.180437439377
 20
-1317.538262324504
 30
0.0
 11
1208.180437439377
 21
-1117.538262324505
 31
0.0
  0
LINE
  5
32C
330
1F
100
AcDbEntity
  8
寸法
  6
Continuous
 62
   120
370
     5
100
AcDbLine
 10
1208.180437439377
 20
-1317.538262324504
 30
0.0
 11
398.1804374393766
 21
-1317.538262324504
 31
0.0
  0
LWPOLYLINE
  5
32D
330
1F
100
AcDbEntity
  8
寸法
  6
Continuous
 62
     7
370
     9
100
AcDbPolyline
 90
        4
 70
     1
 43
3.0
 10
-1157.319562560623
 20
-1517.538262324505
 42
0.4142135623731
 10
-1158.819562560623
 20
-1516.038262324505
 42
0.4142135623731
 10
-1160.319562560623
 20
-1517.538262324505
 42
0.4142135623731
 10
-1158.819562560623
 20
-1519.038262324505
 42
0.4142135623731
  0
LWPOLYLINE
  5
32E
330
1F
100
AcDbEntity
  8
寸法
  6
Continuous
 62
     7
370
     9
100
AcDbPolyline
 90
        4
 70
     1
 43
3.0
 10
-1187.319562560623
 20
-1717.538262324505
 42
0.4142135623731
 10
-1188.819562560623
 20
-1716.038262324505
 42
0.4142135623731
 10
-1190.319562560623
 20
-1717.538262324505
 42
0.4142135623731
 10
-1188.819562560623
 20
-1719.038262324505
 42
0.4142135623731
  0
LWPOLYLINE
  5
32F
330
1F
100
AcDbEntity
  8
寸法
  6
Continuous
 62
     7
370
     9
100
AcDbPolyline
 90
        4
 70
     1
 43
3.0
 10
1206.680437439376
 20
-1517.538262324505
 42
0.4142135623731
 10
1205.180437439376
 20
-1516.038262324505
 42
0.4142135623731
 10
1203.680437439376
 20
-1517.538262324505
 42
0.4142135623731
 10
1205.180437439376
 20
-1519.038262324505
 42
0.4142135623731
  0
LWPOLYLINE
  5
330
330
1F
100
AcDbEntity
  8
寸法
  6
Continuous
 62
     7
370
     9
100
AcDbPolyline
 90
        4
 70
     1
 43
3.0
 10
1236.680437439376
 20
-1717.538262324505
 42
0.4142135623731
 10
1235.180437439376
 20
-1716.038262324505
 42
0.4142135623731
 10
1233.680437439376
 20
-1717.538262324505
 42
0.4142135623731
 10
1235.180437439376
 20
-1719.038262324504
 42
0.4142135623731
  0
LWPOLYLINE
  5
331
330
1F
100
AcDbEntity
  8
寸法
  6
Continuous
 62
     7
370
     9
100
AcDbPolyline
 90
        4
 70
     1
 43
3.0
 10
399.6804374393766
 20
-1317.538262324504
 42
0.4142135623731
 10
398.1804374393766
 20
-1316.038262324504
 42
0.4142135623731
 10
396.6804374393766
 20
-1317.538262324504
 42
0.4142135623731
 10
398.1804374393766
 20
-1319.038262324504
 42
0.4142135623731
  0
LWPOLYLINE
  5
332
330
1F
100
AcDbEntity
  8
寸法
  6
Continuous
 62
     7
370
     9
100
AcDbPolyline
 90
        4
 70
     1
 43
3.0
 10
1209.680437439377
 20
-1317.538262324504
 42
0.4142135623731
 10
1208.180437439377
 20
-1316.038262324504
 42
0.4142135623731
 10
1206.680437439377
 20
-1317.538262324504
 42
0.4142135623731
 10
1208.180437439377
 20
-1319.038262324504
 42
0.4142135623731
  0
LWPOLYLINE
  5
333
330
1F
100
AcDbEntity
  8
寸法
  6
Continuous
 62
     7
370
     9
100
AcDbPolyline
 90
        4
 70
     1
 43
3.0
 10
-1637.319562560624
 20
1179.461737675495
 42
0.4142135623731
 10
-1638.819562560624
 20
1180.961737675495
 42
0.4142135623731
 10
-1640.319562560624
 20
1179.461737675495
 42
0.4142135623731
 10
-1638.819562560624
 20
1177.961737675495
 42
0.4142135623731
  0
LINE
  5
334
330
1F
100
AcDbEntity
  8
寸法
  6
Continuous
 62
   120
370
     5
100
AcDbLine
 10
-1638.819562560624
 20
1179.461737675495
 30
0.0
 11
-1238.819562560625
 21
1179.461737675495
 31
0.0
  0
LINE
  5
335
330
1F
100
AcDbEntity
  8
寸法
  6
Continuous
 62
   120
370
     5
100
AcDbLine
 10
-1638.819562560624
 20
1179.461737675495
 30
0.0
 11
-1638.819562560624
 21
-1067.538262324505
 31
0.0
  0
LWPOLYLINE
  5
336
330
1F
100
AcDbEntity
  8
寸法
  6
Continuous
 62
     7
370
     9
100
AcDbPolyline
 90
        4
 70
     1
 43
3.0
 10
-1437.319562560624
 20
1135.461737675495
 42
0.4142135623731
 10
-1438.819562560624
 20
1136.961737675494
 42
0.4142135623731
 10
-1440.319562560624
 20
1135.461737675495
 42
0.4142135623731
 10
-1438.819562560624
 20
1133.961737675495
 42
0.4142135623731
  0
LINE
  5
337
330
1F
100
AcDbEntity
  8
寸法
  6
Continuous
 62
   120
370
     5
100
AcDbLine
 10
-1438.819562560624
 20
1135.461737675495
 30
0.0
 11
-1438.819562560624
 21
-1047.538262324504
 31
0.0
  0
LINE
  5
338
330
1F
100
AcDbEntity
  8
寸法
  6
Continuous
 62
   120
370
     5
100
AcDbLine
 10
-1438.819562560624
 20
1135.461737675495
 30
0.0
 11
-1238.819562560625
 21
1135.461737675495
 31
0.0
  0
MTEXT
  5
339
330
1F
100
AcDbEntity
  8
寸法
  6
Continuous
 62
     7
370
    70
100
AcDbMText
 10
-1653.819562560624
 20
-168.2132623245046
 30
0.0
 40
57.14999999999999
 41
412.5
 46
0.0
 71
     7
 72
     1
  1
{\fＭＳ ゴシック|b0|i0|c128|p49;枠外＝2,247}
 11
6.123031769111886E-17
 21
1.0
 31
0.0
 73
     1
 44
1.0
  0
MTEXT
  5
33A
330
1F
100
AcDbEntity
  8
寸法
  6
Continuous
 62
     7
370
    70
100
AcDbMText
 10
-1453.819562560624
 20
-174.2132623245043
 30
0.0
 40
57.14999999999999
 41
412.5
 46
0.0
 71
     7
 72
     1
  1
{\fＭＳ ゴシック|b0|i0|c128|p49;ＤＨ＝2,183}
 11
6.123031769111886E-17
 21
1.0
 31
0.0
 73
     1
 44
1.0
  0
MTEXT
  5
33B
330
1F
100
AcDbEntity
  8
寸法
  6
Continuous
 62
     7
370
   211
100
AcDbMText
 10
634.4304374393766
 20
-1311.463262324504
 30
0.0
 40
57.15
 41
337.5
 46
0.0
 71
     7
 72
     1
  1
{\fＭＳ ゴシック|b0|i0|c128|p49;ＤＷ＝810}
 73
     1
 44
1.0
  0
MTEXT
  5
33C
330
1F
100
AcDbEntity
  8
寸法
  6
Continuous
 62
     7
370
   211
100
AcDbMText
 10
-183.0695625606234
 20
-1511.463262324505
 30
0.0
 40
57.14999999999999
 41
412.5
 46
0.0
 71
     7
 72
     1
  1
{\fＭＳ ゴシック|b0|i0|c128|p49;枠内＝2,364}
 73
     1
 44
1.0
  0
MTEXT
  5
33D
330
1F
100
AcDbEntity
  8
寸法
  6
Continuous
 62
     7
370
   211
100
AcDbMText
 10
-183.0695625606234
 20
-1711.463262324505
 30
0.0
 40
57.14999999999999
 41
412.5
 46
0.0
 71
     7
 72
     1
  1
{\fＭＳ ゴシック|b0|i0|c128|p49;枠外＝2,424}
 73
     1
 44
1.0
  0
ENDSEC
  0
SECTION
  2
OBJECTS
  0
DICTIONARY
  5
C
330
0
100
AcDbDictionary
281
     1
  3
ACAD_GROUP
350
D
  3
ACAD_LAYOUT
350
1A
  3
ACAD_MATERIAL
350
3B
  3
ACAD_MLEADERSTYLE
350
33F
  3
ACAD_MLINESTYLE
350
17
  3
ACAD_PLOTSETTINGS
350
19
  3
ACAD_PLOTSTYLENAME
350
E
  3
ACAD_TABLESTYLE
350
33E
  3
ACAD_VISUALSTYLE
350
2A
  0
DICTIONARY
  5
D
102
{ACAD_REACTORS
330
C
102
}
330
C
100
AcDbDictionary
281
     1
  0
DICTIONARY
  5
1A
102
{ACAD_REACTORS
330
C
102
}
330
C
100
AcDbDictionary
281
     1
  3
Layout1
350
1E
  3
Layout2
350
26
  3
Model
350
22
  0
DICTIONARY
  5
3B
102
{ACAD_REACTORS
330
C
102
}
330
C
100
AcDbDictionary
281
     1
  3
ByBlock
350
3D
  3
ByLayer
350
3C
  3
Global
350
3E
  0
DICTIONARY
  5
33F
102
{ACAD_REACTORS
330
C
102
}
330
C
100
AcDbDictionary
281
     1
  0
DICTIONARY
  5
17
102
{ACAD_REACTORS
330
C
102
}
330
C
100
AcDbDictionary
281
     1
  3
Standard
350
18
  0
DICTIONARY
  5
19
102
{ACAD_REACTORS
330
C
102
}
330
C
100
AcDbDictionary
281
     1
  0
ACDBDICTIONARYWDFLT
  5
E
102
{ACAD_REACTORS
330
C
102
}
330
C
100
AcDbDictionary
281
     1
  3
Normal
350
F
100
AcDbDictionaryWithDefault
340
F
  0
DICTIONARY
  5
33E
102
{ACAD_REACTORS
330
C
102
}
330
C
100
AcDbDictionary
281
     1
  0
DICTIONARY
  5
2A
102
{ACAD_REACTORS
330
C
102
}
330
C
100
AcDbDictionary
281
     1
  3
2dWireframe
350
2F
  3
3D Hidden
350
31
  3
3dWireframe
350
30
  3
Basic
350
32
  3
Brighten
350
36
  3
ColorChange
350
3A
  3
Conceptual
350
34
  3
Dim
350
35
  3
Facepattern
350
39
  3
Flat
350
2B
  3
FlatWithEdges
350
2C
  3
Gouraud
350
2D
  3
GouraudWithEdges
350
2E
  3
Linepattern
350
38
  3
Realistic
350
33
  3
Thicken
350
37
  0
LAYOUT
  5
1E
102
{ACAD_REACTORS
330
1A
102
}
330
1A
100
AcDbPlotSettings
  1

  2
none_device
  4

  6

 40
0.0
 41
0.0
 42
0.0
 43
0.0
 44
0.0
 45
0.0
 46
0.0
 47
0.0
 48
0.0
 49
0.0
140
0.0
141
0.0
142
1.0
143
1.0
 70
   688
 72
     0
 73
     0
 74
     5
  7

 75
    16
 76
     0
 77
     5
 78
   300
147
1.0
148
0.0
149
0.0
100
AcDbLayout
  1
Layout1
 70
     1
 71
     1
 10
0.0
 20
0.0
 11
420.0
 21
297.0
 12
0.0
 22
0.0
 32
0.0
 14
1.000000000000000E+20
 24
1.000000000000000E+20
 34
1.000000000000000E+20
 15
-1.000000000000000E+20
 25
-1.000000000000000E+20
 35
-1.000000000000000E+20
146
0.0
 13
0.0
 23
0.0
 33
0.0
 16
1.0
 26
0.0
 36
0.0
 17
0.0
 27
1.0
 37
0.0
 76
     0
330
1B
  0
LAYOUT
  5
26
102
{ACAD_REACTORS
330
1A
102
}
330
1A
100
AcDbPlotSettings
  1

  2
none_device
  4

  6

 40
0.0
 41
0.0
 42
0.0
 43
0.0
 44
0.0
 45
0.0
 46
0.0
 47
0.0
 48
0.0
 49
0.0
140
0.0
141
0.0
142
1.0
143
1.0
 70
   688
 72
     0
 73
     0
 74
     5
  7

 75
    16
 76
     0
 77
     5
 78
   300
147
1.0
148
0.0
149
0.0
100
AcDbLayout
  1
Layout2
 70
     1
 71
     2
 10
0.0
 20
0.0
 11
0.0
 21
0.0
 12
0.0
 22
0.0
 32
0.0
 14
0.0
 24
0.0
 34
0.0
 15
0.0
 25
0.0
 35
0.0
146
0.0
 13
0.0
 23
0.0
 33
0.0
 16
1.0
 26
0.0
 36
0.0
 17
0.0
 27
1.0
 37
0.0
 76
     0
330
23
  0
LAYOUT
  5
22
102
{ACAD_REACTORS
330
1A
102
}
330
1A
100
AcDbPlotSettings
  1

  2
none_device
  4

  6

 40
0.0
 41
0.0
 42
0.0
 43
0.0
 44
0.0
 45
0.0
 46
0.0
 47
0.0
 48
0.0
 49
0.0
140
0.0
141
0.0
142
1.0
143
1.0
 70
  1712
 72
     0
 73
     0
 74
     0
  7

 75
     0
 76
     0
 77
     5
 78
   300
147
1.0
148
0.0
149
0.0
100
AcDbLayout
  1
Model
 70
     1
 71
     0
 10
-4455.0
 20
-3150.0
 11
4455.0
 21
3150.0
 12
0.0
 22
0.0
 32
0.0
 14
-4455.0
 24
-3150.0
 34
0.0
 15
4455.0
 25
3150.0
 35
0.0
146
0.0
 13
0.0
 23
0.0
 33
0.0
 16
1.0
 26
0.0
 36
0.0
 17
0.0
 27
1.0
 37
0.0
 76
     0
330
1F
331
29
  0
MATERIAL
  5
3D
102
{ACAD_REACTORS
330
3B
102
}
330
3B
100
AcDbMaterial
  1
ByBlock
 72
     1
 94
      127
  0
MATERIAL
  5
3C
102
{ACAD_REACTORS
330
3B
102
}
330
3B
100
AcDbMaterial
  1
ByLayer
 72
     1
 94
      127
  0
MATERIAL
  5
3E
102
{ACAD_REACTORS
330
3B
102
}
330
3B
100
AcDbMaterial
  1
Global
 72
     1
 94
      127
  0
MLINESTYLE
  5
18
102
{ACAD_REACTORS
330
17
102
}
330
17
100
AcDbMlineStyle
  2
Standard
 70
     0
  3

 62
   256
 51
90.0
 52
90.0
 71
     2
 49
0.5
 62
   256
  6
BYLAYER
 49
-0.5
 62
   256
  6
BYLAYER
  0
ACDBPLACEHOLDER
  5
F
102
{ACAD_REACTORS
330
E
102
}
330
E
  0
VISUALSTYLE
  5
2F
102
{ACAD_REACTORS
330
2A
102
}
330
2A
100
AcDbVisualStyle
  2
2dWireframe
 70
     4
177
     2
291
     0
 71
     0
176
     1
 72
     2
176
     1
 73
     0
176
     1
 90
        0
176
     1
 40
-0.6
176
     1
 41
-30.0
176
     1
 62
     5
 63
     7
421
 16777215
176
     1
 74
     1
176
     1
 91
        4
176
     1
 64
     7
176
     1
 65
   257
176
     1
 75
     1
176
     1
175
     1
176
     1
 42
1.0
176
     1
 92
        0
176
     1
 66
   257
176
     1
 43
1.0
176
     1
 76
     1
176
     1
 77
     6
176
     1
 78
     2
176
     1
 67
     7
176
     1
 79
     5
176
     1
170
     0
176
     1
171
     0
176
     1
290
     0
176
     1
 93
        1
176
     1
 44
0.0
176
     1
173
     0
176
     1
  0
VISUALSTYLE
  5
31
102
{ACAD_REACTORS
330
2A
102
}
330
2A
100
AcDbVisualStyle
  2
3D Hidden
 70
     6
177
     2
291
     0
 71
     1
176
     1
 72
     2
176
     1
 73
     2
176
     1
 90
        0
176
     1
 40
-0.6
176
     1
 41
-30.0
176
     1
 62
     5
 63
     7
421
 16777215
176
     1
 74
     2
176
     1
 91
        2
176
     1
 64
     7
176
     1
 65
   257
176
     1
 75
     2
176
     1
175
     1
176
     1
 42
40.0
176
     1
 92
        0
176
     1
 66
   257
176
     1
 43
1.0
176
     1
 76
     1
176
     1
 77
     6
176
     1
 78
     2
176
     1
 67
     7
176
     1
 79
     3
176
     1
170
     0
176
     1
171
     0
176
     1
290
     0
176
     1
 93
        1
176
     1
 44
0.0
176
     1
173
     0
176
     1
  0
VISUALSTYLE
  5
30
102
{ACAD_REACTORS
330
2A
102
}
330
2A
100
AcDbVisualStyle
  2
3dWireframe
 70
     5
177
     2
291
     0
 71
     0
176
     1
 72
     2
176
     1
 73
     0
176
     1
 90
        0
176
     1
 40
-0.6
176
     1
 41
-30.0
176
     1
 62
     5
 63
     7
421
 16777215
176
     1
 74
     1
176
     1
 91
        4
176
     1
 64
     7
176
     1
 65
   257
176
     1
 75
     1
176
     1
175
     1
176
     1
 42
1.0
176
     1
 92
        0
176
     1
 66
   257
176
     1
 43
1.0
176
     1
 76
     1
176
     1
 77
     6
176
     1
 78
     2
176
     1
 67
     7
176
     1
 79
     5
176
     1
170
     0
176
     1
171
     0
176
     1
290
     0
176
     1
 93
        1
176
     1
 44
0.0
176
     1
173
     0
176
     1
  0
VISUALSTYLE
  5
32
102
{ACAD_REACTORS
330
2A
102
}
330
2A
100
AcDbVisualStyle
  2
Basic
 70
     7
177
     2
291
     1
 71
     1
176
     1
 72
     0
176
     1
 73
     1
176
     1
 90
        0
176
     1
 40
-0.6
176
     1
 41
-30.0
176
     1
 62
     5
 63
     7
421
 16777215
176
     1
 74
     0
176
     1
 91
        4
176
     1
 64
     7
176
     1
 65
   257
176
     1
 75
     1
176
     1
175
     1
176
     1
 42
1.0
176
     1
 92
        8
176
     1
 66
     7
176
     1
 43
1.0
176
     1
 76
     1
176
     1
 77
     6
176
     1
 78
     2
176
     1
 67
     7
176
     1
 79
     5
176
     1
170
     0
176
     1
171
     0
176
     1
290
     0
176
     1
 93
        1
176
     1
 44
0.0
176
     1
173
     0
176
     1
  0
VISUALSTYLE
  5
36
102
{ACAD_REACTORS
330
2A
102
}
330
2A
100
AcDbVisualStyle
  2
Brighten
 70
    12
177
     2
291
     1
 71
     2
176
     1
 72
     2
176
     1
 73
     0
176
     1
 90
        0
176
     1
 40
-0.6
176
     1
 41
-30.0
176
     1
 62
     5
 63
     7
421
 16777215
176
     1
 74
     1
176
     1
 91
        4
176
     1
 64
     7
176
     1
 65
   257
176
     1
 75
     1
176
     1
175
     1
176
     1
 42
1.0
176
     1
 92
        8
176
     1
 66
     7
176
     1
 43
1.0
176
     1
 76
     1
176
     1
 77
     6
176
     1
 78
     2
176
     1
 67
     7
176
     1
 79
     5
176
     1
170
     0
176
     1
171
     0
176
     1
290
     0
176
     1
 93
        1
176
     1
 44
50.0
176
     1
173
     0
176
     1
  0
VISUALSTYLE
  5
3A
102
{ACAD_REACTORS
330
2A
102
}
330
2A
100
AcDbVisualStyle
  2
ColorChange
 70
    16
177
     2
291
     1
 71
     2
176
     1
 72
     2
176
     1
 73
     3
176
     1
 90
        0
176
     1
 40
-0.6
176
     1
 41
-30.0
176
     1
 62
     5
 63
     8
421
  8421504
176
     1
 74
     1
176
     1
 91
        4
176
     1
 64
     7
176
     1
 65
   257
176
     1
 75
     1
176
     1
175
     1
176
     1
 42
1.0
176
     1
 92
        8
176
     1
 66
     8
424
  8421504
176
     1
 43
1.0
176
     1
 76
     1
176
     1
 77
     6
176
     1
 78
     2
176
     1
 67
     7
176
     1
 79
     5
176
     1
170
     0
176
     1
171
     0
176
     1
290
     0
176
     1
 93
        1
176
     1
 44
0.0
176
     1
173
     0
176
     1
  0
VISUALSTYLE
  5
34
102
{ACAD_REACTORS
330
2A
102
}
330
2A
100
AcDbVisualStyle
  2
Conceptual
 70
     9
177
     2
291
     0
 71
     3
176
     1
 72
     2
176
     1
 73
     0
176
     1
 90
        0
176
     1
 40
-0.6
176
     1
 41
-30.0
176
     1
 62
     5
 63
     7
421
 16777215
176
     1
 74
     2
176
     1
 91
        2
176
     1
 64
     7
176
     1
 65
   257
176
     1
 75
     1
176
     1
175
     1
176
     1
 42
40.0
176
     1
 92
        8
176
     1
 66
     7
176
     1
 43
1.0
176
     1
 76
     1
176
     1
 77
     6
176
     1
 78
     2
176
     1
 67
     7
176
     1
 79
     3
176
     1
170
     0
176
     1
171
     0
176
     1
290
     0
176
     1
 93
        1
176
     1
 44
0.0
176
     1
173
     0
176
     1
  0
VISUALSTYLE
  5
35
102
{ACAD_REACTORS
330
2A
102
}
330
2A
100
AcDbVisualStyle
  2
Dim
 70
    11
177
     2
291
     1
 71
     2
176
     1
 72
     2
176
     1
 73
     0
176
     1
 90
        0
176
     1
 40
-0.6
176
     1
 41
-30.0
176
     1
 62
     5
 63
     7
421
 16777215
176
     1
 74
     1
176
     1
 91
        4
176
     1
 64
     7
176
     1
 65
   257
176
     1
 75
     1
176
     1
175
     1
176
     1
 42
1.0
176
     1
 92
        8
176
     1
 66
     7
176
     1
 43
1.0
176
     1
 76
     1
176
     1
 77
     6
176
     1
 78
     2
176
     1
 67
     7
176
     1
 79
     5
176
     1
170
     0
176
     1
171
     0
176
     1
290
     0
176
     1
 93
        1
176
     1
 44
-50.0
176
     1
173
     0
176
     1
  0
VISUALSTYLE
  5
39
102
{ACAD_REACTORS
330
2A
102
}
330
2A
100
AcDbVisualStyle
  2
Facepattern
 70
    15
177
     2
291
     1
 71
     2
176
     1
 72
     2
176
     1
 73
     0
176
     1
 90
        0
176
     1
 40
-0.6
176
     1
 41
-30.0
176
     1
 62
     5
 63
     7
421
 16777215
176
     1
 74
     1
176
     1
 91
        4
176
     1
 64
     7
176
     1
 65
   257
176
     1
 75
     1
176
     1
175
     1
176
     1
 42
1.0
176
     1
 92
        8
176
     1
 66
     7
176
     1
 43
1.0
176
     1
 76
     1
176
     1
 77
     6
176
     1
 78
     2
176
     1
 67
     7
176
     1
 79
     5
176
     1
170
     0
176
     1
171
     0
176
     1
290
     0
176
     1
 93
        1
176
     1
 44
0.0
176
     1
173
     0
176
     1
  0
VISUALSTYLE
  5
2B
102
{ACAD_REACTORS
330
2A
102
}
330
2A
100
AcDbVisualStyle
  2
Flat
 70
     0
177
     2
291
     1
 71
     2
176
     1
 72
     1
176
     1
 73
     1
176
     1
 90
        2
176
     1
 40
-0.6
176
     1
 41
30.0
176
     1
 62
     5
 63
     7
421
 16777215
176
     1
 74
     0
176
     1
 91
        4
176
     1
 64
     7
176
     1
 65
   257
176
     1
 75
     1
176
     1
175
     1
176
     1
 42
1.0
176
     1
 92
        8
176
     1
 66
     7
176
     1
 43
1.0
176
     1
 76
     1
176
     1
 77
     6
176
     1
 78
     2
176
     1
 67
     7
176
     1
 79
     5
176
     1
170
     0
176
     1
171
     0
176
     1
290
     0
176
     1
 93
       13
176
     1
 44
0.0
176
     1
173
     0
176
     1
  0
VISUALSTYLE
  5
2C
102
{ACAD_REACTORS
330
2A
102
}
330
2A
100
AcDbVisualStyle
  2
FlatWithEdges
 70
     1
177
     2
291
     1
 71
     2
176
     1
 72
     1
176
     1
 73
     1
176
     1
 90
        2
176
     1
 40
-0.6
176
     1
 41
30.0
176
     1
 62
     5
 63
     7
421
 16777215
176
     1
 74
     1
176
     1
 91
        4
176
     1
 64
     7
176
     1
 65
   257
176
     1
 75
     1
176
     1
175
     1
176
     1
 42
1.0
176
     1
 92
        0
176
     1
 66
   257
176
     1
 43
1.0
176
     1
 76
     1
176
     1
 77
     6
176
     1
 78
     2
176
     1
 67
     7
176
     1
 79
     5
176
     1
170
     0
176
     1
171
     0
176
     1
290
     0
176
     1
 93
       13
176
     1
 44
0.0
176
     1
173
     0
176
     1
  0
VISUALSTYLE
  5
2D
102
{ACAD_REACTORS
330
2A
102
}
330
2A
100
AcDbVisualStyle
  2
Gouraud
 70
     2
177
     2
291
     1
 71
     2
176
     1
 72
     2
176
     1
 73
     1
176
     1
 90
        2
176
     1
 40
-0.6
176
     1
 41
30.0
176
     1
 62
     5
 63
     7
421
 16777215
176
     1
 74
     0
176
     1
 91
        4
176
     1
 64
     7
176
     1
 65
   257
176
     1
 75
     1
176
     1
175
     1
176
     1
 42
1.0
176
     1
 92
        0
176
     1
 66
     7
176
     1
 43
1.0
176
     1
 76
     1
176
     1
 77
     6
176
     1
 78
     2
176
     1
 67
     7
176
     1
 79
     5
176
     1
170
     0
176
     1
171
     0
176
     1
290
     0
176
     1
 93
       13
176
     1
 44
0.0
176
     1
173
     0
176
     1
  0
VISUALSTYLE
  5
2E
102
{ACAD_REACTORS
330
2A
102
}
330
2A
100
AcDbVisualStyle
  2
GouraudWithEdges
 70
     3
177
     2
291
     1
 71
     2
176
     1
 72
     2
176
     1
 73
     1
176
     1
 90
        2
176
     1
 40
-0.6
176
     1
 41
30.0
176
     1
 62
     5
 63
     7
421
 16777215
176
     1
 74
     1
176
     1
 91
        4
176
     1
 64
     7
176
     1
 65
   257
176
     1
 75
     1
176
     1
175
     1
176
     1
 42
1.0
176
     1
 92
        0
176
     1
 66
   257
176
     1
 43
1.0
176
     1
 76
     1
176
     1
 77
     6
176
     1
 78
     2
176
     1
 67
     7
176
     1
 79
     5
176
     1
170
     0
176
     1
171
     0
176
     1
290
     0
176
     1
 93
       13
176
     1
 44
0.0
176
     1
173
     0
176
     1
  0
VISUALSTYLE
  5
38
102
{ACAD_REACTORS
330
2A
102
}
330
2A
100
AcDbVisualStyle
  2
Linepattern
 70
    14
177
     2
291
     1
 71
     2
176
     1
 72
     2
176
     1
 73
     0
176
     1
 90
        0
176
     1
 40
-0.6
176
     1
 41
-30.0
176
     1
 62
     5
 63
     7
421
 16777215
176
     1
 74
     1
176
     1
 91
        4
176
     1
 64
     7
176
     1
 65
   257
176
     1
 75
     7
176
     1
175
     7
176
     1
 42
1.0
176
     1
 92
        8
176
     1
 66
     7
176
     1
 43
1.0
176
     1
 76
     1
176
     1
 77
     6
176
     1
 78
     2
176
     1
 67
     7
176
     1
 79
     5
176
     1
170
     0
176
     1
171
     0
176
     1
290
     0
176
     1
 93
        1
176
     1
 44
0.0
176
     1
173
     0
176
     1
  0
VISUALSTYLE
  5
33
102
{ACAD_REACTORS
330
2A
102
}
330
2A
100
AcDbVisualStyle
  2
Realistic
 70
     8
177
     2
291
     0
 71
     2
176
     1
 72
     2
176
     1
 73
     0
176
     1
 90
        0
176
     1
 40
-0.6
176
     1
 41
-30.0
176
     1
 62
     5
 63
     7
421
 16777215
176
     1
 74
     1
176
     1
 91
        0
176
     1
 64
     7
176
     1
 65
   257
176
     1
 75
     1
176
     1
175
     1
176
     1
 42
1.0
176
     1
 92
        8
176
     1
 66
     8
424
  7895160
176
     1
 43
1.0
176
     1
 76
     1
176
     1
 77
     6
176
     1
 78
     2
176
     1
 67
     7
176
     1
 79
     5
176
     1
170
     0
176
     1
171
     0
176
     1
290
     0
176
     1
 93
       13
176
     1
 44
0.0
176
     1
173
     0
176
     1
  0
VISUALSTYLE
  5
37
102
{ACAD_REACTORS
330
2A
102
}
330
2A
100
AcDbVisualStyle
  2
Thicken
 70
    13
177
     2
291
     1
 71
     2
176
     1
 72
     2
176
     1
 73
     0
176
     1
 90
        0
176
     1
 40
-0.6
176
     1
 41
-30.0
176
     1
 62
     5
 63
     7
421
 16777215
176
     1
 74
     1
176
     1
 91
        4
176
     1
 64
     7
176
     1
 65
   257
176
     1
 75
     1
176
     1
175
     1
176
     1
 42
1.0
176
     1
 92
       12
176
     1
 66
     7
176
     1
 43
1.0
176
     1
 76
     1
176
     1
 77
     6
176
     1
 78
     2
176
     1
 67
     7
176
     1
 79
     5
176
     1
170
     0
176
     1
171
     0
176
     1
290
     0
176
     1
 93
        1
176
     1
 44
0.0
176
     1
173
     0
176
     1
  0
ENDSEC
  0
EOF
