  0
SECTION
  2
HEADER
  9
$ACADVER
  1
AC1024
  9
$ACADMAINTVER
 70
     6
  9
$DWGCODEPAGE
  3
ANSI_932
  9
$INSBASE
 10
0.0
 20
0.0
 30
0.0
  9
$EXTMIN
 10
-4455.0
 20
-3150.0
 30
0.0
  9
$EXTMAX
 10
4455.0
 20
3150.0
 30
0.0
  9
$LIMMIN
 10
-4455.0
 20
-3150.0
  9
$LIMMAX
 10
4455.0
 20
3150.0
  9
$ORTHOMODE
 70
     0
  9
$REGENMODE
 70
     1
  9
$FILLMODE
 70
     1
  9
$QTEXTMODE
 70
     0
  9
$MIRRTEXT
 70
     1
  9
$LTSCALE
 40
30.0
  9
$ATTMODE
 70
     1
  9
$TEXTSIZE
 40
2.5
  9
$TRACEWID
 40
1.0
  9
$TEXTSTYLE
  7
Standard
  9
$CLAYER
  8
0
  9
$CELTYPE
  6
ByLayer
  9
$CECOLOR
 62
   256
  9
$CELTSCALE
 40
1.0
  9
$DISPSILH
 70
     0
  9
$DIMSCALE
 40
1.0
  9
$DIMASZ
 40
2.5
  9
$DIMEXO
 40
0.625
  9
$DIMDLI
 40
3.75
  9
$DIMRND
 40
0.0
  9
$DIMDLE
 40
0.0
  9
$DIMEXE
 40
1.25
  9
$DIMTP
 40
0.0
  9
$DIMTM
 40
0.0
  9
$DIMTXT
 40
2.5
  9
$DIMCEN
 40
2.5
  9
$DIMTSZ
 40
0.0
  9
$DIMTOL
 70
     0
  9
$DIMLIM
 70
     0
  9
$DIMTIH
 70
     0
  9
$DIMTOH
 70
     0
  9
$DIMSE1
 70
     0
  9
$DIMSE2
 70
     0
  9
$DIMTAD
 70
     1
  9
$DIMZIN
 70
     8
  9
$DIMBLK
  1

  9
$DIMASO
 70
     1
  9
$DIMSHO
 70
     1
  9
$DIMPOST
  1

  9
$DIMAPOST
  1

  9
$DIMALT
 70
     0
  9
$DIMALTD
 70
     3
  9
$DIMALTF
 40
0.03937007874016
  9
$DIMLFAC
 40
1.0
  9
$DIMTOFL
 70
     1
  9
$DIMTVP
 40
0.0
  9
$DIMTIX
 70
     0
  9
$DIMSOXD
 70
     0
  9
$DIMSAH
 70
     0
  9
$DIMBLK1
  1

  9
$DIMBLK2
  1

  9
$DIMSTYLE
  2
ISO-25
  9
$DIMCLRD
 70
     0
  9
$DIMCLRE
 70
     0
  9
$DIMCLRT
 70
     0
  9
$DIMTFAC
 40
1.0
  9
$DIMGAP
 40
0.625
  9
$DIMJUST
 70
     0
  9
$DIMSD1
 70
     0
  9
$DIMSD2
 70
     0
  9
$DIMTOLJ
 70
     0
  9
$DIMTZIN
 70
     8
  9
$DIMALTZ
 70
     0
  9
$DIMALTTZ
 70
     0
  9
$DIMUPT
 70
     0
  9
$DIMDEC
 70
     2
  9
$DIMTDEC
 70
     2
  9
$DIMALTU
 70
     2
  9
$DIMALTTD
 70
     3
  9
$DIMTXSTY
  7
Standard
  9
$DIMAUNIT
 70
     0
  9
$DIMADEC
 70
     0
  9
$DIMALTRND
 40
0.0
  9
$DIMAZIN
 70
     0
  9
$DIMDSEP
 70
    44
  9
$DIMATFIT
 70
     3
  9
$DIMFRAC
 70
     0
  9
$DIMLDRBLK
  1

  9
$DIMLUNIT
 70
     2
  9
$DIMLWD
 70
    -2
  9
$DIMLWE
 70
    -2
  9
$DIMTMOVE
 70
     0
  9
$DIMFXL
 40
1.0
  9
$DIMFXLON
 70
     0
  9
$DIMJOGANG
 40
0.7853981633974483
  9
$DIMTFILL
 70
     0
  9
$DIMTFILLCLR
 70
     0
  9
$DIMARCSYM
 70
     0
  9
$DIMLTYPE
  6

  9
$DIMLTEX1
  6

  9
$DIMLTEX2
  6

  9
$DIMTXTDIRECTION
 70
     0
  9
$LUNITS
 70
     2
  9
$LUPREC
 70
     4
  9
$SKETCHINC
 40
1.0
  9
$FILLETRAD
 40
10.0
  9
$AUNITS
 70
     0
  9
$AUPREC
 70
     0
  9
$MENU
  1
.
  9
$ELEVATION
 40
0.0
  9
$PELEVATION
 40
0.0
  9
$THICKNESS
 40
0.0
  9
$LIMCHECK
 70
     0
  9
$CHAMFERA
 40
10.0
  9
$CHAMFERB
 40
10.0
  9
$CHAMFERC
 40
20.0
  9
$CHAMFERD
 40
0.0
  9
$SKPOLY
 70
     0
  9
$TDCREATE
 40
2457953.400610787
  9
$TDUCREATE
 40
2457953.025610787
  9
$TDUPDATE
 40
2457953.400610799
  9
$TDUUPDATE
 40
2457953.025610799
  9
$TDINDWG
 40
0.0000000116
  9
$TDUSRTIMER
 40
0.0000000116
  9
$USRTIMER
 70
     1
  9
$ANGBASE
 50
0.0
  9
$ANGDIR
 70
     0
  9
$PDMODE
 70
     0
  9
$PDSIZE
 40
0.0
  9
$PLINEWID
 40
0.0
  9
$SPLFRAME
 70
     0
  9
$SPLINETYPE
 70
     6
  9
$SPLINESEGS
 70
     8
  9
$HANDSEED
  5
397
  9
$SURFTAB1
 70
     6
  9
$SURFTAB2
 70
     6
  9
$SURFTYPE
 70
     6
  9
$SURFU
 70
     6
  9
$SURFV
 70
     6
  9
$UCSBASE
  2

  9
$UCSNAME
  2

  9
$UCSORG
 10
0.0
 20
0.0
 30
0.0
  9
$UCSXDIR
 10
1.0
 20
0.0
 30
0.0
  9
$UCSYDIR
 10
0.0
 20
1.0
 30
0.0
  9
$UCSORTHOREF
  2

  9
$UCSORTHOVIEW
 70
     0
  9
$UCSORGTOP
 10
0.0
 20
0.0
 30
0.0
  9
$UCSORGBOTTOM
 10
0.0
 20
0.0
 30
0.0
  9
$UCSORGLEFT
 10
0.0
 20
0.0
 30
0.0
  9
$UCSORGRIGHT
 10
0.0
 20
0.0
 30
0.0
  9
$UCSORGFRONT
 10
0.0
 20
0.0
 30
0.0
  9
$UCSORGBACK
 10
0.0
 20
0.0
 30
0.0
  9
$PUCSBASE
  2

  9
$PUCSNAME
  2

  9
$PUCSORG
 10
0.0
 20
0.0
 30
0.0
  9
$PUCSXDIR
 10
1.0
 20
0.0
 30
0.0
  9
$PUCSYDIR
 10
0.0
 20
1.0
 30
0.0
  9
$PUCSORTHOREF
  2

  9
$PUCSORTHOVIEW
 70
     0
  9
$PUCSORGTOP
 10
0.0
 20
0.0
 30
0.0
  9
$PUCSORGBOTTOM
 10
0.0
 20
0.0
 30
0.0
  9
$PUCSORGLEFT
 10
0.0
 20
0.0
 30
0.0
  9
$PUCSORGRIGHT
 10
0.0
 20
0.0
 30
0.0
  9
$PUCSORGFRONT
 10
0.0
 20
0.0
 30
0.0
  9
$PUCSORGBACK
 10
0.0
 20
0.0
 30
0.0
  9
$USERI1
 70
     0
  9
$USERI2
 70
     0
  9
$USERI3
 70
     0
  9
$USERI4
 70
     0
  9
$USERI5
 70
     0
  9
$USERR1
 40
0.0
  9
$USERR2
 40
0.0
  9
$USERR3
 40
0.0
  9
$USERR4
 40
0.0
  9
$USERR5
 40
0.0
  9
$WORLDVIEW
 70
     1
  9
$SHADEDGE
 70
     3
  9
$SHADEDIF
 70
    70
  9
$TILEMODE
 70
     1
  9
$MAXACTVP
 70
    64
  9
$PINSBASE
 10
0.0
 20
0.0
 30
0.0
  9
$PLIMCHECK
 70
     0
  9
$PEXTMIN
 10
1.000000000000000E+20
 20
1.000000000000000E+20
 30
1.000000000000000E+20
  9
$PEXTMAX
 10
-1.000000000000000E+20
 20
-1.000000000000000E+20
 30
-1.000000000000000E+20
  9
$PLIMMIN
 10
0.0
 20
0.0
  9
$PLIMMAX
 10
420.0
 20
297.0
  9
$UNITMODE
 70
     0
  9
$VISRETAIN
 70
     1
  9
$PLINEGEN
 70
     0
  9
$PSLTSCALE
 70
     1
  9
$TREEDEPTH
 70
  3020
  9
$CMLSTYLE
  2
Standard
  9
$CMLJUST
 70
     0
  9
$CMLSCALE
 40
20.0
  9
$PROXYGRAPHICS
 70
     1
  9
$MEASUREMENT
 70
     1
  9
$CELWEIGHT
370
    -1
  9
$ENDCAPS
280
     0
  9
$JOINSTYLE
280
     0
  9
$LWDISPLAY
290
     0
  9
$INSUNITS
 70
     4
  9
$HYPERLINKBASE
  1

  9
$STYLESHEET
  1

  9
$XEDIT
290
     1
  9
$CEPSNTYPE
380
     0
  9
$PSTYLEMODE
290
     1
  9
$FINGERPRINTGUID
  2
{3E687420-ECF5-4A41-8CDB-A4D4722FE5E4}
  9
$VERSIONGUID
  2
{FAEB1C32-E019-11D5-929B-00C0DF256EC4}
  9
$EXTNAMES
290
     1
  9
$PSVPSCALE
 40
0.0
  9
$OLESTARTUP
290
     0
  9
$SORTENTS
280
   127
  9
$INDEXCTL
280
     0
  9
$HIDETEXT
280
     1
  9
$XCLIPFRAME
280
     2
  9
$HALOGAP
280
     0
  9
$OBSCOLOR
 70
   257
  9
$OBSLTYPE
280
     0
  9
$INTERSECTIONDISPLAY
280
     0
  9
$INTERSECTIONCOLOR
 70
   257
  9
$DIMASSOC
280
     2
  9
$PROJECTNAME
  1

  9
$CAMERADISPLAY
290
     0
  9
$LENSLENGTH
 40
50.0
  9
$CAMERAHEIGHT
 40
0.0
  9
$STEPSPERSEC
 40
2.0
  9
$STEPSIZE
 40
6.0
  9
$3DDWFPREC
 40
2.0
  9
$PSOLWIDTH
 40
5.0
  9
$PSOLHEIGHT
 40
80.0
  9
$LOFTANG1
 40
1.570796326794897
  9
$LOFTANG2
 40
1.570796326794897
  9
$LOFTMAG1
 40
0.0
  9
$LOFTMAG2
 40
0.0
  9
$LOFTPARAM
 70
     7
  9
$LOFTNORMALS
280
     1
  9
$LATITUDE
 40
37.795
  9
$LONGITUDE
 40
-122.394
  9
$NORTHDIRECTION
 40
0.0
  9
$TIMEZONE
 70
 -8000
  9
$LIGHTGLYPHDISPLAY
280
     1
  9
$TILEMODELIGHTSYNCH
280
     1
  9
$SOLIDHIST
280
     1
  9
$SHOWHIST
280
     1
  9
$DWFFRAME
280
     2
  9
$DGNFRAME
280
     2
  9
$REALWORLDSCALE
290
     1
  9
$INTERFERECOLOR
 62
   256
  9
$CSHADOW
280
     0
  9
$SHADOWPLANELOCATION
 40
0.0
  0
ENDSEC
  0
SECTION
  2
CLASSES
  0
CLASS
  1
ACDBDICTIONARYWDFLT
  2
AcDbDictionaryWithDefault
  3
ObjectDBX Classes
 90
        0
 91
        4
280
     0
281
     0
  0
CLASS
  1
VISUALSTYLE
  2
AcDbVisualStyle
  3
ObjectDBX Classes
 90
     4095
 91
        4
280
     0
281
     0
  0
CLASS
  1
MATERIAL
  2
AcDbMaterial
  3
ObjectDBX Classes
 90
     1153
 91
        4
280
     0
281
     0
  0
ENDSEC
  0
SECTION
  2
TABLES
  0
TABLE
  2
VPORT
  5
8
330
0
100
AcDbSymbolTable
 70
     1
  0
VPORT
  5
29
330
8
100
AcDbSymbolTableRecord
100
AcDbViewportTableRecord
  2
*Active
 70
     0
 10
0.0
 20
0.0
 11
1.0
 21
1.0
 12
0.0
 22
0.0
 13
0.0
 23
0.0
 14
10.0
 24
10.0
 15
10.0
 25
10.0
 16
0.0
 26
0.0
 36
1.0
 17
0.0
 27
0.0
 37
0.0
 40
6930.000000000001
 41
1.414285714285714
 42
50.0
 43
0.0
 44
0.0
 50
0.0
 51
0.0
 71
     0
 72
 10000
 73
     1
 74
     3
 75
     0
 76
     0
 77
     0
 78
     0
281
     0
 65
     1
110
0.0
120
0.0
130
0.0
111
1.0
121
0.0
131
0.0
112
0.0
122
1.0
132
0.0
 79
     0
146
0.0
 60
     3
 61
     5
292
     1
282
     1
141
0.0
142
0.0
 63
   250
  0
ENDTAB
  0
TABLE
  2
LTYPE
  5
5
330
0
100
AcDbSymbolTable
 70
     2
  0
LTYPE
  5
14
330
5
100
AcDbSymbolTableRecord
100
AcDbLinetypeTableRecord
  2
ByBlock
 70
     0
  3

 72
    65
 73
     0
 40
0.0
  0
LTYPE
  5
15
330
5
100
AcDbSymbolTableRecord
100
AcDbLinetypeTableRecord
  2
ByLayer
 70
     0
  3

 72
    65
 73
     0
 40
0.0
  0
LTYPE
  5
16
330
5
100
AcDbSymbolTableRecord
100
AcDbLinetypeTableRecord
  2
Continuous
 70
     0
  3
Solid line
 72
    65
 73
     0
 40
0.0
  0
LTYPE
  5
3F
330
5
100
AcDbSymbolTableRecord
100
AcDbLinetypeTableRecord
  2
JWW_DASHED1
 70
     0
  3
-  --  --  --  --  --  --  --  -
 72
    65
 73
     2
 40
1.693333333333333
 49
0.8466666666666667
 74
     0
 49
-0.8466666666666667
 74
     0
  0
ENDTAB
  0
TABLE
  2
LAYER
  5
2
330
0
100
AcDbSymbolTable
 70
     3
  0
LAYER
  5
10
330
2
100
AcDbSymbolTableRecord
100
AcDbLayerTableRecord
  2
0
 70
     0
 62
     7
  6
Continuous
370
    -3
390
F
347
3E
  0
LAYER
  5
40
330
2
100
AcDbSymbolTableRecord
100
AcDbLayerTableRecord
  2
0-0
 70
     0
 62
     7
  6
Continuous
370
    -3
390
F
347
3E
  0
LAYER
  5
41
330
2
100
AcDbSymbolTableRecord
100
AcDbLayerTableRecord
  2
寸法
 70
     0
 62
     7
  6
Continuous
370
    -3
390
F
347
3E
  0
ENDTAB
  0
TABLE
  2
STYLE
  5
3
330
0
100
AcDbSymbolTable
 70
     1
  0
STYLE
  5
11
330
3
100
AcDbSymbolTableRecord
100
AcDbTextStyleTableRecord
  2
Standard
 70
     0
 40
0.0
 41
1.0
 50
0.0
 71
     0
 42
2.5
  3
txt
  4

  0
ENDTAB
  0
TABLE
  2
VIEW
  5
6
330
0
100
AcDbSymbolTable
 70
     0
  0
ENDTAB
  0
TABLE
  2
UCS
  5
7
330
0
100
AcDbSymbolTable
 70
     0
  0
ENDTAB
  0
TABLE
  2
APPID
  5
9
330
0
100
AcDbSymbolTable
 70
     1
  0
APPID
  5
12
330
9
100
AcDbSymbolTableRecord
100
AcDbRegAppTableRecord
  2
ACAD
 70
     0
  0
ENDTAB
  0
TABLE
  2
DIMSTYLE
  5
A
330
0
100
AcDbSymbolTable
 70
     1
100
AcDbDimStyleTable
  0
DIMSTYLE
105
27
330
A
100
AcDbSymbolTableRecord
100
AcDbDimStyleTableRecord
  2
ISO-25
 70
     0
 41
2.5
 42
0.625
 43
3.75
 44
1.25
 73
     0
 74
     0
 77
     1
 78
     8
140
2.5
141
2.5
143
0.03937007874016
147
0.625
171
     3
172
     1
178
     0
271
     2
272
     2
274
     3
278
    44
283
     0
284
     8
340
11
  0
ENDTAB
  0
TABLE
  2
BLOCK_RECORD
  5
1
330
0
100
AcDbSymbolTable
 70
     1
  0
BLOCK_RECORD
  5
1F
330
1
100
AcDbSymbolTableRecord
100
AcDbBlockTableRecord
  2
*Model_Space
340
22
 70
     0
280
     1
281
     0
  0
BLOCK_RECORD
  5
1B
330
1
100
AcDbSymbolTableRecord
100
AcDbBlockTableRecord
  2
*Paper_Space
340
1E
 70
     0
280
     1
281
     0
  0
BLOCK_RECORD
  5
23
330
1
100
AcDbSymbolTableRecord
100
AcDbBlockTableRecord
  2
*Paper_Space0
340
26
 70
     0
280
     1
281
     0
  0
ENDTAB
  0
ENDSEC
  0
SECTION
  2
BLOCKS
  0
BLOCK
  5
20
330
1F
100
AcDbEntity
  8
0
100
AcDbBlockBegin
  2
*Model_Space
 70
     0
 10
0.0
 20
0.0
 30
0.0
  3
*Model_Space
  1

  0
ENDBLK
  5
21
330
1F
100
AcDbEntity
  8
0
100
AcDbBlockEnd
  0
BLOCK
  5
1C
330
1B
100
AcDbEntity
 67
     1
  8
0
100
AcDbBlockBegin
  2
*Paper_Space
 70
     0
 10
0.0
 20
0.0
 30
0.0
  3
*Paper_Space
  1

  0
ENDBLK
  5
1D
330
1B
100
AcDbEntity
 67
     1
  8
0
100
AcDbBlockEnd
  0
BLOCK
  5
24
330
23
100
AcDbEntity
  8
0
100
AcDbBlockBegin
  2
*Paper_Space0
 70
     0
 10
0.0
 20
0.0
 30
0.0
  3
*Paper_Space0
  1

  0
ENDBLK
  5
25
330
23
100
AcDbEntity
  8
0
100
AcDbBlockEnd
  0
ENDSEC
  0
SECTION
  2
ENTITIES
  0
LINE
  5
42
330
1F
100
AcDbEntity
  8
0-0
  6
Continuous
 62
    92
370
    13
100
AcDbLine
 10
1232.712150991522
 20
-1081.557252383083
 30
0.0
 11
-1191.287849008477
 21
-1081.557252383083
 31
0.0
  0
LINE
  5
43
330
1F
100
AcDbEntity
  8
0-0
  6
Continuous
 62
    92
370
    13
100
AcDbLine
 10
1202.712150991522
 20
-1066.557252383083
 30
0.0
 11
-1161.287849008477
 21
-1066.557252383083
 31
0.0
  0
ARC
  5
44
330
1F
100
AcDbEntity
  8
0-0
  6
Continuous
 62
    92
370
    13
100
AcDbCircle
 10
-1132.787849008479
 20
-44.55725238308275
 30
0.0
 40
1.5
100
AcDbArc
 50
90.0
 51
180.0
  0
LINE
  5
45
330
1F
100
AcDbEntity
  8
0-0
  6
Continuous
 62
    92
370
    13
100
AcDbLine
 10
-1093.787849008479
 20
-43.05725238308241
 30
0.0
 11
-1132.787849008479
 21
-43.05725238308241
 31
0.0
  0
ARC
  5
46
330
1F
100
AcDbEntity
  8
0-0
  6
Continuous
 62
    92
370
    13
100
AcDbCircle
 10
-1093.787849008479
 20
-44.55725238308275
 30
0.0
 40
1.5
100
AcDbArc
 50
0.0
 51
90.00000000000001
  0
LINE
  5
47
330
1F
100
AcDbEntity
  8
0-0
  6
Continuous
 62
    92
370
    13
100
AcDbLine
 10
-1092.287849008482
 20
-163.557252383082
 30
0.0
 11
-1092.287849008482
 21
-44.55725238308275
 31
0.0
  0
ARC
  5
48
330
1F
100
AcDbEntity
  8
0-0
  6
Continuous
 62
    92
370
    13
100
AcDbCircle
 10
-1093.787849008479
 20
-163.557252383082
 30
0.0
 40
1.5
100
AcDbArc
 50
270.0
 51
0.0
  0
LINE
  5
49
330
1F
100
AcDbEntity
  8
0-0
  6
Continuous
 62
    92
370
    13
100
AcDbLine
 10
-1132.787849008479
 20
-165.057252383084
 30
0.0
 11
-1093.787849008479
 21
-165.057252383084
 31
0.0
  0
LINE
  5
4A
330
1F
100
AcDbEntity
  8
0-0
  6
Continuous
 62
    92
370
    13
100
AcDbLine
 10
-1134.287849008477
 20
-163.557252383082
 30
0.0
 11
-1134.287849008477
 21
-44.55725238308275
 31
0.0
  0
ARC
  5
4B
330
1F
100
AcDbEntity
  8
0-0
  6
Continuous
 62
    92
370
    13
100
AcDbCircle
 10
-1132.787849008479
 20
-163.557252383082
 30
0.0
 40
1.5
100
AcDbArc
 50
180.0
 51
270.0
  0
ARC
  5
4C
330
1F
100
AcDbEntity
  8
0-0
  6
Continuous
 62
     7
370
     9
100
AcDbCircle
 10
-1113.287849008479
 20
-133.6572523830819
 30
0.0
 40
15.0
100
AcDbArc
 50
180.0
 51
0.0
  0
ARC
  5
4D
330
1F
100
AcDbEntity
  8
0-0
  6
Continuous
 62
     7
370
     9
100
AcDbCircle
 10
-1113.287849008479
 20
-74.457252383082
 30
0.0
 40
15.0
100
AcDbArc
 50
0.0
 51
180.0
  0
LINE
  5
4E
330
1F
100
AcDbEntity
  8
0-0
  6
Continuous
 62
     7
370
     9
100
AcDbLine
 10
-1098.287849008479
 20
-133.6572523830819
 30
0.0
 11
-1098.287849008479
 21
-74.457252383082
 31
0.0
  0
LINE
  5
4F
330
1F
100
AcDbEntity
  8
0-0
  6
Continuous
 62
     7
370
     9
100
AcDbLine
 10
-1128.287849008479
 20
-74.457252383082
 30
0.0
 11
-1128.287849008479
 21
-133.6572523830819
 31
0.0
  0
ARC
  5
50
330
1F
100
AcDbEntity
  8
0-0
  6
Continuous
 62
    92
370
    13
100
AcDbCircle
 10
-352.7878490084788
 20
-44.55725238308275
 30
0.0
 40
1.5
100
AcDbArc
 50
90.0
 51
180.0
  0
LINE
  5
51
330
1F
100
AcDbEntity
  8
0-0
  6
Continuous
 62
    92
370
    13
100
AcDbLine
 10
-313.7878490084785
 20
-43.05725238308241
 30
0.0
 11
-352.7878490084788
 21
-43.05725238308241
 31
0.0
  0
ARC
  5
52
330
1F
100
AcDbEntity
  8
0-0
  6
Continuous
 62
    92
370
    13
100
AcDbCircle
 10
-313.7878490084785
 20
-44.55725238308275
 30
0.0
 40
1.5
100
AcDbArc
 50
0.0
 51
90.00000000000001
  0
LINE
  5
53
330
1F
100
AcDbEntity
  8
0-0
  6
Continuous
 62
    92
370
    13
100
AcDbLine
 10
-312.2878490084815
 20
-163.557252383082
 30
0.0
 11
-312.2878490084815
 21
-44.55725238308275
 31
0.0
  0
ARC
  5
54
330
1F
100
AcDbEntity
  8
0-0
  6
Continuous
 62
    92
370
    13
100
AcDbCircle
 10
-313.7878490084785
 20
-163.557252383082
 30
0.0
 40
1.5
100
AcDbArc
 50
270.0
 51
0.0
  0
LINE
  5
55
330
1F
100
AcDbEntity
  8
0-0
  6
Continuous
 62
    92
370
    13
100
AcDbLine
 10
-352.7878490084788
 20
-165.057252383084
 30
0.0
 11
-313.7878490084785
 21
-165.057252383084
 31
0.0
  0
LINE
  5
56
330
1F
100
AcDbEntity
  8
0-0
  6
Continuous
 62
    92
370
    13
100
AcDbLine
 10
-354.2878490084775
 20
-163.557252383082
 30
0.0
 11
-354.2878490084775
 21
-44.55725238308275
 31
0.0
  0
ARC
  5
57
330
1F
100
AcDbEntity
  8
0-0
  6
Continuous
 62
    92
370
    13
100
AcDbCircle
 10
-352.7878490084788
 20
-163.557252383082
 30
0.0
 40
1.5
100
AcDbArc
 50
180.0
 51
270.0
  0
ARC
  5
58
330
1F
100
AcDbEntity
  8
0-0
  6
Continuous
 62
     7
370
     9
100
AcDbCircle
 10
-333.2878490084795
 20
-133.6572523830819
 30
0.0
 40
15.0
100
AcDbArc
 50
180.0
 51
0.0
  0
ARC
  5
59
330
1F
100
AcDbEntity
  8
0-0
  6
Continuous
 62
     7
370
     9
100
AcDbCircle
 10
-333.2878490084795
 20
-74.457252383082
 30
0.0
 40
15.0
100
AcDbArc
 50
0.0
 51
180.0
  0
LINE
  5
5A
330
1F
100
AcDbEntity
  8
0-0
  6
Continuous
 62
     7
370
     9
100
AcDbLine
 10
-318.2878490084795
 20
-133.6572523830819
 30
0.0
 11
-318.2878490084795
 21
-74.457252383082
 31
0.0
  0
LINE
  5
5B
330
1F
100
AcDbEntity
  8
0-0
  6
Continuous
 62
     7
370
     9
100
AcDbLine
 10
-348.2878490084795
 20
-74.457252383082
 30
0.0
 11
-348.2878490084795
 21
-133.6572523830819
 31
0.0
  0
ARC
  5
5C
330
1F
100
AcDbEntity
  8
0-0
  6
Continuous
 62
    92
370
    13
100
AcDbCircle
 10
1135.212150991525
 20
-44.55725238308275
 30
0.0
 40
1.5
100
AcDbArc
 50
90.0
 51
180.0
  0
LINE
  5
5D
330
1F
100
AcDbEntity
  8
0-0
  6
Continuous
 62
    92
370
    13
100
AcDbLine
 10
1174.212150991524
 20
-43.05725238308241
 30
0.0
 11
1135.212150991525
 21
-43.05725238308241
 31
0.0
  0
ARC
  5
5E
330
1F
100
AcDbEntity
  8
0-0
  6
Continuous
 62
    92
370
    13
100
AcDbCircle
 10
1174.212150991524
 20
-44.55725238308275
 30
0.0
 40
1.5
100
AcDbArc
 50
0.0
 51
90.00000000000001
  0
LINE
  5
5F
330
1F
100
AcDbEntity
  8
0-0
  6
Continuous
 62
    92
370
    13
100
AcDbLine
 10
1175.712150991524
 20
-163.557252383082
 30
0.0
 11
1175.712150991524
 21
-44.55725238308275
 31
0.0
  0
ARC
  5
60
330
1F
100
AcDbEntity
  8
0-0
  6
Continuous
 62
    92
370
    13
100
AcDbCircle
 10
1174.212150991524
 20
-163.557252383082
 30
0.0
 40
1.5
100
AcDbArc
 50
270.0
 51
0.0
  0
LINE
  5
61
330
1F
100
AcDbEntity
  8
0-0
  6
Continuous
 62
    92
370
    13
100
AcDbLine
 10
1135.212150991525
 20
-165.057252383084
 30
0.0
 11
1174.212150991524
 21
-165.057252383084
 31
0.0
  0
LINE
  5
62
330
1F
100
AcDbEntity
  8
0-0
  6
Continuous
 62
    92
370
    13
100
AcDbLine
 10
1133.712150991525
 20
-163.557252383082
 30
0.0
 11
1133.712150991525
 21
-44.55725238308275
 31
0.0
  0
ARC
  5
63
330
1F
100
AcDbEntity
  8
0-0
  6
Continuous
 62
    92
370
    13
100
AcDbCircle
 10
1135.212150991525
 20
-163.557252383082
 30
0.0
 40
1.5
100
AcDbArc
 50
180.0
 51
270.0
  0
ARC
  5
64
330
1F
100
AcDbEntity
  8
0-0
  6
Continuous
 62
     7
370
     9
100
AcDbCircle
 10
1154.712150991525
 20
-133.6572523830819
 30
0.0
 40
15.0
100
AcDbArc
 50
180.0
 51
0.0
  0
ARC
  5
65
330
1F
100
AcDbEntity
  8
0-0
  6
Continuous
 62
     7
370
     9
100
AcDbCircle
 10
1154.712150991525
 20
-74.457252383082
 30
0.0
 40
15.0
100
AcDbArc
 50
0.0
 51
180.0
  0
LINE
  5
66
330
1F
100
AcDbEntity
  8
0-0
  6
Continuous
 62
     7
370
     9
100
AcDbLine
 10
1169.712150991525
 20
-133.6572523830819
 30
0.0
 11
1169.712150991525
 21
-74.457252383082
 31
0.0
  0
LINE
  5
67
330
1F
100
AcDbEntity
  8
0-0
  6
Continuous
 62
     7
370
     9
100
AcDbLine
 10
1139.712150991525
 20
-74.457252383082
 30
0.0
 11
1139.712150991525
 21
-133.6572523830819
 31
0.0
  0
LINE
  5
68
330
1F
100
AcDbEntity
  8
0-0
  6
JWW_DASHED1
 62
   120
370
     5
100
AcDbLine
 10
-1161.287849008477
 20
-1061.557252383083
 30
0.0
 11
-1164.287849008477
 21
-1061.557252383083
 31
0.0
  0
LINE
  5
69
330
1F
100
AcDbEntity
  8
0-0
  6
JWW_DASHED1
 62
   120
370
     5
100
AcDbLine
 10
1202.712150991522
 20
-1061.557252383083
 30
0.0
 11
1205.712150991523
 21
-1061.557252383083
 31
0.0
  0
LINE
  5
6A
330
1F
100
AcDbEntity
  8
0-0
  6
Continuous
 62
    92
370
    13
100
AcDbLine
 10
-1161.287849008477
 20
-1061.557252383083
 30
0.0
 11
1202.712150991522
 21
-1061.557252383083
 31
0.0
  0
LINE
  5
6B
330
1F
100
AcDbEntity
  8
0-0
  6
Continuous
 62
    92
370
    13
100
AcDbLine
 10
-1054.287849008479
 20
-911.5572523830829
 30
0.0
 11
-464.2878490084763
 21
-911.5572523830829
 31
0.0
  0
LINE
  5
6C
330
1F
100
AcDbEntity
  8
0-0
  6
Continuous
 62
    92
370
    13
100
AcDbLine
 10
-274.2878490084786
 20
-911.5572523830829
 30
0.0
 11
315.7121509915237
 21
-911.5572523830829
 31
0.0
  0
LINE
  5
6D
330
1F
100
AcDbEntity
  8
0-0
  6
Continuous
 62
    92
370
    13
100
AcDbLine
 10
505.7121509915214
 20
-911.5572523830829
 30
0.0
 11
1095.712150991524
 21
-911.5572523830829
 31
0.0
  0
LINE
  5
6E
330
1F
100
AcDbEntity
  8
0-0
  6
JWW_DASHED1
 62
   120
370
     5
100
AcDbLine
 10
-1054.287849008468
 20
-904.3391640580905
 30
0.0
 11
-1047.069760683487
 21
-911.5572523830723
 31
0.0
  0
LINE
  5
6F
330
1F
100
AcDbEntity
  8
0-0
  6
JWW_DASHED1
 62
   120
370
     5
100
AcDbLine
 10
-1054.287849008475
 20
-894.4396691228674
 30
0.0
 11
-1037.170265748263
 21
-911.5572523830808
 31
0.0
  0
LINE
  5
70
330
1F
100
AcDbEntity
  8
0-0
  6
JWW_DASHED1
 62
   120
370
     5
100
AcDbLine
 10
-1054.287849008467
 20
-884.5401741876595
 30
0.0
 11
-1027.270770813055
 21
-911.5572523830718
 31
0.0
  0
LINE
  5
71
330
1F
100
AcDbEntity
  8
0-0
  6
JWW_DASHED1
 62
   120
370
     5
100
AcDbLine
 10
-1054.287849008471
 20
-874.6406792524936
 30
0.0
 11
-1017.37127587789
 21
-911.5572523830757
 31
0.0
  0
LINE
  5
72
330
1F
100
AcDbEntity
  8
0-0
  6
JWW_DASHED1
 62
   120
370
     5
100
AcDbLine
 10
-1054.287849008462
 20
-864.7411843172857
 30
0.0
 11
-1007.47178094268
 21
-911.5572523830676
 31
0.0
  0
LINE
  5
73
330
1F
100
AcDbEntity
  8
0-0
  6
JWW_DASHED1
 62
   120
370
     5
100
AcDbLine
 10
-1054.287849008469
 20
-854.8416893820626
 30
0.0
 11
-997.5722860074561
 21
-911.5572523830757
 31
0.0
  0
LINE
  5
74
330
1F
100
AcDbEntity
  8
0-0
  6
JWW_DASHED1
 62
   120
370
     5
100
AcDbLine
 10
-1054.287849008474
 20
-844.9421944468969
 30
0.0
 11
-987.6727910722917
 21
-911.5572523830787
 31
0.0
  0
LINE
  5
75
330
1F
100
AcDbEntity
  8
0-0
  6
JWW_DASHED1
 62
   120
370
     5
100
AcDbLine
 10
-1054.287849008465
 20
-835.0426995116886
 30
0.0
 11
-977.773296137083
 21
-911.5572523830706
 31
0.0
  0
LINE
  5
76
330
1F
100
AcDbEntity
  8
0-0
  6
JWW_DASHED1
 62
   120
370
     5
100
AcDbLine
 10
-1054.287849008472
 20
-825.1432045764655
 30
0.0
 11
-967.873801201859
 21
-911.5572523830782
 31
0.0
  0
LINE
  5
77
330
1F
100
AcDbEntity
  8
0-0
  6
JWW_DASHED1
 62
   120
370
     5
100
AcDbLine
 10
-1054.287849008475
 20
-815.2437096412998
 30
0.0
 11
-957.9743062666955
 21
-911.5572523830795
 31
0.0
  0
LINE
  5
78
330
1F
100
AcDbEntity
  8
0-0
  6
JWW_DASHED1
 62
   120
370
     5
100
AcDbLine
 10
-1054.287849008467
 20
-805.3442147060916
 30
0.0
 11
-948.0748113314851
 21
-911.557252383074
 31
0.0
  0
LINE
  5
79
330
1F
100
AcDbEntity
  8
0-0
  6
JWW_DASHED1
 62
   120
370
     5
100
AcDbLine
 10
-1054.287849008469
 20
-795.4447197709281
 30
0.0
 11
-938.1753163963208
 21
-911.557252383077
 31
0.0
  0
LINE
  5
7A
330
1F
100
AcDbEntity
  8
0-0
  6
JWW_DASHED1
 62
   120
370
     5
100
AcDbLine
 10
-1054.287849008479
 20
-785.5452248357028
 30
0.0
 11
-928.2758214610993
 21
-911.5572523830813
 31
0.0
  0
LINE
  5
7B
330
1F
100
AcDbEntity
  8
0-0
  6
JWW_DASHED1
 62
   120
370
     5
100
AcDbLine
 10
-1054.28784900847
 20
-775.6457299004945
 30
0.0
 11
-918.3763265258881
 21
-911.557252383077
 31
0.0
  0
LINE
  5
7C
330
1F
100
AcDbEntity
  8
0-0
  6
JWW_DASHED1
 62
   120
370
     5
100
AcDbLine
 10
-1054.287849008472
 20
-765.746234965331
 30
0.0
 11
-908.4768315907229
 21
-911.5572523830804
 31
0.0
  0
LINE
  5
7D
330
1F
100
AcDbEntity
  8
0-0
  6
JWW_DASHED1
 62
   120
370
     5
100
AcDbLine
 10
-1054.28784900848
 20
-755.8467400301066
 30
0.0
 11
-898.5773366555031
 21
-911.5572523830842
 31
0.0
  0
LINE
  5
7E
330
1F
100
AcDbEntity
  8
0-0
  6
JWW_DASHED1
 62
   120
370
     5
100
AcDbLine
 10
-1054.287849008473
 20
-745.9472450948975
 30
0.0
 11
-888.6778417202902
 21
-911.5572523830795
 31
0.0
  0
LINE
  5
7F
330
1F
100
AcDbEntity
  8
0-0
  6
JWW_DASHED1
 62
   120
370
     5
100
AcDbLine
 10
-1054.287849008474
 20
-736.047750159734
 30
0.0
 11
-878.778346785125
 21
-911.5572523830833
 31
0.0
  0
LINE
  5
80
330
1F
100
AcDbEntity
  8
0-0
  6
JWW_DASHED1
 62
   120
370
     5
100
AcDbLine
 10
-1054.287849008467
 20
-726.148255224525
 30
0.0
 11
-868.8788518499172
 21
-911.5572523830753
 31
0.0
  0
LINE
  5
81
330
1F
100
AcDbEntity
  8
0-0
  6
JWW_DASHED1
 62
   120
370
     5
100
AcDbLine
 10
-1054.287849008475
 20
-716.2487602893013
 30
0.0
 11
-858.9793569146932
 21
-911.5572523830829
 31
0.0
  0
LINE
  5
82
330
1F
100
AcDbEntity
  8
0-0
  6
JWW_DASHED1
 62
   120
370
     5
100
AcDbLine
 10
-1054.287849008475
 20
-706.3492653541382
 30
0.0
 11
-849.0798619795288
 21
-911.5572523830859
 31
0.0
  0
LINE
  5
83
330
1F
100
AcDbEntity
  8
0-0
  6
JWW_DASHED1
 62
   120
370
     5
100
AcDbLine
 10
-1054.28784900847
 20
-696.4497704189279
 30
0.0
 11
-839.1803670443193
 21
-911.5572523830782
 31
0.0
  0
LINE
  5
84
330
1F
100
AcDbEntity
  8
0-0
  6
JWW_DASHED1
 62
   120
370
     5
100
AcDbLine
 10
-1054.287849008477
 20
-686.5502754837042
 30
0.0
 11
-829.2808721091012
 21
-911.5572523830799
 31
0.0
  0
LINE
  5
85
330
1F
100
AcDbEntity
  8
0-0
  6
JWW_DASHED1
 62
   120
370
     5
100
AcDbLine
 10
-1054.287849008465
 20
-676.6507805485544
 30
0.0
 11
-819.3813771739453
 21
-911.557252383074
 31
0.0
  0
LINE
  5
86
330
1F
100
AcDbEntity
  8
0-0
  6
JWW_DASHED1
 62
   120
370
     5
100
AcDbLine
 10
-1054.28784900847
 20
-666.7512856133329
 30
0.0
 11
-809.4818822387214
 21
-911.5572523830816
 31
0.0
  0
LINE
  5
87
330
1F
100
AcDbEntity
  8
0-0
  6
JWW_DASHED1
 62
   120
370
     5
100
AcDbLine
 10
-1054.28784900848
 20
-656.8517906781072
 30
0.0
 11
-799.5823873035042
 21
-911.5572523830825
 31
0.0
  0
LINE
  5
88
330
1F
100
AcDbEntity
  8
0-0
  6
JWW_DASHED1
 62
   120
370
     5
100
AcDbLine
 10
-1054.287849008467
 20
-646.9522957429579
 30
0.0
 11
-789.6828923683483
 21
-911.557252383077
 31
0.0
  0
LINE
  5
89
330
1F
100
AcDbEntity
  8
0-0
  6
JWW_DASHED1
 62
   120
370
     5
100
AcDbLine
 10
-1054.287849008472
 20
-637.0528008077363
 30
0.0
 11
-779.7833974331235
 21
-911.5572523830847
 31
0.0
  0
LINE
  5
8A
330
1F
100
AcDbEntity
  8
0-0
  6
JWW_DASHED1
 62
   120
370
     5
100
AcDbLine
 10
-1054.287849008482
 20
-627.1533058725097
 30
0.0
 11
-769.8839024979079
 21
-911.5572523830847
 31
0.0
  0
LINE
  5
8B
330
1F
100
AcDbEntity
  8
0-0
  6
JWW_DASHED1
 62
   120
370
     5
100
AcDbLine
 10
-1054.28784900847
 20
-617.2538109373608
 30
0.0
 11
-759.9844075627504
 21
-911.5572523830795
 31
0.0
  0
LINE
  5
8C
330
1F
100
AcDbEntity
  8
0-0
  6
JWW_DASHED1
 62
   120
370
     5
100
AcDbLine
 10
-1054.287849008475
 20
-607.3543160021393
 30
0.0
 11
-750.0849126275273
 21
-911.5572523830872
 31
0.0
  0
LINE
  5
8D
330
1F
100
AcDbEntity
  8
0-0
  6
JWW_DASHED1
 62
   120
370
     5
100
AcDbLine
 10
-1054.28784900848
 20
-597.4548210669719
 30
0.0
 11
-740.1854176923698
 21
-911.5572523830825
 31
0.0
  0
LINE
  5
8E
330
1F
100
AcDbEntity
  8
0-0
  6
JWW_DASHED1
 62
   120
370
     5
100
AcDbLine
 10
-1054.287849008472
 20
-587.5553261317646
 30
0.0
 11
-730.2859227571535
 21
-911.5572523830829
 31
0.0
  0
LINE
  5
8F
330
1F
100
AcDbEntity
  8
0-0
  6
JWW_DASHED1
 62
   120
370
     5
100
AcDbLine
 10
-1054.287849008464
 20
-577.6558311965555
 30
0.0
 11
-720.3864278219455
 21
-911.557252383074
 31
0.0
  0
LINE
  5
90
330
1F
100
AcDbEntity
  8
0-0
  6
JWW_DASHED1
 62
   120
370
     5
100
AcDbLine
 10
-1054.287849008483
 20
-567.7563362613749
 30
0.0
 11
-710.4869328867727
 21
-911.557252383085
 31
0.0
  0
LINE
  5
91
330
1F
100
AcDbEntity
  8
0-0
  6
JWW_DASHED1
 62
   120
370
     5
100
AcDbLine
 10
-1054.287849008474
 20
-557.8568413261676
 30
0.0
 11
-700.5874379515556
 21
-911.5572523830859
 31
0.0
  0
LINE
  5
92
330
1F
100
AcDbEntity
  8
0-0
  6
JWW_DASHED1
 62
   120
370
     5
100
AcDbLine
 10
-1054.287849008467
 20
-547.9573463909584
 30
0.0
 11
-690.6879430163468
 21
-911.5572523830779
 31
0.0
  0
LINE
  5
93
330
1F
100
AcDbEntity
  8
0-0
  6
JWW_DASHED1
 62
   120
370
     5
100
AcDbLine
 10
-1054.28784900847
 20
-538.0578514557936
 30
0.0
 11
-680.7884480811824
 21
-911.5572523830808
 31
0.0
  0
LINE
  5
94
330
1F
100
AcDbEntity
  8
0-0
  6
JWW_DASHED1
 62
   120
370
     5
100
AcDbLine
 10
-1054.287849008477
 20
-528.1583565205705
 30
0.0
 11
-670.888953145967
 21
-911.5572523830795
 31
0.0
  0
LINE
  5
95
330
1F
100
AcDbEntity
  8
0-0
  6
JWW_DASHED1
 62
   120
370
     5
100
AcDbLine
 10
-1054.287849008468
 20
-518.2588615853617
 30
0.0
 11
-660.9894582107489
 21
-911.5572523830813
 31
0.0
  0
LINE
  5
96
330
1F
100
AcDbEntity
  8
0-0
  6
JWW_DASHED1
 62
   120
370
     5
100
AcDbLine
 10
-1054.287849008468
 20
-508.3593666502004
 30
0.0
 11
-651.0899632755837
 21
-911.5572523830847
 31
0.0
  0
LINE
  5
97
330
1F
100
AcDbEntity
  8
0-0
  6
JWW_DASHED1
 62
   120
370
     5
100
AcDbLine
 10
-1054.28784900848
 20
-498.4598717149726
 30
0.0
 11
-641.1904683403716
 21
-911.5572523830808
 31
0.0
  0
LINE
  5
98
330
1F
100
AcDbEntity
  8
0-0
  6
JWW_DASHED1
 62
   120
370
     5
100
AcDbLine
 10
-1054.287849008472
 20
-488.5603767797647
 30
0.0
 11
-631.2909734051518
 21
-911.5572523830842
 31
0.0
  0
LINE
  5
99
330
1F
100
AcDbEntity
  8
0-0
  6
JWW_DASHED1
 62
   120
370
     5
100
AcDbLine
 10
-1054.287849008472
 20
-478.6608818446034
 30
0.0
 11
-621.3914784699875
 21
-911.5572523830872
 31
0.0
  0
LINE
  5
9A
330
1F
100
AcDbEntity
  8
0-0
  6
JWW_DASHED1
 62
   120
370
     5
100
AcDbLine
 10
-1054.287849008482
 20
-468.7613869093764
 30
0.0
 11
-611.4919835347746
 21
-911.5572523830833
 31
0.0
  0
LINE
  5
9B
330
1F
100
AcDbEntity
  8
0-0
  6
JWW_DASHED1
 62
   120
370
     5
100
AcDbLine
 10
-1054.287849008474
 20
-458.8618919741677
 30
0.0
 11
-601.5924885995548
 21
-911.5572523830867
 31
0.0
  0
LINE
  5
9C
330
1F
100
AcDbEntity
  8
0-0
  6
JWW_DASHED1
 62
   120
370
     5
100
AcDbLine
 10
-1054.287849008474
 20
-448.9623970390068
 30
0.0
 11
-591.6929936643896
 21
-911.5572523830901
 31
0.0
  0
LINE
  5
9D
330
1F
100
AcDbEntity
  8
0-0
  6
JWW_DASHED1
 62
   120
370
     5
100
AcDbLine
 10
-1054.287849008468
 20
-439.0629021037947
 30
0.0
 11
-581.793498729181
 21
-911.5572523830825
 31
0.0
  0
LINE
  5
9E
330
1F
100
AcDbEntity
  8
0-0
  6
JWW_DASHED1
 62
   120
370
     5
100
AcDbLine
 10
-1054.287849008475
 20
-429.1634071685715
 30
0.0
 11
-571.8940037939569
 21
-911.5572523830901
 31
0.0
  0
LINE
  5
9F
330
1F
100
AcDbEntity
  8
0-0
  6
JWW_DASHED1
 62
   120
370
     5
100
AcDbLine
 10
-1054.287849008463
 20
-419.2639122334225
 30
0.0
 11
-561.9945088588071
 21
-911.5572523830779
 31
0.0
  0
LINE
  5
A0
330
1F
100
AcDbEntity
  8
0-0
  6
JWW_DASHED1
 62
   120
370
     5
100
AcDbLine
 10
-1054.287849008467
 20
-409.3644172982019
 30
0.0
 11
-552.0950139235839
 21
-911.5572523830855
 31
0.0
  0
LINE
  5
A1
330
1F
100
AcDbEntity
  8
0-0
  6
JWW_DASHED1
 62
   120
370
     5
100
AcDbLine
 10
-1054.287849008474
 20
-399.4649223630329
 30
0.0
 11
-542.1955189884187
 21
-911.5572523830889
 31
0.0
  0
LINE
  5
A2
330
1F
100
AcDbEntity
  8
0-0
  6
JWW_DASHED1
 62
   120
370
     5
100
AcDbLine
 10
-1054.287849008467
 20
-389.5654274278246
 30
0.0
 11
-532.2960240532109
 21
-911.5572523830804
 31
0.0
  0
LINE
  5
A3
330
1F
100
AcDbEntity
  8
0-0
  6
JWW_DASHED1
 62
   120
370
     5
100
AcDbLine
 10
-1054.28784900847
 20
-379.6659324926048
 30
0.0
 11
-522.396529117986
 21
-911.5572523830889
 31
0.0
  0
LINE
  5
A4
330
1F
100
AcDbEntity
  8
0-0
  6
JWW_DASHED1
 62
   120
370
     5
100
AcDbLine
 10
-1054.287849008477
 20
-369.7664375574358
 30
0.0
 11
-512.4970341828208
 21
-911.5572523830915
 31
0.0
  0
LINE
  5
A5
330
1F
100
AcDbEntity
  8
0-0
  6
JWW_DASHED1
 62
   120
370
     5
100
AcDbLine
 10
-1054.287849008468
 20
-359.8669426222284
 30
0.0
 11
-502.5975392476121
 21
-911.5572523830842
 31
0.0
  0
LINE
  5
A6
330
1F
100
AcDbEntity
  8
0-0
  6
JWW_DASHED1
 62
   120
370
     5
100
AcDbLine
 10
-1054.287849008472
 20
-349.9674476870082
 30
0.0
 11
-492.6980443123881
 21
-911.5572523830918
 31
0.0
  0
LINE
  5
A7
330
1F
100
AcDbEntity
  8
0-0
  6
JWW_DASHED1
 62
   120
370
     5
100
AcDbLine
 10
-1054.287849008479
 20
-340.0679527518388
 30
0.0
 11
-482.7985493772383
 21
-911.5572523830799
 31
0.0
  0
LINE
  5
A8
330
1F
100
AcDbEntity
  8
0-0
  6
JWW_DASHED1
 62
   120
370
     5
100
AcDbLine
 10
-1054.287849008471
 20
-330.168457816631
 30
0.0
 11
-472.8990544420151
 21
-911.5572523830867
 31
0.0
  0
LINE
  5
A9
330
1F
100
AcDbEntity
  8
0-0
  6
JWW_DASHED1
 62
   120
370
     5
100
AcDbLine
 10
-1054.287849008474
 20
-320.268962881412
 30
0.0
 11
-464.2878490084883
 21
-910.2689628813977
 31
0.0
  0
LINE
  5
AA
330
1F
100
AcDbEntity
  8
0-0
  6
JWW_DASHED1
 62
   120
370
     5
100
AcDbLine
 10
-1054.287849008482
 20
-310.3694679462417
 30
0.0
 11
-464.2878490084746
 21
-900.3694679462487
 31
0.0
  0
LINE
  5
AB
330
1F
100
AcDbEntity
  8
0-0
  6
JWW_DASHED1
 62
   120
370
     5
100
AcDbLine
 10
-1054.287849008474
 20
-300.4699730110339
 30
0.0
 11
-464.2878490084831
 21
-890.4699730110246
 31
0.0
  0
LINE
  5
AC
330
1F
100
AcDbEntity
  8
0-0
  6
JWW_DASHED1
 62
   120
370
     5
100
AcDbLine
 10
-1054.287849008465
 20
-290.5704780758256
 30
0.0
 11
-464.2878490084746
 21
-880.5704780758164
 31
0.0
  0
LINE
  5
AD
330
1F
100
AcDbEntity
  8
0-0
  6
JWW_DASHED1
 62
   120
370
     5
100
AcDbLine
 10
-1054.287849008484
 20
-280.6709831406447
 30
0.0
 11
-464.287849008478
 21
-870.6709831406516
 31
0.0
  0
LINE
  5
AE
330
1F
100
AcDbEntity
  8
0-0
  6
JWW_DASHED1
 62
   120
370
     5
100
AcDbLine
 10
-1054.287849008476
 20
-270.7714882054369
 30
0.0
 11
-464.2878490084848
 21
-860.7714882054277
 31
0.0
  0
LINE
  5
AF
330
1F
100
AcDbEntity
  8
0-0
  6
JWW_DASHED1
 62
   120
370
     5
100
AcDbLine
 10
-1054.287849008468
 20
-260.8719932702286
 30
0.0
 11
-464.287849008478
 21
-850.8719932702194
 31
0.0
  0
LINE
  5
B0
330
1F
100
AcDbEntity
  8
0-0
  6
JWW_DASHED1
 62
   120
370
     5
100
AcDbLine
 10
-1054.287849008472
 20
-250.9724983350634
 30
0.0
 11
-464.2878490084797
 21
-840.9724983350545
 31
0.0
  0
LINE
  5
B1
330
1F
100
AcDbEntity
  8
0-0
  6
JWW_DASHED1
 62
   120
370
     5
100
AcDbLine
 10
-1054.287849008479
 20
-241.0730033998398
 30
0.0
 11
-464.2878490084712
 21
-831.0730033998468
 31
0.0
  0
LINE
  5
B2
330
1F
100
AcDbEntity
  8
0-0
  6
JWW_DASHED1
 62
   120
370
     5
100
AcDbLine
 10
-1054.28784900847
 20
-231.1735084646324
 30
0.0
 11
-464.2878490084797
 21
-821.1735084646218
 31
0.0
  0
LINE
  5
B3
330
1F
100
AcDbEntity
  8
0-0
  6
JWW_DASHED1
 62
   120
370
     5
100
AcDbLine
 10
-1054.287849008468
 20
-221.2740135294723
 30
0.0
 11
-464.2878490084814
 21
-811.2740135294584
 31
0.0
  0
LINE
  5
B4
330
1F
100
AcDbEntity
  8
0-0
  6
JWW_DASHED1
 62
   120
370
     5
100
AcDbLine
 10
-1054.287849008481
 20
-211.3745185942427
 30
0.0
 11
-464.2878490084746
 21
-801.3745185942497
 31
0.0
  0
LINE
  5
B5
330
1F
100
AcDbEntity
  8
0-0
  6
JWW_DASHED1
 62
   120
370
     5
100
AcDbLine
 10
-1054.287849008473
 20
-201.4750236590353
 30
0.0
 11
-464.2878490084814
 21
-791.4750236590257
 31
0.0
  0
LINE
  5
B6
330
1F
100
AcDbEntity
  8
0-0
  6
JWW_DASHED1
 62
   120
370
     5
100
AcDbLine
 10
-1054.28784900847
 20
-191.5755287238757
 30
0.0
 11
-464.2878490084848
 21
-781.5755287238613
 31
0.0
  0
LINE
  5
B7
330
1F
100
AcDbEntity
  8
0-0
  6
JWW_DASHED1
 62
   120
370
     5
100
AcDbLine
 10
-1054.287849008484
 20
-181.6760337886457
 30
0.0
 11
-464.2878490084763
 21
-771.6760337886526
 31
0.0
  0
LINE
  5
B8
330
1F
100
AcDbEntity
  8
0-0
  6
JWW_DASHED1
 62
   120
370
     5
100
AcDbLine
 10
-1054.287849008475
 20
-171.7765388534383
 30
0.0
 11
-464.2878490084848
 21
-761.7765388534286
 31
0.0
  0
LINE
  5
B9
330
1F
100
AcDbEntity
  8
0-0
  6
JWW_DASHED1
 62
   120
370
     5
100
AcDbLine
 10
-1054.287849008473
 20
-161.8770439182786
 30
0.0
 11
-464.2878490084865
 21
-751.8770439182642
 31
0.0
  0
LINE
  5
BA
330
1F
100
AcDbEntity
  8
0-0
  6
JWW_DASHED1
 62
   120
370
     5
100
AcDbLine
 10
-1054.28784900847
 20
-151.9775489830644
 30
0.0
 11
-464.2878490084797
 21
-741.9775489830556
 31
0.0
  0
LINE
  5
BB
330
1F
100
AcDbEntity
  8
0-0
  6
JWW_DASHED1
 62
   120
370
     5
100
AcDbLine
 10
-1054.287849008474
 20
-142.0780540478997
 30
0.0
 11
-464.2878490084831
 21
-732.07805404789
 31
0.0
  0
LINE
  5
BC
330
1F
100
AcDbEntity
  8
0-0
  6
JWW_DASHED1
 62
   120
370
     5
100
AcDbLine
 10
-1054.287849008465
 20
-132.1785591126918
 30
0.0
 11
-464.2878490084746
 21
-722.1785591126826
 31
0.0
  0
LINE
  5
BD
330
1F
100
AcDbEntity
  8
0-0
  6
JWW_DASHED1
 62
   120
370
     5
100
AcDbLine
 10
-1054.287849008466
 20
-122.2790641774746
 30
0.0
 11
-464.2878490084797
 21
-712.2790641774602
 31
0.0
  0
LINE
  5
BE
330
1F
100
AcDbEntity
  8
0-0
  6
JWW_DASHED1
 62
   120
370
     5
100
AcDbLine
 10
-1054.287849008476
 20
-112.3795692423026
 30
0.0
 11
-464.2878490084848
 21
-702.3795692422938
 31
0.0
  0
LINE
  5
BF
330
1F
100
AcDbEntity
  8
0-0
  6
JWW_DASHED1
 62
   120
370
     5
100
AcDbLine
 10
-1054.287849008467
 20
-102.4800743070948
 30
0.0
 11
-464.2878490084763
 21
-692.4800743070855
 31
0.0
  0
LINE
  5
C0
330
1F
100
AcDbEntity
  8
0-0
  6
JWW_DASHED1
 62
   120
370
     5
100
AcDbLine
 10
-1054.287849008468
 20
-92.58057937187758
 30
0.0
 11
-464.2878490084831
 21
-682.5805793718632
 31
0.0
  0
LINE
  5
C1
330
1F
100
AcDbEntity
  8
0-0
  6
JWW_DASHED1
 62
   120
370
     5
100
AcDbLine
 10
-1054.287849008479
 20
-82.68108443670556
 30
0.0
 11
-464.2878490084721
 21
-672.6810844367121
 31
0.0
  0
LINE
  5
C2
330
1F
100
AcDbEntity
  8
0-0
  6
JWW_DASHED1
 62
   120
370
     5
100
AcDbLine
 10
-1054.28784900847
 20
-72.78158950149773
 30
0.0
 11
-464.2878490084789
 21
-662.781589501489
 31
0.0
  0
LINE
  5
C3
330
1F
100
AcDbEntity
  8
0-0
  6
JWW_DASHED1
 62
   120
370
     5
100
AcDbLine
 10
-1054.28784900847
 20
-62.88209456628095
 30
0.0
 11
-464.2878490084848
 21
-652.8820945662666
 31
0.0
  0
LINE
  5
C4
330
1F
100
AcDbEntity
  8
0-0
  6
JWW_DASHED1
 62
   120
370
     5
100
AcDbLine
 10
-1054.28784900848
 20
-52.98259963110894
 30
0.0
 11
-464.2878490084746
 21
-642.982599631115
 31
0.0
  0
LINE
  5
C5
330
1F
100
AcDbEntity
  8
0-0
  6
JWW_DASHED1
 62
   120
370
     5
100
AcDbLine
 10
-1054.287849008473
 20
-43.08310469590069
 30
0.0
 11
-464.2878490084823
 21
-633.0831046958915
 31
0.0
  0
LINE
  5
C6
330
1F
100
AcDbEntity
  8
0-0
  6
JWW_DASHED1
 62
   120
370
     5
100
AcDbLine
 10
-1054.287849008473
 20
-33.18360976068476
 30
0.0
 11
-464.2878490084874
 21
-623.1836097606696
 31
0.0
  0
LINE
  5
C7
330
1F
100
AcDbEntity
  8
0-0
  6
JWW_DASHED1
 62
   120
370
     5
100
AcDbLine
 10
-1054.287849008484
 20
-23.28411482551147
 30
0.0
 11
-464.2878490084772
 21
-613.284114825518
 31
0.0
  0
LINE
  5
C8
330
1F
100
AcDbEntity
  8
0-0
  6
JWW_DASHED1
 62
   120
370
     5
100
AcDbLine
 10
-1054.287849008475
 20
-13.38461989030364
 30
0.0
 11
-464.2878490084848
 21
-603.384619890294
 31
0.0
  0
LINE
  5
C9
330
1F
100
AcDbEntity
  8
0-0
  6
JWW_DASHED1
 62
   120
370
     5
100
AcDbLine
 10
-1054.287849008467
 20
-3.485124955095813
 30
0.0
 11
-464.2878490084763
 21
-593.4851249550866
 31
0.0
  0
LINE
  5
CA
330
1F
100
AcDbEntity
  8
0-0
  6
JWW_DASHED1
 62
   120
370
     5
100
AcDbLine
 10
-1054.287849008471
 20
6.414369980069807
 30
0.0
 11
-464.2878490084797
 21
-583.5856300199209
 31
0.0
  0
LINE
  5
CB
330
1F
100
AcDbEntity
  8
0-0
  6
JWW_DASHED1
 62
   120
370
     5
100
AcDbLine
 10
-1054.287849008478
 20
16.31386491529341
 30
0.0
 11
-464.2878490084865
 21
-573.6861350846978
 31
0.0
  0
LINE
  5
CC
330
1F
100
AcDbEntity
  8
0-0
  6
JWW_DASHED1
 62
   120
370
     5
100
AcDbLine
 10
-1054.287849008469
 20
26.21335985050123
 30
0.0
 11
-464.287849008478
 21
-563.7866401494896
 31
0.0
  0
LINE
  5
CD
330
1F
100
AcDbEntity
  8
0-0
  6
JWW_DASHED1
 62
   120
370
     5
100
AcDbLine
 10
-1054.287849008473
 20
36.11285478566643
 30
0.0
 11
-464.2878490084823
 21
-553.8871452143239
 31
0.0
  0
LINE
  5
CE
330
1F
100
AcDbEntity
  8
0-0
  6
JWW_DASHED1
 62
   120
370
     5
100
AcDbLine
 10
-1054.28784900848
 20
46.01234972089046
 30
0.0
 11
-464.2878490084729
 21
-543.9876502791165
 31
0.0
  0
LINE
  5
CF
330
1F
100
AcDbEntity
  8
0-0
  6
JWW_DASHED1
 62
   120
370
     5
100
AcDbLine
 10
-1054.287849008472
 20
55.91184465609828
 30
0.0
 11
-464.2878490084814
 21
-534.0881553438925
 31
0.0
  0
LINE
  5
D0
330
1F
100
AcDbEntity
  8
0-0
  6
JWW_DASHED1
 62
   120
370
     5
100
AcDbLine
 10
-1054.287849008467
 20
65.81133959125495
 30
0.0
 11
-464.2878490084814
 21
-524.1886604087307
 31
0.0
  0
LINE
  5
D1
330
1F
100
AcDbEntity
  8
0-0
  6
JWW_DASHED1
 62
   120
370
     5
100
AcDbLine
 10
-1054.287849008483
 20
75.7108345264875
 30
0.0
 11
-464.2878490084763
 21
-514.2891654735195
 31
0.0
  0
LINE
  5
D2
330
1F
100
AcDbEntity
  8
0-0
  6
JWW_DASHED1
 62
   120
370
     5
100
AcDbLine
 10
-1054.287849008474
 20
85.61032946169533
 30
0.0
 11
-464.2878490084831
 21
-504.3896705382954
 31
0.0
  0
LINE
  5
D3
330
1F
100
AcDbEntity
  8
0-0
  6
JWW_DASHED1
 62
   120
370
     5
100
AcDbLine
 10
-1054.287849008468
 20
95.50982439685157
 30
0.0
 11
-464.2878490084831
 21
-494.490175603134
 31
0.0
  0
LINE
  5
D4
330
1F
100
AcDbEntity
  8
0-0
  6
JWW_DASHED1
 62
   120
370
     5
100
AcDbLine
 10
-1054.287849008485
 20
105.4093193320846
 30
0.0
 11
-464.2878490084789
 21
-484.5906806679224
 31
0.0
  0
LINE
  5
D5
330
1F
100
AcDbEntity
  8
0-0
  6
JWW_DASHED1
 62
   120
370
     5
100
AcDbLine
 10
-1054.287849008477
 20
115.3088142672924
 30
0.0
 11
-464.2878490084857
 21
-474.6911857326988
 31
0.0
  0
LINE
  5
D6
330
1F
100
AcDbEntity
  8
0-0
  6
JWW_DASHED1
 62
   120
370
     5
100
AcDbLine
 10
-1054.287849008472
 20
125.2083092024486
 30
0.0
 11
-464.2878490084857
 21
-464.7916907975371
 31
0.0
  0
LINE
  5
D7
330
1F
100
AcDbEntity
  8
0-0
  6
JWW_DASHED1
 62
   120
370
     5
100
AcDbLine
 10
-1054.287849008472
 20
135.1078041376658
 30
0.0
 11
-464.2878490084814
 21
-454.8921958623254
 31
0.0
  0
LINE
  5
D8
330
1F
100
AcDbEntity
  8
0-0
  6
JWW_DASHED1
 62
   120
370
     5
100
AcDbLine
 10
-1054.287849008479
 20
145.0072990728894
 30
0.0
 11
-464.2878490084729
 21
-444.9927009271175
 31
0.0
  0
LINE
  5
D9
330
1F
100
AcDbEntity
  8
0-0
  6
JWW_DASHED1
 62
   120
370
     5
100
AcDbLine
 10
-1054.287849008467
 20
154.9067940080384
 30
0.0
 11
-464.2878490084763
 21
-435.0932059919519
 31
0.0
  0
LINE
  5
DA
330
1F
100
AcDbEntity
  8
0-0
  6
JWW_DASHED1
 62
   120
370
     5
100
AcDbLine
 10
-1054.287849008465
 20
164.8062889432535
 30
0.0
 11
-464.2878490084789
 21
-425.193711056733
 31
0.0
  0
LINE
  5
DB
330
1F
100
AcDbEntity
  8
0-0
  6
JWW_DASHED1
 62
   120
370
     5
100
AcDbLine
 10
-1054.287849008478
 20
174.7057838784276
 30
0.0
 11
-464.2878490084865
 21
-415.2942161215635
 31
0.0
  0
LINE
  5
DC
330
1F
100
AcDbEntity
  8
0-0
  6
JWW_DASHED1
 62
   120
370
     5
100
AcDbLine
 10
-1054.287849008469
 20
184.6052788136355
 30
0.0
 11
-464.2878490084789
 21
-405.3947211863549
 31
0.0
  0
LINE
  5
DD
330
1F
100
AcDbEntity
  8
0-0
  6
JWW_DASHED1
 62
   120
370
     5
100
AcDbLine
 10
-1054.287849008468
 20
194.5047737488505
 30
0.0
 11
-464.2878490084814
 21
-395.4952262511359
 31
0.0
  0
LINE
  5
DE
330
1F
100
AcDbEntity
  8
0-0
  6
JWW_DASHED1
 62
   120
370
     5
100
AcDbLine
 10
-1054.28784900848
 20
204.4042686840247
 30
0.0
 11
-464.2878490084738
 21
-385.5957313159819
 31
0.0
  0
LINE
  5
DF
330
1F
100
AcDbEntity
  8
0-0
  6
JWW_DASHED1
 62
   120
370
     5
100
AcDbLine
 10
-1054.287849008472
 20
214.3037636192325
 30
0.0
 11
-464.2878490084806
 21
-375.6962363807587
 31
0.0
  0
LINE
  5
E0
330
1F
100
AcDbEntity
  8
0-0
  6
JWW_DASHED1
 62
   120
370
     5
100
AcDbLine
 10
-1054.28784900847
 20
224.2032585544467
 30
0.0
 11
-464.287849008484
 21
-365.7967414455389
 31
0.0
  0
LINE
  5
E1
330
1F
100
AcDbEntity
  8
0-0
  6
JWW_DASHED1
 62
   120
370
     5
100
AcDbLine
 10
-1054.287849008482
 20
234.1027534896213
 30
0.0
 11
-464.2878490084763
 21
-355.8972465103848
 31
0.0
  0
LINE
  5
E2
330
1F
100
AcDbEntity
  8
0-0
  6
JWW_DASHED1
 62
   120
370
     5
100
AcDbLine
 10
-1054.287849008474
 20
244.0022484248296
 30
0.0
 11
-464.2878490084831
 21
-345.9977515751616
 31
0.0
  0
LINE
  5
E3
330
1F
100
AcDbEntity
  8
0-0
  6
JWW_DASHED1
 62
   120
370
     5
100
AcDbLine
 10
-1054.287849008466
 20
253.9017433600374
 30
0.0
 11
-464.2878490084746
 21
-336.0982566399538
 31
0.0
  0
LINE
  5
E4
330
1F
100
AcDbEntity
  8
0-0
  6
JWW_DASHED1
 62
   120
370
     5
100
AcDbLine
 10
-1054.287849008485
 20
263.8012382952184
 30
0.0
 11
-464.287849008478
 21
-326.1987617047886
 31
0.0
  0
LINE
  5
E5
330
1F
100
AcDbEntity
  8
0-0
  6
JWW_DASHED1
 62
   120
370
     5
100
AcDbLine
 10
-1054.287849008477
 20
273.7007332304262
 30
0.0
 11
-464.2878490084857
 21
-316.2992667695646
 31
0.0
  0
LINE
  5
E6
330
1F
100
AcDbEntity
  8
0-0
  6
JWW_DASHED1
 62
   120
370
     5
100
AcDbLine
 10
-1054.287849008468
 20
283.6002281656345
 30
0.0
 11
-464.287849008478
 21
-306.3997718343563
 31
0.0
  0
LINE
  5
E7
330
1F
100
AcDbEntity
  8
0-0
  6
JWW_DASHED1
 62
   120
370
     5
100
AcDbLine
 10
-1054.287849008472
 20
293.4997231007997
 30
0.0
 11
-464.2878490084814
 21
-296.5002768991916
 31
0.0
  0
LINE
  5
E8
330
1F
100
AcDbEntity
  8
0-0
  6
JWW_DASHED1
 62
   120
370
     5
100
AcDbLine
 10
-1054.287849008479
 20
303.3992180360236
 30
0.0
 11
-464.2878490084883
 21
-286.6007819639675
 31
0.0
  0
LINE
  5
E9
330
1F
100
AcDbEntity
  8
0-0
  6
JWW_DASHED1
 62
   120
370
     5
100
AcDbLine
 10
-1054.287849008471
 20
313.2987129712315
 30
0.0
 11
-464.2878490084806
 21
-276.7012870287589
 31
0.0
  0
LINE
  5
EA
330
1F
100
AcDbEntity
  8
0-0
  6
JWW_DASHED1
 62
   120
370
     5
100
AcDbLine
 10
-1054.287849008464
 20
323.1982079063864
 30
0.0
 11
-464.287849008478
 21
-266.8017920935996
 31
0.0
  0
LINE
  5
EB
330
1F
100
AcDbEntity
  8
0-0
  6
JWW_DASHED1
 62
   120
370
     5
100
AcDbLine
 10
-1054.287849008482
 20
333.0977028416207
 30
0.0
 11
-464.2878490084755
 21
-256.9022971583859
 31
0.0
  0
LINE
  5
EC
330
1F
100
AcDbEntity
  8
0-0
  6
JWW_DASHED1
 62
   120
370
     5
100
AcDbLine
 10
-1054.287849008474
 20
342.9971977768286
 30
0.0
 11
-464.2878490084823
 21
-247.0028022231627
 31
0.0
  0
LINE
  5
ED
330
1F
100
AcDbEntity
  8
0-0
  6
JWW_DASHED1
 62
   120
370
     5
100
AcDbLine
 10
-1054.287849008467
 20
352.8966927119831
 30
0.0
 11
-464.2878490084806
 21
-237.1033072880026
 31
0.0
  0
LINE
  5
EE
330
1F
100
AcDbEntity
  8
0-0
  6
JWW_DASHED1
 62
   120
370
     5
100
AcDbLine
 10
-1054.287849008484
 20
362.7961876472177
 30
0.0
 11
-464.287849008478
 21
-227.2038123527888
 31
0.0
  0
LINE
  5
EF
330
1F
100
AcDbEntity
  8
0-0
  6
JWW_DASHED1
 62
   120
370
     5
100
AcDbLine
 10
-1054.287849008476
 20
372.6956825824255
 30
0.0
 11
-464.2878490084848
 21
-217.3043174175656
 31
0.0
  0
LINE
  5
F0
330
1F
100
AcDbEntity
  8
0-0
  6
JWW_DASHED1
 62
   120
370
     5
100
AcDbLine
 10
-1054.287849008468
 20
382.5951775175793
 30
0.0
 11
-464.2878490084831
 21
-207.4048224824064
 31
0.0
  0
LINE
  5
F1
330
1F
100
AcDbEntity
  8
0-0
  6
JWW_DASHED1
 62
   120
370
     5
100
AcDbLine
 10
-1054.287849008487
 20
392.4946724528144
 30
0.0
 11
-464.2878490084806
 21
-197.5053275471917
 31
0.0
  0
LINE
  5
F2
330
1F
100
AcDbEntity
  8
0-0
  6
JWW_DASHED1
 62
   120
370
     5
100
AcDbLine
 10
-274.2878490084684
 20
-904.3391640580905
 30
0.0
 11
-267.0697606834867
 21
-911.5572523830723
 31
0.0
  0
LINE
  5
F3
330
1F
100
AcDbEntity
  8
0-0
  6
JWW_DASHED1
 62
   120
370
     5
100
AcDbLine
 10
-274.2878490084752
 20
-894.4396691228674
 30
0.0
 11
-257.1702657482626
 21
-911.5572523830808
 31
0.0
  0
LINE
  5
F4
330
1F
100
AcDbEntity
  8
0-0
  6
JWW_DASHED1
 62
   120
370
     5
100
AcDbLine
 10
-274.2878490084667
 20
-884.5401741876595
 30
0.0
 11
-247.2707708130548
 21
-911.5572523830718
 31
0.0
  0
LINE
  5
F5
330
1F
100
AcDbEntity
  8
0-0
  6
JWW_DASHED1
 62
   120
370
     5
100
AcDbLine
 10
-274.2878490084709
 20
-874.6406792524936
 30
0.0
 11
-237.3712758778896
 21
-911.5572523830757
 31
0.0
  0
LINE
  5
F6
330
1F
100
AcDbEntity
  8
0-0
  6
JWW_DASHED1
 62
   120
370
     5
100
AcDbLine
 10
-274.2878490084624
 20
-864.7411843172857
 30
0.0
 11
-227.4717809426801
 21
-911.5572523830676
 31
0.0
  0
LINE
  5
F7
330
1F
100
AcDbEntity
  8
0-0
  6
JWW_DASHED1
 62
   120
370
     5
100
AcDbLine
 10
-274.2878490084692
 20
-854.8416893820626
 30
0.0
 11
-217.5722860074561
 21
-911.5572523830757
 31
0.0
  0
LINE
  5
F8
330
1F
100
AcDbEntity
  8
0-0
  6
JWW_DASHED1
 62
   120
370
     5
100
AcDbLine
 10
-274.2878490084735
 20
-844.9421944468969
 30
0.0
 11
-207.6727910722917
 21
-911.5572523830787
 31
0.0
  0
LINE
  5
F9
330
1F
100
AcDbEntity
  8
0-0
  6
JWW_DASHED1
 62
   120
370
     5
100
AcDbLine
 10
-274.2878490084649
 20
-835.0426995116886
 30
0.0
 11
-197.773296137083
 21
-911.5572523830706
 31
0.0
  0
LINE
  5
FA
330
1F
100
AcDbEntity
  8
0-0
  6
JWW_DASHED1
 62
   120
370
     5
100
AcDbLine
 10
-274.2878490084718
 20
-825.1432045764655
 30
0.0
 11
-187.873801201859
 21
-911.5572523830782
 31
0.0
  0
LINE
  5
FB
330
1F
100
AcDbEntity
  8
0-0
  6
JWW_DASHED1
 62
   120
370
     5
100
AcDbLine
 10
-274.2878490084752
 20
-815.2437096412998
 30
0.0
 11
-177.9743062666955
 21
-911.5572523830795
 31
0.0
  0
LINE
  5
FC
330
1F
100
AcDbEntity
  8
0-0
  6
JWW_DASHED1
 62
   120
370
     5
100
AcDbLine
 10
-274.2878490084675
 20
-805.3442147060916
 30
0.0
 11
-168.0748113314851
 21
-911.557252383074
 31
0.0
  0
LINE
  5
FD
330
1F
100
AcDbEntity
  8
0-0
  6
JWW_DASHED1
 62
   120
370
     5
100
AcDbLine
 10
-274.2878490084692
 20
-795.4447197709281
 30
0.0
 11
-158.1753163963208
 21
-911.557252383077
 31
0.0
  0
LINE
  5
FE
330
1F
100
AcDbEntity
  8
0-0
  6
JWW_DASHED1
 62
   120
370
     5
100
AcDbLine
 10
-274.2878490084786
 20
-785.5452248357028
 30
0.0
 11
-148.2758214610993
 21
-911.5572523830813
 31
0.0
  0
LINE
  5
FF
330
1F
100
AcDbEntity
  8
0-0
  6
JWW_DASHED1
 62
   120
370
     5
100
AcDbLine
 10
-274.2878490084701
 20
-775.6457299004945
 30
0.0
 11
-138.3763265258881
 21
-911.557252383077
 31
0.0
  0
LINE
  5
100
330
1F
100
AcDbEntity
  8
0-0
  6
JWW_DASHED1
 62
   120
370
     5
100
AcDbLine
 10
-274.2878490084718
 20
-765.746234965331
 30
0.0
 11
-128.4768315907229
 21
-911.5572523830804
 31
0.0
  0
LINE
  5
101
330
1F
100
AcDbEntity
  8
0-0
  6
JWW_DASHED1
 62
   120
370
     5
100
AcDbLine
 10
-274.2878490084803
 20
-755.8467400301066
 30
0.0
 11
-118.5773366555031
 21
-911.5572523830842
 31
0.0
  0
LINE
  5
102
330
1F
100
AcDbEntity
  8
0-0
  6
JWW_DASHED1
 62
   120
370
     5
100
AcDbLine
 10
-274.2878490084726
 20
-745.9472450948975
 30
0.0
 11
-108.6778417202902
 21
-911.5572523830795
 31
0.0
  0
LINE
  5
103
330
1F
100
AcDbEntity
  8
0-0
  6
JWW_DASHED1
 62
   120
370
     5
100
AcDbLine
 10
-274.2878490084743
 20
-736.047750159734
 30
0.0
 11
-98.778346785125
 21
-911.5572523830833
 31
0.0
  0
LINE
  5
104
330
1F
100
AcDbEntity
  8
0-0
  6
JWW_DASHED1
 62
   120
370
     5
100
AcDbLine
 10
-274.2878490084667
 20
-726.148255224525
 30
0.0
 11
-88.87885184991717
 21
-911.5572523830753
 31
0.0
  0
LINE
  5
105
330
1F
100
AcDbEntity
  8
0-0
  6
JWW_DASHED1
 62
   120
370
     5
100
AcDbLine
 10
-274.2878490084752
 20
-716.2487602893013
 30
0.0
 11
-78.97935691469314
 21
-911.5572523830829
 31
0.0
  0
LINE
  5
106
330
1F
100
AcDbEntity
  8
0-0
  6
JWW_DASHED1
 62
   120
370
     5
100
AcDbLine
 10
-274.2878490084752
 20
-706.3492653541382
 30
0.0
 11
-69.0798619795288
 21
-911.5572523830859
 31
0.0
  0
LINE
  5
107
330
1F
100
AcDbEntity
  8
0-0
  6
JWW_DASHED1
 62
   120
370
     5
100
AcDbLine
 10
-274.2878490084701
 20
-696.4497704189279
 30
0.0
 11
-59.18036704431927
 21
-911.5572523830782
 31
0.0
  0
LINE
  5
108
330
1F
100
AcDbEntity
  8
0-0
  6
JWW_DASHED1
 62
   120
370
     5
100
AcDbLine
 10
-274.2878490084769
 20
-686.5502754837042
 30
0.0
 11
-49.28087210910121
 21
-911.5572523830799
 31
0.0
  0
LINE
  5
109
330
1F
100
AcDbEntity
  8
0-0
  6
JWW_DASHED1
 62
   120
370
     5
100
AcDbLine
 10
-274.2878490084649
 20
-676.6507805485544
 30
0.0
 11
-39.3813771739454
 21
-911.557252383074
 31
0.0
  0
LINE
  5
10A
330
1F
100
AcDbEntity
  8
0-0
  6
JWW_DASHED1
 62
   120
370
     5
100
AcDbLine
 10
-274.2878490084701
 20
-666.7512856133329
 30
0.0
 11
-29.48188223872137
 21
-911.5572523830816
 31
0.0
  0
LINE
  5
10B
330
1F
100
AcDbEntity
  8
0-0
  6
JWW_DASHED1
 62
   120
370
     5
100
AcDbLine
 10
-274.2878490084803
 20
-656.8517906781072
 30
0.0
 11
-19.58238730350416
 21
-911.5572523830825
 31
0.0
  0
LINE
  5
10C
330
1F
100
AcDbEntity
  8
0-0
  6
JWW_DASHED1
 62
   120
370
     5
100
AcDbLine
 10
-274.2878490084667
 20
-646.9522957429579
 30
0.0
 11
-9.682892368348348
 21
-911.557252383077
 31
0.0
  0
LINE
  5
10D
330
1F
100
AcDbEntity
  8
0-0
  6
JWW_DASHED1
 62
   120
370
     5
100
AcDbLine
 10
-274.2878490084718
 20
-637.0528008077363
 30
0.0
 11
0.2166025668765315
 21
-911.5572523830847
 31
0.0
  0
LINE
  5
10E
330
1F
100
AcDbEntity
  8
0-0
  6
JWW_DASHED1
 62
   120
370
     5
100
AcDbLine
 10
-274.287849008482
 20
-627.1533058725097
 30
0.0
 11
10.11609750209203
 21
-911.5572523830847
 31
0.0
  0
LINE
  5
10F
330
1F
100
AcDbEntity
  8
0-0
  6
JWW_DASHED1
 62
   120
370
     5
100
AcDbLine
 10
-274.2878490084701
 20
-617.2538109373608
 30
0.0
 11
20.01559243724955
 21
-911.5572523830795
 31
0.0
  0
LINE
  5
110
330
1F
100
AcDbEntity
  8
0-0
  6
JWW_DASHED1
 62
   120
370
     5
100
AcDbLine
 10
-274.2878490084752
 20
-607.3543160021393
 30
0.0
 11
29.91508737247273
 21
-911.5572523830872
 31
0.0
  0
LINE
  5
111
330
1F
100
AcDbEntity
  8
0-0
  6
JWW_DASHED1
 62
   120
370
     5
100
AcDbLine
 10
-274.2878490084803
 20
-597.4548210669719
 30
0.0
 11
39.81458230763025
 21
-911.5572523830825
 31
0.0
  0
LINE
  5
112
330
1F
100
AcDbEntity
  8
0-0
  6
JWW_DASHED1
 62
   120
370
     5
100
AcDbLine
 10
-274.2878490084718
 20
-587.5553261317646
 30
0.0
 11
49.7140772428466
 21
-911.5572523830829
 31
0.0
  0
LINE
  5
113
330
1F
100
AcDbEntity
  8
0-0
  6
JWW_DASHED1
 62
   120
370
     5
100
AcDbLine
 10
-274.2878490084641
 20
-577.6558311965555
 30
0.0
 11
59.61357217805443
 21
-911.557252383074
 31
0.0
  0
LINE
  5
114
330
1F
100
AcDbEntity
  8
0-0
  6
JWW_DASHED1
 62
   120
370
     5
100
AcDbLine
 10
-274.2878490084829
 20
-567.7563362613749
 30
0.0
 11
69.5130671132273
 21
-911.557252383085
 31
0.0
  0
LINE
  5
115
330
1F
100
AcDbEntity
  8
0-0
  6
JWW_DASHED1
 62
   120
370
     5
100
AcDbLine
 10
-274.2878490084743
 20
-557.8568413261676
 30
0.0
 11
79.4125620484445
 21
-911.5572523830859
 31
0.0
  0
LINE
  5
116
330
1F
100
AcDbEntity
  8
0-0
  6
JWW_DASHED1
 62
   120
370
     5
100
AcDbLine
 10
-274.2878490084667
 20
-547.9573463909584
 30
0.0
 11
89.31205698365318
 21
-911.5572523830779
 31
0.0
  0
LINE
  5
117
330
1F
100
AcDbEntity
  8
0-0
  6
JWW_DASHED1
 62
   120
370
     5
100
AcDbLine
 10
-274.2878490084701
 20
-538.0578514557936
 30
0.0
 11
99.21155191881752
 21
-911.5572523830808
 31
0.0
  0
LINE
  5
118
330
1F
100
AcDbEntity
  8
0-0
  6
JWW_DASHED1
 62
   120
370
     5
100
AcDbLine
 10
-274.2878490084769
 20
-528.1583565205705
 30
0.0
 11
109.111046854033
 21
-911.5572523830795
 31
0.0
  0
LINE
  5
119
330
1F
100
AcDbEntity
  8
0-0
  6
JWW_DASHED1
 62
   120
370
     5
100
AcDbLine
 10
-274.2878490084684
 20
-518.2588615853617
 30
0.0
 11
119.0105417892511
 21
-911.5572523830813
 31
0.0
  0
LINE
  5
11A
330
1F
100
AcDbEntity
  8
0-0
  6
JWW_DASHED1
 62
   120
370
     5
100
AcDbLine
 10
-274.2878490084684
 20
-508.3593666502004
 30
0.0
 11
128.9100367244163
 21
-911.5572523830847
 31
0.0
  0
LINE
  5
11B
330
1F
100
AcDbEntity
  8
0-0
  6
JWW_DASHED1
 62
   120
370
     5
100
AcDbLine
 10
-274.2878490084803
 20
-498.4598717149726
 30
0.0
 11
138.8095316596284
 21
-911.5572523830808
 31
0.0
  0
LINE
  5
11C
330
1F
100
AcDbEntity
  8
0-0
  6
JWW_DASHED1
 62
   120
370
     5
100
AcDbLine
 10
-274.2878490084718
 20
-488.5603767797647
 30
0.0
 11
148.7090265948481
 21
-911.5572523830842
 31
0.0
  0
LINE
  5
11D
330
1F
100
AcDbEntity
  8
0-0
  6
JWW_DASHED1
 62
   120
370
     5
100
AcDbLine
 10
-274.2878490084718
 20
-478.6608818446034
 30
0.0
 11
158.6085215300125
 21
-911.5572523830872
 31
0.0
  0
LINE
  5
11E
330
1F
100
AcDbEntity
  8
0-0
  6
JWW_DASHED1
 62
   120
370
     5
100
AcDbLine
 10
-274.287849008482
 20
-468.7613869093764
 30
0.0
 11
168.5080164652254
 21
-911.5572523830833
 31
0.0
  0
LINE
  5
11F
330
1F
100
AcDbEntity
  8
0-0
  6
JWW_DASHED1
 62
   120
370
     5
100
AcDbLine
 10
-274.2878490084735
 20
-458.8618919741677
 30
0.0
 11
178.4075114004452
 21
-911.5572523830867
 31
0.0
  0
LINE
  5
120
330
1F
100
AcDbEntity
  8
0-0
  6
JWW_DASHED1
 62
   120
370
     5
100
AcDbLine
 10
-274.2878490084735
 20
-448.9623970390068
 30
0.0
 11
188.3070063356104
 21
-911.5572523830901
 31
0.0
  0
LINE
  5
121
330
1F
100
AcDbEntity
  8
0-0
  6
JWW_DASHED1
 62
   120
370
     5
100
AcDbLine
 10
-274.2878490084684
 20
-439.0629021037947
 30
0.0
 11
198.206501270819
 21
-911.5572523830825
 31
0.0
  0
LINE
  5
122
330
1F
100
AcDbEntity
  8
0-0
  6
JWW_DASHED1
 62
   120
370
     5
100
AcDbLine
 10
-274.2878490084752
 20
-429.1634071685715
 30
0.0
 11
208.1059962060431
 21
-911.5572523830901
 31
0.0
  0
LINE
  5
123
330
1F
100
AcDbEntity
  8
0-0
  6
JWW_DASHED1
 62
   120
370
     5
100
AcDbLine
 10
-274.2878490084632
 20
-419.2639122334225
 30
0.0
 11
218.0054911411929
 21
-911.5572523830779
 31
0.0
  0
LINE
  5
124
330
1F
100
AcDbEntity
  8
0-0
  6
JWW_DASHED1
 62
   120
370
     5
100
AcDbLine
 10
-274.2878490084667
 20
-409.3644172982019
 30
0.0
 11
227.9049860764161
 21
-911.5572523830855
 31
0.0
  0
LINE
  5
125
330
1F
100
AcDbEntity
  8
0-0
  6
JWW_DASHED1
 62
   120
370
     5
100
AcDbLine
 10
-274.2878490084743
 20
-399.4649223630329
 30
0.0
 11
237.8044810115813
 21
-911.5572523830889
 31
0.0
  0
LINE
  5
126
330
1F
100
AcDbEntity
  8
0-0
  6
JWW_DASHED1
 62
   120
370
     5
100
AcDbLine
 10
-274.2878490084667
 20
-389.5654274278246
 30
0.0
 11
247.7039759467891
 21
-911.5572523830804
 31
0.0
  0
LINE
  5
127
330
1F
100
AcDbEntity
  8
0-0
  6
JWW_DASHED1
 62
   120
370
     5
100
AcDbLine
 10
-274.2878490084701
 20
-379.6659324926048
 30
0.0
 11
257.603470882014
 21
-911.5572523830889
 31
0.0
  0
LINE
  5
128
330
1F
100
AcDbEntity
  8
0-0
  6
JWW_DASHED1
 62
   120
370
     5
100
AcDbLine
 10
-274.2878490084769
 20
-369.7664375574358
 30
0.0
 11
267.5029658171792
 21
-911.5572523830915
 31
0.0
  0
LINE
  5
129
330
1F
100
AcDbEntity
  8
0-0
  6
JWW_DASHED1
 62
   120
370
     5
100
AcDbLine
 10
-274.2878490084684
 20
-359.8669426222284
 30
0.0
 11
277.4024607523879
 21
-911.5572523830842
 31
0.0
  0
LINE
  5
12A
330
1F
100
AcDbEntity
  8
0-0
  6
JWW_DASHED1
 62
   120
370
     5
100
AcDbLine
 10
-274.2878490084718
 20
-349.9674476870082
 30
0.0
 11
287.3019556876119
 21
-911.5572523830918
 31
0.0
  0
LINE
  5
12B
330
1F
100
AcDbEntity
  8
0-0
  6
JWW_DASHED1
 62
   120
370
     5
100
AcDbLine
 10
-274.2878490084794
 20
-340.0679527518388
 30
0.0
 11
297.2014506227617
 21
-911.5572523830799
 31
0.0
  0
LINE
  5
12C
330
1F
100
AcDbEntity
  8
0-0
  6
JWW_DASHED1
 62
   120
370
     5
100
AcDbLine
 10
-274.2878490084709
 20
-330.168457816631
 30
0.0
 11
307.1009455579849
 21
-911.5572523830867
 31
0.0
  0
LINE
  5
12D
330
1F
100
AcDbEntity
  8
0-0
  6
JWW_DASHED1
 62
   120
370
     5
100
AcDbLine
 10
-274.2878490084735
 20
-320.268962881412
 30
0.0
 11
315.7121509915117
 21
-910.2689628813977
 31
0.0
  0
LINE
  5
12E
330
1F
100
AcDbEntity
  8
0-0
  6
JWW_DASHED1
 62
   120
370
     5
100
AcDbLine
 10
-274.287849008482
 20
-310.3694679462417
 30
0.0
 11
315.7121509915254
 21
-900.3694679462487
 31
0.0
  0
LINE
  5
12F
330
1F
100
AcDbEntity
  8
0-0
  6
JWW_DASHED1
 62
   120
370
     5
100
AcDbLine
 10
-274.2878490084735
 20
-300.4699730110339
 30
0.0
 11
315.7121509915169
 21
-890.4699730110246
 31
0.0
  0
LINE
  5
130
330
1F
100
AcDbEntity
  8
0-0
  6
JWW_DASHED1
 62
   120
370
     5
100
AcDbLine
 10
-274.2878490084649
 20
-290.5704780758256
 30
0.0
 11
315.7121509915254
 21
-880.5704780758164
 31
0.0
  0
LINE
  5
131
330
1F
100
AcDbEntity
  8
0-0
  6
JWW_DASHED1
 62
   120
370
     5
100
AcDbLine
 10
-274.2878490084846
 20
-280.6709831406447
 30
0.0
 11
315.712150991522
 21
-870.6709831406516
 31
0.0
  0
LINE
  5
132
330
1F
100
AcDbEntity
  8
0-0
  6
JWW_DASHED1
 62
   120
370
     5
100
AcDbLine
 10
-274.287849008476
 20
-270.7714882054369
 30
0.0
 11
315.7121509915152
 21
-860.7714882054277
 31
0.0
  0
LINE
  5
133
330
1F
100
AcDbEntity
  8
0-0
  6
JWW_DASHED1
 62
   120
370
     5
100
AcDbLine
 10
-274.2878490084684
 20
-260.8719932702286
 30
0.0
 11
315.712150991522
 21
-850.8719932702194
 31
0.0
  0
LINE
  5
134
330
1F
100
AcDbEntity
  8
0-0
  6
JWW_DASHED1
 62
   120
370
     5
100
AcDbLine
 10
-274.2878490084718
 20
-250.9724983350634
 30
0.0
 11
315.7121509915203
 21
-840.9724983350545
 31
0.0
  0
LINE
  5
135
330
1F
100
AcDbEntity
  8
0-0
  6
JWW_DASHED1
 62
   120
370
     5
100
AcDbLine
 10
-274.2878490084786
 20
-241.0730033998398
 30
0.0
 11
315.7121509915288
 21
-831.0730033998468
 31
0.0
  0
LINE
  5
136
330
1F
100
AcDbEntity
  8
0-0
  6
JWW_DASHED1
 62
   120
370
     5
100
AcDbLine
 10
-274.2878490084701
 20
-231.1735084646324
 30
0.0
 11
315.7121509915203
 21
-821.1735084646218
 31
0.0
  0
LINE
  5
137
330
1F
100
AcDbEntity
  8
0-0
  6
JWW_DASHED1
 62
   120
370
     5
100
AcDbLine
 10
-274.2878490084684
 20
-221.2740135294723
 30
0.0
 11
315.7121509915186
 21
-811.2740135294584
 31
0.0
  0
LINE
  5
138
330
1F
100
AcDbEntity
  8
0-0
  6
JWW_DASHED1
 62
   120
370
     5
100
AcDbLine
 10
-274.2878490084811
 20
-211.3745185942427
 30
0.0
 11
315.7121509915254
 21
-801.3745185942497
 31
0.0
  0
LINE
  5
139
330
1F
100
AcDbEntity
  8
0-0
  6
JWW_DASHED1
 62
   120
370
     5
100
AcDbLine
 10
-274.2878490084726
 20
-201.4750236590353
 30
0.0
 11
315.7121509915186
 21
-791.4750236590257
 31
0.0
  0
LINE
  5
13A
330
1F
100
AcDbEntity
  8
0-0
  6
JWW_DASHED1
 62
   120
370
     5
100
AcDbLine
 10
-274.2878490084701
 20
-191.5755287238757
 30
0.0
 11
315.7121509915152
 21
-781.5755287238613
 31
0.0
  0
LINE
  5
13B
330
1F
100
AcDbEntity
  8
0-0
  6
JWW_DASHED1
 62
   120
370
     5
100
AcDbLine
 10
-274.2878490084837
 20
-181.6760337886457
 30
0.0
 11
315.7121509915237
 21
-771.6760337886526
 31
0.0
  0
LINE
  5
13C
330
1F
100
AcDbEntity
  8
0-0
  6
JWW_DASHED1
 62
   120
370
     5
100
AcDbLine
 10
-274.2878490084752
 20
-171.7765388534383
 30
0.0
 11
315.7121509915152
 21
-761.7765388534286
 31
0.0
  0
LINE
  5
13D
330
1F
100
AcDbEntity
  8
0-0
  6
JWW_DASHED1
 62
   120
370
     5
100
AcDbLine
 10
-274.2878490084726
 20
-161.8770439182786
 30
0.0
 11
315.7121509915135
 21
-751.8770439182642
 31
0.0
  0
LINE
  5
13E
330
1F
100
AcDbEntity
  8
0-0
  6
JWW_DASHED1
 62
   120
370
     5
100
AcDbLine
 10
-274.2878490084701
 20
-151.9775489830644
 30
0.0
 11
315.7121509915203
 21
-741.9775489830556
 31
0.0
  0
LINE
  5
13F
330
1F
100
AcDbEntity
  8
0-0
  6
JWW_DASHED1
 62
   120
370
     5
100
AcDbLine
 10
-274.2878490084735
 20
-142.0780540478997
 30
0.0
 11
315.7121509915169
 21
-732.07805404789
 31
0.0
  0
LINE
  5
140
330
1F
100
AcDbEntity
  8
0-0
  6
JWW_DASHED1
 62
   120
370
     5
100
AcDbLine
 10
-274.2878490084649
 20
-132.1785591126918
 30
0.0
 11
315.7121509915254
 21
-722.1785591126826
 31
0.0
  0
LINE
  5
141
330
1F
100
AcDbEntity
  8
0-0
  6
JWW_DASHED1
 62
   120
370
     5
100
AcDbLine
 10
-274.2878490084658
 20
-122.2790641774746
 30
0.0
 11
315.7121509915203
 21
-712.2790641774602
 31
0.0
  0
LINE
  5
142
330
1F
100
AcDbEntity
  8
0-0
  6
JWW_DASHED1
 62
   120
370
     5
100
AcDbLine
 10
-274.287849008476
 20
-112.3795692423026
 30
0.0
 11
315.7121509915152
 21
-702.3795692422938
 31
0.0
  0
LINE
  5
143
330
1F
100
AcDbEntity
  8
0-0
  6
JWW_DASHED1
 62
   120
370
     5
100
AcDbLine
 10
-274.2878490084675
 20
-102.4800743070948
 30
0.0
 11
315.7121509915237
 21
-692.4800743070855
 31
0.0
  0
LINE
  5
144
330
1F
100
AcDbEntity
  8
0-0
  6
JWW_DASHED1
 62
   120
370
     5
100
AcDbLine
 10
-274.2878490084684
 20
-92.58057937187758
 30
0.0
 11
315.7121509915169
 21
-682.5805793718632
 31
0.0
  0
LINE
  5
145
330
1F
100
AcDbEntity
  8
0-0
  6
JWW_DASHED1
 62
   120
370
     5
100
AcDbLine
 10
-274.2878490084786
 20
-82.68108443670556
 30
0.0
 11
315.7121509915279
 21
-672.6810844367121
 31
0.0
  0
LINE
  5
146
330
1F
100
AcDbEntity
  8
0-0
  6
JWW_DASHED1
 62
   120
370
     5
100
AcDbLine
 10
-274.2878490084701
 20
-72.78158950149773
 30
0.0
 11
315.7121509915211
 21
-662.781589501489
 31
0.0
  0
LINE
  5
147
330
1F
100
AcDbEntity
  8
0-0
  6
JWW_DASHED1
 62
   120
370
     5
100
AcDbLine
 10
-274.2878490084701
 20
-62.88209456628095
 30
0.0
 11
315.7121509915152
 21
-652.8820945662666
 31
0.0
  0
LINE
  5
148
330
1F
100
AcDbEntity
  8
0-0
  6
JWW_DASHED1
 62
   120
370
     5
100
AcDbLine
 10
-274.2878490084803
 20
-52.98259963110894
 30
0.0
 11
315.7121509915254
 21
-642.982599631115
 31
0.0
  0
LINE
  5
149
330
1F
100
AcDbEntity
  8
0-0
  6
JWW_DASHED1
 62
   120
370
     5
100
AcDbLine
 10
-274.2878490084726
 20
-43.08310469590069
 30
0.0
 11
315.7121509915177
 21
-633.0831046958915
 31
0.0
  0
LINE
  5
14A
330
1F
100
AcDbEntity
  8
0-0
  6
JWW_DASHED1
 62
   120
370
     5
100
AcDbLine
 10
-274.2878490084726
 20
-33.18360976068476
 30
0.0
 11
315.7121509915126
 21
-623.1836097606696
 31
0.0
  0
LINE
  5
14B
330
1F
100
AcDbEntity
  8
0-0
  6
JWW_DASHED1
 62
   120
370
     5
100
AcDbLine
 10
-274.2878490084837
 20
-23.28411482551147
 30
0.0
 11
315.7121509915228
 21
-613.284114825518
 31
0.0
  0
LINE
  5
14C
330
1F
100
AcDbEntity
  8
0-0
  6
JWW_DASHED1
 62
   120
370
     5
100
AcDbLine
 10
-274.2878490084752
 20
-13.38461989030364
 30
0.0
 11
315.7121509915152
 21
-603.384619890294
 31
0.0
  0
LINE
  5
14D
330
1F
100
AcDbEntity
  8
0-0
  6
JWW_DASHED1
 62
   120
370
     5
100
AcDbLine
 10
-274.2878490084667
 20
-3.485124955095813
 30
0.0
 11
315.7121509915237
 21
-593.4851249550866
 31
0.0
  0
LINE
  5
14E
330
1F
100
AcDbEntity
  8
0-0
  6
JWW_DASHED1
 62
   120
370
     5
100
AcDbLine
 10
-274.2878490084709
 20
6.414369980069807
 30
0.0
 11
315.7121509915203
 21
-583.5856300199209
 31
0.0
  0
LINE
  5
14F
330
1F
100
AcDbEntity
  8
0-0
  6
JWW_DASHED1
 62
   120
370
     5
100
AcDbLine
 10
-274.2878490084777
 20
16.31386491529341
 30
0.0
 11
315.7121509915135
 21
-573.6861350846978
 31
0.0
  0
LINE
  5
150
330
1F
100
AcDbEntity
  8
0-0
  6
JWW_DASHED1
 62
   120
370
     5
100
AcDbLine
 10
-274.2878490084692
 20
26.21335985050123
 30
0.0
 11
315.712150991522
 21
-563.7866401494896
 31
0.0
  0
LINE
  5
151
330
1F
100
AcDbEntity
  8
0-0
  6
JWW_DASHED1
 62
   120
370
     5
100
AcDbLine
 10
-274.2878490084726
 20
36.11285478566643
 30
0.0
 11
315.7121509915177
 21
-553.8871452143239
 31
0.0
  0
LINE
  5
152
330
1F
100
AcDbEntity
  8
0-0
  6
JWW_DASHED1
 62
   120
370
     5
100
AcDbLine
 10
-274.2878490084803
 20
46.01234972089046
 30
0.0
 11
315.7121509915271
 21
-543.9876502791165
 31
0.0
  0
LINE
  5
153
330
1F
100
AcDbEntity
  8
0-0
  6
JWW_DASHED1
 62
   120
370
     5
100
AcDbLine
 10
-274.2878490084718
 20
55.91184465609828
 30
0.0
 11
315.7121509915186
 21
-534.0881553438925
 31
0.0
  0
LINE
  5
154
330
1F
100
AcDbEntity
  8
0-0
  6
JWW_DASHED1
 62
   120
370
     5
100
AcDbLine
 10
-274.2878490084667
 20
65.81133959125495
 30
0.0
 11
315.7121509915186
 21
-524.1886604087307
 31
0.0
  0
LINE
  5
155
330
1F
100
AcDbEntity
  8
0-0
  6
JWW_DASHED1
 62
   120
370
     5
100
AcDbLine
 10
-274.2878490084829
 20
75.7108345264875
 30
0.0
 11
315.7121509915237
 21
-514.2891654735195
 31
0.0
  0
LINE
  5
156
330
1F
100
AcDbEntity
  8
0-0
  6
JWW_DASHED1
 62
   120
370
     5
100
AcDbLine
 10
-274.2878490084743
 20
85.61032946169533
 30
0.0
 11
315.7121509915169
 21
-504.3896705382954
 31
0.0
  0
LINE
  5
157
330
1F
100
AcDbEntity
  8
0-0
  6
JWW_DASHED1
 62
   120
370
     5
100
AcDbLine
 10
-274.2878490084684
 20
95.50982439685157
 30
0.0
 11
315.7121509915169
 21
-494.490175603134
 31
0.0
  0
LINE
  5
158
330
1F
100
AcDbEntity
  8
0-0
  6
JWW_DASHED1
 62
   120
370
     5
100
AcDbLine
 10
-274.2878490084854
 20
105.4093193320846
 30
0.0
 11
315.7121509915211
 21
-484.5906806679224
 31
0.0
  0
LINE
  5
159
330
1F
100
AcDbEntity
  8
0-0
  6
JWW_DASHED1
 62
   120
370
     5
100
AcDbLine
 10
-274.2878490084769
 20
115.3088142672924
 30
0.0
 11
315.7121509915143
 21
-474.6911857326988
 31
0.0
  0
LINE
  5
15A
330
1F
100
AcDbEntity
  8
0-0
  6
JWW_DASHED1
 62
   120
370
     5
100
AcDbLine
 10
-274.2878490084718
 20
125.2083092024486
 30
0.0
 11
315.7121509915143
 21
-464.7916907975371
 31
0.0
  0
LINE
  5
15B
330
1F
100
AcDbEntity
  8
0-0
  6
JWW_DASHED1
 62
   120
370
     5
100
AcDbLine
 10
-274.2878490084718
 20
135.1078041376658
 30
0.0
 11
315.7121509915186
 21
-454.8921958623254
 31
0.0
  0
LINE
  5
15C
330
1F
100
AcDbEntity
  8
0-0
  6
JWW_DASHED1
 62
   120
370
     5
100
AcDbLine
 10
-274.2878490084794
 20
145.0072990728894
 30
0.0
 11
315.7121509915271
 21
-444.9927009271175
 31
0.0
  0
LINE
  5
15D
330
1F
100
AcDbEntity
  8
0-0
  6
JWW_DASHED1
 62
   120
370
     5
100
AcDbLine
 10
-274.2878490084667
 20
154.9067940080384
 30
0.0
 11
315.7121509915237
 21
-435.0932059919519
 31
0.0
  0
LINE
  5
15E
330
1F
100
AcDbEntity
  8
0-0
  6
JWW_DASHED1
 62
   120
370
     5
100
AcDbLine
 10
-274.2878490084649
 20
164.8062889432535
 30
0.0
 11
315.7121509915211
 21
-425.193711056733
 31
0.0
  0
LINE
  5
15F
330
1F
100
AcDbEntity
  8
0-0
  6
JWW_DASHED1
 62
   120
370
     5
100
AcDbLine
 10
-274.2878490084777
 20
174.7057838784276
 30
0.0
 11
315.7121509915135
 21
-415.2942161215635
 31
0.0
  0
LINE
  5
160
330
1F
100
AcDbEntity
  8
0-0
  6
JWW_DASHED1
 62
   120
370
     5
100
AcDbLine
 10
-274.2878490084692
 20
184.6052788136355
 30
0.0
 11
315.7121509915211
 21
-405.3947211863549
 31
0.0
  0
LINE
  5
161
330
1F
100
AcDbEntity
  8
0-0
  6
JWW_DASHED1
 62
   120
370
     5
100
AcDbLine
 10
-274.2878490084684
 20
194.5047737488505
 30
0.0
 11
315.7121509915186
 21
-395.4952262511359
 31
0.0
  0
LINE
  5
162
330
1F
100
AcDbEntity
  8
0-0
  6
JWW_DASHED1
 62
   120
370
     5
100
AcDbLine
 10
-274.2878490084803
 20
204.4042686840247
 30
0.0
 11
315.7121509915262
 21
-385.5957313159819
 31
0.0
  0
LINE
  5
163
330
1F
100
AcDbEntity
  8
0-0
  6
JWW_DASHED1
 62
   120
370
     5
100
AcDbLine
 10
-274.2878490084718
 20
214.3037636192325
 30
0.0
 11
315.7121509915194
 21
-375.6962363807587
 31
0.0
  0
LINE
  5
164
330
1F
100
AcDbEntity
  8
0-0
  6
JWW_DASHED1
 62
   120
370
     5
100
AcDbLine
 10
-274.2878490084701
 20
224.2032585544467
 30
0.0
 11
315.712150991516
 21
-365.7967414455389
 31
0.0
  0
LINE
  5
165
330
1F
100
AcDbEntity
  8
0-0
  6
JWW_DASHED1
 62
   120
370
     5
100
AcDbLine
 10
-274.287849008482
 20
234.1027534896213
 30
0.0
 11
315.7121509915237
 21
-355.8972465103848
 31
0.0
  0
LINE
  5
166
330
1F
100
AcDbEntity
  8
0-0
  6
JWW_DASHED1
 62
   120
370
     5
100
AcDbLine
 10
-274.2878490084743
 20
244.0022484248296
 30
0.0
 11
315.7121509915169
 21
-345.9977515751616
 31
0.0
  0
LINE
  5
167
330
1F
100
AcDbEntity
  8
0-0
  6
JWW_DASHED1
 62
   120
370
     5
100
AcDbLine
 10
-274.2878490084658
 20
253.9017433600374
 30
0.0
 11
315.7121509915254
 21
-336.0982566399538
 31
0.0
  0
LINE
  5
168
330
1F
100
AcDbEntity
  8
0-0
  6
JWW_DASHED1
 62
   120
370
     5
100
AcDbLine
 10
-274.2878490084854
 20
263.8012382952184
 30
0.0
 11
315.712150991522
 21
-326.1987617047886
 31
0.0
  0
LINE
  5
169
330
1F
100
AcDbEntity
  8
0-0
  6
JWW_DASHED1
 62
   120
370
     5
100
AcDbLine
 10
-274.2878490084769
 20
273.7007332304262
 30
0.0
 11
315.7121509915143
 21
-316.2992667695646
 31
0.0
  0
LINE
  5
16A
330
1F
100
AcDbEntity
  8
0-0
  6
JWW_DASHED1
 62
   120
370
     5
100
AcDbLine
 10
-274.2878490084684
 20
283.6002281656345
 30
0.0
 11
315.712150991522
 21
-306.3997718343563
 31
0.0
  0
LINE
  5
16B
330
1F
100
AcDbEntity
  8
0-0
  6
JWW_DASHED1
 62
   120
370
     5
100
AcDbLine
 10
-274.2878490084718
 20
293.4997231007997
 30
0.0
 11
315.7121509915186
 21
-296.5002768991916
 31
0.0
  0
LINE
  5
16C
330
1F
100
AcDbEntity
  8
0-0
  6
JWW_DASHED1
 62
   120
370
     5
100
AcDbLine
 10
-274.2878490084794
 20
303.3992180360236
 30
0.0
 11
315.7121509915117
 21
-286.6007819639675
 31
0.0
  0
LINE
  5
16D
330
1F
100
AcDbEntity
  8
0-0
  6
JWW_DASHED1
 62
   120
370
     5
100
AcDbLine
 10
-274.2878490084709
 20
313.2987129712315
 30
0.0
 11
315.7121509915194
 21
-276.7012870287589
 31
0.0
  0
LINE
  5
16E
330
1F
100
AcDbEntity
  8
0-0
  6
JWW_DASHED1
 62
   120
370
     5
100
AcDbLine
 10
-274.2878490084641
 20
323.1982079063864
 30
0.0
 11
315.712150991522
 21
-266.8017920935996
 31
0.0
  0
LINE
  5
16F
330
1F
100
AcDbEntity
  8
0-0
  6
JWW_DASHED1
 62
   120
370
     5
100
AcDbLine
 10
-274.287849008482
 20
333.0977028416207
 30
0.0
 11
315.7121509915245
 21
-256.9022971583859
 31
0.0
  0
LINE
  5
170
330
1F
100
AcDbEntity
  8
0-0
  6
JWW_DASHED1
 62
   120
370
     5
100
AcDbLine
 10
-274.2878490084735
 20
342.9971977768286
 30
0.0
 11
315.7121509915177
 21
-247.0028022231627
 31
0.0
  0
LINE
  5
171
330
1F
100
AcDbEntity
  8
0-0
  6
JWW_DASHED1
 62
   120
370
     5
100
AcDbLine
 10
-274.2878490084667
 20
352.8966927119831
 30
0.0
 11
315.7121509915194
 21
-237.1033072880026
 31
0.0
  0
LINE
  5
172
330
1F
100
AcDbEntity
  8
0-0
  6
JWW_DASHED1
 62
   120
370
     5
100
AcDbLine
 10
-274.2878490084846
 20
362.7961876472177
 30
0.0
 11
315.712150991522
 21
-227.2038123527888
 31
0.0
  0
LINE
  5
173
330
1F
100
AcDbEntity
  8
0-0
  6
JWW_DASHED1
 62
   120
370
     5
100
AcDbLine
 10
-274.287849008476
 20
372.6956825824255
 30
0.0
 11
315.7121509915152
 21
-217.3043174175656
 31
0.0
  0
LINE
  5
174
330
1F
100
AcDbEntity
  8
0-0
  6
JWW_DASHED1
 62
   120
370
     5
100
AcDbLine
 10
-274.2878490084684
 20
382.5951775175793
 30
0.0
 11
315.7121509915169
 21
-207.4048224824064
 31
0.0
  0
LINE
  5
175
330
1F
100
AcDbEntity
  8
0-0
  6
JWW_DASHED1
 62
   120
370
     5
100
AcDbLine
 10
-274.2878490084871
 20
392.4946724528144
 30
0.0
 11
315.7121509915194
 21
-197.5053275471917
 31
0.0
  0
LINE
  5
176
330
1F
100
AcDbEntity
  8
0-0
  6
JWW_DASHED1
 62
   120
370
     5
100
AcDbLine
 10
505.7121509915316
 20
-904.3391640580905
 30
0.0
 11
512.9302393165133
 21
-911.5572523830723
 31
0.0
  0
LINE
  5
177
330
1F
100
AcDbEntity
  8
0-0
  6
JWW_DASHED1
 62
   120
370
     5
100
AcDbLine
 10
505.7121509915248
 20
-894.4396691228674
 30
0.0
 11
522.8297342517374
 21
-911.5572523830808
 31
0.0
  0
LINE
  5
178
330
1F
100
AcDbEntity
  8
0-0
  6
JWW_DASHED1
 62
   120
370
     5
100
AcDbLine
 10
505.7121509915333
 20
-884.5401741876595
 30
0.0
 11
532.7292291869452
 21
-911.5572523830718
 31
0.0
  0
LINE
  5
179
330
1F
100
AcDbEntity
  8
0-0
  6
JWW_DASHED1
 62
   120
370
     5
100
AcDbLine
 10
505.7121509915291
 20
-874.6406792524936
 30
0.0
 11
542.6287241221104
 21
-911.5572523830757
 31
0.0
  0
LINE
  5
17A
330
1F
100
AcDbEntity
  8
0-0
  6
JWW_DASHED1
 62
   120
370
     5
100
AcDbLine
 10
505.7121509915376
 20
-864.7411843172857
 30
0.0
 11
552.5282190573199
 21
-911.5572523830676
 31
0.0
  0
LINE
  5
17B
330
1F
100
AcDbEntity
  8
0-0
  6
JWW_DASHED1
 62
   120
370
     5
100
AcDbLine
 10
505.7121509915308
 20
-854.8416893820626
 30
0.0
 11
562.4277139925439
 21
-911.5572523830757
 31
0.0
  0
LINE
  5
17C
330
1F
100
AcDbEntity
  8
0-0
  6
JWW_DASHED1
 62
   120
370
     5
100
AcDbLine
 10
505.7121509915265
 20
-844.9421944468969
 30
0.0
 11
572.3272089277083
 21
-911.5572523830787
 31
0.0
  0
LINE
  5
17D
330
1F
100
AcDbEntity
  8
0-0
  6
JWW_DASHED1
 62
   120
370
     5
100
AcDbLine
 10
505.7121509915351
 20
-835.0426995116886
 30
0.0
 11
582.226703862917
 21
-911.5572523830706
 31
0.0
  0
LINE
  5
17E
330
1F
100
AcDbEntity
  8
0-0
  6
JWW_DASHED1
 62
   120
370
     5
100
AcDbLine
 10
505.7121509915282
 20
-825.1432045764655
 30
0.0
 11
592.126198798141
 21
-911.5572523830782
 31
0.0
  0
LINE
  5
17F
330
1F
100
AcDbEntity
  8
0-0
  6
JWW_DASHED1
 62
   120
370
     5
100
AcDbLine
 10
505.7121509915248
 20
-815.2437096412998
 30
0.0
 11
602.0256937333045
 21
-911.5572523830795
 31
0.0
  0
LINE
  5
180
330
1F
100
AcDbEntity
  8
0-0
  6
JWW_DASHED1
 62
   120
370
     5
100
AcDbLine
 10
505.7121509915325
 20
-805.3442147060916
 30
0.0
 11
611.9251886685149
 21
-911.557252383074
 31
0.0
  0
LINE
  5
181
330
1F
100
AcDbEntity
  8
0-0
  6
JWW_DASHED1
 62
   120
370
     5
100
AcDbLine
 10
505.7121509915308
 20
-795.4447197709281
 30
0.0
 11
621.8246836036792
 21
-911.557252383077
 31
0.0
  0
LINE
  5
182
330
1F
100
AcDbEntity
  8
0-0
  6
JWW_DASHED1
 62
   120
370
     5
100
AcDbLine
 10
505.7121509915214
 20
-785.5452248357028
 30
0.0
 11
631.7241785389007
 21
-911.5572523830813
 31
0.0
  0
LINE
  5
183
330
1F
100
AcDbEntity
  8
0-0
  6
JWW_DASHED1
 62
   120
370
     5
100
AcDbLine
 10
505.7121509915299
 20
-775.6457299004945
 30
0.0
 11
641.6236734741119
 21
-911.557252383077
 31
0.0
  0
LINE
  5
184
330
1F
100
AcDbEntity
  8
0-0
  6
JWW_DASHED1
 62
   120
370
     5
100
AcDbLine
 10
505.7121509915282
 20
-765.746234965331
 30
0.0
 11
651.5231684092771
 21
-911.5572523830804
 31
0.0
  0
LINE
  5
185
330
1F
100
AcDbEntity
  8
0-0
  6
JWW_DASHED1
 62
   120
370
     5
100
AcDbLine
 10
505.7121509915197
 20
-755.8467400301066
 30
0.0
 11
661.4226633444969
 21
-911.5572523830842
 31
0.0
  0
LINE
  5
186
330
1F
100
AcDbEntity
  8
0-0
  6
JWW_DASHED1
 62
   120
370
     5
100
AcDbLine
 10
505.7121509915274
 20
-745.9472450948975
 30
0.0
 11
671.3221582797098
 21
-911.5572523830795
 31
0.0
  0
LINE
  5
187
330
1F
100
AcDbEntity
  8
0-0
  6
JWW_DASHED1
 62
   120
370
     5
100
AcDbLine
 10
505.7121509915257
 20
-736.047750159734
 30
0.0
 11
681.221653214875
 21
-911.5572523830833
 31
0.0
  0
LINE
  5
188
330
1F
100
AcDbEntity
  8
0-0
  6
JWW_DASHED1
 62
   120
370
     5
100
AcDbLine
 10
505.7121509915333
 20
-726.148255224525
 30
0.0
 11
691.1211481500828
 21
-911.5572523830753
 31
0.0
  0
LINE
  5
189
330
1F
100
AcDbEntity
  8
0-0
  6
JWW_DASHED1
 62
   120
370
     5
100
AcDbLine
 10
505.7121509915248
 20
-716.2487602893013
 30
0.0
 11
701.0206430853068
 21
-911.5572523830829
 31
0.0
  0
LINE
  5
18A
330
1F
100
AcDbEntity
  8
0-0
  6
JWW_DASHED1
 62
   120
370
     5
100
AcDbLine
 10
505.7121509915248
 20
-706.3492653541382
 30
0.0
 11
710.9201380204712
 21
-911.5572523830859
 31
0.0
  0
LINE
  5
18B
330
1F
100
AcDbEntity
  8
0-0
  6
JWW_DASHED1
 62
   120
370
     5
100
AcDbLine
 10
505.7121509915299
 20
-696.4497704189279
 30
0.0
 11
720.8196329556807
 21
-911.5572523830782
 31
0.0
  0
LINE
  5
18C
330
1F
100
AcDbEntity
  8
0-0
  6
JWW_DASHED1
 62
   120
370
     5
100
AcDbLine
 10
505.7121509915231
 20
-686.5502754837042
 30
0.0
 11
730.7191278908988
 21
-911.5572523830799
 31
0.0
  0
LINE
  5
18D
330
1F
100
AcDbEntity
  8
0-0
  6
JWW_DASHED1
 62
   120
370
     5
100
AcDbLine
 10
505.7121509915351
 20
-676.6507805485544
 30
0.0
 11
740.6186228260547
 21
-911.557252383074
 31
0.0
  0
LINE
  5
18E
330
1F
100
AcDbEntity
  8
0-0
  6
JWW_DASHED1
 62
   120
370
     5
100
AcDbLine
 10
505.7121509915299
 20
-666.7512856133329
 30
0.0
 11
750.5181177612786
 21
-911.5572523830816
 31
0.0
  0
LINE
  5
18F
330
1F
100
AcDbEntity
  8
0-0
  6
JWW_DASHED1
 62
   120
370
     5
100
AcDbLine
 10
505.7121509915197
 20
-656.8517906781072
 30
0.0
 11
760.4176126964958
 21
-911.5572523830825
 31
0.0
  0
LINE
  5
190
330
1F
100
AcDbEntity
  8
0-0
  6
JWW_DASHED1
 62
   120
370
     5
100
AcDbLine
 10
505.7121509915333
 20
-646.9522957429579
 30
0.0
 11
770.3171076316517
 21
-911.557252383077
 31
0.0
  0
LINE
  5
191
330
1F
100
AcDbEntity
  8
0-0
  6
JWW_DASHED1
 62
   120
370
     5
100
AcDbLine
 10
505.7121509915282
 20
-637.0528008077363
 30
0.0
 11
780.2166025668765
 21
-911.5572523830847
 31
0.0
  0
LINE
  5
192
330
1F
100
AcDbEntity
  8
0-0
  6
JWW_DASHED1
 62
   120
370
     5
100
AcDbLine
 10
505.712150991518
 20
-627.1533058725097
 30
0.0
 11
790.1160975020921
 21
-911.5572523830847
 31
0.0
  0
LINE
  5
193
330
1F
100
AcDbEntity
  8
0-0
  6
JWW_DASHED1
 62
   120
370
     5
100
AcDbLine
 10
505.7121509915299
 20
-617.2538109373608
 30
0.0
 11
800.0155924372496
 21
-911.5572523830795
 31
0.0
  0
LINE
  5
194
330
1F
100
AcDbEntity
  8
0-0
  6
JWW_DASHED1
 62
   120
370
     5
100
AcDbLine
 10
505.7121509915248
 20
-607.3543160021393
 30
0.0
 11
809.9150873724727
 21
-911.5572523830872
 31
0.0
  0
LINE
  5
195
330
1F
100
AcDbEntity
  8
0-0
  6
JWW_DASHED1
 62
   120
370
     5
100
AcDbLine
 10
505.7121509915197
 20
-597.4548210669719
 30
0.0
 11
819.8145823076302
 21
-911.5572523830825
 31
0.0
  0
LINE
  5
196
330
1F
100
AcDbEntity
  8
0-0
  6
JWW_DASHED1
 62
   120
370
     5
100
AcDbLine
 10
505.7121509915282
 20
-587.5553261317646
 30
0.0
 11
829.7140772428465
 21
-911.5572523830829
 31
0.0
  0
LINE
  5
197
330
1F
100
AcDbEntity
  8
0-0
  6
JWW_DASHED1
 62
   120
370
     5
100
AcDbLine
 10
505.7121509915359
 20
-577.6558311965555
 30
0.0
 11
839.6135721780545
 21
-911.557252383074
 31
0.0
  0
LINE
  5
198
330
1F
100
AcDbEntity
  8
0-0
  6
JWW_DASHED1
 62
   120
370
     5
100
AcDbLine
 10
505.7121509915171
 20
-567.7563362613749
 30
0.0
 11
849.5130671132273
 21
-911.557252383085
 31
0.0
  0
LINE
  5
199
330
1F
100
AcDbEntity
  8
0-0
  6
JWW_DASHED1
 62
   120
370
     5
100
AcDbLine
 10
505.7121509915257
 20
-557.8568413261676
 30
0.0
 11
859.4125620484444
 21
-911.5572523830859
 31
0.0
  0
LINE
  5
19A
330
1F
100
AcDbEntity
  8
0-0
  6
JWW_DASHED1
 62
   120
370
     5
100
AcDbLine
 10
505.7121509915333
 20
-547.9573463909584
 30
0.0
 11
869.3120569836532
 21
-911.5572523830779
 31
0.0
  0
LINE
  5
19B
330
1F
100
AcDbEntity
  8
0-0
  6
JWW_DASHED1
 62
   120
370
     5
100
AcDbLine
 10
505.7121509915299
 20
-538.0578514557936
 30
0.0
 11
879.2115519188176
 21
-911.5572523830808
 31
0.0
  0
LINE
  5
19C
330
1F
100
AcDbEntity
  8
0-0
  6
JWW_DASHED1
 62
   120
370
     5
100
AcDbLine
 10
505.7121509915231
 20
-528.1583565205705
 30
0.0
 11
889.111046854033
 21
-911.5572523830795
 31
0.0
  0
LINE
  5
19D
330
1F
100
AcDbEntity
  8
0-0
  6
JWW_DASHED1
 62
   120
370
     5
100
AcDbLine
 10
505.7121509915316
 20
-518.2588615853617
 30
0.0
 11
899.0105417892511
 21
-911.5572523830813
 31
0.0
  0
LINE
  5
19E
330
1F
100
AcDbEntity
  8
0-0
  6
JWW_DASHED1
 62
   120
370
     5
100
AcDbLine
 10
505.7121509915316
 20
-508.3593666502004
 30
0.0
 11
908.9100367244163
 21
-911.5572523830847
 31
0.0
  0
LINE
  5
19F
330
1F
100
AcDbEntity
  8
0-0
  6
JWW_DASHED1
 62
   120
370
     5
100
AcDbLine
 10
505.7121509915197
 20
-498.4598717149726
 30
0.0
 11
918.8095316596284
 21
-911.5572523830808
 31
0.0
  0
LINE
  5
1A0
330
1F
100
AcDbEntity
  8
0-0
  6
JWW_DASHED1
 62
   120
370
     5
100
AcDbLine
 10
505.7121509915282
 20
-488.5603767797647
 30
0.0
 11
928.7090265948482
 21
-911.5572523830842
 31
0.0
  0
LINE
  5
1A1
330
1F
100
AcDbEntity
  8
0-0
  6
JWW_DASHED1
 62
   120
370
     5
100
AcDbLine
 10
505.7121509915282
 20
-478.6608818446034
 30
0.0
 11
938.6085215300125
 21
-911.5572523830872
 31
0.0
  0
LINE
  5
1A2
330
1F
100
AcDbEntity
  8
0-0
  6
JWW_DASHED1
 62
   120
370
     5
100
AcDbLine
 10
505.712150991518
 20
-468.7613869093764
 30
0.0
 11
948.5080164652254
 21
-911.5572523830833
 31
0.0
  0
LINE
  5
1A3
330
1F
100
AcDbEntity
  8
0-0
  6
JWW_DASHED1
 62
   120
370
     5
100
AcDbLine
 10
505.7121509915265
 20
-458.8618919741677
 30
0.0
 11
958.4075114004452
 21
-911.5572523830867
 31
0.0
  0
LINE
  5
1A4
330
1F
100
AcDbEntity
  8
0-0
  6
JWW_DASHED1
 62
   120
370
     5
100
AcDbLine
 10
505.7121509915265
 20
-448.9623970390068
 30
0.0
 11
968.3070063356104
 21
-911.5572523830901
 31
0.0
  0
LINE
  5
1A5
330
1F
100
AcDbEntity
  8
0-0
  6
JWW_DASHED1
 62
   120
370
     5
100
AcDbLine
 10
505.7121509915316
 20
-439.0629021037947
 30
0.0
 11
978.206501270819
 21
-911.5572523830825
 31
0.0
  0
LINE
  5
1A6
330
1F
100
AcDbEntity
  8
0-0
  6
JWW_DASHED1
 62
   120
370
     5
100
AcDbLine
 10
505.7121509915248
 20
-429.1634071685715
 30
0.0
 11
988.1059962060431
 21
-911.5572523830901
 31
0.0
  0
LINE
  5
1A7
330
1F
100
AcDbEntity
  8
0-0
  6
JWW_DASHED1
 62
   120
370
     5
100
AcDbLine
 10
505.7121509915368
 20
-419.2639122334225
 30
0.0
 11
998.0054911411929
 21
-911.5572523830779
 31
0.0
  0
LINE
  5
1A8
330
1F
100
AcDbEntity
  8
0-0
  6
JWW_DASHED1
 62
   120
370
     5
100
AcDbLine
 10
505.7121509915333
 20
-409.3644172982019
 30
0.0
 11
1007.904986076416
 21
-911.5572523830855
 31
0.0
  0
LINE
  5
1A9
330
1F
100
AcDbEntity
  8
0-0
  6
JWW_DASHED1
 62
   120
370
     5
100
AcDbLine
 10
505.7121509915257
 20
-399.4649223630329
 30
0.0
 11
1017.804481011581
 21
-911.5572523830889
 31
0.0
  0
LINE
  5
1AA
330
1F
100
AcDbEntity
  8
0-0
  6
JWW_DASHED1
 62
   120
370
     5
100
AcDbLine
 10
505.7121509915333
 20
-389.5654274278246
 30
0.0
 11
1027.703975946789
 21
-911.5572523830804
 31
0.0
  0
LINE
  5
1AB
330
1F
100
AcDbEntity
  8
0-0
  6
JWW_DASHED1
 62
   120
370
     5
100
AcDbLine
 10
505.7121509915299
 20
-379.6659324926048
 30
0.0
 11
1037.603470882014
 21
-911.5572523830889
 31
0.0
  0
LINE
  5
1AC
330
1F
100
AcDbEntity
  8
0-0
  6
JWW_DASHED1
 62
   120
370
     5
100
AcDbLine
 10
505.7121509915231
 20
-369.7664375574358
 30
0.0
 11
1047.502965817179
 21
-911.5572523830915
 31
0.0
  0
LINE
  5
1AD
330
1F
100
AcDbEntity
  8
0-0
  6
JWW_DASHED1
 62
   120
370
     5
100
AcDbLine
 10
505.7121509915316
 20
-359.8669426222284
 30
0.0
 11
1057.402460752388
 21
-911.5572523830842
 31
0.0
  0
LINE
  5
1AE
330
1F
100
AcDbEntity
  8
0-0
  6
JWW_DASHED1
 62
   120
370
     5
100
AcDbLine
 10
505.7121509915282
 20
-349.9674476870082
 30
0.0
 11
1067.301955687612
 21
-911.5572523830918
 31
0.0
  0
LINE
  5
1AF
330
1F
100
AcDbEntity
  8
0-0
  6
JWW_DASHED1
 62
   120
370
     5
100
AcDbLine
 10
505.7121509915206
 20
-340.0679527518388
 30
0.0
 11
1077.201450622762
 21
-911.5572523830799
 31
0.0
  0
LINE
  5
1B0
330
1F
100
AcDbEntity
  8
0-0
  6
JWW_DASHED1
 62
   120
370
     5
100
AcDbLine
 10
505.7121509915291
 20
-330.168457816631
 30
0.0
 11
1087.100945557985
 21
-911.5572523830867
 31
0.0
  0
LINE
  5
1B1
330
1F
100
AcDbEntity
  8
0-0
  6
JWW_DASHED1
 62
   120
370
     5
100
AcDbLine
 10
505.7121509915265
 20
-320.268962881412
 30
0.0
 11
1095.712150991512
 21
-910.2689628813977
 31
0.0
  0
LINE
  5
1B2
330
1F
100
AcDbEntity
  8
0-0
  6
JWW_DASHED1
 62
   120
370
     5
100
AcDbLine
 10
505.712150991518
 20
-310.3694679462417
 30
0.0
 11
1095.712150991526
 21
-900.3694679462487
 31
0.0
  0
LINE
  5
1B3
330
1F
100
AcDbEntity
  8
0-0
  6
JWW_DASHED1
 62
   120
370
     5
100
AcDbLine
 10
505.7121509915265
 20
-300.4699730110339
 30
0.0
 11
1095.712150991517
 21
-890.4699730110246
 31
0.0
  0
LINE
  5
1B4
330
1F
100
AcDbEntity
  8
0-0
  6
JWW_DASHED1
 62
   120
370
     5
100
AcDbLine
 10
505.7121509915351
 20
-290.5704780758256
 30
0.0
 11
1095.712150991526
 21
-880.5704780758164
 31
0.0
  0
LINE
  5
1B5
330
1F
100
AcDbEntity
  8
0-0
  6
JWW_DASHED1
 62
   120
370
     5
100
AcDbLine
 10
505.7121509915154
 20
-280.6709831406447
 30
0.0
 11
1095.712150991522
 21
-870.6709831406516
 31
0.0
  0
LINE
  5
1B6
330
1F
100
AcDbEntity
  8
0-0
  6
JWW_DASHED1
 62
   120
370
     5
100
AcDbLine
 10
505.712150991524
 20
-270.7714882054369
 30
0.0
 11
1095.712150991515
 21
-860.7714882054277
 31
0.0
  0
LINE
  5
1B7
330
1F
100
AcDbEntity
  8
0-0
  6
JWW_DASHED1
 62
   120
370
     5
100
AcDbLine
 10
505.7121509915316
 20
-260.8719932702286
 30
0.0
 11
1095.712150991522
 21
-850.8719932702194
 31
0.0
  0
LINE
  5
1B8
330
1F
100
AcDbEntity
  8
0-0
  6
JWW_DASHED1
 62
   120
370
     5
100
AcDbLine
 10
505.7121509915282
 20
-250.9724983350634
 30
0.0
 11
1095.71215099152
 21
-840.9724983350545
 31
0.0
  0
LINE
  5
1B9
330
1F
100
AcDbEntity
  8
0-0
  6
JWW_DASHED1
 62
   120
370
     5
100
AcDbLine
 10
505.7121509915214
 20
-241.0730033998398
 30
0.0
 11
1095.712150991529
 21
-831.0730033998468
 31
0.0
  0
LINE
  5
1BA
330
1F
100
AcDbEntity
  8
0-0
  6
JWW_DASHED1
 62
   120
370
     5
100
AcDbLine
 10
505.7121509915299
 20
-231.1735084646324
 30
0.0
 11
1095.71215099152
 21
-821.1735084646218
 31
0.0
  0
LINE
  5
1BB
330
1F
100
AcDbEntity
  8
0-0
  6
JWW_DASHED1
 62
   120
370
     5
100
AcDbLine
 10
505.7121509915316
 20
-221.2740135294723
 30
0.0
 11
1095.712150991519
 21
-811.2740135294584
 31
0.0
  0
LINE
  5
1BC
330
1F
100
AcDbEntity
  8
0-0
  6
JWW_DASHED1
 62
   120
370
     5
100
AcDbLine
 10
505.7121509915189
 20
-211.3745185942427
 30
0.0
 11
1095.712150991526
 21
-801.3745185942497
 31
0.0
  0
LINE
  5
1BD
330
1F
100
AcDbEntity
  8
0-0
  6
JWW_DASHED1
 62
   120
370
     5
100
AcDbLine
 10
505.7121509915274
 20
-201.4750236590353
 30
0.0
 11
1095.712150991519
 21
-791.4750236590257
 31
0.0
  0
LINE
  5
1BE
330
1F
100
AcDbEntity
  8
0-0
  6
JWW_DASHED1
 62
   120
370
     5
100
AcDbLine
 10
505.7121509915299
 20
-191.5755287238757
 30
0.0
 11
1095.712150991515
 21
-781.5755287238613
 31
0.0
  0
LINE
  5
1BF
330
1F
100
AcDbEntity
  8
0-0
  6
JWW_DASHED1
 62
   120
370
     5
100
AcDbLine
 10
505.7121509915163
 20
-181.6760337886457
 30
0.0
 11
1095.712150991524
 21
-771.6760337886526
 31
0.0
  0
LINE
  5
1C0
330
1F
100
AcDbEntity
  8
0-0
  6
JWW_DASHED1
 62
   120
370
     5
100
AcDbLine
 10
505.7121509915248
 20
-171.7765388534383
 30
0.0
 11
1095.712150991515
 21
-761.7765388534286
 31
0.0
  0
LINE
  5
1C1
330
1F
100
AcDbEntity
  8
0-0
  6
JWW_DASHED1
 62
   120
370
     5
100
AcDbLine
 10
505.7121509915274
 20
-161.8770439182786
 30
0.0
 11
1095.712150991513
 21
-751.8770439182642
 31
0.0
  0
LINE
  5
1C2
330
1F
100
AcDbEntity
  8
0-0
  6
JWW_DASHED1
 62
   120
370
     5
100
AcDbLine
 10
505.7121509915299
 20
-151.9775489830644
 30
0.0
 11
1095.71215099152
 21
-741.9775489830556
 31
0.0
  0
LINE
  5
1C3
330
1F
100
AcDbEntity
  8
0-0
  6
JWW_DASHED1
 62
   120
370
     5
100
AcDbLine
 10
505.7121509915265
 20
-142.0780540478997
 30
0.0
 11
1095.712150991517
 21
-732.07805404789
 31
0.0
  0
LINE
  5
1C4
330
1F
100
AcDbEntity
  8
0-0
  6
JWW_DASHED1
 62
   120
370
     5
100
AcDbLine
 10
505.7121509915351
 20
-132.1785591126918
 30
0.0
 11
1095.712150991526
 21
-722.1785591126826
 31
0.0
  0
LINE
  5
1C5
330
1F
100
AcDbEntity
  8
0-0
  6
JWW_DASHED1
 62
   120
370
     5
100
AcDbLine
 10
505.7121509915342
 20
-122.2790641774746
 30
0.0
 11
1095.71215099152
 21
-712.2790641774602
 31
0.0
  0
LINE
  5
1C6
330
1F
100
AcDbEntity
  8
0-0
  6
JWW_DASHED1
 62
   120
370
     5
100
AcDbLine
 10
505.712150991524
 20
-112.3795692423026
 30
0.0
 11
1095.712150991515
 21
-702.3795692422938
 31
0.0
  0
LINE
  5
1C7
330
1F
100
AcDbEntity
  8
0-0
  6
JWW_DASHED1
 62
   120
370
     5
100
AcDbLine
 10
505.7121509915325
 20
-102.4800743070948
 30
0.0
 11
1095.712150991524
 21
-692.4800743070855
 31
0.0
  0
LINE
  5
1C8
330
1F
100
AcDbEntity
  8
0-0
  6
JWW_DASHED1
 62
   120
370
     5
100
AcDbLine
 10
505.7121509915316
 20
-92.58057937187758
 30
0.0
 11
1095.712150991517
 21
-682.5805793718632
 31
0.0
  0
LINE
  5
1C9
330
1F
100
AcDbEntity
  8
0-0
  6
JWW_DASHED1
 62
   120
370
     5
100
AcDbLine
 10
505.7121509915214
 20
-82.68108443670556
 30
0.0
 11
1095.712150991528
 21
-672.6810844367121
 31
0.0
  0
LINE
  5
1CA
330
1F
100
AcDbEntity
  8
0-0
  6
JWW_DASHED1
 62
   120
370
     5
100
AcDbLine
 10
505.7121509915299
 20
-72.78158950149773
 30
0.0
 11
1095.712150991521
 21
-662.781589501489
 31
0.0
  0
LINE
  5
1CB
330
1F
100
AcDbEntity
  8
0-0
  6
JWW_DASHED1
 62
   120
370
     5
100
AcDbLine
 10
505.7121509915299
 20
-62.88209456628095
 30
0.0
 11
1095.712150991515
 21
-652.8820945662666
 31
0.0
  0
LINE
  5
1CC
330
1F
100
AcDbEntity
  8
0-0
  6
JWW_DASHED1
 62
   120
370
     5
100
AcDbLine
 10
505.7121509915197
 20
-52.98259963110894
 30
0.0
 11
1095.712150991526
 21
-642.982599631115
 31
0.0
  0
LINE
  5
1CD
330
1F
100
AcDbEntity
  8
0-0
  6
JWW_DASHED1
 62
   120
370
     5
100
AcDbLine
 10
505.7121509915274
 20
-43.08310469590069
 30
0.0
 11
1095.712150991518
 21
-633.0831046958915
 31
0.0
  0
LINE
  5
1CE
330
1F
100
AcDbEntity
  8
0-0
  6
JWW_DASHED1
 62
   120
370
     5
100
AcDbLine
 10
505.7121509915274
 20
-33.18360976068476
 30
0.0
 11
1095.712150991513
 21
-623.1836097606696
 31
0.0
  0
LINE
  5
1CF
330
1F
100
AcDbEntity
  8
0-0
  6
JWW_DASHED1
 62
   120
370
     5
100
AcDbLine
 10
505.7121509915163
 20
-23.28411482551147
 30
0.0
 11
1095.712150991523
 21
-613.284114825518
 31
0.0
  0
LINE
  5
1D0
330
1F
100
AcDbEntity
  8
0-0
  6
JWW_DASHED1
 62
   120
370
     5
100
AcDbLine
 10
505.7121509915248
 20
-13.38461989030364
 30
0.0
 11
1095.712150991515
 21
-603.384619890294
 31
0.0
  0
LINE
  5
1D1
330
1F
100
AcDbEntity
  8
0-0
  6
JWW_DASHED1
 62
   120
370
     5
100
AcDbLine
 10
505.7121509915333
 20
-3.485124955095813
 30
0.0
 11
1095.712150991524
 21
-593.4851249550866
 31
0.0
  0
LINE
  5
1D2
330
1F
100
AcDbEntity
  8
0-0
  6
JWW_DASHED1
 62
   120
370
     5
100
AcDbLine
 10
505.7121509915291
 20
6.414369980069807
 30
0.0
 11
1095.71215099152
 21
-583.5856300199209
 31
0.0
  0
LINE
  5
1D3
330
1F
100
AcDbEntity
  8
0-0
  6
JWW_DASHED1
 62
   120
370
     5
100
AcDbLine
 10
505.7121509915223
 20
16.31386491529341
 30
0.0
 11
1095.712150991513
 21
-573.6861350846978
 31
0.0
  0
LINE
  5
1D4
330
1F
100
AcDbEntity
  8
0-0
  6
JWW_DASHED1
 62
   120
370
     5
100
AcDbLine
 10
505.7121509915308
 20
26.21335985050123
 30
0.0
 11
1095.712150991522
 21
-563.7866401494896
 31
0.0
  0
LINE
  5
1D5
330
1F
100
AcDbEntity
  8
0-0
  6
JWW_DASHED1
 62
   120
370
     5
100
AcDbLine
 10
505.7121509915274
 20
36.11285478566643
 30
0.0
 11
1095.712150991518
 21
-553.8871452143239
 31
0.0
  0
LINE
  5
1D6
330
1F
100
AcDbEntity
  8
0-0
  6
JWW_DASHED1
 62
   120
370
     5
100
AcDbLine
 10
505.7121509915197
 20
46.01234972089046
 30
0.0
 11
1095.712150991527
 21
-543.9876502791165
 31
0.0
  0
LINE
  5
1D7
330
1F
100
AcDbEntity
  8
0-0
  6
JWW_DASHED1
 62
   120
370
     5
100
AcDbLine
 10
505.7121509915282
 20
55.91184465609828
 30
0.0
 11
1095.712150991519
 21
-534.0881553438925
 31
0.0
  0
LINE
  5
1D8
330
1F
100
AcDbEntity
  8
0-0
  6
JWW_DASHED1
 62
   120
370
     5
100
AcDbLine
 10
505.7121509915333
 20
65.81133959125495
 30
0.0
 11
1095.712150991519
 21
-524.1886604087307
 31
0.0
  0
LINE
  5
1D9
330
1F
100
AcDbEntity
  8
0-0
  6
JWW_DASHED1
 62
   120
370
     5
100
AcDbLine
 10
505.7121509915171
 20
75.7108345264875
 30
0.0
 11
1095.712150991524
 21
-514.2891654735195
 31
0.0
  0
LINE
  5
1DA
330
1F
100
AcDbEntity
  8
0-0
  6
JWW_DASHED1
 62
   120
370
     5
100
AcDbLine
 10
505.7121509915257
 20
85.61032946169533
 30
0.0
 11
1095.712150991517
 21
-504.3896705382954
 31
0.0
  0
LINE
  5
1DB
330
1F
100
AcDbEntity
  8
0-0
  6
JWW_DASHED1
 62
   120
370
     5
100
AcDbLine
 10
505.7121509915316
 20
95.50982439685157
 30
0.0
 11
1095.712150991517
 21
-494.490175603134
 31
0.0
  0
LINE
  5
1DC
330
1F
100
AcDbEntity
  8
0-0
  6
JWW_DASHED1
 62
   120
370
     5
100
AcDbLine
 10
505.7121509915146
 20
105.4093193320846
 30
0.0
 11
1095.712150991521
 21
-484.5906806679224
 31
0.0
  0
LINE
  5
1DD
330
1F
100
AcDbEntity
  8
0-0
  6
JWW_DASHED1
 62
   120
370
     5
100
AcDbLine
 10
505.7121509915231
 20
115.3088142672924
 30
0.0
 11
1095.712150991514
 21
-474.6911857326988
 31
0.0
  0
LINE
  5
1DE
330
1F
100
AcDbEntity
  8
0-0
  6
JWW_DASHED1
 62
   120
370
     5
100
AcDbLine
 10
505.7121509915282
 20
125.2083092024486
 30
0.0
 11
1095.712150991514
 21
-464.7916907975371
 31
0.0
  0
LINE
  5
1DF
330
1F
100
AcDbEntity
  8
0-0
  6
JWW_DASHED1
 62
   120
370
     5
100
AcDbLine
 10
505.7121509915282
 20
135.1078041376658
 30
0.0
 11
1095.712150991519
 21
-454.8921958623254
 31
0.0
  0
LINE
  5
1E0
330
1F
100
AcDbEntity
  8
0-0
  6
JWW_DASHED1
 62
   120
370
     5
100
AcDbLine
 10
505.7121509915206
 20
145.0072990728894
 30
0.0
 11
1095.712150991527
 21
-444.9927009271175
 31
0.0
  0
LINE
  5
1E1
330
1F
100
AcDbEntity
  8
0-0
  6
JWW_DASHED1
 62
   120
370
     5
100
AcDbLine
 10
505.7121509915333
 20
154.9067940080384
 30
0.0
 11
1095.712150991524
 21
-435.0932059919519
 31
0.0
  0
LINE
  5
1E2
330
1F
100
AcDbEntity
  8
0-0
  6
JWW_DASHED1
 62
   120
370
     5
100
AcDbLine
 10
505.7121509915351
 20
164.8062889432535
 30
0.0
 11
1095.712150991521
 21
-425.193711056733
 31
0.0
  0
LINE
  5
1E3
330
1F
100
AcDbEntity
  8
0-0
  6
JWW_DASHED1
 62
   120
370
     5
100
AcDbLine
 10
505.7121509915223
 20
174.7057838784276
 30
0.0
 11
1095.712150991513
 21
-415.2942161215635
 31
0.0
  0
LINE
  5
1E4
330
1F
100
AcDbEntity
  8
0-0
  6
JWW_DASHED1
 62
   120
370
     5
100
AcDbLine
 10
505.7121509915308
 20
184.6052788136355
 30
0.0
 11
1095.712150991521
 21
-405.3947211863549
 31
0.0
  0
LINE
  5
1E5
330
1F
100
AcDbEntity
  8
0-0
  6
JWW_DASHED1
 62
   120
370
     5
100
AcDbLine
 10
505.7121509915316
 20
194.5047737488505
 30
0.0
 11
1095.712150991519
 21
-395.4952262511359
 31
0.0
  0
LINE
  5
1E6
330
1F
100
AcDbEntity
  8
0-0
  6
JWW_DASHED1
 62
   120
370
     5
100
AcDbLine
 10
505.7121509915197
 20
204.4042686840247
 30
0.0
 11
1095.712150991526
 21
-385.5957313159819
 31
0.0
  0
LINE
  5
1E7
330
1F
100
AcDbEntity
  8
0-0
  6
JWW_DASHED1
 62
   120
370
     5
100
AcDbLine
 10
505.7121509915282
 20
214.3037636192325
 30
0.0
 11
1095.712150991519
 21
-375.6962363807587
 31
0.0
  0
LINE
  5
1E8
330
1F
100
AcDbEntity
  8
0-0
  6
JWW_DASHED1
 62
   120
370
     5
100
AcDbLine
 10
505.7121509915299
 20
224.2032585544467
 30
0.0
 11
1095.712150991516
 21
-365.7967414455389
 31
0.0
  0
LINE
  5
1E9
330
1F
100
AcDbEntity
  8
0-0
  6
JWW_DASHED1
 62
   120
370
     5
100
AcDbLine
 10
505.712150991518
 20
234.1027534896213
 30
0.0
 11
1095.712150991524
 21
-355.8972465103848
 31
0.0
  0
LINE
  5
1EA
330
1F
100
AcDbEntity
  8
0-0
  6
JWW_DASHED1
 62
   120
370
     5
100
AcDbLine
 10
505.7121509915257
 20
244.0022484248296
 30
0.0
 11
1095.712150991517
 21
-345.9977515751616
 31
0.0
  0
LINE
  5
1EB
330
1F
100
AcDbEntity
  8
0-0
  6
JWW_DASHED1
 62
   120
370
     5
100
AcDbLine
 10
505.7121509915342
 20
253.9017433600374
 30
0.0
 11
1095.712150991526
 21
-336.0982566399538
 31
0.0
  0
LINE
  5
1EC
330
1F
100
AcDbEntity
  8
0-0
  6
JWW_DASHED1
 62
   120
370
     5
100
AcDbLine
 10
505.7121509915146
 20
263.8012382952184
 30
0.0
 11
1095.712150991522
 21
-326.1987617047886
 31
0.0
  0
LINE
  5
1ED
330
1F
100
AcDbEntity
  8
0-0
  6
JWW_DASHED1
 62
   120
370
     5
100
AcDbLine
 10
505.7121509915231
 20
273.7007332304262
 30
0.0
 11
1095.712150991514
 21
-316.2992667695646
 31
0.0
  0
LINE
  5
1EE
330
1F
100
AcDbEntity
  8
0-0
  6
JWW_DASHED1
 62
   120
370
     5
100
AcDbLine
 10
505.7121509915316
 20
283.6002281656345
 30
0.0
 11
1095.712150991522
 21
-306.3997718343563
 31
0.0
  0
LINE
  5
1EF
330
1F
100
AcDbEntity
  8
0-0
  6
JWW_DASHED1
 62
   120
370
     5
100
AcDbLine
 10
505.7121509915282
 20
293.4997231007997
 30
0.0
 11
1095.712150991519
 21
-296.5002768991916
 31
0.0
  0
LINE
  5
1F0
330
1F
100
AcDbEntity
  8
0-0
  6
JWW_DASHED1
 62
   120
370
     5
100
AcDbLine
 10
505.7121509915206
 20
303.3992180360236
 30
0.0
 11
1095.712150991512
 21
-286.6007819639675
 31
0.0
  0
LINE
  5
1F1
330
1F
100
AcDbEntity
  8
0-0
  6
JWW_DASHED1
 62
   120
370
     5
100
AcDbLine
 10
505.7121509915291
 20
313.2987129712315
 30
0.0
 11
1095.712150991519
 21
-276.7012870287589
 31
0.0
  0
LINE
  5
1F2
330
1F
100
AcDbEntity
  8
0-0
  6
JWW_DASHED1
 62
   120
370
     5
100
AcDbLine
 10
505.7121509915359
 20
323.1982079063864
 30
0.0
 11
1095.712150991522
 21
-266.8017920935996
 31
0.0
  0
LINE
  5
1F3
330
1F
100
AcDbEntity
  8
0-0
  6
JWW_DASHED1
 62
   120
370
     5
100
AcDbLine
 10
505.712150991518
 20
333.0977028416207
 30
0.0
 11
1095.712150991525
 21
-256.9022971583859
 31
0.0
  0
LINE
  5
1F4
330
1F
100
AcDbEntity
  8
0-0
  6
JWW_DASHED1
 62
   120
370
     5
100
AcDbLine
 10
505.7121509915265
 20
342.9971977768286
 30
0.0
 11
1095.712150991518
 21
-247.0028022231627
 31
0.0
  0
LINE
  5
1F5
330
1F
100
AcDbEntity
  8
0-0
  6
JWW_DASHED1
 62
   120
370
     5
100
AcDbLine
 10
505.7121509915333
 20
352.8966927119831
 30
0.0
 11
1095.712150991519
 21
-237.1033072880026
 31
0.0
  0
LINE
  5
1F6
330
1F
100
AcDbEntity
  8
0-0
  6
JWW_DASHED1
 62
   120
370
     5
100
AcDbLine
 10
505.7121509915154
 20
362.7961876472177
 30
0.0
 11
1095.712150991522
 21
-227.2038123527888
 31
0.0
  0
LINE
  5
1F7
330
1F
100
AcDbEntity
  8
0-0
  6
JWW_DASHED1
 62
   120
370
     5
100
AcDbLine
 10
505.712150991524
 20
372.6956825824255
 30
0.0
 11
1095.712150991515
 21
-217.3043174175656
 31
0.0
  0
LINE
  5
1F8
330
1F
100
AcDbEntity
  8
0-0
  6
JWW_DASHED1
 62
   120
370
     5
100
AcDbLine
 10
505.7121509915316
 20
382.5951775175793
 30
0.0
 11
1095.712150991517
 21
-207.4048224824064
 31
0.0
  0
LINE
  5
1F9
330
1F
100
AcDbEntity
  8
0-0
  6
JWW_DASHED1
 62
   120
370
     5
100
AcDbLine
 10
505.7121509915129
 20
392.4946724528144
 30
0.0
 11
1095.712150991519
 21
-197.5053275471917
 31
0.0
  0
LINE
  5
1FA
330
1F
100
AcDbEntity
  8
0-0
  6
Continuous
 62
    92
370
    13
100
AcDbLine
 10
-1161.287849008477
 20
-1081.557252383083
 30
0.0
 11
-1161.287849008477
 21
1165.442747616918
 31
0.0
  0
LINE
  5
1FB
330
1F
100
AcDbEntity
  8
0-0
  6
Continuous
 62
    92
370
    13
100
AcDbLine
 10
-1191.287849008477
 20
1165.442747616918
 30
0.0
 11
1232.712150991522
 21
1165.442747616918
 31
0.0
  0
LINE
  5
1FC
330
1F
100
AcDbEntity
  8
0-0
  6
Continuous
 62
    92
370
    13
100
AcDbLine
 10
-1161.287849008477
 20
1129.442747616916
 30
0.0
 11
1202.712150991522
 21
1129.442747616916
 31
0.0
  0
LINE
  5
1FD
330
1F
100
AcDbEntity
  8
0-0
  6
Continuous
 62
    92
370
    13
100
AcDbLine
 10
1202.712150991522
 20
-1081.557252383083
 30
0.0
 11
1202.712150991522
 21
1165.442747616918
 31
0.0
  0
LINE
  5
1FE
330
1F
100
AcDbEntity
  8
0-0
  6
Continuous
 62
    92
370
    13
100
AcDbLine
 10
1232.712150991522
 20
-1081.557252383083
 30
0.0
 11
1232.712150991522
 21
1165.442747616918
 31
0.0
  0
LINE
  5
1FF
330
1F
100
AcDbEntity
  8
0-0
  6
Continuous
 62
    92
370
    13
100
AcDbLine
 10
-1191.287849008477
 20
-1081.557252383083
 30
0.0
 11
-1191.287849008477
 21
1165.442747616918
 31
0.0
  0
LINE
  5
200
330
1F
100
AcDbEntity
  8
0-0
  6
JWW_DASHED1
 62
   120
370
     5
100
AcDbLine
 10
-1164.287849008477
 20
-1061.557252383083
 30
0.0
 11
-1164.287849008477
 21
1121.442747616917
 31
0.0
  0
LINE
  5
201
330
1F
100
AcDbEntity
  8
0-0
  6
Continuous
 62
    92
370
    13
100
AcDbLine
 10
395.7121509915225
 20
-1061.557252383083
 30
0.0
 11
395.7121509915225
 21
1121.442747616917
 31
0.0
  0
LINE
  5
202
330
1F
100
AcDbEntity
  8
0-0
  6
JWW_DASHED1
 62
   120
370
     5
100
AcDbLine
 10
-1164.287849008477
 20
1121.442747616917
 30
0.0
 11
-1161.287849008477
 21
1121.442747616917
 31
0.0
  0
LINE
  5
203
330
1F
100
AcDbEntity
  8
0-0
  6
JWW_DASHED1
 62
   120
370
     5
100
AcDbLine
 10
-354.2878490084775
 20
-1061.557252383083
 30
0.0
 11
-354.2878490084775
 21
1121.442747616917
 31
0.0
  0
LINE
  5
204
330
1F
100
AcDbEntity
  8
0-0
  6
JWW_DASHED1
 62
   120
370
     5
100
AcDbLine
 10
425.7121509915225
 20
-1061.557252383083
 30
0.0
 11
425.7121509915225
 21
1121.442747616917
 31
0.0
  0
LINE
  5
205
330
1F
100
AcDbEntity
  8
0-0
  6
JWW_DASHED1
 62
   120
370
     5
100
AcDbLine
 10
1205.712150991523
 20
-1061.557252383083
 30
0.0
 11
1205.712150991523
 21
1121.442747616917
 31
0.0
  0
LINE
  5
206
330
1F
100
AcDbEntity
  8
0-0
  6
JWW_DASHED1
 62
   120
370
     5
100
AcDbLine
 10
1205.712150991523
 20
1121.442747616917
 30
0.0
 11
1202.712150991522
 21
1121.442747616917
 31
0.0
  0
LINE
  5
207
330
1F
100
AcDbEntity
  8
0-0
  6
Continuous
 62
    92
370
    13
100
AcDbLine
 10
-1161.287849008477
 20
1121.442747616917
 30
0.0
 11
1202.712150991522
 21
1121.442747616917
 31
0.0
  0
LINE
  5
208
330
1F
100
AcDbEntity
  8
0-0
  6
Continuous
 62
    92
370
    13
100
AcDbLine
 10
-384.2878490084775
 20
1121.442747616917
 30
0.0
 11
-384.2878490084775
 21
-1061.557252383083
 31
0.0
  0
LINE
  5
209
330
1F
100
AcDbEntity
  8
0-0
  6
Continuous
 62
    92
370
    13
100
AcDbLine
 10
-1054.287849008479
 20
986.4427476169167
 30
0.0
 11
-464.2878490084763
 21
986.4427476169167
 31
0.0
  0
LINE
  5
20A
330
1F
100
AcDbEntity
  8
0-0
  6
Continuous
 62
    92
370
    13
100
AcDbLine
 10
-274.2878490084786
 20
986.4427476169167
 30
0.0
 11
315.7121509915237
 21
986.4427476169167
 31
0.0
  0
LINE
  5
20B
330
1F
100
AcDbEntity
  8
0-0
  6
Continuous
 62
    92
370
    13
100
AcDbLine
 10
505.7121509915214
 20
986.4427476169167
 30
0.0
 11
1095.712150991524
 21
986.4427476169167
 31
0.0
  0
LINE
  5
20C
330
1F
100
AcDbEntity
  8
0-0
  6
Continuous
 62
    92
370
    13
100
AcDbLine
 10
-1054.287849008479
 20
-1061.557252383083
 30
0.0
 11
-1054.287849008479
 21
1121.442747616917
 31
0.0
  0
LINE
  5
20D
330
1F
100
AcDbEntity
  8
0-0
  6
Continuous
 62
    92
370
    13
100
AcDbLine
 10
-464.2878490084763
 20
-1061.557252383083
 30
0.0
 11
-464.2878490084763
 21
1121.442747616917
 31
0.0
  0
LINE
  5
20E
330
1F
100
AcDbEntity
  8
0-0
  6
Continuous
 62
    92
370
    13
100
AcDbLine
 10
315.7121509915237
 20
-1061.557252383083
 30
0.0
 11
315.7121509915237
 21
1121.442747616917
 31
0.0
  0
LINE
  5
20F
330
1F
100
AcDbEntity
  8
0-0
  6
Continuous
 62
    92
370
    13
100
AcDbLine
 10
-274.2878490084786
 20
-1061.557252383083
 30
0.0
 11
-274.2878490084786
 21
1121.442747616917
 31
0.0
  0
LINE
  5
210
330
1F
100
AcDbEntity
  8
0-0
  6
Continuous
 62
    92
370
    13
100
AcDbLine
 10
1095.712150991524
 20
-1061.557252383083
 30
0.0
 11
1095.712150991524
 21
1121.442747616917
 31
0.0
  0
LINE
  5
211
330
1F
100
AcDbEntity
  8
0-0
  6
Continuous
 62
    92
370
    13
100
AcDbLine
 10
505.7121509915214
 20
-1061.557252383083
 30
0.0
 11
505.7121509915214
 21
1121.442747616917
 31
0.0
  0
LINE
  5
212
330
1F
100
AcDbEntity
  8
0-0
  6
JWW_DASHED1
 62
   120
370
     5
100
AcDbLine
 10
-1054.287849008479
 20
402.3941673880227
 30
0.0
 11
-464.2878490084874
 21
-187.6058326119686
 31
0.0
  0
LINE
  5
213
330
1F
100
AcDbEntity
  8
0-0
  6
JWW_DASHED1
 62
   120
370
     5
100
AcDbLine
 10
-1054.287849008471
 20
412.2936623231763
 30
0.0
 11
-464.2878490084848
 21
-177.7063376768098
 31
0.0
  0
LINE
  5
214
330
1F
100
AcDbEntity
  8
0-0
  6
JWW_DASHED1
 62
   120
370
     5
100
AcDbLine
 10
-1054.287849008474
 20
422.1931572583952
 30
0.0
 11
-464.2878490084823
 21
-167.8068427415955
 31
0.0
  0
LINE
  5
215
330
1F
100
AcDbEntity
  8
0-0
  6
JWW_DASHED1
 62
   120
370
     5
100
AcDbLine
 10
-1054.287849008481
 20
432.0926521936196
 30
0.0
 11
-464.2878490084746
 21
-157.9073478063873
 31
0.0
  0
LINE
  5
216
330
1F
100
AcDbEntity
  8
0-0
  6
JWW_DASHED1
 62
   120
370
     5
100
AcDbLine
 10
-1054.287849008468
 20
441.9921471287687
 30
0.0
 11
-464.287849008478
 21
-148.0078528712225
 31
0.0
  0
LINE
  5
217
330
1F
100
AcDbEntity
  8
0-0
  6
JWW_DASHED1
 62
   120
370
     5
100
AcDbLine
 10
-1054.287849008465
 20
451.8916420639812
 30
0.0
 11
-464.287849008478
 21
-138.1083579360049
 31
0.0
  0
LINE
  5
218
330
1F
100
AcDbEntity
  8
0-0
  6
JWW_DASHED1
 62
   120
370
     5
100
AcDbLine
 10
-1054.287849008481
 20
461.7911369991864
 30
0.0
 11
-464.28784900849
 21
-128.2088630008039
 31
0.0
  0
LINE
  5
219
330
1F
100
AcDbEntity
  8
0-0
  6
JWW_DASHED1
 62
   120
370
     5
100
AcDbLine
 10
-1054.287849008472
 20
471.6906319343657
 30
0.0
 11
-464.2878490084797
 21
-118.3093680656255
 31
0.0
  0
LINE
  5
21A
330
1F
100
AcDbEntity
  8
0-0
  6
JWW_DASHED1
 62
   120
370
     5
100
AcDbLine
 10
-1054.287849008467
 20
481.5901268695782
 30
0.0
 11
-464.2878490084814
 21
-108.4098731304078
 31
0.0
  0
LINE
  5
21B
330
1F
100
AcDbEntity
  8
0-0
  6
JWW_DASHED1
 62
   120
370
     5
100
AcDbLine
 10
-1054.287849008482
 20
491.4896218047545
 30
0.0
 11
-464.2878490084746
 21
-98.51037819525203
 31
0.0
  0
LINE
  5
21C
330
1F
100
AcDbEntity
  8
0-0
  6
JWW_DASHED1
 62
   120
370
     5
100
AcDbLine
 10
-1054.287849008474
 20
501.3891167399628
 30
0.0
 11
-464.2878490084831
 21
-88.61088326002843
 31
0.0
  0
LINE
  5
21D
330
1F
100
AcDbEntity
  8
0-0
  6
JWW_DASHED1
 62
   120
370
     5
100
AcDbLine
 10
-1054.287849008468
 20
511.288611675174
 30
0.0
 11
-464.2878490084831
 21
-78.7113883248108
 31
0.0
  0
LINE
  5
21E
330
1F
100
AcDbEntity
  8
0-0
  6
JWW_DASHED1
 62
   120
370
     5
100
AcDbLine
 10
-1054.287849008484
 20
521.1881066103512
 30
0.0
 11
-464.287849008478
 21
-68.81189338965498
 31
0.0
  0
LINE
  5
21F
330
1F
100
AcDbEntity
  8
0-0
  6
JWW_DASHED1
 62
   120
370
     5
100
AcDbLine
 10
-1054.287849008477
 20
531.0876015455598
 30
0.0
 11
-464.2878490084848
 21
-58.91239845443096
 31
0.0
  0
LINE
  5
220
330
1F
100
AcDbEntity
  8
0-0
  6
JWW_DASHED1
 62
   120
370
     5
100
AcDbLine
 10
-1054.287849008467
 20
540.9870964807676
 30
0.0
 11
-464.2878490084763
 21
-49.01290351922356
 31
0.0
  0
LINE
  5
221
330
1F
100
AcDbEntity
  8
0-0
  6
JWW_DASHED1
 62
   120
370
     5
100
AcDbLine
 10
-1054.287849008486
 20
550.8865914159481
 30
0.0
 11
-464.2878490084797
 21
-39.11340858405794
 31
0.0
  0
LINE
  5
222
330
1F
100
AcDbEntity
  8
0-0
  6
JWW_DASHED1
 62
   120
370
     5
100
AcDbLine
 10
-1054.287849008479
 20
560.7860863511564
 30
0.0
 11
-464.2878490084883
 21
-29.21391364883391
 31
0.0
  0
LINE
  5
223
330
1F
100
AcDbEntity
  8
0-0
  6
JWW_DASHED1
 62
   120
370
     5
100
AcDbLine
 10
-1054.28784900847
 20
570.6855812863643
 30
0.0
 11
-464.2878490084789
 21
-19.31441871362651
 31
0.0
  0
LINE
  5
224
330
1F
100
AcDbEntity
  8
0-0
  6
JWW_DASHED1
 62
   120
370
     5
100
AcDbLine
 10
-1054.287849008474
 20
580.5850762215294
 30
0.0
 11
-464.2878490084814
 21
-9.414923778461741
 31
0.0
  0
LINE
  5
225
330
1F
100
AcDbEntity
  8
0-0
  6
JWW_DASHED1
 62
   120
370
     5
100
AcDbLine
 10
-1054.287849008481
 20
590.4845711567534
 30
0.0
 11
-464.2878490084746
 21
0.4845711567473643
 31
0.0
  0
LINE
  5
226
330
1F
100
AcDbEntity
  8
0-0
  6
JWW_DASHED1
 62
   120
370
     5
100
AcDbLine
 10
-1054.287849008472
 20
600.3840660919614
 30
0.0
 11
-464.2878490084814
 21
10.38406609197054
 31
0.0
  0
LINE
  5
227
330
1F
100
AcDbEntity
  8
0-0
  6
JWW_DASHED1
 62
   120
370
     5
100
AcDbLine
 10
-1054.287849008463
 20
610.2835610271137
 30
0.0
 11
-464.287849008478
 21
20.28356102712806
 31
0.0
  0
LINE
  5
228
330
1F
100
AcDbEntity
  8
0-0
  6
JWW_DASHED1
 62
   120
370
     5
100
AcDbLine
 10
-1054.287849008483
 20
620.1830559623497
 30
0.0
 11
-464.2878490084763
 21
30.18305596234356
 31
0.0
  0
LINE
  5
229
330
1F
100
AcDbEntity
  8
0-0
  6
JWW_DASHED1
 62
   120
370
     5
100
AcDbLine
 10
-1054.287849008475
 20
630.0825508975583
 30
0.0
 11
-464.2878490084848
 21
40.08255089756759
 31
0.0
  0
LINE
  5
22A
330
1F
100
AcDbEntity
  8
0-0
  6
JWW_DASHED1
 62
   120
370
     5
100
AcDbLine
 10
-1054.287849008465
 20
639.9820458327099
 30
0.0
 11
-464.2878490084797
 21
49.98204583272511
 31
0.0
  0
LINE
  5
22B
330
1F
100
AcDbEntity
  8
0-0
  6
JWW_DASHED1
 62
   120
370
     5
100
AcDbLine
 10
-1054.287849008485
 20
649.8815407679467
 30
0.0
 11
-464.2878490084797
 21
59.88154076794061
 31
0.0
  0
LINE
  5
22C
330
1F
100
AcDbEntity
  8
0-0
  6
JWW_DASHED1
 62
   120
370
     5
100
AcDbLine
 10
-1054.287849008478
 20
659.7810357031562
 30
0.0
 11
-464.2878490084865
 21
69.78103570316463
 31
0.0
  0
LINE
  5
22D
330
1F
100
AcDbEntity
  8
0-0
  6
JWW_DASHED1
 62
   120
370
     5
100
AcDbLine
 10
-1054.287849008467
 20
669.6805306383069
 30
0.0
 11
-464.2878490084814
 21
79.6805306383213
 31
0.0
  0
LINE
  5
22E
330
1F
100
AcDbEntity
  8
0-0
  6
JWW_DASHED1
 62
   120
370
     5
100
AcDbLine
 10
-1054.287849008488
 20
679.5800255735437
 30
0.0
 11
-464.2878490084814
 21
89.58002557353765
 31
0.0
  0
LINE
  5
22F
330
1F
100
AcDbEntity
  8
0-0
  6
JWW_DASHED1
 62
   120
370
     5
100
AcDbLine
 10
-1054.28784900848
 20
689.4795205087532
 30
0.0
 11
-464.28784900849
 21
99.47952050876168
 31
0.0
  0
LINE
  5
230
330
1F
100
AcDbEntity
  8
0-0
  6
JWW_DASHED1
 62
   120
370
     5
100
AcDbLine
 10
-1054.28784900847
 20
699.379015443904
 30
0.0
 11
-464.287849008484
 21
109.3790154439183
 31
0.0
  0
LINE
  5
231
330
1F
100
AcDbEntity
  8
0-0
  6
JWW_DASHED1
 62
   120
370
     5
100
AcDbLine
 10
-1054.287849008475
 20
709.2785103791255
 30
0.0
 11
-464.2878490084848
 21
119.2785103791351
 31
0.0
  0
LINE
  5
232
330
1F
100
AcDbEntity
  8
0-0
  6
JWW_DASHED1
 62
   120
370
     5
100
AcDbLine
 10
-1054.287849008483
 20
719.1780053143495
 30
0.0
 11
-464.2878490084763
 21
129.1780053143434
 31
0.0
  0
LINE
  5
233
330
1F
100
AcDbEntity
  8
0-0
  6
JWW_DASHED1
 62
   120
370
     5
100
AcDbLine
 10
-1054.28784900847
 20
729.0775002494993
 30
0.0
 11
-464.2878490084797
 21
139.0775002495081
 31
0.0
  0
LINE
  5
234
330
1F
100
AcDbEntity
  8
0-0
  6
JWW_DASHED1
 62
   120
370
     5
100
AcDbLine
 10
-1054.287849008463
 20
738.9769951847088
 30
0.0
 11
-464.287849008478
 21
148.9769951847228
 31
0.0
  0
LINE
  5
235
330
1F
100
AcDbEntity
  8
0-0
  6
JWW_DASHED1
 62
   120
370
     5
100
AcDbLine
 10
-1054.287849008484
 20
748.8764901199456
 30
0.0
 11
-464.2878490084789
 21
158.8764901199404
 31
0.0
  0
LINE
  5
236
330
1F
100
AcDbEntity
  8
0-0
  6
JWW_DASHED1
 62
   120
370
     5
100
AcDbLine
 10
-1054.287849008473
 20
758.7759850550956
 30
0.0
 11
-464.2878490084814
 21
168.7759850551052
 31
0.0
  0
LINE
  5
237
330
1F
100
AcDbEntity
  8
0-0
  6
JWW_DASHED1
 62
   120
370
     5
100
AcDbLine
 10
-1054.287849008466
 20
768.6754799903059
 30
0.0
 11
-464.2878490084806
 21
178.6754799903198
 31
0.0
  0
LINE
  5
238
330
1F
100
AcDbEntity
  8
0-0
  6
JWW_DASHED1
 62
   120
370
     5
100
AcDbLine
 10
-1054.287849008483
 20
778.574974925484
 30
0.0
 11
-464.2878490084763
 21
188.5749749254774
 31
0.0
  0
LINE
  5
239
330
1F
100
AcDbEntity
  8
0-0
  6
JWW_DASHED1
 62
   120
370
     5
100
AcDbLine
 10
-1054.287849008475
 20
788.4744698606926
 30
0.0
 11
-464.2878490084848
 21
198.4744698607022
 31
0.0
  0
LINE
  5
23A
330
1F
100
AcDbEntity
  8
0-0
  6
JWW_DASHED1
 62
   120
370
     5
100
AcDbLine
 10
-1054.287849008468
 20
798.3739647959021
 30
0.0
 11
-464.2878490084831
 21
208.3739647959169
 31
0.0
  0
LINE
  5
23B
330
1F
100
AcDbEntity
  8
0-0
  6
JWW_DASHED1
 62
   120
370
     5
100
AcDbLine
 10
-1054.287849008485
 20
808.273459731081
 30
0.0
 11
-464.2878490084789
 21
218.2734597310744
 31
0.0
  0
LINE
  5
23C
330
1F
100
AcDbEntity
  8
0-0
  6
JWW_DASHED1
 62
   120
370
     5
100
AcDbLine
 10
-1054.287849008478
 20
818.1729546662896
 30
0.0
 11
-464.2878490084865
 21
228.1729546662993
 31
0.0
  0
LINE
  5
23D
330
1F
100
AcDbEntity
  8
0-0
  6
JWW_DASHED1
 62
   120
370
     5
100
AcDbLine
 10
-1054.287849008469
 20
828.0724496014983
 30
0.0
 11
-464.287849008478
 21
238.0724496015067
 31
0.0
  0
LINE
  5
23E
330
1F
100
AcDbEntity
  8
0-0
  6
JWW_DASHED1
 62
   120
370
     5
100
AcDbLine
 10
-1054.287849008488
 20
837.9719445366779
 30
0.0
 11
-464.2878490084814
 21
247.9719445366723
 31
0.0
  0
LINE
  5
23F
330
1F
100
AcDbEntity
  8
0-0
  6
JWW_DASHED1
 62
   120
370
     5
100
AcDbLine
 10
-1054.287849008479
 20
847.8714394718859
 30
0.0
 11
-464.28784900849
 21
257.8714394718963
 31
0.0
  0
LINE
  5
240
330
1F
100
AcDbEntity
  8
0-0
  6
JWW_DASHED1
 62
   120
370
     5
100
AcDbLine
 10
-1054.287849008472
 20
857.7709344070954
 30
0.0
 11
-464.2878490084814
 21
267.7709344071037
 31
0.0
  0
LINE
  5
241
330
1F
100
AcDbEntity
  8
0-0
  6
JWW_DASHED1
 62
   120
370
     5
100
AcDbLine
 10
-1054.287849008475
 20
867.6704293422597
 30
0.0
 11
-464.287849008484
 21
277.6704293422685
 31
0.0
  0
LINE
  5
242
330
1F
100
AcDbEntity
  8
0-0
  6
JWW_DASHED1
 62
   120
370
     5
100
AcDbLine
 10
-1054.287849008482
 20
877.5699242774829
 30
0.0
 11
-464.2878490084763
 21
287.5699242774776
 31
0.0
  0
LINE
  5
243
330
1F
100
AcDbEntity
  8
0-0
  6
JWW_DASHED1
 62
   120
370
     5
100
AcDbLine
 10
-1054.287849008474
 20
887.4694192126924
 30
0.0
 11
-464.2878490084831
 21
297.4694192127012
 31
0.0
  0
LINE
  5
244
330
1F
100
AcDbEntity
  8
0-0
  6
JWW_DASHED1
 62
   120
370
     5
100
AcDbLine
 10
-1054.287849008462
 20
897.3689141478415
 30
0.0
 11
-464.2878490084763
 21
307.3689141478562
 31
0.0
  0
LINE
  5
245
330
1F
100
AcDbEntity
  8
0-0
  6
JWW_DASHED1
 62
   120
370
     5
100
AcDbLine
 10
-1054.287849008484
 20
907.2684090830799
 30
0.0
 11
-464.287849008478
 21
317.2684090830734
 31
0.0
  0
LINE
  5
246
330
1F
100
AcDbEntity
  8
0-0
  6
JWW_DASHED1
 62
   120
370
     5
100
AcDbLine
 10
-1054.287849008477
 20
917.1679040182886
 30
0.0
 11
-464.2878490084865
 21
327.1679040182983
 31
0.0
  0
LINE
  5
247
330
1F
100
AcDbEntity
  8
0-0
  6
JWW_DASHED1
 62
   120
370
     5
100
AcDbLine
 10
-1054.287849008464
 20
927.0673989534384
 30
0.0
 11
-464.2878490084789
 21
337.0673989534524
 31
0.0
  0
LINE
  5
248
330
1F
100
AcDbEntity
  8
0-0
  6
JWW_DASHED1
 62
   120
370
     5
100
AcDbLine
 10
-1054.287849008487
 20
936.966893888677
 30
0.0
 11
-464.2878490084806
 21
346.9668938886704
 31
0.0
  0
LINE
  5
249
330
1F
100
AcDbEntity
  8
0-0
  6
JWW_DASHED1
 62
   120
370
     5
100
AcDbLine
 10
-1054.287849008479
 20
946.8663888238857
 30
0.0
 11
-464.2878490084883
 21
356.8663888238953
 31
0.0
  0
LINE
  5
24A
330
1F
100
AcDbEntity
  8
0-0
  6
JWW_DASHED1
 62
   120
370
     5
100
AcDbLine
 10
-1054.287849008467
 20
956.7658837590354
 30
0.0
 11
-464.2878490084806
 21
366.765883759049
 31
0.0
  0
LINE
  5
24B
330
1F
100
AcDbEntity
  8
0-0
  6
JWW_DASHED1
 62
   120
370
     5
100
AcDbLine
 10
-1054.287849008474
 20
966.6653786942586
 30
0.0
 11
-464.2878490084831
 21
376.6653786942683
 31
0.0
  0
LINE
  5
24C
330
1F
100
AcDbEntity
  8
0-0
  6
JWW_DASHED1
 62
   120
370
     5
100
AcDbLine
 10
-1054.287849008481
 20
976.5648736294818
 30
0.0
 11
-464.2878490084917
 21
386.5648736294924
 31
0.0
  0
LINE
  5
24D
330
1F
100
AcDbEntity
  8
0-0
  6
JWW_DASHED1
 62
   120
370
     5
100
AcDbLine
 10
-1054.266228060764
 20
986.442747616926
 30
0.0
 11
-464.287849008478
 21
396.4643685646413
 31
0.0
  0
LINE
  5
24E
330
1F
100
AcDbEntity
  8
0-0
  6
JWW_DASHED1
 62
   120
370
     5
100
AcDbLine
 10
-1044.366733125539
 20
986.4427476169183
 30
0.0
 11
-464.2878490084865
 21
406.3638634998654
 31
0.0
  0
LINE
  5
24F
330
1F
100
AcDbEntity
  8
0-0
  6
JWW_DASHED1
 62
   120
370
     5
100
AcDbLine
 10
-1034.467238190316
 20
986.4427476169114
 30
0.0
 11
-464.287849008478
 21
416.2633584350727
 31
0.0
  0
LINE
  5
250
330
1F
100
AcDbEntity
  8
0-0
  6
JWW_DASHED1
 62
   120
370
     5
100
AcDbLine
 10
-1024.567743255166
 20
986.4427476169235
 30
0.0
 11
-464.2878490084814
 21
426.1628533702384
 31
0.0
  0
LINE
  5
251
330
1F
100
AcDbEntity
  8
0-0
  6
JWW_DASHED1
 62
   120
370
     5
100
AcDbLine
 10
-1014.668248319958
 20
986.4427476169311
 30
0.0
 11
-464.2878490084772
 21
436.0623483054509
 31
0.0
  0
LINE
  5
252
330
1F
100
AcDbEntity
  8
0-0
  6
JWW_DASHED1
 62
   120
370
     5
100
AcDbLine
 10
-1004.768753384718
 20
986.442747616908
 30
0.0
 11
-464.2878490084797
 21
445.9618432406699
 31
0.0
  0
LINE
  5
253
330
1F
100
AcDbEntity
  8
0-0
  6
JWW_DASHED1
 62
   120
370
     5
100
AcDbLine
 10
-994.8692584495686
 20
986.4427476169201
 30
0.0
 11
-464.2878490084831
 21
455.8613381758354
 31
0.0
  0
LINE
  5
254
330
1F
100
AcDbEntity
  8
0-0
  6
JWW_DASHED1
 62
   120
370
     5
100
AcDbLine
 10
-984.9697635143599
 20
986.4427476169277
 30
0.0
 11
-464.2878490084797
 21
465.760833111048
 31
0.0
  0
LINE
  5
255
330
1F
100
AcDbEntity
  8
0-0
  6
JWW_DASHED1
 62
   120
370
     5
100
AcDbLine
 10
-975.0702685791811
 20
986.4427476169107
 30
0.0
 11
-464.287849008478
 21
475.6603280462081
 31
0.0
  0
LINE
  5
256
330
1F
100
AcDbEntity
  8
0-0
  6
JWW_DASHED1
 62
   120
370
     5
100
AcDbLine
 10
-965.1707736439698
 20
986.4427476169167
 30
0.0
 11
-464.2878490084857
 21
485.5598229814316
 31
0.0
  0
LINE
  5
257
330
1F
100
AcDbEntity
  8
0-0
  6
JWW_DASHED1
 62
   120
370
     5
100
AcDbLine
 10
-955.271278708762
 20
986.4427476169251
 30
0.0
 11
-464.2878490084814
 21
495.4593179166446
 31
0.0
  0
LINE
  5
258
330
1F
100
AcDbEntity
  8
0-0
  6
JWW_DASHED1
 62
   120
370
     5
100
AcDbLine
 10
-945.371783773584
 20
986.442747616909
 30
0.0
 11
-464.2878490084806
 21
505.3588128518051
 31
0.0
  0
LINE
  5
259
330
1F
100
AcDbEntity
  8
0-0
  6
JWW_DASHED1
 62
   120
370
     5
100
AcDbLine
 10
-935.4722888383728
 20
986.4427476169141
 30
0.0
 11
-464.2878490084874
 21
515.2583077870282
 31
0.0
  0
LINE
  5
25A
330
1F
100
AcDbEntity
  8
0-0
  6
JWW_DASHED1
 62
   120
370
     5
100
AcDbLine
 10
-925.5727939031649
 20
986.4427476169217
 30
0.0
 11
-464.2878490084797
 21
525.1578027222374
 31
0.0
  0
LINE
  5
25B
330
1F
100
AcDbEntity
  8
0-0
  6
JWW_DASHED1
 62
   120
370
     5
100
AcDbLine
 10
-915.673298967987
 20
986.4427476169064
 30
0.0
 11
-464.2878490084831
 21
535.0572976574022
 31
0.0
  0
LINE
  5
25C
330
1F
100
AcDbEntity
  8
0-0
  6
JWW_DASHED1
 62
   120
370
     5
100
AcDbLine
 10
-905.7738040327757
 20
986.4427476169114
 30
0.0
 11
-464.2878490084908
 21
544.9567925926261
 31
0.0
  0
LINE
  5
25D
330
1F
100
AcDbEntity
  8
0-0
  6
JWW_DASHED1
 62
   120
370
     5
100
AcDbLine
 10
-895.874309097567
 20
986.4427476169183
 30
0.0
 11
-464.2878490084831
 21
554.8562875278344
 31
0.0
  0
LINE
  5
25E
330
1F
100
AcDbEntity
  8
0-0
  6
JWW_DASHED1
 62
   120
370
     5
100
AcDbLine
 10
-885.9748141624018
 20
986.4427476169158
 30
0.0
 11
-464.2878490084857
 21
564.7557824629992
 31
0.0
  0
LINE
  5
25F
330
1F
100
AcDbEntity
  8
0-0
  6
JWW_DASHED1
 62
   120
370
     5
100
AcDbLine
 10
-876.075319227182
 20
986.4427476169124
 30
0.0
 11
-464.2878490084772
 21
574.6552773982066
 31
0.0
  0
LINE
  5
260
330
1F
100
AcDbEntity
  8
0-0
  6
JWW_DASHED1
 62
   120
370
     5
100
AcDbLine
 10
-866.17582429197
 20
986.4427476169158
 30
0.0
 11
-464.2878490084848
 21
584.5547723334314
 31
0.0
  0
LINE
  5
261
330
1F
100
AcDbEntity
  8
0-0
  6
JWW_DASHED1
 62
   120
370
     5
100
AcDbLine
 10
-856.2763293568202
 20
986.4427476169277
 30
0.0
 11
-464.2878490084755
 21
594.4542672685834
 31
0.0
  0
LINE
  5
262
330
1F
100
AcDbEntity
  8
0-0
  6
JWW_DASHED1
 62
   120
370
     5
100
AcDbLine
 10
-846.3768344215868
 20
986.4427476169107
 30
0.0
 11
-464.2878490084797
 21
604.3537622038036
 31
0.0
  0
LINE
  5
263
330
1F
100
AcDbEntity
  8
0-0
  6
JWW_DASHED1
 62
   120
370
     5
100
AcDbLine
 10
-836.4773394863721
 20
986.4427476169133
 30
0.0
 11
-464.2878490084883
 21
614.2532571390285
 31
0.0
  0
LINE
  5
264
330
1F
100
AcDbEntity
  8
0-0
  6
JWW_DASHED1
 62
   120
370
     5
100
AcDbLine
 10
-826.5778445512223
 20
986.4427476169251
 30
0.0
 11
-464.287849008478
 21
624.1527520741801
 31
0.0
  0
LINE
  5
265
330
1F
100
AcDbEntity
  8
0-0
  6
JWW_DASHED1
 62
   120
370
     5
100
AcDbLine
 10
-816.6783496159896
 20
986.442747616908
 30
0.0
 11
-464.2878490084823
 21
634.0522470094006
 31
0.0
  0
LINE
  5
266
330
1F
100
AcDbEntity
  8
0-0
  6
JWW_DASHED1
 62
   120
370
     5
100
AcDbLine
 10
-806.7788546807751
 20
986.4427476169099
 30
0.0
 11
-464.2878490084891
 21
643.9517419446242
 31
0.0
  0
LINE
  5
267
330
1F
100
AcDbEntity
  8
0-0
  6
JWW_DASHED1
 62
   120
370
     5
100
AcDbLine
 10
-796.8793597456252
 20
986.4427476169217
 30
0.0
 11
-464.2878490084797
 21
653.8512368797772
 31
0.0
  0
LINE
  5
268
330
1F
100
AcDbEntity
  8
0-0
  6
JWW_DASHED1
 62
   120
370
     5
100
AcDbLine
 10
-786.9798648104012
 20
986.4427476169141
 30
0.0
 11
-464.2878490084848
 21
663.7507318149982
 31
0.0
  0
LINE
  5
269
330
1F
100
AcDbEntity
  8
0-0
  6
JWW_DASHED1
 62
   120
370
     5
100
AcDbLine
 10
-777.0803698751772
 20
986.4427476169064
 30
0.0
 11
-464.2878490084925
 21
673.6502267502217
 31
0.0
  0
LINE
  5
26A
330
1F
100
AcDbEntity
  8
0-0
  6
JWW_DASHED1
 62
   120
370
     5
100
AcDbLine
 10
-767.1808749400273
 20
986.4427476169183
 30
0.0
 11
-464.2878490084797
 21
683.5497216853712
 31
0.0
  0
LINE
  5
26B
330
1F
100
AcDbEntity
  8
0-0
  6
JWW_DASHED1
 62
   120
370
     5
100
AcDbLine
 10
-757.2813800048195
 20
986.4427476169269
 30
0.0
 11
-464.2878490084746
 21
693.4492166205815
 31
0.0
  0
LINE
  5
26C
330
1F
100
AcDbEntity
  8
0-0
  6
JWW_DASHED1
 62
   120
370
     5
100
AcDbLine
 10
-747.3818850695877
 20
986.4427476169114
 30
0.0
 11
-464.2878490084789
 21
703.3487115558025
 31
0.0
  0
LINE
  5
26D
330
1F
100
AcDbEntity
  8
0-0
  6
JWW_DASHED1
 62
   120
370
     5
100
AcDbLine
 10
-737.4823901344303
 20
986.4427476169158
 30
0.0
 11
-464.2878490084831
 21
713.2482064909686
 31
0.0
  0
LINE
  5
26E
330
1F
100
AcDbEntity
  8
0-0
  6
JWW_DASHED1
 62
   120
370
     5
100
AcDbLine
 10
-727.5828951992216
 20
986.4427476169243
 30
0.0
 11
-464.2878490084763
 21
723.1477014261782
 31
0.0
  0
LINE
  5
26F
330
1F
100
AcDbEntity
  8
0-0
  6
JWW_DASHED1
 62
   120
370
     5
100
AcDbLine
 10
-717.6834002640496
 20
986.4427476169141
 30
0.0
 11
-464.2878490084772
 21
733.0471963613412
 31
0.0
  0
LINE
  5
270
330
1F
100
AcDbEntity
  8
0-0
  6
JWW_DASHED1
 62
   120
370
     5
100
AcDbLine
 10
-707.7839053288324
 20
986.4427476169133
 30
0.0
 11
-464.2878490084848
 21
742.9466912965653
 31
0.0
  0
LINE
  5
271
330
1F
100
AcDbEntity
  8
0-0
  6
JWW_DASHED1
 62
   120
370
     5
100
AcDbLine
 10
-697.8844103936245
 20
986.4427476169209
 30
0.0
 11
-464.287849008478
 21
752.8461862317748
 31
0.0
  0
LINE
  5
272
330
1F
100
AcDbEntity
  8
0-0
  6
JWW_DASHED1
 62
   120
370
     5
100
AcDbLine
 10
-687.9849154584533
 20
986.4427476169114
 30
0.0
 11
-464.2878490084797
 21
762.7456811669383
 31
0.0
  0
LINE
  5
273
330
1F
100
AcDbEntity
  8
0-0
  6
JWW_DASHED1
 62
   120
370
     5
100
AcDbLine
 10
-678.0854205232354
 20
986.4427476169099
 30
0.0
 11
-464.2878490084865
 21
772.6451761021615
 31
0.0
  0
LINE
  5
274
330
1F
100
AcDbEntity
  8
0-0
  6
JWW_DASHED1
 62
   120
370
     5
100
AcDbLine
 10
-668.1859255880274
 20
986.4427476169183
 30
0.0
 11
-464.2878490084806
 21
782.5446710373718
 31
0.0
  0
LINE
  5
275
330
1F
100
AcDbEntity
  8
0-0
  6
JWW_DASHED1
 62
   120
370
     5
100
AcDbLine
 10
-658.2864306528563
 20
986.442747616909
 30
0.0
 11
-464.2878490084823
 21
792.4441659725353
 31
0.0
  0
LINE
  5
276
330
1F
100
AcDbEntity
  8
0-0
  6
JWW_DASHED1
 62
   120
370
     5
100
AcDbLine
 10
-648.3869357176375
 20
986.4427476169064
 30
0.0
 11
-464.28784900849
 21
802.3436609077585
 31
0.0
  0
LINE
  5
277
330
1F
100
AcDbEntity
  8
0-0
  6
JWW_DASHED1
 62
   120
370
     5
100
AcDbLine
 10
-638.4874407824287
 20
986.4427476169141
 30
0.0
 11
-464.2878490084814
 21
812.2431558429668
 31
0.0
  0
LINE
  5
278
330
1F
100
AcDbEntity
  8
0-0
  6
JWW_DASHED1
 62
   120
370
     5
100
AcDbLine
 10
-628.5879458472635
 20
986.4427476169111
 30
0.0
 11
-464.2878490084848
 21
822.1426507781324
 31
0.0
  0
LINE
  5
279
330
1F
100
AcDbEntity
  8
0-0
  6
JWW_DASHED1
 62
   120
370
     5
100
AcDbLine
 10
-618.6884509120396
 20
986.4427476169034
 30
0.0
 11
-464.2878490084917
 21
832.0421457133556
 31
0.0
  0
LINE
  5
27A
330
1F
100
AcDbEntity
  8
0-0
  6
JWW_DASHED1
 62
   120
370
     5
100
AcDbLine
 10
-608.7889559768316
 20
986.4427476169119
 30
0.0
 11
-464.287849008484
 21
841.9416406485642
 31
0.0
  0
LINE
  5
27B
330
1F
100
AcDbEntity
  8
0-0
  6
JWW_DASHED1
 62
   120
370
     5
100
AcDbLine
 10
-598.8894610416664
 20
986.4427476169085
 30
0.0
 11
-464.2878490084874
 21
851.8411355837294
 31
0.0
  0
LINE
  5
27C
330
1F
100
AcDbEntity
  8
0-0
  6
JWW_DASHED1
 62
   120
370
     5
100
AcDbLine
 10
-588.9899661064544
 20
986.4427476169128
 30
0.0
 11
-464.2878490084789
 21
861.7406305189372
 31
0.0
  0
LINE
  5
27D
330
1F
100
AcDbEntity
  8
0-0
  6
JWW_DASHED1
 62
   120
370
     5
100
AcDbLine
 10
-579.0904711712329
 20
986.442747616908
 30
0.0
 11
-464.2878490084865
 21
871.6401254541613
 31
0.0
  0
LINE
  5
27E
330
1F
100
AcDbEntity
  8
0-0
  6
JWW_DASHED1
 62
   120
370
     5
100
AcDbLine
 10
-569.1909762360848
 20
986.4427476169209
 30
0.0
 11
-464.2878490084746
 21
881.5396203893107
 31
0.0
  0
LINE
  5
27F
330
1F
100
AcDbEntity
  8
0-0
  6
JWW_DASHED1
 62
   120
370
     5
100
AcDbLine
 10
-559.2914813008582
 20
986.4427476169107
 30
0.0
 11
-464.2878490084814
 21
891.4391153245343
 31
0.0
  0
LINE
  5
280
330
1F
100
AcDbEntity
  8
0-0
  6
JWW_DASHED1
 62
   120
370
     5
100
AcDbLine
 10
-549.3919863656367
 20
986.4427476169055
 30
0.0
 11
-464.2878490084891
 21
901.3386102597583
 31
0.0
  0
LINE
  5
281
330
1F
100
AcDbEntity
  8
0-0
  6
JWW_DASHED1
 62
   120
370
     5
100
AcDbLine
 10
-539.4924914304869
 20
986.4427476169183
 30
0.0
 11
-464.2878490084772
 21
911.2381051949078
 31
0.0
  0
LINE
  5
282
330
1F
100
AcDbEntity
  8
0-0
  6
JWW_DASHED1
 62
   120
370
     5
100
AcDbLine
 10
-529.592996495262
 20
986.442747616909
 30
0.0
 11
-464.287849008484
 21
921.1376001301313
 31
0.0
  0
LINE
  5
283
330
1F
100
AcDbEntity
  8
0-0
  6
JWW_DASHED1
 62
   120
370
     5
100
AcDbLine
 10
-519.6935015600388
 20
986.4427476169026
 30
0.0
 11
-464.2878490084917
 21
931.0370950653545
 31
0.0
  0
LINE
  5
284
330
1F
100
AcDbEntity
  8
0-0
  6
JWW_DASHED1
 62
   120
370
     5
100
AcDbLine
 10
-509.794006624889
 20
986.4427476169145
 30
0.0
 11
-464.2878490084797
 21
940.9365900005048
 31
0.0
  0
LINE
  5
285
330
1F
100
AcDbEntity
  8
0-0
  6
JWW_DASHED1
 62
   120
370
     5
100
AcDbLine
 10
-499.894511689665
 20
986.4427476169068
 30
0.0
 11
-464.2878490084865
 21
950.8360849357284
 31
0.0
  0
LINE
  5
286
330
1F
100
AcDbEntity
  8
0-0
  6
JWW_DASHED1
 62
   120
370
     5
100
AcDbLine
 10
-489.9950167544998
 20
986.4427476169034
 30
0.0
 11
-464.28784900849
 21
960.7355798708932
 31
0.0
  0
LINE
  5
287
330
1F
100
AcDbEntity
  8
0-0
  6
JWW_DASHED1
 62
   120
370
     5
100
AcDbLine
 10
-480.0955218192919
 20
986.4427476169119
 30
0.0
 11
-464.2878490084814
 21
970.6350748061014
 31
0.0
  0
LINE
  5
288
330
1F
100
AcDbEntity
  8
0-0
  6
JWW_DASHED1
 62
   120
370
     5
100
AcDbLine
 10
-470.1960268840833
 20
986.4427476169192
 30
0.0
 11
-464.2878490084729
 21
980.5345697413097
 31
0.0
  0
LINE
  5
289
330
1F
100
AcDbEntity
  8
0-0
  6
JWW_DASHED1
 62
   120
370
     5
100
AcDbLine
 10
-274.2878490084786
 20
402.3941673880227
 30
0.0
 11
315.7121509915126
 21
-187.6058326119686
 31
0.0
  0
LINE
  5
28A
330
1F
100
AcDbEntity
  8
0-0
  6
JWW_DASHED1
 62
   120
370
     5
100
AcDbLine
 10
-274.2878490084709
 20
412.2936623231763
 30
0.0
 11
315.7121509915152
 21
-177.7063376768098
 31
0.0
  0
LINE
  5
28B
330
1F
100
AcDbEntity
  8
0-0
  6
JWW_DASHED1
 62
   120
370
     5
100
AcDbLine
 10
-274.2878490084735
 20
422.1931572583952
 30
0.0
 11
315.7121509915177
 21
-167.8068427415955
 31
0.0
  0
LINE
  5
28C
330
1F
100
AcDbEntity
  8
0-0
  6
JWW_DASHED1
 62
   120
370
     5
100
AcDbLine
 10
-274.2878490084811
 20
432.0926521936196
 30
0.0
 11
315.7121509915254
 21
-157.9073478063873
 31
0.0
  0
LINE
  5
28D
330
1F
100
AcDbEntity
  8
0-0
  6
JWW_DASHED1
 62
   120
370
     5
100
AcDbLine
 10
-274.2878490084684
 20
441.9921471287687
 30
0.0
 11
315.712150991522
 21
-148.0078528712225
 31
0.0
  0
LINE
  5
28E
330
1F
100
AcDbEntity
  8
0-0
  6
JWW_DASHED1
 62
   120
370
     5
100
AcDbLine
 10
-274.2878490084649
 20
451.8916420639812
 30
0.0
 11
315.712150991522
 21
-138.1083579360049
 31
0.0
  0
LINE
  5
28F
330
1F
100
AcDbEntity
  8
0-0
  6
JWW_DASHED1
 62
   120
370
     5
100
AcDbLine
 10
-274.2878490084811
 20
461.7911369991864
 30
0.0
 11
315.71215099151
 21
-128.2088630008039
 31
0.0
  0
LINE
  5
290
330
1F
100
AcDbEntity
  8
0-0
  6
JWW_DASHED1
 62
   120
370
     5
100
AcDbLine
 10
-274.2878490084718
 20
471.6906319343657
 30
0.0
 11
315.7121509915203
 21
-118.3093680656255
 31
0.0
  0
LINE
  5
291
330
1F
100
AcDbEntity
  8
0-0
  6
JWW_DASHED1
 62
   120
370
     5
100
AcDbLine
 10
-274.2878490084675
 20
481.5901268695782
 30
0.0
 11
315.7121509915186
 21
-108.4098731304078
 31
0.0
  0
LINE
  5
292
330
1F
100
AcDbEntity
  8
0-0
  6
JWW_DASHED1
 62
   120
370
     5
100
AcDbLine
 10
-274.287849008482
 20
491.4896218047545
 30
0.0
 11
315.7121509915254
 21
-98.51037819525203
 31
0.0
  0
LINE
  5
293
330
1F
100
AcDbEntity
  8
0-0
  6
JWW_DASHED1
 62
   120
370
     5
100
AcDbLine
 10
-274.2878490084735
 20
501.3891167399628
 30
0.0
 11
315.7121509915169
 21
-88.61088326002843
 31
0.0
  0
LINE
  5
294
330
1F
100
AcDbEntity
  8
0-0
  6
JWW_DASHED1
 62
   120
370
     5
100
AcDbLine
 10
-274.2878490084684
 20
511.288611675174
 30
0.0
 11
315.7121509915169
 21
-78.7113883248108
 31
0.0
  0
LINE
  5
295
330
1F
100
AcDbEntity
  8
0-0
  6
JWW_DASHED1
 62
   120
370
     5
100
AcDbLine
 10
-274.2878490084837
 20
521.1881066103512
 30
0.0
 11
315.712150991522
 21
-68.81189338965498
 31
0.0
  0
LINE
  5
296
330
1F
100
AcDbEntity
  8
0-0
  6
JWW_DASHED1
 62
   120
370
     5
100
AcDbLine
 10
-274.2878490084769
 20
531.0876015455598
 30
0.0
 11
315.7121509915152
 21
-58.91239845443096
 31
0.0
  0
LINE
  5
297
330
1F
100
AcDbEntity
  8
0-0
  6
JWW_DASHED1
 62
   120
370
     5
100
AcDbLine
 10
-274.2878490084675
 20
540.9870964807676
 30
0.0
 11
315.7121509915237
 21
-49.01290351922356
 31
0.0
  0
LINE
  5
298
330
1F
100
AcDbEntity
  8
0-0
  6
JWW_DASHED1
 62
   120
370
     5
100
AcDbLine
 10
-274.2878490084863
 20
550.8865914159481
 30
0.0
 11
315.7121509915203
 21
-39.11340858405794
 31
0.0
  0
LINE
  5
299
330
1F
100
AcDbEntity
  8
0-0
  6
JWW_DASHED1
 62
   120
370
     5
100
AcDbLine
 10
-274.2878490084786
 20
560.7860863511564
 30
0.0
 11
315.7121509915117
 21
-29.21391364883391
 31
0.0
  0
LINE
  5
29A
330
1F
100
AcDbEntity
  8
0-0
  6
JWW_DASHED1
 62
   120
370
     5
100
AcDbLine
 10
-274.2878490084701
 20
570.6855812863643
 30
0.0
 11
315.7121509915211
 21
-19.31441871362651
 31
0.0
  0
LINE
  5
29B
330
1F
100
AcDbEntity
  8
0-0
  6
JWW_DASHED1
 62
   120
370
     5
100
AcDbLine
 10
-274.2878490084735
 20
580.5850762215294
 30
0.0
 11
315.7121509915186
 21
-9.414923778461741
 31
0.0
  0
LINE
  5
29C
330
1F
100
AcDbEntity
  8
0-0
  6
JWW_DASHED1
 62
   120
370
     5
100
AcDbLine
 10
-274.2878490084811
 20
590.4845711567534
 30
0.0
 11
315.7121509915254
 21
0.4845711567473643
 31
0.0
  0
LINE
  5
29D
330
1F
100
AcDbEntity
  8
0-0
  6
JWW_DASHED1
 62
   120
370
     5
100
AcDbLine
 10
-274.2878490084718
 20
600.3840660919614
 30
0.0
 11
315.7121509915186
 21
10.38406609197054
 31
0.0
  0
LINE
  5
29E
330
1F
100
AcDbEntity
  8
0-0
  6
JWW_DASHED1
 62
   120
370
     5
100
AcDbLine
 10
-274.2878490084632
 20
610.2835610271137
 30
0.0
 11
315.712150991522
 21
20.28356102712806
 31
0.0
  0
LINE
  5
29F
330
1F
100
AcDbEntity
  8
0-0
  6
JWW_DASHED1
 62
   120
370
     5
100
AcDbLine
 10
-274.2878490084829
 20
620.1830559623497
 30
0.0
 11
315.7121509915237
 21
30.18305596234356
 31
0.0
  0
LINE
  5
2A0
330
1F
100
AcDbEntity
  8
0-0
  6
JWW_DASHED1
 62
   120
370
     5
100
AcDbLine
 10
-274.2878490084752
 20
630.0825508975583
 30
0.0
 11
315.7121509915152
 21
40.08255089756759
 31
0.0
  0
LINE
  5
2A1
330
1F
100
AcDbEntity
  8
0-0
  6
JWW_DASHED1
 62
   120
370
     5
100
AcDbLine
 10
-274.2878490084649
 20
639.9820458327099
 30
0.0
 11
315.7121509915203
 21
49.98204583272511
 31
0.0
  0
LINE
  5
2A2
330
1F
100
AcDbEntity
  8
0-0
  6
JWW_DASHED1
 62
   120
370
     5
100
AcDbLine
 10
-274.2878490084854
 20
649.8815407679467
 30
0.0
 11
315.7121509915203
 21
59.88154076794061
 31
0.0
  0
LINE
  5
2A3
330
1F
100
AcDbEntity
  8
0-0
  6
JWW_DASHED1
 62
   120
370
     5
100
AcDbLine
 10
-274.2878490084777
 20
659.7810357031562
 30
0.0
 11
315.7121509915135
 21
69.78103570316463
 31
0.0
  0
LINE
  5
2A4
330
1F
100
AcDbEntity
  8
0-0
  6
JWW_DASHED1
 62
   120
370
     5
100
AcDbLine
 10
-274.2878490084675
 20
669.6805306383069
 30
0.0
 11
315.7121509915186
 21
79.6805306383213
 31
0.0
  0
LINE
  5
2A5
330
1F
100
AcDbEntity
  8
0-0
  6
JWW_DASHED1
 62
   120
370
     5
100
AcDbLine
 10
-274.287849008488
 20
679.5800255735437
 30
0.0
 11
315.7121509915186
 21
89.58002557353765
 31
0.0
  0
LINE
  5
2A6
330
1F
100
AcDbEntity
  8
0-0
  6
JWW_DASHED1
 62
   120
370
     5
100
AcDbLine
 10
-274.2878490084803
 20
689.4795205087532
 30
0.0
 11
315.71215099151
 21
99.47952050876168
 31
0.0
  0
LINE
  5
2A7
330
1F
100
AcDbEntity
  8
0-0
  6
JWW_DASHED1
 62
   120
370
     5
100
AcDbLine
 10
-274.2878490084701
 20
699.379015443904
 30
0.0
 11
315.712150991516
 21
109.3790154439183
 31
0.0
  0
LINE
  5
2A8
330
1F
100
AcDbEntity
  8
0-0
  6
JWW_DASHED1
 62
   120
370
     5
100
AcDbLine
 10
-274.2878490084752
 20
709.2785103791255
 30
0.0
 11
315.7121509915152
 21
119.2785103791351
 31
0.0
  0
LINE
  5
2A9
330
1F
100
AcDbEntity
  8
0-0
  6
JWW_DASHED1
 62
   120
370
     5
100
AcDbLine
 10
-274.2878490084829
 20
719.1780053143495
 30
0.0
 11
315.7121509915237
 21
129.1780053143434
 31
0.0
  0
LINE
  5
2AA
330
1F
100
AcDbEntity
  8
0-0
  6
JWW_DASHED1
 62
   120
370
     5
100
AcDbLine
 10
-274.2878490084701
 20
729.0775002494993
 30
0.0
 11
315.7121509915203
 21
139.0775002495081
 31
0.0
  0
LINE
  5
2AB
330
1F
100
AcDbEntity
  8
0-0
  6
JWW_DASHED1
 62
   120
370
     5
100
AcDbLine
 10
-274.2878490084632
 20
738.9769951847088
 30
0.0
 11
315.712150991522
 21
148.9769951847228
 31
0.0
  0
LINE
  5
2AC
330
1F
100
AcDbEntity
  8
0-0
  6
JWW_DASHED1
 62
   120
370
     5
100
AcDbLine
 10
-274.2878490084846
 20
748.8764901199456
 30
0.0
 11
315.7121509915211
 21
158.8764901199404
 31
0.0
  0
LINE
  5
2AD
330
1F
100
AcDbEntity
  8
0-0
  6
JWW_DASHED1
 62
   120
370
     5
100
AcDbLine
 10
-274.2878490084726
 20
758.7759850550956
 30
0.0
 11
315.7121509915186
 21
168.7759850551052
 31
0.0
  0
LINE
  5
2AE
330
1F
100
AcDbEntity
  8
0-0
  6
JWW_DASHED1
 62
   120
370
     5
100
AcDbLine
 10
-274.2878490084658
 20
768.6754799903059
 30
0.0
 11
315.7121509915194
 21
178.6754799903198
 31
0.0
  0
LINE
  5
2AF
330
1F
100
AcDbEntity
  8
0-0
  6
JWW_DASHED1
 62
   120
370
     5
100
AcDbLine
 10
-274.2878490084829
 20
778.574974925484
 30
0.0
 11
315.7121509915237
 21
188.5749749254774
 31
0.0
  0
LINE
  5
2B0
330
1F
100
AcDbEntity
  8
0-0
  6
JWW_DASHED1
 62
   120
370
     5
100
AcDbLine
 10
-274.2878490084752
 20
788.4744698606926
 30
0.0
 11
315.7121509915152
 21
198.4744698607022
 31
0.0
  0
LINE
  5
2B1
330
1F
100
AcDbEntity
  8
0-0
  6
JWW_DASHED1
 62
   120
370
     5
100
AcDbLine
 10
-274.2878490084684
 20
798.3739647959021
 30
0.0
 11
315.7121509915169
 21
208.3739647959169
 31
0.0
  0
LINE
  5
2B2
330
1F
100
AcDbEntity
  8
0-0
  6
JWW_DASHED1
 62
   120
370
     5
100
AcDbLine
 10
-274.2878490084854
 20
808.273459731081
 30
0.0
 11
315.7121509915211
 21
218.2734597310744
 31
0.0
  0
LINE
  5
2B3
330
1F
100
AcDbEntity
  8
0-0
  6
JWW_DASHED1
 62
   120
370
     5
100
AcDbLine
 10
-274.2878490084777
 20
818.1729546662896
 30
0.0
 11
315.7121509915135
 21
228.1729546662993
 31
0.0
  0
LINE
  5
2B4
330
1F
100
AcDbEntity
  8
0-0
  6
JWW_DASHED1
 62
   120
370
     5
100
AcDbLine
 10
-274.2878490084692
 20
828.0724496014983
 30
0.0
 11
315.712150991522
 21
238.0724496015067
 31
0.0
  0
LINE
  5
2B5
330
1F
100
AcDbEntity
  8
0-0
  6
JWW_DASHED1
 62
   120
370
     5
100
AcDbLine
 10
-274.287849008488
 20
837.9719445366779
 30
0.0
 11
315.7121509915186
 21
247.9719445366723
 31
0.0
  0
LINE
  5
2B6
330
1F
100
AcDbEntity
  8
0-0
  6
JWW_DASHED1
 62
   120
370
     5
100
AcDbLine
 10
-274.2878490084794
 20
847.8714394718859
 30
0.0
 11
315.71215099151
 21
257.8714394718963
 31
0.0
  0
LINE
  5
2B7
330
1F
100
AcDbEntity
  8
0-0
  6
JWW_DASHED1
 62
   120
370
     5
100
AcDbLine
 10
-274.2878490084718
 20
857.7709344070954
 30
0.0
 11
315.7121509915186
 21
267.7709344071037
 31
0.0
  0
LINE
  5
2B8
330
1F
100
AcDbEntity
  8
0-0
  6
JWW_DASHED1
 62
   120
370
     5
100
AcDbLine
 10
-274.2878490084752
 20
867.6704293422597
 30
0.0
 11
315.712150991516
 21
277.6704293422685
 31
0.0
  0
LINE
  5
2B9
330
1F
100
AcDbEntity
  8
0-0
  6
JWW_DASHED1
 62
   120
370
     5
100
AcDbLine
 10
-274.287849008482
 20
877.5699242774829
 30
0.0
 11
315.7121509915237
 21
287.5699242774776
 31
0.0
  0
LINE
  5
2BA
330
1F
100
AcDbEntity
  8
0-0
  6
JWW_DASHED1
 62
   120
370
     5
100
AcDbLine
 10
-274.2878490084743
 20
887.4694192126924
 30
0.0
 11
315.7121509915169
 21
297.4694192127012
 31
0.0
  0
LINE
  5
2BB
330
1F
100
AcDbEntity
  8
0-0
  6
JWW_DASHED1
 62
   120
370
     5
100
AcDbLine
 10
-274.2878490084615
 20
897.3689141478415
 30
0.0
 11
315.7121509915237
 21
307.3689141478562
 31
0.0
  0
LINE
  5
2BC
330
1F
100
AcDbEntity
  8
0-0
  6
JWW_DASHED1
 62
   120
370
     5
100
AcDbLine
 10
-274.2878490084846
 20
907.2684090830799
 30
0.0
 11
315.712150991522
 21
317.2684090830734
 31
0.0
  0
LINE
  5
2BD
330
1F
100
AcDbEntity
  8
0-0
  6
JWW_DASHED1
 62
   120
370
     5
100
AcDbLine
 10
-274.2878490084769
 20
917.1679040182886
 30
0.0
 11
315.7121509915135
 21
327.1679040182983
 31
0.0
  0
LINE
  5
2BE
330
1F
100
AcDbEntity
  8
0-0
  6
JWW_DASHED1
 62
   120
370
     5
100
AcDbLine
 10
-274.2878490084641
 20
927.0673989534384
 30
0.0
 11
315.7121509915211
 21
337.0673989534524
 31
0.0
  0
LINE
  5
2BF
330
1F
100
AcDbEntity
  8
0-0
  6
JWW_DASHED1
 62
   120
370
     5
100
AcDbLine
 10
-274.2878490084871
 20
936.966893888677
 30
0.0
 11
315.7121509915194
 21
346.9668938886704
 31
0.0
  0
LINE
  5
2C0
330
1F
100
AcDbEntity
  8
0-0
  6
JWW_DASHED1
 62
   120
370
     5
100
AcDbLine
 10
-274.2878490084794
 20
946.8663888238857
 30
0.0
 11
315.7121509915117
 21
356.8663888238953
 31
0.0
  0
LINE
  5
2C1
330
1F
100
AcDbEntity
  8
0-0
  6
JWW_DASHED1
 62
   120
370
     5
100
AcDbLine
 10
-274.2878490084667
 20
956.7658837590354
 30
0.0
 11
315.7121509915194
 21
366.765883759049
 31
0.0
  0
LINE
  5
2C2
330
1F
100
AcDbEntity
  8
0-0
  6
JWW_DASHED1
 62
   120
370
     5
100
AcDbLine
 10
-274.2878490084743
 20
966.6653786942586
 30
0.0
 11
315.7121509915169
 21
376.6653786942683
 31
0.0
  0
LINE
  5
2C3
330
1F
100
AcDbEntity
  8
0-0
  6
JWW_DASHED1
 62
   120
370
     5
100
AcDbLine
 10
-274.2878490084811
 20
976.5648736294818
 30
0.0
 11
315.7121509915083
 21
386.5648736294924
 31
0.0
  0
LINE
  5
2C4
330
1F
100
AcDbEntity
  8
0-0
  6
JWW_DASHED1
 62
   120
370
     5
100
AcDbLine
 10
-274.2662280607635
 20
986.442747616926
 30
0.0
 11
315.712150991522
 21
396.4643685646413
 31
0.0
  0
LINE
  5
2C5
330
1F
100
AcDbEntity
  8
0-0
  6
JWW_DASHED1
 62
   120
370
     5
100
AcDbLine
 10
-264.3667331255395
 20
986.4427476169183
 30
0.0
 11
315.7121509915135
 21
406.3638634998654
 31
0.0
  0
LINE
  5
2C6
330
1F
100
AcDbEntity
  8
0-0
  6
JWW_DASHED1
 62
   120
370
     5
100
AcDbLine
 10
-254.4672381903155
 20
986.4427476169114
 30
0.0
 11
315.712150991522
 21
416.2633584350727
 31
0.0
  0
LINE
  5
2C7
330
1F
100
AcDbEntity
  8
0-0
  6
JWW_DASHED1
 62
   120
370
     5
100
AcDbLine
 10
-244.5677432551656
 20
986.4427476169235
 30
0.0
 11
315.7121509915186
 21
426.1628533702384
 31
0.0
  0
LINE
  5
2C8
330
1F
100
AcDbEntity
  8
0-0
  6
JWW_DASHED1
 62
   120
370
     5
100
AcDbLine
 10
-234.6682483199578
 20
986.4427476169311
 30
0.0
 11
315.7121509915228
 21
436.0623483054509
 31
0.0
  0
LINE
  5
2C9
330
1F
100
AcDbEntity
  8
0-0
  6
JWW_DASHED1
 62
   120
370
     5
100
AcDbLine
 10
-224.7687533847184
 20
986.442747616908
 30
0.0
 11
315.7121509915203
 21
445.9618432406699
 31
0.0
  0
LINE
  5
2CA
330
1F
100
AcDbEntity
  8
0-0
  6
JWW_DASHED1
 62
   120
370
     5
100
AcDbLine
 10
-214.8692584495686
 20
986.4427476169201
 30
0.0
 11
315.7121509915169
 21
455.8613381758354
 31
0.0
  0
LINE
  5
2CB
330
1F
100
AcDbEntity
  8
0-0
  6
JWW_DASHED1
 62
   120
370
     5
100
AcDbLine
 10
-204.9697635143599
 20
986.4427476169277
 30
0.0
 11
315.7121509915203
 21
465.760833111048
 31
0.0
  0
LINE
  5
2CC
330
1F
100
AcDbEntity
  8
0-0
  6
JWW_DASHED1
 62
   120
370
     5
100
AcDbLine
 10
-195.0702685791811
 20
986.4427476169107
 30
0.0
 11
315.712150991522
 21
475.6603280462081
 31
0.0
  0
LINE
  5
2CD
330
1F
100
AcDbEntity
  8
0-0
  6
JWW_DASHED1
 62
   120
370
     5
100
AcDbLine
 10
-185.1707736439698
 20
986.4427476169167
 30
0.0
 11
315.7121509915143
 21
485.5598229814316
 31
0.0
  0
LINE
  5
2CE
330
1F
100
AcDbEntity
  8
0-0
  6
JWW_DASHED1
 62
   120
370
     5
100
AcDbLine
 10
-175.271278708762
 20
986.4427476169251
 30
0.0
 11
315.7121509915186
 21
495.4593179166446
 31
0.0
  0
LINE
  5
2CF
330
1F
100
AcDbEntity
  8
0-0
  6
JWW_DASHED1
 62
   120
370
     5
100
AcDbLine
 10
-165.371783773584
 20
986.442747616909
 30
0.0
 11
315.7121509915194
 21
505.3588128518051
 31
0.0
  0
LINE
  5
2D0
330
1F
100
AcDbEntity
  8
0-0
  6
JWW_DASHED1
 62
   120
370
     5
100
AcDbLine
 10
-155.4722888383728
 20
986.4427476169141
 30
0.0
 11
315.7121509915126
 21
515.2583077870282
 31
0.0
  0
LINE
  5
2D1
330
1F
100
AcDbEntity
  8
0-0
  6
JWW_DASHED1
 62
   120
370
     5
100
AcDbLine
 10
-145.5727939031649
 20
986.4427476169217
 30
0.0
 11
315.7121509915203
 21
525.1578027222374
 31
0.0
  0
LINE
  5
2D2
330
1F
100
AcDbEntity
  8
0-0
  6
JWW_DASHED1
 62
   120
370
     5
100
AcDbLine
 10
-135.673298967987
 20
986.4427476169064
 30
0.0
 11
315.7121509915169
 21
535.0572976574022
 31
0.0
  0
LINE
  5
2D3
330
1F
100
AcDbEntity
  8
0-0
  6
JWW_DASHED1
 62
   120
370
     5
100
AcDbLine
 10
-125.7738040327757
 20
986.4427476169114
 30
0.0
 11
315.7121509915092
 21
544.9567925926261
 31
0.0
  0
LINE
  5
2D4
330
1F
100
AcDbEntity
  8
0-0
  6
JWW_DASHED1
 62
   120
370
     5
100
AcDbLine
 10
-115.874309097567
 20
986.4427476169183
 30
0.0
 11
315.7121509915169
 21
554.8562875278344
 31
0.0
  0
LINE
  5
2D5
330
1F
100
AcDbEntity
  8
0-0
  6
JWW_DASHED1
 62
   120
370
     5
100
AcDbLine
 10
-105.9748141624019
 20
986.4427476169158
 30
0.0
 11
315.7121509915143
 21
564.7557824629992
 31
0.0
  0
LINE
  5
2D6
330
1F
100
AcDbEntity
  8
0-0
  6
JWW_DASHED1
 62
   120
370
     5
100
AcDbLine
 10
-96.07531922718209
 20
986.4427476169124
 30
0.0
 11
315.7121509915228
 21
574.6552773982066
 31
0.0
  0
LINE
  5
2D7
330
1F
100
AcDbEntity
  8
0-0
  6
JWW_DASHED1
 62
   120
370
     5
100
AcDbLine
 10
-86.17582429197
 20
986.4427476169158
 30
0.0
 11
315.7121509915152
 21
584.5547723334314
 31
0.0
  0
LINE
  5
2D8
330
1F
100
AcDbEntity
  8
0-0
  6
JWW_DASHED1
 62
   120
370
     5
100
AcDbLine
 10
-76.27632935682016
 20
986.4427476169277
 30
0.0
 11
315.7121509915245
 21
594.4542672685834
 31
0.0
  0
LINE
  5
2D9
330
1F
100
AcDbEntity
  8
0-0
  6
JWW_DASHED1
 62
   120
370
     5
100
AcDbLine
 10
-66.37683442158675
 20
986.4427476169107
 30
0.0
 11
315.7121509915203
 21
604.3537622038036
 31
0.0
  0
LINE
  5
2DA
330
1F
100
AcDbEntity
  8
0-0
  6
JWW_DASHED1
 62
   120
370
     5
100
AcDbLine
 10
-56.4773394863721
 20
986.4427476169133
 30
0.0
 11
315.7121509915117
 21
614.2532571390285
 31
0.0
  0
LINE
  5
2DB
330
1F
100
AcDbEntity
  8
0-0
  6
JWW_DASHED1
 62
   120
370
     5
100
AcDbLine
 10
-46.57784455122226
 20
986.4427476169251
 30
0.0
 11
315.712150991522
 21
624.1527520741801
 31
0.0
  0
LINE
  5
2DC
330
1F
100
AcDbEntity
  8
0-0
  6
JWW_DASHED1
 62
   120
370
     5
100
AcDbLine
 10
-36.6783496159897
 20
986.442747616908
 30
0.0
 11
315.7121509915177
 21
634.0522470094006
 31
0.0
  0
LINE
  5
2DD
330
1F
100
AcDbEntity
  8
0-0
  6
JWW_DASHED1
 62
   120
370
     5
100
AcDbLine
 10
-26.77885468077505
 20
986.4427476169099
 30
0.0
 11
315.7121509915109
 21
643.9517419446242
 31
0.0
  0
LINE
  5
2DE
330
1F
100
AcDbEntity
  8
0-0
  6
JWW_DASHED1
 62
   120
370
     5
100
AcDbLine
 10
-16.87935974562521
 20
986.4427476169217
 30
0.0
 11
315.7121509915203
 21
653.8512368797772
 31
0.0
  0
LINE
  5
2DF
330
1F
100
AcDbEntity
  8
0-0
  6
JWW_DASHED1
 62
   120
370
     5
100
AcDbLine
 10
-6.979864810401182
 20
986.4427476169141
 30
0.0
 11
315.7121509915152
 21
663.7507318149982
 31
0.0
  0
LINE
  5
2E0
330
1F
100
AcDbEntity
  8
0-0
  6
JWW_DASHED1
 62
   120
370
     5
100
AcDbLine
 10
2.919630124822845
 20
986.4427476169064
 30
0.0
 11
315.7121509915075
 21
673.6502267502217
 31
0.0
  0
LINE
  5
2E1
330
1F
100
AcDbEntity
  8
0-0
  6
JWW_DASHED1
 62
   120
370
     5
100
AcDbLine
 10
12.81912505997269
 20
986.4427476169183
 30
0.0
 11
315.7121509915203
 21
683.5497216853712
 31
0.0
  0
LINE
  5
2E2
330
1F
100
AcDbEntity
  8
0-0
  6
JWW_DASHED1
 62
   120
370
     5
100
AcDbLine
 10
22.71861999518052
 20
986.4427476169269
 30
0.0
 11
315.7121509915254
 21
693.4492166205815
 31
0.0
  0
LINE
  5
2E3
330
1F
100
AcDbEntity
  8
0-0
  6
JWW_DASHED1
 62
   120
370
     5
100
AcDbLine
 10
32.61811493041222
 20
986.4427476169114
 30
0.0
 11
315.7121509915211
 21
703.3487115558025
 31
0.0
  0
LINE
  5
2E4
330
1F
100
AcDbEntity
  8
0-0
  6
JWW_DASHED1
 62
   120
370
     5
100
AcDbLine
 10
42.51760986556974
 20
986.4427476169158
 30
0.0
 11
315.7121509915169
 21
713.2482064909686
 31
0.0
  0
LINE
  5
2E5
330
1F
100
AcDbEntity
  8
0-0
  6
JWW_DASHED1
 62
   120
370
     5
100
AcDbLine
 10
52.41710480077842
 20
986.4427476169243
 30
0.0
 11
315.7121509915237
 21
723.1477014261782
 31
0.0
  0
LINE
  5
2E6
330
1F
100
AcDbEntity
  8
0-0
  6
JWW_DASHED1
 62
   120
370
     5
100
AcDbLine
 10
62.31659973595043
 20
986.4427476169141
 30
0.0
 11
315.7121509915228
 21
733.0471963613412
 31
0.0
  0
LINE
  5
2E7
330
1F
100
AcDbEntity
  8
0-0
  6
JWW_DASHED1
 62
   120
370
     5
100
AcDbLine
 10
72.21609467116764
 20
986.4427476169133
 30
0.0
 11
315.7121509915152
 21
742.9466912965653
 31
0.0
  0
LINE
  5
2E8
330
1F
100
AcDbEntity
  8
0-0
  6
JWW_DASHED1
 62
   120
370
     5
100
AcDbLine
 10
82.11558960637547
 20
986.4427476169209
 30
0.0
 11
315.712150991522
 21
752.8461862317748
 31
0.0
  0
LINE
  5
2E9
330
1F
100
AcDbEntity
  8
0-0
  6
JWW_DASHED1
 62
   120
370
     5
100
AcDbLine
 10
92.01508454154663
 20
986.4427476169114
 30
0.0
 11
315.7121509915203
 21
762.7456811669383
 31
0.0
  0
LINE
  5
2EA
330
1F
100
AcDbEntity
  8
0-0
  6
JWW_DASHED1
 62
   120
370
     5
100
AcDbLine
 10
101.9145794767647
 20
986.4427476169099
 30
0.0
 11
315.7121509915135
 21
772.6451761021615
 31
0.0
  0
LINE
  5
2EB
330
1F
100
AcDbEntity
  8
0-0
  6
JWW_DASHED1
 62
   120
370
     5
100
AcDbLine
 10
111.8140744119725
 20
986.4427476169183
 30
0.0
 11
315.7121509915194
 21
782.5446710373718
 31
0.0
  0
LINE
  5
2EC
330
1F
100
AcDbEntity
  8
0-0
  6
JWW_DASHED1
 62
   120
370
     5
100
AcDbLine
 10
121.7135693471437
 20
986.442747616909
 30
0.0
 11
315.7121509915177
 21
792.4441659725353
 31
0.0
  0
LINE
  5
2ED
330
1F
100
AcDbEntity
  8
0-0
  6
JWW_DASHED1
 62
   120
370
     5
100
AcDbLine
 10
131.6130642823626
 20
986.4427476169064
 30
0.0
 11
315.71215099151
 21
802.3436609077585
 31
0.0
  0
LINE
  5
2EE
330
1F
100
AcDbEntity
  8
0-0
  6
JWW_DASHED1
 62
   120
370
     5
100
AcDbLine
 10
141.5125592175713
 20
986.4427476169141
 30
0.0
 11
315.7121509915186
 21
812.2431558429668
 31
0.0
  0
LINE
  5
2EF
330
1F
100
AcDbEntity
  8
0-0
  6
JWW_DASHED1
 62
   120
370
     5
100
AcDbLine
 10
151.4120541527365
 20
986.4427476169111
 30
0.0
 11
315.7121509915152
 21
822.1426507781324
 31
0.0
  0
LINE
  5
2F0
330
1F
100
AcDbEntity
  8
0-0
  6
JWW_DASHED1
 62
   120
370
     5
100
AcDbLine
 10
161.3115490879605
 20
986.4427476169034
 30
0.0
 11
315.7121509915083
 21
832.0421457133556
 31
0.0
  0
LINE
  5
2F1
330
1F
100
AcDbEntity
  8
0-0
  6
JWW_DASHED1
 62
   120
370
     5
100
AcDbLine
 10
171.2110440231683
 20
986.4427476169119
 30
0.0
 11
315.712150991516
 21
841.9416406485642
 31
0.0
  0
LINE
  5
2F2
330
1F
100
AcDbEntity
  8
0-0
  6
JWW_DASHED1
 62
   120
370
     5
100
AcDbLine
 10
181.1105389583335
 20
986.4427476169085
 30
0.0
 11
315.7121509915126
 21
851.8411355837294
 31
0.0
  0
LINE
  5
2F3
330
1F
100
AcDbEntity
  8
0-0
  6
JWW_DASHED1
 62
   120
370
     5
100
AcDbLine
 10
191.0100338935456
 20
986.4427476169128
 30
0.0
 11
315.7121509915211
 21
861.7406305189372
 31
0.0
  0
LINE
  5
2F4
330
1F
100
AcDbEntity
  8
0-0
  6
JWW_DASHED1
 62
   120
370
     5
100
AcDbLine
 10
200.9095288287671
 20
986.442747616908
 30
0.0
 11
315.7121509915135
 21
871.6401254541613
 31
0.0
  0
LINE
  5
2F5
330
1F
100
AcDbEntity
  8
0-0
  6
JWW_DASHED1
 62
   120
370
     5
100
AcDbLine
 10
210.8090237639152
 20
986.4427476169209
 30
0.0
 11
315.7121509915254
 21
881.5396203893107
 31
0.0
  0
LINE
  5
2F6
330
1F
100
AcDbEntity
  8
0-0
  6
JWW_DASHED1
 62
   120
370
     5
100
AcDbLine
 10
220.7085186991418
 20
986.4427476169107
 30
0.0
 11
315.7121509915186
 21
891.4391153245343
 31
0.0
  0
LINE
  5
2F7
330
1F
100
AcDbEntity
  8
0-0
  6
JWW_DASHED1
 62
   120
370
     5
100
AcDbLine
 10
230.6080136343633
 20
986.4427476169055
 30
0.0
 11
315.7121509915109
 21
901.3386102597583
 31
0.0
  0
LINE
  5
2F8
330
1F
100
AcDbEntity
  8
0-0
  6
JWW_DASHED1
 62
   120
370
     5
100
AcDbLine
 10
240.5075085695131
 20
986.4427476169183
 30
0.0
 11
315.7121509915228
 21
911.2381051949078
 31
0.0
  0
LINE
  5
2F9
330
1F
100
AcDbEntity
  8
0-0
  6
JWW_DASHED1
 62
   120
370
     5
100
AcDbLine
 10
250.407003504738
 20
986.442747616909
 30
0.0
 11
315.712150991516
 21
921.1376001301313
 31
0.0
  0
LINE
  5
2FA
330
1F
100
AcDbEntity
  8
0-0
  6
JWW_DASHED1
 62
   120
370
     5
100
AcDbLine
 10
260.3064984399612
 20
986.4427476169026
 30
0.0
 11
315.7121509915083
 21
931.0370950653545
 31
0.0
  0
LINE
  5
2FB
330
1F
100
AcDbEntity
  8
0-0
  6
JWW_DASHED1
 62
   120
370
     5
100
AcDbLine
 10
270.205993375111
 20
986.4427476169145
 30
0.0
 11
315.7121509915203
 21
940.9365900005048
 31
0.0
  0
LINE
  5
2FC
330
1F
100
AcDbEntity
  8
0-0
  6
JWW_DASHED1
 62
   120
370
     5
100
AcDbLine
 10
280.105488310335
 20
986.4427476169068
 30
0.0
 11
315.7121509915135
 21
950.8360849357284
 31
0.0
  0
LINE
  5
2FD
330
1F
100
AcDbEntity
  8
0-0
  6
JWW_DASHED1
 62
   120
370
     5
100
AcDbLine
 10
290.0049832455002
 20
986.4427476169034
 30
0.0
 11
315.71215099151
 21
960.7355798708932
 31
0.0
  0
LINE
  5
2FE
330
1F
100
AcDbEntity
  8
0-0
  6
JWW_DASHED1
 62
   120
370
     5
100
AcDbLine
 10
299.9044781807081
 20
986.4427476169119
 30
0.0
 11
315.7121509915186
 21
970.6350748061014
 31
0.0
  0
LINE
  5
2FF
330
1F
100
AcDbEntity
  8
0-0
  6
JWW_DASHED1
 62
   120
370
     5
100
AcDbLine
 10
309.8039731159167
 20
986.4427476169192
 30
0.0
 11
315.7121509915271
 21
980.5345697413097
 31
0.0
  0
LINE
  5
300
330
1F
100
AcDbEntity
  8
0-0
  6
JWW_DASHED1
 62
   120
370
     5
100
AcDbLine
 10
505.7121509915214
 20
402.3941673880227
 30
0.0
 11
1095.712150991513
 21
-187.6058326119686
 31
0.0
  0
LINE
  5
301
330
1F
100
AcDbEntity
  8
0-0
  6
JWW_DASHED1
 62
   120
370
     5
100
AcDbLine
 10
505.7121509915291
 20
412.2936623231763
 30
0.0
 11
1095.712150991515
 21
-177.7063376768098
 31
0.0
  0
LINE
  5
302
330
1F
100
AcDbEntity
  8
0-0
  6
JWW_DASHED1
 62
   120
370
     5
100
AcDbLine
 10
505.7121509915265
 20
422.1931572583952
 30
0.0
 11
1095.712150991518
 21
-167.8068427415955
 31
0.0
  0
LINE
  5
303
330
1F
100
AcDbEntity
  8
0-0
  6
JWW_DASHED1
 62
   120
370
     5
100
AcDbLine
 10
505.7121509915189
 20
432.0926521936196
 30
0.0
 11
1095.712150991526
 21
-157.9073478063873
 31
0.0
  0
LINE
  5
304
330
1F
100
AcDbEntity
  8
0-0
  6
JWW_DASHED1
 62
   120
370
     5
100
AcDbLine
 10
505.7121509915316
 20
441.9921471287687
 30
0.0
 11
1095.712150991522
 21
-148.0078528712225
 31
0.0
  0
LINE
  5
305
330
1F
100
AcDbEntity
  8
0-0
  6
JWW_DASHED1
 62
   120
370
     5
100
AcDbLine
 10
505.7121509915351
 20
451.8916420639812
 30
0.0
 11
1095.712150991522
 21
-138.1083579360049
 31
0.0
  0
LINE
  5
306
330
1F
100
AcDbEntity
  8
0-0
  6
JWW_DASHED1
 62
   120
370
     5
100
AcDbLine
 10
505.7121509915189
 20
461.7911369991864
 30
0.0
 11
1095.71215099151
 21
-128.2088630008039
 31
0.0
  0
LINE
  5
307
330
1F
100
AcDbEntity
  8
0-0
  6
JWW_DASHED1
 62
   120
370
     5
100
AcDbLine
 10
505.7121509915282
 20
471.6906319343657
 30
0.0
 11
1095.71215099152
 21
-118.3093680656255
 31
0.0
  0
LINE
  5
308
330
1F
100
AcDbEntity
  8
0-0
  6
JWW_DASHED1
 62
   120
370
     5
100
AcDbLine
 10
505.7121509915325
 20
481.5901268695782
 30
0.0
 11
1095.712150991519
 21
-108.4098731304078
 31
0.0
  0
LINE
  5
309
330
1F
100
AcDbEntity
  8
0-0
  6
JWW_DASHED1
 62
   120
370
     5
100
AcDbLine
 10
505.712150991518
 20
491.4896218047545
 30
0.0
 11
1095.712150991526
 21
-98.51037819525203
 31
0.0
  0
LINE
  5
30A
330
1F
100
AcDbEntity
  8
0-0
  6
JWW_DASHED1
 62
   120
370
     5
100
AcDbLine
 10
505.7121509915265
 20
501.3891167399628
 30
0.0
 11
1095.712150991517
 21
-88.61088326002843
 31
0.0
  0
LINE
  5
30B
330
1F
100
AcDbEntity
  8
0-0
  6
JWW_DASHED1
 62
   120
370
     5
100
AcDbLine
 10
505.7121509915316
 20
511.288611675174
 30
0.0
 11
1095.712150991517
 21
-78.7113883248108
 31
0.0
  0
LINE
  5
30C
330
1F
100
AcDbEntity
  8
0-0
  6
JWW_DASHED1
 62
   120
370
     5
100
AcDbLine
 10
505.7121509915163
 20
521.1881066103512
 30
0.0
 11
1095.712150991522
 21
-68.81189338965498
 31
0.0
  0
LINE
  5
30D
330
1F
100
AcDbEntity
  8
0-0
  6
JWW_DASHED1
 62
   120
370
     5
100
AcDbLine
 10
505.7121509915231
 20
531.0876015455598
 30
0.0
 11
1095.712150991515
 21
-58.91239845443096
 31
0.0
  0
LINE
  5
30E
330
1F
100
AcDbEntity
  8
0-0
  6
JWW_DASHED1
 62
   120
370
     5
100
AcDbLine
 10
505.7121509915325
 20
540.9870964807676
 30
0.0
 11
1095.712150991524
 21
-49.01290351922356
 31
0.0
  0
LINE
  5
30F
330
1F
100
AcDbEntity
  8
0-0
  6
JWW_DASHED1
 62
   120
370
     5
100
AcDbLine
 10
505.7121509915137
 20
550.8865914159481
 30
0.0
 11
1095.71215099152
 21
-39.11340858405794
 31
0.0
  0
LINE
  5
310
330
1F
100
AcDbEntity
  8
0-0
  6
JWW_DASHED1
 62
   120
370
     5
100
AcDbLine
 10
505.7121509915214
 20
560.7860863511564
 30
0.0
 11
1095.712150991512
 21
-29.21391364883391
 31
0.0
  0
LINE
  5
311
330
1F
100
AcDbEntity
  8
0-0
  6
JWW_DASHED1
 62
   120
370
     5
100
AcDbLine
 10
505.7121509915299
 20
570.6855812863643
 30
0.0
 11
1095.712150991521
 21
-19.31441871362651
 31
0.0
  0
LINE
  5
312
330
1F
100
AcDbEntity
  8
0-0
  6
JWW_DASHED1
 62
   120
370
     5
100
AcDbLine
 10
505.7121509915265
 20
580.5850762215294
 30
0.0
 11
1095.712150991519
 21
-9.414923778461741
 31
0.0
  0
LINE
  5
313
330
1F
100
AcDbEntity
  8
0-0
  6
JWW_DASHED1
 62
   120
370
     5
100
AcDbLine
 10
505.7121509915189
 20
590.4845711567534
 30
0.0
 11
1095.712150991526
 21
0.4845711567473643
 31
0.0
  0
LINE
  5
314
330
1F
100
AcDbEntity
  8
0-0
  6
JWW_DASHED1
 62
   120
370
     5
100
AcDbLine
 10
505.7121509915282
 20
600.3840660919614
 30
0.0
 11
1095.712150991519
 21
10.38406609197054
 31
0.0
  0
LINE
  5
315
330
1F
100
AcDbEntity
  8
0-0
  6
JWW_DASHED1
 62
   120
370
     5
100
AcDbLine
 10
505.7121509915368
 20
610.2835610271137
 30
0.0
 11
1095.712150991522
 21
20.28356102712806
 31
0.0
  0
LINE
  5
316
330
1F
100
AcDbEntity
  8
0-0
  6
JWW_DASHED1
 62
   120
370
     5
100
AcDbLine
 10
505.7121509915171
 20
620.1830559623497
 30
0.0
 11
1095.712150991524
 21
30.18305596234356
 31
0.0
  0
LINE
  5
317
330
1F
100
AcDbEntity
  8
0-0
  6
JWW_DASHED1
 62
   120
370
     5
100
AcDbLine
 10
505.7121509915248
 20
630.0825508975583
 30
0.0
 11
1095.712150991515
 21
40.08255089756759
 31
0.0
  0
LINE
  5
318
330
1F
100
AcDbEntity
  8
0-0
  6
JWW_DASHED1
 62
   120
370
     5
100
AcDbLine
 10
505.7121509915351
 20
639.9820458327099
 30
0.0
 11
1095.71215099152
 21
49.98204583272511
 31
0.0
  0
LINE
  5
319
330
1F
100
AcDbEntity
  8
0-0
  6
JWW_DASHED1
 62
   120
370
     5
100
AcDbLine
 10
505.7121509915146
 20
649.8815407679467
 30
0.0
 11
1095.71215099152
 21
59.88154076794061
 31
0.0
  0
LINE
  5
31A
330
1F
100
AcDbEntity
  8
0-0
  6
JWW_DASHED1
 62
   120
370
     5
100
AcDbLine
 10
505.7121509915223
 20
659.7810357031562
 30
0.0
 11
1095.712150991513
 21
69.78103570316463
 31
0.0
  0
LINE
  5
31B
330
1F
100
AcDbEntity
  8
0-0
  6
JWW_DASHED1
 62
   120
370
     5
100
AcDbLine
 10
505.7121509915325
 20
669.6805306383069
 30
0.0
 11
1095.712150991519
 21
79.6805306383213
 31
0.0
  0
LINE
  5
31C
330
1F
100
AcDbEntity
  8
0-0
  6
JWW_DASHED1
 62
   120
370
     5
100
AcDbLine
 10
505.712150991512
 20
679.5800255735437
 30
0.0
 11
1095.712150991519
 21
89.58002557353765
 31
0.0
  0
LINE
  5
31D
330
1F
100
AcDbEntity
  8
0-0
  6
JWW_DASHED1
 62
   120
370
     5
100
AcDbLine
 10
505.7121509915197
 20
689.4795205087532
 30
0.0
 11
1095.71215099151
 21
99.47952050876168
 31
0.0
  0
LINE
  5
31E
330
1F
100
AcDbEntity
  8
0-0
  6
JWW_DASHED1
 62
   120
370
     5
100
AcDbLine
 10
505.7121509915299
 20
699.379015443904
 30
0.0
 11
1095.712150991516
 21
109.3790154439183
 31
0.0
  0
LINE
  5
31F
330
1F
100
AcDbEntity
  8
0-0
  6
JWW_DASHED1
 62
   120
370
     5
100
AcDbLine
 10
505.7121509915248
 20
709.2785103791255
 30
0.0
 11
1095.712150991515
 21
119.2785103791351
 31
0.0
  0
LINE
  5
320
330
1F
100
AcDbEntity
  8
0-0
  6
JWW_DASHED1
 62
   120
370
     5
100
AcDbLine
 10
505.7121509915171
 20
719.1780053143495
 30
0.0
 11
1095.712150991524
 21
129.1780053143434
 31
0.0
  0
LINE
  5
321
330
1F
100
AcDbEntity
  8
0-0
  6
JWW_DASHED1
 62
   120
370
     5
100
AcDbLine
 10
505.7121509915299
 20
729.0775002494993
 30
0.0
 11
1095.71215099152
 21
139.0775002495081
 31
0.0
  0
LINE
  5
322
330
1F
100
AcDbEntity
  8
0-0
  6
JWW_DASHED1
 62
   120
370
     5
100
AcDbLine
 10
505.7121509915368
 20
738.9769951847088
 30
0.0
 11
1095.712150991522
 21
148.9769951847228
 31
0.0
  0
LINE
  5
323
330
1F
100
AcDbEntity
  8
0-0
  6
JWW_DASHED1
 62
   120
370
     5
100
AcDbLine
 10
505.7121509915154
 20
748.8764901199456
 30
0.0
 11
1095.712150991521
 21
158.8764901199404
 31
0.0
  0
LINE
  5
324
330
1F
100
AcDbEntity
  8
0-0
  6
JWW_DASHED1
 62
   120
370
     5
100
AcDbLine
 10
505.7121509915274
 20
758.7759850550956
 30
0.0
 11
1095.712150991519
 21
168.7759850551052
 31
0.0
  0
LINE
  5
325
330
1F
100
AcDbEntity
  8
0-0
  6
JWW_DASHED1
 62
   120
370
     5
100
AcDbLine
 10
505.7121509915342
 20
768.6754799903059
 30
0.0
 11
1095.712150991519
 21
178.6754799903198
 31
0.0
  0
LINE
  5
326
330
1F
100
AcDbEntity
  8
0-0
  6
JWW_DASHED1
 62
   120
370
     5
100
AcDbLine
 10
505.7121509915171
 20
778.574974925484
 30
0.0
 11
1095.712150991524
 21
188.5749749254774
 31
0.0
  0
LINE
  5
327
330
1F
100
AcDbEntity
  8
0-0
  6
JWW_DASHED1
 62
   120
370
     5
100
AcDbLine
 10
505.7121509915248
 20
788.4744698606926
 30
0.0
 11
1095.712150991515
 21
198.4744698607022
 31
0.0
  0
LINE
  5
328
330
1F
100
AcDbEntity
  8
0-0
  6
JWW_DASHED1
 62
   120
370
     5
100
AcDbLine
 10
505.7121509915316
 20
798.3739647959021
 30
0.0
 11
1095.712150991517
 21
208.3739647959169
 31
0.0
  0
LINE
  5
329
330
1F
100
AcDbEntity
  8
0-0
  6
JWW_DASHED1
 62
   120
370
     5
100
AcDbLine
 10
505.7121509915146
 20
808.273459731081
 30
0.0
 11
1095.712150991521
 21
218.2734597310744
 31
0.0
  0
LINE
  5
32A
330
1F
100
AcDbEntity
  8
0-0
  6
JWW_DASHED1
 62
   120
370
     5
100
AcDbLine
 10
505.7121509915223
 20
818.1729546662896
 30
0.0
 11
1095.712150991513
 21
228.1729546662993
 31
0.0
  0
LINE
  5
32B
330
1F
100
AcDbEntity
  8
0-0
  6
JWW_DASHED1
 62
   120
370
     5
100
AcDbLine
 10
505.7121509915308
 20
828.0724496014983
 30
0.0
 11
1095.712150991522
 21
238.0724496015067
 31
0.0
  0
LINE
  5
32C
330
1F
100
AcDbEntity
  8
0-0
  6
JWW_DASHED1
 62
   120
370
     5
100
AcDbLine
 10
505.712150991512
 20
837.9719445366779
 30
0.0
 11
1095.712150991519
 21
247.9719445366723
 31
0.0
  0
LINE
  5
32D
330
1F
100
AcDbEntity
  8
0-0
  6
JWW_DASHED1
 62
   120
370
     5
100
AcDbLine
 10
505.7121509915206
 20
847.8714394718859
 30
0.0
 11
1095.71215099151
 21
257.8714394718963
 31
0.0
  0
LINE
  5
32E
330
1F
100
AcDbEntity
  8
0-0
  6
JWW_DASHED1
 62
   120
370
     5
100
AcDbLine
 10
505.7121509915282
 20
857.7709344070954
 30
0.0
 11
1095.712150991519
 21
267.7709344071037
 31
0.0
  0
LINE
  5
32F
330
1F
100
AcDbEntity
  8
0-0
  6
JWW_DASHED1
 62
   120
370
     5
100
AcDbLine
 10
505.7121509915248
 20
867.6704293422597
 30
0.0
 11
1095.712150991516
 21
277.6704293422685
 31
0.0
  0
LINE
  5
330
330
1F
100
AcDbEntity
  8
0-0
  6
JWW_DASHED1
 62
   120
370
     5
100
AcDbLine
 10
505.712150991518
 20
877.5699242774829
 30
0.0
 11
1095.712150991524
 21
287.5699242774776
 31
0.0
  0
LINE
  5
331
330
1F
100
AcDbEntity
  8
0-0
  6
JWW_DASHED1
 62
   120
370
     5
100
AcDbLine
 10
505.7121509915257
 20
887.4694192126924
 30
0.0
 11
1095.712150991517
 21
297.4694192127012
 31
0.0
  0
LINE
  5
332
330
1F
100
AcDbEntity
  8
0-0
  6
JWW_DASHED1
 62
   120
370
     5
100
AcDbLine
 10
505.7121509915385
 20
897.3689141478415
 30
0.0
 11
1095.712150991524
 21
307.3689141478562
 31
0.0
  0
LINE
  5
333
330
1F
100
AcDbEntity
  8
0-0
  6
JWW_DASHED1
 62
   120
370
     5
100
AcDbLine
 10
505.7121509915154
 20
907.2684090830799
 30
0.0
 11
1095.712150991522
 21
317.2684090830734
 31
0.0
  0
LINE
  5
334
330
1F
100
AcDbEntity
  8
0-0
  6
JWW_DASHED1
 62
   120
370
     5
100
AcDbLine
 10
505.7121509915231
 20
917.1679040182886
 30
0.0
 11
1095.712150991513
 21
327.1679040182983
 31
0.0
  0
LINE
  5
335
330
1F
100
AcDbEntity
  8
0-0
  6
JWW_DASHED1
 62
   120
370
     5
100
AcDbLine
 10
505.7121509915359
 20
927.0673989534384
 30
0.0
 11
1095.712150991521
 21
337.0673989534524
 31
0.0
  0
LINE
  5
336
330
1F
100
AcDbEntity
  8
0-0
  6
JWW_DASHED1
 62
   120
370
     5
100
AcDbLine
 10
505.7121509915129
 20
936.966893888677
 30
0.0
 11
1095.712150991519
 21
346.9668938886704
 31
0.0
  0
LINE
  5
337
330
1F
100
AcDbEntity
  8
0-0
  6
JWW_DASHED1
 62
   120
370
     5
100
AcDbLine
 10
505.7121509915206
 20
946.8663888238857
 30
0.0
 11
1095.712150991512
 21
356.8663888238953
 31
0.0
  0
LINE
  5
338
330
1F
100
AcDbEntity
  8
0-0
  6
JWW_DASHED1
 62
   120
370
     5
100
AcDbLine
 10
505.7121509915333
 20
956.7658837590354
 30
0.0
 11
1095.712150991519
 21
366.765883759049
 31
0.0
  0
LINE
  5
339
330
1F
100
AcDbEntity
  8
0-0
  6
JWW_DASHED1
 62
   120
370
     5
100
AcDbLine
 10
505.7121509915257
 20
966.6653786942586
 30
0.0
 11
1095.712150991517
 21
376.6653786942683
 31
0.0
  0
LINE
  5
33A
330
1F
100
AcDbEntity
  8
0-0
  6
JWW_DASHED1
 62
   120
370
     5
100
AcDbLine
 10
505.7121509915189
 20
976.5648736294818
 30
0.0
 11
1095.712150991508
 21
386.5648736294924
 31
0.0
  0
LINE
  5
33B
330
1F
100
AcDbEntity
  8
0-0
  6
JWW_DASHED1
 62
   120
370
     5
100
AcDbLine
 10
505.7337719392365
 20
986.442747616926
 30
0.0
 11
1095.712150991522
 21
396.4643685646413
 31
0.0
  0
LINE
  5
33C
330
1F
100
AcDbEntity
  8
0-0
  6
JWW_DASHED1
 62
   120
370
     5
100
AcDbLine
 10
515.6332668744606
 20
986.4427476169183
 30
0.0
 11
1095.712150991513
 21
406.3638634998654
 31
0.0
  0
LINE
  5
33D
330
1F
100
AcDbEntity
  8
0-0
  6
JWW_DASHED1
 62
   120
370
     5
100
AcDbLine
 10
525.5327618096845
 20
986.4427476169114
 30
0.0
 11
1095.712150991522
 21
416.2633584350727
 31
0.0
  0
LINE
  5
33E
330
1F
100
AcDbEntity
  8
0-0
  6
JWW_DASHED1
 62
   120
370
     5
100
AcDbLine
 10
535.4322567448344
 20
986.4427476169235
 30
0.0
 11
1095.712150991519
 21
426.1628533702384
 31
0.0
  0
LINE
  5
33F
330
1F
100
AcDbEntity
  8
0-0
  6
JWW_DASHED1
 62
   120
370
     5
100
AcDbLine
 10
545.3317516800422
 20
986.4427476169311
 30
0.0
 11
1095.712150991523
 21
436.0623483054509
 31
0.0
  0
LINE
  5
340
330
1F
100
AcDbEntity
  8
0-0
  6
JWW_DASHED1
 62
   120
370
     5
100
AcDbLine
 10
555.2312466152816
 20
986.442747616908
 30
0.0
 11
1095.71215099152
 21
445.9618432406699
 31
0.0
  0
LINE
  5
341
330
1F
100
AcDbEntity
  8
0-0
  6
JWW_DASHED1
 62
   120
370
     5
100
AcDbLine
 10
565.1307415504314
 20
986.4427476169201
 30
0.0
 11
1095.712150991517
 21
455.8613381758354
 31
0.0
  0
LINE
  5
342
330
1F
100
AcDbEntity
  8
0-0
  6
JWW_DASHED1
 62
   120
370
     5
100
AcDbLine
 10
575.0302364856401
 20
986.4427476169277
 30
0.0
 11
1095.71215099152
 21
465.760833111048
 31
0.0
  0
LINE
  5
343
330
1F
100
AcDbEntity
  8
0-0
  6
JWW_DASHED1
 62
   120
370
     5
100
AcDbLine
 10
584.9297314208189
 20
986.4427476169107
 30
0.0
 11
1095.712150991522
 21
475.6603280462081
 31
0.0
  0
LINE
  5
344
330
1F
100
AcDbEntity
  8
0-0
  6
JWW_DASHED1
 62
   120
370
     5
100
AcDbLine
 10
594.8292263560302
 20
986.4427476169167
 30
0.0
 11
1095.712150991514
 21
485.5598229814316
 31
0.0
  0
LINE
  5
345
330
1F
100
AcDbEntity
  8
0-0
  6
JWW_DASHED1
 62
   120
370
     5
100
AcDbLine
 10
604.728721291238
 20
986.4427476169251
 30
0.0
 11
1095.712150991519
 21
495.4593179166446
 31
0.0
  0
LINE
  5
346
330
1F
100
AcDbEntity
  8
0-0
  6
JWW_DASHED1
 62
   120
370
     5
100
AcDbLine
 10
614.628216226416
 20
986.442747616909
 30
0.0
 11
1095.712150991519
 21
505.3588128518051
 31
0.0
  0
LINE
  5
347
330
1F
100
AcDbEntity
  8
0-0
  6
JWW_DASHED1
 62
   120
370
     5
100
AcDbLine
 10
624.5277111616272
 20
986.4427476169141
 30
0.0
 11
1095.712150991513
 21
515.2583077870282
 31
0.0
  0
LINE
  5
348
330
1F
100
AcDbEntity
  8
0-0
  6
JWW_DASHED1
 62
   120
370
     5
100
AcDbLine
 10
634.4272060968351
 20
986.4427476169217
 30
0.0
 11
1095.71215099152
 21
525.1578027222374
 31
0.0
  0
LINE
  5
349
330
1F
100
AcDbEntity
  8
0-0
  6
JWW_DASHED1
 62
   120
370
     5
100
AcDbLine
 10
644.326701032013
 20
986.4427476169064
 30
0.0
 11
1095.712150991517
 21
535.0572976574022
 31
0.0
  0
LINE
  5
34A
330
1F
100
AcDbEntity
  8
0-0
  6
JWW_DASHED1
 62
   120
370
     5
100
AcDbLine
 10
654.2261959672243
 20
986.4427476169114
 30
0.0
 11
1095.712150991509
 21
544.9567925926261
 31
0.0
  0
LINE
  5
34B
330
1F
100
AcDbEntity
  8
0-0
  6
JWW_DASHED1
 62
   120
370
     5
100
AcDbLine
 10
664.125690902433
 20
986.4427476169183
 30
0.0
 11
1095.712150991517
 21
554.8562875278344
 31
0.0
  0
LINE
  5
34C
330
1F
100
AcDbEntity
  8
0-0
  6
JWW_DASHED1
 62
   120
370
     5
100
AcDbLine
 10
674.0251858375982
 20
986.4427476169158
 30
0.0
 11
1095.712150991514
 21
564.7557824629992
 31
0.0
  0
LINE
  5
34D
330
1F
100
AcDbEntity
  8
0-0
  6
JWW_DASHED1
 62
   120
370
     5
100
AcDbLine
 10
683.924680772818
 20
986.4427476169124
 30
0.0
 11
1095.712150991523
 21
574.6552773982066
 31
0.0
  0
LINE
  5
34E
330
1F
100
AcDbEntity
  8
0-0
  6
JWW_DASHED1
 62
   120
370
     5
100
AcDbLine
 10
693.82417570803
 20
986.4427476169158
 30
0.0
 11
1095.712150991515
 21
584.5547723334314
 31
0.0
  0
LINE
  5
34F
330
1F
100
AcDbEntity
  8
0-0
  6
JWW_DASHED1
 62
   120
370
     5
100
AcDbLine
 10
703.7236706431798
 20
986.4427476169277
 30
0.0
 11
1095.712150991525
 21
594.4542672685834
 31
0.0
  0
LINE
  5
350
330
1F
100
AcDbEntity
  8
0-0
  6
JWW_DASHED1
 62
   120
370
     5
100
AcDbLine
 10
713.6231655784132
 20
986.4427476169107
 30
0.0
 11
1095.71215099152
 21
604.3537622038036
 31
0.0
  0
LINE
  5
351
330
1F
100
AcDbEntity
  8
0-0
  6
JWW_DASHED1
 62
   120
370
     5
100
AcDbLine
 10
723.5226605136279
 20
986.4427476169133
 30
0.0
 11
1095.712150991512
 21
614.2532571390285
 31
0.0
  0
LINE
  5
352
330
1F
100
AcDbEntity
  8
0-0
  6
JWW_DASHED1
 62
   120
370
     5
100
AcDbLine
 10
733.4221554487777
 20
986.4427476169251
 30
0.0
 11
1095.712150991522
 21
624.1527520741801
 31
0.0
  0
LINE
  5
353
330
1F
100
AcDbEntity
  8
0-0
  6
JWW_DASHED1
 62
   120
370
     5
100
AcDbLine
 10
743.3216503840104
 20
986.442747616908
 30
0.0
 11
1095.712150991518
 21
634.0522470094006
 31
0.0
  0
LINE
  5
354
330
1F
100
AcDbEntity
  8
0-0
  6
JWW_DASHED1
 62
   120
370
     5
100
AcDbLine
 10
753.2211453192249
 20
986.4427476169099
 30
0.0
 11
1095.712150991511
 21
643.9517419446242
 31
0.0
  0
LINE
  5
355
330
1F
100
AcDbEntity
  8
0-0
  6
JWW_DASHED1
 62
   120
370
     5
100
AcDbLine
 10
763.1206402543748
 20
986.4427476169217
 30
0.0
 11
1095.71215099152
 21
653.8512368797772
 31
0.0
  0
LINE
  5
356
330
1F
100
AcDbEntity
  8
0-0
  6
JWW_DASHED1
 62
   120
370
     5
100
AcDbLine
 10
773.0201351895988
 20
986.4427476169141
 30
0.0
 11
1095.712150991515
 21
663.7507318149982
 31
0.0
  0
LINE
  5
357
330
1F
100
AcDbEntity
  8
0-0
  6
JWW_DASHED1
 62
   120
370
     5
100
AcDbLine
 10
782.9196301248228
 20
986.4427476169064
 30
0.0
 11
1095.712150991508
 21
673.6502267502217
 31
0.0
  0
LINE
  5
358
330
1F
100
AcDbEntity
  8
0-0
  6
JWW_DASHED1
 62
   120
370
     5
100
AcDbLine
 10
792.8191250599727
 20
986.4427476169183
 30
0.0
 11
1095.71215099152
 21
683.5497216853712
 31
0.0
  0
LINE
  5
359
330
1F
100
AcDbEntity
  8
0-0
  6
JWW_DASHED1
 62
   120
370
     5
100
AcDbLine
 10
802.7186199951805
 20
986.4427476169269
 30
0.0
 11
1095.712150991526
 21
693.4492166205815
 31
0.0
  0
LINE
  5
35A
330
1F
100
AcDbEntity
  8
0-0
  6
JWW_DASHED1
 62
   120
370
     5
100
AcDbLine
 10
812.6181149304123
 20
986.4427476169114
 30
0.0
 11
1095.712150991521
 21
703.3487115558025
 31
0.0
  0
LINE
  5
35B
330
1F
100
AcDbEntity
  8
0-0
  6
JWW_DASHED1
 62
   120
370
     5
100
AcDbLine
 10
822.5176098655697
 20
986.4427476169158
 30
0.0
 11
1095.712150991517
 21
713.2482064909686
 31
0.0
  0
LINE
  5
35C
330
1F
100
AcDbEntity
  8
0-0
  6
JWW_DASHED1
 62
   120
370
     5
100
AcDbLine
 10
832.4171048007784
 20
986.4427476169243
 30
0.0
 11
1095.712150991524
 21
723.1477014261782
 31
0.0
  0
LINE
  5
35D
330
1F
100
AcDbEntity
  8
0-0
  6
JWW_DASHED1
 62
   120
370
     5
100
AcDbLine
 10
842.3165997359504
 20
986.4427476169141
 30
0.0
 11
1095.712150991523
 21
733.0471963613412
 31
0.0
  0
LINE
  5
35E
330
1F
100
AcDbEntity
  8
0-0
  6
JWW_DASHED1
 62
   120
370
     5
100
AcDbLine
 10
852.2160946711676
 20
986.4427476169133
 30
0.0
 11
1095.712150991515
 21
742.9466912965653
 31
0.0
  0
LINE
  5
35F
330
1F
100
AcDbEntity
  8
0-0
  6
JWW_DASHED1
 62
   120
370
     5
100
AcDbLine
 10
862.1155896063755
 20
986.4427476169209
 30
0.0
 11
1095.712150991522
 21
752.8461862317748
 31
0.0
  0
LINE
  5
360
330
1F
100
AcDbEntity
  8
0-0
  6
JWW_DASHED1
 62
   120
370
     5
100
AcDbLine
 10
872.0150845415467
 20
986.4427476169114
 30
0.0
 11
1095.71215099152
 21
762.7456811669383
 31
0.0
  0
LINE
  5
361
330
1F
100
AcDbEntity
  8
0-0
  6
JWW_DASHED1
 62
   120
370
     5
100
AcDbLine
 10
881.9145794767646
 20
986.4427476169099
 30
0.0
 11
1095.712150991513
 21
772.6451761021615
 31
0.0
  0
LINE
  5
362
330
1F
100
AcDbEntity
  8
0-0
  6
JWW_DASHED1
 62
   120
370
     5
100
AcDbLine
 10
891.8140744119726
 20
986.4427476169183
 30
0.0
 11
1095.712150991519
 21
782.5446710373718
 31
0.0
  0
LINE
  5
363
330
1F
100
AcDbEntity
  8
0-0
  6
JWW_DASHED1
 62
   120
370
     5
100
AcDbLine
 10
901.7135693471437
 20
986.442747616909
 30
0.0
 11
1095.712150991518
 21
792.4441659725353
 31
0.0
  0
LINE
  5
364
330
1F
100
AcDbEntity
  8
0-0
  6
JWW_DASHED1
 62
   120
370
     5
100
AcDbLine
 10
911.6130642823625
 20
986.4427476169064
 30
0.0
 11
1095.71215099151
 21
802.3436609077585
 31
0.0
  0
LINE
  5
365
330
1F
100
AcDbEntity
  8
0-0
  6
JWW_DASHED1
 62
   120
370
     5
100
AcDbLine
 10
921.5125592175713
 20
986.4427476169141
 30
0.0
 11
1095.712150991519
 21
812.2431558429668
 31
0.0
  0
LINE
  5
366
330
1F
100
AcDbEntity
  8
0-0
  6
JWW_DASHED1
 62
   120
370
     5
100
AcDbLine
 10
931.4120541527365
 20
986.4427476169111
 30
0.0
 11
1095.712150991515
 21
822.1426507781324
 31
0.0
  0
LINE
  5
367
330
1F
100
AcDbEntity
  8
0-0
  6
JWW_DASHED1
 62
   120
370
     5
100
AcDbLine
 10
941.3115490879604
 20
986.4427476169034
 30
0.0
 11
1095.712150991508
 21
832.0421457133556
 31
0.0
  0
LINE
  5
368
330
1F
100
AcDbEntity
  8
0-0
  6
JWW_DASHED1
 62
   120
370
     5
100
AcDbLine
 10
951.2110440231684
 20
986.4427476169119
 30
0.0
 11
1095.712150991516
 21
841.9416406485642
 31
0.0
  0
LINE
  5
369
330
1F
100
AcDbEntity
  8
0-0
  6
JWW_DASHED1
 62
   120
370
     5
100
AcDbLine
 10
961.1105389583336
 20
986.4427476169085
 30
0.0
 11
1095.712150991513
 21
851.8411355837294
 31
0.0
  0
LINE
  5
36A
330
1F
100
AcDbEntity
  8
0-0
  6
JWW_DASHED1
 62
   120
370
     5
100
AcDbLine
 10
971.0100338935456
 20
986.4427476169128
 30
0.0
 11
1095.712150991521
 21
861.7406305189372
 31
0.0
  0
LINE
  5
36B
330
1F
100
AcDbEntity
  8
0-0
  6
JWW_DASHED1
 62
   120
370
     5
100
AcDbLine
 10
980.9095288287671
 20
986.442747616908
 30
0.0
 11
1095.712150991513
 21
871.6401254541613
 31
0.0
  0
LINE
  5
36C
330
1F
100
AcDbEntity
  8
0-0
  6
JWW_DASHED1
 62
   120
370
     5
100
AcDbLine
 10
990.8090237639152
 20
986.4427476169209
 30
0.0
 11
1095.712150991526
 21
881.5396203893107
 31
0.0
  0
LINE
  5
36D
330
1F
100
AcDbEntity
  8
0-0
  6
JWW_DASHED1
 62
   120
370
     5
100
AcDbLine
 10
1000.708518699142
 20
986.4427476169107
 30
0.0
 11
1095.712150991519
 21
891.4391153245343
 31
0.0
  0
LINE
  5
36E
330
1F
100
AcDbEntity
  8
0-0
  6
JWW_DASHED1
 62
   120
370
     5
100
AcDbLine
 10
1010.608013634363
 20
986.4427476169055
 30
0.0
 11
1095.712150991511
 21
901.3386102597583
 31
0.0
  0
LINE
  5
36F
330
1F
100
AcDbEntity
  8
0-0
  6
JWW_DASHED1
 62
   120
370
     5
100
AcDbLine
 10
1020.507508569513
 20
986.4427476169183
 30
0.0
 11
1095.712150991523
 21
911.2381051949078
 31
0.0
  0
LINE
  5
370
330
1F
100
AcDbEntity
  8
0-0
  6
JWW_DASHED1
 62
   120
370
     5
100
AcDbLine
 10
1030.407003504738
 20
986.442747616909
 30
0.0
 11
1095.712150991516
 21
921.1376001301313
 31
0.0
  0
LINE
  5
371
330
1F
100
AcDbEntity
  8
0-0
  6
JWW_DASHED1
 62
   120
370
     5
100
AcDbLine
 10
1040.306498439961
 20
986.4427476169026
 30
0.0
 11
1095.712150991508
 21
931.0370950653545
 31
0.0
  0
LINE
  5
372
330
1F
100
AcDbEntity
  8
0-0
  6
JWW_DASHED1
 62
   120
370
     5
100
AcDbLine
 10
1050.205993375111
 20
986.4427476169145
 30
0.0
 11
1095.71215099152
 21
940.9365900005048
 31
0.0
  0
LINE
  5
373
330
1F
100
AcDbEntity
  8
0-0
  6
JWW_DASHED1
 62
   120
370
     5
100
AcDbLine
 10
1060.105488310335
 20
986.4427476169068
 30
0.0
 11
1095.712150991513
 21
950.8360849357284
 31
0.0
  0
LINE
  5
374
330
1F
100
AcDbEntity
  8
0-0
  6
JWW_DASHED1
 62
   120
370
     5
100
AcDbLine
 10
1070.0049832455
 20
986.4427476169034
 30
0.0
 11
1095.71215099151
 21
960.7355798708932
 31
0.0
  0
LINE
  5
375
330
1F
100
AcDbEntity
  8
0-0
  6
JWW_DASHED1
 62
   120
370
     5
100
AcDbLine
 10
1079.904478180708
 20
986.4427476169119
 30
0.0
 11
1095.712150991519
 21
970.6350748061014
 31
0.0
  0
LINE
  5
376
330
1F
100
AcDbEntity
  8
0-0
  6
JWW_DASHED1
 62
   120
370
     5
100
AcDbLine
 10
1089.803973115917
 20
986.4427476169192
 30
0.0
 11
1095.712150991527
 21
980.5345697413097
 31
0.0
  0
LINE
  5
377
330
1F
100
AcDbEntity
  8
寸法
  6
Continuous
 62
   120
370
     5
100
AcDbLine
 10
-1641.287849008479
 20
-1081.557252383083
 30
0.0
 11
-1241.287849008479
 21
-1081.557252383083
 31
0.0
  0
LINE
  5
378
330
1F
100
AcDbEntity
  8
寸法
  6
Continuous
 62
   120
370
     5
100
AcDbLine
 10
-1441.287849008478
 20
-1061.557252383082
 30
0.0
 11
-1241.287849008479
 21
-1061.557252383082
 31
0.0
  0
LWPOLYLINE
  5
379
330
1F
100
AcDbEntity
  8
寸法
  6
Continuous
 62
     7
370
     9
100
AcDbPolyline
 90
        4
 70
     1
 43
3.0
 10
-1639.787849008479
 20
-1081.557252383083
 42
0.4142135623731
 10
-1641.287849008479
 20
-1080.057252383083
 42
0.4142135623731
 10
-1642.787849008478
 20
-1081.557252383083
 42
0.4142135623731
 10
-1641.287849008479
 20
-1083.057252383083
 42
0.4142135623731
  0
LWPOLYLINE
  5
37A
330
1F
100
AcDbEntity
  8
寸法
  6
Continuous
 62
     7
370
     9
100
AcDbPolyline
 90
        4
 70
     1
 43
3.0
 10
-1439.787849008478
 20
-1061.557252383082
 42
0.4142135623731
 10
-1441.287849008478
 20
-1060.057252383082
 42
0.4142135623731
 10
-1442.787849008478
 20
-1061.557252383082
 42
0.4142135623731
 10
-1441.287849008478
 20
-1063.057252383082
 42
0.4142135623731
  0
LINE
  5
37B
330
1F
100
AcDbEntity
  8
寸法
  6
Continuous
 62
   120
370
     5
100
AcDbLine
 10
-1161.287849008477
 20
-1531.557252383083
 30
0.0
 11
-1161.287849008477
 21
-1131.557252383083
 31
0.0
  0
LINE
  5
37C
330
1F
100
AcDbEntity
  8
寸法
  6
Continuous
 62
   120
370
     5
100
AcDbLine
 10
-1191.287849008477
 20
-1731.557252383083
 30
0.0
 11
-1191.287849008477
 21
-1131.557252383083
 31
0.0
  0
LINE
  5
37D
330
1F
100
AcDbEntity
  8
寸法
  6
Continuous
 62
   120
370
     5
100
AcDbLine
 10
-1161.287849008477
 20
-1531.557252383083
 30
0.0
 11
1202.712150991522
 21
-1531.557252383083
 31
0.0
  0
LINE
  5
37E
330
1F
100
AcDbEntity
  8
寸法
  6
Continuous
 62
   120
370
     5
100
AcDbLine
 10
1202.712150991522
 20
-1531.557252383083
 30
0.0
 11
1202.712150991522
 21
-1131.557252383083
 31
0.0
  0
LINE
  5
37F
330
1F
100
AcDbEntity
  8
寸法
  6
Continuous
 62
   120
370
     5
100
AcDbLine
 10
-1191.287849008477
 20
-1731.557252383083
 30
0.0
 11
1232.712150991522
 21
-1731.557252383082
 31
0.0
  0
LINE
  5
380
330
1F
100
AcDbEntity
  8
寸法
  6
Continuous
 62
   120
370
     5
100
AcDbLine
 10
1232.712150991522
 20
-1731.557252383082
 30
0.0
 11
1232.712150991522
 21
-1131.557252383083
 31
0.0
  0
LINE
  5
381
330
1F
100
AcDbEntity
  8
寸法
  6
Continuous
 62
   120
370
     5
100
AcDbLine
 10
395.7121509915225
 20
-1331.557252383082
 30
0.0
 11
395.7121509915225
 21
-1131.557252383083
 31
0.0
  0
LINE
  5
382
330
1F
100
AcDbEntity
  8
寸法
  6
Continuous
 62
   120
370
     5
100
AcDbLine
 10
1205.712150991523
 20
-1331.557252383082
 30
0.0
 11
1205.712150991523
 21
-1131.557252383083
 31
0.0
  0
LINE
  5
383
330
1F
100
AcDbEntity
  8
寸法
  6
Continuous
 62
   120
370
     5
100
AcDbLine
 10
1205.712150991523
 20
-1331.557252383082
 30
0.0
 11
395.7121509915225
 21
-1331.557252383082
 31
0.0
  0
LWPOLYLINE
  5
384
330
1F
100
AcDbEntity
  8
寸法
  6
Continuous
 62
     7
370
     9
100
AcDbPolyline
 90
        4
 70
     1
 43
3.0
 10
-1159.787849008477
 20
-1531.557252383083
 42
0.4142135623731
 10
-1161.287849008477
 20
-1530.057252383083
 42
0.4142135623731
 10
-1162.787849008477
 20
-1531.557252383083
 42
0.4142135623731
 10
-1161.287849008477
 20
-1533.057252383083
 42
0.4142135623731
  0
LWPOLYLINE
  5
385
330
1F
100
AcDbEntity
  8
寸法
  6
Continuous
 62
     7
370
     9
100
AcDbPolyline
 90
        4
 70
     1
 43
3.0
 10
-1189.787849008477
 20
-1731.557252383083
 42
0.4142135623731
 10
-1191.287849008477
 20
-1730.057252383083
 42
0.4142135623731
 10
-1192.787849008477
 20
-1731.557252383083
 42
0.4142135623731
 10
-1191.287849008477
 20
-1733.057252383083
 42
0.4142135623731
  0
LWPOLYLINE
  5
386
330
1F
100
AcDbEntity
  8
寸法
  6
Continuous
 62
     7
370
     9
100
AcDbPolyline
 90
        4
 70
     1
 43
3.0
 10
1204.212150991522
 20
-1531.557252383083
 42
0.4142135623731
 10
1202.712150991522
 20
-1530.057252383083
 42
0.4142135623731
 10
1201.212150991522
 20
-1531.557252383083
 42
0.4142135623731
 10
1202.712150991522
 20
-1533.057252383083
 42
0.4142135623731
  0
LWPOLYLINE
  5
387
330
1F
100
AcDbEntity
  8
寸法
  6
Continuous
 62
     7
370
     9
100
AcDbPolyline
 90
        4
 70
     1
 43
3.0
 10
1234.212150991522
 20
-1731.557252383082
 42
0.4142135623731
 10
1232.712150991522
 20
-1730.057252383082
 42
0.4142135623731
 10
1231.212150991522
 20
-1731.557252383082
 42
0.4142135623731
 10
1232.712150991522
 20
-1733.057252383082
 42
0.4142135623731
  0
LWPOLYLINE
  5
388
330
1F
100
AcDbEntity
  8
寸法
  6
Continuous
 62
     7
370
     9
100
AcDbPolyline
 90
        4
 70
     1
 43
3.0
 10
397.2121509915225
 20
-1331.557252383082
 42
0.4142135623731
 10
395.7121509915225
 20
-1330.057252383082
 42
0.4142135623731
 10
394.2121509915225
 20
-1331.557252383082
 42
0.4142135623731
 10
395.7121509915225
 20
-1333.057252383082
 42
0.4142135623731
  0
LWPOLYLINE
  5
389
330
1F
100
AcDbEntity
  8
寸法
  6
Continuous
 62
     7
370
     9
100
AcDbPolyline
 90
        4
 70
     1
 43
3.0
 10
1207.212150991523
 20
-1331.557252383082
 42
0.4142135623731
 10
1205.712150991523
 20
-1330.057252383082
 42
0.4142135623731
 10
1204.212150991523
 20
-1331.557252383082
 42
0.4142135623731
 10
1205.712150991523
 20
-1333.057252383082
 42
0.4142135623731
  0
LWPOLYLINE
  5
38A
330
1F
100
AcDbEntity
  8
寸法
  6
Continuous
 62
     7
370
     9
100
AcDbPolyline
 90
        4
 70
     1
 43
3.0
 10
-1639.787849008479
 20
1165.442747616918
 42
0.4142135623731
 10
-1641.287849008479
 20
1166.942747616917
 42
0.4142135623731
 10
-1642.787849008478
 20
1165.442747616918
 42
0.4142135623731
 10
-1641.287849008479
 20
1163.942747616918
 42
0.4142135623731
  0
LINE
  5
38B
330
1F
100
AcDbEntity
  8
寸法
  6
Continuous
 62
   120
370
     5
100
AcDbLine
 10
-1641.287849008479
 20
1165.442747616918
 30
0.0
 11
-1241.287849008479
 21
1165.442747616918
 31
0.0
  0
LINE
  5
38C
330
1F
100
AcDbEntity
  8
寸法
  6
Continuous
 62
   120
370
     5
100
AcDbLine
 10
-1641.287849008479
 20
1165.442747616918
 30
0.0
 11
-1641.287849008479
 21
-1081.557252383083
 31
0.0
  0
LWPOLYLINE
  5
38D
330
1F
100
AcDbEntity
  8
寸法
  6
Continuous
 62
     7
370
     9
100
AcDbPolyline
 90
        4
 70
     1
 43
3.0
 10
-1439.787849008478
 20
1121.442747616917
 42
0.4142135623731
 10
-1441.287849008478
 20
1122.942747616916
 42
0.4142135623731
 10
-1442.787849008478
 20
1121.442747616917
 42
0.4142135623731
 10
-1441.287849008478
 20
1119.942747616917
 42
0.4142135623731
  0
LINE
  5
38E
330
1F
100
AcDbEntity
  8
寸法
  6
Continuous
 62
   120
370
     5
100
AcDbLine
 10
-1441.287849008478
 20
1121.442747616917
 30
0.0
 11
-1441.287849008478
 21
-1061.557252383082
 31
0.0
  0
LINE
  5
38F
330
1F
100
AcDbEntity
  8
寸法
  6
Continuous
 62
   120
370
     5
100
AcDbLine
 10
-1441.287849008478
 20
1121.442747616917
 30
0.0
 11
-1241.287849008479
 21
1121.442747616917
 31
0.0
  0
MTEXT
  5
390
330
1F
100
AcDbEntity
  8
寸法
  6
Continuous
 62
     7
370
    70
100
AcDbMText
 10
-1656.287849008479
 20
-182.2322523830825
 30
0.0
 40
57.14999999999999
 41
412.5
 46
0.0
 71
     7
 72
     1
  1
{\fＭＳ ゴシック|b0|i0|c128|p49;枠外＝2,247}
 11
6.123031769111886E-17
 21
1.0
 31
0.0
 73
     1
 44
1.0
  0
MTEXT
  5
391
330
1F
100
AcDbEntity
  8
寸法
  6
Continuous
 62
     7
370
    70
100
AcDbMText
 10
-1456.287849008478
 20
-188.2322523830821
 30
0.0
 40
57.14999999999999
 41
412.5
 46
0.0
 71
     7
 72
     1
  1
{\fＭＳ ゴシック|b0|i0|c128|p49;ＤＨ＝2,183}
 11
6.123031769111886E-17
 21
1.0
 31
0.0
 73
     1
 44
1.0
  0
MTEXT
  5
392
330
1F
100
AcDbEntity
  8
寸法
  6
Continuous
 62
     7
370
   211
100
AcDbMText
 10
631.9621509915225
 20
-1325.482252383082
 30
0.0
 40
57.15
 41
337.5
 46
0.0
 71
     7
 72
     1
  1
{\fＭＳ ゴシック|b0|i0|c128|p49;ＤＷ＝810}
 73
     1
 44
1.0
  0
MTEXT
  5
393
330
1F
100
AcDbEntity
  8
寸法
  6
Continuous
 62
     7
370
   211
100
AcDbMText
 10
-185.5378490084775
 20
-1525.482252383083
 30
0.0
 40
57.14999999999999
 41
412.5
 46
0.0
 71
     7
 72
     1
  1
{\fＭＳ ゴシック|b0|i0|c128|p49;枠内＝2,364}
 73
     1
 44
1.0
  0
MTEXT
  5
394
330
1F
100
AcDbEntity
  8
寸法
  6
Continuous
 62
     7
370
   211
100
AcDbMText
 10
-185.5378490084775
 20
-1725.482252383083
 30
0.0
 40
57.14999999999999
 41
412.5
 46
0.0
 71
     7
 72
     1
  1
{\fＭＳ ゴシック|b0|i0|c128|p49;枠外＝2,424}
 73
     1
 44
1.0
  0
ENDSEC
  0
SECTION
  2
OBJECTS
  0
DICTIONARY
  5
C
330
0
100
AcDbDictionary
281
     1
  3
ACAD_GROUP
350
D
  3
ACAD_LAYOUT
350
1A
  3
ACAD_MATERIAL
350
3B
  3
ACAD_MLEADERSTYLE
350
396
  3
ACAD_MLINESTYLE
350
17
  3
ACAD_PLOTSETTINGS
350
19
  3
ACAD_PLOTSTYLENAME
350
E
  3
ACAD_TABLESTYLE
350
395
  3
ACAD_VISUALSTYLE
350
2A
  0
DICTIONARY
  5
D
102
{ACAD_REACTORS
330
C
102
}
330
C
100
AcDbDictionary
281
     1
  0
DICTIONARY
  5
1A
102
{ACAD_REACTORS
330
C
102
}
330
C
100
AcDbDictionary
281
     1
  3
Layout1
350
1E
  3
Layout2
350
26
  3
Model
350
22
  0
DICTIONARY
  5
3B
102
{ACAD_REACTORS
330
C
102
}
330
C
100
AcDbDictionary
281
     1
  3
ByBlock
350
3D
  3
ByLayer
350
3C
  3
Global
350
3E
  0
DICTIONARY
  5
396
102
{ACAD_REACTORS
330
C
102
}
330
C
100
AcDbDictionary
281
     1
  0
DICTIONARY
  5
17
102
{ACAD_REACTORS
330
C
102
}
330
C
100
AcDbDictionary
281
     1
  3
Standard
350
18
  0
DICTIONARY
  5
19
102
{ACAD_REACTORS
330
C
102
}
330
C
100
AcDbDictionary
281
     1
  0
ACDBDICTIONARYWDFLT
  5
E
102
{ACAD_REACTORS
330
C
102
}
330
C
100
AcDbDictionary
281
     1
  3
Normal
350
F
100
AcDbDictionaryWithDefault
340
F
  0
DICTIONARY
  5
395
102
{ACAD_REACTORS
330
C
102
}
330
C
100
AcDbDictionary
281
     1
  0
DICTIONARY
  5
2A
102
{ACAD_REACTORS
330
C
102
}
330
C
100
AcDbDictionary
281
     1
  3
2dWireframe
350
2F
  3
3D Hidden
350
31
  3
3dWireframe
350
30
  3
Basic
350
32
  3
Brighten
350
36
  3
ColorChange
350
3A
  3
Conceptual
350
34
  3
Dim
350
35
  3
Facepattern
350
39
  3
Flat
350
2B
  3
FlatWithEdges
350
2C
  3
Gouraud
350
2D
  3
GouraudWithEdges
350
2E
  3
Linepattern
350
38
  3
Realistic
350
33
  3
Thicken
350
37
  0
LAYOUT
  5
1E
102
{ACAD_REACTORS
330
1A
102
}
330
1A
100
AcDbPlotSettings
  1

  2
none_device
  4

  6

 40
0.0
 41
0.0
 42
0.0
 43
0.0
 44
0.0
 45
0.0
 46
0.0
 47
0.0
 48
0.0
 49
0.0
140
0.0
141
0.0
142
1.0
143
1.0
 70
   688
 72
     0
 73
     0
 74
     5
  7

 75
    16
 76
     0
 77
     5
 78
   300
147
1.0
148
0.0
149
0.0
100
AcDbLayout
  1
Layout1
 70
     1
 71
     1
 10
0.0
 20
0.0
 11
420.0
 21
297.0
 12
0.0
 22
0.0
 32
0.0
 14
1.000000000000000E+20
 24
1.000000000000000E+20
 34
1.000000000000000E+20
 15
-1.000000000000000E+20
 25
-1.000000000000000E+20
 35
-1.000000000000000E+20
146
0.0
 13
0.0
 23
0.0
 33
0.0
 16
1.0
 26
0.0
 36
0.0
 17
0.0
 27
1.0
 37
0.0
 76
     0
330
1B
  0
LAYOUT
  5
26
102
{ACAD_REACTORS
330
1A
102
}
330
1A
100
AcDbPlotSettings
  1

  2
none_device
  4

  6

 40
0.0
 41
0.0
 42
0.0
 43
0.0
 44
0.0
 45
0.0
 46
0.0
 47
0.0
 48
0.0
 49
0.0
140
0.0
141
0.0
142
1.0
143
1.0
 70
   688
 72
     0
 73
     0
 74
     5
  7

 75
    16
 76
     0
 77
     5
 78
   300
147
1.0
148
0.0
149
0.0
100
AcDbLayout
  1
Layout2
 70
     1
 71
     2
 10
0.0
 20
0.0
 11
0.0
 21
0.0
 12
0.0
 22
0.0
 32
0.0
 14
0.0
 24
0.0
 34
0.0
 15
0.0
 25
0.0
 35
0.0
146
0.0
 13
0.0
 23
0.0
 33
0.0
 16
1.0
 26
0.0
 36
0.0
 17
0.0
 27
1.0
 37
0.0
 76
     0
330
23
  0
LAYOUT
  5
22
102
{ACAD_REACTORS
330
1A
102
}
330
1A
100
AcDbPlotSettings
  1

  2
none_device
  4

  6

 40
0.0
 41
0.0
 42
0.0
 43
0.0
 44
0.0
 45
0.0
 46
0.0
 47
0.0
 48
0.0
 49
0.0
140
0.0
141
0.0
142
1.0
143
1.0
 70
  1712
 72
     0
 73
     0
 74
     0
  7

 75
     0
 76
     0
 77
     5
 78
   300
147
1.0
148
0.0
149
0.0
100
AcDbLayout
  1
Model
 70
     1
 71
     0
 10
-4455.0
 20
-3150.0
 11
4455.0
 21
3150.0
 12
0.0
 22
0.0
 32
0.0
 14
-4455.0
 24
-3150.0
 34
0.0
 15
4455.0
 25
3150.0
 35
0.0
146
0.0
 13
0.0
 23
0.0
 33
0.0
 16
1.0
 26
0.0
 36
0.0
 17
0.0
 27
1.0
 37
0.0
 76
     0
330
1F
331
29
  0
MATERIAL
  5
3D
102
{ACAD_REACTORS
330
3B
102
}
330
3B
100
AcDbMaterial
  1
ByBlock
 72
     1
 94
      127
  0
MATERIAL
  5
3C
102
{ACAD_REACTORS
330
3B
102
}
330
3B
100
AcDbMaterial
  1
ByLayer
 72
     1
 94
      127
  0
MATERIAL
  5
3E
102
{ACAD_REACTORS
330
3B
102
}
330
3B
100
AcDbMaterial
  1
Global
 72
     1
 94
      127
  0
MLINESTYLE
  5
18
102
{ACAD_REACTORS
330
17
102
}
330
17
100
AcDbMlineStyle
  2
Standard
 70
     0
  3

 62
   256
 51
90.0
 52
90.0
 71
     2
 49
0.5
 62
   256
  6
BYLAYER
 49
-0.5
 62
   256
  6
BYLAYER
  0
ACDBPLACEHOLDER
  5
F
102
{ACAD_REACTORS
330
E
102
}
330
E
  0
VISUALSTYLE
  5
2F
102
{ACAD_REACTORS
330
2A
102
}
330
2A
100
AcDbVisualStyle
  2
2dWireframe
 70
     4
177
     2
291
     0
 71
     0
176
     1
 72
     2
176
     1
 73
     0
176
     1
 90
        0
176
     1
 40
-0.6
176
     1
 41
-30.0
176
     1
 62
     5
 63
     7
421
 16777215
176
     1
 74
     1
176
     1
 91
        4
176
     1
 64
     7
176
     1
 65
   257
176
     1
 75
     1
176
     1
175
     1
176
     1
 42
1.0
176
     1
 92
        0
176
     1
 66
   257
176
     1
 43
1.0
176
     1
 76
     1
176
     1
 77
     6
176
     1
 78
     2
176
     1
 67
     7
176
     1
 79
     5
176
     1
170
     0
176
     1
171
     0
176
     1
290
     0
176
     1
 93
        1
176
     1
 44
0.0
176
     1
173
     0
176
     1
  0
VISUALSTYLE
  5
31
102
{ACAD_REACTORS
330
2A
102
}
330
2A
100
AcDbVisualStyle
  2
3D Hidden
 70
     6
177
     2
291
     0
 71
     1
176
     1
 72
     2
176
     1
 73
     2
176
     1
 90
        0
176
     1
 40
-0.6
176
     1
 41
-30.0
176
     1
 62
     5
 63
     7
421
 16777215
176
     1
 74
     2
176
     1
 91
        2
176
     1
 64
     7
176
     1
 65
   257
176
     1
 75
     2
176
     1
175
     1
176
     1
 42
40.0
176
     1
 92
        0
176
     1
 66
   257
176
     1
 43
1.0
176
     1
 76
     1
176
     1
 77
     6
176
     1
 78
     2
176
     1
 67
     7
176
     1
 79
     3
176
     1
170
     0
176
     1
171
     0
176
     1
290
     0
176
     1
 93
        1
176
     1
 44
0.0
176
     1
173
     0
176
     1
  0
VISUALSTYLE
  5
30
102
{ACAD_REACTORS
330
2A
102
}
330
2A
100
AcDbVisualStyle
  2
3dWireframe
 70
     5
177
     2
291
     0
 71
     0
176
     1
 72
     2
176
     1
 73
     0
176
     1
 90
        0
176
     1
 40
-0.6
176
     1
 41
-30.0
176
     1
 62
     5
 63
     7
421
 16777215
176
     1
 74
     1
176
     1
 91
        4
176
     1
 64
     7
176
     1
 65
   257
176
     1
 75
     1
176
     1
175
     1
176
     1
 42
1.0
176
     1
 92
        0
176
     1
 66
   257
176
     1
 43
1.0
176
     1
 76
     1
176
     1
 77
     6
176
     1
 78
     2
176
     1
 67
     7
176
     1
 79
     5
176
     1
170
     0
176
     1
171
     0
176
     1
290
     0
176
     1
 93
        1
176
     1
 44
0.0
176
     1
173
     0
176
     1
  0
VISUALSTYLE
  5
32
102
{ACAD_REACTORS
330
2A
102
}
330
2A
100
AcDbVisualStyle
  2
Basic
 70
     7
177
     2
291
     1
 71
     1
176
     1
 72
     0
176
     1
 73
     1
176
     1
 90
        0
176
     1
 40
-0.6
176
     1
 41
-30.0
176
     1
 62
     5
 63
     7
421
 16777215
176
     1
 74
     0
176
     1
 91
        4
176
     1
 64
     7
176
     1
 65
   257
176
     1
 75
     1
176
     1
175
     1
176
     1
 42
1.0
176
     1
 92
        8
176
     1
 66
     7
176
     1
 43
1.0
176
     1
 76
     1
176
     1
 77
     6
176
     1
 78
     2
176
     1
 67
     7
176
     1
 79
     5
176
     1
170
     0
176
     1
171
     0
176
     1
290
     0
176
     1
 93
        1
176
     1
 44
0.0
176
     1
173
     0
176
     1
  0
VISUALSTYLE
  5
36
102
{ACAD_REACTORS
330
2A
102
}
330
2A
100
AcDbVisualStyle
  2
Brighten
 70
    12
177
     2
291
     1
 71
     2
176
     1
 72
     2
176
     1
 73
     0
176
     1
 90
        0
176
     1
 40
-0.6
176
     1
 41
-30.0
176
     1
 62
     5
 63
     7
421
 16777215
176
     1
 74
     1
176
     1
 91
        4
176
     1
 64
     7
176
     1
 65
   257
176
     1
 75
     1
176
     1
175
     1
176
     1
 42
1.0
176
     1
 92
        8
176
     1
 66
     7
176
     1
 43
1.0
176
     1
 76
     1
176
     1
 77
     6
176
     1
 78
     2
176
     1
 67
     7
176
     1
 79
     5
176
     1
170
     0
176
     1
171
     0
176
     1
290
     0
176
     1
 93
        1
176
     1
 44
50.0
176
     1
173
     0
176
     1
  0
VISUALSTYLE
  5
3A
102
{ACAD_REACTORS
330
2A
102
}
330
2A
100
AcDbVisualStyle
  2
ColorChange
 70
    16
177
     2
291
     1
 71
     2
176
     1
 72
     2
176
     1
 73
     3
176
     1
 90
        0
176
     1
 40
-0.6
176
     1
 41
-30.0
176
     1
 62
     5
 63
     8
421
  8421504
176
     1
 74
     1
176
     1
 91
        4
176
     1
 64
     7
176
     1
 65
   257
176
     1
 75
     1
176
     1
175
     1
176
     1
 42
1.0
176
     1
 92
        8
176
     1
 66
     8
424
  8421504
176
     1
 43
1.0
176
     1
 76
     1
176
     1
 77
     6
176
     1
 78
     2
176
     1
 67
     7
176
     1
 79
     5
176
     1
170
     0
176
     1
171
     0
176
     1
290
     0
176
     1
 93
        1
176
     1
 44
0.0
176
     1
173
     0
176
     1
  0
VISUALSTYLE
  5
34
102
{ACAD_REACTORS
330
2A
102
}
330
2A
100
AcDbVisualStyle
  2
Conceptual
 70
     9
177
     2
291
     0
 71
     3
176
     1
 72
     2
176
     1
 73
     0
176
     1
 90
        0
176
     1
 40
-0.6
176
     1
 41
-30.0
176
     1
 62
     5
 63
     7
421
 16777215
176
     1
 74
     2
176
     1
 91
        2
176
     1
 64
     7
176
     1
 65
   257
176
     1
 75
     1
176
     1
175
     1
176
     1
 42
40.0
176
     1
 92
        8
176
     1
 66
     7
176
     1
 43
1.0
176
     1
 76
     1
176
     1
 77
     6
176
     1
 78
     2
176
     1
 67
     7
176
     1
 79
     3
176
     1
170
     0
176
     1
171
     0
176
     1
290
     0
176
     1
 93
        1
176
     1
 44
0.0
176
     1
173
     0
176
     1
  0
VISUALSTYLE
  5
35
102
{ACAD_REACTORS
330
2A
102
}
330
2A
100
AcDbVisualStyle
  2
Dim
 70
    11
177
     2
291
     1
 71
     2
176
     1
 72
     2
176
     1
 73
     0
176
     1
 90
        0
176
     1
 40
-0.6
176
     1
 41
-30.0
176
     1
 62
     5
 63
     7
421
 16777215
176
     1
 74
     1
176
     1
 91
        4
176
     1
 64
     7
176
     1
 65
   257
176
     1
 75
     1
176
     1
175
     1
176
     1
 42
1.0
176
     1
 92
        8
176
     1
 66
     7
176
     1
 43
1.0
176
     1
 76
     1
176
     1
 77
     6
176
     1
 78
     2
176
     1
 67
     7
176
     1
 79
     5
176
     1
170
     0
176
     1
171
     0
176
     1
290
     0
176
     1
 93
        1
176
     1
 44
-50.0
176
     1
173
     0
176
     1
  0
VISUALSTYLE
  5
39
102
{ACAD_REACTORS
330
2A
102
}
330
2A
100
AcDbVisualStyle
  2
Facepattern
 70
    15
177
     2
291
     1
 71
     2
176
     1
 72
     2
176
     1
 73
     0
176
     1
 90
        0
176
     1
 40
-0.6
176
     1
 41
-30.0
176
     1
 62
     5
 63
     7
421
 16777215
176
     1
 74
     1
176
     1
 91
        4
176
     1
 64
     7
176
     1
 65
   257
176
     1
 75
     1
176
     1
175
     1
176
     1
 42
1.0
176
     1
 92
        8
176
     1
 66
     7
176
     1
 43
1.0
176
     1
 76
     1
176
     1
 77
     6
176
     1
 78
     2
176
     1
 67
     7
176
     1
 79
     5
176
     1
170
     0
176
     1
171
     0
176
     1
290
     0
176
     1
 93
        1
176
     1
 44
0.0
176
     1
173
     0
176
     1
  0
VISUALSTYLE
  5
2B
102
{ACAD_REACTORS
330
2A
102
}
330
2A
100
AcDbVisualStyle
  2
Flat
 70
     0
177
     2
291
     1
 71
     2
176
     1
 72
     1
176
     1
 73
     1
176
     1
 90
        2
176
     1
 40
-0.6
176
     1
 41
30.0
176
     1
 62
     5
 63
     7
421
 16777215
176
     1
 74
     0
176
     1
 91
        4
176
     1
 64
     7
176
     1
 65
   257
176
     1
 75
     1
176
     1
175
     1
176
     1
 42
1.0
176
     1
 92
        8
176
     1
 66
     7
176
     1
 43
1.0
176
     1
 76
     1
176
     1
 77
     6
176
     1
 78
     2
176
     1
 67
     7
176
     1
 79
     5
176
     1
170
     0
176
     1
171
     0
176
     1
290
     0
176
     1
 93
       13
176
     1
 44
0.0
176
     1
173
     0
176
     1
  0
VISUALSTYLE
  5
2C
102
{ACAD_REACTORS
330
2A
102
}
330
2A
100
AcDbVisualStyle
  2
FlatWithEdges
 70
     1
177
     2
291
     1
 71
     2
176
     1
 72
     1
176
     1
 73
     1
176
     1
 90
        2
176
     1
 40
-0.6
176
     1
 41
30.0
176
     1
 62
     5
 63
     7
421
 16777215
176
     1
 74
     1
176
     1
 91
        4
176
     1
 64
     7
176
     1
 65
   257
176
     1
 75
     1
176
     1
175
     1
176
     1
 42
1.0
176
     1
 92
        0
176
     1
 66
   257
176
     1
 43
1.0
176
     1
 76
     1
176
     1
 77
     6
176
     1
 78
     2
176
     1
 67
     7
176
     1
 79
     5
176
     1
170
     0
176
     1
171
     0
176
     1
290
     0
176
     1
 93
       13
176
     1
 44
0.0
176
     1
173
     0
176
     1
  0
VISUALSTYLE
  5
2D
102
{ACAD_REACTORS
330
2A
102
}
330
2A
100
AcDbVisualStyle
  2
Gouraud
 70
     2
177
     2
291
     1
 71
     2
176
     1
 72
     2
176
     1
 73
     1
176
     1
 90
        2
176
     1
 40
-0.6
176
     1
 41
30.0
176
     1
 62
     5
 63
     7
421
 16777215
176
     1
 74
     0
176
     1
 91
        4
176
     1
 64
     7
176
     1
 65
   257
176
     1
 75
     1
176
     1
175
     1
176
     1
 42
1.0
176
     1
 92
        0
176
     1
 66
     7
176
     1
 43
1.0
176
     1
 76
     1
176
     1
 77
     6
176
     1
 78
     2
176
     1
 67
     7
176
     1
 79
     5
176
     1
170
     0
176
     1
171
     0
176
     1
290
     0
176
     1
 93
       13
176
     1
 44
0.0
176
     1
173
     0
176
     1
  0
VISUALSTYLE
  5
2E
102
{ACAD_REACTORS
330
2A
102
}
330
2A
100
AcDbVisualStyle
  2
GouraudWithEdges
 70
     3
177
     2
291
     1
 71
     2
176
     1
 72
     2
176
     1
 73
     1
176
     1
 90
        2
176
     1
 40
-0.6
176
     1
 41
30.0
176
     1
 62
     5
 63
     7
421
 16777215
176
     1
 74
     1
176
     1
 91
        4
176
     1
 64
     7
176
     1
 65
   257
176
     1
 75
     1
176
     1
175
     1
176
     1
 42
1.0
176
     1
 92
        0
176
     1
 66
   257
176
     1
 43
1.0
176
     1
 76
     1
176
     1
 77
     6
176
     1
 78
     2
176
     1
 67
     7
176
     1
 79
     5
176
     1
170
     0
176
     1
171
     0
176
     1
290
     0
176
     1
 93
       13
176
     1
 44
0.0
176
     1
173
     0
176
     1
  0
VISUALSTYLE
  5
38
102
{ACAD_REACTORS
330
2A
102
}
330
2A
100
AcDbVisualStyle
  2
Linepattern
 70
    14
177
     2
291
     1
 71
     2
176
     1
 72
     2
176
     1
 73
     0
176
     1
 90
        0
176
     1
 40
-0.6
176
     1
 41
-30.0
176
     1
 62
     5
 63
     7
421
 16777215
176
     1
 74
     1
176
     1
 91
        4
176
     1
 64
     7
176
     1
 65
   257
176
     1
 75
     7
176
     1
175
     7
176
     1
 42
1.0
176
     1
 92
        8
176
     1
 66
     7
176
     1
 43
1.0
176
     1
 76
     1
176
     1
 77
     6
176
     1
 78
     2
176
     1
 67
     7
176
     1
 79
     5
176
     1
170
     0
176
     1
171
     0
176
     1
290
     0
176
     1
 93
        1
176
     1
 44
0.0
176
     1
173
     0
176
     1
  0
VISUALSTYLE
  5
33
102
{ACAD_REACTORS
330
2A
102
}
330
2A
100
AcDbVisualStyle
  2
Realistic
 70
     8
177
     2
291
     0
 71
     2
176
     1
 72
     2
176
     1
 73
     0
176
     1
 90
        0
176
     1
 40
-0.6
176
     1
 41
-30.0
176
     1
 62
     5
 63
     7
421
 16777215
176
     1
 74
     1
176
     1
 91
        0
176
     1
 64
     7
176
     1
 65
   257
176
     1
 75
     1
176
     1
175
     1
176
     1
 42
1.0
176
     1
 92
        8
176
     1
 66
     8
424
  7895160
176
     1
 43
1.0
176
     1
 76
     1
176
     1
 77
     6
176
     1
 78
     2
176
     1
 67
     7
176
     1
 79
     5
176
     1
170
     0
176
     1
171
     0
176
     1
290
     0
176
     1
 93
       13
176
     1
 44
0.0
176
     1
173
     0
176
     1
  0
VISUALSTYLE
  5
37
102
{ACAD_REACTORS
330
2A
102
}
330
2A
100
AcDbVisualStyle
  2
Thicken
 70
    13
177
     2
291
     1
 71
     2
176
     1
 72
     2
176
     1
 73
     0
176
     1
 90
        0
176
     1
 40
-0.6
176
     1
 41
-30.0
176
     1
 62
     5
 63
     7
421
 16777215
176
     1
 74
     1
176
     1
 91
        4
176
     1
 64
     7
176
     1
 65
   257
176
     1
 75
     1
176
     1
175
     1
176
     1
 42
1.0
176
     1
 92
       12
176
     1
 66
     7
176
     1
 43
1.0
176
     1
 76
     1
176
     1
 77
     6
176
     1
 78
     2
176
     1
 67
     7
176
     1
 79
     5
176
     1
170
     0
176
     1
171
     0
176
     1
290
     0
176
     1
 93
        1
176
     1
 44
0.0
176
     1
173
     0
176
     1
  0
ENDSEC
  0
EOF
