  0
SECTION
  2
HEADER
  9
$ACADVER
  1
AC1024
  9
$ACADMAINTVER
 70
     6
  9
$DWGCODEPAGE
  3
ANSI_932
  9
$INSBASE
 10
0.0
 20
0.0
 30
0.0
  9
$EXTMIN
 10
-4455.0
 20
-3150.0
 30
0.0
  9
$EXTMAX
 10
4455.0
 20
3150.0
 30
0.0
  9
$LIMMIN
 10
-4455.0
 20
-3150.0
  9
$LIMMAX
 10
4455.0
 20
3150.0
  9
$ORTHOMODE
 70
     0
  9
$REGENMODE
 70
     1
  9
$FILLMODE
 70
     1
  9
$QTEXTMODE
 70
     0
  9
$MIRRTEXT
 70
     1
  9
$LTSCALE
 40
30.0
  9
$ATTMODE
 70
     1
  9
$TEXTSIZE
 40
2.5
  9
$TRACEWID
 40
1.0
  9
$TEXTSTYLE
  7
Standard
  9
$CLAYER
  8
0
  9
$CELTYPE
  6
ByLayer
  9
$CECOLOR
 62
   256
  9
$CELTSCALE
 40
1.0
  9
$DISPSILH
 70
     0
  9
$DIMSCALE
 40
1.0
  9
$DIMASZ
 40
2.5
  9
$DIMEXO
 40
0.625
  9
$DIMDLI
 40
3.75
  9
$DIMRND
 40
0.0
  9
$DIMDLE
 40
0.0
  9
$DIMEXE
 40
1.25
  9
$DIMTP
 40
0.0
  9
$DIMTM
 40
0.0
  9
$DIMTXT
 40
2.5
  9
$DIMCEN
 40
2.5
  9
$DIMTSZ
 40
0.0
  9
$DIMTOL
 70
     0
  9
$DIMLIM
 70
     0
  9
$DIMTIH
 70
     0
  9
$DIMTOH
 70
     0
  9
$DIMSE1
 70
     0
  9
$DIMSE2
 70
     0
  9
$DIMTAD
 70
     1
  9
$DIMZIN
 70
     8
  9
$DIMBLK
  1

  9
$DIMASO
 70
     1
  9
$DIMSHO
 70
     1
  9
$DIMPOST
  1

  9
$DIMAPOST
  1

  9
$DIMALT
 70
     0
  9
$DIMALTD
 70
     3
  9
$DIMALTF
 40
0.03937007874016
  9
$DIMLFAC
 40
1.0
  9
$DIMTOFL
 70
     1
  9
$DIMTVP
 40
0.0
  9
$DIMTIX
 70
     0
  9
$DIMSOXD
 70
     0
  9
$DIMSAH
 70
     0
  9
$DIMBLK1
  1

  9
$DIMBLK2
  1

  9
$DIMSTYLE
  2
ISO-25
  9
$DIMCLRD
 70
     0
  9
$DIMCLRE
 70
     0
  9
$DIMCLRT
 70
     0
  9
$DIMTFAC
 40
1.0
  9
$DIMGAP
 40
0.625
  9
$DIMJUST
 70
     0
  9
$DIMSD1
 70
     0
  9
$DIMSD2
 70
     0
  9
$DIMTOLJ
 70
     0
  9
$DIMTZIN
 70
     8
  9
$DIMALTZ
 70
     0
  9
$DIMALTTZ
 70
     0
  9
$DIMUPT
 70
     0
  9
$DIMDEC
 70
     2
  9
$DIMTDEC
 70
     2
  9
$DIMALTU
 70
     2
  9
$DIMALTTD
 70
     3
  9
$DIMTXSTY
  7
Standard
  9
$DIMAUNIT
 70
     0
  9
$DIMADEC
 70
     0
  9
$DIMALTRND
 40
0.0
  9
$DIMAZIN
 70
     0
  9
$DIMDSEP
 70
    44
  9
$DIMATFIT
 70
     3
  9
$DIMFRAC
 70
     0
  9
$DIMLDRBLK
  1

  9
$DIMLUNIT
 70
     2
  9
$DIMLWD
 70
    -2
  9
$DIMLWE
 70
    -2
  9
$DIMTMOVE
 70
     0
  9
$DIMFXL
 40
1.0
  9
$DIMFXLON
 70
     0
  9
$DIMJOGANG
 40
0.7853981633974483
  9
$DIMTFILL
 70
     0
  9
$DIMTFILLCLR
 70
     0
  9
$DIMARCSYM
 70
     0
  9
$DIMLTYPE
  6

  9
$DIMLTEX1
  6

  9
$DIMLTEX2
  6

  9
$DIMTXTDIRECTION
 70
     0
  9
$LUNITS
 70
     2
  9
$LUPREC
 70
     4
  9
$SKETCHINC
 40
1.0
  9
$FILLETRAD
 40
10.0
  9
$AUNITS
 70
     0
  9
$AUPREC
 70
     0
  9
$MENU
  1
.
  9
$ELEVATION
 40
0.0
  9
$PELEVATION
 40
0.0
  9
$THICKNESS
 40
0.0
  9
$LIMCHECK
 70
     0
  9
$CHAMFERA
 40
10.0
  9
$CHAMFERB
 40
10.0
  9
$CHAMFERC
 40
20.0
  9
$CHAMFERD
 40
0.0
  9
$SKPOLY
 70
     0
  9
$TDCREATE
 40
2457953.40060066
  9
$TDUCREATE
 40
2457953.02560066
  9
$TDUPDATE
 40
2457953.400600671
  9
$TDUUPDATE
 40
2457953.025600671
  9
$TDINDWG
 40
0.0000000116
  9
$TDUSRTIMER
 40
0.0000000116
  9
$USRTIMER
 70
     1
  9
$ANGBASE
 50
0.0
  9
$ANGDIR
 70
     0
  9
$PDMODE
 70
     0
  9
$PDSIZE
 40
0.0
  9
$PLINEWID
 40
0.0
  9
$SPLFRAME
 70
     0
  9
$SPLINETYPE
 70
     6
  9
$SPLINESEGS
 70
     8
  9
$HANDSEED
  5
345
  9
$SURFTAB1
 70
     6
  9
$SURFTAB2
 70
     6
  9
$SURFTYPE
 70
     6
  9
$SURFU
 70
     6
  9
$SURFV
 70
     6
  9
$UCSBASE
  2

  9
$UCSNAME
  2

  9
$UCSORG
 10
0.0
 20
0.0
 30
0.0
  9
$UCSXDIR
 10
1.0
 20
0.0
 30
0.0
  9
$UCSYDIR
 10
0.0
 20
1.0
 30
0.0
  9
$UCSORTHOREF
  2

  9
$UCSORTHOVIEW
 70
     0
  9
$UCSORGTOP
 10
0.0
 20
0.0
 30
0.0
  9
$UCSORGBOTTOM
 10
0.0
 20
0.0
 30
0.0
  9
$UCSORGLEFT
 10
0.0
 20
0.0
 30
0.0
  9
$UCSORGRIGHT
 10
0.0
 20
0.0
 30
0.0
  9
$UCSORGFRONT
 10
0.0
 20
0.0
 30
0.0
  9
$UCSORGBACK
 10
0.0
 20
0.0
 30
0.0
  9
$PUCSBASE
  2

  9
$PUCSNAME
  2

  9
$PUCSORG
 10
0.0
 20
0.0
 30
0.0
  9
$PUCSXDIR
 10
1.0
 20
0.0
 30
0.0
  9
$PUCSYDIR
 10
0.0
 20
1.0
 30
0.0
  9
$PUCSORTHOREF
  2

  9
$PUCSORTHOVIEW
 70
     0
  9
$PUCSORGTOP
 10
0.0
 20
0.0
 30
0.0
  9
$PUCSORGBOTTOM
 10
0.0
 20
0.0
 30
0.0
  9
$PUCSORGLEFT
 10
0.0
 20
0.0
 30
0.0
  9
$PUCSORGRIGHT
 10
0.0
 20
0.0
 30
0.0
  9
$PUCSORGFRONT
 10
0.0
 20
0.0
 30
0.0
  9
$PUCSORGBACK
 10
0.0
 20
0.0
 30
0.0
  9
$USERI1
 70
     0
  9
$USERI2
 70
     0
  9
$USERI3
 70
     0
  9
$USERI4
 70
     0
  9
$USERI5
 70
     0
  9
$USERR1
 40
0.0
  9
$USERR2
 40
0.0
  9
$USERR3
 40
0.0
  9
$USERR4
 40
0.0
  9
$USERR5
 40
0.0
  9
$WORLDVIEW
 70
     1
  9
$SHADEDGE
 70
     3
  9
$SHADEDIF
 70
    70
  9
$TILEMODE
 70
     1
  9
$MAXACTVP
 70
    64
  9
$PINSBASE
 10
0.0
 20
0.0
 30
0.0
  9
$PLIMCHECK
 70
     0
  9
$PEXTMIN
 10
1.000000000000000E+20
 20
1.000000000000000E+20
 30
1.000000000000000E+20
  9
$PEXTMAX
 10
-1.000000000000000E+20
 20
-1.000000000000000E+20
 30
-1.000000000000000E+20
  9
$PLIMMIN
 10
0.0
 20
0.0
  9
$PLIMMAX
 10
420.0
 20
297.0
  9
$UNITMODE
 70
     0
  9
$VISRETAIN
 70
     1
  9
$PLINEGEN
 70
     0
  9
$PSLTSCALE
 70
     1
  9
$TREEDEPTH
 70
  3020
  9
$CMLSTYLE
  2
Standard
  9
$CMLJUST
 70
     0
  9
$CMLSCALE
 40
20.0
  9
$PROXYGRAPHICS
 70
     1
  9
$MEASUREMENT
 70
     1
  9
$CELWEIGHT
370
    -1
  9
$ENDCAPS
280
     0
  9
$JOINSTYLE
280
     0
  9
$LWDISPLAY
290
     0
  9
$INSUNITS
 70
     4
  9
$HYPERLINKBASE
  1

  9
$STYLESHEET
  1

  9
$XEDIT
290
     1
  9
$CEPSNTYPE
380
     0
  9
$PSTYLEMODE
290
     1
  9
$FINGERPRINTGUID
  2
{16FED990-559B-41FE-BDAC-B5F3D5FF14E4}
  9
$VERSIONGUID
  2
{FAEB1C32-E019-11D5-929B-00C0DF256EC4}
  9
$EXTNAMES
290
     1
  9
$PSVPSCALE
 40
0.0
  9
$OLESTARTUP
290
     0
  9
$SORTENTS
280
   127
  9
$INDEXCTL
280
     0
  9
$HIDETEXT
280
     1
  9
$XCLIPFRAME
280
     2
  9
$HALOGAP
280
     0
  9
$OBSCOLOR
 70
   257
  9
$OBSLTYPE
280
     0
  9
$INTERSECTIONDISPLAY
280
     0
  9
$INTERSECTIONCOLOR
 70
   257
  9
$DIMASSOC
280
     2
  9
$PROJECTNAME
  1

  9
$CAMERADISPLAY
290
     0
  9
$LENSLENGTH
 40
50.0
  9
$CAMERAHEIGHT
 40
0.0
  9
$STEPSPERSEC
 40
2.0
  9
$STEPSIZE
 40
6.0
  9
$3DDWFPREC
 40
2.0
  9
$PSOLWIDTH
 40
5.0
  9
$PSOLHEIGHT
 40
80.0
  9
$LOFTANG1
 40
1.570796326794897
  9
$LOFTANG2
 40
1.570796326794897
  9
$LOFTMAG1
 40
0.0
  9
$LOFTMAG2
 40
0.0
  9
$LOFTPARAM
 70
     7
  9
$LOFTNORMALS
280
     1
  9
$LATITUDE
 40
37.795
  9
$LONGITUDE
 40
-122.394
  9
$NORTHDIRECTION
 40
0.0
  9
$TIMEZONE
 70
 -8000
  9
$LIGHTGLYPHDISPLAY
280
     1
  9
$TILEMODELIGHTSYNCH
280
     1
  9
$SOLIDHIST
280
     1
  9
$SHOWHIST
280
     1
  9
$DWFFRAME
280
     2
  9
$DGNFRAME
280
     2
  9
$REALWORLDSCALE
290
     1
  9
$INTERFERECOLOR
 62
   256
  9
$CSHADOW
280
     0
  9
$SHADOWPLANELOCATION
 40
0.0
  0
ENDSEC
  0
SECTION
  2
CLASSES
  0
CLASS
  1
ACDBDICTIONARYWDFLT
  2
AcDbDictionaryWithDefault
  3
ObjectDBX Classes
 90
        0
 91
        4
280
     0
281
     0
  0
CLASS
  1
VISUALSTYLE
  2
AcDbVisualStyle
  3
ObjectDBX Classes
 90
     4095
 91
        4
280
     0
281
     0
  0
CLASS
  1
MATERIAL
  2
AcDbMaterial
  3
ObjectDBX Classes
 90
     1153
 91
        4
280
     0
281
     0
  0
ENDSEC
  0
SECTION
  2
TABLES
  0
TABLE
  2
VPORT
  5
8
330
0
100
AcDbSymbolTable
 70
     1
  0
VPORT
  5
29
330
8
100
AcDbSymbolTableRecord
100
AcDbViewportTableRecord
  2
*Active
 70
     0
 10
0.0
 20
0.0
 11
1.0
 21
1.0
 12
0.0
 22
0.0
 13
0.0
 23
0.0
 14
10.0
 24
10.0
 15
10.0
 25
10.0
 16
0.0
 26
0.0
 36
1.0
 17
0.0
 27
0.0
 37
0.0
 40
6930.000000000001
 41
1.414285714285714
 42
50.0
 43
0.0
 44
0.0
 50
0.0
 51
0.0
 71
     0
 72
 10000
 73
     1
 74
     3
 75
     0
 76
     0
 77
     0
 78
     0
281
     0
 65
     1
110
0.0
120
0.0
130
0.0
111
1.0
121
0.0
131
0.0
112
0.0
122
1.0
132
0.0
 79
     0
146
0.0
 60
     3
 61
     5
292
     1
282
     1
141
0.0
142
0.0
 63
   250
  0
ENDTAB
  0
TABLE
  2
LTYPE
  5
5
330
0
100
AcDbSymbolTable
 70
     2
  0
LTYPE
  5
14
330
5
100
AcDbSymbolTableRecord
100
AcDbLinetypeTableRecord
  2
ByBlock
 70
     0
  3

 72
    65
 73
     0
 40
0.0
  0
LTYPE
  5
15
330
5
100
AcDbSymbolTableRecord
100
AcDbLinetypeTableRecord
  2
ByLayer
 70
     0
  3

 72
    65
 73
     0
 40
0.0
  0
LTYPE
  5
16
330
5
100
AcDbSymbolTableRecord
100
AcDbLinetypeTableRecord
  2
Continuous
 70
     0
  3
Solid line
 72
    65
 73
     0
 40
0.0
  0
LTYPE
  5
3F
330
5
100
AcDbSymbolTableRecord
100
AcDbLinetypeTableRecord
  2
JWW_DASHED1
 70
     0
  3
-  --  --  --  --  --  --  --  -
 72
    65
 73
     2
 40
1.693333333333333
 49
0.8466666666666667
 74
     0
 49
-0.8466666666666667
 74
     0
  0
ENDTAB
  0
TABLE
  2
LAYER
  5
2
330
0
100
AcDbSymbolTable
 70
     4
  0
LAYER
  5
10
330
2
100
AcDbSymbolTableRecord
100
AcDbLayerTableRecord
  2
0
 70
     0
 62
     7
  6
Continuous
370
    -3
390
F
347
3E
  0
LAYER
  5
40
330
2
100
AcDbSymbolTableRecord
100
AcDbLayerTableRecord
  2
0-0
 70
     0
 62
     7
  6
Continuous
370
    -3
390
F
347
3E
  0
LAYER
  5
41
330
2
100
AcDbSymbolTableRecord
100
AcDbLayerTableRecord
  2
文字
 70
     0
 62
     7
  6
Continuous
370
    -3
390
F
347
3E
  0
LAYER
  5
42
330
2
100
AcDbSymbolTableRecord
100
AcDbLayerTableRecord
  2
寸法
 70
     0
 62
     7
  6
Continuous
370
    -3
390
F
347
3E
  0
ENDTAB
  0
TABLE
  2
STYLE
  5
3
330
0
100
AcDbSymbolTable
 70
     1
  0
STYLE
  5
11
330
3
100
AcDbSymbolTableRecord
100
AcDbTextStyleTableRecord
  2
Standard
 70
     0
 40
0.0
 41
1.0
 50
0.0
 71
     0
 42
2.5
  3
txt
  4

  0
ENDTAB
  0
TABLE
  2
VIEW
  5
6
330
0
100
AcDbSymbolTable
 70
     0
  0
ENDTAB
  0
TABLE
  2
UCS
  5
7
330
0
100
AcDbSymbolTable
 70
     0
  0
ENDTAB
  0
TABLE
  2
APPID
  5
9
330
0
100
AcDbSymbolTable
 70
     1
  0
APPID
  5
12
330
9
100
AcDbSymbolTableRecord
100
AcDbRegAppTableRecord
  2
ACAD
 70
     0
  0
ENDTAB
  0
TABLE
  2
DIMSTYLE
  5
A
330
0
100
AcDbSymbolTable
 70
     1
100
AcDbDimStyleTable
  0
DIMSTYLE
105
27
330
A
100
AcDbSymbolTableRecord
100
AcDbDimStyleTableRecord
  2
ISO-25
 70
     0
 41
2.5
 42
0.625
 43
3.75
 44
1.25
 73
     0
 74
     0
 77
     1
 78
     8
140
2.5
141
2.5
143
0.03937007874016
147
0.625
171
     3
172
     1
178
     0
271
     2
272
     2
274
     3
278
    44
283
     0
284
     8
340
11
  0
ENDTAB
  0
TABLE
  2
BLOCK_RECORD
  5
1
330
0
100
AcDbSymbolTable
 70
     1
  0
BLOCK_RECORD
  5
1F
330
1
100
AcDbSymbolTableRecord
100
AcDbBlockTableRecord
  2
*Model_Space
340
22
 70
     0
280
     1
281
     0
  0
BLOCK_RECORD
  5
1B
330
1
100
AcDbSymbolTableRecord
100
AcDbBlockTableRecord
  2
*Paper_Space
340
1E
 70
     0
280
     1
281
     0
  0
BLOCK_RECORD
  5
23
330
1
100
AcDbSymbolTableRecord
100
AcDbBlockTableRecord
  2
*Paper_Space0
340
26
 70
     0
280
     1
281
     0
  0
ENDTAB
  0
ENDSEC
  0
SECTION
  2
BLOCKS
  0
BLOCK
  5
20
330
1F
100
AcDbEntity
  8
0
100
AcDbBlockBegin
  2
*Model_Space
 70
     0
 10
0.0
 20
0.0
 30
0.0
  3
*Model_Space
  1

  0
ENDBLK
  5
21
330
1F
100
AcDbEntity
  8
0
100
AcDbBlockEnd
  0
BLOCK
  5
1C
330
1B
100
AcDbEntity
 67
     1
  8
0
100
AcDbBlockBegin
  2
*Paper_Space
 70
     0
 10
0.0
 20
0.0
 30
0.0
  3
*Paper_Space
  1

  0
ENDBLK
  5
1D
330
1B
100
AcDbEntity
 67
     1
  8
0
100
AcDbBlockEnd
  0
BLOCK
  5
24
330
23
100
AcDbEntity
  8
0
100
AcDbBlockBegin
  2
*Paper_Space0
 70
     0
 10
0.0
 20
0.0
 30
0.0
  3
*Paper_Space0
  1

  0
ENDBLK
  5
25
330
23
100
AcDbEntity
  8
0
100
AcDbBlockEnd
  0
ENDSEC
  0
SECTION
  2
ENTITIES
  0
LINE
  5
43
330
1F
100
AcDbEntity
  8
0-0
  6
Continuous
 62
    92
370
    13
100
AcDbLine
 10
1236.267625239569
 20
-1476.460603583691
 30
0.0
 11
-1187.73237476043
 21
-1476.460603583691
 31
0.0
  0
LINE
  5
44
330
1F
100
AcDbEntity
  8
0-0
  6
Continuous
 62
    92
370
    13
100
AcDbLine
 10
1206.267625239569
 20
-1461.460603583691
 30
0.0
 11
-1157.73237476043
 21
-1461.460603583691
 31
0.0
  0
ARC
  5
45
330
1F
100
AcDbEntity
  8
0-0
  6
Continuous
 62
    92
370
    13
100
AcDbCircle
 10
-1129.232374760432
 20
-439.4606035836911
 30
0.0
 40
1.5
100
AcDbArc
 50
90.0
 51
180.0
  0
LINE
  5
46
330
1F
100
AcDbEntity
  8
0-0
  6
Continuous
 62
    92
370
    13
100
AcDbLine
 10
-1090.232374760431
 20
-437.9606035836907
 30
0.0
 11
-1129.232374760432
 21
-437.9606035836907
 31
0.0
  0
ARC
  5
47
330
1F
100
AcDbEntity
  8
0-0
  6
Continuous
 62
    92
370
    13
100
AcDbCircle
 10
-1090.232374760431
 20
-439.4606035836911
 30
0.0
 40
1.5
100
AcDbArc
 50
0.0
 51
90.00000000000001
  0
LINE
  5
48
330
1F
100
AcDbEntity
  8
0-0
  6
Continuous
 62
    92
370
    13
100
AcDbLine
 10
-1088.732374760434
 20
-558.4606035836903
 30
0.0
 11
-1088.732374760434
 21
-439.4606035836911
 31
0.0
  0
ARC
  5
49
330
1F
100
AcDbEntity
  8
0-0
  6
Continuous
 62
    92
370
    13
100
AcDbCircle
 10
-1090.232374760431
 20
-558.4606035836903
 30
0.0
 40
1.5
100
AcDbArc
 50
270.0
 51
0.0
  0
LINE
  5
4A
330
1F
100
AcDbEntity
  8
0-0
  6
Continuous
 62
    92
370
    13
100
AcDbLine
 10
-1129.232374760432
 20
-559.9606035836923
 30
0.0
 11
-1090.232374760431
 21
-559.9606035836923
 31
0.0
  0
LINE
  5
4B
330
1F
100
AcDbEntity
  8
0-0
  6
Continuous
 62
    92
370
    13
100
AcDbLine
 10
-1130.73237476043
 20
-558.4606035836903
 30
0.0
 11
-1130.73237476043
 21
-439.4606035836911
 31
0.0
  0
ARC
  5
4C
330
1F
100
AcDbEntity
  8
0-0
  6
Continuous
 62
    92
370
    13
100
AcDbCircle
 10
-1129.232374760432
 20
-558.4606035836903
 30
0.0
 40
1.5
100
AcDbArc
 50
180.0
 51
270.0
  0
ARC
  5
4D
330
1F
100
AcDbEntity
  8
0-0
  6
Continuous
 62
     7
370
     9
100
AcDbCircle
 10
-1109.732374760432
 20
-528.5606035836902
 30
0.0
 40
15.0
100
AcDbArc
 50
180.0
 51
0.0
  0
ARC
  5
4E
330
1F
100
AcDbEntity
  8
0-0
  6
Continuous
 62
     7
370
     9
100
AcDbCircle
 10
-1109.732374760432
 20
-469.3606035836904
 30
0.0
 40
15.0
100
AcDbArc
 50
0.0
 51
180.0
  0
LINE
  5
4F
330
1F
100
AcDbEntity
  8
0-0
  6
Continuous
 62
     7
370
     9
100
AcDbLine
 10
-1094.732374760432
 20
-528.5606035836902
 30
0.0
 11
-1094.732374760432
 21
-469.3606035836904
 31
0.0
  0
LINE
  5
50
330
1F
100
AcDbEntity
  8
0-0
  6
Continuous
 62
     7
370
     9
100
AcDbLine
 10
-1124.732374760432
 20
-469.3606035836904
 30
0.0
 11
-1124.732374760432
 21
-528.5606035836902
 31
0.0
  0
ARC
  5
51
330
1F
100
AcDbEntity
  8
0-0
  6
Continuous
 62
    92
370
    13
100
AcDbCircle
 10
-349.2323747604315
 20
-439.4606035836911
 30
0.0
 40
1.5
100
AcDbArc
 50
90.0
 51
180.0
  0
LINE
  5
52
330
1F
100
AcDbEntity
  8
0-0
  6
Continuous
 62
    92
370
    13
100
AcDbLine
 10
-310.2323747604312
 20
-437.9606035836907
 30
0.0
 11
-349.2323747604315
 21
-437.9606035836907
 31
0.0
  0
ARC
  5
53
330
1F
100
AcDbEntity
  8
0-0
  6
Continuous
 62
    92
370
    13
100
AcDbCircle
 10
-310.2323747604312
 20
-439.4606035836911
 30
0.0
 40
1.5
100
AcDbArc
 50
0.0
 51
90.00000000000001
  0
LINE
  5
54
330
1F
100
AcDbEntity
  8
0-0
  6
Continuous
 62
    92
370
    13
100
AcDbLine
 10
-308.7323747604343
 20
-558.4606035836903
 30
0.0
 11
-308.7323747604343
 21
-439.4606035836911
 31
0.0
  0
ARC
  5
55
330
1F
100
AcDbEntity
  8
0-0
  6
Continuous
 62
    92
370
    13
100
AcDbCircle
 10
-310.2323747604312
 20
-558.4606035836903
 30
0.0
 40
1.5
100
AcDbArc
 50
270.0
 51
0.0
  0
LINE
  5
56
330
1F
100
AcDbEntity
  8
0-0
  6
Continuous
 62
    92
370
    13
100
AcDbLine
 10
-349.2323747604315
 20
-559.9606035836923
 30
0.0
 11
-310.2323747604312
 21
-559.9606035836923
 31
0.0
  0
LINE
  5
57
330
1F
100
AcDbEntity
  8
0-0
  6
Continuous
 62
    92
370
    13
100
AcDbLine
 10
-350.7323747604302
 20
-558.4606035836903
 30
0.0
 11
-350.7323747604302
 21
-439.4606035836911
 31
0.0
  0
ARC
  5
58
330
1F
100
AcDbEntity
  8
0-0
  6
Continuous
 62
    92
370
    13
100
AcDbCircle
 10
-349.2323747604315
 20
-558.4606035836903
 30
0.0
 40
1.5
100
AcDbArc
 50
180.0
 51
270.0
  0
ARC
  5
59
330
1F
100
AcDbEntity
  8
0-0
  6
Continuous
 62
     7
370
     9
100
AcDbCircle
 10
-329.7323747604322
 20
-528.5606035836902
 30
0.0
 40
15.0
100
AcDbArc
 50
180.0
 51
0.0
  0
ARC
  5
5A
330
1F
100
AcDbEntity
  8
0-0
  6
Continuous
 62
     7
370
     9
100
AcDbCircle
 10
-329.7323747604322
 20
-469.3606035836904
 30
0.0
 40
15.0
100
AcDbArc
 50
0.0
 51
180.0
  0
LINE
  5
5B
330
1F
100
AcDbEntity
  8
0-0
  6
Continuous
 62
     7
370
     9
100
AcDbLine
 10
-314.7323747604322
 20
-528.5606035836902
 30
0.0
 11
-314.7323747604322
 21
-469.3606035836904
 31
0.0
  0
LINE
  5
5C
330
1F
100
AcDbEntity
  8
0-0
  6
Continuous
 62
     7
370
     9
100
AcDbLine
 10
-344.7323747604322
 20
-469.3606035836904
 30
0.0
 11
-344.7323747604322
 21
-528.5606035836902
 31
0.0
  0
ARC
  5
5D
330
1F
100
AcDbEntity
  8
0-0
  6
Continuous
 62
    92
370
    13
100
AcDbCircle
 10
1138.767625239572
 20
-439.4606035836911
 30
0.0
 40
1.5
100
AcDbArc
 50
90.0
 51
180.0
  0
LINE
  5
5E
330
1F
100
AcDbEntity
  8
0-0
  6
Continuous
 62
    92
370
    13
100
AcDbLine
 10
1177.767625239571
 20
-437.9606035836907
 30
0.0
 11
1138.767625239572
 21
-437.9606035836907
 31
0.0
  0
ARC
  5
5F
330
1F
100
AcDbEntity
  8
0-0
  6
Continuous
 62
    92
370
    13
100
AcDbCircle
 10
1177.767625239571
 20
-439.4606035836911
 30
0.0
 40
1.5
100
AcDbArc
 50
0.0
 51
90.00000000000001
  0
LINE
  5
60
330
1F
100
AcDbEntity
  8
0-0
  6
Continuous
 62
    92
370
    13
100
AcDbLine
 10
1179.267625239572
 20
-558.4606035836903
 30
0.0
 11
1179.267625239572
 21
-439.4606035836911
 31
0.0
  0
ARC
  5
61
330
1F
100
AcDbEntity
  8
0-0
  6
Continuous
 62
    92
370
    13
100
AcDbCircle
 10
1177.767625239571
 20
-558.4606035836903
 30
0.0
 40
1.5
100
AcDbArc
 50
270.0
 51
0.0
  0
LINE
  5
62
330
1F
100
AcDbEntity
  8
0-0
  6
Continuous
 62
    92
370
    13
100
AcDbLine
 10
1138.767625239572
 20
-559.9606035836923
 30
0.0
 11
1177.767625239571
 21
-559.9606035836923
 31
0.0
  0
LINE
  5
63
330
1F
100
AcDbEntity
  8
0-0
  6
Continuous
 62
    92
370
    13
100
AcDbLine
 10
1137.267625239572
 20
-558.4606035836903
 30
0.0
 11
1137.267625239572
 21
-439.4606035836911
 31
0.0
  0
ARC
  5
64
330
1F
100
AcDbEntity
  8
0-0
  6
Continuous
 62
    92
370
    13
100
AcDbCircle
 10
1138.767625239572
 20
-558.4606035836903
 30
0.0
 40
1.5
100
AcDbArc
 50
180.0
 51
270.0
  0
ARC
  5
65
330
1F
100
AcDbEntity
  8
0-0
  6
Continuous
 62
     7
370
     9
100
AcDbCircle
 10
1158.267625239572
 20
-528.5606035836902
 30
0.0
 40
15.0
100
AcDbArc
 50
180.0
 51
0.0
  0
ARC
  5
66
330
1F
100
AcDbEntity
  8
0-0
  6
Continuous
 62
     7
370
     9
100
AcDbCircle
 10
1158.267625239572
 20
-469.3606035836904
 30
0.0
 40
15.0
100
AcDbArc
 50
0.0
 51
180.0
  0
LINE
  5
67
330
1F
100
AcDbEntity
  8
0-0
  6
Continuous
 62
     7
370
     9
100
AcDbLine
 10
1173.267625239572
 20
-528.5606035836902
 30
0.0
 11
1173.267625239572
 21
-469.3606035836904
 31
0.0
  0
LINE
  5
68
330
1F
100
AcDbEntity
  8
0-0
  6
Continuous
 62
     7
370
     9
100
AcDbLine
 10
1143.267625239572
 20
-469.3606035836904
 30
0.0
 11
1143.267625239572
 21
-528.5606035836902
 31
0.0
  0
LINE
  5
69
330
1F
100
AcDbEntity
  8
0-0
  6
JWW_DASHED1
 62
   120
370
     5
100
AcDbLine
 10
-1157.73237476043
 20
-1456.460603583691
 30
0.0
 11
-1160.73237476043
 21
-1456.460603583691
 31
0.0
  0
LINE
  5
6A
330
1F
100
AcDbEntity
  8
0-0
  6
JWW_DASHED1
 62
   120
370
     5
100
AcDbLine
 10
1206.267625239569
 20
-1456.460603583691
 30
0.0
 11
1209.26762523957
 21
-1456.460603583691
 31
0.0
  0
LINE
  5
6B
330
1F
100
AcDbEntity
  8
0-0
  6
Continuous
 62
    92
370
    13
100
AcDbLine
 10
-1157.73237476043
 20
-1456.460603583691
 30
0.0
 11
1206.267625239569
 21
-1456.460603583691
 31
0.0
  0
LINE
  5
6C
330
1F
100
AcDbEntity
  8
0-0
  6
Continuous
 62
    92
370
    13
100
AcDbLine
 10
-1157.73237476043
 20
-1476.460603583691
 30
0.0
 11
-1157.73237476043
 21
770.5393964163092
 31
0.0
  0
LINE
  5
6D
330
1F
100
AcDbEntity
  8
0-0
  6
Continuous
 62
    92
370
    13
100
AcDbLine
 10
-1187.73237476043
 20
770.5393964163092
 30
0.0
 11
1236.267625239569
 21
770.5393964163092
 31
0.0
  0
LINE
  5
6E
330
1F
100
AcDbEntity
  8
0-0
  6
Continuous
 62
    92
370
    13
100
AcDbLine
 10
-1157.73237476043
 20
734.5393964163078
 30
0.0
 11
1206.267625239569
 21
734.5393964163078
 31
0.0
  0
LINE
  5
6F
330
1F
100
AcDbEntity
  8
0-0
  6
Continuous
 62
    92
370
    13
100
AcDbLine
 10
1206.267625239569
 20
-1476.460603583691
 30
0.0
 11
1206.267625239569
 21
770.5393964163092
 31
0.0
  0
LINE
  5
70
330
1F
100
AcDbEntity
  8
0-0
  6
Continuous
 62
    92
370
    13
100
AcDbLine
 10
1236.267625239569
 20
-1476.460603583691
 30
0.0
 11
1236.267625239569
 21
770.5393964163092
 31
0.0
  0
LINE
  5
71
330
1F
100
AcDbEntity
  8
0-0
  6
Continuous
 62
    92
370
    13
100
AcDbLine
 10
-1187.73237476043
 20
-1476.460603583691
 30
0.0
 11
-1187.73237476043
 21
770.5393964163092
 31
0.0
  0
LINE
  5
72
330
1F
100
AcDbEntity
  8
0-0
  6
JWW_DASHED1
 62
   120
370
     5
100
AcDbLine
 10
-1160.73237476043
 20
-1456.460603583691
 30
0.0
 11
-1160.73237476043
 21
726.5393964163083
 31
0.0
  0
LINE
  5
73
330
1F
100
AcDbEntity
  8
0-0
  6
Continuous
 62
    92
370
    13
100
AcDbLine
 10
399.2676252395698
 20
-1456.460603583691
 30
0.0
 11
399.2676252395698
 21
726.5393964163083
 31
0.0
  0
LINE
  5
74
330
1F
100
AcDbEntity
  8
0-0
  6
JWW_DASHED1
 62
   120
370
     5
100
AcDbLine
 10
-1160.73237476043
 20
726.5393964163083
 30
0.0
 11
-1157.73237476043
 21
726.5393964163083
 31
0.0
  0
LINE
  5
75
330
1F
100
AcDbEntity
  8
0-0
  6
JWW_DASHED1
 62
   120
370
     5
100
AcDbLine
 10
-350.7323747604302
 20
-1456.460603583691
 30
0.0
 11
-350.7323747604302
 21
726.5393964163083
 31
0.0
  0
LINE
  5
76
330
1F
100
AcDbEntity
  8
0-0
  6
JWW_DASHED1
 62
   120
370
     5
100
AcDbLine
 10
429.2676252395698
 20
-1456.460603583691
 30
0.0
 11
429.2676252395698
 21
726.5393964163083
 31
0.0
  0
LINE
  5
77
330
1F
100
AcDbEntity
  8
0-0
  6
JWW_DASHED1
 62
   120
370
     5
100
AcDbLine
 10
1209.26762523957
 20
-1456.460603583691
 30
0.0
 11
1209.26762523957
 21
726.5393964163083
 31
0.0
  0
LINE
  5
78
330
1F
100
AcDbEntity
  8
0-0
  6
JWW_DASHED1
 62
   120
370
     5
100
AcDbLine
 10
1209.26762523957
 20
726.5393964163083
 30
0.0
 11
1206.267625239569
 21
726.5393964163083
 31
0.0
  0
LINE
  5
79
330
1F
100
AcDbEntity
  8
0-0
  6
Continuous
 62
    92
370
    13
100
AcDbLine
 10
-1157.73237476043
 20
726.5393964163083
 30
0.0
 11
1206.267625239569
 21
726.5393964163083
 31
0.0
  0
LINE
  5
7A
330
1F
100
AcDbEntity
  8
0-0
  6
Continuous
 62
    92
370
    13
100
AcDbLine
 10
-380.7323747604302
 20
726.5393964163083
 30
0.0
 11
-380.7323747604302
 21
-1456.460603583691
 31
0.0
  0
LINE
  5
7B
330
1F
100
AcDbEntity
  8
0-0
  6
Continuous
 62
    92
370
    13
100
AcDbLine
 10
-1050.732374760431
 20
-1306.460603583691
 30
0.0
 11
-460.732374760429
 21
-1306.460603583691
 31
0.0
  0
LINE
  5
7C
330
1F
100
AcDbEntity
  8
0-0
  6
Continuous
 62
    92
370
    13
100
AcDbLine
 10
-270.7323747604313
 20
-1306.460603583691
 30
0.0
 11
319.267625239571
 21
-1306.460603583691
 31
0.0
  0
LINE
  5
7D
330
1F
100
AcDbEntity
  8
0-0
  6
Continuous
 62
    92
370
    13
100
AcDbLine
 10
509.2676252395687
 20
-1306.460603583691
 30
0.0
 11
1099.267625239571
 21
-1306.460603583691
 31
0.0
  0
LINE
  5
7E
330
1F
100
AcDbEntity
  8
0-0
  6
Continuous
 62
    92
370
    13
100
AcDbLine
 10
-1050.732374760431
 20
591.5393964163083
 30
0.0
 11
-460.732374760429
 21
591.5393964163083
 31
0.0
  0
LINE
  5
7F
330
1F
100
AcDbEntity
  8
0-0
  6
Continuous
 62
    92
370
    13
100
AcDbLine
 10
-270.7323747604313
 20
591.5393964163083
 30
0.0
 11
319.267625239571
 21
591.5393964163083
 31
0.0
  0
LINE
  5
80
330
1F
100
AcDbEntity
  8
0-0
  6
Continuous
 62
    92
370
    13
100
AcDbLine
 10
509.2676252395687
 20
591.5393964163083
 30
0.0
 11
1099.267625239571
 21
591.5393964163083
 31
0.0
  0
LINE
  5
81
330
1F
100
AcDbEntity
  8
0-0
  6
Continuous
 62
    92
370
    13
100
AcDbLine
 10
-1050.732374760431
 20
-513.460603583692
 30
0.0
 11
-460.732374760429
 21
-513.460603583692
 31
0.0
  0
LINE
  5
82
330
1F
100
AcDbEntity
  8
0-0
  6
Continuous
 62
    92
370
    13
100
AcDbLine
 10
-1050.732374760431
 20
-383.4606035836921
 30
0.0
 11
-460.732374760429
 21
-383.4606035836921
 31
0.0
  0
LINE
  5
83
330
1F
100
AcDbEntity
  8
0-0
  6
JWW_DASHED1
 62
   120
370
     5
100
AcDbLine
 10
-465.1881531420032
 20
-383.4606035836759
 30
0.0
 11
-460.7323747604461
 21
-379.0048252021176
 31
0.0
  0
LINE
  5
84
330
1F
100
AcDbEntity
  8
0-0
  6
JWW_DASHED1
 62
   120
370
     5
100
AcDbLine
 10
-472.2592209538801
 20
-383.4606035836866
 30
0.0
 11
-460.7323747604358
 21
-371.9337573902411
 31
0.0
  0
LINE
  5
85
330
1F
100
AcDbEntity
  8
0-0
  6
JWW_DASHED1
 62
   120
370
     5
100
AcDbLine
 10
-479.3302887657434
 20
-383.4606035836806
 30
0.0
 11
-460.7323747604393
 21
-364.8626895783799
 31
0.0
  0
LINE
  5
86
330
1F
100
AcDbEntity
  8
0-0
  6
JWW_DASHED1
 62
   120
370
     5
100
AcDbLine
 10
-486.4013565776032
 20
-383.4606035836751
 30
0.0
 11
-460.7323747604461
 21
-357.7916217665193
 31
0.0
  0
LINE
  5
87
330
1F
100
AcDbEntity
  8
0-0
  6
JWW_DASHED1
 62
   120
370
     5
100
AcDbLine
 10
-493.4724243894801
 20
-383.4606035836853
 30
0.0
 11
-460.7323747604358
 21
-350.7205539546428
 31
0.0
  0
LINE
  5
88
330
1F
100
AcDbEntity
  8
0-0
  6
JWW_DASHED1
 62
   120
370
     5
100
AcDbLine
 10
-500.54349220134
 20
-383.4606035836794
 30
0.0
 11
-460.7323747604427
 21
-343.6494861427812
 31
0.0
  0
LINE
  5
89
330
1F
100
AcDbEntity
  8
0-0
  6
JWW_DASHED1
 62
   120
370
     5
100
AcDbLine
 10
-507.6145600132169
 20
-383.4606035836883
 30
0.0
 11
-460.7323747604324
 21
-336.5784183309056
 31
0.0
  0
LINE
  5
8A
330
1F
100
AcDbEntity
  8
0-0
  6
JWW_DASHED1
 62
   120
370
     5
100
AcDbLine
 10
-514.6856278250767
 20
-383.4606035836836
 30
0.0
 11
-460.7323747604393
 21
-329.5073505190448
 31
0.0
  0
LINE
  5
8B
330
1F
100
AcDbEntity
  8
0-0
  6
JWW_DASHED1
 62
   120
370
     5
100
AcDbLine
 10
-521.7566956369366
 20
-383.4606035836777
 30
0.0
 11
-460.7323747604427
 21
-322.4362827071829
 31
0.0
  0
LINE
  5
8C
330
1F
100
AcDbEntity
  8
0-0
  6
JWW_DASHED1
 62
   120
370
     5
100
AcDbLine
 10
-528.8277634488135
 20
-383.4606035836862
 30
0.0
 11
-460.7323747604358
 21
-315.3652148953073
 31
0.0
  0
LINE
  5
8D
330
1F
100
AcDbEntity
  8
0-0
  6
JWW_DASHED1
 62
   120
370
     5
100
AcDbLine
 10
-535.8988312606767
 20
-383.4606035836823
 30
0.0
 11
-460.7323747604393
 21
-308.2941470834465
 31
0.0
  0
LINE
  5
8E
330
1F
100
AcDbEntity
  8
0-0
  6
JWW_DASHED1
 62
   120
370
     5
100
AcDbLine
 10
-542.9698990725536
 20
-383.4606035836921
 30
0.0
 11
-460.7323747604324
 21
-301.2230792715701
 31
0.0
  0
LINE
  5
8F
330
1F
100
AcDbEntity
  8
0-0
  6
JWW_DASHED1
 62
   120
370
     5
100
AcDbLine
 10
-550.0409668844101
 20
-383.4606035836845
 30
0.0
 11
-460.7323747604358
 21
-294.1520114597094
 31
0.0
  0
LINE
  5
90
330
1F
100
AcDbEntity
  8
0-0
  6
JWW_DASHED1
 62
   120
370
     5
100
AcDbLine
 10
-557.1120346962767
 20
-383.4606035836811
 30
0.0
 11
-460.7323747604427
 21
-287.0809436478482
 31
0.0
  0
LINE
  5
91
330
1F
100
AcDbEntity
  8
0-0
  6
JWW_DASHED1
 62
   120
370
     5
100
AcDbLine
 10
-564.1831025081502
 20
-383.4606035836913
 30
0.0
 11
-460.7323747604324
 21
-280.0098758359718
 31
0.0
  0
LINE
  5
92
330
1F
100
AcDbEntity
  8
0-0
  6
JWW_DASHED1
 62
   120
370
     5
100
AcDbLine
 10
-571.2541703200101
 20
-383.4606035836828
 30
0.0
 11
-460.7323747604358
 21
-272.9388080241094
 31
0.0
  0
LINE
  5
93
330
1F
100
AcDbEntity
  8
0-0
  6
JWW_DASHED1
 62
   120
370
     5
100
AcDbLine
 10
-578.325238131829
 20
-383.4606035836883
 30
0.0
 11
-460.7323747604324
 21
-265.8677402122935
 31
0.0
  0
LINE
  5
94
330
1F
100
AcDbEntity
  8
0-0
  6
JWW_DASHED1
 62
   120
370
     5
100
AcDbLine
 10
-585.3963059436923
 20
-383.4606035836857
 30
0.0
 11
-460.7323747604393
 21
-258.7966724004327
 31
0.0
  0
LINE
  5
95
330
1F
100
AcDbEntity
  8
0-0
  6
JWW_DASHED1
 62
   120
370
     5
100
AcDbLine
 10
-592.4673737555521
 20
-383.4606035836798
 30
0.0
 11
-460.7323747604427
 21
-251.7256045885695
 31
0.0
  0
LINE
  5
96
330
1F
100
AcDbEntity
  8
0-0
  6
JWW_DASHED1
 62
   120
370
     5
100
AcDbLine
 10
-599.5384415674256
 20
-383.4606035836862
 30
0.0
 11
-460.7323747604358
 21
-244.6545367766952
 31
0.0
  0
LINE
  5
97
330
1F
100
AcDbEntity
  8
0-0
  6
JWW_DASHED1
 62
   120
370
     5
100
AcDbLine
 10
-606.6095093792889
 20
-383.4606035836845
 30
0.0
 11
-460.7323747604393
 21
-237.5834689648345
 31
0.0
  0
LINE
  5
98
330
1F
100
AcDbEntity
  8
0-0
  6
JWW_DASHED1
 62
   120
370
     5
100
AcDbLine
 10
-613.6805771911692
 20
-383.4606035836943
 30
0.0
 11
-460.7323747604324
 21
-230.512401152958
 31
0.0
  0
LINE
  5
99
330
1F
100
AcDbEntity
  8
0-0
  6
JWW_DASHED1
 62
   120
370
     5
100
AcDbLine
 10
-620.7516450030222
 20
-383.4606035836845
 30
0.0
 11
-460.7323747604358
 21
-223.4413333410973
 31
0.0
  0
LINE
  5
9A
330
1F
100
AcDbEntity
  8
0-0
  6
JWW_DASHED1
 62
   120
370
     5
100
AcDbLine
 10
-627.8227128148889
 20
-383.4606035836828
 30
0.0
 11
-460.7323747604427
 21
-216.3702655292361
 31
0.0
  0
LINE
  5
9B
330
1F
100
AcDbEntity
  8
0-0
  6
JWW_DASHED1
 62
   120
370
     5
100
AcDbLine
 10
-634.8937806267658
 20
-383.460603583693
 30
0.0
 11
-460.7323747604324
 21
-209.2991977173597
 31
0.0
  0
LINE
  5
9C
330
1F
100
AcDbEntity
  8
0-0
  6
JWW_DASHED1
 62
   120
370
     5
100
AcDbLine
 10
-641.9648484386222
 20
-383.4606035836828
 30
0.0
 11
-460.7323747604358
 21
-202.228129905496
 31
0.0
  0
LINE
  5
9D
330
1F
100
AcDbEntity
  8
0-0
  6
JWW_DASHED1
 62
   120
370
     5
100
AcDbLine
 10
-649.0359162504889
 20
-383.4606035836819
 30
0.0
 11
-460.7323747604461
 21
-195.1570620936383
 31
0.0
  0
LINE
  5
9E
330
1F
100
AcDbEntity
  8
0-0
  6
JWW_DASHED1
 62
   120
370
     5
100
AcDbLine
 10
-656.1069840623624
 20
-383.4606035836913
 30
0.0
 11
-460.7323747604324
 21
-188.0859942817614
 31
0.0
  0
LINE
  5
9F
330
1F
100
AcDbEntity
  8
0-0
  6
JWW_DASHED1
 62
   120
370
     5
100
AcDbLine
 10
-663.1780518742256
 20
-383.4606035836862
 30
0.0
 11
-460.7323747604393
 21
-181.0149264698977
 31
0.0
  0
LINE
  5
A0
330
1F
100
AcDbEntity
  8
0-0
  6
JWW_DASHED1
 62
   120
370
     5
100
AcDbLine
 10
-670.2491196860889
 20
-383.4606035836806
 30
0.0
 11
-460.7323747604461
 21
-173.94385865804
 31
0.0
  0
LINE
  5
A1
330
1F
100
AcDbEntity
  8
0-0
  6
JWW_DASHED1
 62
   120
370
     5
100
AcDbLine
 10
-677.3201874979624
 20
-383.4606035836904
 30
0.0
 11
-460.7323747604358
 21
-166.8727908461635
 31
0.0
  0
LINE
  5
A2
330
1F
100
AcDbEntity
  8
0-0
  6
JWW_DASHED1
 62
   120
370
     5
100
AcDbLine
 10
-684.3912553098222
 20
-383.4606035836845
 30
0.0
 11
-460.7323747604393
 21
-159.801723034299
 31
0.0
  0
LINE
  5
A3
330
1F
100
AcDbEntity
  8
0-0
  6
JWW_DASHED1
 62
   120
370
     5
100
AcDbLine
 10
-691.4623231216855
 20
-383.4606035836794
 30
0.0
 11
-460.7323747604495
 21
-152.7306552224421
 31
0.0
  0
LINE
  5
A4
330
1F
100
AcDbEntity
  8
0-0
  6
JWW_DASHED1
 62
   120
370
     5
100
AcDbLine
 10
-698.5333909335624
 20
-383.4606035836887
 30
0.0
 11
-460.7323747604393
 21
-145.6595874105652
 31
0.0
  0
LINE
  5
A5
330
1F
100
AcDbEntity
  8
0-0
  6
JWW_DASHED1
 62
   120
370
     5
100
AcDbLine
 10
-705.6044587454222
 20
-383.4606035836836
 30
0.0
 11
-460.7323747604393
 21
-138.5885195987007
 31
0.0
  0
LINE
  5
A6
330
1F
100
AcDbEntity
  8
0-0
  6
JWW_DASHED1
 62
   120
370
     5
100
AcDbLine
 10
-712.6755265572923
 20
-383.460603583687
 30
0.0
 11
-460.7323747604324
 21
-131.517451786828
 31
0.0
  0
LINE
  5
A7
330
1F
100
AcDbEntity
  8
0-0
  6
JWW_DASHED1
 62
   120
370
     5
100
AcDbLine
 10
-719.7465943691624
 20
-383.4606035836879
 30
0.0
 11
-460.7323747604393
 21
-124.4463839749673
 31
0.0
  0
LINE
  5
A8
330
1F
100
AcDbEntity
  8
0-0
  6
JWW_DASHED1
 62
   120
370
     5
100
AcDbLine
 10
-726.8176621810222
 20
-383.4606035836823
 30
0.0
 11
-460.7323747604427
 21
-117.3753161631019
 31
0.0
  0
LINE
  5
A9
330
1F
100
AcDbEntity
  8
0-0
  6
JWW_DASHED1
 62
   120
370
     5
100
AcDbLine
 10
-733.8887299928923
 20
-383.4606035836849
 30
0.0
 11
-460.7323747604358
 21
-110.3042483512297
 31
0.0
  0
LINE
  5
AA
330
1F
100
AcDbEntity
  8
0-0
  6
JWW_DASHED1
 62
   120
370
     5
100
AcDbLine
 10
-740.959797804759
 20
-383.4606035836866
 30
0.0
 11
-460.7323747604427
 21
-103.233180539369
 31
0.0
  0
LINE
  5
AB
330
1F
100
AcDbEntity
  8
0-0
  6
JWW_DASHED1
 62
   120
370
     5
100
AcDbLine
 10
-748.0308656166359
 20
-383.4606035836964
 30
0.0
 11
-460.7323747604324
 21
-96.16211272749212
 31
0.0
  0
LINE
  5
AC
330
1F
100
AcDbEntity
  8
0-0
  6
JWW_DASHED1
 62
   120
370
     5
100
AcDbLine
 10
-755.1019334284889
 20
-383.4606035836832
 30
0.0
 11
-460.7323747604393
 21
-89.09104491563184
 31
0.0
  0
LINE
  5
AD
330
1F
100
AcDbEntity
  8
0-0
  6
JWW_DASHED1
 62
   120
370
     5
100
AcDbLine
 10
-762.173001240359
 20
-383.4606035836853
 30
0.0
 11
-460.7323747604461
 21
-82.01997710377114
 31
0.0
  0
LINE
  5
AE
330
1F
100
AcDbEntity
  8
0-0
  6
JWW_DASHED1
 62
   120
370
     5
100
AcDbLine
 10
-769.2440690522359
 20
-383.4606035836956
 30
0.0
 11
-460.7323747604324
 21
-74.94890929189467
 31
0.0
  0
LINE
  5
AF
330
1F
100
AcDbEntity
  8
0-0
  6
JWW_DASHED1
 62
   120
370
     5
100
AcDbLine
 10
-776.3151368640889
 20
-383.4606035836811
 30
0.0
 11
-460.7323747604358
 21
-67.87784148002842
 31
0.0
  0
LINE
  5
B0
330
1F
100
AcDbEntity
  8
0-0
  6
JWW_DASHED1
 62
   120
370
     5
100
AcDbLine
 10
-783.3862046759556
 20
-383.460603583684
 30
0.0
 11
-460.7323747604461
 21
-60.80677366817284
 31
0.0
  0
LINE
  5
B1
330
1F
100
AcDbEntity
  8
0-0
  6
JWW_DASHED1
 62
   120
370
     5
100
AcDbLine
 10
-790.4572724878359
 20
-383.4606035836943
 30
0.0
 11
-460.7323747604358
 21
-53.73570585629636
 31
0.0
  0
LINE
  5
B2
330
1F
100
AcDbEntity
  8
0-0
  6
JWW_DASHED1
 62
   120
370
     5
100
AcDbLine
 10
-797.5283402996957
 20
-383.4606035836883
 30
0.0
 11
-460.7323747604358
 21
-46.66463804443012
 31
0.0
  0
LINE
  5
B3
330
1F
100
AcDbEntity
  8
0-0
  6
JWW_DASHED1
 62
   120
370
     5
100
AcDbLine
 10
-804.5994081115556
 20
-383.4606035836828
 30
0.0
 11
-460.7323747604461
 21
-39.59357023257496
 31
0.0
  0
LINE
  5
B4
330
1F
100
AcDbEntity
  8
0-0
  6
JWW_DASHED1
 62
   120
370
     5
100
AcDbLine
 10
-811.6704759234325
 20
-383.460603583693
 30
0.0
 11
-460.7323747604393
 21
-32.52250242069806
 31
0.0
  0
LINE
  5
B5
330
1F
100
AcDbEntity
  8
0-0
  6
JWW_DASHED1
 62
   120
370
     5
100
AcDbLine
 10
-818.7415437352616
 20
-383.4606035836845
 30
0.0
 11
-460.7323747604393
 21
-25.45143460886123
 31
0.0
  0
LINE
  5
B6
330
1F
100
AcDbEntity
  8
0-0
  6
JWW_DASHED1
 62
   120
370
     5
100
AcDbLine
 10
-825.812611547101
 20
-383.4606035836832
 30
0.0
 11
-460.7323747604393
 21
-18.38036679701972
 31
0.0
  0
LINE
  5
B7
330
1F
100
AcDbEntity
  8
0-0
  6
JWW_DASHED1
 62
   120
370
     5
100
AcDbLine
 10
-832.8836793589711
 20
-383.460603583687
 30
0.0
 11
-460.7323747604461
 21
-11.30929898515902
 31
0.0
  0
LINE
  5
B8
330
1F
100
AcDbEntity
  8
0-0
  6
JWW_DASHED1
 62
   120
370
     5
100
AcDbLine
 10
-839.954747170848
 20
-383.4606035836973
 30
0.0
 11
-460.7323747604324
 21
-4.238231173282543
 31
0.0
  0
LINE
  5
B9
330
1F
100
AcDbEntity
  8
0-0
  6
JWW_DASHED1
 62
   120
370
     5
100
AcDbLine
 10
-847.025814982701
 20
-383.4606035836811
 30
0.0
 11
-460.7323747604324
 21
2.832836638584979
 31
0.0
  0
LINE
  5
BA
330
1F
100
AcDbEntity
  8
0-0
  6
JWW_DASHED1
 62
   120
370
     5
100
AcDbLine
 10
-854.0968827945711
 20
-383.4606035836853
 30
0.0
 11
-460.7323747604461
 21
9.903904450439285
 31
0.0
  0
LINE
  5
BB
330
1F
100
AcDbEntity
  8
0-0
  6
JWW_DASHED1
 62
   120
370
     5
100
AcDbLine
 10
-861.167950606448
 20
-383.4606035836956
 30
0.0
 11
-460.7323747604358
 21
16.97497226231576
 31
0.0
  0
LINE
  5
BC
330
1F
100
AcDbEntity
  8
0-0
  6
JWW_DASHED1
 62
   120
370
     5
100
AcDbLine
 10
-868.2390184183079
 20
-383.4606035836904
 30
0.0
 11
-460.7323747604358
 21
24.04604007418328
 31
0.0
  0
LINE
  5
BD
330
1F
100
AcDbEntity
  8
0-0
  6
JWW_DASHED1
 62
   120
370
     5
100
AcDbLine
 10
-875.3100862301677
 20
-383.4606035836845
 30
0.0
 11
-460.7323747604461
 21
31.11710788603716
 31
0.0
  0
LINE
  5
BE
330
1F
100
AcDbEntity
  8
0-0
  6
JWW_DASHED1
 62
   120
370
     5
100
AcDbLine
 10
-882.381154042048
 20
-383.4606035836947
 30
0.0
 11
-460.7323747604393
 21
38.18817569791406
 31
0.0
  0
LINE
  5
BF
330
1F
100
AcDbEntity
  8
0-0
  6
JWW_DASHED1
 62
   120
370
     5
100
AcDbLine
 10
-889.4522218539079
 20
-383.4606035836887
 30
0.0
 11
-460.7323747604358
 21
45.25924350978158
 31
0.0
  0
LINE
  5
C0
330
1F
100
AcDbEntity
  8
0-0
  6
JWW_DASHED1
 62
   120
370
     5
100
AcDbLine
 10
-896.5232896657677
 20
-383.4606035836832
 30
0.0
 11
-460.7323747604495
 21
52.33031132163546
 31
0.0
  0
LINE
  5
C1
330
1F
100
AcDbEntity
  8
0-0
  6
JWW_DASHED1
 62
   120
370
     5
100
AcDbLine
 10
-903.5943574776446
 20
-383.4606035836935
 30
0.0
 11
-460.7323747604393
 21
59.40137913351194
 31
0.0
  0
LINE
  5
C2
330
1F
100
AcDbEntity
  8
0-0
  6
JWW_DASHED1
 62
   120
370
     5
100
AcDbLine
 10
-910.6654252895079
 20
-383.4606035836874
 30
0.0
 11
-460.7323747604393
 21
66.47244694537989
 31
0.0
  0
LINE
  5
C3
330
1F
100
AcDbEntity
  8
0-0
  6
JWW_DASHED1
 62
   120
370
     5
100
AcDbLine
 10
-917.7364931013711
 20
-383.4606035836853
 30
0.0
 11
-460.7323747604358
 21
73.54351475724954
 31
0.0
  0
LINE
  5
C4
330
1F
100
AcDbEntity
  8
0-0
  6
JWW_DASHED1
 62
   120
370
     5
100
AcDbLine
 10
-924.8075609132446
 20
-383.4606035836921
 30
0.0
 11
-460.7323747604427
 21
80.61458256911024
 31
0.0
  0
LINE
  5
C5
330
1F
100
AcDbEntity
  8
0-0
  6
JWW_DASHED1
 62
   120
370
     5
100
AcDbLine
 10
-931.8786287251215
 20
-383.460603583702
 30
0.0
 11
-460.7323747604324
 21
87.68565038098671
 31
0.0
  0
LINE
  5
C6
330
1F
100
AcDbEntity
  8
0-0
  6
JWW_DASHED1
 62
   120
370
     5
100
AcDbLine
 10
-938.9496965369677
 20
-383.4606035836836
 30
0.0
 11
-460.7323747604393
 21
94.75671819284784
 31
0.0
  0
LINE
  5
C7
330
1F
100
AcDbEntity
  8
0-0
  6
JWW_DASHED1
 62
   120
370
     5
100
AcDbLine
 10
-946.0207643488412
 20
-383.4606035836908
 30
0.0
 11
-460.7323747604427
 21
101.8277860047085
 31
0.0
  0
LINE
  5
C8
330
1F
100
AcDbEntity
  8
0-0
  6
JWW_DASHED1
 62
   120
370
     5
100
AcDbLine
 10
-953.0918321607181
 20
-383.4606035837007
 30
0.0
 11
-460.7323747604324
 21
108.898853816585
 31
0.0
  0
LINE
  5
C9
330
1F
100
AcDbEntity
  8
0-0
  6
JWW_DASHED1
 62
   120
370
     5
100
AcDbLine
 10
-960.1628999725677
 20
-383.4606035836819
 30
0.0
 11
-460.7323747604393
 21
115.9699216284457
 31
0.0
  0
LINE
  5
CA
330
1F
100
AcDbEntity
  8
0-0
  6
JWW_DASHED1
 62
   120
370
     5
100
AcDbLine
 10
-967.2339677844412
 20
-383.4606035836896
 30
0.0
 11
-460.7323747604461
 21
123.0409894403064
 31
0.0
  0
LINE
  5
CB
330
1F
100
AcDbEntity
  8
0-0
  6
JWW_DASHED1
 62
   120
370
     5
100
AcDbLine
 10
-974.3050355963181
 20
-383.460603583699
 30
0.0
 11
-460.7323747604358
 21
130.1120572521833
 31
0.0
  0
LINE
  5
CC
330
1F
100
AcDbEntity
  8
0-0
  6
JWW_DASHED1
 62
   120
370
     5
100
AcDbLine
 10
-981.3761034081643
 20
-383.4606035836798
 30
0.0
 11
-460.7323747604324
 21
137.1831250640525
 31
0.0
  0
LINE
  5
CD
330
1F
100
AcDbEntity
  8
0-0
  6
JWW_DASHED1
 62
   120
370
     5
100
AcDbLine
 10
-988.4471712200412
 20
-383.4606035836883
 30
0.0
 11
-460.7323747604461
 21
144.2541928759047
 31
0.0
  0
LINE
  5
CE
330
1F
100
AcDbEntity
  8
0-0
  6
JWW_DASHED1
 62
   120
370
     5
100
AcDbLine
 10
-995.5182390319147
 20
-383.4606035836981
 30
0.0
 11
-460.7323747604393
 21
151.3252606877812
 31
0.0
  0
LINE
  5
CF
330
1F
100
AcDbEntity
  8
0-0
  6
JWW_DASHED1
 62
   120
370
     5
100
AcDbLine
 10
-1002.589306843778
 20
-383.4606035836921
 30
0.0
 11
-460.7323747604324
 21
158.3963284996508
 31
0.0
  0
LINE
  5
D0
330
1F
100
AcDbEntity
  8
0-0
  6
JWW_DASHED1
 62
   120
370
     5
100
AcDbLine
 10
-1009.660374655638
 20
-383.460603583687
 30
0.0
 11
-460.7323747604495
 21
165.467396311503
 31
0.0
  0
LINE
  5
D1
330
1F
100
AcDbEntity
  8
0-0
  6
JWW_DASHED1
 62
   120
370
     5
100
AcDbLine
 10
-1016.731442467515
 20
-383.4606035836969
 30
0.0
 11
-460.7323747604393
 21
172.5384641233791
 31
0.0
  0
LINE
  5
D2
330
1F
100
AcDbEntity
  8
0-0
  6
JWW_DASHED1
 62
   120
370
     5
100
AcDbLine
 10
-1023.802510279375
 20
-383.4606035836913
 30
0.0
 11
-460.7323747604358
 21
179.6095319352492
 31
0.0
  0
LINE
  5
D3
330
1F
100
AcDbEntity
  8
0-0
  6
JWW_DASHED1
 62
   120
370
     5
100
AcDbLine
 10
-1030.873578091238
 20
-383.4606035836862
 30
0.0
 11
-460.7323747604358
 21
186.6805997471167
 31
0.0
  0
LINE
  5
D4
330
1F
100
AcDbEntity
  8
0-0
  6
JWW_DASHED1
 62
   120
370
     5
100
AcDbLine
 10
-1037.944645903115
 20
-383.4606035836956
 30
0.0
 11
-460.7323747604393
 21
193.7516675589774
 31
0.0
  0
LINE
  5
D5
330
1F
100
AcDbEntity
  8
0-0
  6
JWW_DASHED1
 62
   120
370
     5
100
AcDbLine
 10
-1045.015713714975
 20
-383.46060358369
 30
0.0
 11
-460.7323747604393
 21
200.8227353708475
 31
0.0
  0
LINE
  5
D6
330
1F
100
AcDbEntity
  8
0-0
  6
JWW_DASHED1
 62
   120
370
     5
100
AcDbLine
 10
-1050.732374760438
 20
-382.1061968172864
 30
0.0
 11
-460.7323747604358
 21
207.893803182715
 31
0.0
  0
LINE
  5
D7
330
1F
100
AcDbEntity
  8
0-0
  6
JWW_DASHED1
 62
   120
370
     5
100
AcDbLine
 10
-1050.732374760428
 20
-375.0351290054104
 30
0.0
 11
-460.7323747604427
 21
214.9648709945757
 31
0.0
  0
LINE
  5
D8
330
1F
100
AcDbEntity
  8
0-0
  6
JWW_DASHED1
 62
   120
370
     5
100
AcDbLine
 10
-1050.732374760421
 20
-367.9640611935923
 30
0.0
 11
-460.7323747604393
 21
222.0359388063933
 31
0.0
  0
LINE
  5
D9
330
1F
100
AcDbEntity
  8
0-0
  6
JWW_DASHED1
 62
   120
370
     5
100
AcDbLine
 10
-1050.732374760428
 20
-360.8929933817316
 30
0.0
 11
-460.7323747604324
 21
229.1070066182643
 31
0.0
  0
LINE
  5
DA
330
1F
100
AcDbEntity
  8
0-0
  6
JWW_DASHED1
 62
   120
370
     5
100
AcDbLine
 10
-1050.732374760435
 20
-353.8219255698709
 30
0.0
 11
-460.7323747604495
 21
236.1780744301147
 31
0.0
  0
LINE
  5
DB
330
1F
100
AcDbEntity
  8
0-0
  6
JWW_DASHED1
 62
   120
370
     5
100
AcDbLine
 10
-1050.732374760425
 20
-346.750857757994
 30
0.0
 11
-460.7323747604393
 21
243.2491422419916
 31
0.0
  0
LINE
  5
DC
330
1F
100
AcDbEntity
  8
0-0
  6
JWW_DASHED1
 62
   120
370
     5
100
AcDbLine
 10
-1050.732374760431
 20
-339.6797899461329
 30
0.0
 11
-460.7323747604324
 21
250.3202100538626
 31
0.0
  0
LINE
  5
DD
330
1F
100
AcDbEntity
  8
0-0
  6
JWW_DASHED1
 62
   120
370
     5
100
AcDbLine
 10
-1050.732374760435
 20
-332.6087221342726
 30
0.0
 11
-460.7323747604358
 21
257.3912778657288
 31
0.0
  0
LINE
  5
DE
330
1F
100
AcDbEntity
  8
0-0
  6
JWW_DASHED1
 62
   120
370
     5
100
AcDbLine
 10
-1050.732374760428
 20
-325.5376543223957
 30
0.0
 11
-460.7323747604393
 21
264.4623456775895
 31
0.0
  0
LINE
  5
DF
330
1F
100
AcDbEntity
  8
0-0
  6
JWW_DASHED1
 62
   120
370
     5
100
AcDbLine
 10
-1050.732374760431
 20
-318.4665865105342
 30
0.0
 11
-460.7323747604358
 21
271.5334134894608
 31
0.0
  0
LINE
  5
E0
330
1F
100
AcDbEntity
  8
0-0
  6
JWW_DASHED1
 62
   120
370
     5
100
AcDbLine
 10
-1050.732374760438
 20
-311.3955186986743
 30
0.0
 11
-460.7323747604358
 21
278.6044813013271
 31
0.0
  0
LINE
  5
E1
330
1F
100
AcDbEntity
  8
0-0
  6
JWW_DASHED1
 62
   120
370
     5
100
AcDbLine
 10
-1050.732374760428
 20
-304.3244508867979
 30
0.0
 11
-460.7323747604427
 21
285.6755491131878
 31
0.0
  0
LINE
  5
E2
330
1F
100
AcDbEntity
  8
0-0
  6
JWW_DASHED1
 62
   120
370
     5
100
AcDbLine
 10
-1050.732374760418
 20
-297.2533830749214
 30
0.0
 11
-460.7323747604324
 21
292.7466169250642
 31
0.0
  0
LINE
  5
E3
330
1F
100
AcDbEntity
  8
0-0
  6
JWW_DASHED1
 62
   120
370
     5
100
AcDbLine
 10
-1050.732374760442
 20
-290.182315263076
 30
0.0
 11
-460.7323747604393
 21
299.817684736925
 31
0.0
  0
LINE
  5
E4
330
1F
100
AcDbEntity
  8
0-0
  6
JWW_DASHED1
 62
   120
370
     5
100
AcDbLine
 10
-1050.732374760431
 20
-283.1112474512
 30
0.0
 11
-460.7323747604461
 21
306.8887525487861
 31
0.0
  0
LINE
  5
E5
330
1F
100
AcDbEntity
  8
0-0
  6
JWW_DASHED1
 62
   120
370
     5
100
AcDbLine
 10
-1050.732374760421
 20
-276.0401796393231
 30
0.0
 11
-460.7323747604358
 21
313.9598203606625
 31
0.0
  0
LINE
  5
E6
330
1F
100
AcDbEntity
  8
0-0
  6
JWW_DASHED1
 62
   120
370
     5
100
AcDbLine
 10
-1050.732374760442
 20
-268.969111827476
 30
0.0
 11
-460.732374760429
 21
321.0308881725348
 31
0.0
  0
LINE
  5
E7
330
1F
100
AcDbEntity
  8
0-0
  6
JWW_DASHED1
 62
   120
370
     5
100
AcDbLine
 10
-1050.732374760435
 20
-261.8980440156017
 30
0.0
 11
-460.7323747604461
 21
328.1019559843839
 31
0.0
  0
LINE
  5
E8
330
1F
100
AcDbEntity
  8
0-0
  6
JWW_DASHED1
 62
   120
370
     5
100
AcDbLine
 10
-1050.732374760421
 20
-254.8269762037252
 30
0.0
 11
-460.7323747604358
 21
335.1730237962605
 31
0.0
  0
LINE
  5
E9
330
1F
100
AcDbEntity
  8
0-0
  6
JWW_DASHED1
 62
   120
370
     5
100
AcDbLine
 10
-1050.732374760428
 20
-247.7559083918624
 30
0.0
 11
-460.7323747604324
 21
342.2440916081331
 31
0.0
  0
LINE
  5
EA
330
1F
100
AcDbEntity
  8
0-0
  6
JWW_DASHED1
 62
   120
370
     5
100
AcDbLine
 10
-1050.732374760435
 20
-240.6848405800034
 30
0.0
 11
-460.7323747604495
 21
349.3151594199823
 31
0.0
  0
LINE
  5
EB
330
1F
100
AcDbEntity
  8
0-0
  6
JWW_DASHED1
 62
   120
370
     5
100
AcDbLine
 10
-1050.732374760425
 20
-233.6137727681273
 30
0.0
 11
-460.7323747604393
 21
356.3862272318588
 31
0.0
  0
LINE
  5
EC
330
1F
100
AcDbEntity
  8
0-0
  6
JWW_DASHED1
 62
   120
370
     5
100
AcDbLine
 10
-1050.732374760428
 20
-226.5427049562636
 30
0.0
 11
-460.7323747604324
 21
363.4572950437318
 31
0.0
  0
LINE
  5
ED
330
1F
100
AcDbEntity
  8
0-0
  6
JWW_DASHED1
 62
   120
370
     5
100
AcDbLine
 10
-1050.732374760435
 20
-219.4716371444055
 30
0.0
 11
-460.7323747604495
 21
370.5283628555802
 31
0.0
  0
LINE
  5
EE
330
1F
100
AcDbEntity
  8
0-0
  6
JWW_DASHED1
 62
   120
370
     5
100
AcDbLine
 10
-1050.732374760428
 20
-212.400569332529
 30
0.0
 11
-460.7323747604393
 21
377.5994306674571
 31
0.0
  0
LINE
  5
EF
330
1F
100
AcDbEntity
  8
0-0
  6
JWW_DASHED1
 62
   120
370
     5
100
AcDbLine
 10
-1050.732374760428
 20
-205.3295015206649
 30
0.0
 11
-460.7323747604324
 21
384.6704984793301
 31
0.0
  0
LINE
  5
F0
330
1F
100
AcDbEntity
  8
0-0
  6
JWW_DASHED1
 62
   120
370
     5
100
AcDbLine
 10
-1050.732374760438
 20
-198.2584337088076
 30
0.0
 11
-460.7323747604358
 21
391.7415662911942
 31
0.0
  0
LINE
  5
F1
330
1F
100
AcDbEntity
  8
0-0
  6
JWW_DASHED1
 62
   120
370
     5
100
AcDbLine
 10
-1050.732374760428
 20
-191.1873658969307
 30
0.0
 11
-460.7323747604427
 21
398.812634103055
 31
0.0
  0
LINE
  5
F2
330
1F
100
AcDbEntity
  8
0-0
  6
JWW_DASHED1
 62
   120
370
     5
100
AcDbLine
 10
-1050.732374760431
 20
-184.1162980850666
 30
0.0
 11
-460.7323747604358
 21
405.8837019149288
 31
0.0
  0
LINE
  5
F3
330
1F
100
AcDbEntity
  8
0-0
  6
JWW_DASHED1
 62
   120
370
     5
100
AcDbLine
 10
-1050.732374760442
 20
-177.0452302732093
 30
0.0
 11
-460.7323747604393
 21
412.9547697267921
 31
0.0
  0
LINE
  5
F4
330
1F
100
AcDbEntity
  8
0-0
  6
JWW_DASHED1
 62
   120
370
     5
100
AcDbLine
 10
-1050.732374760428
 20
-169.9741624613324
 30
0.0
 11
-460.7323747604461
 21
420.0258375386533
 31
0.0
  0
LINE
  5
F5
330
1F
100
AcDbEntity
  8
0-0
  6
JWW_DASHED1
 62
   120
370
     5
100
AcDbLine
 10
-1050.732374760421
 20
-162.9030946494559
 30
0.0
 11
-460.7323747604324
 21
427.0969053505297
 31
0.0
  0
LINE
  5
F6
330
1F
100
AcDbEntity
  8
0-0
  6
JWW_DASHED1
 62
   120
370
     5
100
AcDbLine
 10
-1050.732374760442
 20
-155.832026837611
 30
0.0
 11
-460.7323747604393
 21
434.1679731623904
 31
0.0
  0
LINE
  5
F7
330
1F
100
AcDbEntity
  8
0-0
  6
JWW_DASHED1
 62
   120
370
     5
100
AcDbLine
 10
-1050.732374760431
 20
-148.7609590257345
 30
0.0
 11
-460.7323747604461
 21
441.2390409742511
 31
0.0
  0
LINE
  5
F8
330
1F
100
AcDbEntity
  8
0-0
  6
JWW_DASHED1
 62
   120
370
     5
100
AcDbLine
 10
-1050.732374760421
 20
-141.6898912138581
 30
0.0
 11
-460.7323747604358
 21
448.310108786128
 31
0.0
  0
LINE
  5
F9
330
1F
100
AcDbEntity
  8
0-0
  6
JWW_DASHED1
 62
   120
370
     5
100
AcDbLine
 10
-1050.732374760428
 20
-134.6188234020221
 30
0.0
 11
-460.7323747604324
 21
455.381176597973
 31
0.0
  0
LINE
  5
FA
330
1F
100
AcDbEntity
  8
0-0
  6
JWW_DASHED1
 62
   120
370
     5
100
AcDbLine
 10
-1050.732374760438
 20
-127.5477555901955
 30
0.0
 11
-460.7323747604358
 21
462.4522444098063
 31
0.0
  0
LINE
  5
FB
330
1F
100
AcDbEntity
  8
0-0
  6
JWW_DASHED1
 62
   120
370
     5
100
AcDbLine
 10
-1050.732374760428
 20
-120.4766877783186
 30
0.0
 11
-460.7323747604427
 21
469.5233122216671
 31
0.0
  0
LINE
  5
FC
330
1F
100
AcDbEntity
  8
0-0
  6
JWW_DASHED1
 62
   120
370
     5
100
AcDbLine
 10
-1050.732374760428
 20
-113.4056199664536
 30
0.0
 11
-460.7323747604324
 21
476.5943800335418
 31
0.0
  0
LINE
  5
FD
330
1F
100
AcDbEntity
  8
0-0
  6
JWW_DASHED1
 62
   120
370
     5
100
AcDbLine
 10
-1050.732374760442
 20
-106.3345521545972
 30
0.0
 11
-460.7323747604393
 21
483.6654478454042
 31
0.0
  0
LINE
  5
FE
330
1F
100
AcDbEntity
  8
0-0
  6
JWW_DASHED1
 62
   120
370
     5
100
AcDbLine
 10
-1050.732374760428
 20
-99.26348434272029
 30
0.0
 11
-460.7323747604461
 21
490.7365156572654
 31
0.0
  0
LINE
  5
FF
330
1F
100
AcDbEntity
  8
0-0
  6
JWW_DASHED1
 62
   120
370
     5
100
AcDbLine
 10
-1050.732374760421
 20
-92.19241653084381
 30
0.0
 11
-460.7323747604324
 21
497.8075834691418
 31
0.0
  0
LINE
  5
100
330
1F
100
AcDbEntity
  8
0-0
  6
JWW_DASHED1
 62
   120
370
     5
100
AcDbLine
 10
-1050.732374760442
 20
-85.12134871899889
 30
0.0
 11
-460.7323747604393
 21
504.8786512810025
 31
0.0
  0
LINE
  5
101
330
1F
100
AcDbEntity
  8
0-0
  6
JWW_DASHED1
 62
   120
370
     5
100
AcDbLine
 10
-1050.732374760431
 20
-78.05028090712241
 30
0.0
 11
-460.7323747604461
 21
511.9497190928632
 31
0.0
  0
LINE
  5
102
330
1F
100
AcDbEntity
  8
0-0
  6
JWW_DASHED1
 62
   120
370
     5
100
AcDbLine
 10
-1050.732374760421
 20
-70.97921309524594
 30
0.0
 11
-460.7323747604358
 21
519.0207869047401
 31
0.0
  0
LINE
  5
103
330
1F
100
AcDbEntity
  8
0-0
  6
JWW_DASHED1
 62
   120
370
     5
100
AcDbLine
 10
-1050.732374760438
 20
-63.90814528339547
 30
0.0
 11
-460.7323747604256
 21
526.0918547166153
 31
0.0
  0
LINE
  5
104
330
1F
100
AcDbEntity
  8
0-0
  6
JWW_DASHED1
 62
   120
370
     5
100
AcDbLine
 10
-1050.732374760435
 20
-56.83707747152411
 30
0.0
 11
-460.7323747604461
 21
533.1629225284615
 31
0.0
  0
LINE
  5
105
330
1F
100
AcDbEntity
  8
0-0
  6
JWW_DASHED1
 62
   120
370
     5
100
AcDbLine
 10
-1050.732374760425
 20
-49.76600965964764
 30
0.0
 11
-460.7323747604393
 21
540.233990340338
 31
0.0
  0
LINE
  5
106
330
1F
100
AcDbEntity
  8
0-0
  6
JWW_DASHED1
 62
   120
370
     5
100
AcDbLine
 10
-1050.732374760425
 20
-42.69494184778097
 30
0.0
 11
-460.732374760429
 21
547.3050581522141
 31
0.0
  0
LINE
  5
107
330
1F
100
AcDbEntity
  8
0-0
  6
JWW_DASHED1
 62
   120
370
     5
100
AcDbLine
 10
-1050.732374760435
 20
-35.62387403592624
 30
0.0
 11
-460.7323747604495
 21
554.3761259640598
 31
0.0
  0
LINE
  5
108
330
1F
100
AcDbEntity
  8
0-0
  6
JWW_DASHED1
 62
   120
370
     5
100
AcDbLine
 10
-1050.732374760425
 20
-28.55280622404933
 30
0.0
 11
-460.7323747604393
 21
561.4471937759363
 31
0.0
  0
LINE
  5
109
330
1F
100
AcDbEntity
  8
0-0
  6
JWW_DASHED1
 62
   120
370
     5
100
AcDbLine
 10
-1050.732374760425
 20
-21.48173841218266
 30
0.0
 11
-460.7323747604324
 21
568.5182615878124
 31
0.0
  0
LINE
  5
10A
330
1F
100
AcDbEntity
  8
0-0
  6
JWW_DASHED1
 62
   120
370
     5
100
AcDbLine
 10
-1050.732374760438
 20
-14.41067060032793
 30
0.0
 11
-460.7323747604529
 21
575.5893293996577
 31
0.0
  0
LINE
  5
10B
330
1F
100
AcDbEntity
  8
0-0
  6
JWW_DASHED1
 62
   120
370
     5
100
AcDbLine
 10
-1050.732374760428
 20
-7.339602788451032
 30
0.0
 11
-460.7323747604427
 21
582.6603972115346
 31
0.0
  0
LINE
  5
10C
330
1F
100
AcDbEntity
  8
0-0
  6
JWW_DASHED1
 62
   120
370
     5
100
AcDbLine
 10
-1050.732374760428
 20
-0.2685349765843625
 30
0.0
 11
-460.7323747604324
 21
589.7314650234111
 31
0.0
  0
LINE
  5
10D
330
1F
100
AcDbEntity
  8
0-0
  6
JWW_DASHED1
 62
   120
370
     5
100
AcDbLine
 10
-1050.732374760438
 20
6.80253283527037
 30
0.0
 11
-465.9955111793921
 21
591.5393964163172
 31
0.0
  0
LINE
  5
10E
330
1F
100
AcDbEntity
  8
0-0
  6
JWW_DASHED1
 62
   120
370
     5
100
AcDbLine
 10
-1050.732374760428
 20
13.87360064714642
 30
0.0
 11
-473.066578991252
 21
591.5393964163223
 31
0.0
  0
LINE
  5
10F
330
1F
100
AcDbEntity
  8
0-0
  6
JWW_DASHED1
 62
   120
370
     5
100
AcDbLine
 10
-1050.732374760421
 20
20.94466845902332
 30
0.0
 11
-480.1376468031323
 21
591.5393964163126
 31
0.0
  0
LINE
  5
110
330
1F
100
AcDbEntity
  8
0-0
  6
JWW_DASHED1
 62
   120
370
     5
100
AcDbLine
 10
-1050.732374760442
 20
28.01573627086867
 30
0.0
 11
-487.2087146149921
 21
591.5393964163189
 31
0.0
  0
LINE
  5
111
330
1F
100
AcDbEntity
  8
0-0
  6
JWW_DASHED1
 62
   120
370
     5
100
AcDbLine
 10
-1050.732374760431
 20
35.08680408274472
 30
0.0
 11
-494.279782426852
 21
591.539396416324
 31
0.0
  0
LINE
  5
112
330
1F
100
AcDbEntity
  8
0-0
  6
JWW_DASHED1
 62
   120
370
     5
100
AcDbLine
 10
-1050.732374760421
 20
42.15787189462162
 30
0.0
 11
-501.3508502387289
 21
591.5393964163138
 31
0.0
  0
LINE
  5
113
330
1F
100
AcDbEntity
  8
0-0
  6
JWW_DASHED1
 62
   120
370
     5
100
AcDbLine
 10
-1050.732374760442
 20
49.22893970646612
 30
0.0
 11
-508.4219180505887
 21
591.5393964163206
 31
0.0
  0
LINE
  5
114
330
1F
100
AcDbEntity
  8
0-0
  6
JWW_DASHED1
 62
   120
370
     5
100
AcDbLine
 10
-1050.732374760435
 20
56.30000751834302
 30
0.0
 11
-515.492985862452
 21
591.5393964163253
 31
0.0
  0
LINE
  5
115
330
1F
100
AcDbEntity
  8
0-0
  6
JWW_DASHED1
 62
   120
370
     5
100
AcDbLine
 10
-1050.732374760425
 20
63.3710753302195
 30
0.0
 11
-522.5640536743289
 21
591.5393964163147
 31
0.0
  0
LINE
  5
116
330
1F
100
AcDbEntity
  8
0-0
  6
JWW_DASHED1
 62
   120
370
     5
100
AcDbLine
 10
-1050.732374760438
 20
70.4421431420721
 30
0.0
 11
-529.6351214862024
 21
591.539396416307
 31
0.0
  0
LINE
  5
117
330
1F
100
AcDbEntity
  8
0-0
  6
JWW_DASHED1
 62
   120
370
     5
100
AcDbLine
 10
-1050.732374760435
 20
77.51321095394132
 30
0.0
 11
-536.7061892980486
 21
591.5393964163266
 31
0.0
  0
LINE
  5
118
330
1F
100
AcDbEntity
  8
0-0
  6
JWW_DASHED1
 62
   120
370
     5
100
AcDbLine
 10
-1050.732374760425
 20
84.58427876581823
 30
0.0
 11
-543.7772571099255
 21
591.5393964163163
 31
0.0
  0
LINE
  5
119
330
1F
100
AcDbEntity
  8
0-0
  6
JWW_DASHED1
 62
   120
370
     5
100
AcDbLine
 10
-1050.732374760421
 20
91.6553465776866
 30
0.0
 11
-550.8483249218024
 21
591.5393964163061
 31
0.0
  0
LINE
  5
11A
330
1F
100
AcDbEntity
  8
0-0
  6
JWW_DASHED1
 62
   120
370
     5
100
AcDbLine
 10
-1050.732374760435
 20
98.72641438953963
 30
0.0
 11
-557.9193927336486
 21
591.5393964163275
 31
0.0
  0
LINE
  5
11B
330
1F
100
AcDbEntity
  8
0-0
  6
JWW_DASHED1
 62
   120
370
     5
100
AcDbLine
 10
-1050.732374760428
 20
105.7974822014157
 30
0.0
 11
-564.9904605455255
 21
591.5393964163172
 31
0.0
  0
LINE
  5
11C
330
1F
100
AcDbEntity
  8
0-0
  6
JWW_DASHED1
 62
   120
370
     5
100
AcDbLine
 10
-1050.732374760428
 20
112.8685500132551
 30
0.0
 11
-572.0615283573717
 21
591.5393964163095
 31
0.0
  0
LINE
  5
11D
330
1F
100
AcDbEntity
  8
0-0
  6
JWW_DASHED1
 62
   120
370
     5
100
AcDbLine
 10
-1050.732374760442
 20
119.9396178250782
 30
0.0
 11
-579.1325961692008
 21
591.5393964163206
 31
0.0
  0
LINE
  5
11E
330
1F
100
AcDbEntity
  8
0-0
  6
JWW_DASHED1
 62
   120
370
     5
100
AcDbLine
 10
-1050.732374760435
 20
127.0106856369551
 30
0.0
 11
-586.2036639810641
 21
591.5393964163231
 31
0.0
  0
LINE
  5
11F
330
1F
100
AcDbEntity
  8
0-0
  6
JWW_DASHED1
 62
   120
370
     5
100
AcDbLine
 10
-1050.732374760425
 20
134.0817534488316
 30
0.0
 11
-593.274731792941
 21
591.5393964163129
 31
0.0
  0
LINE
  5
120
330
1F
100
AcDbEntity
  8
0-0
  6
JWW_DASHED1
 62
   120
370
     5
100
AcDbLine
 10
-1050.732374760435
 20
141.1528212606851
 30
0.0
 11
-600.3457996048145
 21
591.539396416307
 31
0.0
  0
LINE
  5
121
330
1F
100
AcDbEntity
  8
0-0
  6
JWW_DASHED1
 62
   120
370
     5
100
AcDbLine
 10
-1050.732374760435
 20
148.2238890725534
 30
0.0
 11
-607.4168674166641
 21
591.539396416325
 31
0.0
  0
LINE
  5
122
330
1F
100
AcDbEntity
  8
0-0
  6
JWW_DASHED1
 62
   120
370
     5
100
AcDbLine
 10
-1050.732374760425
 20
155.2949568844299
 30
0.0
 11
-614.487935228541
 21
591.5393964163147
 31
0.0
  0
LINE
  5
123
330
1F
100
AcDbEntity
  8
0-0
  6
JWW_DASHED1
 62
   120
370
     5
100
AcDbLine
 10
-1050.732374760421
 20
162.3660246962996
 30
0.0
 11
-621.5590030404179
 21
591.5393964163045
 31
0.0
  0
LINE
  5
124
330
1F
100
AcDbEntity
  8
0-0
  6
JWW_DASHED1
 62
   120
370
     5
100
AcDbLine
 10
-1050.732374760438
 20
169.4370925081513
 30
0.0
 11
-628.6300708522641
 21
591.5393964163262
 31
0.0
  0
LINE
  5
125
330
1F
100
AcDbEntity
  8
0-0
  6
JWW_DASHED1
 62
   120
370
     5
100
AcDbLine
 10
-1050.732374760428
 20
176.5081603200278
 30
0.0
 11
-635.7011386641376
 21
591.5393964163155
 31
0.0
  0
LINE
  5
126
330
1F
100
AcDbEntity
  8
0-0
  6
JWW_DASHED1
 62
   120
370
     5
100
AcDbLine
 10
-1050.732374760425
 20
183.5792281318979
 30
0.0
 11
-642.7722064760179
 21
591.5393964163053
 31
0.0
  0
LINE
  5
127
330
1F
100
AcDbEntity
  8
0-0
  6
JWW_DASHED1
 62
   120
370
     5
100
AcDbLine
 10
-1050.732374760438
 20
190.6502959437496
 30
0.0
 11
-649.8432742878709
 21
591.5393964163163
 31
0.0
  0
LINE
  5
128
330
1F
100
AcDbEntity
  8
0-0
  6
JWW_DASHED1
 62
   120
370
     5
100
AcDbLine
 10
-1050.732374760428
 20
197.7213637556261
 30
0.0
 11
-656.9143420997376
 21
591.5393964163172
 31
0.0
  0
LINE
  5
129
330
1F
100
AcDbEntity
  8
0-0
  6
JWW_DASHED1
 62
   120
370
     5
100
AcDbLine
 10
-1050.732374760425
 20
204.7924315674966
 30
0.0
 11
-663.9854099116145
 21
591.539396416307
 31
0.0
  0
LINE
  5
12A
330
1F
100
AcDbEntity
  8
0-0
  6
JWW_DASHED1
 62
   120
370
     5
100
AcDbLine
 10
-1050.732374760442
 20
211.8634993793479
 30
0.0
 11
-671.056477723471
 21
591.5393964163185
 31
0.0
  0
LINE
  5
12B
330
1F
100
AcDbEntity
  8
0-0
  6
JWW_DASHED1
 62
   120
370
     5
100
AcDbLine
 10
-1050.732374760431
 20
218.9345671912244
 30
0.0
 11
-678.1275455353376
 21
591.5393964163185
 31
0.0
  0
LINE
  5
12C
330
1F
100
AcDbEntity
  8
0-0
  6
JWW_DASHED1
 62
   120
370
     5
100
AcDbLine
 10
-1050.732374760421
 20
226.0056350031009
 30
0.0
 11
-685.1986133472145
 21
591.5393964163079
 31
0.0
  0
LINE
  5
12D
330
1F
100
AcDbEntity
  8
0-0
  6
JWW_DASHED1
 62
   120
370
     5
100
AcDbLine
 10
-1050.732374760442
 20
233.0767028149458
 30
0.0
 11
-692.2696811590675
 21
591.5393964163197
 31
0.0
  0
LINE
  5
12E
330
1F
100
AcDbEntity
  8
0-0
  6
JWW_DASHED1
 62
   120
370
     5
100
AcDbLine
 10
-1050.732374760435
 20
240.1477706268223
 30
0.0
 11
-699.3407489709342
 21
591.5393964163197
 31
0.0
  0
LINE
  5
12F
330
1F
100
AcDbEntity
  8
0-0
  6
JWW_DASHED1
 62
   120
370
     5
100
AcDbLine
 10
-1050.732374760421
 20
247.2188384386992
 30
0.0
 11
-706.4118167828111
 21
591.5393964163095
 31
0.0
  0
LINE
  5
130
330
1F
100
AcDbEntity
  8
0-0
  6
JWW_DASHED1
 62
   120
370
     5
100
AcDbLine
 10
-1050.732374760435
 20
254.2899062505543
 30
0.0
 11
-713.4828845946812
 21
591.5393964163065
 31
0.0
  0
LINE
  5
131
330
1F
100
AcDbEntity
  8
0-0
  6
JWW_DASHED1
 62
   120
370
     5
100
AcDbLine
 10
-1050.732374760435
 20
261.3609740624206
 30
0.0
 11
-720.5539524065342
 21
591.5393964163211
 31
0.0
  0
LINE
  5
132
330
1F
100
AcDbEntity
  8
0-0
  6
JWW_DASHED1
 62
   120
370
     5
100
AcDbLine
 10
-1050.732374760425
 20
268.4320418742971
 30
0.0
 11
-727.6250202184111
 21
591.5393964163113
 31
0.0
  0
LINE
  5
133
330
1F
100
AcDbEntity
  8
0-0
  6
JWW_DASHED1
 62
   120
370
     5
100
AcDbLine
 10
-1050.732374760421
 20
275.5031096861684
 30
0.0
 11
-734.696088030288
 21
591.5393964163011
 31
0.0
  0
LINE
  5
134
330
1F
100
AcDbEntity
  8
0-0
  6
JWW_DASHED1
 62
   120
370
     5
100
AcDbLine
 10
-1050.732374760435
 20
282.5741774980189
 30
0.0
 11
-741.7671558421308
 21
591.5393964163223
 31
0.0
  0
LINE
  5
135
330
1F
100
AcDbEntity
  8
0-0
  6
JWW_DASHED1
 62
   120
370
     5
100
AcDbLine
 10
-1050.732374760428
 20
289.6452453098954
 30
0.0
 11
-748.8382236540111
 21
591.5393964163126
 31
0.0
  0
LINE
  5
136
330
1F
100
AcDbEntity
  8
0-0
  6
JWW_DASHED1
 62
   120
370
     5
100
AcDbLine
 10
-1050.732374760421
 20
296.7163131217671
 30
0.0
 11
-755.9092914658846
 21
591.5393964163023
 31
0.0
  0
LINE
  5
137
330
1F
100
AcDbEntity
  8
0-0
  6
JWW_DASHED1
 62
   120
370
     5
100
AcDbLine
 10
-1050.732374760438
 20
303.7873809336168
 30
0.0
 11
-762.9803592777308
 21
591.5393964163236
 31
0.0
  0
LINE
  5
138
330
1F
100
AcDbEntity
  8
0-0
  6
JWW_DASHED1
 62
   120
370
     5
100
AcDbLine
 10
-1050.732374760428
 20
310.8584487454932
 30
0.0
 11
-770.0514270896077
 21
591.5393964163138
 31
0.0
  0
LINE
  5
139
330
1F
100
AcDbEntity
  8
0-0
  6
JWW_DASHED1
 62
   120
370
     5
100
AcDbLine
 10
-1050.732374760421
 20
317.9295165573654
 30
0.0
 11
-777.1224949014846
 21
591.5393964163036
 31
0.0
  0
LINE
  5
13A
330
1F
100
AcDbEntity
  8
0-0
  6
JWW_DASHED1
 62
   120
370
     5
100
AcDbLine
 10
-1050.732374760442
 20
325.0005843692151
 30
0.0
 11
-784.1935627133377
 21
591.5393964163181
 31
0.0
  0
LINE
  5
13B
330
1F
100
AcDbEntity
  8
0-0
  6
JWW_DASHED1
 62
   120
370
     5
100
AcDbLine
 10
-1050.732374760428
 20
332.0716521810915
 30
0.0
 11
-791.2646305252077
 21
591.5393964163147
 31
0.0
  0
LINE
  5
13C
330
1F
100
AcDbEntity
  8
0-0
  6
JWW_DASHED1
 62
   120
370
     5
100
AcDbLine
 10
-1050.732374760425
 20
339.1427199929642
 30
0.0
 11
-798.3356983370846
 21
591.5393964163048
 31
0.0
  0
LINE
  5
13D
330
1F
100
AcDbEntity
  8
0-0
  6
JWW_DASHED1
 62
   120
370
     5
100
AcDbLine
 10
-1050.732374760428
 20
346.2137878047993
 30
0.0
 11
-805.4067661489138
 21
591.5393964163129
 31
0.0
  0
LINE
  5
13E
330
1F
100
AcDbEntity
  8
0-0
  6
JWW_DASHED1
 62
   120
370
     5
100
AcDbLine
 10
-1050.732374760435
 20
353.284855616631
 30
0.0
 11
-812.4778339607464
 21
591.5393964163206
 31
0.0
  0
LINE
  5
13F
330
1F
100
AcDbEntity
  8
0-0
  6
JWW_DASHED1
 62
   120
370
     5
100
AcDbLine
 10
-1050.732374760428
 20
360.3559234285075
 30
0.0
 11
-819.5489017726233
 21
591.5393964163104
 31
0.0
  0
LINE
  5
140
330
1F
100
AcDbEntity
  8
0-0
  6
JWW_DASHED1
 62
   120
370
     5
100
AcDbLine
 10
-1050.732374760421
 20
367.4269912403805
 30
0.0
 11
-826.6199695845002
 21
591.5393964163006
 31
0.0
  0
LINE
  5
141
330
1F
100
AcDbEntity
  8
0-0
  6
JWW_DASHED1
 62
   120
370
     5
100
AcDbLine
 10
-1050.732374760438
 20
374.4980590522289
 30
0.0
 11
-833.6910373963464
 21
591.5393964163219
 31
0.0
  0
LINE
  5
142
330
1F
100
AcDbEntity
  8
0-0
  6
JWW_DASHED1
 62
   120
370
     5
100
AcDbLine
 10
-1050.732374760428
 20
381.5691268641053
 30
0.0
 11
-840.7621052082233
 21
591.5393964163117
 31
0.0
  0
LINE
  5
143
330
1F
100
AcDbEntity
  8
0-0
  6
JWW_DASHED1
 62
   120
370
     5
100
AcDbLine
 10
-1050.732374760421
 20
388.6401946759793
 30
0.0
 11
-847.8331730200968
 21
591.5393964163019
 31
0.0
  0
LINE
  5
144
330
1F
100
AcDbEntity
  8
0-0
  6
JWW_DASHED1
 62
   120
370
     5
100
AcDbLine
 10
-1050.732374760442
 20
395.7112624878272
 30
0.0
 11
-854.9042408319498
 21
591.5393964163181
 31
0.0
  0
LINE
  5
145
330
1F
100
AcDbEntity
  8
0-0
  6
JWW_DASHED1
 62
   120
370
     5
100
AcDbLine
 10
-1050.732374760428
 20
402.7823302997041
 30
0.0
 11
-861.9753086438199
 21
591.5393964163129
 31
0.0
  0
LINE
  5
146
330
1F
100
AcDbEntity
  8
0-0
  6
JWW_DASHED1
 62
   120
370
     5
100
AcDbLine
 10
-1050.732374760421
 20
409.8533981115771
 30
0.0
 11
-869.0463764556968
 21
591.5393964163031
 31
0.0
  0
LINE
  5
147
330
1F
100
AcDbEntity
  8
0-0
  6
JWW_DASHED1
 62
   120
370
     5
100
AcDbLine
 10
-1050.732374760442
 20
416.924465923425
 30
0.0
 11
-876.1174442675464
 21
591.5393964163197
 31
0.0
  0
LINE
  5
148
330
1F
100
AcDbEntity
  8
0-0
  6
JWW_DASHED1
 62
   120
370
     5
100
AcDbLine
 10
-1050.732374760431
 20
423.9955337353015
 30
0.0
 11
-883.1885120794199
 21
591.5393964163147
 31
0.0
  0
LINE
  5
149
330
1F
100
AcDbEntity
  8
0-0
  6
JWW_DASHED1
 62
   120
370
     5
100
AcDbLine
 10
-1050.732374760421
 20
431.0666015471784
 30
0.0
 11
-890.2595798912968
 21
591.5393964163045
 31
0.0
  0
LINE
  5
14A
330
1F
100
AcDbEntity
  8
0-0
  6
JWW_DASHED1
 62
   120
370
     5
100
AcDbLine
 10
-1050.732374760442
 20
438.1376693590238
 30
0.0
 11
-897.3306477031464
 21
591.5393964163219
 31
0.0
  0
LINE
  5
14B
330
1F
100
AcDbEntity
  8
0-0
  6
JWW_DASHED1
 62
   120
370
     5
100
AcDbLine
 10
-1050.732374760435
 20
445.2087371708998
 30
0.0
 11
-904.4017155150165
 21
591.5393964163155
 31
0.0
  0
LINE
  5
14C
330
1F
100
AcDbEntity
  8
0-0
  6
JWW_DASHED1
 62
   120
370
     5
100
AcDbLine
 10
-1050.732374760425
 20
452.2798049827763
 30
0.0
 11
-911.4727833268968
 21
591.5393964163057
 31
0.0
  0
LINE
  5
14D
330
1F
100
AcDbEntity
  8
0-0
  6
JWW_DASHED1
 62
   120
370
     5
100
AcDbLine
 10
-1050.732374760431
 20
459.3508727946353
 30
0.0
 11
-918.54385113876
 21
591.5393964163079
 31
0.0
  0
LINE
  5
14E
330
1F
100
AcDbEntity
  8
0-0
  6
JWW_DASHED1
 62
   120
370
     5
100
AcDbLine
 10
-1050.732374760435
 20
466.4219406064981
 30
0.0
 11
-925.6149189506165
 21
591.5393964163172
 31
0.0
  0
LINE
  5
14F
330
1F
100
AcDbEntity
  8
0-0
  6
JWW_DASHED1
 62
   120
370
     5
100
AcDbLine
 10
-1050.732374760428
 20
473.4930084183746
 30
0.0
 11
-932.6859867624934
 21
591.539396416307
 31
0.0
  0
LINE
  5
150
330
1F
100
AcDbEntity
  8
0-0
  6
JWW_DASHED1
 62
   120
370
     5
100
AcDbLine
 10
-1050.732374760418
 20
480.5640762302494
 30
0.0
 11
-939.7570545743703
 21
591.5393964162968
 31
0.0
  0
LINE
  5
151
330
1F
100
AcDbEntity
  8
0-0
  6
JWW_DASHED1
 62
   120
370
     5
100
AcDbLine
 10
-1050.732374760438
 20
487.635144042096
 30
0.0
 11
-946.8281223862165
 21
591.5393964163181
 31
0.0
  0
LINE
  5
152
330
1F
100
AcDbEntity
  8
0-0
  6
JWW_DASHED1
 62
   120
370
     5
100
AcDbLine
 10
-1050.732374760428
 20
494.7062118539729
 30
0.0
 11
-953.8991901980934
 21
591.5393964163079
 31
0.0
  0
LINE
  5
153
330
1F
100
AcDbEntity
  8
0-0
  6
JWW_DASHED1
 62
   120
370
     5
100
AcDbLine
 10
-1050.732374760421
 20
501.7772796658481
 30
0.0
 11
-960.9702580099703
 21
591.539396416298
 31
0.0
  0
LINE
  5
154
330
1F
100
AcDbEntity
  8
0-0
  6
JWW_DASHED1
 62
   120
370
     5
100
AcDbLine
 10
-1050.732374760442
 20
508.8483474776943
 30
0.0
 11
-968.0413258218165
 21
591.5393964163177
 31
0.0
  0
LINE
  5
155
330
1F
100
AcDbEntity
  8
0-0
  6
JWW_DASHED1
 62
   120
370
     5
100
AcDbLine
 10
-1050.732374760428
 20
515.9194152895708
 30
0.0
 11
-975.11239363369
 21
591.5393964163095
 31
0.0
  0
LINE
  5
156
330
1F
100
AcDbEntity
  8
0-0
  6
JWW_DASHED1
 62
   120
370
     5
100
AcDbLine
 10
-1050.732374760421
 20
522.9904831014464
 30
0.0
 11
-982.1834614455669
 21
591.5393964162993
 31
0.0
  0
LINE
  5
157
330
1F
100
AcDbEntity
  8
0-0
  6
JWW_DASHED1
 62
   120
370
     5
100
AcDbLine
 10
-1050.732374760442
 20
530.0615509132926
 30
0.0
 11
-989.2545292574165
 21
591.5393964163189
 31
0.0
  0
LINE
  5
158
330
1F
100
AcDbEntity
  8
0-0
  6
JWW_DASHED1
 62
   120
370
     5
100
AcDbLine
 10
-1050.732374760431
 20
537.1326187251691
 30
0.0
 11
-996.32559706929
 21
591.5393964163109
 31
0.0
  0
LINE
  5
159
330
1F
100
AcDbEntity
  8
0-0
  6
JWW_DASHED1
 62
   120
370
     5
100
AcDbLine
 10
-1050.732374760421
 20
544.2036865370455
 30
0.0
 11
-1003.396664881167
 21
591.5393964163002
 31
0.0
  0
LINE
  5
15A
330
1F
100
AcDbEntity
  8
0-0
  6
JWW_DASHED1
 62
   120
370
     5
100
AcDbLine
 10
-1050.732374760442
 20
551.2747543488905
 30
0.0
 11
-1010.467732693013
 21
591.5393964163211
 31
0.0
  0
LINE
  5
15B
330
1F
100
AcDbEntity
  8
0-0
  6
JWW_DASHED1
 62
   120
370
     5
100
AcDbLine
 10
-1050.732374760435
 20
558.3458221607674
 30
0.0
 11
-1017.53880050489
 21
591.5393964163121
 31
0.0
  0
LINE
  5
15C
330
1F
100
AcDbEntity
  8
0-0
  6
JWW_DASHED1
 62
   120
370
     5
100
AcDbLine
 10
-1050.732374760425
 20
565.4168899726438
 30
0.0
 11
-1024.609868316764
 21
591.5393964163023
 31
0.0
  0
LINE
  5
15D
330
1F
100
AcDbEntity
  8
0-0
  6
JWW_DASHED1
 62
   120
370
     5
100
AcDbLine
 10
-1050.732374760428
 20
572.4879577845041
 30
0.0
 11
-1031.680936128627
 21
591.539396416307
 31
0.0
  0
LINE
  5
15E
330
1F
100
AcDbEntity
  8
0-0
  6
JWW_DASHED1
 62
   120
370
     5
100
AcDbLine
 10
-1050.732374760435
 20
579.5590255963652
 30
0.0
 11
-1038.752003940487
 21
591.5393964163129
 31
0.0
  0
LINE
  5
15F
330
1F
100
AcDbEntity
  8
0-0
  6
JWW_DASHED1
 62
   120
370
     5
100
AcDbLine
 10
-1050.732374760425
 20
586.6300934082417
 30
0.0
 11
-1045.823071752364
 21
591.5393964163036
 31
0.0
  0
LINE
  5
160
330
1F
100
AcDbEntity
  8
0-0
  6
Continuous
 62
    92
370
    13
100
AcDbLine
 10
-270.7323747604313
 20
-383.4606035836921
 30
0.0
 11
319.267625239571
 21
-383.4606035836921
 31
0.0
  0
LINE
  5
161
330
1F
100
AcDbEntity
  8
0-0
  6
JWW_DASHED1
 62
   120
370
     5
100
AcDbLine
 10
314.8118468579968
 20
-383.4606035836759
 30
0.0
 11
319.2676252395539
 21
-379.0048252021176
 31
0.0
  0
LINE
  5
162
330
1F
100
AcDbEntity
  8
0-0
  6
JWW_DASHED1
 62
   120
370
     5
100
AcDbLine
 10
307.7407790461199
 20
-383.4606035836866
 30
0.0
 11
319.2676252395642
 21
-371.9337573902411
 31
0.0
  0
LINE
  5
163
330
1F
100
AcDbEntity
  8
0-0
  6
JWW_DASHED1
 62
   120
370
     5
100
AcDbLine
 10
300.6697112342566
 20
-383.4606035836806
 30
0.0
 11
319.2676252395607
 21
-364.8626895783799
 31
0.0
  0
LINE
  5
164
330
1F
100
AcDbEntity
  8
0-0
  6
JWW_DASHED1
 62
   120
370
     5
100
AcDbLine
 10
293.5986434223968
 20
-383.4606035836751
 30
0.0
 11
319.2676252395539
 21
-357.7916217665193
 31
0.0
  0
LINE
  5
165
330
1F
100
AcDbEntity
  8
0-0
  6
JWW_DASHED1
 62
   120
370
     5
100
AcDbLine
 10
286.5275756105199
 20
-383.4606035836853
 30
0.0
 11
319.2676252395642
 21
-350.7205539546428
 31
0.0
  0
LINE
  5
166
330
1F
100
AcDbEntity
  8
0-0
  6
JWW_DASHED1
 62
   120
370
     5
100
AcDbLine
 10
279.45650779866
 20
-383.4606035836794
 30
0.0
 11
319.2676252395573
 21
-343.6494861427812
 31
0.0
  0
LINE
  5
167
330
1F
100
AcDbEntity
  8
0-0
  6
JWW_DASHED1
 62
   120
370
     5
100
AcDbLine
 10
272.3854399867831
 20
-383.4606035836883
 30
0.0
 11
319.2676252395676
 21
-336.5784183309056
 31
0.0
  0
LINE
  5
168
330
1F
100
AcDbEntity
  8
0-0
  6
JWW_DASHED1
 62
   120
370
     5
100
AcDbLine
 10
265.3143721749233
 20
-383.4606035836836
 30
0.0
 11
319.2676252395607
 21
-329.5073505190448
 31
0.0
  0
LINE
  5
169
330
1F
100
AcDbEntity
  8
0-0
  6
JWW_DASHED1
 62
   120
370
     5
100
AcDbLine
 10
258.2433043630634
 20
-383.4606035836777
 30
0.0
 11
319.2676252395573
 21
-322.4362827071829
 31
0.0
  0
LINE
  5
16A
330
1F
100
AcDbEntity
  8
0-0
  6
JWW_DASHED1
 62
   120
370
     5
100
AcDbLine
 10
251.1722365511865
 20
-383.4606035836862
 30
0.0
 11
319.2676252395642
 21
-315.3652148953073
 31
0.0
  0
LINE
  5
16B
330
1F
100
AcDbEntity
  8
0-0
  6
JWW_DASHED1
 62
   120
370
     5
100
AcDbLine
 10
244.1011687393232
 20
-383.4606035836823
 30
0.0
 11
319.2676252395607
 21
-308.2941470834465
 31
0.0
  0
LINE
  5
16C
330
1F
100
AcDbEntity
  8
0-0
  6
JWW_DASHED1
 62
   120
370
     5
100
AcDbLine
 10
237.0301009274463
 20
-383.4606035836921
 30
0.0
 11
319.2676252395676
 21
-301.2230792715701
 31
0.0
  0
LINE
  5
16D
330
1F
100
AcDbEntity
  8
0-0
  6
JWW_DASHED1
 62
   120
370
     5
100
AcDbLine
 10
229.9590331155899
 20
-383.4606035836845
 30
0.0
 11
319.2676252395642
 21
-294.1520114597094
 31
0.0
  0
LINE
  5
16E
330
1F
100
AcDbEntity
  8
0-0
  6
JWW_DASHED1
 62
   120
370
     5
100
AcDbLine
 10
222.8879653037232
 20
-383.4606035836811
 30
0.0
 11
319.2676252395573
 21
-287.0809436478482
 31
0.0
  0
LINE
  5
16F
330
1F
100
AcDbEntity
  8
0-0
  6
JWW_DASHED1
 62
   120
370
     5
100
AcDbLine
 10
215.8168974918497
 20
-383.4606035836913
 30
0.0
 11
319.2676252395676
 21
-280.0098758359718
 31
0.0
  0
LINE
  5
170
330
1F
100
AcDbEntity
  8
0-0
  6
JWW_DASHED1
 62
   120
370
     5
100
AcDbLine
 10
208.7458296799899
 20
-383.4606035836828
 30
0.0
 11
319.2676252395642
 21
-272.9388080241094
 31
0.0
  0
LINE
  5
171
330
1F
100
AcDbEntity
  8
0-0
  6
JWW_DASHED1
 62
   120
370
     5
100
AcDbLine
 10
201.674761868171
 20
-383.4606035836883
 30
0.0
 11
319.2676252395676
 21
-265.8677402122935
 31
0.0
  0
LINE
  5
172
330
1F
100
AcDbEntity
  8
0-0
  6
JWW_DASHED1
 62
   120
370
     5
100
AcDbLine
 10
194.6036940563077
 20
-383.4606035836857
 30
0.0
 11
319.2676252395607
 21
-258.7966724004327
 31
0.0
  0
LINE
  5
173
330
1F
100
AcDbEntity
  8
0-0
  6
JWW_DASHED1
 62
   120
370
     5
100
AcDbLine
 10
187.5326262444479
 20
-383.4606035836798
 30
0.0
 11
319.2676252395573
 21
-251.7256045885695
 31
0.0
  0
LINE
  5
174
330
1F
100
AcDbEntity
  8
0-0
  6
JWW_DASHED1
 62
   120
370
     5
100
AcDbLine
 10
180.4615584325744
 20
-383.4606035836862
 30
0.0
 11
319.2676252395642
 21
-244.6545367766952
 31
0.0
  0
LINE
  5
175
330
1F
100
AcDbEntity
  8
0-0
  6
JWW_DASHED1
 62
   120
370
     5
100
AcDbLine
 10
173.3904906207111
 20
-383.4606035836845
 30
0.0
 11
319.2676252395607
 21
-237.5834689648345
 31
0.0
  0
LINE
  5
176
330
1F
100
AcDbEntity
  8
0-0
  6
JWW_DASHED1
 62
   120
370
     5
100
AcDbLine
 10
166.3194228088308
 20
-383.4606035836943
 30
0.0
 11
319.2676252395676
 21
-230.512401152958
 31
0.0
  0
LINE
  5
177
330
1F
100
AcDbEntity
  8
0-0
  6
JWW_DASHED1
 62
   120
370
     5
100
AcDbLine
 10
159.2483549969778
 20
-383.4606035836845
 30
0.0
 11
319.2676252395642
 21
-223.4413333410973
 31
0.0
  0
LINE
  5
178
330
1F
100
AcDbEntity
  8
0-0
  6
JWW_DASHED1
 62
   120
370
     5
100
AcDbLine
 10
152.1772871851111
 20
-383.4606035836828
 30
0.0
 11
319.2676252395573
 21
-216.3702655292361
 31
0.0
  0
LINE
  5
179
330
1F
100
AcDbEntity
  8
0-0
  6
JWW_DASHED1
 62
   120
370
     5
100
AcDbLine
 10
145.1062193732342
 20
-383.460603583693
 30
0.0
 11
319.2676252395676
 21
-209.2991977173597
 31
0.0
  0
LINE
  5
17A
330
1F
100
AcDbEntity
  8
0-0
  6
JWW_DASHED1
 62
   120
370
     5
100
AcDbLine
 10
138.0351515613778
 20
-383.4606035836828
 30
0.0
 11
319.2676252395642
 21
-202.228129905496
 31
0.0
  0
LINE
  5
17B
330
1F
100
AcDbEntity
  8
0-0
  6
JWW_DASHED1
 62
   120
370
     5
100
AcDbLine
 10
130.9640837495111
 20
-383.4606035836819
 30
0.0
 11
319.2676252395539
 21
-195.1570620936383
 31
0.0
  0
LINE
  5
17C
330
1F
100
AcDbEntity
  8
0-0
  6
JWW_DASHED1
 62
   120
370
     5
100
AcDbLine
 10
123.8930159376376
 20
-383.4606035836913
 30
0.0
 11
319.2676252395676
 21
-188.0859942817614
 31
0.0
  0
LINE
  5
17D
330
1F
100
AcDbEntity
  8
0-0
  6
JWW_DASHED1
 62
   120
370
     5
100
AcDbLine
 10
116.8219481257744
 20
-383.4606035836862
 30
0.0
 11
319.2676252395607
 21
-181.0149264698977
 31
0.0
  0
LINE
  5
17E
330
1F
100
AcDbEntity
  8
0-0
  6
JWW_DASHED1
 62
   120
370
     5
100
AcDbLine
 10
109.7508803139111
 20
-383.4606035836806
 30
0.0
 11
319.2676252395539
 21
-173.94385865804
 31
0.0
  0
LINE
  5
17F
330
1F
100
AcDbEntity
  8
0-0
  6
JWW_DASHED1
 62
   120
370
     5
100
AcDbLine
 10
102.6798125020376
 20
-383.4606035836904
 30
0.0
 11
319.2676252395642
 21
-166.8727908461635
 31
0.0
  0
LINE
  5
180
330
1F
100
AcDbEntity
  8
0-0
  6
JWW_DASHED1
 62
   120
370
     5
100
AcDbLine
 10
95.60874469017776
 20
-383.4606035836845
 30
0.0
 11
319.2676252395607
 21
-159.801723034299
 31
0.0
  0
LINE
  5
181
330
1F
100
AcDbEntity
  8
0-0
  6
JWW_DASHED1
 62
   120
370
     5
100
AcDbLine
 10
88.5376768783145
 20
-383.4606035836794
 30
0.0
 11
319.2676252395505
 21
-152.7306552224421
 31
0.0
  0
LINE
  5
182
330
1F
100
AcDbEntity
  8
0-0
  6
JWW_DASHED1
 62
   120
370
     5
100
AcDbLine
 10
81.4666090664376
 20
-383.4606035836887
 30
0.0
 11
319.2676252395607
 21
-145.6595874105652
 31
0.0
  0
LINE
  5
183
330
1F
100
AcDbEntity
  8
0-0
  6
JWW_DASHED1
 62
   120
370
     5
100
AcDbLine
 10
74.39554125457775
 20
-383.4606035836836
 30
0.0
 11
319.2676252395607
 21
-138.5885195987007
 31
0.0
  0
LINE
  5
184
330
1F
100
AcDbEntity
  8
0-0
  6
JWW_DASHED1
 62
   120
370
     5
100
AcDbLine
 10
67.32447344270767
 20
-383.460603583687
 30
0.0
 11
319.2676252395676
 21
-131.517451786828
 31
0.0
  0
LINE
  5
185
330
1F
100
AcDbEntity
  8
0-0
  6
JWW_DASHED1
 62
   120
370
     5
100
AcDbLine
 10
60.25340563083759
 20
-383.4606035836879
 30
0.0
 11
319.2676252395607
 21
-124.4463839749673
 31
0.0
  0
LINE
  5
186
330
1F
100
AcDbEntity
  8
0-0
  6
JWW_DASHED1
 62
   120
370
     5
100
AcDbLine
 10
46.11127000710766
 20
-383.4606035836849
 30
0.0
 11
319.2676252395642
 21
-110.3042483512297
 31
0.0
  0
LINE
  5
187
330
1F
100
AcDbEntity
  8
0-0
  6
JWW_DASHED1
 62
   120
370
     5
100
AcDbLine
 10
39.04020219524099
 20
-383.4606035836866
 30
0.0
 11
319.2676252395573
 21
-103.233180539369
 31
0.0
  0
LINE
  5
188
330
1F
100
AcDbEntity
  8
0-0
  6
JWW_DASHED1
 62
   120
370
     5
100
AcDbLine
 10
31.96913438336409
 20
-383.4606035836964
 30
0.0
 11
319.2676252395676
 21
-96.16211272749212
 31
0.0
  0
LINE
  5
189
330
1F
100
AcDbEntity
  8
0-0
  6
JWW_DASHED1
 62
   120
370
     5
100
AcDbLine
 10
24.89806657151107
 20
-383.4606035836832
 30
0.0
 11
319.2676252395607
 21
-89.09104491563184
 31
0.0
  0
LINE
  5
18A
330
1F
100
AcDbEntity
  8
0-0
  6
JWW_DASHED1
 62
   120
370
     5
100
AcDbLine
 10
17.82699875964099
 20
-383.4606035836853
 30
0.0
 11
319.2676252395539
 21
-82.01997710377114
 31
0.0
  0
LINE
  5
18B
330
1F
100
AcDbEntity
  8
0-0
  6
JWW_DASHED1
 62
   120
370
     5
100
AcDbLine
 10
10.75593094776409
 20
-383.4606035836956
 30
0.0
 11
319.2676252395676
 21
-74.94890929189467
 31
0.0
  0
LINE
  5
18C
330
1F
100
AcDbEntity
  8
0-0
  6
JWW_DASHED1
 62
   120
370
     5
100
AcDbLine
 10
3.684863135911058
 20
-383.4606035836811
 30
0.0
 11
319.2676252395642
 21
-67.87784148002842
 31
0.0
  0
LINE
  5
18D
330
1F
100
AcDbEntity
  8
0-0
  6
JWW_DASHED1
 62
   120
370
     5
100
AcDbLine
 10
-3.386204675955611
 20
-383.460603583684
 30
0.0
 11
319.2676252395539
 21
-60.80677366817284
 31
0.0
  0
LINE
  5
18E
330
1F
100
AcDbEntity
  8
0-0
  6
JWW_DASHED1
 62
   120
370
     5
100
AcDbLine
 10
-10.45727248783592
 20
-383.4606035836943
 30
0.0
 11
319.2676252395642
 21
-53.73570585629636
 31
0.0
  0
LINE
  5
18F
330
1F
100
AcDbEntity
  8
0-0
  6
JWW_DASHED1
 62
   120
370
     5
100
AcDbLine
 10
-17.52834029969577
 20
-383.4606035836883
 30
0.0
 11
319.2676252395642
 21
-46.66463804443012
 31
0.0
  0
LINE
  5
190
330
1F
100
AcDbEntity
  8
0-0
  6
JWW_DASHED1
 62
   120
370
     5
100
AcDbLine
 10
-24.59940811155562
 20
-383.4606035836828
 30
0.0
 11
319.2676252395539
 21
-39.59357023257496
 31
0.0
  0
LINE
  5
191
330
1F
100
AcDbEntity
  8
0-0
  6
JWW_DASHED1
 62
   120
370
     5
100
AcDbLine
 10
-31.67047592343252
 20
-383.460603583693
 30
0.0
 11
319.2676252395607
 21
-32.52250242069806
 31
0.0
  0
LINE
  5
192
330
1F
100
AcDbEntity
  8
0-0
  6
JWW_DASHED1
 62
   120
370
     5
100
AcDbLine
 10
-38.74154373526167
 20
-383.4606035836845
 30
0.0
 11
319.2676252395607
 21
-25.45143460886123
 31
0.0
  0
LINE
  5
193
330
1F
100
AcDbEntity
  8
0-0
  6
JWW_DASHED1
 62
   120
370
     5
100
AcDbLine
 10
-45.81261154710106
 20
-383.4606035836832
 30
0.0
 11
319.2676252395607
 21
-18.38036679701972
 31
0.0
  0
LINE
  5
194
330
1F
100
AcDbEntity
  8
0-0
  6
JWW_DASHED1
 62
   120
370
     5
100
AcDbLine
 10
-52.88367935897114
 20
-383.460603583687
 30
0.0
 11
319.2676252395539
 21
-11.30929898515902
 31
0.0
  0
LINE
  5
195
330
1F
100
AcDbEntity
  8
0-0
  6
JWW_DASHED1
 62
   120
370
     5
100
AcDbLine
 10
-59.95474717084804
 20
-383.4606035836973
 30
0.0
 11
319.2676252395676
 21
-4.238231173282543
 31
0.0
  0
LINE
  5
196
330
1F
100
AcDbEntity
  8
0-0
  6
JWW_DASHED1
 62
   120
370
     5
100
AcDbLine
 10
-67.02581498270106
 20
-383.4606035836811
 30
0.0
 11
319.2676252395676
 21
2.832836638584979
 31
0.0
  0
LINE
  5
197
330
1F
100
AcDbEntity
  8
0-0
  6
JWW_DASHED1
 62
   120
370
     5
100
AcDbLine
 10
-74.09688279457114
 20
-383.4606035836853
 30
0.0
 11
319.2676252395539
 21
9.903904450439285
 31
0.0
  0
LINE
  5
198
330
1F
100
AcDbEntity
  8
0-0
  6
JWW_DASHED1
 62
   120
370
     5
100
AcDbLine
 10
-81.16795060644804
 20
-383.4606035836956
 30
0.0
 11
319.2676252395642
 21
16.97497226231576
 31
0.0
  0
LINE
  5
199
330
1F
100
AcDbEntity
  8
0-0
  6
JWW_DASHED1
 62
   120
370
     5
100
AcDbLine
 10
-88.2390184183079
 20
-383.4606035836904
 30
0.0
 11
319.2676252395642
 21
24.04604007418328
 31
0.0
  0
LINE
  5
19A
330
1F
100
AcDbEntity
  8
0-0
  6
JWW_DASHED1
 62
   120
370
     5
100
AcDbLine
 10
-95.31008623016774
 20
-383.4606035836845
 30
0.0
 11
319.2676252395539
 21
31.11710788603716
 31
0.0
  0
LINE
  5
19B
330
1F
100
AcDbEntity
  8
0-0
  6
JWW_DASHED1
 62
   120
370
     5
100
AcDbLine
 10
-102.3811540420481
 20
-383.4606035836947
 30
0.0
 11
319.2676252395607
 21
38.18817569791406
 31
0.0
  0
LINE
  5
19C
330
1F
100
AcDbEntity
  8
0-0
  6
JWW_DASHED1
 62
   120
370
     5
100
AcDbLine
 10
-109.4522218539079
 20
-383.4606035836887
 30
0.0
 11
319.2676252395642
 21
45.25924350978158
 31
0.0
  0
LINE
  5
19D
330
1F
100
AcDbEntity
  8
0-0
  6
JWW_DASHED1
 62
   120
370
     5
100
AcDbLine
 10
-116.5232896657677
 20
-383.4606035836832
 30
0.0
 11
319.2676252395505
 21
52.33031132163546
 31
0.0
  0
LINE
  5
19E
330
1F
100
AcDbEntity
  8
0-0
  6
JWW_DASHED1
 62
   120
370
     5
100
AcDbLine
 10
-123.5943574776446
 20
-383.4606035836935
 30
0.0
 11
319.2676252395607
 21
59.40137913351194
 31
0.0
  0
LINE
  5
19F
330
1F
100
AcDbEntity
  8
0-0
  6
JWW_DASHED1
 62
   120
370
     5
100
AcDbLine
 10
-130.6654252895079
 20
-383.4606035836874
 30
0.0
 11
319.2676252395607
 21
66.47244694537989
 31
0.0
  0
LINE
  5
1A0
330
1F
100
AcDbEntity
  8
0-0
  6
JWW_DASHED1
 62
   120
370
     5
100
AcDbLine
 10
-137.7364931013712
 20
-383.4606035836853
 30
0.0
 11
319.2676252395642
 21
73.54351475724954
 31
0.0
  0
LINE
  5
1A1
330
1F
100
AcDbEntity
  8
0-0
  6
JWW_DASHED1
 62
   120
370
     5
100
AcDbLine
 10
-144.8075609132447
 20
-383.4606035836921
 30
0.0
 11
319.2676252395573
 21
80.61458256911024
 31
0.0
  0
LINE
  5
1A2
330
1F
100
AcDbEntity
  8
0-0
  6
JWW_DASHED1
 62
   120
370
     5
100
AcDbLine
 10
-151.8786287251216
 20
-383.460603583702
 30
0.0
 11
319.2676252395676
 21
87.68565038098671
 31
0.0
  0
LINE
  5
1A3
330
1F
100
AcDbEntity
  8
0-0
  6
JWW_DASHED1
 62
   120
370
     5
100
AcDbLine
 10
-158.9496965369678
 20
-383.4606035836836
 30
0.0
 11
319.2676252395607
 21
94.75671819284784
 31
0.0
  0
LINE
  5
1A4
330
1F
100
AcDbEntity
  8
0-0
  6
JWW_DASHED1
 62
   120
370
     5
100
AcDbLine
 10
-166.0207643488413
 20
-383.4606035836908
 30
0.0
 11
319.2676252395573
 21
101.8277860047085
 31
0.0
  0
LINE
  5
1A5
330
1F
100
AcDbEntity
  8
0-0
  6
JWW_DASHED1
 62
   120
370
     5
100
AcDbLine
 10
-173.0918321607182
 20
-383.4606035837007
 30
0.0
 11
319.2676252395676
 21
108.898853816585
 31
0.0
  0
LINE
  5
1A6
330
1F
100
AcDbEntity
  8
0-0
  6
JWW_DASHED1
 62
   120
370
     5
100
AcDbLine
 10
-180.1628999725678
 20
-383.4606035836819
 30
0.0
 11
319.2676252395607
 21
115.9699216284457
 31
0.0
  0
LINE
  5
1A7
330
1F
100
AcDbEntity
  8
0-0
  6
JWW_DASHED1
 62
   120
370
     5
100
AcDbLine
 10
-187.2339677844413
 20
-383.4606035836896
 30
0.0
 11
319.2676252395539
 21
123.0409894403064
 31
0.0
  0
LINE
  5
1A8
330
1F
100
AcDbEntity
  8
0-0
  6
JWW_DASHED1
 62
   120
370
     5
100
AcDbLine
 10
-194.3050355963182
 20
-383.460603583699
 30
0.0
 11
319.2676252395642
 21
130.1120572521833
 31
0.0
  0
LINE
  5
1A9
330
1F
100
AcDbEntity
  8
0-0
  6
JWW_DASHED1
 62
   120
370
     5
100
AcDbLine
 10
-201.3761034081644
 20
-383.4606035836798
 30
0.0
 11
319.2676252395676
 21
137.1831250640525
 31
0.0
  0
LINE
  5
1AA
330
1F
100
AcDbEntity
  8
0-0
  6
JWW_DASHED1
 62
   120
370
     5
100
AcDbLine
 10
-208.4471712200413
 20
-383.4606035836883
 30
0.0
 11
319.2676252395539
 21
144.2541928759047
 31
0.0
  0
LINE
  5
1AB
330
1F
100
AcDbEntity
  8
0-0
  6
JWW_DASHED1
 62
   120
370
     5
100
AcDbLine
 10
-215.5182390319148
 20
-383.4606035836981
 30
0.0
 11
319.2676252395607
 21
151.3252606877812
 31
0.0
  0
LINE
  5
1AC
330
1F
100
AcDbEntity
  8
0-0
  6
JWW_DASHED1
 62
   120
370
     5
100
AcDbLine
 10
-222.589306843778
 20
-383.4606035836921
 30
0.0
 11
319.2676252395676
 21
158.3963284996508
 31
0.0
  0
LINE
  5
1AD
330
1F
100
AcDbEntity
  8
0-0
  6
JWW_DASHED1
 62
   120
370
     5
100
AcDbLine
 10
-229.6603746556379
 20
-383.460603583687
 30
0.0
 11
319.2676252395505
 21
165.467396311503
 31
0.0
  0
LINE
  5
1AE
330
1F
100
AcDbEntity
  8
0-0
  6
JWW_DASHED1
 62
   120
370
     5
100
AcDbLine
 10
-236.7314424675148
 20
-383.4606035836969
 30
0.0
 11
319.2676252395607
 21
172.5384641233791
 31
0.0
  0
LINE
  5
1AF
330
1F
100
AcDbEntity
  8
0-0
  6
JWW_DASHED1
 62
   120
370
     5
100
AcDbLine
 10
-243.8025102793746
 20
-383.4606035836913
 30
0.0
 11
319.2676252395642
 21
179.6095319352492
 31
0.0
  0
LINE
  5
1B0
330
1F
100
AcDbEntity
  8
0-0
  6
JWW_DASHED1
 62
   120
370
     5
100
AcDbLine
 10
-250.8735780912379
 20
-383.4606035836862
 30
0.0
 11
319.2676252395642
 21
186.6805997471167
 31
0.0
  0
LINE
  5
1B1
330
1F
100
AcDbEntity
  8
0-0
  6
JWW_DASHED1
 62
   120
370
     5
100
AcDbLine
 10
-257.9446459031147
 20
-383.4606035836956
 30
0.0
 11
319.2676252395607
 21
193.7516675589774
 31
0.0
  0
LINE
  5
1B2
330
1F
100
AcDbEntity
  8
0-0
  6
JWW_DASHED1
 62
   120
370
     5
100
AcDbLine
 10
-265.0157137149746
 20
-383.46060358369
 30
0.0
 11
319.2676252395607
 21
200.8227353708475
 31
0.0
  0
LINE
  5
1B3
330
1F
100
AcDbEntity
  8
0-0
  6
JWW_DASHED1
 62
   120
370
     5
100
AcDbLine
 10
-270.7323747604381
 20
-382.1061968172864
 30
0.0
 11
319.2676252395642
 21
207.893803182715
 31
0.0
  0
LINE
  5
1B4
330
1F
100
AcDbEntity
  8
0-0
  6
JWW_DASHED1
 62
   120
370
     5
100
AcDbLine
 10
-270.7323747604279
 20
-375.0351290054104
 30
0.0
 11
319.2676252395573
 21
214.9648709945757
 31
0.0
  0
LINE
  5
1B5
330
1F
100
AcDbEntity
  8
0-0
  6
JWW_DASHED1
 62
   120
370
     5
100
AcDbLine
 10
-270.7323747604211
 20
-367.9640611935923
 30
0.0
 11
319.2676252395607
 21
222.0359388063933
 31
0.0
  0
LINE
  5
1B6
330
1F
100
AcDbEntity
  8
0-0
  6
JWW_DASHED1
 62
   120
370
     5
100
AcDbLine
 10
-270.7323747604279
 20
-360.8929933817316
 30
0.0
 11
319.2676252395676
 21
229.1070066182643
 31
0.0
  0
LINE
  5
1B7
330
1F
100
AcDbEntity
  8
0-0
  6
JWW_DASHED1
 62
   120
370
     5
100
AcDbLine
 10
-270.7323747604347
 20
-353.8219255698709
 30
0.0
 11
319.2676252395505
 21
236.1780744301147
 31
0.0
  0
LINE
  5
1B8
330
1F
100
AcDbEntity
  8
0-0
  6
JWW_DASHED1
 62
   120
370
     5
100
AcDbLine
 10
-270.7323747604245
 20
-346.750857757994
 30
0.0
 11
319.2676252395607
 21
243.2491422419916
 31
0.0
  0
LINE
  5
1B9
330
1F
100
AcDbEntity
  8
0-0
  6
JWW_DASHED1
 62
   120
370
     5
100
AcDbLine
 10
-270.7323747604313
 20
-339.6797899461329
 30
0.0
 11
319.2676252395676
 21
250.3202100538626
 31
0.0
  0
LINE
  5
1BA
330
1F
100
AcDbEntity
  8
0-0
  6
JWW_DASHED1
 62
   120
370
     5
100
AcDbLine
 10
-270.7323747604347
 20
-332.6087221342726
 30
0.0
 11
319.2676252395642
 21
257.3912778657288
 31
0.0
  0
LINE
  5
1BB
330
1F
100
AcDbEntity
  8
0-0
  6
JWW_DASHED1
 62
   120
370
     5
100
AcDbLine
 10
-270.7323747604279
 20
-325.5376543223957
 30
0.0
 11
319.2676252395607
 21
264.4623456775895
 31
0.0
  0
LINE
  5
1BC
330
1F
100
AcDbEntity
  8
0-0
  6
JWW_DASHED1
 62
   120
370
     5
100
AcDbLine
 10
-270.7323747604313
 20
-318.4665865105342
 30
0.0
 11
319.2676252395642
 21
271.5334134894608
 31
0.0
  0
LINE
  5
1BD
330
1F
100
AcDbEntity
  8
0-0
  6
JWW_DASHED1
 62
   120
370
     5
100
AcDbLine
 10
-270.7323747604381
 20
-311.3955186986743
 30
0.0
 11
319.2676252395642
 21
278.6044813013271
 31
0.0
  0
LINE
  5
1BE
330
1F
100
AcDbEntity
  8
0-0
  6
JWW_DASHED1
 62
   120
370
     5
100
AcDbLine
 10
-270.7323747604279
 20
-304.3244508867979
 30
0.0
 11
319.2676252395573
 21
285.6755491131878
 31
0.0
  0
LINE
  5
1BF
330
1F
100
AcDbEntity
  8
0-0
  6
JWW_DASHED1
 62
   120
370
     5
100
AcDbLine
 10
-270.7323747604177
 20
-297.2533830749214
 30
0.0
 11
319.2676252395676
 21
292.7466169250642
 31
0.0
  0
LINE
  5
1C0
330
1F
100
AcDbEntity
  8
0-0
  6
JWW_DASHED1
 62
   120
370
     5
100
AcDbLine
 10
-270.7323747604415
 20
-290.182315263076
 30
0.0
 11
319.2676252395607
 21
299.817684736925
 31
0.0
  0
LINE
  5
1C1
330
1F
100
AcDbEntity
  8
0-0
  6
JWW_DASHED1
 62
   120
370
     5
100
AcDbLine
 10
-270.7323747604313
 20
-283.1112474512
 30
0.0
 11
319.2676252395539
 21
306.8887525487861
 31
0.0
  0
LINE
  5
1C2
330
1F
100
AcDbEntity
  8
0-0
  6
JWW_DASHED1
 62
   120
370
     5
100
AcDbLine
 10
-270.7323747604211
 20
-276.0401796393231
 30
0.0
 11
319.2676252395642
 21
313.9598203606625
 31
0.0
  0
LINE
  5
1C3
330
1F
100
AcDbEntity
  8
0-0
  6
JWW_DASHED1
 62
   120
370
     5
100
AcDbLine
 10
-270.7323747604415
 20
-268.969111827476
 30
0.0
 11
319.267625239571
 21
321.0308881725348
 31
0.0
  0
LINE
  5
1C4
330
1F
100
AcDbEntity
  8
0-0
  6
JWW_DASHED1
 62
   120
370
     5
100
AcDbLine
 10
-270.7323747604347
 20
-261.8980440156017
 30
0.0
 11
319.2676252395539
 21
328.1019559843839
 31
0.0
  0
LINE
  5
1C5
330
1F
100
AcDbEntity
  8
0-0
  6
JWW_DASHED1
 62
   120
370
     5
100
AcDbLine
 10
-270.7323747604211
 20
-254.8269762037252
 30
0.0
 11
319.2676252395642
 21
335.1730237962605
 31
0.0
  0
LINE
  5
1C6
330
1F
100
AcDbEntity
  8
0-0
  6
JWW_DASHED1
 62
   120
370
     5
100
AcDbLine
 10
-270.7323747604279
 20
-247.7559083918624
 30
0.0
 11
319.2676252395676
 21
342.2440916081331
 31
0.0
  0
LINE
  5
1C7
330
1F
100
AcDbEntity
  8
0-0
  6
JWW_DASHED1
 62
   120
370
     5
100
AcDbLine
 10
-270.7323747604347
 20
-240.6848405800034
 30
0.0
 11
319.2676252395505
 21
349.3151594199823
 31
0.0
  0
LINE
  5
1C8
330
1F
100
AcDbEntity
  8
0-0
  6
JWW_DASHED1
 62
   120
370
     5
100
AcDbLine
 10
-270.7323747604245
 20
-233.6137727681273
 30
0.0
 11
319.2676252395607
 21
356.3862272318588
 31
0.0
  0
LINE
  5
1C9
330
1F
100
AcDbEntity
  8
0-0
  6
JWW_DASHED1
 62
   120
370
     5
100
AcDbLine
 10
-270.7323747604279
 20
-226.5427049562636
 30
0.0
 11
319.2676252395676
 21
363.4572950437318
 31
0.0
  0
LINE
  5
1CA
330
1F
100
AcDbEntity
  8
0-0
  6
JWW_DASHED1
 62
   120
370
     5
100
AcDbLine
 10
-270.7323747604347
 20
-219.4716371444055
 30
0.0
 11
319.2676252395505
 21
370.5283628555802
 31
0.0
  0
LINE
  5
1CB
330
1F
100
AcDbEntity
  8
0-0
  6
JWW_DASHED1
 62
   120
370
     5
100
AcDbLine
 10
-270.7323747604279
 20
-212.400569332529
 30
0.0
 11
319.2676252395607
 21
377.5994306674571
 31
0.0
  0
LINE
  5
1CC
330
1F
100
AcDbEntity
  8
0-0
  6
JWW_DASHED1
 62
   120
370
     5
100
AcDbLine
 10
-270.7323747604279
 20
-205.3295015206649
 30
0.0
 11
319.2676252395676
 21
384.6704984793301
 31
0.0
  0
LINE
  5
1CD
330
1F
100
AcDbEntity
  8
0-0
  6
JWW_DASHED1
 62
   120
370
     5
100
AcDbLine
 10
-270.7323747604381
 20
-198.2584337088076
 30
0.0
 11
319.2676252395642
 21
391.7415662911942
 31
0.0
  0
LINE
  5
1CE
330
1F
100
AcDbEntity
  8
0-0
  6
JWW_DASHED1
 62
   120
370
     5
100
AcDbLine
 10
-270.7323747604279
 20
-191.1873658969307
 30
0.0
 11
319.2676252395573
 21
398.812634103055
 31
0.0
  0
LINE
  5
1CF
330
1F
100
AcDbEntity
  8
0-0
  6
JWW_DASHED1
 62
   120
370
     5
100
AcDbLine
 10
-270.7323747604313
 20
-184.1162980850666
 30
0.0
 11
319.2676252395642
 21
405.8837019149288
 31
0.0
  0
LINE
  5
1D0
330
1F
100
AcDbEntity
  8
0-0
  6
JWW_DASHED1
 62
   120
370
     5
100
AcDbLine
 10
-270.7323747604415
 20
-177.0452302732093
 30
0.0
 11
319.2676252395607
 21
412.9547697267921
 31
0.0
  0
LINE
  5
1D1
330
1F
100
AcDbEntity
  8
0-0
  6
JWW_DASHED1
 62
   120
370
     5
100
AcDbLine
 10
-270.7323747604279
 20
-169.9741624613324
 30
0.0
 11
319.2676252395539
 21
420.0258375386533
 31
0.0
  0
LINE
  5
1D2
330
1F
100
AcDbEntity
  8
0-0
  6
JWW_DASHED1
 62
   120
370
     5
100
AcDbLine
 10
-270.7323747604211
 20
-162.9030946494559
 30
0.0
 11
319.2676252395676
 21
427.0969053505297
 31
0.0
  0
LINE
  5
1D3
330
1F
100
AcDbEntity
  8
0-0
  6
JWW_DASHED1
 62
   120
370
     5
100
AcDbLine
 10
-270.7323747604415
 20
-155.832026837611
 30
0.0
 11
319.2676252395607
 21
434.1679731623904
 31
0.0
  0
LINE
  5
1D4
330
1F
100
AcDbEntity
  8
0-0
  6
JWW_DASHED1
 62
   120
370
     5
100
AcDbLine
 10
-270.7323747604313
 20
-148.7609590257345
 30
0.0
 11
319.2676252395539
 21
441.2390409742511
 31
0.0
  0
LINE
  5
1D5
330
1F
100
AcDbEntity
  8
0-0
  6
JWW_DASHED1
 62
   120
370
     5
100
AcDbLine
 10
-270.7323747604211
 20
-141.6898912138581
 30
0.0
 11
319.2676252395642
 21
448.310108786128
 31
0.0
  0
LINE
  5
1D6
330
1F
100
AcDbEntity
  8
0-0
  6
JWW_DASHED1
 62
   120
370
     5
100
AcDbLine
 10
-270.7323747604279
 20
-134.6188234020221
 30
0.0
 11
319.2676252395676
 21
455.381176597973
 31
0.0
  0
LINE
  5
1D7
330
1F
100
AcDbEntity
  8
0-0
  6
JWW_DASHED1
 62
   120
370
     5
100
AcDbLine
 10
-270.7323747604381
 20
-127.5477555901955
 30
0.0
 11
319.2676252395642
 21
462.4522444098063
 31
0.0
  0
LINE
  5
1D8
330
1F
100
AcDbEntity
  8
0-0
  6
JWW_DASHED1
 62
   120
370
     5
100
AcDbLine
 10
-270.7323747604279
 20
-120.4766877783186
 30
0.0
 11
319.2676252395573
 21
469.5233122216671
 31
0.0
  0
LINE
  5
1D9
330
1F
100
AcDbEntity
  8
0-0
  6
JWW_DASHED1
 62
   120
370
     5
100
AcDbLine
 10
-270.7323747604279
 20
-113.4056199664536
 30
0.0
 11
319.2676252395676
 21
476.5943800335418
 31
0.0
  0
LINE
  5
1DA
330
1F
100
AcDbEntity
  8
0-0
  6
JWW_DASHED1
 62
   120
370
     5
100
AcDbLine
 10
-270.7323747604415
 20
-106.3345521545972
 30
0.0
 11
319.2676252395607
 21
483.6654478454042
 31
0.0
  0
LINE
  5
1DB
330
1F
100
AcDbEntity
  8
0-0
  6
JWW_DASHED1
 62
   120
370
     5
100
AcDbLine
 10
-270.7323747604279
 20
-99.26348434272029
 30
0.0
 11
319.2676252395539
 21
490.7365156572654
 31
0.0
  0
LINE
  5
1DC
330
1F
100
AcDbEntity
  8
0-0
  6
JWW_DASHED1
 62
   120
370
     5
100
AcDbLine
 10
-270.7323747604211
 20
-92.19241653084381
 30
0.0
 11
319.2676252395676
 21
497.8075834691418
 31
0.0
  0
LINE
  5
1DD
330
1F
100
AcDbEntity
  8
0-0
  6
JWW_DASHED1
 62
   120
370
     5
100
AcDbLine
 10
-270.7323747604415
 20
-85.12134871899889
 30
0.0
 11
319.2676252395607
 21
504.8786512810025
 31
0.0
  0
LINE
  5
1DE
330
1F
100
AcDbEntity
  8
0-0
  6
JWW_DASHED1
 62
   120
370
     5
100
AcDbLine
 10
-270.7323747604313
 20
-78.05028090712241
 30
0.0
 11
319.2676252395539
 21
511.9497190928632
 31
0.0
  0
LINE
  5
1DF
330
1F
100
AcDbEntity
  8
0-0
  6
JWW_DASHED1
 62
   120
370
     5
100
AcDbLine
 10
-270.7323747604211
 20
-70.97921309524594
 30
0.0
 11
319.2676252395642
 21
519.0207869047401
 31
0.0
  0
LINE
  5
1E0
330
1F
100
AcDbEntity
  8
0-0
  6
JWW_DASHED1
 62
   120
370
     5
100
AcDbLine
 10
-270.7323747604381
 20
-63.90814528339547
 30
0.0
 11
319.2676252395744
 21
526.0918547166153
 31
0.0
  0
LINE
  5
1E1
330
1F
100
AcDbEntity
  8
0-0
  6
JWW_DASHED1
 62
   120
370
     5
100
AcDbLine
 10
-270.7323747604347
 20
-56.83707747152411
 30
0.0
 11
319.2676252395539
 21
533.1629225284615
 31
0.0
  0
LINE
  5
1E2
330
1F
100
AcDbEntity
  8
0-0
  6
JWW_DASHED1
 62
   120
370
     5
100
AcDbLine
 10
-270.7323747604245
 20
-49.76600965964764
 30
0.0
 11
319.2676252395607
 21
540.233990340338
 31
0.0
  0
LINE
  5
1E3
330
1F
100
AcDbEntity
  8
0-0
  6
JWW_DASHED1
 62
   120
370
     5
100
AcDbLine
 10
-270.7323747604245
 20
-42.69494184778097
 30
0.0
 11
319.267625239571
 21
547.3050581522141
 31
0.0
  0
LINE
  5
1E4
330
1F
100
AcDbEntity
  8
0-0
  6
JWW_DASHED1
 62
   120
370
     5
100
AcDbLine
 10
-270.7323747604347
 20
-35.62387403592624
 30
0.0
 11
319.2676252395505
 21
554.3761259640598
 31
0.0
  0
LINE
  5
1E5
330
1F
100
AcDbEntity
  8
0-0
  6
JWW_DASHED1
 62
   120
370
     5
100
AcDbLine
 10
-270.7323747604245
 20
-28.55280622404933
 30
0.0
 11
319.2676252395607
 21
561.4471937759363
 31
0.0
  0
LINE
  5
1E6
330
1F
100
AcDbEntity
  8
0-0
  6
JWW_DASHED1
 62
   120
370
     5
100
AcDbLine
 10
-270.7323747604245
 20
-21.48173841218266
 30
0.0
 11
319.2676252395676
 21
568.5182615878124
 31
0.0
  0
LINE
  5
1E7
330
1F
100
AcDbEntity
  8
0-0
  6
JWW_DASHED1
 62
   120
370
     5
100
AcDbLine
 10
-270.7323747604381
 20
-14.41067060032793
 30
0.0
 11
319.2676252395471
 21
575.5893293996577
 31
0.0
  0
LINE
  5
1E8
330
1F
100
AcDbEntity
  8
0-0
  6
JWW_DASHED1
 62
   120
370
     5
100
AcDbLine
 10
-270.7323747604279
 20
-7.339602788451032
 30
0.0
 11
319.2676252395573
 21
582.6603972115346
 31
0.0
  0
LINE
  5
1E9
330
1F
100
AcDbEntity
  8
0-0
  6
JWW_DASHED1
 62
   120
370
     5
100
AcDbLine
 10
-270.7323747604279
 20
-0.2685349765843625
 30
0.0
 11
319.2676252395676
 21
589.7314650234111
 31
0.0
  0
LINE
  5
1EA
330
1F
100
AcDbEntity
  8
0-0
  6
JWW_DASHED1
 62
   120
370
     5
100
AcDbLine
 10
-270.7323747604381
 20
6.80253283527037
 30
0.0
 11
314.0044888206079
 21
591.5393964163172
 31
0.0
  0
LINE
  5
1EB
330
1F
100
AcDbEntity
  8
0-0
  6
JWW_DASHED1
 62
   120
370
     5
100
AcDbLine
 10
-270.7323747604279
 20
13.87360064714642
 30
0.0
 11
306.933421008748
 21
591.5393964163223
 31
0.0
  0
LINE
  5
1EC
330
1F
100
AcDbEntity
  8
0-0
  6
JWW_DASHED1
 62
   120
370
     5
100
AcDbLine
 10
-270.7323747604211
 20
20.94466845902332
 30
0.0
 11
299.8623531968677
 21
591.5393964163126
 31
0.0
  0
LINE
  5
1ED
330
1F
100
AcDbEntity
  8
0-0
  6
JWW_DASHED1
 62
   120
370
     5
100
AcDbLine
 10
-270.7323747604415
 20
28.01573627086867
 30
0.0
 11
292.7912853850079
 21
591.5393964163189
 31
0.0
  0
LINE
  5
1EE
330
1F
100
AcDbEntity
  8
0-0
  6
JWW_DASHED1
 62
   120
370
     5
100
AcDbLine
 10
-270.7323747604313
 20
35.08680408274472
 30
0.0
 11
285.720217573148
 21
591.539396416324
 31
0.0
  0
LINE
  5
1EF
330
1F
100
AcDbEntity
  8
0-0
  6
JWW_DASHED1
 62
   120
370
     5
100
AcDbLine
 10
-270.7323747604211
 20
42.15787189462162
 30
0.0
 11
278.6491497612711
 21
591.5393964163138
 31
0.0
  0
LINE
  5
1F0
330
1F
100
AcDbEntity
  8
0-0
  6
JWW_DASHED1
 62
   120
370
     5
100
AcDbLine
 10
-270.7323747604415
 20
49.22893970646612
 30
0.0
 11
271.5780819494113
 21
591.5393964163206
 31
0.0
  0
LINE
  5
1F1
330
1F
100
AcDbEntity
  8
0-0
  6
JWW_DASHED1
 62
   120
370
     5
100
AcDbLine
 10
-270.7323747604347
 20
56.30000751834302
 30
0.0
 11
264.507014137548
 21
591.5393964163253
 31
0.0
  0
LINE
  5
1F2
330
1F
100
AcDbEntity
  8
0-0
  6
JWW_DASHED1
 62
   120
370
     5
100
AcDbLine
 10
-270.7323747604245
 20
63.3710753302195
 30
0.0
 11
257.4359463256711
 21
591.5393964163147
 31
0.0
  0
LINE
  5
1F3
330
1F
100
AcDbEntity
  8
0-0
  6
JWW_DASHED1
 62
   120
370
     5
100
AcDbLine
 10
-270.7323747604381
 20
70.4421431420721
 30
0.0
 11
250.3648785137976
 21
591.539396416307
 31
0.0
  0
LINE
  5
1F4
330
1F
100
AcDbEntity
  8
0-0
  6
JWW_DASHED1
 62
   120
370
     5
100
AcDbLine
 10
-270.7323747604347
 20
77.51321095394132
 30
0.0
 11
243.2938107019514
 21
591.5393964163266
 31
0.0
  0
LINE
  5
1F5
330
1F
100
AcDbEntity
  8
0-0
  6
JWW_DASHED1
 62
   120
370
     5
100
AcDbLine
 10
-270.7323747604245
 20
84.58427876581823
 30
0.0
 11
236.2227428900745
 21
591.5393964163163
 31
0.0
  0
LINE
  5
1F6
330
1F
100
AcDbEntity
  8
0-0
  6
JWW_DASHED1
 62
   120
370
     5
100
AcDbLine
 10
-270.7323747604211
 20
91.6553465776866
 30
0.0
 11
229.1516750781976
 21
591.5393964163061
 31
0.0
  0
LINE
  5
1F7
330
1F
100
AcDbEntity
  8
0-0
  6
JWW_DASHED1
 62
   120
370
     5
100
AcDbLine
 10
-270.7323747604347
 20
98.72641438953963
 30
0.0
 11
222.0806072663514
 21
591.5393964163275
 31
0.0
  0
LINE
  5
1F8
330
1F
100
AcDbEntity
  8
0-0
  6
JWW_DASHED1
 62
   120
370
     5
100
AcDbLine
 10
-270.7323747604279
 20
105.7974822014157
 30
0.0
 11
215.0095394544745
 21
591.5393964163172
 31
0.0
  0
LINE
  5
1F9
330
1F
100
AcDbEntity
  8
0-0
  6
JWW_DASHED1
 62
   120
370
     5
100
AcDbLine
 10
-270.7323747604279
 20
112.8685500132551
 30
0.0
 11
207.9384716426283
 21
591.5393964163095
 31
0.0
  0
LINE
  5
1FA
330
1F
100
AcDbEntity
  8
0-0
  6
JWW_DASHED1
 62
   120
370
     5
100
AcDbLine
 10
-270.7323747604415
 20
119.9396178250782
 30
0.0
 11
200.8674038307991
 21
591.5393964163206
 31
0.0
  0
LINE
  5
1FB
330
1F
100
AcDbEntity
  8
0-0
  6
JWW_DASHED1
 62
   120
370
     5
100
AcDbLine
 10
-270.7323747604347
 20
127.0106856369551
 30
0.0
 11
193.7963360189359
 21
591.5393964163231
 31
0.0
  0
LINE
  5
1FC
330
1F
100
AcDbEntity
  8
0-0
  6
JWW_DASHED1
 62
   120
370
     5
100
AcDbLine
 10
-270.7323747604245
 20
134.0817534488316
 30
0.0
 11
186.725268207059
 21
591.5393964163129
 31
0.0
  0
LINE
  5
1FD
330
1F
100
AcDbEntity
  8
0-0
  6
JWW_DASHED1
 62
   120
370
     5
100
AcDbLine
 10
-270.7323747604347
 20
141.1528212606851
 30
0.0
 11
179.6542003951855
 21
591.539396416307
 31
0.0
  0
LINE
  5
1FE
330
1F
100
AcDbEntity
  8
0-0
  6
JWW_DASHED1
 62
   120
370
     5
100
AcDbLine
 10
-270.7323747604347
 20
148.2238890725534
 30
0.0
 11
172.5831325833359
 21
591.539396416325
 31
0.0
  0
LINE
  5
1FF
330
1F
100
AcDbEntity
  8
0-0
  6
JWW_DASHED1
 62
   120
370
     5
100
AcDbLine
 10
-270.7323747604245
 20
155.2949568844299
 30
0.0
 11
165.512064771459
 21
591.5393964163147
 31
0.0
  0
LINE
  5
200
330
1F
100
AcDbEntity
  8
0-0
  6
JWW_DASHED1
 62
   120
370
     5
100
AcDbLine
 10
-270.7323747604211
 20
162.3660246962996
 30
0.0
 11
158.4409969595821
 21
591.5393964163045
 31
0.0
  0
LINE
  5
201
330
1F
100
AcDbEntity
  8
0-0
  6
JWW_DASHED1
 62
   120
370
     5
100
AcDbLine
 10
-270.7323747604381
 20
169.4370925081513
 30
0.0
 11
151.3699291477359
 21
591.5393964163262
 31
0.0
  0
LINE
  5
202
330
1F
100
AcDbEntity
  8
0-0
  6
JWW_DASHED1
 62
   120
370
     5
100
AcDbLine
 10
-270.7323747604279
 20
176.5081603200278
 30
0.0
 11
144.2988613358624
 21
591.5393964163155
 31
0.0
  0
LINE
  5
203
330
1F
100
AcDbEntity
  8
0-0
  6
JWW_DASHED1
 62
   120
370
     5
100
AcDbLine
 10
-270.7323747604245
 20
183.5792281318979
 30
0.0
 11
137.2277935239821
 21
591.5393964163053
 31
0.0
  0
LINE
  5
204
330
1F
100
AcDbEntity
  8
0-0
  6
JWW_DASHED1
 62
   120
370
     5
100
AcDbLine
 10
-270.7323747604381
 20
190.6502959437496
 30
0.0
 11
130.156725712129
 21
591.5393964163163
 31
0.0
  0
LINE
  5
205
330
1F
100
AcDbEntity
  8
0-0
  6
JWW_DASHED1
 62
   120
370
     5
100
AcDbLine
 10
-270.7323747604279
 20
197.7213637556261
 30
0.0
 11
123.0856579002624
 21
591.5393964163172
 31
0.0
  0
LINE
  5
206
330
1F
100
AcDbEntity
  8
0-0
  6
JWW_DASHED1
 62
   120
370
     5
100
AcDbLine
 10
-270.7323747604245
 20
204.7924315674966
 30
0.0
 11
116.0145900883855
 21
591.539396416307
 31
0.0
  0
LINE
  5
207
330
1F
100
AcDbEntity
  8
0-0
  6
JWW_DASHED1
 62
   120
370
     5
100
AcDbLine
 10
-270.7323747604415
 20
211.8634993793479
 30
0.0
 11
108.943522276529
 21
591.5393964163185
 31
0.0
  0
LINE
  5
208
330
1F
100
AcDbEntity
  8
0-0
  6
JWW_DASHED1
 62
   120
370
     5
100
AcDbLine
 10
-270.7323747604313
 20
218.9345671912244
 30
0.0
 11
101.8724544646624
 21
591.5393964163185
 31
0.0
  0
LINE
  5
209
330
1F
100
AcDbEntity
  8
0-0
  6
JWW_DASHED1
 62
   120
370
     5
100
AcDbLine
 10
-270.7323747604211
 20
226.0056350031009
 30
0.0
 11
94.80138665278545
 21
591.5393964163079
 31
0.0
  0
LINE
  5
20A
330
1F
100
AcDbEntity
  8
0-0
  6
JWW_DASHED1
 62
   120
370
     5
100
AcDbLine
 10
-270.7323747604415
 20
233.0767028149458
 30
0.0
 11
87.73031884093243
 21
591.5393964163197
 31
0.0
  0
LINE
  5
20B
330
1F
100
AcDbEntity
  8
0-0
  6
JWW_DASHED1
 62
   120
370
     5
100
AcDbLine
 10
-270.7323747604347
 20
240.1477706268223
 30
0.0
 11
80.65925102906576
 21
591.5393964163197
 31
0.0
  0
LINE
  5
20C
330
1F
100
AcDbEntity
  8
0-0
  6
JWW_DASHED1
 62
   120
370
     5
100
AcDbLine
 10
-270.7323747604211
 20
247.2188384386992
 30
0.0
 11
73.58818321718886
 21
591.5393964163095
 31
0.0
  0
LINE
  5
20D
330
1F
100
AcDbEntity
  8
0-0
  6
JWW_DASHED1
 62
   120
370
     5
100
AcDbLine
 10
-270.7323747604347
 20
254.2899062505543
 30
0.0
 11
66.51711540531878
 21
591.5393964163065
 31
0.0
  0
LINE
  5
20E
330
1F
100
AcDbEntity
  8
0-0
  6
JWW_DASHED1
 62
   120
370
     5
100
AcDbLine
 10
-270.7323747604347
 20
261.3609740624206
 30
0.0
 11
59.44604759346575
 21
591.5393964163211
 31
0.0
  0
LINE
  5
20F
330
1F
100
AcDbEntity
  8
0-0
  6
JWW_DASHED1
 62
   120
370
     5
100
AcDbLine
 10
-270.7323747604245
 20
268.4320418742971
 30
0.0
 11
52.37497978158885
 21
591.5393964163113
 31
0.0
  0
LINE
  5
210
330
1F
100
AcDbEntity
  8
0-0
  6
JWW_DASHED1
 62
   120
370
     5
100
AcDbLine
 10
-270.7323747604211
 20
275.5031096861684
 30
0.0
 11
45.30391196971195
 21
591.5393964163011
 31
0.0
  0
LINE
  5
211
330
1F
100
AcDbEntity
  8
0-0
  6
JWW_DASHED1
 62
   120
370
     5
100
AcDbLine
 10
-270.7323747604347
 20
282.5741774980189
 30
0.0
 11
38.23284415786915
 21
591.5393964163223
 31
0.0
  0
LINE
  5
212
330
1F
100
AcDbEntity
  8
0-0
  6
JWW_DASHED1
 62
   120
370
     5
100
AcDbLine
 10
-270.7323747604279
 20
289.6452453098954
 30
0.0
 11
31.16177634598884
 21
591.5393964163126
 31
0.0
  0
LINE
  5
213
330
1F
100
AcDbEntity
  8
0-0
  6
JWW_DASHED1
 62
   120
370
     5
100
AcDbLine
 10
-270.7323747604211
 20
296.7163131217671
 30
0.0
 11
24.09070853411535
 21
591.5393964163023
 31
0.0
  0
LINE
  5
214
330
1F
100
AcDbEntity
  8
0-0
  6
JWW_DASHED1
 62
   120
370
     5
100
AcDbLine
 10
-270.7323747604381
 20
303.7873809336168
 30
0.0
 11
17.01964072226914
 21
591.5393964163236
 31
0.0
  0
LINE
  5
215
330
1F
100
AcDbEntity
  8
0-0
  6
JWW_DASHED1
 62
   120
370
     5
100
AcDbLine
 10
-270.7323747604279
 20
310.8584487454932
 30
0.0
 11
9.948572910392244
 21
591.5393964163138
 31
0.0
  0
LINE
  5
216
330
1F
100
AcDbEntity
  8
0-0
  6
JWW_DASHED1
 62
   120
370
     5
100
AcDbLine
 10
-270.7323747604211
 20
317.9295165573654
 30
0.0
 11
2.877505098515343
 21
591.5393964163036
 31
0.0
  0
LINE
  5
217
330
1F
100
AcDbEntity
  8
0-0
  6
JWW_DASHED1
 62
   120
370
     5
100
AcDbLine
 10
-270.7323747604415
 20
325.0005843692151
 30
0.0
 11
-4.193562713337684
 21
591.5393964163181
 31
0.0
  0
LINE
  5
218
330
1F
100
AcDbEntity
  8
0-0
  6
JWW_DASHED1
 62
   120
370
     5
100
AcDbLine
 10
-270.7323747604279
 20
332.0716521810915
 30
0.0
 11
-11.26463052520776
 21
591.5393964163147
 31
0.0
  0
LINE
  5
219
330
1F
100
AcDbEntity
  8
0-0
  6
JWW_DASHED1
 62
   120
370
     5
100
AcDbLine
 10
-270.7323747604245
 20
339.1427199929642
 30
0.0
 11
-18.33569833708466
 21
591.5393964163048
 31
0.0
  0
LINE
  5
21A
330
1F
100
AcDbEntity
  8
0-0
  6
JWW_DASHED1
 62
   120
370
     5
100
AcDbLine
 10
-270.7323747604279
 20
346.2137878047993
 30
0.0
 11
-25.40676614891382
 21
591.5393964163129
 31
0.0
  0
LINE
  5
21B
330
1F
100
AcDbEntity
  8
0-0
  6
JWW_DASHED1
 62
   120
370
     5
100
AcDbLine
 10
-270.7323747604347
 20
353.284855616631
 30
0.0
 11
-32.47783396074638
 21
591.5393964163206
 31
0.0
  0
LINE
  5
21C
330
1F
100
AcDbEntity
  8
0-0
  6
JWW_DASHED1
 62
   120
370
     5
100
AcDbLine
 10
-270.7323747604279
 20
360.3559234285075
 30
0.0
 11
-39.54890177262328
 21
591.5393964163104
 31
0.0
  0
LINE
  5
21D
330
1F
100
AcDbEntity
  8
0-0
  6
JWW_DASHED1
 62
   120
370
     5
100
AcDbLine
 10
-270.7323747604211
 20
367.4269912403805
 30
0.0
 11
-46.61996958450018
 21
591.5393964163006
 31
0.0
  0
LINE
  5
21E
330
1F
100
AcDbEntity
  8
0-0
  6
JWW_DASHED1
 62
   120
370
     5
100
AcDbLine
 10
-270.7323747604381
 20
374.4980590522289
 30
0.0
 11
-53.69103739634639
 21
591.5393964163219
 31
0.0
  0
LINE
  5
21F
330
1F
100
AcDbEntity
  8
0-0
  6
JWW_DASHED1
 62
   120
370
     5
100
AcDbLine
 10
-270.7323747604279
 20
381.5691268641053
 30
0.0
 11
-60.76210520822329
 21
591.5393964163117
 31
0.0
  0
LINE
  5
220
330
1F
100
AcDbEntity
  8
0-0
  6
JWW_DASHED1
 62
   120
370
     5
100
AcDbLine
 10
-270.7323747604211
 20
388.6401946759793
 30
0.0
 11
-67.83317302009678
 21
591.5393964163019
 31
0.0
  0
LINE
  5
221
330
1F
100
AcDbEntity
  8
0-0
  6
JWW_DASHED1
 62
   120
370
     5
100
AcDbLine
 10
-270.7323747604415
 20
395.7112624878272
 30
0.0
 11
-74.9042408319498
 21
591.5393964163181
 31
0.0
  0
LINE
  5
222
330
1F
100
AcDbEntity
  8
0-0
  6
JWW_DASHED1
 62
   120
370
     5
100
AcDbLine
 10
-270.7323747604279
 20
402.7823302997041
 30
0.0
 11
-81.97530864381989
 21
591.5393964163129
 31
0.0
  0
LINE
  5
223
330
1F
100
AcDbEntity
  8
0-0
  6
JWW_DASHED1
 62
   120
370
     5
100
AcDbLine
 10
-270.7323747604211
 20
409.8533981115771
 30
0.0
 11
-89.04637645569679
 21
591.5393964163031
 31
0.0
  0
LINE
  5
224
330
1F
100
AcDbEntity
  8
0-0
  6
JWW_DASHED1
 62
   120
370
     5
100
AcDbLine
 10
-270.7323747604415
 20
416.924465923425
 30
0.0
 11
-96.1174442675464
 21
591.5393964163197
 31
0.0
  0
LINE
  5
225
330
1F
100
AcDbEntity
  8
0-0
  6
JWW_DASHED1
 62
   120
370
     5
100
AcDbLine
 10
-270.7323747604313
 20
423.9955337353015
 30
0.0
 11
-103.1885120794199
 21
591.5393964163147
 31
0.0
  0
LINE
  5
226
330
1F
100
AcDbEntity
  8
0-0
  6
JWW_DASHED1
 62
   120
370
     5
100
AcDbLine
 10
-270.7323747604211
 20
431.0666015471784
 30
0.0
 11
-110.2595798912968
 21
591.5393964163045
 31
0.0
  0
LINE
  5
227
330
1F
100
AcDbEntity
  8
0-0
  6
JWW_DASHED1
 62
   120
370
     5
100
AcDbLine
 10
-270.7323747604415
 20
438.1376693590238
 30
0.0
 11
-117.3306477031464
 21
591.5393964163219
 31
0.0
  0
LINE
  5
228
330
1F
100
AcDbEntity
  8
0-0
  6
JWW_DASHED1
 62
   120
370
     5
100
AcDbLine
 10
-270.7323747604347
 20
445.2087371708998
 30
0.0
 11
-124.4017155150165
 21
591.5393964163155
 31
0.0
  0
LINE
  5
229
330
1F
100
AcDbEntity
  8
0-0
  6
JWW_DASHED1
 62
   120
370
     5
100
AcDbLine
 10
-270.7323747604245
 20
452.2798049827763
 30
0.0
 11
-131.4727833268968
 21
591.5393964163057
 31
0.0
  0
LINE
  5
22A
330
1F
100
AcDbEntity
  8
0-0
  6
JWW_DASHED1
 62
   120
370
     5
100
AcDbLine
 10
-270.7323747604313
 20
459.3508727946353
 30
0.0
 11
-138.5438511387601
 21
591.5393964163079
 31
0.0
  0
LINE
  5
22B
330
1F
100
AcDbEntity
  8
0-0
  6
JWW_DASHED1
 62
   120
370
     5
100
AcDbLine
 10
-270.7323747604347
 20
466.4219406064981
 30
0.0
 11
-145.6149189506165
 21
591.5393964163172
 31
0.0
  0
LINE
  5
22C
330
1F
100
AcDbEntity
  8
0-0
  6
JWW_DASHED1
 62
   120
370
     5
100
AcDbLine
 10
-270.7323747604279
 20
473.4930084183746
 30
0.0
 11
-152.6859867624934
 21
591.539396416307
 31
0.0
  0
LINE
  5
22D
330
1F
100
AcDbEntity
  8
0-0
  6
JWW_DASHED1
 62
   120
370
     5
100
AcDbLine
 10
-270.7323747604177
 20
480.5640762302494
 30
0.0
 11
-159.7570545743703
 21
591.5393964162968
 31
0.0
  0
LINE
  5
22E
330
1F
100
AcDbEntity
  8
0-0
  6
JWW_DASHED1
 62
   120
370
     5
100
AcDbLine
 10
-270.7323747604381
 20
487.635144042096
 30
0.0
 11
-166.8281223862165
 21
591.5393964163181
 31
0.0
  0
LINE
  5
22F
330
1F
100
AcDbEntity
  8
0-0
  6
JWW_DASHED1
 62
   120
370
     5
100
AcDbLine
 10
-270.7323747604279
 20
494.7062118539729
 30
0.0
 11
-173.8991901980934
 21
591.5393964163079
 31
0.0
  0
LINE
  5
230
330
1F
100
AcDbEntity
  8
0-0
  6
JWW_DASHED1
 62
   120
370
     5
100
AcDbLine
 10
-270.7323747604211
 20
501.7772796658481
 30
0.0
 11
-180.9702580099703
 21
591.539396416298
 31
0.0
  0
LINE
  5
231
330
1F
100
AcDbEntity
  8
0-0
  6
JWW_DASHED1
 62
   120
370
     5
100
AcDbLine
 10
-270.7323747604415
 20
508.8483474776943
 30
0.0
 11
-188.0413258218165
 21
591.5393964163177
 31
0.0
  0
LINE
  5
232
330
1F
100
AcDbEntity
  8
0-0
  6
JWW_DASHED1
 62
   120
370
     5
100
AcDbLine
 10
-270.7323747604279
 20
515.9194152895708
 30
0.0
 11
-195.11239363369
 21
591.5393964163095
 31
0.0
  0
LINE
  5
233
330
1F
100
AcDbEntity
  8
0-0
  6
JWW_DASHED1
 62
   120
370
     5
100
AcDbLine
 10
-270.7323747604211
 20
522.9904831014464
 30
0.0
 11
-202.1834614455669
 21
591.5393964162993
 31
0.0
  0
LINE
  5
234
330
1F
100
AcDbEntity
  8
0-0
  6
JWW_DASHED1
 62
   120
370
     5
100
AcDbLine
 10
-270.7323747604415
 20
530.0615509132926
 30
0.0
 11
-209.2545292574165
 21
591.5393964163189
 31
0.0
  0
LINE
  5
235
330
1F
100
AcDbEntity
  8
0-0
  6
JWW_DASHED1
 62
   120
370
     5
100
AcDbLine
 10
-270.7323747604313
 20
537.1326187251691
 30
0.0
 11
-216.32559706929
 21
591.5393964163109
 31
0.0
  0
LINE
  5
236
330
1F
100
AcDbEntity
  8
0-0
  6
JWW_DASHED1
 62
   120
370
     5
100
AcDbLine
 10
-270.7323747604211
 20
544.2036865370455
 30
0.0
 11
-223.3966648811669
 21
591.5393964163002
 31
0.0
  0
LINE
  5
237
330
1F
100
AcDbEntity
  8
0-0
  6
JWW_DASHED1
 62
   120
370
     5
100
AcDbLine
 10
-270.7323747604415
 20
551.2747543488905
 30
0.0
 11
-230.4677326930131
 21
591.5393964163211
 31
0.0
  0
LINE
  5
238
330
1F
100
AcDbEntity
  8
0-0
  6
JWW_DASHED1
 62
   120
370
     5
100
AcDbLine
 10
-270.7323747604347
 20
558.3458221607674
 30
0.0
 11
-237.53880050489
 21
591.5393964163121
 31
0.0
  0
LINE
  5
239
330
1F
100
AcDbEntity
  8
0-0
  6
JWW_DASHED1
 62
   120
370
     5
100
AcDbLine
 10
-270.7323747604245
 20
565.4168899726438
 30
0.0
 11
-244.6098683167635
 21
591.5393964163023
 31
0.0
  0
LINE
  5
23A
330
1F
100
AcDbEntity
  8
0-0
  6
JWW_DASHED1
 62
   120
370
     5
100
AcDbLine
 10
-270.7323747604279
 20
572.4879577845041
 30
0.0
 11
-251.6809361286268
 21
591.539396416307
 31
0.0
  0
LINE
  5
23B
330
1F
100
AcDbEntity
  8
0-0
  6
JWW_DASHED1
 62
   120
370
     5
100
AcDbLine
 10
-270.7323747604347
 20
579.5590255963652
 30
0.0
 11
-258.7520039404866
 21
591.5393964163129
 31
0.0
  0
LINE
  5
23C
330
1F
100
AcDbEntity
  8
0-0
  6
JWW_DASHED1
 62
   120
370
     5
100
AcDbLine
 10
-270.7323747604245
 20
586.6300934082417
 30
0.0
 11
-265.8230717523635
 21
591.5393964163036
 31
0.0
  0
LINE
  5
23D
330
1F
100
AcDbEntity
  8
0-0
  6
JWW_DASHED1
 62
   120
370
     5
100
AcDbLine
 10
53.18233781897774
 20
-383.4606035836823
 30
0.0
 11
319.2676252395573
 21
-117.3753161631019
 31
0.0
  0
LINE
  5
23E
330
1F
100
AcDbEntity
  8
0-0
  6
Continuous
 62
    92
370
    13
100
AcDbLine
 10
-270.7323747604313
 20
-513.460603583692
 30
0.0
 11
319.267625239571
 21
-513.460603583692
 31
0.0
  0
LINE
  5
23F
330
1F
100
AcDbEntity
  8
0-0
  6
Continuous
 62
    92
370
    13
100
AcDbLine
 10
509.2676252395687
 20
-383.4606035836921
 30
0.0
 11
1099.267625239571
 21
-383.4606035836921
 31
0.0
  0
LINE
  5
240
330
1F
100
AcDbEntity
  8
0-0
  6
JWW_DASHED1
 62
   120
370
     5
100
AcDbLine
 10
1094.811846857997
 20
-383.4606035836759
 30
0.0
 11
1099.267625239554
 21
-379.0048252021176
 31
0.0
  0
LINE
  5
241
330
1F
100
AcDbEntity
  8
0-0
  6
JWW_DASHED1
 62
   120
370
     5
100
AcDbLine
 10
1087.74077904612
 20
-383.4606035836866
 30
0.0
 11
1099.267625239564
 21
-371.9337573902411
 31
0.0
  0
LINE
  5
242
330
1F
100
AcDbEntity
  8
0-0
  6
JWW_DASHED1
 62
   120
370
     5
100
AcDbLine
 10
1080.669711234258
 20
-383.4606035836806
 30
0.0
 11
1099.267625239559
 21
-364.8626895783799
 31
0.0
  0
LINE
  5
243
330
1F
100
AcDbEntity
  8
0-0
  6
JWW_DASHED1
 62
   120
370
     5
100
AcDbLine
 10
1073.598643422397
 20
-383.4606035836751
 30
0.0
 11
1099.267625239554
 21
-357.7916217665193
 31
0.0
  0
LINE
  5
244
330
1F
100
AcDbEntity
  8
0-0
  6
JWW_DASHED1
 62
   120
370
     5
100
AcDbLine
 10
1066.52757561052
 20
-383.4606035836853
 30
0.0
 11
1099.267625239564
 21
-350.7205539546428
 31
0.0
  0
LINE
  5
245
330
1F
100
AcDbEntity
  8
0-0
  6
JWW_DASHED1
 62
   120
370
     5
100
AcDbLine
 10
1059.45650779866
 20
-383.4606035836794
 30
0.0
 11
1099.267625239557
 21
-343.6494861427812
 31
0.0
  0
LINE
  5
246
330
1F
100
AcDbEntity
  8
0-0
  6
JWW_DASHED1
 62
   120
370
     5
100
AcDbLine
 10
1052.385439986783
 20
-383.4606035836883
 30
0.0
 11
1099.267625239567
 21
-336.5784183309056
 31
0.0
  0
LINE
  5
247
330
1F
100
AcDbEntity
  8
0-0
  6
JWW_DASHED1
 62
   120
370
     5
100
AcDbLine
 10
1045.314372174922
 20
-383.4606035836836
 30
0.0
 11
1099.267625239561
 21
-329.5073505190448
 31
0.0
  0
LINE
  5
248
330
1F
100
AcDbEntity
  8
0-0
  6
JWW_DASHED1
 62
   120
370
     5
100
AcDbLine
 10
1038.243304363062
 20
-383.4606035836777
 30
0.0
 11
1099.267625239557
 21
-322.4362827071829
 31
0.0
  0
LINE
  5
249
330
1F
100
AcDbEntity
  8
0-0
  6
JWW_DASHED1
 62
   120
370
     5
100
AcDbLine
 10
1031.172236551186
 20
-383.4606035836862
 30
0.0
 11
1099.267625239564
 21
-315.3652148953073
 31
0.0
  0
LINE
  5
24A
330
1F
100
AcDbEntity
  8
0-0
  6
JWW_DASHED1
 62
   120
370
     5
100
AcDbLine
 10
1024.101168739323
 20
-383.4606035836823
 30
0.0
 11
1099.267625239559
 21
-308.2941470834465
 31
0.0
  0
LINE
  5
24B
330
1F
100
AcDbEntity
  8
0-0
  6
JWW_DASHED1
 62
   120
370
     5
100
AcDbLine
 10
1017.030100927446
 20
-383.4606035836921
 30
0.0
 11
1099.267625239569
 21
-301.2230792715701
 31
0.0
  0
LINE
  5
24C
330
1F
100
AcDbEntity
  8
0-0
  6
JWW_DASHED1
 62
   120
370
     5
100
AcDbLine
 10
1009.959033115588
 20
-383.4606035836845
 30
0.0
 11
1099.267625239564
 21
-294.1520114597094
 31
0.0
  0
LINE
  5
24D
330
1F
100
AcDbEntity
  8
0-0
  6
JWW_DASHED1
 62
   120
370
     5
100
AcDbLine
 10
1002.887965303725
 20
-383.4606035836811
 30
0.0
 11
1099.267625239557
 21
-287.0809436478482
 31
0.0
  0
LINE
  5
24E
330
1F
100
AcDbEntity
  8
0-0
  6
JWW_DASHED1
 62
   120
370
     5
100
AcDbLine
 10
995.8168974918481
 20
-383.4606035836913
 30
0.0
 11
1099.267625239567
 21
-280.0098758359718
 31
0.0
  0
LINE
  5
24F
330
1F
100
AcDbEntity
  8
0-0
  6
JWW_DASHED1
 62
   120
370
     5
100
AcDbLine
 10
988.7458296799899
 20
-383.4606035836828
 30
0.0
 11
1099.267625239564
 21
-272.9388080241094
 31
0.0
  0
LINE
  5
250
330
1F
100
AcDbEntity
  8
0-0
  6
JWW_DASHED1
 62
   120
370
     5
100
AcDbLine
 10
981.674761868171
 20
-383.4606035836883
 30
0.0
 11
1099.267625239567
 21
-265.8677402122935
 31
0.0
  0
LINE
  5
251
330
1F
100
AcDbEntity
  8
0-0
  6
JWW_DASHED1
 62
   120
370
     5
100
AcDbLine
 10
974.6036940563077
 20
-383.4606035836857
 30
0.0
 11
1099.267625239561
 21
-258.7966724004327
 31
0.0
  0
LINE
  5
252
330
1F
100
AcDbEntity
  8
0-0
  6
JWW_DASHED1
 62
   120
370
     5
100
AcDbLine
 10
967.5326262444479
 20
-383.4606035836798
 30
0.0
 11
1099.267625239557
 21
-251.7256045885695
 31
0.0
  0
LINE
  5
253
330
1F
100
AcDbEntity
  8
0-0
  6
JWW_DASHED1
 62
   120
370
     5
100
AcDbLine
 10
960.4615584325744
 20
-383.4606035836862
 30
0.0
 11
1099.267625239564
 21
-244.6545367766952
 31
0.0
  0
LINE
  5
254
330
1F
100
AcDbEntity
  8
0-0
  6
JWW_DASHED1
 62
   120
370
     5
100
AcDbLine
 10
953.3904906207094
 20
-383.4606035836845
 30
0.0
 11
1099.267625239559
 21
-237.5834689648345
 31
0.0
  0
LINE
  5
255
330
1F
100
AcDbEntity
  8
0-0
  6
JWW_DASHED1
 62
   120
370
     5
100
AcDbLine
 10
946.3194228088325
 20
-383.4606035836943
 30
0.0
 11
1099.267625239569
 21
-230.512401152958
 31
0.0
  0
LINE
  5
256
330
1F
100
AcDbEntity
  8
0-0
  6
JWW_DASHED1
 62
   120
370
     5
100
AcDbLine
 10
939.2483549969778
 20
-383.4606035836845
 30
0.0
 11
1099.267625239564
 21
-223.4413333410973
 31
0.0
  0
LINE
  5
257
330
1F
100
AcDbEntity
  8
0-0
  6
JWW_DASHED1
 62
   120
370
     5
100
AcDbLine
 10
932.1772871851111
 20
-383.4606035836828
 30
0.0
 11
1099.267625239557
 21
-216.3702655292361
 31
0.0
  0
LINE
  5
258
330
1F
100
AcDbEntity
  8
0-0
  6
JWW_DASHED1
 62
   120
370
     5
100
AcDbLine
 10
925.1062193732342
 20
-383.460603583693
 30
0.0
 11
1099.267625239567
 21
-209.2991977173597
 31
0.0
  0
LINE
  5
259
330
1F
100
AcDbEntity
  8
0-0
  6
JWW_DASHED1
 62
   120
370
     5
100
AcDbLine
 10
918.0351515613778
 20
-383.4606035836828
 30
0.0
 11
1099.267625239564
 21
-202.228129905496
 31
0.0
  0
LINE
  5
25A
330
1F
100
AcDbEntity
  8
0-0
  6
JWW_DASHED1
 62
   120
370
     5
100
AcDbLine
 10
910.9640837495111
 20
-383.4606035836819
 30
0.0
 11
1099.267625239556
 21
-195.1570620936383
 31
0.0
  0
LINE
  5
25B
330
1F
100
AcDbEntity
  8
0-0
  6
JWW_DASHED1
 62
   120
370
     5
100
AcDbLine
 10
903.8930159376376
 20
-383.4606035836913
 30
0.0
 11
1099.267625239566
 21
-188.0859942817614
 31
0.0
  0
LINE
  5
25C
330
1F
100
AcDbEntity
  8
0-0
  6
JWW_DASHED1
 62
   120
370
     5
100
AcDbLine
 10
896.8219481257744
 20
-383.4606035836862
 30
0.0
 11
1099.267625239562
 21
-181.0149264698977
 31
0.0
  0
LINE
  5
25D
330
1F
100
AcDbEntity
  8
0-0
  6
JWW_DASHED1
 62
   120
370
     5
100
AcDbLine
 10
889.7508803139111
 20
-383.4606035836806
 30
0.0
 11
1099.267625239554
 21
-173.94385865804
 31
0.0
  0
LINE
  5
25E
330
1F
100
AcDbEntity
  8
0-0
  6
JWW_DASHED1
 62
   120
370
     5
100
AcDbLine
 10
882.6798125020376
 20
-383.4606035836904
 30
0.0
 11
1099.267625239564
 21
-166.8727908461635
 31
0.0
  0
LINE
  5
25F
330
1F
100
AcDbEntity
  8
0-0
  6
JWW_DASHED1
 62
   120
370
     5
100
AcDbLine
 10
875.6087446901778
 20
-383.4606035836845
 30
0.0
 11
1099.267625239561
 21
-159.801723034299
 31
0.0
  0
LINE
  5
260
330
1F
100
AcDbEntity
  8
0-0
  6
JWW_DASHED1
 62
   120
370
     5
100
AcDbLine
 10
868.5376768783145
 20
-383.4606035836794
 30
0.0
 11
1099.26762523955
 21
-152.7306552224421
 31
0.0
  0
LINE
  5
261
330
1F
100
AcDbEntity
  8
0-0
  6
JWW_DASHED1
 62
   120
370
     5
100
AcDbLine
 10
861.4666090664376
 20
-383.4606035836887
 30
0.0
 11
1099.267625239561
 21
-145.6595874105652
 31
0.0
  0
LINE
  5
262
330
1F
100
AcDbEntity
  8
0-0
  6
JWW_DASHED1
 62
   120
370
     5
100
AcDbLine
 10
854.3955412545778
 20
-383.4606035836836
 30
0.0
 11
1099.267625239561
 21
-138.5885195987007
 31
0.0
  0
LINE
  5
263
330
1F
100
AcDbEntity
  8
0-0
  6
JWW_DASHED1
 62
   120
370
     5
100
AcDbLine
 10
847.3244734427077
 20
-383.460603583687
 30
0.0
 11
1099.267625239566
 21
-131.517451786828
 31
0.0
  0
LINE
  5
264
330
1F
100
AcDbEntity
  8
0-0
  6
JWW_DASHED1
 62
   120
370
     5
100
AcDbLine
 10
840.2534056308376
 20
-383.4606035836879
 30
0.0
 11
1099.267625239561
 21
-124.4463839749673
 31
0.0
  0
LINE
  5
265
330
1F
100
AcDbEntity
  8
0-0
  6
JWW_DASHED1
 62
   120
370
     5
100
AcDbLine
 10
826.1112700071077
 20
-383.4606035836849
 30
0.0
 11
1099.267625239564
 21
-110.3042483512297
 31
0.0
  0
LINE
  5
266
330
1F
100
AcDbEntity
  8
0-0
  6
JWW_DASHED1
 62
   120
370
     5
100
AcDbLine
 10
819.040202195241
 20
-383.4606035836866
 30
0.0
 11
1099.267625239557
 21
-103.233180539369
 31
0.0
  0
LINE
  5
267
330
1F
100
AcDbEntity
  8
0-0
  6
JWW_DASHED1
 62
   120
370
     5
100
AcDbLine
 10
811.9691343833641
 20
-383.4606035836964
 30
0.0
 11
1099.267625239567
 21
-96.16211272749212
 31
0.0
  0
LINE
  5
268
330
1F
100
AcDbEntity
  8
0-0
  6
JWW_DASHED1
 62
   120
370
     5
100
AcDbLine
 10
804.8980665715111
 20
-383.4606035836832
 30
0.0
 11
1099.267625239562
 21
-89.09104491563184
 31
0.0
  0
LINE
  5
269
330
1F
100
AcDbEntity
  8
0-0
  6
JWW_DASHED1
 62
   120
370
     5
100
AcDbLine
 10
797.826998759641
 20
-383.4606035836853
 30
0.0
 11
1099.267625239556
 21
-82.01997710377114
 31
0.0
  0
LINE
  5
26A
330
1F
100
AcDbEntity
  8
0-0
  6
JWW_DASHED1
 62
   120
370
     5
100
AcDbLine
 10
790.7559309477641
 20
-383.4606035836956
 30
0.0
 11
1099.267625239566
 21
-74.94890929189467
 31
0.0
  0
LINE
  5
26B
330
1F
100
AcDbEntity
  8
0-0
  6
JWW_DASHED1
 62
   120
370
     5
100
AcDbLine
 10
783.6848631359111
 20
-383.4606035836811
 30
0.0
 11
1099.267625239564
 21
-67.87784148002842
 31
0.0
  0
LINE
  5
26C
330
1F
100
AcDbEntity
  8
0-0
  6
JWW_DASHED1
 62
   120
370
     5
100
AcDbLine
 10
776.6137953240444
 20
-383.460603583684
 30
0.0
 11
1099.267625239554
 21
-60.80677366817284
 31
0.0
  0
LINE
  5
26D
330
1F
100
AcDbEntity
  8
0-0
  6
JWW_DASHED1
 62
   120
370
     5
100
AcDbLine
 10
769.5427275121641
 20
-383.4606035836943
 30
0.0
 11
1099.267625239564
 21
-53.73570585629636
 31
0.0
  0
LINE
  5
26E
330
1F
100
AcDbEntity
  8
0-0
  6
JWW_DASHED1
 62
   120
370
     5
100
AcDbLine
 10
762.4716597003043
 20
-383.4606035836883
 30
0.0
 11
1099.267625239564
 21
-46.66463804443012
 31
0.0
  0
LINE
  5
26F
330
1F
100
AcDbEntity
  8
0-0
  6
JWW_DASHED1
 62
   120
370
     5
100
AcDbLine
 10
755.4005918884444
 20
-383.4606035836828
 30
0.0
 11
1099.267625239552
 21
-39.59357023257496
 31
0.0
  0
LINE
  5
270
330
1F
100
AcDbEntity
  8
0-0
  6
JWW_DASHED1
 62
   120
370
     5
100
AcDbLine
 10
748.3295240765675
 20
-383.460603583693
 30
0.0
 11
1099.267625239562
 21
-32.52250242069806
 31
0.0
  0
LINE
  5
271
330
1F
100
AcDbEntity
  8
0-0
  6
JWW_DASHED1
 62
   120
370
     5
100
AcDbLine
 10
741.2584562647384
 20
-383.4606035836845
 30
0.0
 11
1099.267625239561
 21
-25.45143460886123
 31
0.0
  0
LINE
  5
272
330
1F
100
AcDbEntity
  8
0-0
  6
JWW_DASHED1
 62
   120
370
     5
100
AcDbLine
 10
734.187388452899
 20
-383.4606035836832
 30
0.0
 11
1099.267625239562
 21
-18.38036679701972
 31
0.0
  0
LINE
  5
273
330
1F
100
AcDbEntity
  8
0-0
  6
JWW_DASHED1
 62
   120
370
     5
100
AcDbLine
 10
727.1163206410289
 20
-383.460603583687
 30
0.0
 11
1099.267625239556
 21
-11.30929898515902
 31
0.0
  0
LINE
  5
274
330
1F
100
AcDbEntity
  8
0-0
  6
JWW_DASHED1
 62
   120
370
     5
100
AcDbLine
 10
720.045252829152
 20
-383.4606035836973
 30
0.0
 11
1099.267625239566
 21
-4.238231173282543
 31
0.0
  0
LINE
  5
275
330
1F
100
AcDbEntity
  8
0-0
  6
JWW_DASHED1
 62
   120
370
     5
100
AcDbLine
 10
712.974185017299
 20
-383.4606035836811
 30
0.0
 11
1099.267625239567
 21
2.832836638584979
 31
0.0
  0
LINE
  5
276
330
1F
100
AcDbEntity
  8
0-0
  6
JWW_DASHED1
 62
   120
370
     5
100
AcDbLine
 10
705.9031172054289
 20
-383.4606035836853
 30
0.0
 11
1099.267625239554
 21
9.903904450439285
 31
0.0
  0
LINE
  5
277
330
1F
100
AcDbEntity
  8
0-0
  6
JWW_DASHED1
 62
   120
370
     5
100
AcDbLine
 10
698.832049393552
 20
-383.4606035836956
 30
0.0
 11
1099.267625239564
 21
16.97497226231576
 31
0.0
  0
LINE
  5
278
330
1F
100
AcDbEntity
  8
0-0
  6
JWW_DASHED1
 62
   120
370
     5
100
AcDbLine
 10
691.7609815816921
 20
-383.4606035836904
 30
0.0
 11
1099.267625239564
 21
24.04604007418328
 31
0.0
  0
LINE
  5
279
330
1F
100
AcDbEntity
  8
0-0
  6
JWW_DASHED1
 62
   120
370
     5
100
AcDbLine
 10
684.6899137698323
 20
-383.4606035836845
 30
0.0
 11
1099.267625239552
 21
31.11710788603716
 31
0.0
  0
LINE
  5
27A
330
1F
100
AcDbEntity
  8
0-0
  6
JWW_DASHED1
 62
   120
370
     5
100
AcDbLine
 10
677.618845957952
 20
-383.4606035836947
 30
0.0
 11
1099.267625239562
 21
38.18817569791406
 31
0.0
  0
LINE
  5
27B
330
1F
100
AcDbEntity
  8
0-0
  6
JWW_DASHED1
 62
   120
370
     5
100
AcDbLine
 10
670.5477781460921
 20
-383.4606035836887
 30
0.0
 11
1099.267625239564
 21
45.25924350978158
 31
0.0
  0
LINE
  5
27C
330
1F
100
AcDbEntity
  8
0-0
  6
JWW_DASHED1
 62
   120
370
     5
100
AcDbLine
 10
663.4767103342323
 20
-383.4606035836832
 30
0.0
 11
1099.26762523955
 21
52.33031132163546
 31
0.0
  0
LINE
  5
27D
330
1F
100
AcDbEntity
  8
0-0
  6
JWW_DASHED1
 62
   120
370
     5
100
AcDbLine
 10
656.4056425223554
 20
-383.4606035836935
 30
0.0
 11
1099.267625239561
 21
59.40137913351194
 31
0.0
  0
LINE
  5
27E
330
1F
100
AcDbEntity
  8
0-0
  6
JWW_DASHED1
 62
   120
370
     5
100
AcDbLine
 10
649.3345747104921
 20
-383.4606035836874
 30
0.0
 11
1099.267625239561
 21
66.47244694537989
 31
0.0
  0
LINE
  5
27F
330
1F
100
AcDbEntity
  8
0-0
  6
JWW_DASHED1
 62
   120
370
     5
100
AcDbLine
 10
642.2635068986289
 20
-383.4606035836853
 30
0.0
 11
1099.267625239564
 21
73.54351475724954
 31
0.0
  0
LINE
  5
280
330
1F
100
AcDbEntity
  8
0-0
  6
JWW_DASHED1
 62
   120
370
     5
100
AcDbLine
 10
635.1924390867554
 20
-383.4606035836921
 30
0.0
 11
1099.267625239557
 21
80.61458256911024
 31
0.0
  0
LINE
  5
281
330
1F
100
AcDbEntity
  8
0-0
  6
JWW_DASHED1
 62
   120
370
     5
100
AcDbLine
 10
628.1213712748785
 20
-383.460603583702
 30
0.0
 11
1099.267625239567
 21
87.68565038098671
 31
0.0
  0
LINE
  5
282
330
1F
100
AcDbEntity
  8
0-0
  6
JWW_DASHED1
 62
   120
370
     5
100
AcDbLine
 10
621.0503034630323
 20
-383.4606035836836
 30
0.0
 11
1099.267625239562
 21
94.75671819284784
 31
0.0
  0
LINE
  5
283
330
1F
100
AcDbEntity
  8
0-0
  6
JWW_DASHED1
 62
   120
370
     5
100
AcDbLine
 10
613.9792356511588
 20
-383.4606035836908
 30
0.0
 11
1099.267625239557
 21
101.8277860047085
 31
0.0
  0
LINE
  5
284
330
1F
100
AcDbEntity
  8
0-0
  6
JWW_DASHED1
 62
   120
370
     5
100
AcDbLine
 10
606.9081678392819
 20
-383.4606035837007
 30
0.0
 11
1099.267625239567
 21
108.898853816585
 31
0.0
  0
LINE
  5
285
330
1F
100
AcDbEntity
  8
0-0
  6
JWW_DASHED1
 62
   120
370
     5
100
AcDbLine
 10
599.8371000274323
 20
-383.4606035836819
 30
0.0
 11
1099.267625239561
 21
115.9699216284457
 31
0.0
  0
LINE
  5
286
330
1F
100
AcDbEntity
  8
0-0
  6
JWW_DASHED1
 62
   120
370
     5
100
AcDbLine
 10
592.7660322155588
 20
-383.4606035836896
 30
0.0
 11
1099.267625239554
 21
123.0409894403064
 31
0.0
  0
LINE
  5
287
330
1F
100
AcDbEntity
  8
0-0
  6
JWW_DASHED1
 62
   120
370
     5
100
AcDbLine
 10
585.6949644036819
 20
-383.460603583699
 30
0.0
 11
1099.267625239564
 21
130.1120572521833
 31
0.0
  0
LINE
  5
288
330
1F
100
AcDbEntity
  8
0-0
  6
JWW_DASHED1
 62
   120
370
     5
100
AcDbLine
 10
578.6238965918357
 20
-383.4606035836798
 30
0.0
 11
1099.267625239567
 21
137.1831250640525
 31
0.0
  0
LINE
  5
289
330
1F
100
AcDbEntity
  8
0-0
  6
JWW_DASHED1
 62
   120
370
     5
100
AcDbLine
 10
571.5528287799588
 20
-383.4606035836883
 30
0.0
 11
1099.267625239554
 21
144.2541928759047
 31
0.0
  0
LINE
  5
28A
330
1F
100
AcDbEntity
  8
0-0
  6
JWW_DASHED1
 62
   120
370
     5
100
AcDbLine
 10
564.4817609680853
 20
-383.4606035836981
 30
0.0
 11
1099.267625239562
 21
151.3252606877812
 31
0.0
  0
LINE
  5
28B
330
1F
100
AcDbEntity
  8
0-0
  6
JWW_DASHED1
 62
   120
370
     5
100
AcDbLine
 10
557.410693156222
 20
-383.4606035836921
 30
0.0
 11
1099.267625239566
 21
158.3963284996508
 31
0.0
  0
LINE
  5
28C
330
1F
100
AcDbEntity
  8
0-0
  6
JWW_DASHED1
 62
   120
370
     5
100
AcDbLine
 10
550.3396253443622
 20
-383.460603583687
 30
0.0
 11
1099.26762523955
 21
165.467396311503
 31
0.0
  0
LINE
  5
28D
330
1F
100
AcDbEntity
  8
0-0
  6
JWW_DASHED1
 62
   120
370
     5
100
AcDbLine
 10
543.2685575324853
 20
-383.4606035836969
 30
0.0
 11
1099.267625239561
 21
172.5384641233791
 31
0.0
  0
LINE
  5
28E
330
1F
100
AcDbEntity
  8
0-0
  6
JWW_DASHED1
 62
   120
370
     5
100
AcDbLine
 10
536.1974897206254
 20
-383.4606035836913
 30
0.0
 11
1099.267625239564
 21
179.6095319352492
 31
0.0
  0
LINE
  5
28F
330
1F
100
AcDbEntity
  8
0-0
  6
JWW_DASHED1
 62
   120
370
     5
100
AcDbLine
 10
529.1264219087622
 20
-383.4606035836862
 30
0.0
 11
1099.267625239564
 21
186.6805997471167
 31
0.0
  0
LINE
  5
290
330
1F
100
AcDbEntity
  8
0-0
  6
JWW_DASHED1
 62
   120
370
     5
100
AcDbLine
 10
522.0553540968853
 20
-383.4606035836956
 30
0.0
 11
1099.267625239559
 21
193.7516675589774
 31
0.0
  0
LINE
  5
291
330
1F
100
AcDbEntity
  8
0-0
  6
JWW_DASHED1
 62
   120
370
     5
100
AcDbLine
 10
514.9842862850254
 20
-383.46060358369
 30
0.0
 11
1099.267625239562
 21
200.8227353708475
 31
0.0
  0
LINE
  5
292
330
1F
100
AcDbEntity
  8
0-0
  6
JWW_DASHED1
 62
   120
370
     5
100
AcDbLine
 10
509.2676252395619
 20
-382.1061968172864
 30
0.0
 11
1099.267625239564
 21
207.893803182715
 31
0.0
  0
LINE
  5
293
330
1F
100
AcDbEntity
  8
0-0
  6
JWW_DASHED1
 62
   120
370
     5
100
AcDbLine
 10
509.2676252395721
 20
-375.0351290054104
 30
0.0
 11
1099.267625239557
 21
214.9648709945757
 31
0.0
  0
LINE
  5
294
330
1F
100
AcDbEntity
  8
0-0
  6
JWW_DASHED1
 62
   120
370
     5
100
AcDbLine
 10
509.2676252395789
 20
-367.9640611935923
 30
0.0
 11
1099.267625239562
 21
222.0359388063933
 31
0.0
  0
LINE
  5
295
330
1F
100
AcDbEntity
  8
0-0
  6
JWW_DASHED1
 62
   120
370
     5
100
AcDbLine
 10
509.2676252395721
 20
-360.8929933817316
 30
0.0
 11
1099.267625239567
 21
229.1070066182643
 31
0.0
  0
LINE
  5
296
330
1F
100
AcDbEntity
  8
0-0
  6
JWW_DASHED1
 62
   120
370
     5
100
AcDbLine
 10
509.2676252395653
 20
-353.8219255698709
 30
0.0
 11
1099.26762523955
 21
236.1780744301147
 31
0.0
  0
LINE
  5
297
330
1F
100
AcDbEntity
  8
0-0
  6
JWW_DASHED1
 62
   120
370
     5
100
AcDbLine
 10
509.2676252395755
 20
-346.750857757994
 30
0.0
 11
1099.267625239561
 21
243.2491422419916
 31
0.0
  0
LINE
  5
298
330
1F
100
AcDbEntity
  8
0-0
  6
JWW_DASHED1
 62
   120
370
     5
100
AcDbLine
 10
509.2676252395687
 20
-339.6797899461329
 30
0.0
 11
1099.267625239566
 21
250.3202100538626
 31
0.0
  0
LINE
  5
299
330
1F
100
AcDbEntity
  8
0-0
  6
JWW_DASHED1
 62
   120
370
     5
100
AcDbLine
 10
509.2676252395653
 20
-332.6087221342726
 30
0.0
 11
1099.267625239564
 21
257.3912778657288
 31
0.0
  0
LINE
  5
29A
330
1F
100
AcDbEntity
  8
0-0
  6
JWW_DASHED1
 62
   120
370
     5
100
AcDbLine
 10
509.2676252395721
 20
-325.5376543223957
 30
0.0
 11
1099.267625239559
 21
264.4623456775895
 31
0.0
  0
LINE
  5
29B
330
1F
100
AcDbEntity
  8
0-0
  6
JWW_DASHED1
 62
   120
370
     5
100
AcDbLine
 10
509.2676252395687
 20
-318.4665865105342
 30
0.0
 11
1099.267625239564
 21
271.5334134894608
 31
0.0
  0
LINE
  5
29C
330
1F
100
AcDbEntity
  8
0-0
  6
JWW_DASHED1
 62
   120
370
     5
100
AcDbLine
 10
509.2676252395619
 20
-311.3955186986743
 30
0.0
 11
1099.267625239564
 21
278.6044813013271
 31
0.0
  0
LINE
  5
29D
330
1F
100
AcDbEntity
  8
0-0
  6
JWW_DASHED1
 62
   120
370
     5
100
AcDbLine
 10
509.2676252395721
 20
-304.3244508867979
 30
0.0
 11
1099.267625239557
 21
285.6755491131878
 31
0.0
  0
LINE
  5
29E
330
1F
100
AcDbEntity
  8
0-0
  6
JWW_DASHED1
 62
   120
370
     5
100
AcDbLine
 10
509.2676252395823
 20
-297.2533830749214
 30
0.0
 11
1099.267625239567
 21
292.7466169250642
 31
0.0
  0
LINE
  5
29F
330
1F
100
AcDbEntity
  8
0-0
  6
JWW_DASHED1
 62
   120
370
     5
100
AcDbLine
 10
509.2676252395585
 20
-290.182315263076
 30
0.0
 11
1099.267625239561
 21
299.817684736925
 31
0.0
  0
LINE
  5
2A0
330
1F
100
AcDbEntity
  8
0-0
  6
JWW_DASHED1
 62
   120
370
     5
100
AcDbLine
 10
509.2676252395687
 20
-283.1112474512
 30
0.0
 11
1099.267625239556
 21
306.8887525487861
 31
0.0
  0
LINE
  5
2A1
330
1F
100
AcDbEntity
  8
0-0
  6
JWW_DASHED1
 62
   120
370
     5
100
AcDbLine
 10
509.2676252395789
 20
-276.0401796393231
 30
0.0
 11
1099.267625239564
 21
313.9598203606625
 31
0.0
  0
LINE
  5
2A2
330
1F
100
AcDbEntity
  8
0-0
  6
JWW_DASHED1
 62
   120
370
     5
100
AcDbLine
 10
509.2676252395585
 20
-268.969111827476
 30
0.0
 11
1099.267625239571
 21
321.0308881725348
 31
0.0
  0
LINE
  5
2A3
330
1F
100
AcDbEntity
  8
0-0
  6
JWW_DASHED1
 62
   120
370
     5
100
AcDbLine
 10
509.2676252395653
 20
-261.8980440156017
 30
0.0
 11
1099.267625239554
 21
328.1019559843839
 31
0.0
  0
LINE
  5
2A4
330
1F
100
AcDbEntity
  8
0-0
  6
JWW_DASHED1
 62
   120
370
     5
100
AcDbLine
 10
509.2676252395789
 20
-254.8269762037252
 30
0.0
 11
1099.267625239564
 21
335.1730237962605
 31
0.0
  0
LINE
  5
2A5
330
1F
100
AcDbEntity
  8
0-0
  6
JWW_DASHED1
 62
   120
370
     5
100
AcDbLine
 10
509.2676252395721
 20
-247.7559083918624
 30
0.0
 11
1099.267625239569
 21
342.2440916081331
 31
0.0
  0
LINE
  5
2A6
330
1F
100
AcDbEntity
  8
0-0
  6
JWW_DASHED1
 62
   120
370
     5
100
AcDbLine
 10
509.2676252395653
 20
-240.6848405800034
 30
0.0
 11
1099.26762523955
 21
349.3151594199823
 31
0.0
  0
LINE
  5
2A7
330
1F
100
AcDbEntity
  8
0-0
  6
JWW_DASHED1
 62
   120
370
     5
100
AcDbLine
 10
509.2676252395755
 20
-233.6137727681273
 30
0.0
 11
1099.267625239561
 21
356.3862272318588
 31
0.0
  0
LINE
  5
2A8
330
1F
100
AcDbEntity
  8
0-0
  6
JWW_DASHED1
 62
   120
370
     5
100
AcDbLine
 10
509.2676252395721
 20
-226.5427049562636
 30
0.0
 11
1099.267625239567
 21
363.4572950437318
 31
0.0
  0
LINE
  5
2A9
330
1F
100
AcDbEntity
  8
0-0
  6
JWW_DASHED1
 62
   120
370
     5
100
AcDbLine
 10
509.2676252395653
 20
-219.4716371444055
 30
0.0
 11
1099.26762523955
 21
370.5283628555802
 31
0.0
  0
LINE
  5
2AA
330
1F
100
AcDbEntity
  8
0-0
  6
JWW_DASHED1
 62
   120
370
     5
100
AcDbLine
 10
509.2676252395721
 20
-212.400569332529
 30
0.0
 11
1099.267625239561
 21
377.5994306674571
 31
0.0
  0
LINE
  5
2AB
330
1F
100
AcDbEntity
  8
0-0
  6
JWW_DASHED1
 62
   120
370
     5
100
AcDbLine
 10
509.2676252395721
 20
-205.3295015206649
 30
0.0
 11
1099.267625239566
 21
384.6704984793301
 31
0.0
  0
LINE
  5
2AC
330
1F
100
AcDbEntity
  8
0-0
  6
JWW_DASHED1
 62
   120
370
     5
100
AcDbLine
 10
509.2676252395619
 20
-198.2584337088076
 30
0.0
 11
1099.267625239564
 21
391.7415662911942
 31
0.0
  0
LINE
  5
2AD
330
1F
100
AcDbEntity
  8
0-0
  6
JWW_DASHED1
 62
   120
370
     5
100
AcDbLine
 10
509.2676252395721
 20
-191.1873658969307
 30
0.0
 11
1099.267625239557
 21
398.812634103055
 31
0.0
  0
LINE
  5
2AE
330
1F
100
AcDbEntity
  8
0-0
  6
JWW_DASHED1
 62
   120
370
     5
100
AcDbLine
 10
509.2676252395687
 20
-184.1162980850666
 30
0.0
 11
1099.267625239564
 21
405.8837019149288
 31
0.0
  0
LINE
  5
2AF
330
1F
100
AcDbEntity
  8
0-0
  6
JWW_DASHED1
 62
   120
370
     5
100
AcDbLine
 10
509.2676252395585
 20
-177.0452302732093
 30
0.0
 11
1099.267625239561
 21
412.9547697267921
 31
0.0
  0
LINE
  5
2B0
330
1F
100
AcDbEntity
  8
0-0
  6
JWW_DASHED1
 62
   120
370
     5
100
AcDbLine
 10
509.2676252395721
 20
-169.9741624613324
 30
0.0
 11
1099.267625239556
 21
420.0258375386533
 31
0.0
  0
LINE
  5
2B1
330
1F
100
AcDbEntity
  8
0-0
  6
JWW_DASHED1
 62
   120
370
     5
100
AcDbLine
 10
509.2676252395789
 20
-162.9030946494559
 30
0.0
 11
1099.267625239566
 21
427.0969053505297
 31
0.0
  0
LINE
  5
2B2
330
1F
100
AcDbEntity
  8
0-0
  6
JWW_DASHED1
 62
   120
370
     5
100
AcDbLine
 10
509.2676252395585
 20
-155.832026837611
 30
0.0
 11
1099.267625239561
 21
434.1679731623904
 31
0.0
  0
LINE
  5
2B3
330
1F
100
AcDbEntity
  8
0-0
  6
JWW_DASHED1
 62
   120
370
     5
100
AcDbLine
 10
509.2676252395687
 20
-148.7609590257345
 30
0.0
 11
1099.267625239554
 21
441.2390409742511
 31
0.0
  0
LINE
  5
2B4
330
1F
100
AcDbEntity
  8
0-0
  6
JWW_DASHED1
 62
   120
370
     5
100
AcDbLine
 10
509.2676252395789
 20
-141.6898912138581
 30
0.0
 11
1099.267625239564
 21
448.310108786128
 31
0.0
  0
LINE
  5
2B5
330
1F
100
AcDbEntity
  8
0-0
  6
JWW_DASHED1
 62
   120
370
     5
100
AcDbLine
 10
509.2676252395721
 20
-134.6188234020221
 30
0.0
 11
1099.267625239569
 21
455.381176597973
 31
0.0
  0
LINE
  5
2B6
330
1F
100
AcDbEntity
  8
0-0
  6
JWW_DASHED1
 62
   120
370
     5
100
AcDbLine
 10
509.2676252395619
 20
-127.5477555901955
 30
0.0
 11
1099.267625239564
 21
462.4522444098063
 31
0.0
  0
LINE
  5
2B7
330
1F
100
AcDbEntity
  8
0-0
  6
JWW_DASHED1
 62
   120
370
     5
100
AcDbLine
 10
509.2676252395721
 20
-120.4766877783186
 30
0.0
 11
1099.267625239557
 21
469.5233122216671
 31
0.0
  0
LINE
  5
2B8
330
1F
100
AcDbEntity
  8
0-0
  6
JWW_DASHED1
 62
   120
370
     5
100
AcDbLine
 10
509.2676252395721
 20
-113.4056199664536
 30
0.0
 11
1099.267625239566
 21
476.5943800335418
 31
0.0
  0
LINE
  5
2B9
330
1F
100
AcDbEntity
  8
0-0
  6
JWW_DASHED1
 62
   120
370
     5
100
AcDbLine
 10
509.2676252395585
 20
-106.3345521545972
 30
0.0
 11
1099.267625239561
 21
483.6654478454042
 31
0.0
  0
LINE
  5
2BA
330
1F
100
AcDbEntity
  8
0-0
  6
JWW_DASHED1
 62
   120
370
     5
100
AcDbLine
 10
509.2676252395721
 20
-99.26348434272029
 30
0.0
 11
1099.267625239556
 21
490.7365156572654
 31
0.0
  0
LINE
  5
2BB
330
1F
100
AcDbEntity
  8
0-0
  6
JWW_DASHED1
 62
   120
370
     5
100
AcDbLine
 10
509.2676252395789
 20
-92.19241653084381
 30
0.0
 11
1099.267625239566
 21
497.8075834691418
 31
0.0
  0
LINE
  5
2BC
330
1F
100
AcDbEntity
  8
0-0
  6
JWW_DASHED1
 62
   120
370
     5
100
AcDbLine
 10
509.2676252395585
 20
-85.12134871899889
 30
0.0
 11
1099.267625239561
 21
504.8786512810025
 31
0.0
  0
LINE
  5
2BD
330
1F
100
AcDbEntity
  8
0-0
  6
JWW_DASHED1
 62
   120
370
     5
100
AcDbLine
 10
509.2676252395687
 20
-78.05028090712241
 30
0.0
 11
1099.267625239554
 21
511.9497190928632
 31
0.0
  0
LINE
  5
2BE
330
1F
100
AcDbEntity
  8
0-0
  6
JWW_DASHED1
 62
   120
370
     5
100
AcDbLine
 10
509.2676252395789
 20
-70.97921309524594
 30
0.0
 11
1099.267625239564
 21
519.0207869047401
 31
0.0
  0
LINE
  5
2BF
330
1F
100
AcDbEntity
  8
0-0
  6
JWW_DASHED1
 62
   120
370
     5
100
AcDbLine
 10
509.2676252395619
 20
-63.90814528339547
 30
0.0
 11
1099.267625239573
 21
526.0918547166153
 31
0.0
  0
LINE
  5
2C0
330
1F
100
AcDbEntity
  8
0-0
  6
JWW_DASHED1
 62
   120
370
     5
100
AcDbLine
 10
509.2676252395653
 20
-56.83707747152411
 30
0.0
 11
1099.267625239552
 21
533.1629225284615
 31
0.0
  0
LINE
  5
2C1
330
1F
100
AcDbEntity
  8
0-0
  6
JWW_DASHED1
 62
   120
370
     5
100
AcDbLine
 10
509.2676252395755
 20
-49.76600965964764
 30
0.0
 11
1099.267625239562
 21
540.233990340338
 31
0.0
  0
LINE
  5
2C2
330
1F
100
AcDbEntity
  8
0-0
  6
JWW_DASHED1
 62
   120
370
     5
100
AcDbLine
 10
509.2676252395755
 20
-42.69494184778097
 30
0.0
 11
1099.267625239571
 21
547.3050581522141
 31
0.0
  0
LINE
  5
2C3
330
1F
100
AcDbEntity
  8
0-0
  6
JWW_DASHED1
 62
   120
370
     5
100
AcDbLine
 10
509.2676252395653
 20
-35.62387403592624
 30
0.0
 11
1099.26762523955
 21
554.3761259640598
 31
0.0
  0
LINE
  5
2C4
330
1F
100
AcDbEntity
  8
0-0
  6
JWW_DASHED1
 62
   120
370
     5
100
AcDbLine
 10
509.2676252395755
 20
-28.55280622404933
 30
0.0
 11
1099.267625239561
 21
561.4471937759363
 31
0.0
  0
LINE
  5
2C5
330
1F
100
AcDbEntity
  8
0-0
  6
JWW_DASHED1
 62
   120
370
     5
100
AcDbLine
 10
509.2676252395755
 20
-21.48173841218266
 30
0.0
 11
1099.267625239569
 21
568.5182615878124
 31
0.0
  0
LINE
  5
2C6
330
1F
100
AcDbEntity
  8
0-0
  6
JWW_DASHED1
 62
   120
370
     5
100
AcDbLine
 10
509.2676252395619
 20
-14.41067060032793
 30
0.0
 11
1099.267625239549
 21
575.5893293996577
 31
0.0
  0
LINE
  5
2C7
330
1F
100
AcDbEntity
  8
0-0
  6
JWW_DASHED1
 62
   120
370
     5
100
AcDbLine
 10
509.2676252395721
 20
-7.339602788451032
 30
0.0
 11
1099.267625239557
 21
582.6603972115346
 31
0.0
  0
LINE
  5
2C8
330
1F
100
AcDbEntity
  8
0-0
  6
JWW_DASHED1
 62
   120
370
     5
100
AcDbLine
 10
509.2676252395721
 20
-0.2685349765843625
 30
0.0
 11
1099.267625239567
 21
589.7314650234111
 31
0.0
  0
LINE
  5
2C9
330
1F
100
AcDbEntity
  8
0-0
  6
JWW_DASHED1
 62
   120
370
     5
100
AcDbLine
 10
509.2676252395619
 20
6.80253283527037
 30
0.0
 11
1094.004488820608
 21
591.5393964163172
 31
0.0
  0
LINE
  5
2CA
330
1F
100
AcDbEntity
  8
0-0
  6
JWW_DASHED1
 62
   120
370
     5
100
AcDbLine
 10
509.2676252395721
 20
13.87360064714642
 30
0.0
 11
1086.933421008746
 21
591.5393964163223
 31
0.0
  0
LINE
  5
2CB
330
1F
100
AcDbEntity
  8
0-0
  6
JWW_DASHED1
 62
   120
370
     5
100
AcDbLine
 10
509.2676252395789
 20
20.94466845902332
 30
0.0
 11
1079.862353196869
 21
591.5393964163126
 31
0.0
  0
LINE
  5
2CC
330
1F
100
AcDbEntity
  8
0-0
  6
JWW_DASHED1
 62
   120
370
     5
100
AcDbLine
 10
509.2676252395585
 20
28.01573627086867
 30
0.0
 11
1072.79128538501
 21
591.5393964163189
 31
0.0
  0
LINE
  5
2CD
330
1F
100
AcDbEntity
  8
0-0
  6
JWW_DASHED1
 62
   120
370
     5
100
AcDbLine
 10
509.2676252395687
 20
35.08680408274472
 30
0.0
 11
1065.720217573148
 21
591.539396416324
 31
0.0
  0
LINE
  5
2CE
330
1F
100
AcDbEntity
  8
0-0
  6
JWW_DASHED1
 62
   120
370
     5
100
AcDbLine
 10
509.2676252395789
 20
42.15787189462162
 30
0.0
 11
1058.649149761271
 21
591.5393964163138
 31
0.0
  0
LINE
  5
2CF
330
1F
100
AcDbEntity
  8
0-0
  6
JWW_DASHED1
 62
   120
370
     5
100
AcDbLine
 10
509.2676252395585
 20
49.22893970646612
 30
0.0
 11
1051.578081949411
 21
591.5393964163206
 31
0.0
  0
LINE
  5
2D0
330
1F
100
AcDbEntity
  8
0-0
  6
JWW_DASHED1
 62
   120
370
     5
100
AcDbLine
 10
509.2676252395653
 20
56.30000751834302
 30
0.0
 11
1044.507014137548
 21
591.5393964163253
 31
0.0
  0
LINE
  5
2D1
330
1F
100
AcDbEntity
  8
0-0
  6
JWW_DASHED1
 62
   120
370
     5
100
AcDbLine
 10
509.2676252395755
 20
63.3710753302195
 30
0.0
 11
1037.435946325671
 21
591.5393964163147
 31
0.0
  0
LINE
  5
2D2
330
1F
100
AcDbEntity
  8
0-0
  6
JWW_DASHED1
 62
   120
370
     5
100
AcDbLine
 10
509.2676252395619
 20
70.4421431420721
 30
0.0
 11
1030.364878513798
 21
591.539396416307
 31
0.0
  0
LINE
  5
2D3
330
1F
100
AcDbEntity
  8
0-0
  6
JWW_DASHED1
 62
   120
370
     5
100
AcDbLine
 10
509.2676252395653
 20
77.51321095394132
 30
0.0
 11
1023.293810701951
 21
591.5393964163266
 31
0.0
  0
LINE
  5
2D4
330
1F
100
AcDbEntity
  8
0-0
  6
JWW_DASHED1
 62
   120
370
     5
100
AcDbLine
 10
509.2676252395755
 20
84.58427876581823
 30
0.0
 11
1016.222742890075
 21
591.5393964163163
 31
0.0
  0
LINE
  5
2D5
330
1F
100
AcDbEntity
  8
0-0
  6
JWW_DASHED1
 62
   120
370
     5
100
AcDbLine
 10
509.2676252395789
 20
91.6553465776866
 30
0.0
 11
1009.151675078198
 21
591.5393964163061
 31
0.0
  0
LINE
  5
2D6
330
1F
100
AcDbEntity
  8
0-0
  6
JWW_DASHED1
 62
   120
370
     5
100
AcDbLine
 10
509.2676252395653
 20
98.72641438953963
 30
0.0
 11
1002.080607266351
 21
591.5393964163275
 31
0.0
  0
LINE
  5
2D7
330
1F
100
AcDbEntity
  8
0-0
  6
JWW_DASHED1
 62
   120
370
     5
100
AcDbLine
 10
509.2676252395721
 20
105.7974822014157
 30
0.0
 11
995.0095394544745
 21
591.5393964163172
 31
0.0
  0
LINE
  5
2D8
330
1F
100
AcDbEntity
  8
0-0
  6
JWW_DASHED1
 62
   120
370
     5
100
AcDbLine
 10
509.2676252395721
 20
112.8685500132551
 30
0.0
 11
987.9384716426283
 21
591.5393964163095
 31
0.0
  0
LINE
  5
2D9
330
1F
100
AcDbEntity
  8
0-0
  6
JWW_DASHED1
 62
   120
370
     5
100
AcDbLine
 10
509.2676252395585
 20
119.9396178250782
 30
0.0
 11
980.8674038307992
 21
591.5393964163206
 31
0.0
  0
LINE
  5
2DA
330
1F
100
AcDbEntity
  8
0-0
  6
JWW_DASHED1
 62
   120
370
     5
100
AcDbLine
 10
509.2676252395653
 20
127.0106856369551
 30
0.0
 11
973.7963360189359
 21
591.5393964163231
 31
0.0
  0
LINE
  5
2DB
330
1F
100
AcDbEntity
  8
0-0
  6
JWW_DASHED1
 62
   120
370
     5
100
AcDbLine
 10
509.2676252395755
 20
134.0817534488316
 30
0.0
 11
966.725268207059
 21
591.5393964163129
 31
0.0
  0
LINE
  5
2DC
330
1F
100
AcDbEntity
  8
0-0
  6
JWW_DASHED1
 62
   120
370
     5
100
AcDbLine
 10
509.2676252395653
 20
141.1528212606851
 30
0.0
 11
959.6542003951855
 21
591.539396416307
 31
0.0
  0
LINE
  5
2DD
330
1F
100
AcDbEntity
  8
0-0
  6
JWW_DASHED1
 62
   120
370
     5
100
AcDbLine
 10
509.2676252395653
 20
148.2238890725534
 30
0.0
 11
952.5831325833359
 21
591.539396416325
 31
0.0
  0
LINE
  5
2DE
330
1F
100
AcDbEntity
  8
0-0
  6
JWW_DASHED1
 62
   120
370
     5
100
AcDbLine
 10
509.2676252395755
 20
155.2949568844299
 30
0.0
 11
945.512064771459
 21
591.5393964163147
 31
0.0
  0
LINE
  5
2DF
330
1F
100
AcDbEntity
  8
0-0
  6
JWW_DASHED1
 62
   120
370
     5
100
AcDbLine
 10
509.2676252395789
 20
162.3660246962996
 30
0.0
 11
938.4409969595821
 21
591.5393964163045
 31
0.0
  0
LINE
  5
2E0
330
1F
100
AcDbEntity
  8
0-0
  6
JWW_DASHED1
 62
   120
370
     5
100
AcDbLine
 10
509.2676252395619
 20
169.4370925081513
 30
0.0
 11
931.3699291477359
 21
591.5393964163262
 31
0.0
  0
LINE
  5
2E1
330
1F
100
AcDbEntity
  8
0-0
  6
JWW_DASHED1
 62
   120
370
     5
100
AcDbLine
 10
509.2676252395721
 20
176.5081603200278
 30
0.0
 11
924.2988613358624
 21
591.5393964163155
 31
0.0
  0
LINE
  5
2E2
330
1F
100
AcDbEntity
  8
0-0
  6
JWW_DASHED1
 62
   120
370
     5
100
AcDbLine
 10
509.2676252395755
 20
183.5792281318979
 30
0.0
 11
917.2277935239821
 21
591.5393964163053
 31
0.0
  0
LINE
  5
2E3
330
1F
100
AcDbEntity
  8
0-0
  6
JWW_DASHED1
 62
   120
370
     5
100
AcDbLine
 10
509.2676252395619
 20
190.6502959437496
 30
0.0
 11
910.1567257121291
 21
591.5393964163163
 31
0.0
  0
LINE
  5
2E4
330
1F
100
AcDbEntity
  8
0-0
  6
JWW_DASHED1
 62
   120
370
     5
100
AcDbLine
 10
509.2676252395721
 20
197.7213637556261
 30
0.0
 11
903.0856579002624
 21
591.5393964163172
 31
0.0
  0
LINE
  5
2E5
330
1F
100
AcDbEntity
  8
0-0
  6
JWW_DASHED1
 62
   120
370
     5
100
AcDbLine
 10
509.2676252395755
 20
204.7924315674966
 30
0.0
 11
896.0145900883855
 21
591.539396416307
 31
0.0
  0
LINE
  5
2E6
330
1F
100
AcDbEntity
  8
0-0
  6
JWW_DASHED1
 62
   120
370
     5
100
AcDbLine
 10
509.2676252395585
 20
211.8634993793479
 30
0.0
 11
888.943522276529
 21
591.5393964163185
 31
0.0
  0
LINE
  5
2E7
330
1F
100
AcDbEntity
  8
0-0
  6
JWW_DASHED1
 62
   120
370
     5
100
AcDbLine
 10
509.2676252395687
 20
218.9345671912244
 30
0.0
 11
881.8724544646624
 21
591.5393964163185
 31
0.0
  0
LINE
  5
2E8
330
1F
100
AcDbEntity
  8
0-0
  6
JWW_DASHED1
 62
   120
370
     5
100
AcDbLine
 10
509.2676252395789
 20
226.0056350031009
 30
0.0
 11
874.8013866527855
 21
591.5393964163079
 31
0.0
  0
LINE
  5
2E9
330
1F
100
AcDbEntity
  8
0-0
  6
JWW_DASHED1
 62
   120
370
     5
100
AcDbLine
 10
509.2676252395585
 20
233.0767028149458
 30
0.0
 11
867.7303188409325
 21
591.5393964163197
 31
0.0
  0
LINE
  5
2EA
330
1F
100
AcDbEntity
  8
0-0
  6
JWW_DASHED1
 62
   120
370
     5
100
AcDbLine
 10
509.2676252395653
 20
240.1477706268223
 30
0.0
 11
860.6592510290658
 21
591.5393964163197
 31
0.0
  0
LINE
  5
2EB
330
1F
100
AcDbEntity
  8
0-0
  6
JWW_DASHED1
 62
   120
370
     5
100
AcDbLine
 10
509.2676252395789
 20
247.2188384386992
 30
0.0
 11
853.5881832171889
 21
591.5393964163095
 31
0.0
  0
LINE
  5
2EC
330
1F
100
AcDbEntity
  8
0-0
  6
JWW_DASHED1
 62
   120
370
     5
100
AcDbLine
 10
509.2676252395653
 20
254.2899062505543
 30
0.0
 11
846.5171154053188
 21
591.5393964163065
 31
0.0
  0
LINE
  5
2ED
330
1F
100
AcDbEntity
  8
0-0
  6
JWW_DASHED1
 62
   120
370
     5
100
AcDbLine
 10
509.2676252395653
 20
261.3609740624206
 30
0.0
 11
839.4460475934658
 21
591.5393964163211
 31
0.0
  0
LINE
  5
2EE
330
1F
100
AcDbEntity
  8
0-0
  6
JWW_DASHED1
 62
   120
370
     5
100
AcDbLine
 10
509.2676252395755
 20
268.4320418742971
 30
0.0
 11
832.3749797815889
 21
591.5393964163113
 31
0.0
  0
LINE
  5
2EF
330
1F
100
AcDbEntity
  8
0-0
  6
JWW_DASHED1
 62
   120
370
     5
100
AcDbLine
 10
509.2676252395789
 20
275.5031096861684
 30
0.0
 11
825.303911969712
 21
591.5393964163011
 31
0.0
  0
LINE
  5
2F0
330
1F
100
AcDbEntity
  8
0-0
  6
JWW_DASHED1
 62
   120
370
     5
100
AcDbLine
 10
509.2676252395653
 20
282.5741774980189
 30
0.0
 11
818.2328441578692
 21
591.5393964163223
 31
0.0
  0
LINE
  5
2F1
330
1F
100
AcDbEntity
  8
0-0
  6
JWW_DASHED1
 62
   120
370
     5
100
AcDbLine
 10
509.2676252395721
 20
289.6452453098954
 30
0.0
 11
811.1617763459889
 21
591.5393964163126
 31
0.0
  0
LINE
  5
2F2
330
1F
100
AcDbEntity
  8
0-0
  6
JWW_DASHED1
 62
   120
370
     5
100
AcDbLine
 10
509.2676252395789
 20
296.7163131217671
 30
0.0
 11
804.0907085341154
 21
591.5393964163023
 31
0.0
  0
LINE
  5
2F3
330
1F
100
AcDbEntity
  8
0-0
  6
JWW_DASHED1
 62
   120
370
     5
100
AcDbLine
 10
509.2676252395619
 20
303.7873809336168
 30
0.0
 11
797.0196407222692
 21
591.5393964163236
 31
0.0
  0
LINE
  5
2F4
330
1F
100
AcDbEntity
  8
0-0
  6
JWW_DASHED1
 62
   120
370
     5
100
AcDbLine
 10
509.2676252395721
 20
310.8584487454932
 30
0.0
 11
789.9485729103923
 21
591.5393964163138
 31
0.0
  0
LINE
  5
2F5
330
1F
100
AcDbEntity
  8
0-0
  6
JWW_DASHED1
 62
   120
370
     5
100
AcDbLine
 10
509.2676252395789
 20
317.9295165573654
 30
0.0
 11
782.8775050985154
 21
591.5393964163036
 31
0.0
  0
LINE
  5
2F6
330
1F
100
AcDbEntity
  8
0-0
  6
JWW_DASHED1
 62
   120
370
     5
100
AcDbLine
 10
509.2676252395585
 20
325.0005843692151
 30
0.0
 11
775.8064372866623
 21
591.5393964163181
 31
0.0
  0
LINE
  5
2F7
330
1F
100
AcDbEntity
  8
0-0
  6
JWW_DASHED1
 62
   120
370
     5
100
AcDbLine
 10
509.2676252395721
 20
332.0716521810915
 30
0.0
 11
768.7353694747923
 21
591.5393964163147
 31
0.0
  0
LINE
  5
2F8
330
1F
100
AcDbEntity
  8
0-0
  6
JWW_DASHED1
 62
   120
370
     5
100
AcDbLine
 10
509.2676252395755
 20
339.1427199929642
 30
0.0
 11
761.6643016629154
 21
591.5393964163048
 31
0.0
  0
LINE
  5
2F9
330
1F
100
AcDbEntity
  8
0-0
  6
JWW_DASHED1
 62
   120
370
     5
100
AcDbLine
 10
509.2676252395721
 20
346.2137878047993
 30
0.0
 11
754.5932338510862
 21
591.5393964163129
 31
0.0
  0
LINE
  5
2FA
330
1F
100
AcDbEntity
  8
0-0
  6
JWW_DASHED1
 62
   120
370
     5
100
AcDbLine
 10
509.2676252395653
 20
353.284855616631
 30
0.0
 11
747.5221660392536
 21
591.5393964163206
 31
0.0
  0
LINE
  5
2FB
330
1F
100
AcDbEntity
  8
0-0
  6
JWW_DASHED1
 62
   120
370
     5
100
AcDbLine
 10
509.2676252395721
 20
360.3559234285075
 30
0.0
 11
740.4510982273767
 21
591.5393964163104
 31
0.0
  0
LINE
  5
2FC
330
1F
100
AcDbEntity
  8
0-0
  6
JWW_DASHED1
 62
   120
370
     5
100
AcDbLine
 10
509.2676252395789
 20
367.4269912403805
 30
0.0
 11
733.3800304154998
 21
591.5393964163006
 31
0.0
  0
LINE
  5
2FD
330
1F
100
AcDbEntity
  8
0-0
  6
JWW_DASHED1
 62
   120
370
     5
100
AcDbLine
 10
509.2676252395619
 20
374.4980590522289
 30
0.0
 11
726.3089626036536
 21
591.5393964163219
 31
0.0
  0
LINE
  5
2FE
330
1F
100
AcDbEntity
  8
0-0
  6
JWW_DASHED1
 62
   120
370
     5
100
AcDbLine
 10
509.2676252395721
 20
381.5691268641053
 30
0.0
 11
719.2378947917767
 21
591.5393964163117
 31
0.0
  0
LINE
  5
2FF
330
1F
100
AcDbEntity
  8
0-0
  6
JWW_DASHED1
 62
   120
370
     5
100
AcDbLine
 10
509.2676252395789
 20
388.6401946759793
 30
0.0
 11
712.1668269799032
 21
591.5393964163019
 31
0.0
  0
LINE
  5
300
330
1F
100
AcDbEntity
  8
0-0
  6
JWW_DASHED1
 62
   120
370
     5
100
AcDbLine
 10
509.2676252395585
 20
395.7112624878272
 30
0.0
 11
705.0957591680502
 21
591.5393964163181
 31
0.0
  0
LINE
  5
301
330
1F
100
AcDbEntity
  8
0-0
  6
JWW_DASHED1
 62
   120
370
     5
100
AcDbLine
 10
509.2676252395721
 20
402.7823302997041
 30
0.0
 11
698.0246913561801
 21
591.5393964163129
 31
0.0
  0
LINE
  5
302
330
1F
100
AcDbEntity
  8
0-0
  6
JWW_DASHED1
 62
   120
370
     5
100
AcDbLine
 10
509.2676252395789
 20
409.8533981115771
 30
0.0
 11
690.9536235443032
 21
591.5393964163031
 31
0.0
  0
LINE
  5
303
330
1F
100
AcDbEntity
  8
0-0
  6
JWW_DASHED1
 62
   120
370
     5
100
AcDbLine
 10
509.2676252395585
 20
416.924465923425
 30
0.0
 11
683.8825557324536
 21
591.5393964163197
 31
0.0
  0
LINE
  5
304
330
1F
100
AcDbEntity
  8
0-0
  6
JWW_DASHED1
 62
   120
370
     5
100
AcDbLine
 10
509.2676252395687
 20
423.9955337353015
 30
0.0
 11
676.8114879205801
 21
591.5393964163147
 31
0.0
  0
LINE
  5
305
330
1F
100
AcDbEntity
  8
0-0
  6
JWW_DASHED1
 62
   120
370
     5
100
AcDbLine
 10
509.2676252395789
 20
431.0666015471784
 30
0.0
 11
669.7404201087032
 21
591.5393964163045
 31
0.0
  0
LINE
  5
306
330
1F
100
AcDbEntity
  8
0-0
  6
JWW_DASHED1
 62
   120
370
     5
100
AcDbLine
 10
509.2676252395585
 20
438.1376693590238
 30
0.0
 11
662.6693522968536
 21
591.5393964163219
 31
0.0
  0
LINE
  5
307
330
1F
100
AcDbEntity
  8
0-0
  6
JWW_DASHED1
 62
   120
370
     5
100
AcDbLine
 10
509.2676252395653
 20
445.2087371708998
 30
0.0
 11
655.5982844849835
 21
591.5393964163155
 31
0.0
  0
LINE
  5
308
330
1F
100
AcDbEntity
  8
0-0
  6
JWW_DASHED1
 62
   120
370
     5
100
AcDbLine
 10
509.2676252395755
 20
452.2798049827763
 30
0.0
 11
648.5272166731032
 21
591.5393964163057
 31
0.0
  0
LINE
  5
309
330
1F
100
AcDbEntity
  8
0-0
  6
JWW_DASHED1
 62
   120
370
     5
100
AcDbLine
 10
509.2676252395687
 20
459.3508727946353
 30
0.0
 11
641.45614886124
 21
591.5393964163079
 31
0.0
  0
LINE
  5
30A
330
1F
100
AcDbEntity
  8
0-0
  6
JWW_DASHED1
 62
   120
370
     5
100
AcDbLine
 10
509.2676252395653
 20
466.4219406064981
 30
0.0
 11
634.3850810493835
 21
591.5393964163172
 31
0.0
  0
LINE
  5
30B
330
1F
100
AcDbEntity
  8
0-0
  6
JWW_DASHED1
 62
   120
370
     5
100
AcDbLine
 10
509.2676252395721
 20
473.4930084183746
 30
0.0
 11
627.3140132375066
 21
591.539396416307
 31
0.0
  0
LINE
  5
30C
330
1F
100
AcDbEntity
  8
0-0
  6
JWW_DASHED1
 62
   120
370
     5
100
AcDbLine
 10
509.2676252395823
 20
480.5640762302494
 30
0.0
 11
620.2429454256297
 21
591.5393964162968
 31
0.0
  0
LINE
  5
30D
330
1F
100
AcDbEntity
  8
0-0
  6
JWW_DASHED1
 62
   120
370
     5
100
AcDbLine
 10
509.2676252395619
 20
487.635144042096
 30
0.0
 11
613.1718776137835
 21
591.5393964163181
 31
0.0
  0
LINE
  5
30E
330
1F
100
AcDbEntity
  8
0-0
  6
JWW_DASHED1
 62
   120
370
     5
100
AcDbLine
 10
509.2676252395721
 20
494.7062118539729
 30
0.0
 11
606.1008098019066
 21
591.5393964163079
 31
0.0
  0
LINE
  5
30F
330
1F
100
AcDbEntity
  8
0-0
  6
JWW_DASHED1
 62
   120
370
     5
100
AcDbLine
 10
509.2676252395789
 20
501.7772796658481
 30
0.0
 11
599.0297419900297
 21
591.539396416298
 31
0.0
  0
LINE
  5
310
330
1F
100
AcDbEntity
  8
0-0
  6
JWW_DASHED1
 62
   120
370
     5
100
AcDbLine
 10
509.2676252395585
 20
508.8483474776943
 30
0.0
 11
591.9586741781835
 21
591.5393964163177
 31
0.0
  0
LINE
  5
311
330
1F
100
AcDbEntity
  8
0-0
  6
JWW_DASHED1
 62
   120
370
     5
100
AcDbLine
 10
509.2676252395721
 20
515.9194152895708
 30
0.0
 11
584.88760636631
 21
591.5393964163095
 31
0.0
  0
LINE
  5
312
330
1F
100
AcDbEntity
  8
0-0
  6
JWW_DASHED1
 62
   120
370
     5
100
AcDbLine
 10
509.2676252395789
 20
522.9904831014464
 30
0.0
 11
577.8165385544331
 21
591.5393964162993
 31
0.0
  0
LINE
  5
313
330
1F
100
AcDbEntity
  8
0-0
  6
JWW_DASHED1
 62
   120
370
     5
100
AcDbLine
 10
509.2676252395585
 20
530.0615509132926
 30
0.0
 11
570.7454707425835
 21
591.5393964163189
 31
0.0
  0
LINE
  5
314
330
1F
100
AcDbEntity
  8
0-0
  6
JWW_DASHED1
 62
   120
370
     5
100
AcDbLine
 10
509.2676252395687
 20
537.1326187251691
 30
0.0
 11
563.67440293071
 21
591.5393964163109
 31
0.0
  0
LINE
  5
315
330
1F
100
AcDbEntity
  8
0-0
  6
JWW_DASHED1
 62
   120
370
     5
100
AcDbLine
 10
509.2676252395789
 20
544.2036865370455
 30
0.0
 11
556.6033351188331
 21
591.5393964163002
 31
0.0
  0
LINE
  5
316
330
1F
100
AcDbEntity
  8
0-0
  6
JWW_DASHED1
 62
   120
370
     5
100
AcDbLine
 10
509.2676252395585
 20
551.2747543488905
 30
0.0
 11
549.5322673069869
 21
591.5393964163211
 31
0.0
  0
LINE
  5
317
330
1F
100
AcDbEntity
  8
0-0
  6
JWW_DASHED1
 62
   120
370
     5
100
AcDbLine
 10
509.2676252395653
 20
558.3458221607674
 30
0.0
 11
542.46119949511
 21
591.5393964163121
 31
0.0
  0
LINE
  5
318
330
1F
100
AcDbEntity
  8
0-0
  6
JWW_DASHED1
 62
   120
370
     5
100
AcDbLine
 10
509.2676252395755
 20
565.4168899726438
 30
0.0
 11
535.3901316832365
 21
591.5393964163023
 31
0.0
  0
LINE
  5
319
330
1F
100
AcDbEntity
  8
0-0
  6
JWW_DASHED1
 62
   120
370
     5
100
AcDbLine
 10
509.2676252395721
 20
572.4879577845041
 30
0.0
 11
528.3190638713733
 21
591.539396416307
 31
0.0
  0
LINE
  5
31A
330
1F
100
AcDbEntity
  8
0-0
  6
JWW_DASHED1
 62
   120
370
     5
100
AcDbLine
 10
509.2676252395653
 20
579.5590255963652
 30
0.0
 11
521.2479960595134
 21
591.5393964163129
 31
0.0
  0
LINE
  5
31B
330
1F
100
AcDbEntity
  8
0-0
  6
JWW_DASHED1
 62
   120
370
     5
100
AcDbLine
 10
509.2676252395755
 20
586.6300934082417
 30
0.0
 11
514.1769282476365
 21
591.5393964163036
 31
0.0
  0
LINE
  5
31C
330
1F
100
AcDbEntity
  8
0-0
  6
JWW_DASHED1
 62
   120
370
     5
100
AcDbLine
 10
833.1823378189778
 20
-383.4606035836823
 30
0.0
 11
1099.267625239557
 21
-117.3753161631019
 31
0.0
  0
LINE
  5
31D
330
1F
100
AcDbEntity
  8
0-0
  6
Continuous
 62
    92
370
    13
100
AcDbLine
 10
509.2676252395687
 20
-513.460603583692
 30
0.0
 11
1099.267625239571
 21
-513.460603583692
 31
0.0
  0
LINE
  5
31E
330
1F
100
AcDbEntity
  8
0-0
  6
Continuous
 62
    92
370
    13
100
AcDbLine
 10
-1050.732374760431
 20
-1456.460603583691
 30
0.0
 11
-1050.732374760431
 21
726.5393964163083
 31
0.0
  0
LINE
  5
31F
330
1F
100
AcDbEntity
  8
0-0
  6
Continuous
 62
    92
370
    13
100
AcDbLine
 10
-460.732374760429
 20
-1456.460603583691
 30
0.0
 11
-460.732374760429
 21
726.5393964163083
 31
0.0
  0
LINE
  5
320
330
1F
100
AcDbEntity
  8
0-0
  6
Continuous
 62
    92
370
    13
100
AcDbLine
 10
319.267625239571
 20
-1456.460603583691
 30
0.0
 11
319.267625239571
 21
726.5393964163083
 31
0.0
  0
LINE
  5
321
330
1F
100
AcDbEntity
  8
0-0
  6
Continuous
 62
    92
370
    13
100
AcDbLine
 10
-270.7323747604313
 20
-1456.460603583691
 30
0.0
 11
-270.7323747604313
 21
726.5393964163083
 31
0.0
  0
LINE
  5
322
330
1F
100
AcDbEntity
  8
0-0
  6
Continuous
 62
    92
370
    13
100
AcDbLine
 10
1099.267625239571
 20
-1456.460603583691
 30
0.0
 11
1099.267625239571
 21
726.5393964163083
 31
0.0
  0
LINE
  5
323
330
1F
100
AcDbEntity
  8
0-0
  6
Continuous
 62
    92
370
    13
100
AcDbLine
 10
509.2676252395687
 20
-1456.460603583691
 30
0.0
 11
509.2676252395687
 21
726.5393964163083
 31
0.0
  0
MTEXT
  5
324
330
1F
100
AcDbEntity
  8
文字
  6
Continuous
 62
     7
370
     9
100
AcDbMText
 10
-1737.732374760431
 20
1071.522546381691
 30
0.0
 40
45.71999999999998
 41
1620.0
 46
0.0
 71
     7
 72
     1
  1
{\fＭＳ ゴシック|b0|i0|c128|p49;※ＣＨは縦木目柄、ＣＹは横木目柄のデザインとなります。}
 73
     1
 44
1.0
  0
LINE
  5
325
330
1F
100
AcDbEntity
  8
寸法
  6
Continuous
 62
   120
370
     5
100
AcDbLine
 10
-1637.732374760431
 20
-1476.460603583691
 30
0.0
 11
-1237.732374760432
 21
-1476.460603583691
 31
0.0
  0
LINE
  5
326
330
1F
100
AcDbEntity
  8
寸法
  6
Continuous
 62
   120
370
     5
100
AcDbLine
 10
-1437.732374760431
 20
-1456.46060358369
 30
0.0
 11
-1237.732374760432
 21
-1456.46060358369
 31
0.0
  0
LWPOLYLINE
  5
327
330
1F
100
AcDbEntity
  8
寸法
  6
Continuous
 62
     7
370
     9
100
AcDbPolyline
 90
        4
 70
     1
 43
3.0
 10
-1636.232374760431
 20
-1476.460603583691
 42
0.4142135623731
 10
-1637.732374760431
 20
-1474.960603583691
 42
0.4142135623731
 10
-1639.232374760431
 20
-1476.460603583691
 42
0.4142135623731
 10
-1637.732374760431
 20
-1477.960603583691
 42
0.4142135623731
  0
LWPOLYLINE
  5
328
330
1F
100
AcDbEntity
  8
寸法
  6
Continuous
 62
     7
370
     9
100
AcDbPolyline
 90
        4
 70
     1
 43
3.0
 10
-1436.232374760431
 20
-1456.46060358369
 42
0.4142135623731
 10
-1437.732374760431
 20
-1454.96060358369
 42
0.4142135623731
 10
-1439.232374760431
 20
-1456.46060358369
 42
0.4142135623731
 10
-1437.732374760431
 20
-1457.96060358369
 42
0.4142135623731
  0
LINE
  5
329
330
1F
100
AcDbEntity
  8
寸法
  6
Continuous
 62
   120
370
     5
100
AcDbLine
 10
-1157.73237476043
 20
-1926.460603583691
 30
0.0
 11
-1157.73237476043
 21
-1526.460603583692
 31
0.0
  0
LINE
  5
32A
330
1F
100
AcDbEntity
  8
寸法
  6
Continuous
 62
   120
370
     5
100
AcDbLine
 10
-1187.73237476043
 20
-2126.460603583691
 30
0.0
 11
-1187.73237476043
 21
-1526.460603583692
 31
0.0
  0
LINE
  5
32B
330
1F
100
AcDbEntity
  8
寸法
  6
Continuous
 62
   120
370
     5
100
AcDbLine
 10
-1157.73237476043
 20
-1926.460603583691
 30
0.0
 11
1206.267625239569
 21
-1926.460603583691
 31
0.0
  0
LINE
  5
32C
330
1F
100
AcDbEntity
  8
寸法
  6
Continuous
 62
   120
370
     5
100
AcDbLine
 10
1206.267625239569
 20
-1926.460603583691
 30
0.0
 11
1206.267625239569
 21
-1526.460603583692
 31
0.0
  0
LINE
  5
32D
330
1F
100
AcDbEntity
  8
寸法
  6
Continuous
 62
   120
370
     5
100
AcDbLine
 10
-1187.73237476043
 20
-2126.460603583691
 30
0.0
 11
1236.267625239569
 21
-2126.46060358369
 31
0.0
  0
LINE
  5
32E
330
1F
100
AcDbEntity
  8
寸法
  6
Continuous
 62
   120
370
     5
100
AcDbLine
 10
1236.267625239569
 20
-2126.46060358369
 30
0.0
 11
1236.267625239569
 21
-1526.460603583692
 31
0.0
  0
LINE
  5
32F
330
1F
100
AcDbEntity
  8
寸法
  6
Continuous
 62
   120
370
     5
100
AcDbLine
 10
399.2676252395698
 20
-1726.46060358369
 30
0.0
 11
399.2676252395698
 21
-1526.460603583692
 31
0.0
  0
LINE
  5
330
330
1F
100
AcDbEntity
  8
寸法
  6
Continuous
 62
   120
370
     5
100
AcDbLine
 10
1209.26762523957
 20
-1726.46060358369
 30
0.0
 11
1209.26762523957
 21
-1526.460603583692
 31
0.0
  0
LINE
  5
331
330
1F
100
AcDbEntity
  8
寸法
  6
Continuous
 62
   120
370
     5
100
AcDbLine
 10
1209.26762523957
 20
-1726.46060358369
 30
0.0
 11
399.2676252395698
 21
-1726.46060358369
 31
0.0
  0
LWPOLYLINE
  5
332
330
1F
100
AcDbEntity
  8
寸法
  6
Continuous
 62
     7
370
     9
100
AcDbPolyline
 90
        4
 70
     1
 43
3.0
 10
-1156.23237476043
 20
-1926.460603583691
 42
0.4142135623731
 10
-1157.73237476043
 20
-1924.960603583691
 42
0.4142135623731
 10
-1159.232374760429
 20
-1926.460603583691
 42
0.4142135623731
 10
-1157.73237476043
 20
-1927.960603583691
 42
0.4142135623731
  0
LWPOLYLINE
  5
333
330
1F
100
AcDbEntity
  8
寸法
  6
Continuous
 62
     7
370
     9
100
AcDbPolyline
 90
        4
 70
     1
 43
3.0
 10
-1186.23237476043
 20
-2126.460603583691
 42
0.4142135623731
 10
-1187.73237476043
 20
-2124.960603583691
 42
0.4142135623731
 10
-1189.232374760429
 20
-2126.460603583691
 42
0.4142135623731
 10
-1187.73237476043
 20
-2127.960603583691
 42
0.4142135623731
  0
LWPOLYLINE
  5
334
330
1F
100
AcDbEntity
  8
寸法
  6
Continuous
 62
     7
370
     9
100
AcDbPolyline
 90
        4
 70
     1
 43
3.0
 10
1207.767625239569
 20
-1926.460603583691
 42
0.4142135623731
 10
1206.267625239569
 20
-1924.960603583691
 42
0.4142135623731
 10
1204.767625239569
 20
-1926.460603583691
 42
0.4142135623731
 10
1206.267625239569
 20
-1927.960603583691
 42
0.4142135623731
  0
LWPOLYLINE
  5
335
330
1F
100
AcDbEntity
  8
寸法
  6
Continuous
 62
     7
370
     9
100
AcDbPolyline
 90
        4
 70
     1
 43
3.0
 10
1237.767625239569
 20
-2126.46060358369
 42
0.4142135623731
 10
1236.267625239569
 20
-2124.96060358369
 42
0.4142135623731
 10
1234.767625239569
 20
-2126.46060358369
 42
0.4142135623731
 10
1236.267625239569
 20
-2127.96060358369
 42
0.4142135623731
  0
LWPOLYLINE
  5
336
330
1F
100
AcDbEntity
  8
寸法
  6
Continuous
 62
     7
370
     9
100
AcDbPolyline
 90
        4
 70
     1
 43
3.0
 10
400.7676252395698
 20
-1726.46060358369
 42
0.4142135623731
 10
399.2676252395698
 20
-1724.96060358369
 42
0.4142135623731
 10
397.7676252395698
 20
-1726.46060358369
 42
0.4142135623731
 10
399.2676252395698
 20
-1727.96060358369
 42
0.4142135623731
  0
LWPOLYLINE
  5
337
330
1F
100
AcDbEntity
  8
寸法
  6
Continuous
 62
     7
370
     9
100
AcDbPolyline
 90
        4
 70
     1
 43
3.0
 10
1210.76762523957
 20
-1726.46060358369
 42
0.4142135623731
 10
1209.26762523957
 20
-1724.96060358369
 42
0.4142135623731
 10
1207.76762523957
 20
-1726.46060358369
 42
0.4142135623731
 10
1209.26762523957
 20
-1727.96060358369
 42
0.4142135623731
  0
LWPOLYLINE
  5
338
330
1F
100
AcDbEntity
  8
寸法
  6
Continuous
 62
     7
370
     9
100
AcDbPolyline
 90
        4
 70
     1
 43
3.0
 10
-1636.232374760431
 20
770.5393964163092
 42
0.4142135623731
 10
-1637.732374760431
 20
772.0393964163092
 42
0.4142135623731
 10
-1639.232374760431
 20
770.5393964163092
 42
0.4142135623731
 10
-1637.732374760431
 20
769.0393964163092
 42
0.4142135623731
  0
LINE
  5
339
330
1F
100
AcDbEntity
  8
寸法
  6
Continuous
 62
   120
370
     5
100
AcDbLine
 10
-1637.732374760431
 20
770.5393964163092
 30
0.0
 11
-1237.732374760432
 21
770.5393964163092
 31
0.0
  0
LINE
  5
33A
330
1F
100
AcDbEntity
  8
寸法
  6
Continuous
 62
   120
370
     5
100
AcDbLine
 10
-1637.732374760431
 20
770.5393964163092
 30
0.0
 11
-1637.732374760431
 21
-1476.460603583691
 31
0.0
  0
LWPOLYLINE
  5
33B
330
1F
100
AcDbEntity
  8
寸法
  6
Continuous
 62
     7
370
     9
100
AcDbPolyline
 90
        4
 70
     1
 43
3.0
 10
-1436.232374760431
 20
726.5393964163083
 42
0.4142135623731
 10
-1437.732374760431
 20
728.0393964163083
 42
0.4142135623731
 10
-1439.232374760431
 20
726.5393964163083
 42
0.4142135623731
 10
-1437.732374760431
 20
725.0393964163083
 42
0.4142135623731
  0
LINE
  5
33C
330
1F
100
AcDbEntity
  8
寸法
  6
Continuous
 62
   120
370
     5
100
AcDbLine
 10
-1437.732374760431
 20
726.5393964163083
 30
0.0
 11
-1437.732374760431
 21
-1456.46060358369
 31
0.0
  0
LINE
  5
33D
330
1F
100
AcDbEntity
  8
寸法
  6
Continuous
 62
   120
370
     5
100
AcDbLine
 10
-1437.732374760431
 20
726.5393964163083
 30
0.0
 11
-1237.732374760432
 21
726.5393964163083
 31
0.0
  0
MTEXT
  5
33E
330
1F
100
AcDbEntity
  8
寸法
  6
Continuous
 62
     7
370
    70
100
AcDbMText
 10
-1652.732374760431
 20
-577.1356035836908
 30
0.0
 40
57.14999999999999
 41
412.5
 46
0.0
 71
     7
 72
     1
  1
{\fＭＳ ゴシック|b0|i0|c128|p49;枠外＝2,247}
 11
6.123031769111886E-17
 21
1.0
 31
0.0
 73
     1
 44
1.0
  0
MTEXT
  5
33F
330
1F
100
AcDbEntity
  8
寸法
  6
Continuous
 62
     7
370
    70
100
AcDbMText
 10
-1452.732374760431
 20
-583.1356035836905
 30
0.0
 40
57.14999999999999
 41
412.5
 46
0.0
 71
     7
 72
     1
  1
{\fＭＳ ゴシック|b0|i0|c128|p49;ＤＨ＝2,183}
 11
6.123031769111886E-17
 21
1.0
 31
0.0
 73
     1
 44
1.0
  0
MTEXT
  5
340
330
1F
100
AcDbEntity
  8
寸法
  6
Continuous
 62
     7
370
   211
100
AcDbMText
 10
635.5176252395698
 20
-1720.38560358369
 30
0.0
 40
57.15
 41
337.5
 46
0.0
 71
     7
 72
     1
  1
{\fＭＳ ゴシック|b0|i0|c128|p49;ＤＷ＝810}
 73
     1
 44
1.0
  0
MTEXT
  5
341
330
1F
100
AcDbEntity
  8
寸法
  6
Continuous
 62
     7
370
   211
100
AcDbMText
 10
-181.9823747604302
 20
-1920.385603583691
 30
0.0
 40
57.14999999999999
 41
412.5
 46
0.0
 71
     7
 72
     1
  1
{\fＭＳ ゴシック|b0|i0|c128|p49;枠内＝2,364}
 73
     1
 44
1.0
  0
MTEXT
  5
342
330
1F
100
AcDbEntity
  8
寸法
  6
Continuous
 62
     7
370
   211
100
AcDbMText
 10
-181.9823747604302
 20
-2120.385603583692
 30
0.0
 40
57.14999999999999
 41
412.5
 46
0.0
 71
     7
 72
     1
  1
{\fＭＳ ゴシック|b0|i0|c128|p49;枠外＝2,424}
 73
     1
 44
1.0
  0
ENDSEC
  0
SECTION
  2
OBJECTS
  0
DICTIONARY
  5
C
330
0
100
AcDbDictionary
281
     1
  3
ACAD_GROUP
350
D
  3
ACAD_LAYOUT
350
1A
  3
ACAD_MATERIAL
350
3B
  3
ACAD_MLEADERSTYLE
350
344
  3
ACAD_MLINESTYLE
350
17
  3
ACAD_PLOTSETTINGS
350
19
  3
ACAD_PLOTSTYLENAME
350
E
  3
ACAD_TABLESTYLE
350
343
  3
ACAD_VISUALSTYLE
350
2A
  0
DICTIONARY
  5
D
102
{ACAD_REACTORS
330
C
102
}
330
C
100
AcDbDictionary
281
     1
  0
DICTIONARY
  5
1A
102
{ACAD_REACTORS
330
C
102
}
330
C
100
AcDbDictionary
281
     1
  3
Layout1
350
1E
  3
Layout2
350
26
  3
Model
350
22
  0
DICTIONARY
  5
3B
102
{ACAD_REACTORS
330
C
102
}
330
C
100
AcDbDictionary
281
     1
  3
ByBlock
350
3D
  3
ByLayer
350
3C
  3
Global
350
3E
  0
DICTIONARY
  5
344
102
{ACAD_REACTORS
330
C
102
}
330
C
100
AcDbDictionary
281
     1
  0
DICTIONARY
  5
17
102
{ACAD_REACTORS
330
C
102
}
330
C
100
AcDbDictionary
281
     1
  3
Standard
350
18
  0
DICTIONARY
  5
19
102
{ACAD_REACTORS
330
C
102
}
330
C
100
AcDbDictionary
281
     1
  0
ACDBDICTIONARYWDFLT
  5
E
102
{ACAD_REACTORS
330
C
102
}
330
C
100
AcDbDictionary
281
     1
  3
Normal
350
F
100
AcDbDictionaryWithDefault
340
F
  0
DICTIONARY
  5
343
102
{ACAD_REACTORS
330
C
102
}
330
C
100
AcDbDictionary
281
     1
  0
DICTIONARY
  5
2A
102
{ACAD_REACTORS
330
C
102
}
330
C
100
AcDbDictionary
281
     1
  3
2dWireframe
350
2F
  3
3D Hidden
350
31
  3
3dWireframe
350
30
  3
Basic
350
32
  3
Brighten
350
36
  3
ColorChange
350
3A
  3
Conceptual
350
34
  3
Dim
350
35
  3
Facepattern
350
39
  3
Flat
350
2B
  3
FlatWithEdges
350
2C
  3
Gouraud
350
2D
  3
GouraudWithEdges
350
2E
  3
Linepattern
350
38
  3
Realistic
350
33
  3
Thicken
350
37
  0
LAYOUT
  5
1E
102
{ACAD_REACTORS
330
1A
102
}
330
1A
100
AcDbPlotSettings
  1

  2
none_device
  4

  6

 40
0.0
 41
0.0
 42
0.0
 43
0.0
 44
0.0
 45
0.0
 46
0.0
 47
0.0
 48
0.0
 49
0.0
140
0.0
141
0.0
142
1.0
143
1.0
 70
   688
 72
     0
 73
     0
 74
     5
  7

 75
    16
 76
     0
 77
     5
 78
   300
147
1.0
148
0.0
149
0.0
100
AcDbLayout
  1
Layout1
 70
     1
 71
     1
 10
0.0
 20
0.0
 11
420.0
 21
297.0
 12
0.0
 22
0.0
 32
0.0
 14
1.000000000000000E+20
 24
1.000000000000000E+20
 34
1.000000000000000E+20
 15
-1.000000000000000E+20
 25
-1.000000000000000E+20
 35
-1.000000000000000E+20
146
0.0
 13
0.0
 23
0.0
 33
0.0
 16
1.0
 26
0.0
 36
0.0
 17
0.0
 27
1.0
 37
0.0
 76
     0
330
1B
  0
LAYOUT
  5
26
102
{ACAD_REACTORS
330
1A
102
}
330
1A
100
AcDbPlotSettings
  1

  2
none_device
  4

  6

 40
0.0
 41
0.0
 42
0.0
 43
0.0
 44
0.0
 45
0.0
 46
0.0
 47
0.0
 48
0.0
 49
0.0
140
0.0
141
0.0
142
1.0
143
1.0
 70
   688
 72
     0
 73
     0
 74
     5
  7

 75
    16
 76
     0
 77
     5
 78
   300
147
1.0
148
0.0
149
0.0
100
AcDbLayout
  1
Layout2
 70
     1
 71
     2
 10
0.0
 20
0.0
 11
0.0
 21
0.0
 12
0.0
 22
0.0
 32
0.0
 14
0.0
 24
0.0
 34
0.0
 15
0.0
 25
0.0
 35
0.0
146
0.0
 13
0.0
 23
0.0
 33
0.0
 16
1.0
 26
0.0
 36
0.0
 17
0.0
 27
1.0
 37
0.0
 76
     0
330
23
  0
LAYOUT
  5
22
102
{ACAD_REACTORS
330
1A
102
}
330
1A
100
AcDbPlotSettings
  1

  2
none_device
  4

  6

 40
0.0
 41
0.0
 42
0.0
 43
0.0
 44
0.0
 45
0.0
 46
0.0
 47
0.0
 48
0.0
 49
0.0
140
0.0
141
0.0
142
1.0
143
1.0
 70
  1712
 72
     0
 73
     0
 74
     0
  7

 75
     0
 76
     0
 77
     5
 78
   300
147
1.0
148
0.0
149
0.0
100
AcDbLayout
  1
Model
 70
     1
 71
     0
 10
-4455.0
 20
-3150.0
 11
4455.0
 21
3150.0
 12
0.0
 22
0.0
 32
0.0
 14
-4455.0
 24
-3150.0
 34
0.0
 15
4455.0
 25
3150.0
 35
0.0
146
0.0
 13
0.0
 23
0.0
 33
0.0
 16
1.0
 26
0.0
 36
0.0
 17
0.0
 27
1.0
 37
0.0
 76
     0
330
1F
331
29
  0
MATERIAL
  5
3D
102
{ACAD_REACTORS
330
3B
102
}
330
3B
100
AcDbMaterial
  1
ByBlock
 72
     1
 94
      127
  0
MATERIAL
  5
3C
102
{ACAD_REACTORS
330
3B
102
}
330
3B
100
AcDbMaterial
  1
ByLayer
 72
     1
 94
      127
  0
MATERIAL
  5
3E
102
{ACAD_REACTORS
330
3B
102
}
330
3B
100
AcDbMaterial
  1
Global
 72
     1
 94
      127
  0
MLINESTYLE
  5
18
102
{ACAD_REACTORS
330
17
102
}
330
17
100
AcDbMlineStyle
  2
Standard
 70
     0
  3

 62
   256
 51
90.0
 52
90.0
 71
     2
 49
0.5
 62
   256
  6
BYLAYER
 49
-0.5
 62
   256
  6
BYLAYER
  0
ACDBPLACEHOLDER
  5
F
102
{ACAD_REACTORS
330
E
102
}
330
E
  0
VISUALSTYLE
  5
2F
102
{ACAD_REACTORS
330
2A
102
}
330
2A
100
AcDbVisualStyle
  2
2dWireframe
 70
     4
177
     2
291
     0
 71
     0
176
     1
 72
     2
176
     1
 73
     0
176
     1
 90
        0
176
     1
 40
-0.6
176
     1
 41
-30.0
176
     1
 62
     5
 63
     7
421
 16777215
176
     1
 74
     1
176
     1
 91
        4
176
     1
 64
     7
176
     1
 65
   257
176
     1
 75
     1
176
     1
175
     1
176
     1
 42
1.0
176
     1
 92
        0
176
     1
 66
   257
176
     1
 43
1.0
176
     1
 76
     1
176
     1
 77
     6
176
     1
 78
     2
176
     1
 67
     7
176
     1
 79
     5
176
     1
170
     0
176
     1
171
     0
176
     1
290
     0
176
     1
 93
        1
176
     1
 44
0.0
176
     1
173
     0
176
     1
  0
VISUALSTYLE
  5
31
102
{ACAD_REACTORS
330
2A
102
}
330
2A
100
AcDbVisualStyle
  2
3D Hidden
 70
     6
177
     2
291
     0
 71
     1
176
     1
 72
     2
176
     1
 73
     2
176
     1
 90
        0
176
     1
 40
-0.6
176
     1
 41
-30.0
176
     1
 62
     5
 63
     7
421
 16777215
176
     1
 74
     2
176
     1
 91
        2
176
     1
 64
     7
176
     1
 65
   257
176
     1
 75
     2
176
     1
175
     1
176
     1
 42
40.0
176
     1
 92
        0
176
     1
 66
   257
176
     1
 43
1.0
176
     1
 76
     1
176
     1
 77
     6
176
     1
 78
     2
176
     1
 67
     7
176
     1
 79
     3
176
     1
170
     0
176
     1
171
     0
176
     1
290
     0
176
     1
 93
        1
176
     1
 44
0.0
176
     1
173
     0
176
     1
  0
VISUALSTYLE
  5
30
102
{ACAD_REACTORS
330
2A
102
}
330
2A
100
AcDbVisualStyle
  2
3dWireframe
 70
     5
177
     2
291
     0
 71
     0
176
     1
 72
     2
176
     1
 73
     0
176
     1
 90
        0
176
     1
 40
-0.6
176
     1
 41
-30.0
176
     1
 62
     5
 63
     7
421
 16777215
176
     1
 74
     1
176
     1
 91
        4
176
     1
 64
     7
176
     1
 65
   257
176
     1
 75
     1
176
     1
175
     1
176
     1
 42
1.0
176
     1
 92
        0
176
     1
 66
   257
176
     1
 43
1.0
176
     1
 76
     1
176
     1
 77
     6
176
     1
 78
     2
176
     1
 67
     7
176
     1
 79
     5
176
     1
170
     0
176
     1
171
     0
176
     1
290
     0
176
     1
 93
        1
176
     1
 44
0.0
176
     1
173
     0
176
     1
  0
VISUALSTYLE
  5
32
102
{ACAD_REACTORS
330
2A
102
}
330
2A
100
AcDbVisualStyle
  2
Basic
 70
     7
177
     2
291
     1
 71
     1
176
     1
 72
     0
176
     1
 73
     1
176
     1
 90
        0
176
     1
 40
-0.6
176
     1
 41
-30.0
176
     1
 62
     5
 63
     7
421
 16777215
176
     1
 74
     0
176
     1
 91
        4
176
     1
 64
     7
176
     1
 65
   257
176
     1
 75
     1
176
     1
175
     1
176
     1
 42
1.0
176
     1
 92
        8
176
     1
 66
     7
176
     1
 43
1.0
176
     1
 76
     1
176
     1
 77
     6
176
     1
 78
     2
176
     1
 67
     7
176
     1
 79
     5
176
     1
170
     0
176
     1
171
     0
176
     1
290
     0
176
     1
 93
        1
176
     1
 44
0.0
176
     1
173
     0
176
     1
  0
VISUALSTYLE
  5
36
102
{ACAD_REACTORS
330
2A
102
}
330
2A
100
AcDbVisualStyle
  2
Brighten
 70
    12
177
     2
291
     1
 71
     2
176
     1
 72
     2
176
     1
 73
     0
176
     1
 90
        0
176
     1
 40
-0.6
176
     1
 41
-30.0
176
     1
 62
     5
 63
     7
421
 16777215
176
     1
 74
     1
176
     1
 91
        4
176
     1
 64
     7
176
     1
 65
   257
176
     1
 75
     1
176
     1
175
     1
176
     1
 42
1.0
176
     1
 92
        8
176
     1
 66
     7
176
     1
 43
1.0
176
     1
 76
     1
176
     1
 77
     6
176
     1
 78
     2
176
     1
 67
     7
176
     1
 79
     5
176
     1
170
     0
176
     1
171
     0
176
     1
290
     0
176
     1
 93
        1
176
     1
 44
50.0
176
     1
173
     0
176
     1
  0
VISUALSTYLE
  5
3A
102
{ACAD_REACTORS
330
2A
102
}
330
2A
100
AcDbVisualStyle
  2
ColorChange
 70
    16
177
     2
291
     1
 71
     2
176
     1
 72
     2
176
     1
 73
     3
176
     1
 90
        0
176
     1
 40
-0.6
176
     1
 41
-30.0
176
     1
 62
     5
 63
     8
421
  8421504
176
     1
 74
     1
176
     1
 91
        4
176
     1
 64
     7
176
     1
 65
   257
176
     1
 75
     1
176
     1
175
     1
176
     1
 42
1.0
176
     1
 92
        8
176
     1
 66
     8
424
  8421504
176
     1
 43
1.0
176
     1
 76
     1
176
     1
 77
     6
176
     1
 78
     2
176
     1
 67
     7
176
     1
 79
     5
176
     1
170
     0
176
     1
171
     0
176
     1
290
     0
176
     1
 93
        1
176
     1
 44
0.0
176
     1
173
     0
176
     1
  0
VISUALSTYLE
  5
34
102
{ACAD_REACTORS
330
2A
102
}
330
2A
100
AcDbVisualStyle
  2
Conceptual
 70
     9
177
     2
291
     0
 71
     3
176
     1
 72
     2
176
     1
 73
     0
176
     1
 90
        0
176
     1
 40
-0.6
176
     1
 41
-30.0
176
     1
 62
     5
 63
     7
421
 16777215
176
     1
 74
     2
176
     1
 91
        2
176
     1
 64
     7
176
     1
 65
   257
176
     1
 75
     1
176
     1
175
     1
176
     1
 42
40.0
176
     1
 92
        8
176
     1
 66
     7
176
     1
 43
1.0
176
     1
 76
     1
176
     1
 77
     6
176
     1
 78
     2
176
     1
 67
     7
176
     1
 79
     3
176
     1
170
     0
176
     1
171
     0
176
     1
290
     0
176
     1
 93
        1
176
     1
 44
0.0
176
     1
173
     0
176
     1
  0
VISUALSTYLE
  5
35
102
{ACAD_REACTORS
330
2A
102
}
330
2A
100
AcDbVisualStyle
  2
Dim
 70
    11
177
     2
291
     1
 71
     2
176
     1
 72
     2
176
     1
 73
     0
176
     1
 90
        0
176
     1
 40
-0.6
176
     1
 41
-30.0
176
     1
 62
     5
 63
     7
421
 16777215
176
     1
 74
     1
176
     1
 91
        4
176
     1
 64
     7
176
     1
 65
   257
176
     1
 75
     1
176
     1
175
     1
176
     1
 42
1.0
176
     1
 92
        8
176
     1
 66
     7
176
     1
 43
1.0
176
     1
 76
     1
176
     1
 77
     6
176
     1
 78
     2
176
     1
 67
     7
176
     1
 79
     5
176
     1
170
     0
176
     1
171
     0
176
     1
290
     0
176
     1
 93
        1
176
     1
 44
-50.0
176
     1
173
     0
176
     1
  0
VISUALSTYLE
  5
39
102
{ACAD_REACTORS
330
2A
102
}
330
2A
100
AcDbVisualStyle
  2
Facepattern
 70
    15
177
     2
291
     1
 71
     2
176
     1
 72
     2
176
     1
 73
     0
176
     1
 90
        0
176
     1
 40
-0.6
176
     1
 41
-30.0
176
     1
 62
     5
 63
     7
421
 16777215
176
     1
 74
     1
176
     1
 91
        4
176
     1
 64
     7
176
     1
 65
   257
176
     1
 75
     1
176
     1
175
     1
176
     1
 42
1.0
176
     1
 92
        8
176
     1
 66
     7
176
     1
 43
1.0
176
     1
 76
     1
176
     1
 77
     6
176
     1
 78
     2
176
     1
 67
     7
176
     1
 79
     5
176
     1
170
     0
176
     1
171
     0
176
     1
290
     0
176
     1
 93
        1
176
     1
 44
0.0
176
     1
173
     0
176
     1
  0
VISUALSTYLE
  5
2B
102
{ACAD_REACTORS
330
2A
102
}
330
2A
100
AcDbVisualStyle
  2
Flat
 70
     0
177
     2
291
     1
 71
     2
176
     1
 72
     1
176
     1
 73
     1
176
     1
 90
        2
176
     1
 40
-0.6
176
     1
 41
30.0
176
     1
 62
     5
 63
     7
421
 16777215
176
     1
 74
     0
176
     1
 91
        4
176
     1
 64
     7
176
     1
 65
   257
176
     1
 75
     1
176
     1
175
     1
176
     1
 42
1.0
176
     1
 92
        8
176
     1
 66
     7
176
     1
 43
1.0
176
     1
 76
     1
176
     1
 77
     6
176
     1
 78
     2
176
     1
 67
     7
176
     1
 79
     5
176
     1
170
     0
176
     1
171
     0
176
     1
290
     0
176
     1
 93
       13
176
     1
 44
0.0
176
     1
173
     0
176
     1
  0
VISUALSTYLE
  5
2C
102
{ACAD_REACTORS
330
2A
102
}
330
2A
100
AcDbVisualStyle
  2
FlatWithEdges
 70
     1
177
     2
291
     1
 71
     2
176
     1
 72
     1
176
     1
 73
     1
176
     1
 90
        2
176
     1
 40
-0.6
176
     1
 41
30.0
176
     1
 62
     5
 63
     7
421
 16777215
176
     1
 74
     1
176
     1
 91
        4
176
     1
 64
     7
176
     1
 65
   257
176
     1
 75
     1
176
     1
175
     1
176
     1
 42
1.0
176
     1
 92
        0
176
     1
 66
   257
176
     1
 43
1.0
176
     1
 76
     1
176
     1
 77
     6
176
     1
 78
     2
176
     1
 67
     7
176
     1
 79
     5
176
     1
170
     0
176
     1
171
     0
176
     1
290
     0
176
     1
 93
       13
176
     1
 44
0.0
176
     1
173
     0
176
     1
  0
VISUALSTYLE
  5
2D
102
{ACAD_REACTORS
330
2A
102
}
330
2A
100
AcDbVisualStyle
  2
Gouraud
 70
     2
177
     2
291
     1
 71
     2
176
     1
 72
     2
176
     1
 73
     1
176
     1
 90
        2
176
     1
 40
-0.6
176
     1
 41
30.0
176
     1
 62
     5
 63
     7
421
 16777215
176
     1
 74
     0
176
     1
 91
        4
176
     1
 64
     7
176
     1
 65
   257
176
     1
 75
     1
176
     1
175
     1
176
     1
 42
1.0
176
     1
 92
        0
176
     1
 66
     7
176
     1
 43
1.0
176
     1
 76
     1
176
     1
 77
     6
176
     1
 78
     2
176
     1
 67
     7
176
     1
 79
     5
176
     1
170
     0
176
     1
171
     0
176
     1
290
     0
176
     1
 93
       13
176
     1
 44
0.0
176
     1
173
     0
176
     1
  0
VISUALSTYLE
  5
2E
102
{ACAD_REACTORS
330
2A
102
}
330
2A
100
AcDbVisualStyle
  2
GouraudWithEdges
 70
     3
177
     2
291
     1
 71
     2
176
     1
 72
     2
176
     1
 73
     1
176
     1
 90
        2
176
     1
 40
-0.6
176
     1
 41
30.0
176
     1
 62
     5
 63
     7
421
 16777215
176
     1
 74
     1
176
     1
 91
        4
176
     1
 64
     7
176
     1
 65
   257
176
     1
 75
     1
176
     1
175
     1
176
     1
 42
1.0
176
     1
 92
        0
176
     1
 66
   257
176
     1
 43
1.0
176
     1
 76
     1
176
     1
 77
     6
176
     1
 78
     2
176
     1
 67
     7
176
     1
 79
     5
176
     1
170
     0
176
     1
171
     0
176
     1
290
     0
176
     1
 93
       13
176
     1
 44
0.0
176
     1
173
     0
176
     1
  0
VISUALSTYLE
  5
38
102
{ACAD_REACTORS
330
2A
102
}
330
2A
100
AcDbVisualStyle
  2
Linepattern
 70
    14
177
     2
291
     1
 71
     2
176
     1
 72
     2
176
     1
 73
     0
176
     1
 90
        0
176
     1
 40
-0.6
176
     1
 41
-30.0
176
     1
 62
     5
 63
     7
421
 16777215
176
     1
 74
     1
176
     1
 91
        4
176
     1
 64
     7
176
     1
 65
   257
176
     1
 75
     7
176
     1
175
     7
176
     1
 42
1.0
176
     1
 92
        8
176
     1
 66
     7
176
     1
 43
1.0
176
     1
 76
     1
176
     1
 77
     6
176
     1
 78
     2
176
     1
 67
     7
176
     1
 79
     5
176
     1
170
     0
176
     1
171
     0
176
     1
290
     0
176
     1
 93
        1
176
     1
 44
0.0
176
     1
173
     0
176
     1
  0
VISUALSTYLE
  5
33
102
{ACAD_REACTORS
330
2A
102
}
330
2A
100
AcDbVisualStyle
  2
Realistic
 70
     8
177
     2
291
     0
 71
     2
176
     1
 72
     2
176
     1
 73
     0
176
     1
 90
        0
176
     1
 40
-0.6
176
     1
 41
-30.0
176
     1
 62
     5
 63
     7
421
 16777215
176
     1
 74
     1
176
     1
 91
        0
176
     1
 64
     7
176
     1
 65
   257
176
     1
 75
     1
176
     1
175
     1
176
     1
 42
1.0
176
     1
 92
        8
176
     1
 66
     8
424
  7895160
176
     1
 43
1.0
176
     1
 76
     1
176
     1
 77
     6
176
     1
 78
     2
176
     1
 67
     7
176
     1
 79
     5
176
     1
170
     0
176
     1
171
     0
176
     1
290
     0
176
     1
 93
       13
176
     1
 44
0.0
176
     1
173
     0
176
     1
  0
VISUALSTYLE
  5
37
102
{ACAD_REACTORS
330
2A
102
}
330
2A
100
AcDbVisualStyle
  2
Thicken
 70
    13
177
     2
291
     1
 71
     2
176
     1
 72
     2
176
     1
 73
     0
176
     1
 90
        0
176
     1
 40
-0.6
176
     1
 41
-30.0
176
     1
 62
     5
 63
     7
421
 16777215
176
     1
 74
     1
176
     1
 91
        4
176
     1
 64
     7
176
     1
 65
   257
176
     1
 75
     1
176
     1
175
     1
176
     1
 42
1.0
176
     1
 92
       12
176
     1
 66
     7
176
     1
 43
1.0
176
     1
 76
     1
176
     1
 77
     6
176
     1
 78
     2
176
     1
 67
     7
176
     1
 79
     5
176
     1
170
     0
176
     1
171
     0
176
     1
290
     0
176
     1
 93
        1
176
     1
 44
0.0
176
     1
173
     0
176
     1
  0
ENDSEC
  0
EOF
