  0
SECTION
  2
HEADER
  9
$ACADVER
  1
AC1024
  9
$ACADMAINTVER
 70
     6
  9
$DWGCODEPAGE
  3
ANSI_932
  9
$INSBASE
 10
0.0
 20
0.0
 30
0.0
  9
$EXTMIN
 10
-4455.0
 20
-3150.0
 30
0.0
  9
$EXTMAX
 10
4455.0
 20
3150.0
 30
0.0
  9
$LIMMIN
 10
-4455.0
 20
-3150.0
  9
$LIMMAX
 10
4455.0
 20
3150.0
  9
$ORTHOMODE
 70
     0
  9
$REGENMODE
 70
     1
  9
$FILLMODE
 70
     1
  9
$QTEXTMODE
 70
     0
  9
$MIRRTEXT
 70
     1
  9
$LTSCALE
 40
30.0
  9
$ATTMODE
 70
     1
  9
$TEXTSIZE
 40
2.5
  9
$TRACEWID
 40
1.0
  9
$TEXTSTYLE
  7
Standard
  9
$CLAYER
  8
0
  9
$CELTYPE
  6
ByLayer
  9
$CECOLOR
 62
   256
  9
$CELTSCALE
 40
1.0
  9
$DISPSILH
 70
     0
  9
$DIMSCALE
 40
1.0
  9
$DIMASZ
 40
2.5
  9
$DIMEXO
 40
0.625
  9
$DIMDLI
 40
3.75
  9
$DIMRND
 40
0.0
  9
$DIMDLE
 40
0.0
  9
$DIMEXE
 40
1.25
  9
$DIMTP
 40
0.0
  9
$DIMTM
 40
0.0
  9
$DIMTXT
 40
2.5
  9
$DIMCEN
 40
2.5
  9
$DIMTSZ
 40
0.0
  9
$DIMTOL
 70
     0
  9
$DIMLIM
 70
     0
  9
$DIMTIH
 70
     0
  9
$DIMTOH
 70
     0
  9
$DIMSE1
 70
     0
  9
$DIMSE2
 70
     0
  9
$DIMTAD
 70
     1
  9
$DIMZIN
 70
     8
  9
$DIMBLK
  1

  9
$DIMASO
 70
     1
  9
$DIMSHO
 70
     1
  9
$DIMPOST
  1

  9
$DIMAPOST
  1

  9
$DIMALT
 70
     0
  9
$DIMALTD
 70
     3
  9
$DIMALTF
 40
0.03937007874016
  9
$DIMLFAC
 40
1.0
  9
$DIMTOFL
 70
     1
  9
$DIMTVP
 40
0.0
  9
$DIMTIX
 70
     0
  9
$DIMSOXD
 70
     0
  9
$DIMSAH
 70
     0
  9
$DIMBLK1
  1

  9
$DIMBLK2
  1

  9
$DIMSTYLE
  2
ISO-25
  9
$DIMCLRD
 70
     0
  9
$DIMCLRE
 70
     0
  9
$DIMCLRT
 70
     0
  9
$DIMTFAC
 40
1.0
  9
$DIMGAP
 40
0.625
  9
$DIMJUST
 70
     0
  9
$DIMSD1
 70
     0
  9
$DIMSD2
 70
     0
  9
$DIMTOLJ
 70
     0
  9
$DIMTZIN
 70
     8
  9
$DIMALTZ
 70
     0
  9
$DIMALTTZ
 70
     0
  9
$DIMUPT
 70
     0
  9
$DIMDEC
 70
     2
  9
$DIMTDEC
 70
     2
  9
$DIMALTU
 70
     2
  9
$DIMALTTD
 70
     3
  9
$DIMTXSTY
  7
Standard
  9
$DIMAUNIT
 70
     0
  9
$DIMADEC
 70
     0
  9
$DIMALTRND
 40
0.0
  9
$DIMAZIN
 70
     0
  9
$DIMDSEP
 70
    44
  9
$DIMATFIT
 70
     3
  9
$DIMFRAC
 70
     0
  9
$DIMLDRBLK
  1

  9
$DIMLUNIT
 70
     2
  9
$DIMLWD
 70
    -2
  9
$DIMLWE
 70
    -2
  9
$DIMTMOVE
 70
     0
  9
$DIMFXL
 40
1.0
  9
$DIMFXLON
 70
     0
  9
$DIMJOGANG
 40
0.7853981633974483
  9
$DIMTFILL
 70
     0
  9
$DIMTFILLCLR
 70
     0
  9
$DIMARCSYM
 70
     0
  9
$DIMLTYPE
  6

  9
$DIMLTEX1
  6

  9
$DIMLTEX2
  6

  9
$DIMTXTDIRECTION
 70
     0
  9
$LUNITS
 70
     2
  9
$LUPREC
 70
     4
  9
$SKETCHINC
 40
1.0
  9
$FILLETRAD
 40
10.0
  9
$AUNITS
 70
     0
  9
$AUPREC
 70
     0
  9
$MENU
  1
.
  9
$ELEVATION
 40
0.0
  9
$PELEVATION
 40
0.0
  9
$THICKNESS
 40
0.0
  9
$LIMCHECK
 70
     0
  9
$CHAMFERA
 40
10.0
  9
$CHAMFERB
 40
10.0
  9
$CHAMFERC
 40
20.0
  9
$CHAMFERD
 40
0.0
  9
$SKPOLY
 70
     0
  9
$TDCREATE
 40
2457913.585164583
  9
$TDUCREATE
 40
2457913.210164583
  9
$TDUPDATE
 40
2457913.585164595
  9
$TDUUPDATE
 40
2457913.210164595
  9
$TDINDWG
 40
0.0000000116
  9
$TDUSRTIMER
 40
0.0000000116
  9
$USRTIMER
 70
     1
  9
$ANGBASE
 50
0.0
  9
$ANGDIR
 70
     0
  9
$PDMODE
 70
     0
  9
$PDSIZE
 40
0.0
  9
$PLINEWID
 40
0.0
  9
$SPLFRAME
 70
     0
  9
$SPLINETYPE
 70
     6
  9
$SPLINESEGS
 70
     8
  9
$HANDSEED
  5
202
  9
$SURFTAB1
 70
     6
  9
$SURFTAB2
 70
     6
  9
$SURFTYPE
 70
     6
  9
$SURFU
 70
     6
  9
$SURFV
 70
     6
  9
$UCSBASE
  2

  9
$UCSNAME
  2

  9
$UCSORG
 10
0.0
 20
0.0
 30
0.0
  9
$UCSXDIR
 10
1.0
 20
0.0
 30
0.0
  9
$UCSYDIR
 10
0.0
 20
1.0
 30
0.0
  9
$UCSORTHOREF
  2

  9
$UCSORTHOVIEW
 70
     0
  9
$UCSORGTOP
 10
0.0
 20
0.0
 30
0.0
  9
$UCSORGBOTTOM
 10
0.0
 20
0.0
 30
0.0
  9
$UCSORGLEFT
 10
0.0
 20
0.0
 30
0.0
  9
$UCSORGRIGHT
 10
0.0
 20
0.0
 30
0.0
  9
$UCSORGFRONT
 10
0.0
 20
0.0
 30
0.0
  9
$UCSORGBACK
 10
0.0
 20
0.0
 30
0.0
  9
$PUCSBASE
  2

  9
$PUCSNAME
  2

  9
$PUCSORG
 10
0.0
 20
0.0
 30
0.0
  9
$PUCSXDIR
 10
1.0
 20
0.0
 30
0.0
  9
$PUCSYDIR
 10
0.0
 20
1.0
 30
0.0
  9
$PUCSORTHOREF
  2

  9
$PUCSORTHOVIEW
 70
     0
  9
$PUCSORGTOP
 10
0.0
 20
0.0
 30
0.0
  9
$PUCSORGBOTTOM
 10
0.0
 20
0.0
 30
0.0
  9
$PUCSORGLEFT
 10
0.0
 20
0.0
 30
0.0
  9
$PUCSORGRIGHT
 10
0.0
 20
0.0
 30
0.0
  9
$PUCSORGFRONT
 10
0.0
 20
0.0
 30
0.0
  9
$PUCSORGBACK
 10
0.0
 20
0.0
 30
0.0
  9
$USERI1
 70
     0
  9
$USERI2
 70
     0
  9
$USERI3
 70
     0
  9
$USERI4
 70
     0
  9
$USERI5
 70
     0
  9
$USERR1
 40
0.0
  9
$USERR2
 40
0.0
  9
$USERR3
 40
0.0
  9
$USERR4
 40
0.0
  9
$USERR5
 40
0.0
  9
$WORLDVIEW
 70
     1
  9
$SHADEDGE
 70
     3
  9
$SHADEDIF
 70
    70
  9
$TILEMODE
 70
     1
  9
$MAXACTVP
 70
    64
  9
$PINSBASE
 10
0.0
 20
0.0
 30
0.0
  9
$PLIMCHECK
 70
     0
  9
$PEXTMIN
 10
1.000000000000000E+20
 20
1.000000000000000E+20
 30
1.000000000000000E+20
  9
$PEXTMAX
 10
-1.000000000000000E+20
 20
-1.000000000000000E+20
 30
-1.000000000000000E+20
  9
$PLIMMIN
 10
0.0
 20
0.0
  9
$PLIMMAX
 10
420.0
 20
297.0
  9
$UNITMODE
 70
     0
  9
$VISRETAIN
 70
     1
  9
$PLINEGEN
 70
     0
  9
$PSLTSCALE
 70
     1
  9
$TREEDEPTH
 70
  3020
  9
$CMLSTYLE
  2
Standard
  9
$CMLJUST
 70
     0
  9
$CMLSCALE
 40
20.0
  9
$PROXYGRAPHICS
 70
     1
  9
$MEASUREMENT
 70
     1
  9
$CELWEIGHT
370
    -1
  9
$ENDCAPS
280
     0
  9
$JOINSTYLE
280
     0
  9
$LWDISPLAY
290
     0
  9
$INSUNITS
 70
     4
  9
$HYPERLINKBASE
  1

  9
$STYLESHEET
  1

  9
$XEDIT
290
     1
  9
$CEPSNTYPE
380
     0
  9
$PSTYLEMODE
290
     1
  9
$FINGERPRINTGUID
  2
{0F738BF8-F130-4014-8A68-2143CBCD7D09}
  9
$VERSIONGUID
  2
{FAEB1C32-E019-11D5-929B-00C0DF256EC4}
  9
$EXTNAMES
290
     1
  9
$PSVPSCALE
 40
0.0
  9
$OLESTARTUP
290
     0
  9
$SORTENTS
280
   127
  9
$INDEXCTL
280
     0
  9
$HIDETEXT
280
     1
  9
$XCLIPFRAME
280
     2
  9
$HALOGAP
280
     0
  9
$OBSCOLOR
 70
   257
  9
$OBSLTYPE
280
     0
  9
$INTERSECTIONDISPLAY
280
     0
  9
$INTERSECTIONCOLOR
 70
   257
  9
$DIMASSOC
280
     2
  9
$PROJECTNAME
  1

  9
$CAMERADISPLAY
290
     0
  9
$LENSLENGTH
 40
50.0
  9
$CAMERAHEIGHT
 40
0.0
  9
$STEPSPERSEC
 40
2.0
  9
$STEPSIZE
 40
6.0
  9
$3DDWFPREC
 40
2.0
  9
$PSOLWIDTH
 40
5.0
  9
$PSOLHEIGHT
 40
80.0
  9
$LOFTANG1
 40
1.570796326794897
  9
$LOFTANG2
 40
1.570796326794897
  9
$LOFTMAG1
 40
0.0
  9
$LOFTMAG2
 40
0.0
  9
$LOFTPARAM
 70
     7
  9
$LOFTNORMALS
280
     1
  9
$LATITUDE
 40
37.795
  9
$LONGITUDE
 40
-122.394
  9
$NORTHDIRECTION
 40
0.0
  9
$TIMEZONE
 70
 -8000
  9
$LIGHTGLYPHDISPLAY
280
     1
  9
$TILEMODELIGHTSYNCH
280
     1
  9
$SOLIDHIST
280
     1
  9
$SHOWHIST
280
     1
  9
$DWFFRAME
280
     2
  9
$DGNFRAME
280
     2
  9
$REALWORLDSCALE
290
     1
  9
$INTERFERECOLOR
 62
   256
  9
$CSHADOW
280
     0
  9
$SHADOWPLANELOCATION
 40
0.0
  0
ENDSEC
  0
SECTION
  2
CLASSES
  0
CLASS
  1
ACDBDICTIONARYWDFLT
  2
AcDbDictionaryWithDefault
  3
ObjectDBX Classes
 90
        0
 91
        4
280
     0
281
     0
  0
CLASS
  1
VISUALSTYLE
  2
AcDbVisualStyle
  3
ObjectDBX Classes
 90
     4095
 91
        4
280
     0
281
     0
  0
CLASS
  1
MATERIAL
  2
AcDbMaterial
  3
ObjectDBX Classes
 90
     1153
 91
        4
280
     0
281
     0
  0
ENDSEC
  0
SECTION
  2
TABLES
  0
TABLE
  2
VPORT
  5
8
330
0
100
AcDbSymbolTable
 70
     1
  0
VPORT
  5
29
330
8
100
AcDbSymbolTableRecord
100
AcDbViewportTableRecord
  2
*Active
 70
     0
 10
0.0
 20
0.0
 11
1.0
 21
1.0
 12
0.0
 22
0.0
 13
0.0
 23
0.0
 14
10.0
 24
10.0
 15
10.0
 25
10.0
 16
0.0
 26
0.0
 36
1.0
 17
0.0
 27
0.0
 37
0.0
 40
6930.000000000001
 41
1.414285714285714
 42
50.0
 43
0.0
 44
0.0
 50
0.0
 51
0.0
 71
     0
 72
 10000
 73
     1
 74
     3
 75
     0
 76
     0
 77
     0
 78
     0
281
     0
 65
     1
110
0.0
120
0.0
130
0.0
111
1.0
121
0.0
131
0.0
112
0.0
122
1.0
132
0.0
 79
     0
146
0.0
 60
     3
 61
     5
292
     1
282
     1
141
0.0
142
0.0
 63
   250
  0
ENDTAB
  0
TABLE
  2
LTYPE
  5
5
330
0
100
AcDbSymbolTable
 70
     2
  0
LTYPE
  5
14
330
5
100
AcDbSymbolTableRecord
100
AcDbLinetypeTableRecord
  2
ByBlock
 70
     0
  3

 72
    65
 73
     0
 40
0.0
  0
LTYPE
  5
15
330
5
100
AcDbSymbolTableRecord
100
AcDbLinetypeTableRecord
  2
ByLayer
 70
     0
  3

 72
    65
 73
     0
 40
0.0
  0
LTYPE
  5
16
330
5
100
AcDbSymbolTableRecord
100
AcDbLinetypeTableRecord
  2
Continuous
 70
     0
  3
Solid line
 72
    65
 73
     0
 40
0.0
  0
LTYPE
  5
3F
330
5
100
AcDbSymbolTableRecord
100
AcDbLinetypeTableRecord
  2
JWW_DASHED1
 70
     0
  3
-  --  --  --  --  --  --  --  -
 72
    65
 73
     2
 40
1.693333333333333
 49
0.8466666666666667
 74
     0
 49
-0.8466666666666667
 74
     0
  0
ENDTAB
  0
TABLE
  2
LAYER
  5
2
330
0
100
AcDbSymbolTable
 70
     3
  0
LAYER
  5
10
330
2
100
AcDbSymbolTableRecord
100
AcDbLayerTableRecord
  2
0
 70
     0
 62
     7
  6
Continuous
370
    -3
390
F
347
3E
  0
LAYER
  5
40
330
2
100
AcDbSymbolTableRecord
100
AcDbLayerTableRecord
  2
寸法
 70
     0
 62
     7
  6
Continuous
370
    -3
390
F
347
3E
  0
LAYER
  5
41
330
2
100
AcDbSymbolTableRecord
100
AcDbLayerTableRecord
  2
0-0
 70
     0
 62
     7
  6
Continuous
370
    -3
390
F
347
3E
  0
ENDTAB
  0
TABLE
  2
STYLE
  5
3
330
0
100
AcDbSymbolTable
 70
     1
  0
STYLE
  5
11
330
3
100
AcDbSymbolTableRecord
100
AcDbTextStyleTableRecord
  2
Standard
 70
     0
 40
0.0
 41
1.0
 50
0.0
 71
     0
 42
2.5
  3
txt
  4

  0
ENDTAB
  0
TABLE
  2
VIEW
  5
6
330
0
100
AcDbSymbolTable
 70
     0
  0
ENDTAB
  0
TABLE
  2
UCS
  5
7
330
0
100
AcDbSymbolTable
 70
     0
  0
ENDTAB
  0
TABLE
  2
APPID
  5
9
330
0
100
AcDbSymbolTable
 70
     1
  0
APPID
  5
12
330
9
100
AcDbSymbolTableRecord
100
AcDbRegAppTableRecord
  2
ACAD
 70
     0
  0
ENDTAB
  0
TABLE
  2
DIMSTYLE
  5
A
330
0
100
AcDbSymbolTable
 70
     1
100
AcDbDimStyleTable
  0
DIMSTYLE
105
27
330
A
100
AcDbSymbolTableRecord
100
AcDbDimStyleTableRecord
  2
ISO-25
 70
     0
 41
2.5
 42
0.625
 43
3.75
 44
1.25
 73
     0
 74
     0
 77
     1
 78
     8
140
2.5
141
2.5
143
0.03937007874016
147
0.625
171
     3
172
     1
178
     0
271
     2
272
     2
274
     3
278
    44
283
     0
284
     8
340
11
  0
ENDTAB
  0
TABLE
  2
BLOCK_RECORD
  5
1
330
0
100
AcDbSymbolTable
 70
     1
  0
BLOCK_RECORD
  5
1F
330
1
100
AcDbSymbolTableRecord
100
AcDbBlockTableRecord
  2
*Model_Space
340
22
 70
     0
280
     1
281
     0
  0
BLOCK_RECORD
  5
1B
330
1
100
AcDbSymbolTableRecord
100
AcDbBlockTableRecord
  2
*Paper_Space
340
1E
 70
     0
280
     1
281
     0
  0
BLOCK_RECORD
  5
23
330
1
100
AcDbSymbolTableRecord
100
AcDbBlockTableRecord
  2
*Paper_Space0
340
26
 70
     0
280
     1
281
     0
  0
ENDTAB
  0
ENDSEC
  0
SECTION
  2
BLOCKS
  0
BLOCK
  5
20
330
1F
100
AcDbEntity
  8
0
100
AcDbBlockBegin
  2
*Model_Space
 70
     0
 10
0.0
 20
0.0
 30
0.0
  3
*Model_Space
  1

  0
ENDBLK
  5
21
330
1F
100
AcDbEntity
  8
0
100
AcDbBlockEnd
  0
BLOCK
  5
1C
330
1B
100
AcDbEntity
 67
     1
  8
0
100
AcDbBlockBegin
  2
*Paper_Space
 70
     0
 10
0.0
 20
0.0
 30
0.0
  3
*Paper_Space
  1

  0
ENDBLK
  5
1D
330
1B
100
AcDbEntity
 67
     1
  8
0
100
AcDbBlockEnd
  0
BLOCK
  5
24
330
23
100
AcDbEntity
  8
0
100
AcDbBlockBegin
  2
*Paper_Space0
 70
     0
 10
0.0
 20
0.0
 30
0.0
  3
*Paper_Space0
  1

  0
ENDBLK
  5
25
330
23
100
AcDbEntity
  8
0
100
AcDbBlockEnd
  0
ENDSEC
  0
SECTION
  2
ENTITIES
  0
MTEXT
  5
42
330
1F
100
AcDbEntity
  8
寸法
  6
Continuous
 62
     7
370
   211
100
AcDbMText
 10
-738.6827354260085
 20
-1432.394248347255
 30
0.0
 40
57.15000000000001
 41
787.5
 46
0.0
 71
     7
 72
     1
  1
{\fＭＳ ゴシック|b0|i0|c128|p49;上吊レール長さ＝1,609}
 73
     1
 44
1.0
  0
MTEXT
  5
43
330
1F
100
AcDbEntity
  8
寸法
  6
Continuous
 62
     7
370
   211
100
AcDbMText
 10
-122.18273542601
 20
-1232.394248347257
 30
0.0
 40
57.15
 41
337.5
 46
0.0
 71
     7
 72
     1
  1
{\fＭＳ ゴシック|b0|i0|c128|p49;ＤＷ＝810}
 73
     1
 44
1.0
  0
MTEXT
  5
44
330
1F
100
AcDbEntity
  8
寸法
  6
Continuous
 62
     7
370
    70
100
AcDbMText
 10
-1614.432735426009
 20
-369.1442483472564
 30
0.0
 40
57.15000000000001
 41
787.5
 46
0.0
 71
     7
 72
     1
  1
{\fＭＳ ゴシック|b0|i0|c128|p49;カマ錠枠外寸法＝2,044}
 11
6.123031769111886E-17
 21
1.0
 31
0.0
 73
     1
 44
1.0
  0
MTEXT
  5
45
330
1F
100
AcDbEntity
  8
寸法
  6
Continuous
 62
     7
370
    70
100
AcDbMText
 10
-1414.43273542601
 20
-197.6442483472563
 30
0.0
 40
57.14999999999999
 41
412.5
 46
0.0
 71
     7
 72
     1
  1
{\fＭＳ ゴシック|b0|i0|c128|p49;ＤＨ＝1,983}
 11
6.123031769111886E-17
 21
1.0
 31
0.0
 73
     1
 44
1.0
  0
LWPOLYLINE
  5
46
330
1F
100
AcDbEntity
  8
寸法
  6
Continuous
 62
     7
370
     9
100
AcDbPolyline
 90
        4
 70
     1
 43
3.0
 10
-1597.932735426009
 20
-988.4692483472563
 42
0.4142135623731
 10
-1599.432735426009
 20
-986.9692483472563
 42
0.4142135623731
 10
-1600.932735426008
 20
-988.4692483472563
 42
0.4142135623731
 10
-1599.432735426009
 20
-989.9692483472562
 42
0.4142135623731
  0
LINE
  5
47
330
1F
100
AcDbEntity
  8
寸法
  6
Continuous
 62
   120
370
     5
100
AcDbLine
 10
-1599.432735426009
 20
-988.4692483472563
 30
0.0
 11
-1199.432735426009
 21
-988.4692483472563
 31
0.0
  0
LWPOLYLINE
  5
48
330
1F
100
AcDbEntity
  8
寸法
  6
Continuous
 62
     7
370
     9
100
AcDbPolyline
 90
        4
 70
     1
 43
3.0
 10
-1397.93273542601
 20
-979.9692483472563
 42
0.4142135623731
 10
-1399.43273542601
 20
-978.4692483472564
 42
0.4142135623731
 10
-1400.932735426009
 20
-979.9692483472563
 42
0.4142135623731
 10
-1399.43273542601
 20
-981.4692483472562
 42
0.4142135623731
  0
LINE
  5
49
330
1F
100
AcDbEntity
  8
寸法
  6
Continuous
 62
   120
370
     5
100
AcDbLine
 10
-1399.43273542601
 20
1003.030751652743
 30
0.0
 11
-1399.43273542601
 21
-979.9692483472563
 31
0.0
  0
LWPOLYLINE
  5
4A
330
1F
100
AcDbEntity
  8
寸法
  6
Continuous
 62
     7
370
     9
100
AcDbPolyline
 90
        4
 70
     1
 43
3.0
 10
-1397.93273542601
 20
1003.030751652743
 42
0.4142135623731
 10
-1399.43273542601
 20
1004.530751652743
 42
0.4142135623731
 10
-1400.932735426009
 20
1003.030751652743
 42
0.4142135623731
 10
-1399.43273542601
 20
1001.530751652744
 42
0.4142135623731
  0
LINE
  5
4B
330
1F
100
AcDbEntity
  8
寸法
  6
Continuous
 62
   120
370
     5
100
AcDbLine
 10
-1399.43273542601
 20
-979.9692483472563
 30
0.0
 11
-1199.432735426009
 21
-979.9692483472563
 31
0.0
  0
LINE
  5
4C
330
1F
100
AcDbEntity
  8
寸法
  6
Continuous
 62
   120
370
     5
100
AcDbLine
 10
-1399.43273542601
 20
1003.030751652743
 30
0.0
 11
-1199.432735426009
 21
1003.030751652743
 31
0.0
  0
LINE
  5
4D
330
1F
100
AcDbEntity
  8
寸法
  6
Continuous
 62
   120
370
     5
100
AcDbLine
 10
-1599.432735426009
 20
1055.530751652743
 30
0.0
 11
-1599.432735426009
 21
-988.4692483472563
 31
0.0
  0
LWPOLYLINE
  5
4E
330
1F
100
AcDbEntity
  8
寸法
  6
Continuous
 62
     7
370
     9
100
AcDbPolyline
 90
        4
 70
     1
 43
3.0
 10
-1597.932735426009
 20
1055.530751652743
 42
0.4142135623731
 10
-1599.432735426009
 20
1057.030751652743
 42
0.4142135623731
 10
-1600.932735426008
 20
1055.530751652743
 42
0.4142135623731
 10
-1599.432735426009
 20
1054.030751652744
 42
0.4142135623731
  0
LINE
  5
4F
330
1F
100
AcDbEntity
  8
寸法
  6
Continuous
 62
   120
370
     5
100
AcDbLine
 10
-1599.432735426009
 20
1055.530751652743
 30
0.0
 11
-1199.432735426009
 21
1055.530751652743
 31
0.0
  0
LINE
  5
50
330
1F
100
AcDbEntity
  8
寸法
  6
Continuous
 62
   120
370
     5
100
AcDbLine
 10
-358.43273542601
 20
-1238.469248347257
 30
0.0
 11
-358.43273542601
 21
-1038.469248347256
 31
0.0
  0
LWPOLYLINE
  5
51
330
1F
100
AcDbEntity
  8
寸法
  6
Continuous
 62
     7
370
     9
100
AcDbPolyline
 90
        4
 70
     1
 43
3.0
 10
-356.93273542601
 20
-1238.469248347257
 42
0.4142135623731
 10
-358.43273542601
 20
-1236.969248347257
 42
0.4142135623731
 10
-359.93273542601
 20
-1238.469248347257
 42
0.4142135623731
 10
-358.43273542601
 20
-1239.969248347257
 42
0.4142135623731
  0
LINE
  5
52
330
1F
100
AcDbEntity
  8
寸法
  6
Continuous
 62
   120
370
     5
100
AcDbLine
 10
451.56726457399
 20
-1238.469248347257
 30
0.0
 11
-358.43273542601
 21
-1238.469248347257
 31
0.0
  0
LINE
  5
53
330
1F
100
AcDbEntity
  8
寸法
  6
Continuous
 62
   120
370
     5
100
AcDbLine
 10
451.56726457399
 20
-1238.469248347257
 30
0.0
 11
451.56726457399
 21
-1038.469248347256
 31
0.0
  0
LWPOLYLINE
  5
54
330
1F
100
AcDbEntity
  8
寸法
  6
Continuous
 62
     7
370
     9
100
AcDbPolyline
 90
        4
 70
     1
 43
3.0
 10
453.06726457399
 20
-1238.469248347257
 42
0.4142135623731
 10
451.56726457399
 20
-1236.969248347257
 42
0.4142135623731
 10
450.06726457399
 20
-1238.469248347257
 42
0.4142135623731
 10
451.56726457399
 20
-1239.969248347257
 42
0.4142135623731
  0
LINE
  5
55
330
1F
100
AcDbEntity
  8
寸法
  6
Continuous
 62
   120
370
     5
100
AcDbLine
 10
-1149.432735426009
 20
-1438.469248347255
 30
0.0
 11
-1149.432735426009
 21
-1038.469248347256
 31
0.0
  0
LWPOLYLINE
  5
56
330
1F
100
AcDbEntity
  8
寸法
  6
Continuous
 62
     7
370
     9
100
AcDbPolyline
 90
        4
 70
     1
 43
3.0
 10
-1147.932735426009
 20
-1438.469248347255
 42
0.4142135623731
 10
-1149.432735426009
 20
-1436.969248347255
 42
0.4142135623731
 10
-1150.932735426008
 20
-1438.469248347255
 42
0.4142135623731
 10
-1149.432735426009
 20
-1439.969248347255
 42
0.4142135623731
  0
LINE
  5
57
330
1F
100
AcDbEntity
  8
寸法
  6
Continuous
 62
   120
370
     5
100
AcDbLine
 10
459.5672645739896
 20
-1438.469248347255
 30
0.0
 11
-1149.432735426009
 21
-1438.469248347255
 31
0.0
  0
LINE
  5
58
330
1F
100
AcDbEntity
  8
寸法
  6
Continuous
 62
   120
370
     5
100
AcDbLine
 10
459.5672645739896
 20
-1438.469248347255
 30
0.0
 11
459.5672645739896
 21
-1038.469248347256
 31
0.0
  0
LWPOLYLINE
  5
59
330
1F
100
AcDbEntity
  8
寸法
  6
Continuous
 62
     7
370
     9
100
AcDbPolyline
 90
        4
 70
     1
 43
3.0
 10
461.0672645739896
 20
-1438.469248347255
 42
0.4142135623731
 10
459.5672645739896
 20
-1436.969248347255
 42
0.4142135623731
 10
458.0672645739896
 20
-1438.469248347255
 42
0.4142135623731
 10
459.5672645739896
 20
-1439.969248347255
 42
0.4142135623731
  0
LINE
  5
5A
330
1F
100
AcDbEntity
  8
0-0
  6
Continuous
 62
    92
370
    13
100
AcDbLine
 10
-1149.432735426009
 20
1053.030751652744
 30
0.0
 11
459.5672645739896
 21
1053.030751652744
 31
0.0
  0
LINE
  5
5B
330
1F
100
AcDbEntity
  8
0-0
  6
Continuous
 62
    92
370
    13
100
AcDbLine
 10
-1149.432735426009
 20
1008.030751652744
 30
0.0
 11
-1149.432735426009
 21
1055.530751652743
 31
0.0
  0
LINE
  5
5C
330
1F
100
AcDbEntity
  8
0-0
  6
JWW_DASHED1
 62
   120
370
     5
100
AcDbLine
 10
-358.43273542601
 20
1003.030751652743
 30
0.0
 11
-358.43273542601
 21
999.0307516527437
 31
0.0
  0
LINE
  5
5D
330
1F
100
AcDbEntity
  8
0-0
  6
Continuous
 62
    92
370
    13
100
AcDbLine
 10
-331.4327354260107
 20
-979.9692483472563
 30
0.0
 11
-331.4327354260107
 21
-988.4692483472563
 31
0.0
  0
LINE
  5
5E
330
1F
100
AcDbEntity
  8
0-0
  6
Continuous
 62
    92
370
    13
100
AcDbLine
 10
-359.4327354260108
 20
-988.4692483472563
 30
0.0
 11
-331.4327354260107
 21
-988.4692483472563
 31
0.0
  0
LINE
  5
5F
330
1F
100
AcDbEntity
  8
0-0
  6
Continuous
 62
    92
370
    13
100
AcDbLine
 10
-359.4327354260108
 20
1008.030751652744
 30
0.0
 11
-359.4327354260108
 21
-988.4692483472563
 31
0.0
  0
LINE
  5
60
330
1F
100
AcDbEntity
  8
0-0
  6
JWW_DASHED1
 62
   120
370
     5
100
AcDbLine
 10
-331.4327354260107
 20
-979.9692483472563
 30
0.0
 11
-331.4327354260107
 21
1003.030751652743
 31
0.0
  0
LINE
  5
61
330
1F
100
AcDbEntity
  8
0-0
  6
Continuous
 62
    92
370
    13
100
AcDbLine
 10
-331.4327354260107
 20
1003.030751652743
 30
0.0
 11
-331.4327354260107
 21
1008.030751652744
 31
0.0
  0
LINE
  5
62
330
1F
100
AcDbEntity
  8
0-0
  6
Continuous
 62
    92
370
    13
100
AcDbLine
 10
-358.43273542601
 20
1003.030751652743
 30
0.0
 11
-358.43273542601
 21
-979.9692483472563
 31
0.0
  0
LINE
  5
63
330
1F
100
AcDbEntity
  8
0-0
  6
Continuous
 62
    92
370
    13
100
AcDbLine
 10
-1149.432735426009
 20
1008.030751652744
 30
0.0
 11
459.5672645739896
 21
1008.030751652744
 31
0.0
  0
ARC
  5
64
330
1F
100
AcDbEntity
  8
0-0
  6
Continuous
 62
    92
370
    13
100
AcDbCircle
 10
420.0672645739897
 20
37.03075165274299
 30
0.0
 40
1.5
100
AcDbArc
 50
0.0
 51
90.0
  0
LINE
  5
65
330
1F
100
AcDbEntity
  8
0-0
  6
Continuous
 62
    92
370
    13
100
AcDbLine
 10
381.0672645739911
 20
38.53075165274333
 30
0.0
 11
420.0672645739897
 21
38.53075165274333
 31
0.0
  0
ARC
  5
66
330
1F
100
AcDbEntity
  8
0-0
  6
Continuous
 62
    92
370
    13
100
AcDbCircle
 10
381.0672645739911
 20
37.03075165274299
 30
0.0
 40
1.5
100
AcDbArc
 50
89.99999999999999
 51
180.0
  0
LINE
  5
67
330
1F
100
AcDbEntity
  8
0-0
  6
Continuous
 62
    92
370
    13
100
AcDbLine
 10
379.5672645739907
 20
-81.96924834725621
 30
0.0
 11
379.5672645739907
 21
37.03075165274299
 31
0.0
  0
ARC
  5
68
330
1F
100
AcDbEntity
  8
0-0
  6
Continuous
 62
    92
370
    13
100
AcDbCircle
 10
381.0672645739911
 20
-81.96924834725621
 30
0.0
 40
1.5
100
AcDbArc
 50
180.0
 51
270.0
  0
LINE
  5
69
330
1F
100
AcDbEntity
  8
0-0
  6
Continuous
 62
    92
370
    13
100
AcDbLine
 10
420.0672645739897
 20
-83.4692483472574
 30
0.0
 11
381.0672645739911
 21
-83.4692483472574
 31
0.0
  0
LINE
  5
6A
330
1F
100
AcDbEntity
  8
0-0
  6
Continuous
 62
    92
370
    13
100
AcDbLine
 10
421.56726457399
 20
-81.96924834725621
 30
0.0
 11
421.56726457399
 21
37.03075165274299
 31
0.0
  0
ARC
  5
6B
330
1F
100
AcDbEntity
  8
0-0
  6
Continuous
 62
    92
370
    13
100
AcDbCircle
 10
420.0672645739897
 20
-81.96924834725621
 30
0.0
 40
1.5
100
AcDbArc
 50
270.0
 51
0.0
  0
ARC
  5
6C
330
1F
100
AcDbEntity
  8
0-0
  6
Continuous
 62
     7
370
     9
100
AcDbCircle
 10
400.5672645739904
 20
-52.06924834725612
 30
0.0
 40
15.0
100
AcDbArc
 50
180.0
 51
0.0
  0
ARC
  5
6D
330
1F
100
AcDbEntity
  8
0-0
  6
Continuous
 62
     7
370
     9
100
AcDbCircle
 10
400.5672645739904
 20
7.130751652742049
 30
0.0
 40
15.0
100
AcDbArc
 50
0.0
 51
180.0
  0
LINE
  5
6E
330
1F
100
AcDbEntity
  8
0-0
  6
Continuous
 62
     7
370
     9
100
AcDbLine
 10
385.5672645739904
 20
-52.06924834725612
 30
0.0
 11
385.5672645739904
 21
7.130751652742049
 31
0.0
  0
LINE
  5
6F
330
1F
100
AcDbEntity
  8
0-0
  6
Continuous
 62
     7
370
     9
100
AcDbLine
 10
415.5672645739904
 20
7.130751652742049
 30
0.0
 11
415.5672645739904
 21
-52.06924834725612
 31
0.0
  0
LINE
  5
70
330
1F
100
AcDbEntity
  8
0-0
  6
Continuous
 62
    92
370
    13
100
AcDbLine
 10
-1149.432735426009
 20
1040.030751652744
 30
0.0
 11
459.5672645739896
 21
1040.030751652744
 31
0.0
  0
LINE
  5
71
330
1F
100
AcDbEntity
  8
0-0
  6
Continuous
 62
    92
370
    13
100
AcDbLine
 10
-358.43273542601
 20
1003.030751652743
 30
0.0
 11
451.56726457399
 21
1003.030751652743
 31
0.0
  0
LINE
  5
72
330
1F
100
AcDbEntity
  8
0-0
  6
Continuous
 62
    92
370
    13
100
AcDbLine
 10
-358.43273542601
 20
-979.9692483472563
 30
0.0
 11
451.56726457399
 21
-979.9692483472563
 31
0.0
  0
LINE
  5
73
330
1F
100
AcDbEntity
  8
0-0
  6
Continuous
 62
    92
370
    13
100
AcDbLine
 10
451.56726457399
 20
-979.9692483472563
 30
0.0
 11
451.56726457399
 21
1003.030751652743
 31
0.0
  0
LINE
  5
74
330
1F
100
AcDbEntity
  8
0-0
  6
Continuous
 62
    92
370
    13
100
AcDbLine
 10
-1149.432735426009
 20
1055.530751652743
 30
0.0
 11
459.5672645739896
 21
1055.530751652743
 31
0.0
  0
LINE
  5
75
330
1F
100
AcDbEntity
  8
0-0
  6
Continuous
 62
    92
370
    13
100
AcDbLine
 10
459.5672645739896
 20
1008.030751652744
 30
0.0
 11
459.5672645739896
 21
1055.530751652743
 31
0.0
  0
LINE
  5
76
330
1F
100
AcDbEntity
  8
0-0
  6
Continuous
 62
   120
370
     5
100
AcDbLine
 10
-67.43273542600647
 20
860.0307516527491
 30
0.0
 11
160.5672645739934
 21
860.0307516527491
 31
0.0
  0
LINE
  5
77
330
1F
100
AcDbEntity
  8
0-0
  6
Continuous
 62
   120
370
     5
100
AcDbLine
 10
-67.43273542600647
 20
850.0307516527488
 30
0.0
 11
160.5672645739934
 21
850.0307516527488
 31
0.0
  0
LINE
  5
78
330
1F
100
AcDbEntity
  8
0-0
  6
Continuous
 62
   120
370
     5
100
AcDbLine
 10
-67.43273542600647
 20
834.0307516527489
 30
0.0
 11
160.5672645739934
 21
834.0307516527489
 31
0.0
  0
LINE
  5
79
330
1F
100
AcDbEntity
  8
0-0
  6
Continuous
 62
   120
370
     5
100
AcDbLine
 10
-67.43273542600647
 20
824.0307516527486
 30
0.0
 11
160.5672645739934
 21
824.0307516527486
 31
0.0
  0
LINE
  5
7A
330
1F
100
AcDbEntity
  8
0-0
  6
Continuous
 62
   120
370
     5
100
AcDbLine
 10
-67.43273542600647
 20
808.0307516527487
 30
0.0
 11
160.5672645739934
 21
808.0307516527487
 31
0.0
  0
LINE
  5
7B
330
1F
100
AcDbEntity
  8
0-0
  6
Continuous
 62
   120
370
     5
100
AcDbLine
 10
-67.43273542600647
 20
798.0307516527483
 30
0.0
 11
160.5672645739934
 21
798.0307516527483
 31
0.0
  0
LINE
  5
7C
330
1F
100
AcDbEntity
  8
0-0
  6
Continuous
 62
   120
370
     5
100
AcDbLine
 10
-67.43273542600647
 20
782.0307516527484
 30
0.0
 11
160.5672645739934
 21
782.0307516527484
 31
0.0
  0
LINE
  5
7D
330
1F
100
AcDbEntity
  8
0-0
  6
Continuous
 62
   120
370
     5
100
AcDbLine
 10
-67.43273542600647
 20
772.0307516527481
 30
0.0
 11
160.5672645739934
 21
772.0307516527481
 31
0.0
  0
LINE
  5
7E
330
1F
100
AcDbEntity
  8
0-0
  6
Continuous
 62
   120
370
     5
100
AcDbLine
 10
-67.43273542600647
 20
756.030751652749
 30
0.0
 11
160.5672645739934
 21
756.030751652749
 31
0.0
  0
LINE
  5
7F
330
1F
100
AcDbEntity
  8
0-0
  6
Continuous
 62
   120
370
     5
100
AcDbLine
 10
-67.43273542600647
 20
746.0307516527479
 30
0.0
 11
160.5672645739934
 21
746.0307516527479
 31
0.0
  0
LINE
  5
80
330
1F
100
AcDbEntity
  8
0-0
  6
Continuous
 62
   120
370
     5
100
AcDbLine
 10
-67.43273542600647
 20
730.0307516527488
 30
0.0
 11
160.5672645739934
 21
730.0307516527488
 31
0.0
  0
LINE
  5
81
330
1F
100
AcDbEntity
  8
0-0
  6
Continuous
 62
   120
370
     5
100
AcDbLine
 10
-67.43273542600647
 20
720.0307516527484
 30
0.0
 11
160.5672645739934
 21
720.0307516527484
 31
0.0
  0
LINE
  5
82
330
1F
100
AcDbEntity
  8
0-0
  6
Continuous
 62
   120
370
     5
100
AcDbLine
 10
-67.43273542600647
 20
704.0307516527486
 30
0.0
 11
160.5672645739934
 21
704.0307516527486
 31
0.0
  0
LINE
  5
83
330
1F
100
AcDbEntity
  8
0-0
  6
Continuous
 62
   120
370
     5
100
AcDbLine
 10
-67.43273542600647
 20
694.0307516527482
 30
0.0
 11
160.5672645739934
 21
694.0307516527482
 31
0.0
  0
LINE
  5
84
330
1F
100
AcDbEntity
  8
0-0
  6
Continuous
 62
   120
370
     5
100
AcDbLine
 10
-67.43273542600647
 20
678.0307516527483
 30
0.0
 11
160.5672645739934
 21
678.0307516527483
 31
0.0
  0
LINE
  5
85
330
1F
100
AcDbEntity
  8
0-0
  6
Continuous
 62
   120
370
     5
100
AcDbLine
 10
-67.43273542600647
 20
668.030751652748
 30
0.0
 11
160.5672645739934
 21
668.030751652748
 31
0.0
  0
LINE
  5
86
330
1F
100
AcDbEntity
  8
0-0
  6
Continuous
 62
   120
370
     5
100
AcDbLine
 10
-67.43273542600647
 20
652.0307516527481
 30
0.0
 11
160.5672645739934
 21
652.0307516527481
 31
0.0
  0
LINE
  5
87
330
1F
100
AcDbEntity
  8
0-0
  6
Continuous
 62
   120
370
     5
100
AcDbLine
 10
-67.43273542600647
 20
642.0307516527487
 30
0.0
 11
160.5672645739934
 21
642.0307516527487
 31
0.0
  0
LINE
  5
88
330
1F
100
AcDbEntity
  8
0-0
  6
Continuous
 62
   120
370
     5
100
AcDbLine
 10
-67.43273542600647
 20
626.0307516527479
 30
0.0
 11
160.5672645739934
 21
626.0307516527479
 31
0.0
  0
LINE
  5
89
330
1F
100
AcDbEntity
  8
0-0
  6
Continuous
 62
   120
370
     5
100
AcDbLine
 10
-67.43273542600647
 20
616.0307516527484
 30
0.0
 11
160.5672645739934
 21
616.0307516527484
 31
0.0
  0
LINE
  5
8A
330
1F
100
AcDbEntity
  8
0-0
  6
Continuous
 62
   120
370
     5
100
AcDbLine
 10
-67.43273542600647
 20
600.0307516527477
 30
0.0
 11
160.5672645739934
 21
600.0307516527477
 31
0.0
  0
LINE
  5
8B
330
1F
100
AcDbEntity
  8
0-0
  6
Continuous
 62
   120
370
     5
100
AcDbLine
 10
-67.43273542600647
 20
590.0307516527482
 30
0.0
 11
160.5672645739934
 21
590.0307516527482
 31
0.0
  0
LINE
  5
8C
330
1F
100
AcDbEntity
  8
0-0
  6
Continuous
 62
   120
370
     5
100
AcDbLine
 10
-67.43273542600647
 20
574.0307516527474
 30
0.0
 11
160.5672645739934
 21
574.0307516527474
 31
0.0
  0
LINE
  5
8D
330
1F
100
AcDbEntity
  8
0-0
  6
Continuous
 62
   120
370
     5
100
AcDbLine
 10
-67.43273542600647
 20
564.030751652748
 30
0.0
 11
160.5672645739934
 21
564.030751652748
 31
0.0
  0
LINE
  5
8E
330
1F
100
AcDbEntity
  8
0-0
  6
Continuous
 62
   120
370
     5
100
AcDbLine
 10
-67.43273542600647
 20
548.030751652748
 30
0.0
 11
160.5672645739934
 21
548.030751652748
 31
0.0
  0
LINE
  5
8F
330
1F
100
AcDbEntity
  8
0-0
  6
Continuous
 62
   120
370
     5
100
AcDbLine
 10
-67.43273542600647
 20
538.0307516527478
 30
0.0
 11
160.5672645739934
 21
538.0307516527478
 31
0.0
  0
LINE
  5
90
330
1F
100
AcDbEntity
  8
0-0
  6
Continuous
 62
   120
370
     5
100
AcDbLine
 10
-67.43273542600647
 20
522.0307516527478
 30
0.0
 11
160.5672645739934
 21
522.0307516527478
 31
0.0
  0
LINE
  5
91
330
1F
100
AcDbEntity
  8
0-0
  6
Continuous
 62
   120
370
     5
100
AcDbLine
 10
-67.43273542600647
 20
512.0307516527475
 30
0.0
 11
160.5672645739934
 21
512.0307516527475
 31
0.0
  0
LINE
  5
92
330
1F
100
AcDbEntity
  8
0-0
  6
Continuous
 62
   120
370
     5
100
AcDbLine
 10
-67.43273542600647
 20
496.0307516527476
 30
0.0
 11
160.5672645739934
 21
496.0307516527476
 31
0.0
  0
LINE
  5
93
330
1F
100
AcDbEntity
  8
0-0
  6
Continuous
 62
   120
370
     5
100
AcDbLine
 10
-67.43273542600647
 20
486.0307516527473
 30
0.0
 11
160.5672645739934
 21
486.0307516527473
 31
0.0
  0
LINE
  5
94
330
1F
100
AcDbEntity
  8
0-0
  6
Continuous
 62
   120
370
     5
100
AcDbLine
 10
-67.43273542600647
 20
470.0307516527474
 30
0.0
 11
160.5672645739934
 21
470.0307516527474
 31
0.0
  0
LINE
  5
95
330
1F
100
AcDbEntity
  8
0-0
  6
Continuous
 62
   120
370
     5
100
AcDbLine
 10
-67.43273542600647
 20
460.0307516527471
 30
0.0
 11
160.5672645739934
 21
460.0307516527471
 31
0.0
  0
LINE
  5
96
330
1F
100
AcDbEntity
  8
0-0
  6
Continuous
 62
   120
370
     5
100
AcDbLine
 10
-67.43273542600647
 20
444.0307516527471
 30
0.0
 11
160.5672645739934
 21
444.0307516527471
 31
0.0
  0
LINE
  5
97
330
1F
100
AcDbEntity
  8
0-0
  6
Continuous
 62
   120
370
     5
100
AcDbLine
 10
-67.43273542600647
 20
434.0307516527469
 30
0.0
 11
160.5672645739934
 21
434.0307516527469
 31
0.0
  0
LINE
  5
98
330
1F
100
AcDbEntity
  8
0-0
  6
Continuous
 62
   120
370
     5
100
AcDbLine
 10
-67.43273542600647
 20
418.0307516527469
 30
0.0
 11
160.5672645739934
 21
418.0307516527469
 31
0.0
  0
LINE
  5
99
330
1F
100
AcDbEntity
  8
0-0
  6
Continuous
 62
   120
370
     5
100
AcDbLine
 10
-67.43273542600647
 20
408.0307516527475
 30
0.0
 11
160.5672645739934
 21
408.0307516527475
 31
0.0
  0
LINE
  5
9A
330
1F
100
AcDbEntity
  8
0-0
  6
Continuous
 62
   120
370
     5
100
AcDbLine
 10
-67.43273542600647
 20
392.0307516527467
 30
0.0
 11
160.5672645739934
 21
392.0307516527467
 31
0.0
  0
LINE
  5
9B
330
1F
100
AcDbEntity
  8
0-0
  6
Continuous
 62
   120
370
     5
100
AcDbLine
 10
-67.43273542600647
 20
382.0307516527473
 30
0.0
 11
160.5672645739934
 21
382.0307516527473
 31
0.0
  0
LINE
  5
9C
330
1F
100
AcDbEntity
  8
0-0
  6
Continuous
 62
   120
370
     5
100
AcDbLine
 10
-67.43273542600647
 20
366.0307516527473
 30
0.0
 11
160.5672645739934
 21
366.0307516527473
 31
0.0
  0
LINE
  5
9D
330
1F
100
AcDbEntity
  8
0-0
  6
Continuous
 62
   120
370
     5
100
AcDbLine
 10
-67.43273542600647
 20
356.030751652747
 30
0.0
 11
160.5672645739934
 21
356.030751652747
 31
0.0
  0
LINE
  5
9E
330
1F
100
AcDbEntity
  8
0-0
  6
Continuous
 62
   120
370
     5
100
AcDbLine
 10
-67.43273542600647
 20
340.0307516527471
 30
0.0
 11
160.5672645739934
 21
340.0307516527471
 31
0.0
  0
LINE
  5
9F
330
1F
100
AcDbEntity
  8
0-0
  6
Continuous
 62
   120
370
     5
100
AcDbLine
 10
-67.43273542600647
 20
330.0307516527468
 30
0.0
 11
160.5672645739934
 21
330.0307516527468
 31
0.0
  0
LINE
  5
A0
330
1F
100
AcDbEntity
  8
0-0
  6
Continuous
 62
   120
370
     5
100
AcDbLine
 10
-67.43273542600647
 20
314.0307516527469
 30
0.0
 11
160.5672645739934
 21
314.0307516527469
 31
0.0
  0
LINE
  5
A1
330
1F
100
AcDbEntity
  8
0-0
  6
Continuous
 62
   120
370
     5
100
AcDbLine
 10
-67.43273542600647
 20
304.0307516527474
 30
0.0
 11
160.5672645739934
 21
304.0307516527474
 31
0.0
  0
LINE
  5
A2
330
1F
100
AcDbEntity
  8
0-0
  6
Continuous
 62
   120
370
     5
100
AcDbLine
 10
-67.43273542600647
 20
288.0307516527466
 30
0.0
 11
160.5672645739934
 21
288.0307516527466
 31
0.0
  0
LINE
  5
A3
330
1F
100
AcDbEntity
  8
0-0
  6
Continuous
 62
   120
370
     5
100
AcDbLine
 10
-67.43273542600647
 20
278.0307516527472
 30
0.0
 11
160.5672645739934
 21
278.0307516527472
 31
0.0
  0
LINE
  5
A4
330
1F
100
AcDbEntity
  8
0-0
  6
Continuous
 62
   120
370
     5
100
AcDbLine
 10
-67.43273542600647
 20
262.0307516527464
 30
0.0
 11
160.5672645739934
 21
262.0307516527464
 31
0.0
  0
LINE
  5
A5
330
1F
100
AcDbEntity
  8
0-0
  6
Continuous
 62
   120
370
     5
100
AcDbLine
 10
-67.43273542600647
 20
252.030751652747
 30
0.0
 11
160.5672645739934
 21
252.030751652747
 31
0.0
  0
LINE
  5
A6
330
1F
100
AcDbEntity
  8
0-0
  6
Continuous
 62
   120
370
     5
100
AcDbLine
 10
-67.43273542600647
 20
236.030751652747
 30
0.0
 11
160.5672645739934
 21
236.030751652747
 31
0.0
  0
LINE
  5
A7
330
1F
100
AcDbEntity
  8
0-0
  6
Continuous
 62
   120
370
     5
100
AcDbLine
 10
-67.43273542600647
 20
226.0307516527467
 30
0.0
 11
160.5672645739934
 21
226.0307516527467
 31
0.0
  0
LINE
  5
A8
330
1F
100
AcDbEntity
  8
0-0
  6
Continuous
 62
   120
370
     5
100
AcDbLine
 10
-67.43273542600647
 20
210.0307516527468
 30
0.0
 11
160.5672645739934
 21
210.0307516527468
 31
0.0
  0
LINE
  5
A9
330
1F
100
AcDbEntity
  8
0-0
  6
Continuous
 62
   120
370
     5
100
AcDbLine
 10
-67.43273542600647
 20
200.0307516527465
 30
0.0
 11
160.5672645739934
 21
200.0307516527465
 31
0.0
  0
LINE
  5
AA
330
1F
100
AcDbEntity
  8
0-0
  6
Continuous
 62
   120
370
     5
100
AcDbLine
 10
-67.43273542600647
 20
184.0307516527466
 30
0.0
 11
160.5672645739934
 21
184.0307516527466
 31
0.0
  0
LINE
  5
AB
330
1F
100
AcDbEntity
  8
0-0
  6
Continuous
 62
   120
370
     5
100
AcDbLine
 10
-67.43273542600647
 20
174.0307516527463
 30
0.0
 11
160.5672645739934
 21
174.0307516527463
 31
0.0
  0
LINE
  5
AC
330
1F
100
AcDbEntity
  8
0-0
  6
Continuous
 62
   120
370
     5
100
AcDbLine
 10
-67.43273542600647
 20
158.0307516527463
 30
0.0
 11
160.5672645739934
 21
158.0307516527463
 31
0.0
  0
LINE
  5
AD
330
1F
100
AcDbEntity
  8
0-0
  6
Continuous
 62
   120
370
     5
100
AcDbLine
 10
-67.43273542600647
 20
148.0307516527461
 30
0.0
 11
160.5672645739934
 21
148.0307516527461
 31
0.0
  0
LINE
  5
AE
330
1F
100
AcDbEntity
  8
0-0
  6
Continuous
 62
   120
370
     5
100
AcDbLine
 10
-67.43273542600647
 20
132.030751652747
 30
0.0
 11
160.5672645739934
 21
132.030751652747
 31
0.0
  0
LINE
  5
AF
330
1F
100
AcDbEntity
  8
0-0
  6
Continuous
 62
   120
370
     5
100
AcDbLine
 10
-67.43273542600647
 20
122.0307516527458
 30
0.0
 11
160.5672645739934
 21
122.0307516527458
 31
0.0
  0
LINE
  5
B0
330
1F
100
AcDbEntity
  8
0-0
  6
Continuous
 62
   120
370
     5
100
AcDbLine
 10
-67.43273542600647
 20
106.0307516527467
 30
0.0
 11
160.5672645739934
 21
106.0307516527467
 31
0.0
  0
LINE
  5
B1
330
1F
100
AcDbEntity
  8
0-0
  6
Continuous
 62
   120
370
     5
100
AcDbLine
 10
-67.43273542600647
 20
96.03075165274646
 30
0.0
 11
160.5672645739934
 21
96.03075165274646
 31
0.0
  0
LINE
  5
B2
330
1F
100
AcDbEntity
  8
0-0
  6
Continuous
 62
   120
370
     5
100
AcDbLine
 10
-67.43273542600647
 20
80.03075165274652
 30
0.0
 11
160.5672645739934
 21
80.03075165274652
 31
0.0
  0
LINE
  5
B3
330
1F
100
AcDbEntity
  8
0-0
  6
Continuous
 62
   120
370
     5
100
AcDbLine
 10
-67.43273542600647
 20
70.03075165274623
 30
0.0
 11
160.5672645739934
 21
70.03075165274623
 31
0.0
  0
LINE
  5
B4
330
1F
100
AcDbEntity
  8
0-0
  6
Continuous
 62
   120
370
     5
100
AcDbLine
 10
-67.43273542600647
 20
54.03075165274629
 30
0.0
 11
160.5672645739934
 21
54.03075165274629
 31
0.0
  0
LINE
  5
B5
330
1F
100
AcDbEntity
  8
0-0
  6
Continuous
 62
   120
370
     5
100
AcDbLine
 10
-67.43273542600647
 20
44.03075165274601
 30
0.0
 11
160.5672645739934
 21
44.03075165274601
 31
0.0
  0
LINE
  5
B6
330
1F
100
AcDbEntity
  8
0-0
  6
Continuous
 62
   120
370
     5
100
AcDbLine
 10
-67.43273542600647
 20
28.03075165274606
 30
0.0
 11
160.5672645739934
 21
28.03075165274606
 31
0.0
  0
LINE
  5
B7
330
1F
100
AcDbEntity
  8
0-0
  6
Continuous
 62
   120
370
     5
100
AcDbLine
 10
-67.43273542600647
 20
18.03075165274578
 30
0.0
 11
160.5672645739934
 21
18.03075165274578
 31
0.0
  0
LINE
  5
B8
330
1F
100
AcDbEntity
  8
0-0
  6
Continuous
 62
   120
370
     5
100
AcDbLine
 10
-67.43273542600647
 20
2.030751652745835
 30
0.0
 11
160.5672645739934
 21
2.030751652745835
 31
0.0
  0
LINE
  5
B9
330
1F
100
AcDbEntity
  8
0-0
  6
Continuous
 62
   120
370
     5
100
AcDbLine
 10
-67.43273542600647
 20
-7.96924834725445
 30
0.0
 11
160.5672645739934
 21
-7.96924834725445
 31
0.0
  0
LINE
  5
BA
330
1F
100
AcDbEntity
  8
0-0
  6
Continuous
 62
   120
370
     5
100
AcDbLine
 10
-67.43273542600647
 20
-23.96924834725439
 30
0.0
 11
160.5672645739934
 21
-23.96924834725439
 31
0.0
  0
LINE
  5
BB
330
1F
100
AcDbEntity
  8
0-0
  6
Continuous
 62
   120
370
     5
100
AcDbLine
 10
-67.43273542600647
 20
-33.96924834725468
 30
0.0
 11
160.5672645739934
 21
-33.96924834725468
 31
0.0
  0
LINE
  5
BC
330
1F
100
AcDbEntity
  8
0-0
  6
Continuous
 62
   120
370
     5
100
AcDbLine
 10
-67.43273542600647
 20
-49.96924834725462
 30
0.0
 11
160.5672645739934
 21
-49.96924834725462
 31
0.0
  0
LINE
  5
BD
330
1F
100
AcDbEntity
  8
0-0
  6
Continuous
 62
   120
370
     5
100
AcDbLine
 10
-67.43273542600647
 20
-59.96924834725405
 30
0.0
 11
160.5672645739934
 21
-59.96924834725405
 31
0.0
  0
LINE
  5
BE
330
1F
100
AcDbEntity
  8
0-0
  6
Continuous
 62
   120
370
     5
100
AcDbLine
 10
-67.43273542600647
 20
-75.96924834725485
 30
0.0
 11
160.5672645739934
 21
-75.96924834725485
 31
0.0
  0
LINE
  5
BF
330
1F
100
AcDbEntity
  8
0-0
  6
Continuous
 62
   120
370
     5
100
AcDbLine
 10
-67.43273542600647
 20
-85.96924834725428
 30
0.0
 11
160.5672645739934
 21
-85.96924834725428
 31
0.0
  0
LINE
  5
C0
330
1F
100
AcDbEntity
  8
0-0
  6
Continuous
 62
   120
370
     5
100
AcDbLine
 10
-67.43273542600647
 20
-101.9692483472542
 30
0.0
 11
160.5672645739934
 21
-101.9692483472542
 31
0.0
  0
LINE
  5
C1
330
1F
100
AcDbEntity
  8
0-0
  6
Continuous
 62
   120
370
     5
100
AcDbLine
 10
-67.43273542600647
 20
-111.9692483472545
 30
0.0
 11
160.5672645739934
 21
-111.9692483472545
 31
0.0
  0
LINE
  5
C2
330
1F
100
AcDbEntity
  8
0-0
  6
Continuous
 62
   120
370
     5
100
AcDbLine
 10
-67.43273542600647
 20
-127.9692483472544
 30
0.0
 11
160.5672645739934
 21
-127.9692483472544
 31
0.0
  0
LINE
  5
C3
330
1F
100
AcDbEntity
  8
0-0
  6
Continuous
 62
   120
370
     5
100
AcDbLine
 10
-67.43273542600647
 20
-137.9692483472547
 30
0.0
 11
160.5672645739934
 21
-137.9692483472547
 31
0.0
  0
LINE
  5
C4
330
1F
100
AcDbEntity
  8
0-0
  6
Continuous
 62
   120
370
     5
100
AcDbLine
 10
-67.43273542600647
 20
-153.9692483472547
 30
0.0
 11
160.5672645739934
 21
-153.9692483472547
 31
0.0
  0
LINE
  5
C5
330
1F
100
AcDbEntity
  8
0-0
  6
Continuous
 62
   120
370
     5
100
AcDbLine
 10
-67.43273542600647
 20
-163.969248347255
 30
0.0
 11
160.5672645739934
 21
-163.969248347255
 31
0.0
  0
LINE
  5
C6
330
1F
100
AcDbEntity
  8
0-0
  6
Continuous
 62
   120
370
     5
100
AcDbLine
 10
-67.43273542600647
 20
-179.9692483472549
 30
0.0
 11
160.5672645739934
 21
-179.9692483472549
 31
0.0
  0
LINE
  5
C7
330
1F
100
AcDbEntity
  8
0-0
  6
Continuous
 62
   120
370
     5
100
AcDbLine
 10
-67.43273542600647
 20
-189.9692483472552
 30
0.0
 11
160.5672645739934
 21
-189.9692483472552
 31
0.0
  0
LINE
  5
C8
330
1F
100
AcDbEntity
  8
0-0
  6
Continuous
 62
   120
370
     5
100
AcDbLine
 10
-67.43273542600647
 20
-205.9692483472551
 30
0.0
 11
160.5672645739934
 21
-205.9692483472551
 31
0.0
  0
LINE
  5
C9
330
1F
100
AcDbEntity
  8
0-0
  6
Continuous
 62
   120
370
     5
100
AcDbLine
 10
-67.43273542600647
 20
-215.9692483472546
 30
0.0
 11
160.5672645739934
 21
-215.9692483472546
 31
0.0
  0
LINE
  5
CA
330
1F
100
AcDbEntity
  8
0-0
  6
Continuous
 62
   120
370
     5
100
AcDbLine
 10
-67.43273542600647
 20
-231.9692483472545
 30
0.0
 11
160.5672645739934
 21
-231.9692483472545
 31
0.0
  0
LINE
  5
CB
330
1F
100
AcDbEntity
  8
0-0
  6
Continuous
 62
   120
370
     5
100
AcDbLine
 10
-67.43273542600647
 20
-241.9692483472548
 30
0.0
 11
160.5672645739934
 21
-241.9692483472548
 31
0.0
  0
LINE
  5
CC
330
1F
100
AcDbEntity
  8
0-0
  6
Continuous
 62
   120
370
     5
100
AcDbLine
 10
-67.43273542600647
 20
-257.9692483472547
 30
0.0
 11
160.5672645739934
 21
-257.9692483472547
 31
0.0
  0
LINE
  5
CD
330
1F
100
AcDbEntity
  8
0-0
  6
Continuous
 62
   120
370
     5
100
AcDbLine
 10
-67.43273542600647
 20
-267.969248347255
 30
0.0
 11
160.5672645739934
 21
-267.969248347255
 31
0.0
  0
LINE
  5
CE
330
1F
100
AcDbEntity
  8
0-0
  6
Continuous
 62
   120
370
     5
100
AcDbLine
 10
-67.43273542600647
 20
-283.969248347255
 30
0.0
 11
160.5672645739934
 21
-283.969248347255
 31
0.0
  0
LINE
  5
CF
330
1F
100
AcDbEntity
  8
0-0
  6
Continuous
 62
   120
370
     5
100
AcDbLine
 10
-67.43273542600647
 20
-293.9692483472552
 30
0.0
 11
160.5672645739934
 21
-293.9692483472552
 31
0.0
  0
LINE
  5
D0
330
1F
100
AcDbEntity
  8
0-0
  6
Continuous
 62
   120
370
     5
100
AcDbLine
 10
-67.43273542600647
 20
-309.9692483472552
 30
0.0
 11
160.5672645739934
 21
-309.9692483472552
 31
0.0
  0
LINE
  5
D1
330
1F
100
AcDbEntity
  8
0-0
  6
Continuous
 62
   120
370
     5
100
AcDbLine
 10
-67.43273542600647
 20
-319.9692483472546
 30
0.0
 11
160.5672645739934
 21
-319.9692483472546
 31
0.0
  0
LINE
  5
D2
330
1F
100
AcDbEntity
  8
0-0
  6
Continuous
 62
   120
370
     5
100
AcDbLine
 10
-67.43273542600647
 20
-335.9692483472554
 30
0.0
 11
160.5672645739934
 21
-335.9692483472554
 31
0.0
  0
LINE
  5
D3
330
1F
100
AcDbEntity
  8
0-0
  6
Continuous
 62
   120
370
     5
100
AcDbLine
 10
-67.43273542600647
 20
-345.9692483472548
 30
0.0
 11
160.5672645739934
 21
-345.9692483472548
 31
0.0
  0
LINE
  5
D4
330
1F
100
AcDbEntity
  8
0-0
  6
Continuous
 62
   120
370
     5
100
AcDbLine
 10
-67.43273542600647
 20
-361.9692483472548
 30
0.0
 11
160.5672645739934
 21
-361.9692483472548
 31
0.0
  0
LINE
  5
D5
330
1F
100
AcDbEntity
  8
0-0
  6
Continuous
 62
   120
370
     5
100
AcDbLine
 10
-67.43273542600647
 20
-371.9692483472551
 30
0.0
 11
160.5672645739934
 21
-371.9692483472551
 31
0.0
  0
LINE
  5
D6
330
1F
100
AcDbEntity
  8
0-0
  6
Continuous
 62
   120
370
     5
100
AcDbLine
 10
-67.43273542600647
 20
-387.969248347255
 30
0.0
 11
160.5672645739934
 21
-387.969248347255
 31
0.0
  0
LINE
  5
D7
330
1F
100
AcDbEntity
  8
0-0
  6
Continuous
 62
   120
370
     5
100
AcDbLine
 10
-67.43273542600647
 20
-397.9692483472553
 30
0.0
 11
160.5672645739934
 21
-397.9692483472553
 31
0.0
  0
LINE
  5
D8
330
1F
100
AcDbEntity
  8
0-0
  6
Continuous
 62
   120
370
     5
100
AcDbLine
 10
-67.43273542600647
 20
-413.9692483472552
 30
0.0
 11
160.5672645739934
 21
-413.9692483472552
 31
0.0
  0
LINE
  5
D9
330
1F
100
AcDbEntity
  8
0-0
  6
Continuous
 62
   120
370
     5
100
AcDbLine
 10
-67.43273542600647
 20
-423.9692483472555
 30
0.0
 11
160.5672645739934
 21
-423.9692483472555
 31
0.0
  0
LINE
  5
DA
330
1F
100
AcDbEntity
  8
0-0
  6
Continuous
 62
   120
370
     5
100
AcDbLine
 10
-67.43273542600647
 20
-439.9692483472563
 30
0.0
 11
160.5672645739934
 21
-439.9692483472563
 31
0.0
  0
LINE
  5
DB
330
1F
100
AcDbEntity
  8
0-0
  6
Continuous
 62
   120
370
     5
100
AcDbLine
 10
-67.43273542600647
 20
-449.9692483472558
 30
0.0
 11
160.5672645739934
 21
-449.9692483472558
 31
0.0
  0
LINE
  5
DC
330
1F
100
AcDbEntity
  8
0-0
  6
Continuous
 62
   120
370
     5
100
AcDbLine
 10
-67.43273542600647
 20
-465.9692483472557
 30
0.0
 11
160.5672645739934
 21
-465.9692483472557
 31
0.0
  0
LINE
  5
DD
330
1F
100
AcDbEntity
  8
0-0
  6
Continuous
 62
   120
370
     5
100
AcDbLine
 10
-67.43273542600647
 20
-475.969248347256
 30
0.0
 11
160.5672645739934
 21
-475.969248347256
 31
0.0
  0
LINE
  5
DE
330
1F
100
AcDbEntity
  8
0-0
  6
Continuous
 62
   120
370
     5
100
AcDbLine
 10
-67.43273542600647
 20
-491.9692483472551
 30
0.0
 11
160.5672645739934
 21
-491.9692483472551
 31
0.0
  0
LINE
  5
DF
330
1F
100
AcDbEntity
  8
0-0
  6
Continuous
 62
   120
370
     5
100
AcDbLine
 10
-67.43273542600647
 20
-501.9692483472562
 30
0.0
 11
160.5672645739934
 21
-501.9692483472562
 31
0.0
  0
LINE
  5
E0
330
1F
100
AcDbEntity
  8
0-0
  6
Continuous
 62
   120
370
     5
100
AcDbLine
 10
-67.43273542600647
 20
-517.9692483472553
 30
0.0
 11
160.5672645739934
 21
-517.9692483472553
 31
0.0
  0
LINE
  5
E1
330
1F
100
AcDbEntity
  8
0-0
  6
Continuous
 62
   120
370
     5
100
AcDbLine
 10
-67.43273542600647
 20
-527.9692483472556
 30
0.0
 11
160.5672645739934
 21
-527.9692483472556
 31
0.0
  0
LINE
  5
E2
330
1F
100
AcDbEntity
  8
0-0
  6
Continuous
 62
   120
370
     5
100
AcDbLine
 10
-67.43273542600647
 20
-543.9692483472555
 30
0.0
 11
160.5672645739934
 21
-543.9692483472555
 31
0.0
  0
LINE
  5
E3
330
1F
100
AcDbEntity
  8
0-0
  6
Continuous
 62
   120
370
     5
100
AcDbLine
 10
-67.43273542600647
 20
-553.9692483472559
 30
0.0
 11
160.5672645739934
 21
-553.9692483472559
 31
0.0
  0
LINE
  5
E4
330
1F
100
AcDbEntity
  8
0-0
  6
Continuous
 62
   120
370
     5
100
AcDbLine
 10
-67.43273542600647
 20
-569.9692483472558
 30
0.0
 11
160.5672645739934
 21
-569.9692483472558
 31
0.0
  0
LINE
  5
E5
330
1F
100
AcDbEntity
  8
0-0
  6
Continuous
 62
   120
370
     5
100
AcDbLine
 10
-67.43273542600647
 20
-579.9692483472561
 30
0.0
 11
160.5672645739934
 21
-579.9692483472561
 31
0.0
  0
LINE
  5
E6
330
1F
100
AcDbEntity
  8
0-0
  6
Continuous
 62
   120
370
     5
100
AcDbLine
 10
-67.43273542600647
 20
-595.969248347256
 30
0.0
 11
160.5672645739934
 21
-595.969248347256
 31
0.0
  0
LINE
  5
E7
330
1F
100
AcDbEntity
  8
0-0
  6
Continuous
 62
   120
370
     5
100
AcDbLine
 10
-67.43273542600647
 20
-605.9692483472563
 30
0.0
 11
160.5672645739934
 21
-605.9692483472563
 31
0.0
  0
LINE
  5
E8
330
1F
100
AcDbEntity
  8
0-0
  6
Continuous
 62
   120
370
     5
100
AcDbLine
 10
-67.43273542600647
 20
-621.9692483472562
 30
0.0
 11
160.5672645739934
 21
-621.9692483472562
 31
0.0
  0
LINE
  5
E9
330
1F
100
AcDbEntity
  8
0-0
  6
Continuous
 62
   120
370
     5
100
AcDbLine
 10
-67.43273542600647
 20
-631.9692483472566
 30
0.0
 11
160.5672645739934
 21
-631.9692483472566
 31
0.0
  0
LINE
  5
EA
330
1F
100
AcDbEntity
  8
0-0
  6
Continuous
 62
   120
370
     5
100
AcDbLine
 10
-67.43273542600647
 20
-647.9692483472564
 30
0.0
 11
160.5672645739934
 21
-647.9692483472564
 31
0.0
  0
LINE
  5
EB
330
1F
100
AcDbEntity
  8
0-0
  6
Continuous
 62
   120
370
     5
100
AcDbLine
 10
-67.43273542600647
 20
-657.9692483472559
 30
0.0
 11
160.5672645739934
 21
-657.9692483472559
 31
0.0
  0
LINE
  5
EC
330
1F
100
AcDbEntity
  8
0-0
  6
Continuous
 62
   120
370
     5
100
AcDbLine
 10
-67.43273542600647
 20
-673.9692483472567
 30
0.0
 11
160.5672645739934
 21
-673.9692483472567
 31
0.0
  0
LINE
  5
ED
330
1F
100
AcDbEntity
  8
0-0
  6
Continuous
 62
   120
370
     5
100
AcDbLine
 10
-67.43273542600647
 20
-683.969248347257
 30
0.0
 11
160.5672645739934
 21
-683.969248347257
 31
0.0
  0
LINE
  5
EE
330
1F
100
AcDbEntity
  8
0-0
  6
Continuous
 62
   120
370
     5
100
AcDbLine
 10
-67.43273542600647
 20
-699.9692483472561
 30
0.0
 11
160.5672645739934
 21
-699.9692483472561
 31
0.0
  0
LINE
  5
EF
330
1F
100
AcDbEntity
  8
0-0
  6
Continuous
 62
   120
370
     5
100
AcDbLine
 10
-67.43273542600647
 20
-813.9692483472572
 30
0.0
 11
160.5672645739934
 21
-813.9692483472572
 31
0.0
  0
LINE
  5
F0
330
1F
100
AcDbEntity
  8
0-0
  6
Continuous
 62
   120
370
     5
100
AcDbLine
 10
-67.43273542600647
 20
-803.969248347257
 30
0.0
 11
160.5672645739934
 21
-803.969248347257
 31
0.0
  0
LINE
  5
F1
330
1F
100
AcDbEntity
  8
0-0
  6
Continuous
 62
   120
370
     5
100
AcDbLine
 10
-67.43273542600647
 20
-787.969248347257
 30
0.0
 11
160.5672645739934
 21
-787.969248347257
 31
0.0
  0
LINE
  5
F2
330
1F
100
AcDbEntity
  8
0-0
  6
Continuous
 62
   120
370
     5
100
AcDbLine
 10
-67.43273542600647
 20
-777.9692483472568
 30
0.0
 11
160.5672645739934
 21
-777.9692483472568
 31
0.0
  0
LINE
  5
F3
330
1F
100
AcDbEntity
  8
0-0
  6
Continuous
 62
   120
370
     5
100
AcDbLine
 10
-67.43273542600647
 20
-761.9692483472568
 30
0.0
 11
160.5672645739934
 21
-761.9692483472568
 31
0.0
  0
LINE
  5
F4
330
1F
100
AcDbEntity
  8
0-0
  6
Continuous
 62
   120
370
     5
100
AcDbLine
 10
-67.43273542600647
 20
-709.9692483472563
 30
0.0
 11
160.5672645739934
 21
-709.9692483472563
 31
0.0
  0
LINE
  5
F5
330
1F
100
AcDbEntity
  8
0-0
  6
Continuous
 62
   120
370
     5
100
AcDbLine
 10
-67.43273542600647
 20
-725.9692483472563
 30
0.0
 11
160.5672645739934
 21
-725.9692483472563
 31
0.0
  0
LINE
  5
F6
330
1F
100
AcDbEntity
  8
0-0
  6
Continuous
 62
   120
370
     5
100
AcDbLine
 10
-67.43273542600647
 20
-735.9692483472566
 30
0.0
 11
160.5672645739934
 21
-735.9692483472566
 31
0.0
  0
LINE
  5
F7
330
1F
100
AcDbEntity
  8
0-0
  6
Continuous
 62
   120
370
     5
100
AcDbLine
 10
-67.43273542600647
 20
-751.9692483472566
 30
0.0
 11
160.5672645739934
 21
-751.9692483472566
 31
0.0
  0
LINE
  5
F8
330
1F
100
AcDbEntity
  8
0-0
  6
Continuous
 62
   120
370
     5
100
AcDbLine
 10
-62.43273542600676
 20
-803.969248347257
 30
0.0
 11
-62.43273542600676
 21
-810.388300845334
 31
0.0
  0
LINE
  5
F9
330
1F
100
AcDbEntity
  8
0-0
  6
Continuous
 62
   120
370
     5
100
AcDbLine
 10
-67.43273542600647
 20
-810.388300845334
 30
0.0
 11
-62.43273542600676
 21
-810.388300845334
 31
0.0
  0
LINE
  5
FA
330
1F
100
AcDbEntity
  8
0-0
  6
Continuous
 62
   120
370
     5
100
AcDbLine
 10
-62.43273542600676
 20
-777.9692483472568
 30
0.0
 11
-62.43273542600676
 21
-784.3883008453347
 31
0.0
  0
LINE
  5
FB
330
1F
100
AcDbEntity
  8
0-0
  6
Continuous
 62
   120
370
     5
100
AcDbLine
 10
-67.43273542600647
 20
-784.3883008453347
 30
0.0
 11
-62.43273542600676
 21
-784.3883008453347
 31
0.0
  0
LINE
  5
FC
330
1F
100
AcDbEntity
  8
0-0
  6
Continuous
 62
   120
370
     5
100
AcDbLine
 10
-62.43273542600676
 20
-751.9692483472566
 30
0.0
 11
-62.43273542600676
 21
-758.3883008453345
 31
0.0
  0
LINE
  5
FD
330
1F
100
AcDbEntity
  8
0-0
  6
Continuous
 62
   120
370
     5
100
AcDbLine
 10
-67.43273542600647
 20
-758.3883008453345
 30
0.0
 11
-62.43273542600676
 21
-758.3883008453345
 31
0.0
  0
LINE
  5
FE
330
1F
100
AcDbEntity
  8
0-0
  6
Continuous
 62
   120
370
     5
100
AcDbLine
 10
-62.43273542600676
 20
-725.9692483472563
 30
0.0
 11
-62.43273542600676
 21
-732.3883008453342
 31
0.0
  0
LINE
  5
FF
330
1F
100
AcDbEntity
  8
0-0
  6
Continuous
 62
   120
370
     5
100
AcDbLine
 10
-67.43273542600647
 20
-732.3883008453342
 30
0.0
 11
-62.43273542600676
 21
-732.3883008453342
 31
0.0
  0
LINE
  5
100
330
1F
100
AcDbEntity
  8
0-0
  6
Continuous
 62
   120
370
     5
100
AcDbLine
 10
-62.43273542600676
 20
-699.9692483472561
 30
0.0
 11
-62.43273542600676
 21
-706.388300845334
 31
0.0
  0
LINE
  5
101
330
1F
100
AcDbEntity
  8
0-0
  6
Continuous
 62
   120
370
     5
100
AcDbLine
 10
-67.43273542600647
 20
-706.388300845334
 30
0.0
 11
-62.43273542600676
 21
-706.388300845334
 31
0.0
  0
LINE
  5
102
330
1F
100
AcDbEntity
  8
0-0
  6
Continuous
 62
   120
370
     5
100
AcDbLine
 10
-62.43273542600676
 20
-673.9692483472567
 30
0.0
 11
-62.43273542600676
 21
-680.3883008453338
 31
0.0
  0
LINE
  5
103
330
1F
100
AcDbEntity
  8
0-0
  6
Continuous
 62
   120
370
     5
100
AcDbLine
 10
-67.43273542600647
 20
-680.3883008453338
 30
0.0
 11
-62.43273542600676
 21
-680.3883008453338
 31
0.0
  0
LINE
  5
104
330
1F
100
AcDbEntity
  8
0-0
  6
Continuous
 62
   120
370
     5
100
AcDbLine
 10
-62.43273542600676
 20
-647.9692483472564
 30
0.0
 11
-62.43273542600676
 21
-654.3883008453344
 31
0.0
  0
LINE
  5
105
330
1F
100
AcDbEntity
  8
0-0
  6
Continuous
 62
   120
370
     5
100
AcDbLine
 10
-67.43273542600647
 20
-654.3883008453344
 30
0.0
 11
-62.43273542600676
 21
-654.3883008453344
 31
0.0
  0
LINE
  5
106
330
1F
100
AcDbEntity
  8
0-0
  6
Continuous
 62
   120
370
     5
100
AcDbLine
 10
-62.43273542600676
 20
-621.9692483472562
 30
0.0
 11
-62.43273542600676
 21
-628.3883008453341
 31
0.0
  0
LINE
  5
107
330
1F
100
AcDbEntity
  8
0-0
  6
Continuous
 62
   120
370
     5
100
AcDbLine
 10
-67.43273542600647
 20
-628.3883008453341
 30
0.0
 11
-62.43273542600676
 21
-628.3883008453341
 31
0.0
  0
LINE
  5
108
330
1F
100
AcDbEntity
  8
0-0
  6
Continuous
 62
   120
370
     5
100
AcDbLine
 10
-62.43273542600676
 20
-595.969248347256
 30
0.0
 11
-62.43273542600676
 21
-602.3883008453339
 31
0.0
  0
LINE
  5
109
330
1F
100
AcDbEntity
  8
0-0
  6
Continuous
 62
   120
370
     5
100
AcDbLine
 10
-67.43273542600647
 20
-602.3883008453339
 30
0.0
 11
-62.43273542600676
 21
-602.3883008453339
 31
0.0
  0
LINE
  5
10A
330
1F
100
AcDbEntity
  8
0-0
  6
Continuous
 62
   120
370
     5
100
AcDbLine
 10
-62.43273542600676
 20
-569.9692483472558
 30
0.0
 11
-62.43273542600676
 21
-576.3883008453337
 31
0.0
  0
LINE
  5
10B
330
1F
100
AcDbEntity
  8
0-0
  6
Continuous
 62
   120
370
     5
100
AcDbLine
 10
-67.43273542600647
 20
-576.3883008453337
 30
0.0
 11
-62.43273542600676
 21
-576.3883008453337
 31
0.0
  0
LINE
  5
10C
330
1F
100
AcDbEntity
  8
0-0
  6
Continuous
 62
   120
370
     5
100
AcDbLine
 10
-62.43273542600676
 20
-543.9692483472555
 30
0.0
 11
-62.43273542600676
 21
-550.3883008453334
 31
0.0
  0
LINE
  5
10D
330
1F
100
AcDbEntity
  8
0-0
  6
Continuous
 62
   120
370
     5
100
AcDbLine
 10
-67.43273542600647
 20
-550.3883008453334
 30
0.0
 11
-62.43273542600676
 21
-550.3883008453334
 31
0.0
  0
LINE
  5
10E
330
1F
100
AcDbEntity
  8
0-0
  6
Continuous
 62
   120
370
     5
100
AcDbLine
 10
-62.43273542600676
 20
-517.9692483472553
 30
0.0
 11
-62.43273542600676
 21
-524.3883008453332
 31
0.0
  0
LINE
  5
10F
330
1F
100
AcDbEntity
  8
0-0
  6
Continuous
 62
   120
370
     5
100
AcDbLine
 10
-67.43273542600647
 20
-524.3883008453332
 30
0.0
 11
-62.43273542600676
 21
-524.3883008453332
 31
0.0
  0
LINE
  5
110
330
1F
100
AcDbEntity
  8
0-0
  6
Continuous
 62
   120
370
     5
100
AcDbLine
 10
-62.43273542600676
 20
-491.9692483472551
 30
0.0
 11
-62.43273542600676
 21
-498.388300845333
 31
0.0
  0
LINE
  5
111
330
1F
100
AcDbEntity
  8
0-0
  6
Continuous
 62
   120
370
     5
100
AcDbLine
 10
-67.43273542600647
 20
-498.388300845333
 30
0.0
 11
-62.43273542600676
 21
-498.388300845333
 31
0.0
  0
LINE
  5
112
330
1F
100
AcDbEntity
  8
0-0
  6
Continuous
 62
   120
370
     5
100
AcDbLine
 10
-62.43273542600676
 20
-465.9692483472557
 30
0.0
 11
-62.43273542600676
 21
-472.3883008453328
 31
0.0
  0
LINE
  5
113
330
1F
100
AcDbEntity
  8
0-0
  6
Continuous
 62
   120
370
     5
100
AcDbLine
 10
-67.43273542600647
 20
-472.3883008453328
 30
0.0
 11
-62.43273542600676
 21
-472.3883008453328
 31
0.0
  0
LINE
  5
114
330
1F
100
AcDbEntity
  8
0-0
  6
Continuous
 62
   120
370
     5
100
AcDbLine
 10
-62.43273542600676
 20
-439.9692483472563
 30
0.0
 11
-62.43273542600676
 21
-446.3883008453325
 31
0.0
  0
LINE
  5
115
330
1F
100
AcDbEntity
  8
0-0
  6
Continuous
 62
   120
370
     5
100
AcDbLine
 10
-67.43273542600647
 20
-446.3883008453325
 30
0.0
 11
-62.43273542600676
 21
-446.3883008453325
 31
0.0
  0
LINE
  5
116
330
1F
100
AcDbEntity
  8
0-0
  6
Continuous
 62
   120
370
     5
100
AcDbLine
 10
-62.43273542600676
 20
-413.9692483472552
 30
0.0
 11
-62.43273542600676
 21
-420.3883008453332
 31
0.0
  0
LINE
  5
117
330
1F
100
AcDbEntity
  8
0-0
  6
Continuous
 62
   120
370
     5
100
AcDbLine
 10
-67.43273542600647
 20
-420.3883008453332
 30
0.0
 11
-62.43273542600676
 21
-420.3883008453332
 31
0.0
  0
LINE
  5
118
330
1F
100
AcDbEntity
  8
0-0
  6
Continuous
 62
   120
370
     5
100
AcDbLine
 10
-62.43273542600676
 20
-387.969248347255
 30
0.0
 11
-62.43273542600676
 21
-394.3883008453329
 31
0.0
  0
LINE
  5
119
330
1F
100
AcDbEntity
  8
0-0
  6
Continuous
 62
   120
370
     5
100
AcDbLine
 10
-67.43273542600647
 20
-394.3883008453329
 30
0.0
 11
-62.43273542600676
 21
-394.3883008453329
 31
0.0
  0
LINE
  5
11A
330
1F
100
AcDbEntity
  8
0-0
  6
Continuous
 62
   120
370
     5
100
AcDbLine
 10
-62.43273542600676
 20
-361.9692483472548
 30
0.0
 11
-62.43273542600676
 21
-368.3883008453327
 31
0.0
  0
LINE
  5
11B
330
1F
100
AcDbEntity
  8
0-0
  6
Continuous
 62
   120
370
     5
100
AcDbLine
 10
-67.43273542600647
 20
-368.3883008453327
 30
0.0
 11
-62.43273542600676
 21
-368.3883008453327
 31
0.0
  0
LINE
  5
11C
330
1F
100
AcDbEntity
  8
0-0
  6
Continuous
 62
   120
370
     5
100
AcDbLine
 10
-62.43273542600676
 20
-335.9692483472554
 30
0.0
 11
-62.43273542600676
 21
-342.3883008453325
 31
0.0
  0
LINE
  5
11D
330
1F
100
AcDbEntity
  8
0-0
  6
Continuous
 62
   120
370
     5
100
AcDbLine
 10
-67.43273542600647
 20
-342.3883008453325
 30
0.0
 11
-62.43273542600676
 21
-342.3883008453325
 31
0.0
  0
LINE
  5
11E
330
1F
100
AcDbEntity
  8
0-0
  6
Continuous
 62
   120
370
     5
100
AcDbLine
 10
-62.43273542600676
 20
-309.9692483472552
 30
0.0
 11
-62.43273542600676
 21
-316.3883008453323
 31
0.0
  0
LINE
  5
11F
330
1F
100
AcDbEntity
  8
0-0
  6
Continuous
 62
   120
370
     5
100
AcDbLine
 10
-67.43273542600647
 20
-316.3883008453323
 30
0.0
 11
-62.43273542600676
 21
-316.3883008453323
 31
0.0
  0
LINE
  5
120
330
1F
100
AcDbEntity
  8
0-0
  6
Continuous
 62
   120
370
     5
100
AcDbLine
 10
-62.43273542600676
 20
-283.969248347255
 30
0.0
 11
-62.43273542600676
 21
-290.3883008453329
 31
0.0
  0
LINE
  5
121
330
1F
100
AcDbEntity
  8
0-0
  6
Continuous
 62
   120
370
     5
100
AcDbLine
 10
-67.43273542600647
 20
-290.3883008453329
 30
0.0
 11
-62.43273542600676
 21
-290.3883008453329
 31
0.0
  0
LINE
  5
122
330
1F
100
AcDbEntity
  8
0-0
  6
Continuous
 62
   120
370
     5
100
AcDbLine
 10
-62.43273542600676
 20
-257.9692483472547
 30
0.0
 11
-62.43273542600676
 21
-264.3883008453327
 31
0.0
  0
LINE
  5
123
330
1F
100
AcDbEntity
  8
0-0
  6
Continuous
 62
   120
370
     5
100
AcDbLine
 10
-67.43273542600647
 20
-264.3883008453327
 30
0.0
 11
-62.43273542600676
 21
-264.3883008453327
 31
0.0
  0
LINE
  5
124
330
1F
100
AcDbEntity
  8
0-0
  6
Continuous
 62
   120
370
     5
100
AcDbLine
 10
-62.43273542600676
 20
-231.9692483472545
 30
0.0
 11
-62.43273542600676
 21
-238.3883008453324
 31
0.0
  0
LINE
  5
125
330
1F
100
AcDbEntity
  8
0-0
  6
Continuous
 62
   120
370
     5
100
AcDbLine
 10
-67.43273542600647
 20
-238.3883008453324
 30
0.0
 11
-62.43273542600676
 21
-238.3883008453324
 31
0.0
  0
LINE
  5
126
330
1F
100
AcDbEntity
  8
0-0
  6
Continuous
 62
   120
370
     5
100
AcDbLine
 10
-62.43273542600676
 20
-205.9692483472551
 30
0.0
 11
-62.43273542600676
 21
-212.3883008453322
 31
0.0
  0
LINE
  5
127
330
1F
100
AcDbEntity
  8
0-0
  6
Continuous
 62
   120
370
     5
100
AcDbLine
 10
-67.43273542600647
 20
-212.3883008453322
 30
0.0
 11
-62.43273542600676
 21
-212.3883008453322
 31
0.0
  0
LINE
  5
128
330
1F
100
AcDbEntity
  8
0-0
  6
Continuous
 62
   120
370
     5
100
AcDbLine
 10
-62.43273542600676
 20
-179.9692483472549
 30
0.0
 11
-62.43273542600676
 21
-186.388300845332
 31
0.0
  0
LINE
  5
129
330
1F
100
AcDbEntity
  8
0-0
  6
Continuous
 62
   120
370
     5
100
AcDbLine
 10
-67.43273542600647
 20
-186.388300845332
 30
0.0
 11
-62.43273542600676
 21
-186.388300845332
 31
0.0
  0
LINE
  5
12A
330
1F
100
AcDbEntity
  8
0-0
  6
Continuous
 62
   120
370
     5
100
AcDbLine
 10
-62.43273542600676
 20
-153.9692483472547
 30
0.0
 11
-62.43273542600676
 21
-160.3883008453317
 31
0.0
  0
LINE
  5
12B
330
1F
100
AcDbEntity
  8
0-0
  6
Continuous
 62
   120
370
     5
100
AcDbLine
 10
-67.43273542600647
 20
-160.3883008453317
 30
0.0
 11
-62.43273542600676
 21
-160.3883008453317
 31
0.0
  0
LINE
  5
12C
330
1F
100
AcDbEntity
  8
0-0
  6
Continuous
 62
   120
370
     5
100
AcDbLine
 10
-62.43273542600676
 20
-127.9692483472544
 30
0.0
 11
-62.43273542600676
 21
-134.3883008453324
 31
0.0
  0
LINE
  5
12D
330
1F
100
AcDbEntity
  8
0-0
  6
Continuous
 62
   120
370
     5
100
AcDbLine
 10
-67.43273542600647
 20
-134.3883008453324
 30
0.0
 11
-62.43273542600676
 21
-134.3883008453324
 31
0.0
  0
LINE
  5
12E
330
1F
100
AcDbEntity
  8
0-0
  6
Continuous
 62
   120
370
     5
100
AcDbLine
 10
-62.43273542600676
 20
-101.9692483472542
 30
0.0
 11
-62.43273542600676
 21
-108.3883008453321
 31
0.0
  0
LINE
  5
12F
330
1F
100
AcDbEntity
  8
0-0
  6
Continuous
 62
   120
370
     5
100
AcDbLine
 10
-67.43273542600647
 20
-108.3883008453321
 30
0.0
 11
-62.43273542600676
 21
-108.3883008453321
 31
0.0
  0
LINE
  5
130
330
1F
100
AcDbEntity
  8
0-0
  6
Continuous
 62
   120
370
     5
100
AcDbLine
 10
-62.43273542600676
 20
-75.96924834725485
 30
0.0
 11
-62.43273542600676
 21
-82.38830084533191
 31
0.0
  0
LINE
  5
131
330
1F
100
AcDbEntity
  8
0-0
  6
Continuous
 62
   120
370
     5
100
AcDbLine
 10
-67.43273542600647
 20
-82.38830084533191
 30
0.0
 11
-62.43273542600676
 21
-82.38830084533191
 31
0.0
  0
LINE
  5
132
330
1F
100
AcDbEntity
  8
0-0
  6
Continuous
 62
   120
370
     5
100
AcDbLine
 10
-62.43273542600676
 20
-49.96924834725462
 30
0.0
 11
-62.43273542600676
 21
-56.38830084533168
 31
0.0
  0
LINE
  5
133
330
1F
100
AcDbEntity
  8
0-0
  6
Continuous
 62
   120
370
     5
100
AcDbLine
 10
-67.43273542600647
 20
-56.38830084533168
 30
0.0
 11
-62.43273542600676
 21
-56.38830084533168
 31
0.0
  0
LINE
  5
134
330
1F
100
AcDbEntity
  8
0-0
  6
Continuous
 62
   120
370
     5
100
AcDbLine
 10
-62.43273542600676
 20
-23.96924834725439
 30
0.0
 11
-62.43273542600676
 21
-30.38830084533231
 31
0.0
  0
LINE
  5
135
330
1F
100
AcDbEntity
  8
0-0
  6
Continuous
 62
   120
370
     5
100
AcDbLine
 10
-67.43273542600647
 20
-30.38830084533231
 30
0.0
 11
-62.43273542600676
 21
-30.38830084533231
 31
0.0
  0
LINE
  5
136
330
1F
100
AcDbEntity
  8
0-0
  6
Continuous
 62
   120
370
     5
100
AcDbLine
 10
-62.43273542600676
 20
2.030751652745835
 30
0.0
 11
-62.43273542600676
 21
-4.388300845332083
 31
0.0
  0
LINE
  5
137
330
1F
100
AcDbEntity
  8
0-0
  6
Continuous
 62
   120
370
     5
100
AcDbLine
 10
-67.43273542600647
 20
-4.388300845332083
 30
0.0
 11
-62.43273542600676
 21
-4.388300845332083
 31
0.0
  0
LINE
  5
138
330
1F
100
AcDbEntity
  8
0-0
  6
Continuous
 62
   120
370
     5
100
AcDbLine
 10
-62.43273542600676
 20
28.03075165274606
 30
0.0
 11
-62.43273542600676
 21
21.61169915466814
 31
0.0
  0
LINE
  5
139
330
1F
100
AcDbEntity
  8
0-0
  6
Continuous
 62
   120
370
     5
100
AcDbLine
 10
-67.43273542600647
 20
21.61169915466814
 30
0.0
 11
-62.43273542600676
 21
21.61169915466814
 31
0.0
  0
LINE
  5
13A
330
1F
100
AcDbEntity
  8
0-0
  6
Continuous
 62
   120
370
     5
100
AcDbLine
 10
-62.43273542600676
 20
54.03075165274629
 30
0.0
 11
-62.43273542600676
 21
47.61169915466837
 31
0.0
  0
LINE
  5
13B
330
1F
100
AcDbEntity
  8
0-0
  6
Continuous
 62
   120
370
     5
100
AcDbLine
 10
-67.43273542600647
 20
47.61169915466837
 30
0.0
 11
-62.43273542600676
 21
47.61169915466837
 31
0.0
  0
LINE
  5
13C
330
1F
100
AcDbEntity
  8
0-0
  6
Continuous
 62
   120
370
     5
100
AcDbLine
 10
-62.43273542600676
 20
80.03075165274652
 30
0.0
 11
-62.43273542600676
 21
73.6116991546686
 31
0.0
  0
LINE
  5
13D
330
1F
100
AcDbEntity
  8
0-0
  6
Continuous
 62
   120
370
     5
100
AcDbLine
 10
-67.43273542600647
 20
73.6116991546686
 30
0.0
 11
-62.43273542600676
 21
73.6116991546686
 31
0.0
  0
LINE
  5
13E
330
1F
100
AcDbEntity
  8
0-0
  6
Continuous
 62
   120
370
     5
100
AcDbLine
 10
-62.43273542600676
 20
106.0307516527467
 30
0.0
 11
-62.43273542600676
 21
99.61169915466883
 31
0.0
  0
LINE
  5
13F
330
1F
100
AcDbEntity
  8
0-0
  6
Continuous
 62
   120
370
     5
100
AcDbLine
 10
-67.43273542600647
 20
99.61169915466883
 30
0.0
 11
-62.43273542600676
 21
99.61169915466883
 31
0.0
  0
LINE
  5
140
330
1F
100
AcDbEntity
  8
0-0
  6
Continuous
 62
   120
370
     5
100
AcDbLine
 10
-62.43273542600676
 20
132.030751652747
 30
0.0
 11
-62.43273542600676
 21
125.6116991546691
 31
0.0
  0
LINE
  5
141
330
1F
100
AcDbEntity
  8
0-0
  6
Continuous
 62
   120
370
     5
100
AcDbLine
 10
-67.43273542600647
 20
125.6116991546691
 30
0.0
 11
-62.43273542600676
 21
125.6116991546691
 31
0.0
  0
LINE
  5
142
330
1F
100
AcDbEntity
  8
0-0
  6
Continuous
 62
   120
370
     5
100
AcDbLine
 10
-62.43273542600676
 20
158.0307516527463
 30
0.0
 11
-62.43273542600676
 21
151.6116991546693
 31
0.0
  0
LINE
  5
143
330
1F
100
AcDbEntity
  8
0-0
  6
Continuous
 62
   120
370
     5
100
AcDbLine
 10
-67.43273542600647
 20
151.6116991546693
 30
0.0
 11
-62.43273542600676
 21
151.6116991546693
 31
0.0
  0
LINE
  5
144
330
1F
100
AcDbEntity
  8
0-0
  6
Continuous
 62
   120
370
     5
100
AcDbLine
 10
-62.43273542600676
 20
184.0307516527466
 30
0.0
 11
-62.43273542600676
 21
177.6116991546695
 31
0.0
  0
LINE
  5
145
330
1F
100
AcDbEntity
  8
0-0
  6
Continuous
 62
   120
370
     5
100
AcDbLine
 10
-67.43273542600647
 20
177.6116991546695
 30
0.0
 11
-62.43273542600676
 21
177.6116991546695
 31
0.0
  0
LINE
  5
146
330
1F
100
AcDbEntity
  8
0-0
  6
Continuous
 62
   120
370
     5
100
AcDbLine
 10
-62.43273542600676
 20
210.0307516527468
 30
0.0
 11
-62.43273542600676
 21
203.6116991546689
 31
0.0
  0
LINE
  5
147
330
1F
100
AcDbEntity
  8
0-0
  6
Continuous
 62
   120
370
     5
100
AcDbLine
 10
-67.43273542600647
 20
203.6116991546689
 30
0.0
 11
-62.43273542600676
 21
203.6116991546689
 31
0.0
  0
LINE
  5
148
330
1F
100
AcDbEntity
  8
0-0
  6
Continuous
 62
   120
370
     5
100
AcDbLine
 10
-62.43273542600676
 20
236.030751652747
 30
0.0
 11
-62.43273542600676
 21
229.6116991546691
 31
0.0
  0
LINE
  5
149
330
1F
100
AcDbEntity
  8
0-0
  6
Continuous
 62
   120
370
     5
100
AcDbLine
 10
-67.43273542600647
 20
229.6116991546691
 30
0.0
 11
-62.43273542600676
 21
229.6116991546691
 31
0.0
  0
LINE
  5
14A
330
1F
100
AcDbEntity
  8
0-0
  6
Continuous
 62
   120
370
     5
100
AcDbLine
 10
-62.43273542600676
 20
262.0307516527464
 30
0.0
 11
-62.43273542600676
 21
255.6116991546693
 31
0.0
  0
LINE
  5
14B
330
1F
100
AcDbEntity
  8
0-0
  6
Continuous
 62
   120
370
     5
100
AcDbLine
 10
-67.43273542600647
 20
255.6116991546693
 30
0.0
 11
-62.43273542600676
 21
255.6116991546693
 31
0.0
  0
LINE
  5
14C
330
1F
100
AcDbEntity
  8
0-0
  6
Continuous
 62
   120
370
     5
100
AcDbLine
 10
-62.43273542600676
 20
288.0307516527466
 30
0.0
 11
-62.43273542600676
 21
281.6116991546696
 31
0.0
  0
LINE
  5
14D
330
1F
100
AcDbEntity
  8
0-0
  6
Continuous
 62
   120
370
     5
100
AcDbLine
 10
-67.43273542600647
 20
281.6116991546696
 30
0.0
 11
-62.43273542600676
 21
281.6116991546696
 31
0.0
  0
LINE
  5
14E
330
1F
100
AcDbEntity
  8
0-0
  6
Continuous
 62
   120
370
     5
100
AcDbLine
 10
-62.43273542600676
 20
314.0307516527469
 30
0.0
 11
-62.43273542600676
 21
307.6116991546689
 31
0.0
  0
LINE
  5
14F
330
1F
100
AcDbEntity
  8
0-0
  6
Continuous
 62
   120
370
     5
100
AcDbLine
 10
-67.43273542600647
 20
307.6116991546689
 30
0.0
 11
-62.43273542600676
 21
307.6116991546689
 31
0.0
  0
LINE
  5
150
330
1F
100
AcDbEntity
  8
0-0
  6
Continuous
 62
   120
370
     5
100
AcDbLine
 10
-62.43273542600676
 20
340.0307516527471
 30
0.0
 11
-62.43273542600676
 21
333.6116991546692
 31
0.0
  0
LINE
  5
151
330
1F
100
AcDbEntity
  8
0-0
  6
Continuous
 62
   120
370
     5
100
AcDbLine
 10
-67.43273542600647
 20
333.6116991546692
 30
0.0
 11
-62.43273542600676
 21
333.6116991546692
 31
0.0
  0
LINE
  5
152
330
1F
100
AcDbEntity
  8
0-0
  6
Continuous
 62
   120
370
     5
100
AcDbLine
 10
-62.43273542600676
 20
366.0307516527473
 30
0.0
 11
-62.43273542600676
 21
359.6116991546694
 31
0.0
  0
LINE
  5
153
330
1F
100
AcDbEntity
  8
0-0
  6
Continuous
 62
   120
370
     5
100
AcDbLine
 10
-67.43273542600647
 20
359.6116991546694
 30
0.0
 11
-62.43273542600676
 21
359.6116991546694
 31
0.0
  0
LINE
  5
154
330
1F
100
AcDbEntity
  8
0-0
  6
Continuous
 62
   120
370
     5
100
AcDbLine
 10
-62.43273542600676
 20
392.0307516527467
 30
0.0
 11
-62.43273542600676
 21
385.6116991546696
 31
0.0
  0
LINE
  5
155
330
1F
100
AcDbEntity
  8
0-0
  6
Continuous
 62
   120
370
     5
100
AcDbLine
 10
-67.43273542600647
 20
385.6116991546696
 30
0.0
 11
-62.43273542600676
 21
385.6116991546696
 31
0.0
  0
LINE
  5
156
330
1F
100
AcDbEntity
  8
0-0
  6
Continuous
 62
   120
370
     5
100
AcDbLine
 10
-62.43273542600676
 20
418.0307516527469
 30
0.0
 11
-62.43273542600676
 21
411.6116991546699
 31
0.0
  0
LINE
  5
157
330
1F
100
AcDbEntity
  8
0-0
  6
Continuous
 62
   120
370
     5
100
AcDbLine
 10
-67.43273542600647
 20
411.6116991546699
 30
0.0
 11
-62.43273542600676
 21
411.6116991546699
 31
0.0
  0
LINE
  5
158
330
1F
100
AcDbEntity
  8
0-0
  6
Continuous
 62
   120
370
     5
100
AcDbLine
 10
-62.43273542600676
 20
444.0307516527471
 30
0.0
 11
-62.43273542600676
 21
437.6116991546692
 31
0.0
  0
LINE
  5
159
330
1F
100
AcDbEntity
  8
0-0
  6
Continuous
 62
   120
370
     5
100
AcDbLine
 10
-67.43273542600647
 20
437.6116991546692
 30
0.0
 11
-62.43273542600676
 21
437.6116991546692
 31
0.0
  0
LINE
  5
15A
330
1F
100
AcDbEntity
  8
0-0
  6
Continuous
 62
   120
370
     5
100
AcDbLine
 10
-62.43273542600676
 20
470.0307516527474
 30
0.0
 11
-62.43273542600676
 21
463.6116991546695
 31
0.0
  0
LINE
  5
15B
330
1F
100
AcDbEntity
  8
0-0
  6
Continuous
 62
   120
370
     5
100
AcDbLine
 10
-67.43273542600647
 20
463.6116991546695
 30
0.0
 11
-62.43273542600676
 21
463.6116991546695
 31
0.0
  0
LINE
  5
15C
330
1F
100
AcDbEntity
  8
0-0
  6
Continuous
 62
   120
370
     5
100
AcDbLine
 10
-62.43273542600676
 20
496.0307516527476
 30
0.0
 11
-62.43273542600676
 21
489.6116991546697
 31
0.0
  0
LINE
  5
15D
330
1F
100
AcDbEntity
  8
0-0
  6
Continuous
 62
   120
370
     5
100
AcDbLine
 10
-67.43273542600647
 20
489.6116991546697
 30
0.0
 11
-62.43273542600676
 21
489.6116991546697
 31
0.0
  0
LINE
  5
15E
330
1F
100
AcDbEntity
  8
0-0
  6
Continuous
 62
   120
370
     5
100
AcDbLine
 10
-62.43273542600676
 20
522.0307516527478
 30
0.0
 11
-62.43273542600676
 21
515.6116991546699
 31
0.0
  0
LINE
  5
15F
330
1F
100
AcDbEntity
  8
0-0
  6
Continuous
 62
   120
370
     5
100
AcDbLine
 10
-67.43273542600647
 20
515.6116991546699
 30
0.0
 11
-62.43273542600676
 21
515.6116991546699
 31
0.0
  0
LINE
  5
160
330
1F
100
AcDbEntity
  8
0-0
  6
Continuous
 62
   120
370
     5
100
AcDbLine
 10
-62.43273542600676
 20
548.030751652748
 30
0.0
 11
-62.43273542600676
 21
541.6116991546701
 31
0.0
  0
LINE
  5
161
330
1F
100
AcDbEntity
  8
0-0
  6
Continuous
 62
   120
370
     5
100
AcDbLine
 10
-67.43273542600647
 20
541.6116991546701
 30
0.0
 11
-62.43273542600676
 21
541.6116991546701
 31
0.0
  0
LINE
  5
162
330
1F
100
AcDbEntity
  8
0-0
  6
Continuous
 62
   120
370
     5
100
AcDbLine
 10
-62.43273542600676
 20
574.0307516527474
 30
0.0
 11
-62.43273542600676
 21
567.6116991546703
 31
0.0
  0
LINE
  5
163
330
1F
100
AcDbEntity
  8
0-0
  6
Continuous
 62
   120
370
     5
100
AcDbLine
 10
-67.43273542600647
 20
567.6116991546703
 30
0.0
 11
-62.43273542600676
 21
567.6116991546703
 31
0.0
  0
LINE
  5
164
330
1F
100
AcDbEntity
  8
0-0
  6
Continuous
 62
   120
370
     5
100
AcDbLine
 10
-62.43273542600676
 20
600.0307516527477
 30
0.0
 11
-62.43273542600676
 21
593.6116991546705
 31
0.0
  0
LINE
  5
165
330
1F
100
AcDbEntity
  8
0-0
  6
Continuous
 62
   120
370
     5
100
AcDbLine
 10
-67.43273542600647
 20
593.6116991546705
 30
0.0
 11
-62.43273542600676
 21
593.6116991546705
 31
0.0
  0
LINE
  5
166
330
1F
100
AcDbEntity
  8
0-0
  6
Continuous
 62
   120
370
     5
100
AcDbLine
 10
-62.43273542600676
 20
626.0307516527479
 30
0.0
 11
-62.43273542600676
 21
619.61169915467
 31
0.0
  0
LINE
  5
167
330
1F
100
AcDbEntity
  8
0-0
  6
Continuous
 62
   120
370
     5
100
AcDbLine
 10
-67.43273542600647
 20
619.61169915467
 30
0.0
 11
-62.43273542600676
 21
619.61169915467
 31
0.0
  0
LINE
  5
168
330
1F
100
AcDbEntity
  8
0-0
  6
Continuous
 62
   120
370
     5
100
AcDbLine
 10
-62.43273542600676
 20
652.0307516527481
 30
0.0
 11
-62.43273542600676
 21
645.6116991546702
 31
0.0
  0
LINE
  5
169
330
1F
100
AcDbEntity
  8
0-0
  6
Continuous
 62
   120
370
     5
100
AcDbLine
 10
-67.43273542600647
 20
645.6116991546702
 30
0.0
 11
-62.43273542600676
 21
645.6116991546702
 31
0.0
  0
LINE
  5
16A
330
1F
100
AcDbEntity
  8
0-0
  6
Continuous
 62
   120
370
     5
100
AcDbLine
 10
-62.43273542600676
 20
678.0307516527483
 30
0.0
 11
-62.43273542600676
 21
671.6116991546704
 31
0.0
  0
LINE
  5
16B
330
1F
100
AcDbEntity
  8
0-0
  6
Continuous
 62
   120
370
     5
100
AcDbLine
 10
-67.43273542600647
 20
671.6116991546704
 30
0.0
 11
-62.43273542600676
 21
671.6116991546704
 31
0.0
  0
LINE
  5
16C
330
1F
100
AcDbEntity
  8
0-0
  6
Continuous
 62
   120
370
     5
100
AcDbLine
 10
-62.43273542600676
 20
704.0307516527486
 30
0.0
 11
-62.43273542600676
 21
697.6116991546706
 31
0.0
  0
LINE
  5
16D
330
1F
100
AcDbEntity
  8
0-0
  6
Continuous
 62
   120
370
     5
100
AcDbLine
 10
-67.43273542600647
 20
697.6116991546706
 30
0.0
 11
-62.43273542600676
 21
697.6116991546706
 31
0.0
  0
LINE
  5
16E
330
1F
100
AcDbEntity
  8
0-0
  6
Continuous
 62
   120
370
     5
100
AcDbLine
 10
-62.43273542600676
 20
730.0307516527488
 30
0.0
 11
-62.43273542600676
 21
723.6116991546709
 31
0.0
  0
LINE
  5
16F
330
1F
100
AcDbEntity
  8
0-0
  6
Continuous
 62
   120
370
     5
100
AcDbLine
 10
-67.43273542600647
 20
723.6116991546709
 30
0.0
 11
-62.43273542600676
 21
723.6116991546709
 31
0.0
  0
LINE
  5
170
330
1F
100
AcDbEntity
  8
0-0
  6
Continuous
 62
   120
370
     5
100
AcDbLine
 10
-62.43273542600676
 20
756.030751652749
 30
0.0
 11
-62.43273542600676
 21
749.6116991546711
 31
0.0
  0
LINE
  5
171
330
1F
100
AcDbEntity
  8
0-0
  6
Continuous
 62
   120
370
     5
100
AcDbLine
 10
-67.43273542600647
 20
749.6116991546711
 30
0.0
 11
-62.43273542600676
 21
749.6116991546711
 31
0.0
  0
LINE
  5
172
330
1F
100
AcDbEntity
  8
0-0
  6
Continuous
 62
   120
370
     5
100
AcDbLine
 10
-62.43273542600676
 20
782.0307516527484
 30
0.0
 11
-62.43273542600676
 21
775.6116991546713
 31
0.0
  0
LINE
  5
173
330
1F
100
AcDbEntity
  8
0-0
  6
Continuous
 62
   120
370
     5
100
AcDbLine
 10
-67.43273542600647
 20
775.6116991546713
 30
0.0
 11
-62.43273542600676
 21
775.6116991546713
 31
0.0
  0
LINE
  5
174
330
1F
100
AcDbEntity
  8
0-0
  6
Continuous
 62
   120
370
     5
100
AcDbLine
 10
-62.43273542600676
 20
808.0307516527487
 30
0.0
 11
-62.43273542600676
 21
801.6116991546716
 31
0.0
  0
LINE
  5
175
330
1F
100
AcDbEntity
  8
0-0
  6
Continuous
 62
   120
370
     5
100
AcDbLine
 10
-67.43273542600647
 20
801.6116991546716
 30
0.0
 11
-62.43273542600676
 21
801.6116991546716
 31
0.0
  0
LINE
  5
176
330
1F
100
AcDbEntity
  8
0-0
  6
Continuous
 62
   120
370
     5
100
AcDbLine
 10
-62.43273542600676
 20
834.0307516527489
 30
0.0
 11
-62.43273542600676
 21
827.611699154671
 31
0.0
  0
LINE
  5
177
330
1F
100
AcDbEntity
  8
0-0
  6
Continuous
 62
   120
370
     5
100
AcDbLine
 10
-67.43273542600647
 20
827.611699154671
 30
0.0
 11
-62.43273542600676
 21
827.611699154671
 31
0.0
  0
LINE
  5
178
330
1F
100
AcDbEntity
  8
0-0
  6
Continuous
 62
   120
370
     5
100
AcDbLine
 10
-62.43273542600676
 20
860.0307516527491
 30
0.0
 11
-62.43273542600676
 21
853.6116991546712
 31
0.0
  0
LINE
  5
179
330
1F
100
AcDbEntity
  8
0-0
  6
Continuous
 62
   120
370
     5
100
AcDbLine
 10
-67.43273542600647
 20
853.6116991546712
 30
0.0
 11
-62.43273542600676
 21
853.6116991546712
 31
0.0
  0
LINE
  5
17A
330
1F
100
AcDbEntity
  8
0-0
  6
Continuous
 62
   120
370
     5
100
AcDbLine
 10
155.5672645739928
 20
-810.388300845334
 30
0.0
 11
160.5672645739934
 21
-810.388300845334
 31
0.0
  0
LINE
  5
17B
330
1F
100
AcDbEntity
  8
0-0
  6
Continuous
 62
   120
370
     5
100
AcDbLine
 10
155.5672645739928
 20
-803.969248347257
 30
0.0
 11
155.5672645739928
 21
-810.388300845334
 31
0.0
  0
LINE
  5
17C
330
1F
100
AcDbEntity
  8
0-0
  6
Continuous
 62
   120
370
     5
100
AcDbLine
 10
155.5672645739928
 20
-784.3883008453347
 30
0.0
 11
160.5672645739934
 21
-784.3883008453347
 31
0.0
  0
LINE
  5
17D
330
1F
100
AcDbEntity
  8
0-0
  6
Continuous
 62
   120
370
     5
100
AcDbLine
 10
155.5672645739928
 20
-777.9692483472568
 30
0.0
 11
155.5672645739928
 21
-784.3883008453347
 31
0.0
  0
LINE
  5
17E
330
1F
100
AcDbEntity
  8
0-0
  6
Continuous
 62
   120
370
     5
100
AcDbLine
 10
155.5672645739928
 20
-758.3883008453345
 30
0.0
 11
160.5672645739934
 21
-758.3883008453345
 31
0.0
  0
LINE
  5
17F
330
1F
100
AcDbEntity
  8
0-0
  6
Continuous
 62
   120
370
     5
100
AcDbLine
 10
155.5672645739928
 20
-751.9692483472566
 30
0.0
 11
155.5672645739928
 21
-758.3883008453345
 31
0.0
  0
LINE
  5
180
330
1F
100
AcDbEntity
  8
0-0
  6
Continuous
 62
   120
370
     5
100
AcDbLine
 10
155.5672645739928
 20
-732.3883008453342
 30
0.0
 11
160.5672645739934
 21
-732.3883008453342
 31
0.0
  0
LINE
  5
181
330
1F
100
AcDbEntity
  8
0-0
  6
Continuous
 62
   120
370
     5
100
AcDbLine
 10
155.5672645739928
 20
-725.9692483472563
 30
0.0
 11
155.5672645739928
 21
-732.3883008453342
 31
0.0
  0
LINE
  5
182
330
1F
100
AcDbEntity
  8
0-0
  6
Continuous
 62
   120
370
     5
100
AcDbLine
 10
155.5672645739928
 20
-706.388300845334
 30
0.0
 11
160.5672645739934
 21
-706.388300845334
 31
0.0
  0
LINE
  5
183
330
1F
100
AcDbEntity
  8
0-0
  6
Continuous
 62
   120
370
     5
100
AcDbLine
 10
155.5672645739928
 20
-699.9692483472561
 30
0.0
 11
155.5672645739928
 21
-706.388300845334
 31
0.0
  0
LINE
  5
184
330
1F
100
AcDbEntity
  8
0-0
  6
Continuous
 62
   120
370
     5
100
AcDbLine
 10
155.5672645739928
 20
-680.3883008453338
 30
0.0
 11
160.5672645739934
 21
-680.3883008453338
 31
0.0
  0
LINE
  5
185
330
1F
100
AcDbEntity
  8
0-0
  6
Continuous
 62
   120
370
     5
100
AcDbLine
 10
155.5672645739928
 20
-673.9692483472567
 30
0.0
 11
155.5672645739928
 21
-680.3883008453338
 31
0.0
  0
LINE
  5
186
330
1F
100
AcDbEntity
  8
0-0
  6
Continuous
 62
   120
370
     5
100
AcDbLine
 10
155.5672645739928
 20
-654.3883008453344
 30
0.0
 11
160.5672645739934
 21
-654.3883008453344
 31
0.0
  0
LINE
  5
187
330
1F
100
AcDbEntity
  8
0-0
  6
Continuous
 62
   120
370
     5
100
AcDbLine
 10
155.5672645739928
 20
-647.9692483472564
 30
0.0
 11
155.5672645739928
 21
-654.3883008453344
 31
0.0
  0
LINE
  5
188
330
1F
100
AcDbEntity
  8
0-0
  6
Continuous
 62
   120
370
     5
100
AcDbLine
 10
155.5672645739928
 20
-628.3883008453341
 30
0.0
 11
160.5672645739934
 21
-628.3883008453341
 31
0.0
  0
LINE
  5
189
330
1F
100
AcDbEntity
  8
0-0
  6
Continuous
 62
   120
370
     5
100
AcDbLine
 10
155.5672645739928
 20
-621.9692483472562
 30
0.0
 11
155.5672645739928
 21
-628.3883008453341
 31
0.0
  0
LINE
  5
18A
330
1F
100
AcDbEntity
  8
0-0
  6
Continuous
 62
   120
370
     5
100
AcDbLine
 10
155.5672645739928
 20
-602.3883008453339
 30
0.0
 11
160.5672645739934
 21
-602.3883008453339
 31
0.0
  0
LINE
  5
18B
330
1F
100
AcDbEntity
  8
0-0
  6
Continuous
 62
   120
370
     5
100
AcDbLine
 10
155.5672645739928
 20
-595.969248347256
 30
0.0
 11
155.5672645739928
 21
-602.3883008453339
 31
0.0
  0
LINE
  5
18C
330
1F
100
AcDbEntity
  8
0-0
  6
Continuous
 62
   120
370
     5
100
AcDbLine
 10
155.5672645739928
 20
-576.3883008453337
 30
0.0
 11
160.5672645739934
 21
-576.3883008453337
 31
0.0
  0
LINE
  5
18D
330
1F
100
AcDbEntity
  8
0-0
  6
Continuous
 62
   120
370
     5
100
AcDbLine
 10
155.5672645739928
 20
-569.9692483472558
 30
0.0
 11
155.5672645739928
 21
-576.3883008453337
 31
0.0
  0
LINE
  5
18E
330
1F
100
AcDbEntity
  8
0-0
  6
Continuous
 62
   120
370
     5
100
AcDbLine
 10
155.5672645739928
 20
-550.3883008453334
 30
0.0
 11
160.5672645739934
 21
-550.3883008453334
 31
0.0
  0
LINE
  5
18F
330
1F
100
AcDbEntity
  8
0-0
  6
Continuous
 62
   120
370
     5
100
AcDbLine
 10
155.5672645739928
 20
-543.9692483472555
 30
0.0
 11
155.5672645739928
 21
-550.3883008453334
 31
0.0
  0
LINE
  5
190
330
1F
100
AcDbEntity
  8
0-0
  6
Continuous
 62
   120
370
     5
100
AcDbLine
 10
155.5672645739928
 20
-524.3883008453332
 30
0.0
 11
160.5672645739934
 21
-524.3883008453332
 31
0.0
  0
LINE
  5
191
330
1F
100
AcDbEntity
  8
0-0
  6
Continuous
 62
   120
370
     5
100
AcDbLine
 10
155.5672645739928
 20
-517.9692483472553
 30
0.0
 11
155.5672645739928
 21
-524.3883008453332
 31
0.0
  0
LINE
  5
192
330
1F
100
AcDbEntity
  8
0-0
  6
Continuous
 62
   120
370
     5
100
AcDbLine
 10
155.5672645739928
 20
-498.388300845333
 30
0.0
 11
160.5672645739934
 21
-498.388300845333
 31
0.0
  0
LINE
  5
193
330
1F
100
AcDbEntity
  8
0-0
  6
Continuous
 62
   120
370
     5
100
AcDbLine
 10
155.5672645739928
 20
-491.9692483472551
 30
0.0
 11
155.5672645739928
 21
-498.388300845333
 31
0.0
  0
LINE
  5
194
330
1F
100
AcDbEntity
  8
0-0
  6
Continuous
 62
   120
370
     5
100
AcDbLine
 10
155.5672645739928
 20
-472.3883008453328
 30
0.0
 11
160.5672645739934
 21
-472.3883008453328
 31
0.0
  0
LINE
  5
195
330
1F
100
AcDbEntity
  8
0-0
  6
Continuous
 62
   120
370
     5
100
AcDbLine
 10
155.5672645739928
 20
-465.9692483472557
 30
0.0
 11
155.5672645739928
 21
-472.3883008453328
 31
0.0
  0
LINE
  5
196
330
1F
100
AcDbEntity
  8
0-0
  6
Continuous
 62
   120
370
     5
100
AcDbLine
 10
155.5672645739928
 20
-446.3883008453325
 30
0.0
 11
160.5672645739934
 21
-446.3883008453325
 31
0.0
  0
LINE
  5
197
330
1F
100
AcDbEntity
  8
0-0
  6
Continuous
 62
   120
370
     5
100
AcDbLine
 10
155.5672645739928
 20
-439.9692483472563
 30
0.0
 11
155.5672645739928
 21
-446.3883008453325
 31
0.0
  0
LINE
  5
198
330
1F
100
AcDbEntity
  8
0-0
  6
Continuous
 62
   120
370
     5
100
AcDbLine
 10
155.5672645739928
 20
-420.3883008453332
 30
0.0
 11
160.5672645739934
 21
-420.3883008453332
 31
0.0
  0
LINE
  5
199
330
1F
100
AcDbEntity
  8
0-0
  6
Continuous
 62
   120
370
     5
100
AcDbLine
 10
155.5672645739928
 20
-413.9692483472552
 30
0.0
 11
155.5672645739928
 21
-420.3883008453332
 31
0.0
  0
LINE
  5
19A
330
1F
100
AcDbEntity
  8
0-0
  6
Continuous
 62
   120
370
     5
100
AcDbLine
 10
155.5672645739928
 20
-394.3883008453329
 30
0.0
 11
160.5672645739934
 21
-394.3883008453329
 31
0.0
  0
LINE
  5
19B
330
1F
100
AcDbEntity
  8
0-0
  6
Continuous
 62
   120
370
     5
100
AcDbLine
 10
155.5672645739928
 20
-387.969248347255
 30
0.0
 11
155.5672645739928
 21
-394.3883008453329
 31
0.0
  0
LINE
  5
19C
330
1F
100
AcDbEntity
  8
0-0
  6
Continuous
 62
   120
370
     5
100
AcDbLine
 10
155.5672645739928
 20
-368.3883008453327
 30
0.0
 11
160.5672645739934
 21
-368.3883008453327
 31
0.0
  0
LINE
  5
19D
330
1F
100
AcDbEntity
  8
0-0
  6
Continuous
 62
   120
370
     5
100
AcDbLine
 10
155.5672645739928
 20
-361.9692483472548
 30
0.0
 11
155.5672645739928
 21
-368.3883008453327
 31
0.0
  0
LINE
  5
19E
330
1F
100
AcDbEntity
  8
0-0
  6
Continuous
 62
   120
370
     5
100
AcDbLine
 10
155.5672645739928
 20
-342.3883008453325
 30
0.0
 11
160.5672645739934
 21
-342.3883008453325
 31
0.0
  0
LINE
  5
19F
330
1F
100
AcDbEntity
  8
0-0
  6
Continuous
 62
   120
370
     5
100
AcDbLine
 10
155.5672645739928
 20
-335.9692483472554
 30
0.0
 11
155.5672645739928
 21
-342.3883008453325
 31
0.0
  0
LINE
  5
1A0
330
1F
100
AcDbEntity
  8
0-0
  6
Continuous
 62
   120
370
     5
100
AcDbLine
 10
155.5672645739928
 20
-316.3883008453323
 30
0.0
 11
160.5672645739934
 21
-316.3883008453323
 31
0.0
  0
LINE
  5
1A1
330
1F
100
AcDbEntity
  8
0-0
  6
Continuous
 62
   120
370
     5
100
AcDbLine
 10
155.5672645739928
 20
-309.9692483472552
 30
0.0
 11
155.5672645739928
 21
-316.3883008453323
 31
0.0
  0
LINE
  5
1A2
330
1F
100
AcDbEntity
  8
0-0
  6
Continuous
 62
   120
370
     5
100
AcDbLine
 10
155.5672645739928
 20
-290.3883008453329
 30
0.0
 11
160.5672645739934
 21
-290.3883008453329
 31
0.0
  0
LINE
  5
1A3
330
1F
100
AcDbEntity
  8
0-0
  6
Continuous
 62
   120
370
     5
100
AcDbLine
 10
155.5672645739928
 20
-283.969248347255
 30
0.0
 11
155.5672645739928
 21
-290.3883008453329
 31
0.0
  0
LINE
  5
1A4
330
1F
100
AcDbEntity
  8
0-0
  6
Continuous
 62
   120
370
     5
100
AcDbLine
 10
155.5672645739928
 20
-264.3883008453327
 30
0.0
 11
160.5672645739934
 21
-264.3883008453327
 31
0.0
  0
LINE
  5
1A5
330
1F
100
AcDbEntity
  8
0-0
  6
Continuous
 62
   120
370
     5
100
AcDbLine
 10
155.5672645739928
 20
-257.9692483472547
 30
0.0
 11
155.5672645739928
 21
-264.3883008453327
 31
0.0
  0
LINE
  5
1A6
330
1F
100
AcDbEntity
  8
0-0
  6
Continuous
 62
   120
370
     5
100
AcDbLine
 10
155.5672645739928
 20
-238.3883008453324
 30
0.0
 11
160.5672645739934
 21
-238.3883008453324
 31
0.0
  0
LINE
  5
1A7
330
1F
100
AcDbEntity
  8
0-0
  6
Continuous
 62
   120
370
     5
100
AcDbLine
 10
155.5672645739928
 20
-231.9692483472545
 30
0.0
 11
155.5672645739928
 21
-238.3883008453324
 31
0.0
  0
LINE
  5
1A8
330
1F
100
AcDbEntity
  8
0-0
  6
Continuous
 62
   120
370
     5
100
AcDbLine
 10
155.5672645739928
 20
-212.3883008453322
 30
0.0
 11
160.5672645739934
 21
-212.3883008453322
 31
0.0
  0
LINE
  5
1A9
330
1F
100
AcDbEntity
  8
0-0
  6
Continuous
 62
   120
370
     5
100
AcDbLine
 10
155.5672645739928
 20
-205.9692483472551
 30
0.0
 11
155.5672645739928
 21
-212.3883008453322
 31
0.0
  0
LINE
  5
1AA
330
1F
100
AcDbEntity
  8
0-0
  6
Continuous
 62
   120
370
     5
100
AcDbLine
 10
155.5672645739928
 20
-186.388300845332
 30
0.0
 11
160.5672645739934
 21
-186.388300845332
 31
0.0
  0
LINE
  5
1AB
330
1F
100
AcDbEntity
  8
0-0
  6
Continuous
 62
   120
370
     5
100
AcDbLine
 10
155.5672645739928
 20
-179.9692483472549
 30
0.0
 11
155.5672645739928
 21
-186.388300845332
 31
0.0
  0
LINE
  5
1AC
330
1F
100
AcDbEntity
  8
0-0
  6
Continuous
 62
   120
370
     5
100
AcDbLine
 10
155.5672645739928
 20
-160.3883008453317
 30
0.0
 11
160.5672645739934
 21
-160.3883008453317
 31
0.0
  0
LINE
  5
1AD
330
1F
100
AcDbEntity
  8
0-0
  6
Continuous
 62
   120
370
     5
100
AcDbLine
 10
155.5672645739928
 20
-153.9692483472547
 30
0.0
 11
155.5672645739928
 21
-160.3883008453317
 31
0.0
  0
LINE
  5
1AE
330
1F
100
AcDbEntity
  8
0-0
  6
Continuous
 62
   120
370
     5
100
AcDbLine
 10
155.5672645739928
 20
-134.3883008453324
 30
0.0
 11
160.5672645739934
 21
-134.3883008453324
 31
0.0
  0
LINE
  5
1AF
330
1F
100
AcDbEntity
  8
0-0
  6
Continuous
 62
   120
370
     5
100
AcDbLine
 10
155.5672645739928
 20
-127.9692483472544
 30
0.0
 11
155.5672645739928
 21
-134.3883008453324
 31
0.0
  0
LINE
  5
1B0
330
1F
100
AcDbEntity
  8
0-0
  6
Continuous
 62
   120
370
     5
100
AcDbLine
 10
155.5672645739928
 20
-108.3883008453321
 30
0.0
 11
160.5672645739934
 21
-108.3883008453321
 31
0.0
  0
LINE
  5
1B1
330
1F
100
AcDbEntity
  8
0-0
  6
Continuous
 62
   120
370
     5
100
AcDbLine
 10
155.5672645739928
 20
-101.9692483472542
 30
0.0
 11
155.5672645739928
 21
-108.3883008453321
 31
0.0
  0
LINE
  5
1B2
330
1F
100
AcDbEntity
  8
0-0
  6
Continuous
 62
   120
370
     5
100
AcDbLine
 10
155.5672645739928
 20
-82.38830084533191
 30
0.0
 11
160.5672645739934
 21
-82.38830084533191
 31
0.0
  0
LINE
  5
1B3
330
1F
100
AcDbEntity
  8
0-0
  6
Continuous
 62
   120
370
     5
100
AcDbLine
 10
155.5672645739928
 20
-75.96924834725485
 30
0.0
 11
155.5672645739928
 21
-82.38830084533191
 31
0.0
  0
LINE
  5
1B4
330
1F
100
AcDbEntity
  8
0-0
  6
Continuous
 62
   120
370
     5
100
AcDbLine
 10
155.5672645739928
 20
-56.38830084533168
 30
0.0
 11
160.5672645739934
 21
-56.38830084533168
 31
0.0
  0
LINE
  5
1B5
330
1F
100
AcDbEntity
  8
0-0
  6
Continuous
 62
   120
370
     5
100
AcDbLine
 10
155.5672645739928
 20
-49.96924834725462
 30
0.0
 11
155.5672645739928
 21
-56.38830084533168
 31
0.0
  0
LINE
  5
1B6
330
1F
100
AcDbEntity
  8
0-0
  6
Continuous
 62
   120
370
     5
100
AcDbLine
 10
155.5672645739928
 20
-30.38830084533231
 30
0.0
 11
160.5672645739934
 21
-30.38830084533231
 31
0.0
  0
LINE
  5
1B7
330
1F
100
AcDbEntity
  8
0-0
  6
Continuous
 62
   120
370
     5
100
AcDbLine
 10
155.5672645739928
 20
-23.96924834725439
 30
0.0
 11
155.5672645739928
 21
-30.38830084533231
 31
0.0
  0
LINE
  5
1B8
330
1F
100
AcDbEntity
  8
0-0
  6
Continuous
 62
   120
370
     5
100
AcDbLine
 10
155.5672645739928
 20
-4.388300845332083
 30
0.0
 11
160.5672645739934
 21
-4.388300845332083
 31
0.0
  0
LINE
  5
1B9
330
1F
100
AcDbEntity
  8
0-0
  6
Continuous
 62
   120
370
     5
100
AcDbLine
 10
155.5672645739928
 20
2.030751652745835
 30
0.0
 11
155.5672645739928
 21
-4.388300845332083
 31
0.0
  0
LINE
  5
1BA
330
1F
100
AcDbEntity
  8
0-0
  6
Continuous
 62
   120
370
     5
100
AcDbLine
 10
155.5672645739928
 20
21.61169915466814
 30
0.0
 11
160.5672645739934
 21
21.61169915466814
 31
0.0
  0
LINE
  5
1BB
330
1F
100
AcDbEntity
  8
0-0
  6
Continuous
 62
   120
370
     5
100
AcDbLine
 10
155.5672645739928
 20
28.03075165274606
 30
0.0
 11
155.5672645739928
 21
21.61169915466814
 31
0.0
  0
LINE
  5
1BC
330
1F
100
AcDbEntity
  8
0-0
  6
Continuous
 62
   120
370
     5
100
AcDbLine
 10
155.5672645739928
 20
47.61169915466837
 30
0.0
 11
160.5672645739934
 21
47.61169915466837
 31
0.0
  0
LINE
  5
1BD
330
1F
100
AcDbEntity
  8
0-0
  6
Continuous
 62
   120
370
     5
100
AcDbLine
 10
155.5672645739928
 20
54.03075165274629
 30
0.0
 11
155.5672645739928
 21
47.61169915466837
 31
0.0
  0
LINE
  5
1BE
330
1F
100
AcDbEntity
  8
0-0
  6
Continuous
 62
   120
370
     5
100
AcDbLine
 10
155.5672645739928
 20
73.6116991546686
 30
0.0
 11
160.5672645739934
 21
73.6116991546686
 31
0.0
  0
LINE
  5
1BF
330
1F
100
AcDbEntity
  8
0-0
  6
Continuous
 62
   120
370
     5
100
AcDbLine
 10
155.5672645739928
 20
80.03075165274652
 30
0.0
 11
155.5672645739928
 21
73.6116991546686
 31
0.0
  0
LINE
  5
1C0
330
1F
100
AcDbEntity
  8
0-0
  6
Continuous
 62
   120
370
     5
100
AcDbLine
 10
155.5672645739928
 20
99.61169915466883
 30
0.0
 11
160.5672645739934
 21
99.61169915466883
 31
0.0
  0
LINE
  5
1C1
330
1F
100
AcDbEntity
  8
0-0
  6
Continuous
 62
   120
370
     5
100
AcDbLine
 10
155.5672645739928
 20
106.0307516527467
 30
0.0
 11
155.5672645739928
 21
99.61169915466883
 31
0.0
  0
LINE
  5
1C2
330
1F
100
AcDbEntity
  8
0-0
  6
Continuous
 62
   120
370
     5
100
AcDbLine
 10
155.5672645739928
 20
125.6116991546691
 30
0.0
 11
160.5672645739934
 21
125.6116991546691
 31
0.0
  0
LINE
  5
1C3
330
1F
100
AcDbEntity
  8
0-0
  6
Continuous
 62
   120
370
     5
100
AcDbLine
 10
155.5672645739928
 20
132.030751652747
 30
0.0
 11
155.5672645739928
 21
125.6116991546691
 31
0.0
  0
LINE
  5
1C4
330
1F
100
AcDbEntity
  8
0-0
  6
Continuous
 62
   120
370
     5
100
AcDbLine
 10
155.5672645739928
 20
151.6116991546693
 30
0.0
 11
160.5672645739934
 21
151.6116991546693
 31
0.0
  0
LINE
  5
1C5
330
1F
100
AcDbEntity
  8
0-0
  6
Continuous
 62
   120
370
     5
100
AcDbLine
 10
155.5672645739928
 20
158.0307516527463
 30
0.0
 11
155.5672645739928
 21
151.6116991546693
 31
0.0
  0
LINE
  5
1C6
330
1F
100
AcDbEntity
  8
0-0
  6
Continuous
 62
   120
370
     5
100
AcDbLine
 10
155.5672645739928
 20
177.6116991546695
 30
0.0
 11
160.5672645739934
 21
177.6116991546695
 31
0.0
  0
LINE
  5
1C7
330
1F
100
AcDbEntity
  8
0-0
  6
Continuous
 62
   120
370
     5
100
AcDbLine
 10
155.5672645739928
 20
184.0307516527466
 30
0.0
 11
155.5672645739928
 21
177.6116991546695
 31
0.0
  0
LINE
  5
1C8
330
1F
100
AcDbEntity
  8
0-0
  6
Continuous
 62
   120
370
     5
100
AcDbLine
 10
155.5672645739928
 20
203.6116991546689
 30
0.0
 11
160.5672645739934
 21
203.6116991546689
 31
0.0
  0
LINE
  5
1C9
330
1F
100
AcDbEntity
  8
0-0
  6
Continuous
 62
   120
370
     5
100
AcDbLine
 10
155.5672645739928
 20
210.0307516527468
 30
0.0
 11
155.5672645739928
 21
203.6116991546689
 31
0.0
  0
LINE
  5
1CA
330
1F
100
AcDbEntity
  8
0-0
  6
Continuous
 62
   120
370
     5
100
AcDbLine
 10
155.5672645739928
 20
229.6116991546691
 30
0.0
 11
160.5672645739934
 21
229.6116991546691
 31
0.0
  0
LINE
  5
1CB
330
1F
100
AcDbEntity
  8
0-0
  6
Continuous
 62
   120
370
     5
100
AcDbLine
 10
155.5672645739928
 20
236.030751652747
 30
0.0
 11
155.5672645739928
 21
229.6116991546691
 31
0.0
  0
LINE
  5
1CC
330
1F
100
AcDbEntity
  8
0-0
  6
Continuous
 62
   120
370
     5
100
AcDbLine
 10
155.5672645739928
 20
255.6116991546693
 30
0.0
 11
160.5672645739934
 21
255.6116991546693
 31
0.0
  0
LINE
  5
1CD
330
1F
100
AcDbEntity
  8
0-0
  6
Continuous
 62
   120
370
     5
100
AcDbLine
 10
155.5672645739928
 20
262.0307516527464
 30
0.0
 11
155.5672645739928
 21
255.6116991546693
 31
0.0
  0
LINE
  5
1CE
330
1F
100
AcDbEntity
  8
0-0
  6
Continuous
 62
   120
370
     5
100
AcDbLine
 10
155.5672645739928
 20
281.6116991546696
 30
0.0
 11
160.5672645739934
 21
281.6116991546696
 31
0.0
  0
LINE
  5
1CF
330
1F
100
AcDbEntity
  8
0-0
  6
Continuous
 62
   120
370
     5
100
AcDbLine
 10
155.5672645739928
 20
288.0307516527466
 30
0.0
 11
155.5672645739928
 21
281.6116991546696
 31
0.0
  0
LINE
  5
1D0
330
1F
100
AcDbEntity
  8
0-0
  6
Continuous
 62
   120
370
     5
100
AcDbLine
 10
155.5672645739928
 20
307.6116991546689
 30
0.0
 11
160.5672645739934
 21
307.6116991546689
 31
0.0
  0
LINE
  5
1D1
330
1F
100
AcDbEntity
  8
0-0
  6
Continuous
 62
   120
370
     5
100
AcDbLine
 10
155.5672645739928
 20
314.0307516527469
 30
0.0
 11
155.5672645739928
 21
307.6116991546689
 31
0.0
  0
LINE
  5
1D2
330
1F
100
AcDbEntity
  8
0-0
  6
Continuous
 62
   120
370
     5
100
AcDbLine
 10
155.5672645739928
 20
333.6116991546692
 30
0.0
 11
160.5672645739934
 21
333.6116991546692
 31
0.0
  0
LINE
  5
1D3
330
1F
100
AcDbEntity
  8
0-0
  6
Continuous
 62
   120
370
     5
100
AcDbLine
 10
155.5672645739928
 20
340.0307516527471
 30
0.0
 11
155.5672645739928
 21
333.6116991546692
 31
0.0
  0
LINE
  5
1D4
330
1F
100
AcDbEntity
  8
0-0
  6
Continuous
 62
   120
370
     5
100
AcDbLine
 10
155.5672645739928
 20
359.6116991546694
 30
0.0
 11
160.5672645739934
 21
359.6116991546694
 31
0.0
  0
LINE
  5
1D5
330
1F
100
AcDbEntity
  8
0-0
  6
Continuous
 62
   120
370
     5
100
AcDbLine
 10
155.5672645739928
 20
366.0307516527473
 30
0.0
 11
155.5672645739928
 21
359.6116991546694
 31
0.0
  0
LINE
  5
1D6
330
1F
100
AcDbEntity
  8
0-0
  6
Continuous
 62
   120
370
     5
100
AcDbLine
 10
155.5672645739928
 20
385.6116991546696
 30
0.0
 11
160.5672645739934
 21
385.6116991546696
 31
0.0
  0
LINE
  5
1D7
330
1F
100
AcDbEntity
  8
0-0
  6
Continuous
 62
   120
370
     5
100
AcDbLine
 10
155.5672645739928
 20
392.0307516527467
 30
0.0
 11
155.5672645739928
 21
385.6116991546696
 31
0.0
  0
LINE
  5
1D8
330
1F
100
AcDbEntity
  8
0-0
  6
Continuous
 62
   120
370
     5
100
AcDbLine
 10
155.5672645739928
 20
411.6116991546699
 30
0.0
 11
160.5672645739934
 21
411.6116991546699
 31
0.0
  0
LINE
  5
1D9
330
1F
100
AcDbEntity
  8
0-0
  6
Continuous
 62
   120
370
     5
100
AcDbLine
 10
155.5672645739928
 20
418.0307516527469
 30
0.0
 11
155.5672645739928
 21
411.6116991546699
 31
0.0
  0
LINE
  5
1DA
330
1F
100
AcDbEntity
  8
0-0
  6
Continuous
 62
   120
370
     5
100
AcDbLine
 10
155.5672645739928
 20
437.6116991546692
 30
0.0
 11
160.5672645739934
 21
437.6116991546692
 31
0.0
  0
LINE
  5
1DB
330
1F
100
AcDbEntity
  8
0-0
  6
Continuous
 62
   120
370
     5
100
AcDbLine
 10
155.5672645739928
 20
444.0307516527471
 30
0.0
 11
155.5672645739928
 21
437.6116991546692
 31
0.0
  0
LINE
  5
1DC
330
1F
100
AcDbEntity
  8
0-0
  6
Continuous
 62
   120
370
     5
100
AcDbLine
 10
155.5672645739928
 20
463.6116991546695
 30
0.0
 11
160.5672645739934
 21
463.6116991546695
 31
0.0
  0
LINE
  5
1DD
330
1F
100
AcDbEntity
  8
0-0
  6
Continuous
 62
   120
370
     5
100
AcDbLine
 10
155.5672645739928
 20
470.0307516527474
 30
0.0
 11
155.5672645739928
 21
463.6116991546695
 31
0.0
  0
LINE
  5
1DE
330
1F
100
AcDbEntity
  8
0-0
  6
Continuous
 62
   120
370
     5
100
AcDbLine
 10
155.5672645739928
 20
489.6116991546697
 30
0.0
 11
160.5672645739934
 21
489.6116991546697
 31
0.0
  0
LINE
  5
1DF
330
1F
100
AcDbEntity
  8
0-0
  6
Continuous
 62
   120
370
     5
100
AcDbLine
 10
155.5672645739928
 20
496.0307516527476
 30
0.0
 11
155.5672645739928
 21
489.6116991546697
 31
0.0
  0
LINE
  5
1E0
330
1F
100
AcDbEntity
  8
0-0
  6
Continuous
 62
   120
370
     5
100
AcDbLine
 10
155.5672645739928
 20
515.6116991546699
 30
0.0
 11
160.5672645739934
 21
515.6116991546699
 31
0.0
  0
LINE
  5
1E1
330
1F
100
AcDbEntity
  8
0-0
  6
Continuous
 62
   120
370
     5
100
AcDbLine
 10
155.5672645739928
 20
522.0307516527478
 30
0.0
 11
155.5672645739928
 21
515.6116991546699
 31
0.0
  0
LINE
  5
1E2
330
1F
100
AcDbEntity
  8
0-0
  6
Continuous
 62
   120
370
     5
100
AcDbLine
 10
155.5672645739928
 20
541.6116991546701
 30
0.0
 11
160.5672645739934
 21
541.6116991546701
 31
0.0
  0
LINE
  5
1E3
330
1F
100
AcDbEntity
  8
0-0
  6
Continuous
 62
   120
370
     5
100
AcDbLine
 10
155.5672645739928
 20
548.030751652748
 30
0.0
 11
155.5672645739928
 21
541.6116991546701
 31
0.0
  0
LINE
  5
1E4
330
1F
100
AcDbEntity
  8
0-0
  6
Continuous
 62
   120
370
     5
100
AcDbLine
 10
155.5672645739928
 20
567.6116991546703
 30
0.0
 11
160.5672645739934
 21
567.6116991546703
 31
0.0
  0
LINE
  5
1E5
330
1F
100
AcDbEntity
  8
0-0
  6
Continuous
 62
   120
370
     5
100
AcDbLine
 10
155.5672645739928
 20
574.0307516527474
 30
0.0
 11
155.5672645739928
 21
567.6116991546703
 31
0.0
  0
LINE
  5
1E6
330
1F
100
AcDbEntity
  8
0-0
  6
Continuous
 62
   120
370
     5
100
AcDbLine
 10
155.5672645739928
 20
593.6116991546705
 30
0.0
 11
160.5672645739934
 21
593.6116991546705
 31
0.0
  0
LINE
  5
1E7
330
1F
100
AcDbEntity
  8
0-0
  6
Continuous
 62
   120
370
     5
100
AcDbLine
 10
155.5672645739928
 20
600.0307516527477
 30
0.0
 11
155.5672645739928
 21
593.6116991546705
 31
0.0
  0
LINE
  5
1E8
330
1F
100
AcDbEntity
  8
0-0
  6
Continuous
 62
   120
370
     5
100
AcDbLine
 10
155.5672645739928
 20
619.61169915467
 30
0.0
 11
160.5672645739934
 21
619.61169915467
 31
0.0
  0
LINE
  5
1E9
330
1F
100
AcDbEntity
  8
0-0
  6
Continuous
 62
   120
370
     5
100
AcDbLine
 10
155.5672645739928
 20
626.0307516527479
 30
0.0
 11
155.5672645739928
 21
619.61169915467
 31
0.0
  0
LINE
  5
1EA
330
1F
100
AcDbEntity
  8
0-0
  6
Continuous
 62
   120
370
     5
100
AcDbLine
 10
155.5672645739928
 20
645.6116991546702
 30
0.0
 11
160.5672645739934
 21
645.6116991546702
 31
0.0
  0
LINE
  5
1EB
330
1F
100
AcDbEntity
  8
0-0
  6
Continuous
 62
   120
370
     5
100
AcDbLine
 10
155.5672645739928
 20
652.0307516527481
 30
0.0
 11
155.5672645739928
 21
645.6116991546702
 31
0.0
  0
LINE
  5
1EC
330
1F
100
AcDbEntity
  8
0-0
  6
Continuous
 62
   120
370
     5
100
AcDbLine
 10
155.5672645739928
 20
671.6116991546704
 30
0.0
 11
160.5672645739934
 21
671.6116991546704
 31
0.0
  0
LINE
  5
1ED
330
1F
100
AcDbEntity
  8
0-0
  6
Continuous
 62
   120
370
     5
100
AcDbLine
 10
155.5672645739928
 20
678.0307516527483
 30
0.0
 11
155.5672645739928
 21
671.6116991546704
 31
0.0
  0
LINE
  5
1EE
330
1F
100
AcDbEntity
  8
0-0
  6
Continuous
 62
   120
370
     5
100
AcDbLine
 10
155.5672645739928
 20
697.6116991546706
 30
0.0
 11
160.5672645739934
 21
697.6116991546706
 31
0.0
  0
LINE
  5
1EF
330
1F
100
AcDbEntity
  8
0-0
  6
Continuous
 62
   120
370
     5
100
AcDbLine
 10
155.5672645739928
 20
704.0307516527486
 30
0.0
 11
155.5672645739928
 21
697.6116991546706
 31
0.0
  0
LINE
  5
1F0
330
1F
100
AcDbEntity
  8
0-0
  6
Continuous
 62
   120
370
     5
100
AcDbLine
 10
155.5672645739928
 20
723.6116991546709
 30
0.0
 11
160.5672645739934
 21
723.6116991546709
 31
0.0
  0
LINE
  5
1F1
330
1F
100
AcDbEntity
  8
0-0
  6
Continuous
 62
   120
370
     5
100
AcDbLine
 10
155.5672645739928
 20
730.0307516527488
 30
0.0
 11
155.5672645739928
 21
723.6116991546709
 31
0.0
  0
LINE
  5
1F2
330
1F
100
AcDbEntity
  8
0-0
  6
Continuous
 62
   120
370
     5
100
AcDbLine
 10
155.5672645739928
 20
749.6116991546711
 30
0.0
 11
160.5672645739934
 21
749.6116991546711
 31
0.0
  0
LINE
  5
1F3
330
1F
100
AcDbEntity
  8
0-0
  6
Continuous
 62
   120
370
     5
100
AcDbLine
 10
155.5672645739928
 20
756.030751652749
 30
0.0
 11
155.5672645739928
 21
749.6116991546711
 31
0.0
  0
LINE
  5
1F4
330
1F
100
AcDbEntity
  8
0-0
  6
Continuous
 62
   120
370
     5
100
AcDbLine
 10
155.5672645739928
 20
775.6116991546713
 30
0.0
 11
160.5672645739934
 21
775.6116991546713
 31
0.0
  0
LINE
  5
1F5
330
1F
100
AcDbEntity
  8
0-0
  6
Continuous
 62
   120
370
     5
100
AcDbLine
 10
155.5672645739928
 20
782.0307516527484
 30
0.0
 11
155.5672645739928
 21
775.6116991546713
 31
0.0
  0
LINE
  5
1F6
330
1F
100
AcDbEntity
  8
0-0
  6
Continuous
 62
   120
370
     5
100
AcDbLine
 10
155.5672645739928
 20
801.6116991546716
 30
0.0
 11
160.5672645739934
 21
801.6116991546716
 31
0.0
  0
LINE
  5
1F7
330
1F
100
AcDbEntity
  8
0-0
  6
Continuous
 62
   120
370
     5
100
AcDbLine
 10
155.5672645739928
 20
808.0307516527487
 30
0.0
 11
155.5672645739928
 21
801.6116991546716
 31
0.0
  0
LINE
  5
1F8
330
1F
100
AcDbEntity
  8
0-0
  6
Continuous
 62
   120
370
     5
100
AcDbLine
 10
155.5672645739928
 20
827.611699154671
 30
0.0
 11
160.5672645739934
 21
827.611699154671
 31
0.0
  0
LINE
  5
1F9
330
1F
100
AcDbEntity
  8
0-0
  6
Continuous
 62
   120
370
     5
100
AcDbLine
 10
155.5672645739928
 20
834.0307516527489
 30
0.0
 11
155.5672645739928
 21
827.611699154671
 31
0.0
  0
LINE
  5
1FA
330
1F
100
AcDbEntity
  8
0-0
  6
Continuous
 62
   120
370
     5
100
AcDbLine
 10
155.5672645739928
 20
853.6116991546712
 30
0.0
 11
160.5672645739934
 21
853.6116991546712
 31
0.0
  0
LINE
  5
1FB
330
1F
100
AcDbEntity
  8
0-0
  6
Continuous
 62
   120
370
     5
100
AcDbLine
 10
155.5672645739928
 20
860.0307516527491
 30
0.0
 11
155.5672645739928
 21
853.6116991546712
 31
0.0
  0
LINE
  5
1FC
330
1F
100
AcDbEntity
  8
0-0
  6
Continuous
 62
     7
370
     9
100
AcDbLine
 10
-67.43273542600647
 20
880.0307516527437
 30
0.0
 11
160.5672645739934
 21
880.0307516527437
 31
0.0
  0
LINE
  5
1FD
330
1F
100
AcDbEntity
  8
0-0
  6
Continuous
 62
     7
370
     9
100
AcDbLine
 10
-67.43273542600647
 20
-829.9692483472563
 30
0.0
 11
160.5672645739934
 21
-829.9692483472563
 31
0.0
  0
LINE
  5
1FE
330
1F
100
AcDbEntity
  8
0-0
  6
Continuous
 62
     7
370
     9
100
AcDbLine
 10
-67.43273542600647
 20
-979.9692483472563
 30
0.0
 11
-67.43273542600647
 21
1003.030751652743
 31
0.0
  0
LINE
  5
1FF
330
1F
100
AcDbEntity
  8
0-0
  6
Continuous
 62
     7
370
     9
100
AcDbLine
 10
160.5672645739934
 20
-979.9692483472563
 30
0.0
 11
160.5672645739934
 21
1003.030751652743
 31
0.0
  0
ENDSEC
  0
SECTION
  2
OBJECTS
  0
DICTIONARY
  5
C
330
0
100
AcDbDictionary
281
     1
  3
ACAD_GROUP
350
D
  3
ACAD_LAYOUT
350
1A
  3
ACAD_MATERIAL
350
3B
  3
ACAD_MLEADERSTYLE
350
201
  3
ACAD_MLINESTYLE
350
17
  3
ACAD_PLOTSETTINGS
350
19
  3
ACAD_PLOTSTYLENAME
350
E
  3
ACAD_TABLESTYLE
350
200
  3
ACAD_VISUALSTYLE
350
2A
  0
DICTIONARY
  5
D
102
{ACAD_REACTORS
330
C
102
}
330
C
100
AcDbDictionary
281
     1
  0
DICTIONARY
  5
1A
102
{ACAD_REACTORS
330
C
102
}
330
C
100
AcDbDictionary
281
     1
  3
Layout1
350
1E
  3
Layout2
350
26
  3
Model
350
22
  0
DICTIONARY
  5
3B
102
{ACAD_REACTORS
330
C
102
}
330
C
100
AcDbDictionary
281
     1
  3
ByBlock
350
3D
  3
ByLayer
350
3C
  3
Global
350
3E
  0
DICTIONARY
  5
201
102
{ACAD_REACTORS
330
C
102
}
330
C
100
AcDbDictionary
281
     1
  0
DICTIONARY
  5
17
102
{ACAD_REACTORS
330
C
102
}
330
C
100
AcDbDictionary
281
     1
  3
Standard
350
18
  0
DICTIONARY
  5
19
102
{ACAD_REACTORS
330
C
102
}
330
C
100
AcDbDictionary
281
     1
  0
ACDBDICTIONARYWDFLT
  5
E
102
{ACAD_REACTORS
330
C
102
}
330
C
100
AcDbDictionary
281
     1
  3
Normal
350
F
100
AcDbDictionaryWithDefault
340
F
  0
DICTIONARY
  5
200
102
{ACAD_REACTORS
330
C
102
}
330
C
100
AcDbDictionary
281
     1
  0
DICTIONARY
  5
2A
102
{ACAD_REACTORS
330
C
102
}
330
C
100
AcDbDictionary
281
     1
  3
2dWireframe
350
2F
  3
3D Hidden
350
31
  3
3dWireframe
350
30
  3
Basic
350
32
  3
Brighten
350
36
  3
ColorChange
350
3A
  3
Conceptual
350
34
  3
Dim
350
35
  3
Facepattern
350
39
  3
Flat
350
2B
  3
FlatWithEdges
350
2C
  3
Gouraud
350
2D
  3
GouraudWithEdges
350
2E
  3
Linepattern
350
38
  3
Realistic
350
33
  3
Thicken
350
37
  0
LAYOUT
  5
1E
102
{ACAD_REACTORS
330
1A
102
}
330
1A
100
AcDbPlotSettings
  1

  2
none_device
  4

  6

 40
0.0
 41
0.0
 42
0.0
 43
0.0
 44
0.0
 45
0.0
 46
0.0
 47
0.0
 48
0.0
 49
0.0
140
0.0
141
0.0
142
1.0
143
1.0
 70
   688
 72
     0
 73
     0
 74
     5
  7

 75
    16
 76
     0
 77
     5
 78
   300
147
1.0
148
0.0
149
0.0
100
AcDbLayout
  1
Layout1
 70
     1
 71
     1
 10
0.0
 20
0.0
 11
420.0
 21
297.0
 12
0.0
 22
0.0
 32
0.0
 14
1.000000000000000E+20
 24
1.000000000000000E+20
 34
1.000000000000000E+20
 15
-1.000000000000000E+20
 25
-1.000000000000000E+20
 35
-1.000000000000000E+20
146
0.0
 13
0.0
 23
0.0
 33
0.0
 16
1.0
 26
0.0
 36
0.0
 17
0.0
 27
1.0
 37
0.0
 76
     0
330
1B
  0
LAYOUT
  5
26
102
{ACAD_REACTORS
330
1A
102
}
330
1A
100
AcDbPlotSettings
  1

  2
none_device
  4

  6

 40
0.0
 41
0.0
 42
0.0
 43
0.0
 44
0.0
 45
0.0
 46
0.0
 47
0.0
 48
0.0
 49
0.0
140
0.0
141
0.0
142
1.0
143
1.0
 70
   688
 72
     0
 73
     0
 74
     5
  7

 75
    16
 76
     0
 77
     5
 78
   300
147
1.0
148
0.0
149
0.0
100
AcDbLayout
  1
Layout2
 70
     1
 71
     2
 10
0.0
 20
0.0
 11
0.0
 21
0.0
 12
0.0
 22
0.0
 32
0.0
 14
0.0
 24
0.0
 34
0.0
 15
0.0
 25
0.0
 35
0.0
146
0.0
 13
0.0
 23
0.0
 33
0.0
 16
1.0
 26
0.0
 36
0.0
 17
0.0
 27
1.0
 37
0.0
 76
     0
330
23
  0
LAYOUT
  5
22
102
{ACAD_REACTORS
330
1A
102
}
330
1A
100
AcDbPlotSettings
  1

  2
none_device
  4

  6

 40
0.0
 41
0.0
 42
0.0
 43
0.0
 44
0.0
 45
0.0
 46
0.0
 47
0.0
 48
0.0
 49
0.0
140
0.0
141
0.0
142
1.0
143
1.0
 70
  1712
 72
     0
 73
     0
 74
     0
  7

 75
     0
 76
     0
 77
     5
 78
   300
147
1.0
148
0.0
149
0.0
100
AcDbLayout
  1
Model
 70
     1
 71
     0
 10
-4455.0
 20
-3150.0
 11
4455.0
 21
3150.0
 12
0.0
 22
0.0
 32
0.0
 14
-4455.0
 24
-3150.0
 34
0.0
 15
4455.0
 25
3150.0
 35
0.0
146
0.0
 13
0.0
 23
0.0
 33
0.0
 16
1.0
 26
0.0
 36
0.0
 17
0.0
 27
1.0
 37
0.0
 76
     0
330
1F
331
29
  0
MATERIAL
  5
3D
102
{ACAD_REACTORS
330
3B
102
}
330
3B
100
AcDbMaterial
  1
ByBlock
 72
     1
 94
      127
  0
MATERIAL
  5
3C
102
{ACAD_REACTORS
330
3B
102
}
330
3B
100
AcDbMaterial
  1
ByLayer
 72
     1
 94
      127
  0
MATERIAL
  5
3E
102
{ACAD_REACTORS
330
3B
102
}
330
3B
100
AcDbMaterial
  1
Global
 72
     1
 94
      127
  0
MLINESTYLE
  5
18
102
{ACAD_REACTORS
330
17
102
}
330
17
100
AcDbMlineStyle
  2
Standard
 70
     0
  3

 62
   256
 51
90.0
 52
90.0
 71
     2
 49
0.5
 62
   256
  6
BYLAYER
 49
-0.5
 62
   256
  6
BYLAYER
  0
ACDBPLACEHOLDER
  5
F
102
{ACAD_REACTORS
330
E
102
}
330
E
  0
VISUALSTYLE
  5
2F
102
{ACAD_REACTORS
330
2A
102
}
330
2A
100
AcDbVisualStyle
  2
2dWireframe
 70
     4
177
     2
291
     0
 71
     0
176
     1
 72
     2
176
     1
 73
     0
176
     1
 90
        0
176
     1
 40
-0.6
176
     1
 41
-30.0
176
     1
 62
     5
 63
     7
421
 16777215
176
     1
 74
     1
176
     1
 91
        4
176
     1
 64
     7
176
     1
 65
   257
176
     1
 75
     1
176
     1
175
     1
176
     1
 42
1.0
176
     1
 92
        0
176
     1
 66
   257
176
     1
 43
1.0
176
     1
 76
     1
176
     1
 77
     6
176
     1
 78
     2
176
     1
 67
     7
176
     1
 79
     5
176
     1
170
     0
176
     1
171
     0
176
     1
290
     0
176
     1
 93
        1
176
     1
 44
0.0
176
     1
173
     0
176
     1
  0
VISUALSTYLE
  5
31
102
{ACAD_REACTORS
330
2A
102
}
330
2A
100
AcDbVisualStyle
  2
3D Hidden
 70
     6
177
     2
291
     0
 71
     1
176
     1
 72
     2
176
     1
 73
     2
176
     1
 90
        0
176
     1
 40
-0.6
176
     1
 41
-30.0
176
     1
 62
     5
 63
     7
421
 16777215
176
     1
 74
     2
176
     1
 91
        2
176
     1
 64
     7
176
     1
 65
   257
176
     1
 75
     2
176
     1
175
     1
176
     1
 42
40.0
176
     1
 92
        0
176
     1
 66
   257
176
     1
 43
1.0
176
     1
 76
     1
176
     1
 77
     6
176
     1
 78
     2
176
     1
 67
     7
176
     1
 79
     3
176
     1
170
     0
176
     1
171
     0
176
     1
290
     0
176
     1
 93
        1
176
     1
 44
0.0
176
     1
173
     0
176
     1
  0
VISUALSTYLE
  5
30
102
{ACAD_REACTORS
330
2A
102
}
330
2A
100
AcDbVisualStyle
  2
3dWireframe
 70
     5
177
     2
291
     0
 71
     0
176
     1
 72
     2
176
     1
 73
     0
176
     1
 90
        0
176
     1
 40
-0.6
176
     1
 41
-30.0
176
     1
 62
     5
 63
     7
421
 16777215
176
     1
 74
     1
176
     1
 91
        4
176
     1
 64
     7
176
     1
 65
   257
176
     1
 75
     1
176
     1
175
     1
176
     1
 42
1.0
176
     1
 92
        0
176
     1
 66
   257
176
     1
 43
1.0
176
     1
 76
     1
176
     1
 77
     6
176
     1
 78
     2
176
     1
 67
     7
176
     1
 79
     5
176
     1
170
     0
176
     1
171
     0
176
     1
290
     0
176
     1
 93
        1
176
     1
 44
0.0
176
     1
173
     0
176
     1
  0
VISUALSTYLE
  5
32
102
{ACAD_REACTORS
330
2A
102
}
330
2A
100
AcDbVisualStyle
  2
Basic
 70
     7
177
     2
291
     1
 71
     1
176
     1
 72
     0
176
     1
 73
     1
176
     1
 90
        0
176
     1
 40
-0.6
176
     1
 41
-30.0
176
     1
 62
     5
 63
     7
421
 16777215
176
     1
 74
     0
176
     1
 91
        4
176
     1
 64
     7
176
     1
 65
   257
176
     1
 75
     1
176
     1
175
     1
176
     1
 42
1.0
176
     1
 92
        8
176
     1
 66
     7
176
     1
 43
1.0
176
     1
 76
     1
176
     1
 77
     6
176
     1
 78
     2
176
     1
 67
     7
176
     1
 79
     5
176
     1
170
     0
176
     1
171
     0
176
     1
290
     0
176
     1
 93
        1
176
     1
 44
0.0
176
     1
173
     0
176
     1
  0
VISUALSTYLE
  5
36
102
{ACAD_REACTORS
330
2A
102
}
330
2A
100
AcDbVisualStyle
  2
Brighten
 70
    12
177
     2
291
     1
 71
     2
176
     1
 72
     2
176
     1
 73
     0
176
     1
 90
        0
176
     1
 40
-0.6
176
     1
 41
-30.0
176
     1
 62
     5
 63
     7
421
 16777215
176
     1
 74
     1
176
     1
 91
        4
176
     1
 64
     7
176
     1
 65
   257
176
     1
 75
     1
176
     1
175
     1
176
     1
 42
1.0
176
     1
 92
        8
176
     1
 66
     7
176
     1
 43
1.0
176
     1
 76
     1
176
     1
 77
     6
176
     1
 78
     2
176
     1
 67
     7
176
     1
 79
     5
176
     1
170
     0
176
     1
171
     0
176
     1
290
     0
176
     1
 93
        1
176
     1
 44
50.0
176
     1
173
     0
176
     1
  0
VISUALSTYLE
  5
3A
102
{ACAD_REACTORS
330
2A
102
}
330
2A
100
AcDbVisualStyle
  2
ColorChange
 70
    16
177
     2
291
     1
 71
     2
176
     1
 72
     2
176
     1
 73
     3
176
     1
 90
        0
176
     1
 40
-0.6
176
     1
 41
-30.0
176
     1
 62
     5
 63
     8
421
  8421504
176
     1
 74
     1
176
     1
 91
        4
176
     1
 64
     7
176
     1
 65
   257
176
     1
 75
     1
176
     1
175
     1
176
     1
 42
1.0
176
     1
 92
        8
176
     1
 66
     8
424
  8421504
176
     1
 43
1.0
176
     1
 76
     1
176
     1
 77
     6
176
     1
 78
     2
176
     1
 67
     7
176
     1
 79
     5
176
     1
170
     0
176
     1
171
     0
176
     1
290
     0
176
     1
 93
        1
176
     1
 44
0.0
176
     1
173
     0
176
     1
  0
VISUALSTYLE
  5
34
102
{ACAD_REACTORS
330
2A
102
}
330
2A
100
AcDbVisualStyle
  2
Conceptual
 70
     9
177
     2
291
     0
 71
     3
176
     1
 72
     2
176
     1
 73
     0
176
     1
 90
        0
176
     1
 40
-0.6
176
     1
 41
-30.0
176
     1
 62
     5
 63
     7
421
 16777215
176
     1
 74
     2
176
     1
 91
        2
176
     1
 64
     7
176
     1
 65
   257
176
     1
 75
     1
176
     1
175
     1
176
     1
 42
40.0
176
     1
 92
        8
176
     1
 66
     7
176
     1
 43
1.0
176
     1
 76
     1
176
     1
 77
     6
176
     1
 78
     2
176
     1
 67
     7
176
     1
 79
     3
176
     1
170
     0
176
     1
171
     0
176
     1
290
     0
176
     1
 93
        1
176
     1
 44
0.0
176
     1
173
     0
176
     1
  0
VISUALSTYLE
  5
35
102
{ACAD_REACTORS
330
2A
102
}
330
2A
100
AcDbVisualStyle
  2
Dim
 70
    11
177
     2
291
     1
 71
     2
176
     1
 72
     2
176
     1
 73
     0
176
     1
 90
        0
176
     1
 40
-0.6
176
     1
 41
-30.0
176
     1
 62
     5
 63
     7
421
 16777215
176
     1
 74
     1
176
     1
 91
        4
176
     1
 64
     7
176
     1
 65
   257
176
     1
 75
     1
176
     1
175
     1
176
     1
 42
1.0
176
     1
 92
        8
176
     1
 66
     7
176
     1
 43
1.0
176
     1
 76
     1
176
     1
 77
     6
176
     1
 78
     2
176
     1
 67
     7
176
     1
 79
     5
176
     1
170
     0
176
     1
171
     0
176
     1
290
     0
176
     1
 93
        1
176
     1
 44
-50.0
176
     1
173
     0
176
     1
  0
VISUALSTYLE
  5
39
102
{ACAD_REACTORS
330
2A
102
}
330
2A
100
AcDbVisualStyle
  2
Facepattern
 70
    15
177
     2
291
     1
 71
     2
176
     1
 72
     2
176
     1
 73
     0
176
     1
 90
        0
176
     1
 40
-0.6
176
     1
 41
-30.0
176
     1
 62
     5
 63
     7
421
 16777215
176
     1
 74
     1
176
     1
 91
        4
176
     1
 64
     7
176
     1
 65
   257
176
     1
 75
     1
176
     1
175
     1
176
     1
 42
1.0
176
     1
 92
        8
176
     1
 66
     7
176
     1
 43
1.0
176
     1
 76
     1
176
     1
 77
     6
176
     1
 78
     2
176
     1
 67
     7
176
     1
 79
     5
176
     1
170
     0
176
     1
171
     0
176
     1
290
     0
176
     1
 93
        1
176
     1
 44
0.0
176
     1
173
     0
176
     1
  0
VISUALSTYLE
  5
2B
102
{ACAD_REACTORS
330
2A
102
}
330
2A
100
AcDbVisualStyle
  2
Flat
 70
     0
177
     2
291
     1
 71
     2
176
     1
 72
     1
176
     1
 73
     1
176
     1
 90
        2
176
     1
 40
-0.6
176
     1
 41
30.0
176
     1
 62
     5
 63
     7
421
 16777215
176
     1
 74
     0
176
     1
 91
        4
176
     1
 64
     7
176
     1
 65
   257
176
     1
 75
     1
176
     1
175
     1
176
     1
 42
1.0
176
     1
 92
        8
176
     1
 66
     7
176
     1
 43
1.0
176
     1
 76
     1
176
     1
 77
     6
176
     1
 78
     2
176
     1
 67
     7
176
     1
 79
     5
176
     1
170
     0
176
     1
171
     0
176
     1
290
     0
176
     1
 93
       13
176
     1
 44
0.0
176
     1
173
     0
176
     1
  0
VISUALSTYLE
  5
2C
102
{ACAD_REACTORS
330
2A
102
}
330
2A
100
AcDbVisualStyle
  2
FlatWithEdges
 70
     1
177
     2
291
     1
 71
     2
176
     1
 72
     1
176
     1
 73
     1
176
     1
 90
        2
176
     1
 40
-0.6
176
     1
 41
30.0
176
     1
 62
     5
 63
     7
421
 16777215
176
     1
 74
     1
176
     1
 91
        4
176
     1
 64
     7
176
     1
 65
   257
176
     1
 75
     1
176
     1
175
     1
176
     1
 42
1.0
176
     1
 92
        0
176
     1
 66
   257
176
     1
 43
1.0
176
     1
 76
     1
176
     1
 77
     6
176
     1
 78
     2
176
     1
 67
     7
176
     1
 79
     5
176
     1
170
     0
176
     1
171
     0
176
     1
290
     0
176
     1
 93
       13
176
     1
 44
0.0
176
     1
173
     0
176
     1
  0
VISUALSTYLE
  5
2D
102
{ACAD_REACTORS
330
2A
102
}
330
2A
100
AcDbVisualStyle
  2
Gouraud
 70
     2
177
     2
291
     1
 71
     2
176
     1
 72
     2
176
     1
 73
     1
176
     1
 90
        2
176
     1
 40
-0.6
176
     1
 41
30.0
176
     1
 62
     5
 63
     7
421
 16777215
176
     1
 74
     0
176
     1
 91
        4
176
     1
 64
     7
176
     1
 65
   257
176
     1
 75
     1
176
     1
175
     1
176
     1
 42
1.0
176
     1
 92
        0
176
     1
 66
     7
176
     1
 43
1.0
176
     1
 76
     1
176
     1
 77
     6
176
     1
 78
     2
176
     1
 67
     7
176
     1
 79
     5
176
     1
170
     0
176
     1
171
     0
176
     1
290
     0
176
     1
 93
       13
176
     1
 44
0.0
176
     1
173
     0
176
     1
  0
VISUALSTYLE
  5
2E
102
{ACAD_REACTORS
330
2A
102
}
330
2A
100
AcDbVisualStyle
  2
GouraudWithEdges
 70
     3
177
     2
291
     1
 71
     2
176
     1
 72
     2
176
     1
 73
     1
176
     1
 90
        2
176
     1
 40
-0.6
176
     1
 41
30.0
176
     1
 62
     5
 63
     7
421
 16777215
176
     1
 74
     1
176
     1
 91
        4
176
     1
 64
     7
176
     1
 65
   257
176
     1
 75
     1
176
     1
175
     1
176
     1
 42
1.0
176
     1
 92
        0
176
     1
 66
   257
176
     1
 43
1.0
176
     1
 76
     1
176
     1
 77
     6
176
     1
 78
     2
176
     1
 67
     7
176
     1
 79
     5
176
     1
170
     0
176
     1
171
     0
176
     1
290
     0
176
     1
 93
       13
176
     1
 44
0.0
176
     1
173
     0
176
     1
  0
VISUALSTYLE
  5
38
102
{ACAD_REACTORS
330
2A
102
}
330
2A
100
AcDbVisualStyle
  2
Linepattern
 70
    14
177
     2
291
     1
 71
     2
176
     1
 72
     2
176
     1
 73
     0
176
     1
 90
        0
176
     1
 40
-0.6
176
     1
 41
-30.0
176
     1
 62
     5
 63
     7
421
 16777215
176
     1
 74
     1
176
     1
 91
        4
176
     1
 64
     7
176
     1
 65
   257
176
     1
 75
     7
176
     1
175
     7
176
     1
 42
1.0
176
     1
 92
        8
176
     1
 66
     7
176
     1
 43
1.0
176
     1
 76
     1
176
     1
 77
     6
176
     1
 78
     2
176
     1
 67
     7
176
     1
 79
     5
176
     1
170
     0
176
     1
171
     0
176
     1
290
     0
176
     1
 93
        1
176
     1
 44
0.0
176
     1
173
     0
176
     1
  0
VISUALSTYLE
  5
33
102
{ACAD_REACTORS
330
2A
102
}
330
2A
100
AcDbVisualStyle
  2
Realistic
 70
     8
177
     2
291
     0
 71
     2
176
     1
 72
     2
176
     1
 73
     0
176
     1
 90
        0
176
     1
 40
-0.6
176
     1
 41
-30.0
176
     1
 62
     5
 63
     7
421
 16777215
176
     1
 74
     1
176
     1
 91
        0
176
     1
 64
     7
176
     1
 65
   257
176
     1
 75
     1
176
     1
175
     1
176
     1
 42
1.0
176
     1
 92
        8
176
     1
 66
     8
424
  7895160
176
     1
 43
1.0
176
     1
 76
     1
176
     1
 77
     6
176
     1
 78
     2
176
     1
 67
     7
176
     1
 79
     5
176
     1
170
     0
176
     1
171
     0
176
     1
290
     0
176
     1
 93
       13
176
     1
 44
0.0
176
     1
173
     0
176
     1
  0
VISUALSTYLE
  5
37
102
{ACAD_REACTORS
330
2A
102
}
330
2A
100
AcDbVisualStyle
  2
Thicken
 70
    13
177
     2
291
     1
 71
     2
176
     1
 72
     2
176
     1
 73
     0
176
     1
 90
        0
176
     1
 40
-0.6
176
     1
 41
-30.0
176
     1
 62
     5
 63
     7
421
 16777215
176
     1
 74
     1
176
     1
 91
        4
176
     1
 64
     7
176
     1
 65
   257
176
     1
 75
     1
176
     1
175
     1
176
     1
 42
1.0
176
     1
 92
       12
176
     1
 66
     7
176
     1
 43
1.0
176
     1
 76
     1
176
     1
 77
     6
176
     1
 78
     2
176
     1
 67
     7
176
     1
 79
     5
176
     1
170
     0
176
     1
171
     0
176
     1
290
     0
176
     1
 93
        1
176
     1
 44
0.0
176
     1
173
     0
176
     1
  0
ENDSEC
  0
EOF
