  0
SECTION
  2
HEADER
  9
$ACADVER
  1
AC1024
  9
$ACADMAINTVER
 70
     6
  9
$DWGCODEPAGE
  3
ANSI_932
  9
$INSBASE
 10
0.0
 20
0.0
 30
0.0
  9
$EXTMIN
 10
-6300.0
 20
-4455.0
 30
0.0
  9
$EXTMAX
 10
6300.0
 20
4455.0
 30
0.0
  9
$LIMMIN
 10
-6300.0
 20
-4455.0
  9
$LIMMAX
 10
6300.0
 20
4455.0
  9
$ORTHOMODE
 70
     0
  9
$REGENMODE
 70
     1
  9
$FILLMODE
 70
     1
  9
$QTEXTMODE
 70
     0
  9
$MIRRTEXT
 70
     1
  9
$LTSCALE
 40
30.0
  9
$ATTMODE
 70
     1
  9
$TEXTSIZE
 40
2.5
  9
$TRACEWID
 40
1.0
  9
$TEXTSTYLE
  7
Standard
  9
$CLAYER
  8
0
  9
$CELTYPE
  6
ByLayer
  9
$CECOLOR
 62
   256
  9
$CELTSCALE
 40
1.0
  9
$DISPSILH
 70
     0
  9
$DIMSCALE
 40
1.0
  9
$DIMASZ
 40
2.5
  9
$DIMEXO
 40
0.625
  9
$DIMDLI
 40
3.75
  9
$DIMRND
 40
0.0
  9
$DIMDLE
 40
0.0
  9
$DIMEXE
 40
1.25
  9
$DIMTP
 40
0.0
  9
$DIMTM
 40
0.0
  9
$DIMTXT
 40
2.5
  9
$DIMCEN
 40
2.5
  9
$DIMTSZ
 40
0.0
  9
$DIMTOL
 70
     0
  9
$DIMLIM
 70
     0
  9
$DIMTIH
 70
     0
  9
$DIMTOH
 70
     0
  9
$DIMSE1
 70
     0
  9
$DIMSE2
 70
     0
  9
$DIMTAD
 70
     1
  9
$DIMZIN
 70
     8
  9
$DIMBLK
  1

  9
$DIMASO
 70
     1
  9
$DIMSHO
 70
     1
  9
$DIMPOST
  1

  9
$DIMAPOST
  1

  9
$DIMALT
 70
     0
  9
$DIMALTD
 70
     3
  9
$DIMALTF
 40
0.03937007874016
  9
$DIMLFAC
 40
1.0
  9
$DIMTOFL
 70
     1
  9
$DIMTVP
 40
0.0
  9
$DIMTIX
 70
     0
  9
$DIMSOXD
 70
     0
  9
$DIMSAH
 70
     0
  9
$DIMBLK1
  1

  9
$DIMBLK2
  1

  9
$DIMSTYLE
  2
ISO-25
  9
$DIMCLRD
 70
     0
  9
$DIMCLRE
 70
     0
  9
$DIMCLRT
 70
     0
  9
$DIMTFAC
 40
1.0
  9
$DIMGAP
 40
0.625
  9
$DIMJUST
 70
     0
  9
$DIMSD1
 70
     0
  9
$DIMSD2
 70
     0
  9
$DIMTOLJ
 70
     0
  9
$DIMTZIN
 70
     8
  9
$DIMALTZ
 70
     0
  9
$DIMALTTZ
 70
     0
  9
$DIMUPT
 70
     0
  9
$DIMDEC
 70
     2
  9
$DIMTDEC
 70
     2
  9
$DIMALTU
 70
     2
  9
$DIMALTTD
 70
     3
  9
$DIMTXSTY
  7
Standard
  9
$DIMAUNIT
 70
     0
  9
$DIMADEC
 70
     0
  9
$DIMALTRND
 40
0.0
  9
$DIMAZIN
 70
     0
  9
$DIMDSEP
 70
    44
  9
$DIMATFIT
 70
     3
  9
$DIMFRAC
 70
     0
  9
$DIMLDRBLK
  1

  9
$DIMLUNIT
 70
     2
  9
$DIMLWD
 70
    -2
  9
$DIMLWE
 70
    -2
  9
$DIMTMOVE
 70
     0
  9
$DIMFXL
 40
1.0
  9
$DIMFXLON
 70
     0
  9
$DIMJOGANG
 40
0.7853981633974483
  9
$DIMTFILL
 70
     0
  9
$DIMTFILLCLR
 70
     0
  9
$DIMARCSYM
 70
     0
  9
$DIMLTYPE
  6

  9
$DIMLTEX1
  6

  9
$DIMLTEX2
  6

  9
$DIMTXTDIRECTION
 70
     0
  9
$LUNITS
 70
     2
  9
$LUPREC
 70
     4
  9
$SKETCHINC
 40
1.0
  9
$FILLETRAD
 40
10.0
  9
$AUNITS
 70
     0
  9
$AUPREC
 70
     0
  9
$MENU
  1
.
  9
$ELEVATION
 40
0.0
  9
$PELEVATION
 40
0.0
  9
$THICKNESS
 40
0.0
  9
$LIMCHECK
 70
     0
  9
$CHAMFERA
 40
0.0
  9
$CHAMFERB
 40
0.0
  9
$CHAMFERC
 40
0.0
  9
$CHAMFERD
 40
0.0
  9
$SKPOLY
 70
     0
  9
$TDCREATE
 40
2458464.642756192
  9
$TDUCREATE
 40
2458464.267756192
  9
$TDUPDATE
 40
2458464.642756551
  9
$TDUUPDATE
 40
2458464.267756551
  9
$TDINDWG
 40
0.0000000116
  9
$TDUSRTIMER
 40
0.0000000116
  9
$USRTIMER
 70
     1
  9
$ANGBASE
 50
0.0
  9
$ANGDIR
 70
     0
  9
$PDMODE
 70
     0
  9
$PDSIZE
 40
0.0
  9
$PLINEWID
 40
0.0
  9
$SPLFRAME
 70
     0
  9
$SPLINETYPE
 70
     6
  9
$SPLINESEGS
 70
     8
  9
$HANDSEED
  5
3D3
  9
$SURFTAB1
 70
     6
  9
$SURFTAB2
 70
     6
  9
$SURFTYPE
 70
     6
  9
$SURFU
 70
     6
  9
$SURFV
 70
     6
  9
$UCSBASE
  2

  9
$UCSNAME
  2

  9
$UCSORG
 10
0.0
 20
0.0
 30
0.0
  9
$UCSXDIR
 10
1.0
 20
0.0
 30
0.0
  9
$UCSYDIR
 10
0.0
 20
1.0
 30
0.0
  9
$UCSORTHOREF
  2

  9
$UCSORTHOVIEW
 70
     0
  9
$UCSORGTOP
 10
0.0
 20
0.0
 30
0.0
  9
$UCSORGBOTTOM
 10
0.0
 20
0.0
 30
0.0
  9
$UCSORGLEFT
 10
0.0
 20
0.0
 30
0.0
  9
$UCSORGRIGHT
 10
0.0
 20
0.0
 30
0.0
  9
$UCSORGFRONT
 10
0.0
 20
0.0
 30
0.0
  9
$UCSORGBACK
 10
0.0
 20
0.0
 30
0.0
  9
$PUCSBASE
  2

  9
$PUCSNAME
  2

  9
$PUCSORG
 10
0.0
 20
0.0
 30
0.0
  9
$PUCSXDIR
 10
1.0
 20
0.0
 30
0.0
  9
$PUCSYDIR
 10
0.0
 20
1.0
 30
0.0
  9
$PUCSORTHOREF
  2

  9
$PUCSORTHOVIEW
 70
     0
  9
$PUCSORGTOP
 10
0.0
 20
0.0
 30
0.0
  9
$PUCSORGBOTTOM
 10
0.0
 20
0.0
 30
0.0
  9
$PUCSORGLEFT
 10
0.0
 20
0.0
 30
0.0
  9
$PUCSORGRIGHT
 10
0.0
 20
0.0
 30
0.0
  9
$PUCSORGFRONT
 10
0.0
 20
0.0
 30
0.0
  9
$PUCSORGBACK
 10
0.0
 20
0.0
 30
0.0
  9
$USERI1
 70
     0
  9
$USERI2
 70
     0
  9
$USERI3
 70
     0
  9
$USERI4
 70
     0
  9
$USERI5
 70
     0
  9
$USERR1
 40
0.0
  9
$USERR2
 40
0.0
  9
$USERR3
 40
0.0
  9
$USERR4
 40
0.0
  9
$USERR5
 40
0.0
  9
$WORLDVIEW
 70
     1
  9
$SHADEDGE
 70
     3
  9
$SHADEDIF
 70
    70
  9
$TILEMODE
 70
     1
  9
$MAXACTVP
 70
    64
  9
$PINSBASE
 10
0.0
 20
0.0
 30
0.0
  9
$PLIMCHECK
 70
     0
  9
$PEXTMIN
 10
1.000000000000000E+20
 20
1.000000000000000E+20
 30
1.000000000000000E+20
  9
$PEXTMAX
 10
-1.000000000000000E+20
 20
-1.000000000000000E+20
 30
-1.000000000000000E+20
  9
$PLIMMIN
 10
0.0
 20
0.0
  9
$PLIMMAX
 10
420.0
 20
297.0
  9
$UNITMODE
 70
     0
  9
$VISRETAIN
 70
     1
  9
$PLINEGEN
 70
     0
  9
$PSLTSCALE
 70
     1
  9
$TREEDEPTH
 70
  3020
  9
$CMLSTYLE
  2
Standard
  9
$CMLJUST
 70
     0
  9
$CMLSCALE
 40
20.0
  9
$PROXYGRAPHICS
 70
     1
  9
$MEASUREMENT
 70
     1
  9
$CELWEIGHT
370
    -1
  9
$ENDCAPS
280
     0
  9
$JOINSTYLE
280
     0
  9
$LWDISPLAY
290
     0
  9
$INSUNITS
 70
     4
  9
$HYPERLINKBASE
  1

  9
$STYLESHEET
  1

  9
$XEDIT
290
     1
  9
$CEPSNTYPE
380
     0
  9
$PSTYLEMODE
290
     1
  9
$FINGERPRINTGUID
  2
{E1AAFDD4-484B-4D30-BBB0-B6F28F15844F}
  9
$VERSIONGUID
  2
{FAEB1C32-E019-11D5-929B-00C0DF256EC4}
  9
$EXTNAMES
290
     1
  9
$PSVPSCALE
 40
0.0
  9
$OLESTARTUP
290
     0
  9
$SORTENTS
280
   127
  9
$INDEXCTL
280
     0
  9
$HIDETEXT
280
     1
  9
$XCLIPFRAME
280
     2
  9
$HALOGAP
280
     0
  9
$OBSCOLOR
 70
   257
  9
$OBSLTYPE
280
     0
  9
$INTERSECTIONDISPLAY
280
     0
  9
$INTERSECTIONCOLOR
 70
   257
  9
$DIMASSOC
280
     2
  9
$PROJECTNAME
  1

  9
$CAMERADISPLAY
290
     0
  9
$LENSLENGTH
 40
50.0
  9
$CAMERAHEIGHT
 40
0.0
  9
$STEPSPERSEC
 40
2.0
  9
$STEPSIZE
 40
6.0
  9
$3DDWFPREC
 40
2.0
  9
$PSOLWIDTH
 40
5.0
  9
$PSOLHEIGHT
 40
80.0
  9
$LOFTANG1
 40
1.570796326794897
  9
$LOFTANG2
 40
1.570796326794897
  9
$LOFTMAG1
 40
0.0
  9
$LOFTMAG2
 40
0.0
  9
$LOFTPARAM
 70
     7
  9
$LOFTNORMALS
280
     1
  9
$LATITUDE
 40
37.795
  9
$LONGITUDE
 40
-122.394
  9
$NORTHDIRECTION
 40
0.0
  9
$TIMEZONE
 70
 -8000
  9
$LIGHTGLYPHDISPLAY
280
     1
  9
$TILEMODELIGHTSYNCH
280
     1
  9
$CMATERIAL
347
44
  9
$SOLIDHIST
280
     0
  9
$SHOWHIST
280
     1
  9
$DWFFRAME
280
     2
  9
$DGNFRAME
280
     2
  9
$REALWORLDSCALE
290
     1
  9
$INTERFERECOLOR
 62
   256
  9
$CSHADOW
280
     0
  9
$SHADOWPLANELOCATION
 40
0.0
  0
ENDSEC
  0
SECTION
  2
CLASSES
  0
CLASS
  1
ACDBDICTIONARYWDFLT
  2
AcDbDictionaryWithDefault
  3
ObjectDBX Classes
 90
        0
 91
        4
280
     0
281
     0
  0
CLASS
  1
VISUALSTYLE
  2
AcDbVisualStyle
  3
ObjectDBX Classes
 90
     4095
 91
        4
280
     0
281
     0
  0
CLASS
  1
MATERIAL
  2
AcDbMaterial
  3
ObjectDBX Classes
 90
     1153
 91
        4
280
     0
281
     0
  0
CLASS
  1
SCALE
  2
AcDbScale
  3
ObjectDBX Classes
 90
     1153
 91
        4
280
     0
281
     0
  0
CLASS
  1
TABLESTYLE
  2
AcDbTableStyle
  3
ObjectDBX Classes
 90
     4095
 91
        4
280
     0
281
     0
  0
CLASS
  1
MLEADERSTYLE
  2
AcDbMLeaderStyle
  3
ACDB_MLEADERSTYLE_CLASS
 90
     4095
 91
        4
280
     0
281
     0
  0
CLASS
  1
SUN
  2
AcDbSun
  3
SCENEOE
 90
     1153
 91
        4
280
     0
281
     0
  0
CLASS
  1
DICTIONARYVAR
  2
AcDbDictionaryVar
  3
ObjectDBX Classes
 90
        0
 91
        4
280
     0
281
     0
  0
CLASS
  1
CELLSTYLEMAP
  2
AcDbCellStyleMap
  3
ObjectDBX Classes
 90
     1152
 91
        4
280
     0
281
     0
  0
ENDSEC
  0
SECTION
  2
TABLES
  0
TABLE
  2
VPORT
  5
8
330
0
100
AcDbSymbolTable
 70
     1
  0
VPORT
  5
29
330
8
100
AcDbSymbolTableRecord
100
AcDbViewportTableRecord
  2
*Active
 70
     0
 10
0.0
 20
0.0
 11
1.0
 21
1.0
 12
0.0
 22
0.0
 13
0.0
 23
0.0
 14
10.0
 24
10.0
 15
10.0
 25
10.0
 16
0.0
 26
0.0
 36
1.0
 17
0.0
 27
0.0
 37
0.0
 40
9801.0
 41
1.414141414141414
 42
50.0
 43
0.0
 44
0.0
 50
0.0
 51
0.0
 71
     0
 72
 10000
 73
     1
 74
     3
 75
     0
 76
     0
 77
     0
 78
     0
281
     0
 65
     1
110
0.0
120
0.0
130
0.0
111
1.0
121
0.0
131
0.0
112
0.0
122
1.0
132
0.0
 79
     0
146
0.0
348
2F
 60
     3
 61
     5
292
     1
282
     1
141
0.0
142
0.0
 63
   250
361
6D
  0
ENDTAB
  0
TABLE
  2
LTYPE
  5
5
330
0
100
AcDbSymbolTable
 70
     4
  0
LTYPE
  5
14
330
5
100
AcDbSymbolTableRecord
100
AcDbLinetypeTableRecord
  2
ByBlock
 70
     0
  3

 72
    65
 73
     0
 40
0.0
  0
LTYPE
  5
15
330
5
100
AcDbSymbolTableRecord
100
AcDbLinetypeTableRecord
  2
ByLayer
 70
     0
  3

 72
    65
 73
     0
 40
0.0
  0
LTYPE
  5
16
330
5
100
AcDbSymbolTableRecord
100
AcDbLinetypeTableRecord
  2
Continuous
 70
     0
  3
Solid line
 72
    65
 73
     0
 40
0.0
  0
LTYPE
  5
70
330
5
100
AcDbSymbolTableRecord
100
AcDbLinetypeTableRecord
  2
JWW_HOJO
 70
     0
  3
  -   -   -   -   -   -   -   - 
 72
    65
 73
     2
 40
1.693333333333333
 49
-1.27
 74
     0
 49
0.4233333333333333
 74
     0
  0
LTYPE
  5
71
330
5
100
AcDbSymbolTableRecord
100
AcDbLinetypeTableRecord
  2
JWW_CENTER1
 70
     0
  3
-----  --  ----------  --  -----
 72
    65
 73
     4
 40
6.773333333333333
 49
4.233333333333333
 74
     0
 49
-0.8466666666666667
 74
     0
 49
0.8466666666666667
 74
     0
 49
-0.8466666666666667
 74
     0
  0
LTYPE
  5
72
330
5
100
AcDbSymbolTableRecord
100
AcDbLinetypeTableRecord
  2
JWW_DASHED1
 70
     0
  3
-  --  --  --  --  --  --  --  -
 72
    65
 73
     2
 40
1.693333333333333
 49
0.8466666666666667
 74
     0
 49
-0.8466666666666667
 74
     0
  0
ENDTAB
  0
TABLE
  2
LAYER
  5
2
330
0
100
AcDbSymbolTable
 70
    17
  0
LAYER
  5
10
330
2
100
AcDbSymbolTableRecord
100
AcDbLayerTableRecord
  2
0
 70
     0
 62
     7
  6
Continuous
370
    -3
390
F
347
46
  0
LAYER
  5
73
330
2
100
AcDbSymbolTableRecord
100
AcDbLayerTableRecord
  2
F-0_補助線
 70
     0
 62
     7
  6
Continuous
370
    -3
390
F
347
46
  0
LAYER
  5
74
330
2
100
AcDbSymbolTableRecord
100
AcDbLayerTableRecord
  2
F-1_枠
 70
     0
 62
     7
  6
Continuous
370
    -3
390
F
347
46
  0
LAYER
  5
75
330
2
100
AcDbSymbolTableRecord
100
AcDbLayerTableRecord
  2
F-A_文字
 70
     0
 62
     7
  6
Continuous
370
    -3
390
F
347
46
  0
LAYER
  5
76
330
2
100
AcDbSymbolTableRecord
100
AcDbLayerTableRecord
  2
0-A_文字
 70
     0
 62
     7
  6
Continuous
370
    -3
390
F
347
46
  0
LAYER
  5
77
330
2
100
AcDbSymbolTableRecord
100
AcDbLayerTableRecord
  2
0-B_寸法
 70
     0
 62
     7
  6
Continuous
370
    -3
390
F
347
46
  0
LAYER
  5
78
330
2
100
AcDbSymbolTableRecord
100
AcDbLayerTableRecord
  2
ハッチ
 70
     0
 62
     7
  6
Continuous
370
    -3
390
F
347
46
  0
LAYER
  5
79
330
2
100
AcDbSymbolTableRecord
100
AcDbLayerTableRecord
  2
0-4_枠
 70
     0
 62
     7
  6
Continuous
370
    -3
390
F
347
46
  0
LAYER
  5
7A
330
2
100
AcDbSymbolTableRecord
100
AcDbLayerTableRecord
  2
0-6_扉
 70
     0
 62
     7
  6
Continuous
370
    -3
390
F
347
46
  0
LAYER
  5
7B
330
2
100
AcDbSymbolTableRecord
100
AcDbLayerTableRecord
  2
0-7_金物
 70
     0
 62
     7
  6
Continuous
370
    -3
390
F
347
46
  0
LAYER
  5
7C
330
2
100
AcDbSymbolTableRecord
100
AcDbLayerTableRecord
  2
仕上げ
 70
     0
 62
     7
  6
Continuous
370
    -3
390
F
347
46
  0
LAYER
  5
7D
330
2
100
AcDbSymbolTableRecord
100
AcDbLayerTableRecord
  2
戸当り
 70
     0
 62
     7
  6
Continuous
370
    -3
390
F
347
46
  0
LAYER
  5
7E
330
2
100
AcDbSymbolTableRecord
100
AcDbLayerTableRecord
  2
0-0_補助線
 70
     0
 62
     7
  6
Continuous
370
    -3
390
F
347
46
  0
LAYER
  5
7F
330
2
100
AcDbSymbolTableRecord
100
AcDbLayerTableRecord
  2
0-1_通り芯
 70
     0
 62
     7
  6
Continuous
370
    -3
390
F
347
46
  0
LAYER
  5
80
330
2
100
AcDbSymbolTableRecord
100
AcDbLayerTableRecord
  2
1-B_寸法
 70
     0
 62
     7
  6
Continuous
370
    -3
390
F
347
46
  0
LAYER
  5
81
330
2
100
AcDbSymbolTableRecord
100
AcDbLayerTableRecord
  2
1-4_枠
 70
     0
 62
     7
  6
Continuous
370
    -3
390
F
347
46
  0
LAYER
  5
82
330
2
100
AcDbSymbolTableRecord
100
AcDbLayerTableRecord
  2
1-A_文字
 70
     0
 62
     7
  6
Continuous
370
    -3
390
F
347
46
  0
ENDTAB
  0
TABLE
  2
STYLE
  5
3
330
0
100
AcDbSymbolTable
 70
     3
  0
STYLE
  5
11
330
3
100
AcDbSymbolTableRecord
100
AcDbTextStyleTableRecord
  2
Standard
 70
     0
 40
0.0
 41
1.0
 50
0.0
 71
     0
 42
2.5
  3
txt
  4

  0
STYLE
  5
6E
330
3
100
AcDbSymbolTableRecord
100
AcDbTextStyleTableRecord
  2
HGP明朝B
 70
     0
 40
1.0
 41
1.0
 50
0.0
 71
     0
 42
2.5
  3

  4

1001
ACAD
1000
HGPMinchoB
1071
    32786
  0
STYLE
  5
6F
330
3
100
AcDbSymbolTableRecord
100
AcDbTextStyleTableRecord
  2
ＭＳ ゴシック
 70
     0
 40
1.0
 41
1.0
 50
0.0
 71
     0
 42
2.5
  3

  4

1001
ACAD
1000
MS Gothic
1071
    32817
  0
ENDTAB
  0
TABLE
  2
VIEW
  5
6
330
0
100
AcDbSymbolTable
 70
     0
  0
ENDTAB
  0
TABLE
  2
UCS
  5
7
330
0
100
AcDbSymbolTable
 70
     0
  0
ENDTAB
  0
TABLE
  2
APPID
  5
9
330
0
100
AcDbSymbolTable
 70
     1
  0
APPID
  5
12
330
9
100
AcDbSymbolTableRecord
100
AcDbRegAppTableRecord
  2
ACAD
 70
     0
  0
ENDTAB
  0
TABLE
  2
DIMSTYLE
  5
A
330
0
100
AcDbSymbolTable
 70
     1
100
AcDbDimStyleTable
  0
DIMSTYLE
105
27
330
A
100
AcDbSymbolTableRecord
100
AcDbDimStyleTableRecord
  2
ISO-25
 70
     0
 41
2.5
 42
0.625
 43
3.75
 44
1.25
 73
     0
 74
     0
 77
     1
 78
     8
140
2.5
141
2.5
143
0.03937007874016
147
0.625
171
     3
172
     1
178
     0
271
     2
272
     2
274
     3
278
    44
283
     0
284
     8
340
11
  0
ENDTAB
  0
TABLE
  2
BLOCK_RECORD
  5
1
330
0
100
AcDbSymbolTable
 70
     1
  0
BLOCK_RECORD
  5
1F
330
1
100
AcDbSymbolTableRecord
100
AcDbBlockTableRecord
  2
*Model_Space
340
22
 70
     0
280
     1
281
     0
  0
BLOCK_RECORD
  5
1B
330
1
100
AcDbSymbolTableRecord
100
AcDbBlockTableRecord
  2
*Paper_Space
340
1E
 70
     0
280
     1
281
     0
  0
BLOCK_RECORD
  5
23
330
1
100
AcDbSymbolTableRecord
100
AcDbBlockTableRecord
  2
*Paper_Space0
340
26
 70
     0
280
     1
281
     0
  0
ENDTAB
  0
ENDSEC
  0
SECTION
  2
BLOCKS
  0
BLOCK
  5
20
330
1F
100
AcDbEntity
  8
0
100
AcDbBlockBegin
  2
*Model_Space
 70
     0
 10
0.0
 20
0.0
 30
0.0
  3
*Model_Space
  1

  0
ENDBLK
  5
21
330
1F
100
AcDbEntity
  8
0
100
AcDbBlockEnd
  0
BLOCK
  5
1C
330
1B
100
AcDbEntity
 67
     1
  8
0
100
AcDbBlockBegin
  2
*Paper_Space
 70
     0
 10
0.0
 20
0.0
 30
0.0
  3
*Paper_Space
  1

  0
ENDBLK
  5
1D
330
1B
100
AcDbEntity
 67
     1
  8
0
100
AcDbBlockEnd
  0
BLOCK
  5
24
330
23
100
AcDbEntity
  8
0
100
AcDbBlockBegin
  2
*Paper_Space0
 70
     0
 10
0.0
 20
0.0
 30
0.0
  3
*Paper_Space0
  1

  0
ENDBLK
  5
25
330
23
100
AcDbEntity
  8
0
100
AcDbBlockEnd
  0
ENDSEC
  0
SECTION
  2
ENTITIES
  0
LINE
  5
83
330
1F
100
AcDbEntity
  8
F-0_補助線
  6
JWW_HOJO
 62
   120
370
     5
100
AcDbLine
 10
-6140.081333436773
 20
-4455.0
 30
0.0
 11
-6140.081333436773
 21
4424.999604096284
 31
0.0
  0
LINE
  5
84
330
1F
100
AcDbEntity
  8
F-0_補助線
  6
JWW_HOJO
 62
   120
370
     5
100
AcDbLine
 10
-6140.081333436773
 20
4424.999604096284
 30
0.0
 11
6159.917676803936
 21
4424.999604096284
 31
0.0
  0
LINE
  5
85
330
1F
100
AcDbEntity
  8
F-0_補助線
  6
JWW_HOJO
 62
   120
370
     5
100
AcDbLine
 10
6159.917676803936
 20
4424.999604096284
 30
0.0
 11
6159.917676803936
 21
-4455.0
 31
0.0
  0
LINE
  5
86
330
1F
100
AcDbEntity
  8
F-0_補助線
  6
JWW_HOJO
 62
   120
370
     5
100
AcDbLine
 10
6159.917676803936
 20
-4455.0
 30
0.0
 11
-6140.081333436773
 21
-4455.0
 31
0.0
  0
LINE
  5
87
330
1F
100
AcDbEntity
  8
F-0_補助線
  6
JWW_HOJO
 62
     7
370
     9
100
AcDbLine
 10
1009.918254163523
 20
-3795.000003092998
 30
0.0
 11
1009.918254163523
 21
-4195.000008247994
 31
0.0
  0
LINE
  5
88
330
1F
100
AcDbEntity
  8
F-0_補助線
  6
JWW_HOJO
 62
     7
370
     9
100
AcDbLine
 10
509.9185840832865
 20
-3795.000003092998
 30
0.0
 11
509.9185840832865
 21
-4195.000008247994
 31
0.0
  0
LINE
  5
89
330
1F
100
AcDbEntity
  8
F-1_枠
  6
Continuous
 62
   200
370
    20
100
AcDbLine
 10
5859.917429364114
 20
4174.999769056166
 30
0.0
 11
5859.917429364114
 21
-4205.000164959882
 31
0.0
  0
LINE
  5
8A
330
1F
100
AcDbEntity
  8
F-1_枠
  6
Continuous
 62
   200
370
    20
100
AcDbLine
 10
-5840.081317971782
 20
4174.999769056166
 30
0.0
 11
-5840.081317971782
 21
-4205.000164959882
 31
0.0
  0
LINE
  5
8B
330
1F
100
AcDbEntity
  8
F-1_枠
  6
Continuous
 62
   200
370
    20
100
AcDbLine
 10
5859.917429364114
 20
-4205.000002577498
 30
0.0
 11
-5840.081085996952
 21
-4205.000002577498
 31
0.0
  0
LINE
  5
8C
330
1F
100
AcDbEntity
  8
F-1_枠
  6
Continuous
 62
   200
370
    20
100
AcDbLine
 10
-5830.081323642279
 20
4174.999769056166
 30
0.0
 11
-5830.081323642279
 21
-4205.000164959882
 31
0.0
  0
LINE
  5
8D
330
1F
100
AcDbEntity
  8
F-1_枠
  6
Continuous
 62
   200
370
    20
100
AcDbLine
 10
-5835.081309208291
 20
4174.999769056166
 30
0.0
 11
-5835.081309208291
 21
-4205.000164959882
 31
0.0
  0
LINE
  5
8E
330
1F
100
AcDbEntity
  8
F-1_枠
  6
Continuous
 62
   200
370
    20
100
AcDbLine
 10
5854.917165428304
 20
4174.999769056166
 30
0.0
 11
5854.917165428304
 21
-4205.000164959882
 31
0.0
  0
LINE
  5
8F
330
1F
100
AcDbEntity
  8
F-1_枠
  6
Continuous
 62
   200
370
    20
100
AcDbLine
 10
5849.917643811961
 20
4174.999769056166
 30
0.0
 11
5849.917643811961
 21
-4205.000164959882
 31
0.0
  0
LINE
  5
90
330
1F
100
AcDbEntity
  8
F-1_枠
  6
Continuous
 62
   200
370
    20
100
AcDbLine
 10
5859.917429364114
 20
-4199.999993814004
 30
0.0
 11
-5840.081085996952
 21
-4199.999993814004
 31
0.0
  0
LINE
  5
91
330
1F
100
AcDbEntity
  8
F-1_枠
  6
Continuous
 62
   200
370
    20
100
AcDbLine
 10
5859.917429364114
 20
-4195.000008247994
 30
0.0
 11
-5840.081085996952
 21
-4195.000008247994
 31
0.0
  0
LINE
  5
92
330
1F
100
AcDbEntity
  8
F-1_枠
  6
Continuous
 62
   200
370
    20
100
AcDbLine
 10
4349.917891251784
 20
-3795.000003092998
 30
0.0
 11
4349.917891251784
 21
-4195.000008247994
 31
0.0
  0
LINE
  5
93
330
1F
100
AcDbEntity
  8
F-1_枠
  6
Continuous
 62
   200
370
    20
100
AcDbLine
 10
2849.917396372139
 20
-3795.000003092998
 30
0.0
 11
2849.917396372139
 21
-4195.000008247994
 31
0.0
  0
LINE
  5
94
330
1F
100
AcDbEntity
  8
F-1_枠
  6
Continuous
 62
   200
370
    20
100
AcDbLine
 10
9.918542843316231
 20
-3795.000003092998
 30
0.0
 11
9.918542843316231
 21
-4195.000008247994
 31
0.0
  0
LINE
  5
95
330
1F
100
AcDbEntity
  8
F-1_枠
  6
Continuous
 62
   200
370
    20
100
AcDbLine
 10
9.918542843316231
 20
-3994.999936078046
 30
0.0
 11
5849.917643811961
 21
-3995.005364289155
 31
0.0
  0
LINE
  5
96
330
1F
100
AcDbEntity
  8
F-1_枠
  6
Continuous
 62
   200
370
    20
100
AcDbLine
 10
-5840.081085996952
 20
4174.999769056166
 30
0.0
 11
5859.917429364114
 21
4174.999769056166
 31
0.0
  0
LINE
  5
97
330
1F
100
AcDbEntity
  8
F-1_枠
  6
Continuous
 62
   200
370
    20
100
AcDbLine
 10
-5840.081085996952
 20
4164.999983504013
 30
0.0
 11
5859.917429364114
 21
4164.999983504013
 31
0.0
  0
LINE
  5
98
330
1F
100
AcDbEntity
  8
F-1_枠
  6
Continuous
 62
   200
370
    20
100
AcDbLine
 10
-5840.081085996952
 20
4169.999505120355
 30
0.0
 11
5859.917429364114
 21
4169.999505120355
 31
0.0
  0
LINE
  5
99
330
1F
100
AcDbEntity
  8
F-0_補助線
  6
JWW_HOJO
 62
     7
370
     9
100
AcDbLine
 10
-5830.081323642279
 20
-3994.99993607839
 30
0.0
 11
9.918542843316231
 21
-3994.99993607839
 31
0.0
  0
LINE
  5
9A
330
1F
100
AcDbEntity
  8
F-0_補助線
  6
JWW_HOJO
 62
     7
370
     9
100
AcDbLine
 10
-5830.081323642279
 20
-3904.99993607839
 30
0.0
 11
9.918542843316231
 21
-3904.99993607839
 31
0.0
  0
LINE
  5
9B
330
1F
100
AcDbEntity
  8
F-0_補助線
  6
JWW_HOJO
 62
     7
370
     9
100
AcDbLine
 10
-5830.081323642279
 20
-4084.99993607839
 30
0.0
 11
9.918542843316231
 21
-4084.99993607839
 31
0.0
  0
LINE
  5
9C
330
1F
100
AcDbEntity
  8
F-0_補助線
  6
JWW_HOJO
 62
     7
370
     9
100
AcDbLine
 10
9.918408067688347
 20
-4139.999739777983
 30
0.0
 11
5849.917509036332
 21
-4140.005167989091
 31
0.0
  0
LINE
  5
9D
330
1F
100
AcDbEntity
  8
F-0_補助線
  6
JWW_HOJO
 62
     7
370
     9
100
AcDbLine
 10
9.918491721639953
 20
-4049.999739778022
 30
0.0
 11
5849.917592690284
 21
-4050.005167989131
 31
0.0
  0
LINE
  5
9E
330
1F
100
AcDbEntity
  8
F-0_補助線
  6
JWW_HOJO
 62
     7
370
     9
100
AcDbLine
 10
9.918593965360003
 20
-3939.99973721807
 30
0.0
 11
5849.917694934004
 21
-3940.005165429179
 31
0.0
  0
LINE
  5
9F
330
1F
100
AcDbEntity
  8
F-0_補助線
  6
JWW_HOJO
 62
     7
370
     9
100
AcDbLine
 10
9.918677619311609
 20
-3849.999737218109
 30
0.0
 11
5849.917778587956
 21
-3850.005165429218
 31
0.0
  0
LINE
  5
A0
330
1F
100
AcDbEntity
  8
F-0_補助線
  6
JWW_HOJO
 62
     7
370
     9
100
AcDbLine
 10
2939.917396372139
 20
-3795.000003092998
 30
0.0
 11
2939.917396372139
 21
-4195.000008247994
 31
0.0
  0
LINE
  5
A1
330
1F
100
AcDbEntity
  8
F-0_補助線
  6
JWW_HOJO
 62
     7
370
     9
100
AcDbLine
 10
99.91854284331623
 20
-3795.000003092998
 30
0.0
 11
99.91854284331623
 21
-4195.000008247994
 31
0.0
  0
LINE
  5
A2
330
1F
100
AcDbEntity
  8
F-0_補助線
  6
JWW_HOJO
 62
     7
370
     9
100
AcDbLine
 10
4439.917891251784
 20
-3795.000003092998
 30
0.0
 11
4439.917891251784
 21
-4195.000008247994
 31
0.0
  0
LINE
  5
A3
330
1F
100
AcDbEntity
  8
F-1_枠
  6
Continuous
 62
   200
370
    20
100
AcDbLine
 10
5859.917429364114
 20
-3795.000003092998
 30
0.0
 11
-5840.081085996952
 21
-3795.000003092998
 31
0.0
  0
LINE
  5
A4
330
1F
100
AcDbEntity
  8
F-1_枠
  6
Continuous
 62
   200
370
    20
100
AcDbLine
 10
5859.917429364114
 20
-3790.000017526987
 30
0.0
 11
-5840.081085996952
 21
-3790.000017526987
 31
0.0
  0
LINE
  5
A5
330
1F
100
AcDbEntity
  8
F-0_補助線
  6
JWW_HOJO
 62
     7
370
     9
100
AcDbLine
 10
-5087.628710189611
 20
-3795.000003092999
 30
0.0
 11
-5087.628710189611
 21
-4205.000164959882
 31
0.0
  0
LINE
  5
A6
330
1F
100
AcDbEntity
  8
F-0_補助線
  6
JWW_HOJO
 62
     7
370
     9
100
AcDbLine
 10
-50.08145715668377
 20
-3795.000003092998
 30
0.0
 11
-50.08145715668377
 21
-4195.000008247994
 31
0.0
  0
TEXT
  5
A7
330
1F
100
AcDbEntity
  8
F-0_補助線
  6
Continuous
 62
     7
370
     0
100
AcDbText
 10
509.9185840832865
 20
-3928.097291872503
 30
0.0
 40
66.06
  1
ＳＯＦＴＡＲＴ
 41
1.077453515576899
  7
HGP明朝B
100
AcDbText
  0
TEXT
  5
A8
330
1F
100
AcDbEntity
  8
F-0_補助線
  6
Continuous
 62
     7
370
     0
100
AcDbText
 10
1110.209427605311
 20
-3928.097291872503
 30
0.0
 40
68.58
  1
建具納まり図
 41
1.138888888888889
  7
ＭＳ ゴシック
100
AcDbText
  0
TEXT
  5
A9
330
1F
100
AcDbEntity
  8
F-A_文字
  6
Continuous
 62
     7
370
     0
100
AcDbText
 10
99.91854284331623
 20
-3871.539820871936
 30
0.0
 40
45.72
  1
図面名
  7
ＭＳ ゴシック
100
AcDbText
  0
TEXT
  5
AA
330
1F
100
AcDbEntity
  8
F-A_文字
  6
Continuous
 62
     7
370
     0
100
AcDbText
 10
2939.917396372139
 20
-3871.542460617774
 30
0.0
 40
45.72
  1
ＳＣＡＬＥ
  7
ＭＳ ゴシック
100
AcDbText
  0
TEXT
  5
AB
330
1F
100
AcDbEntity
  8
F-A_文字
  6
Continuous
 62
     7
370
     0
100
AcDbText
 10
4439.917891251784
 20
-3871.543854850754
 30
0.0
 40
45.72
  1
ＤＡＴＥ
  7
ＭＳ ゴシック
100
AcDbText
  0
TEXT
  5
AC
330
1F
100
AcDbEntity
  8
F-A_文字
  6
Continuous
 62
     7
370
     0
100
AcDbText
 10
2939.917396372139
 20
-4071.54246317786
 30
0.0
 40
45.72
  1
ＦＩＬＥ
  7
ＭＳ ゴシック
100
AcDbText
  0
TEXT
  5
AD
330
1F
100
AcDbEntity
  8
F-A_文字
  6
Continuous
 62
     7
370
     0
100
AcDbText
 10
4439.917891251784
 20
-4071.543857410839
 30
0.0
 40
45.72
  1
ＮＯ．
  7
ＭＳ ゴシック
100
AcDbText
  0
TEXT
  5
AE
330
1F
100
AcDbEntity
  8
F-A_文字
  6
Continuous
 62
     7
370
     0
100
AcDbText
 10
1394.917396372138
 20
-4080.540669266148
 30
0.0
 40
45.72
  1
株式
  7
ＭＳ ゴシック
100
AcDbText
  0
TEXT
  5
AF
330
1F
100
AcDbEntity
  8
F-A_文字
  6
Continuous
 62
     7
370
     0
100
AcDbText
 10
1604.917396372138
 20
-4138.082379523928
 30
0.0
 40
91.44
  1
ウッドワン・・・
 41
1.109375
  7
ＭＳ ゴシック
100
AcDbText
  0
TEXT
  5
B0
330
1F
100
AcDbEntity
  8
F-A_文字
  6
Continuous
 62
     7
370
     0
100
AcDbText
 10
1394.917396372138
 20
-4152.540669266186
 30
0.0
 40
45.72
  1
会社
  7
ＭＳ ゴシック
100
AcDbText
  0
TEXT
  5
B1
330
1F
100
AcDbEntity
  8
F-A_文字
  6
Continuous
 62
     7
370
     0
100
AcDbText
 10
5768.321977672939
 20
-4291.441419020919
 30
0.0
 40
68.58
  1
）
  7
ＭＳ ゴシック
100
AcDbText
  0
TEXT
  5
B2
330
1F
100
AcDbEntity
  8
F-A_文字
  6
Continuous
 62
     7
370
     0
100
AcDbText
 10
5350.114617405298
 20
-4292.835443869856
 30
0.0
 40
68.58
  1
,
  7
ＭＳ ゴシック
100
AcDbText
  0
TEXT
  5
B3
330
1F
100
AcDbEntity
  8
F-A_文字
  6
Continuous
 62
     7
370
     0
100
AcDbText
 10
5083.855928478601
 20
-4294.229467288283
 30
0.0
 40
68.58
  1
$y
 41
1.083333333333333
  7
ＭＳ ゴシック
100
AcDbText
  0
TEXT
  5
B4
330
1F
100
AcDbEntity
  8
F-A_文字
  6
Continuous
 62
     7
370
     0
100
AcDbText
 10
5238.592649517422
 20
-4294.229467288283
 30
0.0
 40
68.58
  1
$m
 41
1.083333333333333
  7
ＭＳ ゴシック
100
AcDbText
  0
TEXT
  5
B5
330
1F
100
AcDbEntity
  8
F-A_文字
  6
Continuous
 62
     7
370
     0
100
AcDbText
 10
5393.32938200033
 20
-4294.229467288283
 30
0.0
 40
68.58
  1
$d
 41
1.083333333333333
  7
ＭＳ ゴシック
100
AcDbText
  0
TEXT
  5
B6
330
1F
100
AcDbEntity
  8
F-A_文字
  6
Continuous
 62
     7
370
     0
100
AcDbText
 10
5548.066114483239
 20
-4294.229467288283
 30
0.0
 40
68.58
  1
印刷
 41
1.083333333333333
  7
ＭＳ ゴシック
100
AcDbText
  0
TEXT
  5
B7
330
1F
100
AcDbEntity
  8
F-A_文字
  6
Continuous
 62
     7
370
     0
100
AcDbText
 10
4943.952040816226
 20
-4295.623493567732
 30
0.0
 40
68.58
  1
（
  7
ＭＳ ゴシック
100
AcDbText
  0
TEXT
  5
B8
330
1F
100
AcDbEntity
  8
F-A_文字
  6
Continuous
 62
     7
370
     0
100
AcDbText
 10
5191.195810375571
 20
-4295.623493567732
 30
0.0
 40
68.58
  1
,
  7
ＭＳ ゴシック
100
AcDbText
  0
LINE
  5
B9
330
1F
100
AcDbEntity
  8
0-A_文字
  6
Continuous
 62
    92
370
    13
100
AcDbLine
 10
-5659.999495325861
 20
4000.000181456216
 30
0.0
 11
-5659.999495325861
 21
3730.000181456216
 31
0.0
  0
LINE
  5
BA
330
1F
100
AcDbEntity
  8
0-A_文字
  6
Continuous
 62
    92
370
    13
100
AcDbLine
 10
-5659.999495325861
 20
4000.000181456216
 30
0.0
 11
-2959.999495325861
 21
4000.000181456216
 31
0.0
  0
LINE
  5
BB
330
1F
100
AcDbEntity
  8
0-A_文字
  6
Continuous
 62
    92
370
    13
100
AcDbLine
 10
-5659.999495325861
 20
3730.000181456216
 30
0.0
 11
-2959.999495325861
 21
3730.000181456216
 31
0.0
  0
LINE
  5
BC
330
1F
100
AcDbEntity
  8
0-A_文字
  6
Continuous
 62
    92
370
    13
100
AcDbLine
 10
-2959.999495325861
 20
4000.000181456216
 30
0.0
 11
-2959.999495325861
 21
3730.000181456216
 31
0.0
  0
TEXT
  5
BD
330
1F
100
AcDbEntity
  8
0-A_文字
  6
Continuous
 62
    92
370
    13
100
AcDbText
 10
-5573.749495325861
 20
3800.380181456216
 30
0.0
 40
137.16
  1
スライディングドア[調整枠]
 41
1.080128205128205
  7
ＭＳ ゴシック
100
AcDbText
  0
TEXT
  5
BE
330
1F
100
AcDbEntity
  8
F-A_文字
  6
Continuous
 62
     7
370
     0
100
AcDbText
 10
-5080.081323642279
 20
-4027.30993607839
 30
0.0
 40
68.58
  1
ソフトアート　スライディングドア　調整枠　ドアＨ1,947　枠外Ｗ共通
 41
1.161538461538462
  7
ＭＳ ゴシック
100
AcDbText
  0
TEXT
  5
BF
330
1F
100
AcDbEntity
  8
F-A_文字
  6
Continuous
 62
     7
370
     9
100
AcDbText
 10
5096.167700144057
 20
-4127.314512699641
 30
0.0
 40
68.58
  1
01
 41
1.083333333333333
  7
ＭＳ ゴシック
100
AcDbText
  0
TEXT
  5
C0
330
1F
100
AcDbEntity
  8
F-A_文字
  6
Continuous
 62
     7
370
     0
100
AcDbText
 10
3569.917643811961
 20
-3927.313115907308
 30
0.0
 40
68.58
  1
1/5
 41
1.111111111111111
  7
ＭＳ ゴシック
100
AcDbText
  0
TEXT
  5
C1
330
1F
100
AcDbEntity
  8
F-A_文字
  6
Continuous
 62
     7
370
     0
100
AcDbText
 10
4938.667793092893
 20
-3919.814510139622
 30
0.0
 40
68.58
  1
18.08.01
 41
1.145833333333333
  7
ＭＳ ゴシック
100
AcDbText
  0
TEXT
  5
C2
330
1F
100
AcDbEntity
  8
F-A_文字
  6
Continuous
 62
     7
370
     9
100
AcDbText
 10
3307.417643811961
 20
-4127.313118467413
 30
0.0
 40
68.58
  1
F19-CXXXXe_S01
 41
1.154761904761905
  7
ＭＳ ゴシック
100
AcDbText
  0
LINE
  5
C3
330
1F
100
AcDbEntity
  8
F-0_補助線
  6
JWW_HOJO
 62
   120
370
     5
100
AcDbLine
 10
-6140.081333436773
 20
194.9998020481422
 30
0.0
 11
6159.917676803936
 21
194.9998020481422
 31
0.0
  0
LINE
  5
C4
330
1F
100
AcDbEntity
  8
F-0_補助線
  6
JWW_HOJO
 62
   120
370
     5
100
AcDbLine
 10
-5659.999495325861
 20
4424.999604096284
 30
0.0
 11
-5659.999495325861
 21
-4455.0
 31
0.0
  0
LINE
  5
C5
330
1F
100
AcDbEntity
  8
F-0_補助線
  6
JWW_HOJO
 62
   120
370
     5
100
AcDbLine
 10
-6140.081333436773
 20
2438.999683277028
 30
0.0
 11
6159.917676803936
 21
2438.999683277028
 31
0.0
  0
LINE
  5
C6
330
1F
100
AcDbEntity
  8
F-0_補助線
  6
JWW_HOJO
 62
   120
370
     5
100
AcDbLine
 10
-6140.081333436773
 20
-3159.000197951857
 30
0.0
 11
6159.917676803936
 21
-3159.000197951857
 31
0.0
  0
LINE
  5
C7
330
1F
100
AcDbEntity
  8
F-0_補助線
  6
JWW_HOJO
 62
   120
370
     5
100
AcDbLine
 10
-200.0818283164182
 20
-4455.0
 30
0.0
 11
-200.0818283164182
 21
194.9998020481422
 31
0.0
  0
LINE
  5
C8
330
1F
100
AcDbEntity
  8
F-0_補助線
  6
JWW_HOJO
 62
   120
370
     5
100
AcDbLine
 10
9.918171683581818
 20
-4455.0
 30
0.0
 11
9.918171683581818
 21
4424.999604096284
 31
0.0
  0
LINE
  5
C9
330
1F
100
AcDbEntity
  8
F-0_補助線
  6
JWW_HOJO
 62
   120
370
     5
100
AcDbLine
 10
219.9181716835818
 20
-4455.0
 30
0.0
 11
219.9181716835818
 21
194.9998020481422
 31
0.0
  0
LINE
  5
CA
330
1F
100
AcDbEntity
  8
F-0_補助線
  6
JWW_HOJO
 62
   120
370
     5
100
AcDbLine
 10
5679.835838693025
 20
4000.000181455871
 30
0.0
 11
5679.835838693025
 21
-4455.0
 31
0.0
  0
LINE
  5
CB
330
1F
100
AcDbEntity
  8
F-0_補助線
  6
JWW_HOJO
 62
   120
370
     5
100
AcDbLine
 10
-6140.081333436773
 20
3730.000181455871
 30
0.0
 11
6159.917676803936
 21
3730.000181455871
 31
0.0
  0
LINE
  5
CC
330
1F
100
AcDbEntity
  8
F-0_補助線
  6
JWW_HOJO
 62
   120
370
     5
100
AcDbLine
 10
-6140.081333436773
 20
4000.000181455871
 30
0.0
 11
6159.917676803936
 21
4000.000181455871
 31
0.0
  0
LINE
  5
CD
330
1F
100
AcDbEntity
  8
0-B_寸法
  6
Continuous
 62
   120
370
     5
100
AcDbLine
 10
-1862.042775180695
 20
2777.999683277028
 30
0.0
 11
-1670.583366858796
 21
2777.999683277028
 31
0.0
  0
LWPOLYLINE
  5
CE
330
1F
100
AcDbEntity
  8
0-B_寸法
  6
Continuous
 62
     7
370
     9
100
AcDbPolyline
 90
        4
 70
     1
 43
6.0
 10
-1667.583366858796
 20
2777.999683277028
 42
0.4142135623731
 10
-1670.583366858796
 20
2780.999683277028
 42
0.4142135623731
 10
-1673.583366858796
 20
2777.999683277028
 42
0.4142135623731
 10
-1670.583366858796
 20
2774.999683277028
 42
0.4142135623731
  0
LINE
  5
CF
330
1F
100
AcDbEntity
  8
ハッチ
  6
Continuous
 62
   120
370
     5
100
AcDbLine
 10
-1996.091195854779
 20
2100.00071262669
 30
0.0
 11
-1993.202088485691
 21
2102.889819995778
 31
0.0
  0
LINE
  5
D0
330
1F
100
AcDbEntity
  8
ハッチ
  6
Continuous
 62
   120
370
     5
100
AcDbLine
 10
-2038.516980403979
 20
2100.00071262669
 30
0.0
 11
-1993.202088485691
 21
2145.315604544975
 31
0.0
  0
LINE
  5
D1
330
1F
100
AcDbEntity
  8
ハッチ
  6
Continuous
 62
   120
370
     5
100
AcDbLine
 10
-2053.201915277819
 20
2127.741933461783
 30
0.0
 11
-1993.202088485691
 21
2187.74213141364
 31
0.0
  0
LINE
  5
D2
330
1F
100
AcDbEntity
  8
ハッチ
  6
Continuous
 62
   120
370
     5
100
AcDbLine
 10
-2123.369662981577
 20
2100.00071262669
 30
0.0
 11
-2107.201944970596
 21
2116.168430637668
 31
0.0
  0
LINE
  5
D3
330
1F
100
AcDbEntity
  8
ハッチ
  6
Continuous
 62
   120
370
     5
100
AcDbLine
 10
-2053.201915277819
 20
2764.136124894426
 30
0.0
 11
-2039.33835689522
 21
2777.999683277028
 31
0.0
  0
LINE
  5
D4
330
1F
100
AcDbEntity
  8
ハッチ
  6
Continuous
 62
   120
370
     5
100
AcDbLine
 10
-2137.202088485695
 20
2764.98925944442
 30
0.0
 11
-2124.191410632548
 21
2777.999683277028
 31
0.0
  0
LINE
  5
D5
330
1F
100
AcDbEntity
  8
ハッチ
  6
Continuous
 62
   120
370
     5
100
AcDbLine
 10
-2137.202088485695
 20
2722.562647265006
 30
0.0
 11
-2107.201944970596
 21
2752.562622070314
 31
0.0
  0
LINE
  5
D6
330
1F
100
AcDbEntity
  8
ハッチ
  6
Continuous
 62
   120
370
     5
100
AcDbLine
 10
-2137.202088485695
 20
2340.726334855363
 30
0.0
 11
-1993.928819244776
 21
2483.999604096285
 31
0.0
  0
LINE
  5
D7
330
1F
100
AcDbEntity
  8
ハッチ
  6
Continuous
 62
   120
370
     5
100
AcDbLine
 10
-2137.202088485695
 20
2298.299807986697
 30
0.0
 11
-1993.202088485691
 21
2442.299807986699
 31
0.0
  0
LINE
  5
D8
330
1F
100
AcDbEntity
  8
ハッチ
  6
Continuous
 62
   120
370
     5
100
AcDbLine
 10
-2137.202088485695
 20
2213.447496568835
 30
0.0
 11
-1993.202088485691
 21
2357.447496568835
 31
0.0
  0
LINE
  5
D9
330
1F
100
AcDbEntity
  8
ハッチ
  6
Continuous
 62
   120
370
     5
100
AcDbLine
 10
-2137.202088485695
 20
2171.02096970017
 30
0.0
 11
-1993.202088485691
 21
2315.02096970017
 31
0.0
  0
LINE
  5
DA
330
1F
100
AcDbEntity
  8
ハッチ
  6
Continuous
 62
   120
370
     5
100
AcDbLine
 10
-2137.202088485695
 20
2383.152119404561
 30
0.0
 11
-2002.095615163272
 21
2518.258592726988
 31
0.0
  0
LINE
  5
DB
330
1F
100
AcDbEntity
  8
ハッチ
  6
Continuous
 62
   120
370
     5
100
AcDbLine
 10
-2137.202088485695
 20
2255.874023437501
 30
0.0
 11
-1993.202088485691
 21
2399.874023437501
 31
0.0
  0
LINE
  5
DC
330
1F
100
AcDbEntity
  8
0-4_枠
  6
Continuous
 62
    92
370
    13
100
AcDbLine
 10
-2137.202088485695
 20
2777.999683277028
 30
0.0
 11
-2137.202088485695
 21
2099.999683277027
 31
0.0
  0
LINE
  5
DD
330
1F
100
AcDbEntity
  8
0-B_寸法
  6
Continuous
 62
   120
370
     5
100
AcDbLine
 10
-1670.583366858796
 20
2099.999683277027
 30
0.0
 11
-1670.583366858796
 21
2777.999683277028
 31
0.0
  0
LINE
  5
DE
330
1F
100
AcDbEntity
  8
0-B_寸法
  6
Continuous
 62
   120
370
     5
100
AcDbLine
 10
-1862.042775180695
 20
2099.999683277027
 30
0.0
 11
-1670.583366858796
 21
2099.999683277027
 31
0.0
  0
LWPOLYLINE
  5
DF
330
1F
100
AcDbEntity
  8
0-B_寸法
  6
Continuous
 62
     7
370
     9
100
AcDbPolyline
 90
        4
 70
     1
 43
6.0
 10
-1667.583366858796
 20
2099.999683277027
 42
0.4142135623731
 10
-1670.583366858796
 20
2102.999683277027
 42
0.4142135623731
 10
-1673.583366858796
 20
2099.999683277027
 42
0.4142135623731
 10
-1670.583366858796
 20
2096.999683277027
 42
0.4142135623731
  0
LINE
  5
E0
330
1F
100
AcDbEntity
  8
0-B_寸法
  6
Continuous
 62
   120
370
     5
100
AcDbLine
 10
-1490.583366858796
 20
2547.000257337416
 30
0.0
 11
-1490.583366858796
 21
2331.000138566301
 31
0.0
  0
LWPOLYLINE
  5
E1
330
1F
100
AcDbEntity
  8
0-B_寸法
  6
Continuous
 62
     7
370
     9
100
AcDbPolyline
 90
        4
 70
     1
 43
6.0
 10
-1487.583366858796
 20
2547.000257337416
 42
0.4142135623731
 10
-1490.583366858796
 20
2550.000257337416
 42
0.4142135623731
 10
-1493.583366858796
 20
2547.000257337416
 42
0.4142135623731
 10
-1490.583366858796
 20
2544.000257337416
 42
0.4142135623731
  0
LWPOLYLINE
  5
E2
330
1F
100
AcDbEntity
  8
0-B_寸法
  6
Continuous
 62
     7
370
     9
100
AcDbPolyline
 90
        4
 70
     1
 43
6.0
 10
-1487.583366858796
 20
2331.000138566301
 42
0.4142135623731
 10
-1490.583366858796
 20
2334.000138566301
 42
0.4142135623731
 10
-1493.583366858796
 20
2331.000138566301
 42
0.4142135623731
 10
-1490.583366858796
 20
2328.000138566301
 42
0.4142135623731
  0
LINE
  5
E3
330
1F
100
AcDbEntity
  8
0-B_寸法
  6
Continuous
 62
   120
370
     5
100
AcDbLine
 10
-1490.583366858796
 20
2547.000257337416
 30
0.0
 11
-1670.583366858796
 21
2547.000257337416
 31
0.0
  0
LINE
  5
E4
330
1F
100
AcDbEntity
  8
0-B_寸法
  6
Continuous
 62
   120
370
     5
100
AcDbLine
 10
-1490.583366858796
 20
2331.000138566301
 30
0.0
 11
-1670.583366858796
 21
2331.000138566301
 31
0.0
  0
LINE
  5
E5
330
1F
100
AcDbEntity
  8
0-6_扉
  6
Continuous
 62
   200
370
    20
100
AcDbLine
 10
-1969.202088485696
 20
2546.999683277029
 30
0.0
 11
-1969.202088485696
 21
2330.999683277028
 31
0.0
  0
LINE
  5
E6
330
1F
100
AcDbEntity
  8
0-4_枠
  6
Continuous
 62
    92
370
    13
100
AcDbLine
 10
-2137.202088485695
 20
2777.999683277028
 30
0.0
 11
-2107.202088485695
 21
2777.999683277028
 31
0.0
  0
LINE
  5
E7
330
1F
100
AcDbEntity
  8
0-4_枠
  6
Continuous
 62
    92
370
    13
100
AcDbLine
 10
-2053.202088485691
 20
2717.999683277028
 30
0.0
 11
-2053.202088485691
 21
2777.999683277028
 31
0.0
  0
LINE
  5
E8
330
1F
100
AcDbEntity
  8
0-4_枠
  6
Continuous
 62
    92
370
    13
100
AcDbLine
 10
-2107.202088485695
 20
2717.999683277028
 30
0.0
 11
-2107.202088485695
 21
2777.999683277028
 31
0.0
  0
LINE
  5
E9
330
1F
100
AcDbEntity
  8
0-4_枠
  6
Continuous
 62
    92
370
    13
100
AcDbLine
 10
-2107.202088485695
 20
2717.999683277028
 30
0.0
 11
-2053.202088485691
 21
2717.999683277028
 31
0.0
  0
LINE
  5
EA
330
1F
100
AcDbEntity
  8
0-4_枠
  6
Continuous
 62
    92
370
    13
100
AcDbLine
 10
-2053.202088485691
 20
2159.999683277027
 30
0.0
 11
-2053.202088485691
 21
2099.999683277027
 31
0.0
  0
LINE
  5
EB
330
1F
100
AcDbEntity
  8
0-4_枠
  6
Continuous
 62
    92
370
    13
100
AcDbLine
 10
-2137.202088485695
 20
2099.999683277027
 30
0.0
 11
-2107.202088485695
 21
2099.999683277027
 31
0.0
  0
LINE
  5
EC
330
1F
100
AcDbEntity
  8
0-4_枠
  6
Continuous
 62
    92
370
    13
100
AcDbLine
 10
-2107.202088485695
 20
2159.999683277027
 30
0.0
 11
-2107.202088485695
 21
2099.999683277027
 31
0.0
  0
LINE
  5
ED
330
1F
100
AcDbEntity
  8
0-4_枠
  6
Continuous
 62
    92
370
    13
100
AcDbLine
 10
-2107.202088485695
 20
2159.999683277027
 30
0.0
 11
-2053.202088485691
 21
2159.999683277027
 31
0.0
  0
LINE
  5
EE
330
1F
100
AcDbEntity
  8
0-4_枠
  6
Continuous
 62
    92
370
    13
100
AcDbLine
 10
-2053.202088485691
 20
2777.999683277028
 30
0.0
 11
-1993.202088485691
 21
2777.999683277028
 31
0.0
  0
LINE
  5
EF
330
1F
100
AcDbEntity
  8
0-4_枠
  6
Continuous
 62
    92
370
    13
100
AcDbLine
 10
-2053.202088485691
 20
2774.999683277029
 30
0.0
 11
-1996.202088485693
 21
2774.999683277029
 31
0.0
  0
LINE
  5
F0
330
1F
100
AcDbEntity
  8
0-4_枠
  6
Continuous
 62
    92
370
    13
100
AcDbLine
 10
-2053.202088485691
 20
2099.999683277027
 30
0.0
 11
-1993.202088485691
 21
2099.999683277027
 31
0.0
  0
LINE
  5
F1
330
1F
100
AcDbEntity
  8
0-4_枠
  6
Continuous
 62
    92
370
    13
100
AcDbLine
 10
-2053.202088485691
 20
2102.999683277028
 30
0.0
 11
-1996.202088485693
 21
2102.999683277028
 31
0.0
  0
LINE
  5
F2
330
1F
100
AcDbEntity
  8
ハッチ
  6
Continuous
 62
   120
370
     5
100
AcDbLine
 10
-2063.370768102354
 20
2159.999683277027
 30
0.0
 11
-1993.202088485691
 21
2230.168658282306
 31
0.0
  0
LINE
  5
F3
330
1F
100
AcDbEntity
  8
ハッチ
  6
Continuous
 62
   120
370
     5
100
AcDbLine
 10
-2137.202088485695
 20
2128.594442831504
 30
0.0
 11
-2107.202088485695
 21
2158.594442831504
 31
0.0
  0
LINE
  5
F4
330
1F
100
AcDbEntity
  8
ハッチ
  6
Continuous
 62
   120
370
     5
100
AcDbLine
 10
-2105.796848040168
 20
2159.999683277027
 30
0.0
 11
-1993.202088485691
 21
2272.594442831502
 31
0.0
  0
LINE
  5
F5
330
1F
100
AcDbEntity
  8
ハッチ
  6
Continuous
 62
   120
370
     5
100
AcDbLine
 10
-2137.202088485695
 20
2637.709795977619
 30
0.0
 11
-2056.912201186288
 21
2717.999683277028
 31
0.0
  0
LINE
  5
F6
330
1F
100
AcDbEntity
  8
ハッチ
  6
Continuous
 62
   120
370
     5
100
AcDbLine
 10
-2053.202088485691
 20
2721.709795977622
 30
0.0
 11
-1996.912201186288
 21
2777.999683277028
 31
0.0
  0
LINE
  5
F7
330
1F
100
AcDbEntity
  8
ハッチ
  6
Continuous
 62
   120
370
     5
100
AcDbLine
 10
-2137.202088485695
 20
2680.136177395278
 30
0.0
 11
-2099.338429622554
 21
2717.999683277028
 31
0.0
  0
LINE
  5
F8
330
1F
100
AcDbEntity
  8
0-7_金物
  6
Continuous
 62
     7
370
     9
100
AcDbLine
 10
-2152.201667838
 20
2529.000494879647
 30
0.0
 11
-2152.201667838
 21
2349.000643343539
 31
0.0
  0
LINE
  5
F9
330
1F
100
AcDbEntity
  8
0-7_金物
  6
Continuous
 62
     7
370
     9
100
AcDbLine
 10
-2167.202088485695
 20
2529.000494879647
 30
0.0
 11
-2167.202088485695
 21
2349.000643343539
 31
0.0
  0
LINE
  5
FA
330
1F
100
AcDbEntity
  8
0-7_金物
  6
Continuous
 62
     7
370
     9
100
AcDbLine
 10
-2152.201667838
 20
2499.000395903716
 30
0.0
 11
-2140.201702479571
 21
2499.000395903716
 31
0.0
  0
LINE
  5
FB
330
1F
100
AcDbEntity
  8
0-7_金物
  6
Continuous
 62
     7
370
     9
100
AcDbLine
 10
-2152.201667838
 20
2379.00074231947
 30
0.0
 11
-2140.201702479571
 21
2379.00074231947
 31
0.0
  0
LINE
  5
FC
330
1F
100
AcDbEntity
  8
0-7_金物
  6
Continuous
 62
     7
370
     9
100
AcDbLine
 10
-2140.201702479571
 20
2499.000395903716
 30
0.0
 11
-2140.201702479571
 21
2379.00074231947
 31
0.0
  0
LINE
  5
FD
330
1F
100
AcDbEntity
  8
0-7_金物
  6
Continuous
 62
     7
370
     9
100
AcDbLine
 10
-2167.202088485695
 20
2529.000494879647
 30
0.0
 11
-2152.201667838
 21
2529.000494879647
 31
0.0
  0
LINE
  5
FE
330
1F
100
AcDbEntity
  8
0-7_金物
  6
Continuous
 62
     7
370
     9
100
AcDbLine
 10
-2167.202088485695
 20
2349.000643343539
 30
0.0
 11
-2152.201667838
 21
2349.000643343539
 31
0.0
  0
LINE
  5
FF
330
1F
100
AcDbEntity
  8
0-7_金物
  6
Continuous
 62
     7
370
     9
100
AcDbLine
 10
-2140.201702479571
 20
2493.000227644639
 30
0.0
 11
-2137.202088485695
 21
2493.000227644639
 31
0.0
  0
LINE
  5
100
330
1F
100
AcDbEntity
  8
0-7_金物
  6
Continuous
 62
     7
370
     9
100
AcDbLine
 10
-2140.201702479571
 20
2385.00016825908
 30
0.0
 11
-2137.202088485695
 21
2385.00016825908
 31
0.0
  0
LINE
  5
101
330
1F
100
AcDbEntity
  8
仕上げ
  6
Continuous
 62
     7
370
     9
100
AcDbLine
 10
-2167.202088485695
 20
2777.999683277028
 30
0.0
 11
-2167.202088485695
 21
2099.999683277027
 31
0.0
  0
LINE
  5
102
330
1F
100
AcDbEntity
  8
仕上げ
  6
Continuous
 62
     7
370
     9
100
AcDbLine
 10
-2467.202088485695
 20
2777.999683277028
 30
0.0
 11
-2167.202088485695
 21
2777.999683277028
 31
0.0
  0
LINE
  5
103
330
1F
100
AcDbEntity
  8
仕上げ
  6
Continuous
 62
     7
370
     9
100
AcDbLine
 10
-2467.202088485695
 20
2099.999683277027
 30
0.0
 11
-2167.202088485695
 21
2099.999683277027
 31
0.0
  0
LINE
  5
104
330
1F
100
AcDbEntity
  8
0-4_枠
  6
Continuous
 62
    92
370
    13
100
AcDbLine
 10
-1996.202088485693
 20
2720.999683277028
 30
0.0
 11
-1996.202088485693
 21
2774.999683277029
 31
0.0
  0
LINE
  5
105
330
1F
100
AcDbEntity
  8
0-4_枠
  6
Continuous
 62
    92
370
    13
100
AcDbLine
 10
-1993.202088485691
 20
2720.999683277028
 30
0.0
 11
-1993.202088485691
 21
2777.999683277028
 31
0.0
  0
LINE
  5
106
330
1F
100
AcDbEntity
  8
0-4_枠
  6
Continuous
 62
    92
370
    13
100
AcDbLine
 10
-1996.202088485693
 20
2564.999683277027
 30
0.0
 11
-1996.202088485693
 21
2102.999683277028
 31
0.0
  0
LINE
  5
107
330
1F
100
AcDbEntity
  8
0-4_枠
  6
Continuous
 62
    92
370
    13
100
AcDbLine
 10
-1993.202088485691
 20
2564.999683277027
 30
0.0
 11
-1993.202088485691
 21
2099.999683277027
 31
0.0
  0
LINE
  5
108
330
1F
100
AcDbEntity
  8
ハッチ
  6
Continuous
 62
   120
370
     5
100
AcDbLine
 10
-2137.202088485695
 20
2595.284011428421
 30
0.0
 11
-1993.202088485691
 21
2739.284011428425
 31
0.0
  0
LINE
  5
109
330
1F
100
AcDbEntity
  8
ハッチ
  6
Continuous
 62
   120
370
     5
100
AcDbLine
 10
-2137.202088485695
 20
2425.578646273228
 30
0.0
 11
-1997.781051481892
 21
2564.999683277027
 31
0.0
  0
ARC
  5
10A
330
1F
100
AcDbEntity
  8
戸当り
  6
Continuous
 62
     7
370
     9
100
AcDbCircle
 10
-1970.616395126317
 20
2576.885425464528
 30
0.0
 40
26.92291831970215
100
AcDbArc
 50
199.2714385986328
 51
340.7285461425781
  0
ARC
  5
10B
330
1F
100
AcDbEntity
  8
戸当り
  6
Continuous
 62
     7
370
     9
100
AcDbCircle
 10
-1939.202088485689
 20
2573.999683277028
 30
0.0
 40
5.999999999999999
100
AcDbArc
 50
270.0
 51
0.0
  0
LINE
  5
10C
330
1F
100
AcDbEntity
  8
戸当り
  6
Continuous
 62
     7
370
     9
100
AcDbLine
 10
-1939.202088485689
 20
2567.999683277028
 30
0.0
 11
-1957.202088485692
 21
2567.999683277028
 31
0.0
  0
LINE
  5
10D
330
1F
100
AcDbEntity
  8
戸当り
  6
Continuous
 62
     7
370
     9
100
AcDbLine
 10
-1993.202088485691
 20
2735.999683277028
 30
0.0
 11
-1993.202088485691
 21
2717.999683277028
 31
0.0
  0
LINE
  5
10E
330
1F
100
AcDbEntity
  8
戸当り
  6
Continuous
 62
     7
370
     9
100
AcDbLine
 10
-2005.202088485689
 20
2717.999683277028
 30
0.0
 11
-1993.202088485691
 21
2717.999683277028
 31
0.0
  0
LINE
  5
10F
330
1F
100
AcDbEntity
  8
戸当り
  6
Continuous
 62
     7
370
     9
100
AcDbLine
 10
-2005.202088485689
 20
2567.999683277028
 30
0.0
 11
-2005.202088485689
 21
2717.999683277028
 31
0.0
  0
LINE
  5
110
330
1F
100
AcDbEntity
  8
戸当り
  6
Continuous
 62
     7
370
     9
100
AcDbLine
 10
-2005.202088485689
 20
2567.999683277028
 30
0.0
 11
-1981.20208848569
 21
2567.999683277028
 31
0.0
  0
LINE
  5
111
330
1F
100
AcDbEntity
  8
戸当り
  6
Continuous
 62
     7
370
     9
100
AcDbLine
 10
-1981.20208848569
 20
2609.999683277027
 30
0.0
 11
-1957.202088485692
 21
2609.999683277027
 31
0.0
  0
LINE
  5
112
330
1F
100
AcDbEntity
  8
戸当り
  6
Continuous
 62
     7
370
     9
100
AcDbLine
 10
-1981.20208848569
 20
2609.999683277027
 30
0.0
 11
-1981.20208848569
 21
2567.999683277028
 31
0.0
  0
LINE
  5
113
330
1F
100
AcDbEntity
  8
戸当り
  6
Continuous
 62
     7
370
     9
100
AcDbLine
 10
-1957.202088485692
 20
2609.999683277027
 30
0.0
 11
-1957.202088485692
 21
2567.999683277028
 31
0.0
  0
ARC
  5
114
330
1F
100
AcDbEntity
  8
戸当り
  6
Continuous
 62
     7
370
     9
100
AcDbCircle
 10
-1939.202088485689
 20
2729.999683277027
 30
0.0
 40
5.999999999999999
100
AcDbArc
 50
0.0
 51
90.0
  0
LINE
  5
115
330
1F
100
AcDbEntity
  8
戸当り
  6
Continuous
 62
     7
370
     9
100
AcDbLine
 10
-1933.202088485691
 20
2729.999683277027
 30
0.0
 11
-1933.202088485691
 21
2573.999683277028
 31
0.0
  0
LINE
  5
116
330
1F
100
AcDbEntity
  8
戸当り
  6
Continuous
 62
     7
370
     9
100
AcDbLine
 10
-1939.202088485689
 20
2735.999683277028
 30
0.0
 11
-1993.202088485691
 21
2735.999683277028
 31
0.0
  0
LINE
  5
117
330
1F
100
AcDbEntity
  8
0-4_枠
  6
Continuous
 62
    92
370
    13
100
AcDbLine
 10
-2005.202088485689
 20
2720.999683277028
 30
0.0
 11
-1993.202088485691
 21
2720.999683277028
 31
0.0
  0
LINE
  5
118
330
1F
100
AcDbEntity
  8
0-4_枠
  6
Continuous
 62
    92
370
    13
100
AcDbLine
 10
-2005.202088485689
 20
2564.999683277027
 30
0.0
 11
-1993.202088485691
 21
2564.999683277027
 31
0.0
  0
LINE
  5
119
330
1F
100
AcDbEntity
  8
0-4_枠
  6
Continuous
 62
    92
370
    13
100
AcDbLine
 10
-2005.202088485689
 20
2564.999683277027
 30
0.0
 11
-2005.202088485689
 21
2720.999683277028
 31
0.0
  0
LINE
  5
11A
330
1F
100
AcDbEntity
  8
ハッチ
  6
Continuous
 62
   120
370
     5
100
AcDbLine
 10
-2137.202088485695
 20
2552.857484559755
 30
0.0
 11
-2005.202088485689
 21
2684.857484559759
 31
0.0
  0
LINE
  5
11B
330
1F
100
AcDbEntity
  8
ハッチ
  6
Continuous
 62
   120
370
     5
100
AcDbLine
 10
-2137.202088485695
 20
2510.431700010559
 30
0.0
 11
-2005.202088485689
 21
2642.43170001056
 31
0.0
  0
LINE
  5
11C
330
1F
100
AcDbEntity
  8
ハッチ
  6
Continuous
 62
   120
370
     5
100
AcDbLine
 10
-2137.202088485695
 20
2468.005173141892
 30
0.0
 11
-2005.202088485689
 21
2600.005173141898
 31
0.0
  0
LINE
  5
11D
330
1F
100
AcDbEntity
  8
0-B_寸法
  6
Continuous
 62
   120
370
     5
100
AcDbLine
 10
-1993.202088485691
 20
1140.000197957028
 30
0.0
 11
-1993.202088485696
 21
1920.000197957028
 31
0.0
  0
LWPOLYLINE
  5
11E
330
1F
100
AcDbEntity
  8
0-B_寸法
  6
Continuous
 62
     7
370
     9
100
AcDbPolyline
 90
        4
 70
     1
 43
6.0
 10
-2134.202088485695
 20
1140.000197957028
 42
0.4142135623731
 10
-2137.202088485695
 20
1143.000197957028
 42
0.4142135623731
 10
-2140.202088485695
 20
1140.000197957028
 42
0.4142135623731
 10
-2137.202088485695
 20
1137.000197957028
 42
0.4142135623731
  0
LWPOLYLINE
  5
11F
330
1F
100
AcDbEntity
  8
0-B_寸法
  6
Continuous
 62
     7
370
     9
100
AcDbPolyline
 90
        4
 70
     1
 43
6.0
 10
-1990.202088485691
 20
1140.000197957028
 42
0.4142135623731
 10
-1993.202088485691
 20
1143.000197957028
 42
0.4142135623731
 10
-1996.202088485691
 20
1140.000197957028
 42
0.4142135623731
 10
-1993.202088485691
 20
1137.000197957028
 42
0.4142135623731
  0
LWPOLYLINE
  5
120
330
1F
100
AcDbEntity
  8
0-B_寸法
  6
Continuous
 62
     7
370
     9
100
AcDbPolyline
 90
        4
 70
     1
 43
6.0
 10
-2134.202088485695
 20
930.0001979570283
 42
0.4142135623731
 10
-2137.202088485695
 20
933.0001979570283
 42
0.4142135623731
 10
-2140.202088485695
 20
930.0001979570283
 42
0.4142135623731
 10
-2137.202088485695
 20
927.0001979570283
 42
0.4142135623731
  0
LINE
  5
121
330
1F
100
AcDbEntity
  8
0-B_寸法
  6
Continuous
 62
   120
370
     5
100
AcDbLine
 10
-2137.202088485695
 20
930.0001979570283
 30
0.0
 11
-2137.202088485695
 21
1919.999683277027
 31
0.0
  0
LWPOLYLINE
  5
122
330
1F
100
AcDbEntity
  8
0-B_寸法
  6
Continuous
 62
     7
370
     9
100
AcDbPolyline
 90
        4
 70
     1
 43
6.0
 10
-2164.202088485695
 20
930.0001979570283
 42
0.4142135623731
 10
-2167.202088485695
 20
933.0001979570283
 42
0.4142135623731
 10
-2170.202088485695
 20
930.0001979570283
 42
0.4142135623731
 10
-2167.202088485695
 20
927.0001979570283
 42
0.4142135623731
  0
LINE
  5
123
330
1F
100
AcDbEntity
  8
0-B_寸法
  6
Continuous
 62
   120
370
     5
100
AcDbLine
 10
-2167.202088485695
 20
720.0001979570291
 30
0.0
 11
-2167.202088485695
 21
1919.999683277027
 31
0.0
  0
LWPOLYLINE
  5
124
330
1F
100
AcDbEntity
  8
0-B_寸法
  6
Continuous
 62
     7
370
     9
100
AcDbPolyline
 90
        4
 70
     1
 43
6.0
 10
-2164.202088485695
 20
720.0001979570291
 42
0.4142135623731
 10
-2167.202088485695
 20
723.0001979570292
 42
0.4142135623731
 10
-2170.202088485695
 20
720.0001979570291
 42
0.4142135623731
 10
-2167.202088485695
 20
717.0001979570291
 42
0.4142135623731
  0
LWPOLYLINE
  5
125
330
1F
100
AcDbEntity
  8
0-B_寸法
  6
Continuous
 62
     7
370
     9
100
AcDbPolyline
 90
        4
 70
     1
 43
6.0
 10
-1990.202088485696
 20
3147.016061564037
 42
0.4142135623731
 10
-1993.202088485696
 20
3150.016061564037
 42
0.4142135623731
 10
-1996.202088485696
 20
3147.016061564037
 42
0.4142135623731
 10
-1993.202088485696
 20
3144.016061564037
 42
0.4142135623731
  0
LINE
  5
126
330
1F
100
AcDbEntity
  8
0-B_寸法
  6
Continuous
 62
   120
370
     5
100
AcDbLine
 10
-2137.202088485695
 20
3147.016061564037
 30
0.0
 11
-2137.202088485695
 21
2852.768662182618
 31
0.0
  0
LINE
  5
127
330
1F
100
AcDbEntity
  8
0-B_寸法
  6
Continuous
 62
   120
370
     5
100
AcDbLine
 10
-2137.202088485695
 20
3147.016061564037
 30
0.0
 11
-1993.202088485696
 21
3147.016061564037
 31
0.0
  0
LWPOLYLINE
  5
128
330
1F
100
AcDbEntity
  8
0-B_寸法
  6
Continuous
 62
     7
370
     9
100
AcDbPolyline
 90
        4
 70
     1
 43
6.0
 10
-2134.202088485695
 20
3147.016061564037
 42
0.4142135623731
 10
-2137.202088485695
 20
3150.016061564037
 42
0.4142135623731
 10
-2140.202088485695
 20
3147.016061564037
 42
0.4142135623731
 10
-2137.202088485695
 20
3144.016061564037
 42
0.4142135623731
  0
LINE
  5
129
330
1F
100
AcDbEntity
  8
0-B_寸法
  6
Continuous
 62
   120
370
     5
100
AcDbLine
 10
-1993.202088485696
 20
3147.016061564037
 30
0.0
 11
-1993.202088485696
 21
2852.768662182618
 31
0.0
  0
LWPOLYLINE
  5
12A
330
1F
100
AcDbEntity
  8
0-B_寸法
  6
Continuous
 62
     7
370
     9
100
AcDbPolyline
 90
        4
 70
     1
 43
6.0
 10
-1990.202088485696
 20
3005.87366720151
 42
0.4142135623731
 10
-1993.202088485696
 20
3008.87366720151
 42
0.4142135623731
 10
-1996.202088485696
 20
3005.87366720151
 42
0.4142135623731
 10
-1993.202088485696
 20
3002.873667201511
 42
0.4142135623731
  0
LINE
  5
12B
330
1F
100
AcDbEntity
  8
0-B_寸法
  6
Continuous
 62
   120
370
     5
100
AcDbLine
 10
-2053.202088485691
 20
3005.87366720151
 30
0.0
 11
-2053.202088485691
 21
2852.768662182618
 31
0.0
  0
LWPOLYLINE
  5
12C
330
1F
100
AcDbEntity
  8
0-B_寸法
  6
Continuous
 62
     7
370
     9
100
AcDbPolyline
 90
        4
 70
     1
 43
6.0
 10
-2050.202088485691
 20
3005.87366720151
 42
0.4142135623731
 10
-2053.202088485691
 20
3008.87366720151
 42
0.4142135623731
 10
-2056.202088485691
 20
3005.87366720151
 42
0.4142135623731
 10
-2053.202088485691
 20
3002.873667201511
 42
0.4142135623731
  0
LINE
  5
12D
330
1F
100
AcDbEntity
  8
0-B_寸法
  6
Continuous
 62
   120
370
     5
100
AcDbLine
 10
-2107.202088485695
 20
3005.87366720151
 30
0.0
 11
-2107.202088485695
 21
2852.768662182618
 31
0.0
  0
LWPOLYLINE
  5
12E
330
1F
100
AcDbEntity
  8
0-B_寸法
  6
Continuous
 62
     7
370
     9
100
AcDbPolyline
 90
        4
 70
     1
 43
6.0
 10
-2104.202088485695
 20
3005.87366720151
 42
0.4142135623731
 10
-2107.202088485695
 20
3008.87366720151
 42
0.4142135623731
 10
-2110.202088485695
 20
3005.87366720151
 42
0.4142135623731
 10
-2107.202088485695
 20
3002.873667201511
 42
0.4142135623731
  0
LINE
  5
12F
330
1F
100
AcDbEntity
  8
0-B_寸法
  6
Continuous
 62
   120
370
     5
100
AcDbLine
 10
-2137.202088485695
 20
3005.87366720151
 30
0.0
 11
-1993.202088485696
 21
3005.87366720151
 31
0.0
  0
LWPOLYLINE
  5
130
330
1F
100
AcDbEntity
  8
0-B_寸法
  6
Continuous
 62
     7
370
     9
100
AcDbPolyline
 90
        4
 70
     1
 43
6.0
 10
-2134.202088485695
 20
3005.87366720151
 42
0.4142135623731
 10
-2137.202088485695
 20
3008.87366720151
 42
0.4142135623731
 10
-2140.202088485695
 20
3005.87366720151
 42
0.4142135623731
 10
-2137.202088485695
 20
3002.873667201511
 42
0.4142135623731
  0
LINE
  5
131
330
1F
100
AcDbEntity
  8
0-0_補助線
  6
JWW_HOJO
 62
   120
370
     5
100
AcDbLine
 10
-2467.202088485695
 20
2852.768662182618
 30
0.0
 11
-2467.202088485695
 21
720.0001979570291
 31
0.0
  0
LINE
  5
132
330
1F
100
AcDbEntity
  8
ハッチ
  6
Continuous
 62
   120
370
     5
100
AcDbLine
 10
2034.353323771143
 20
2100.00071262669
 30
0.0
 11
1989.03843185286
 21
2145.315604544975
 31
0.0
  0
LINE
  5
133
330
1F
100
AcDbEntity
  8
ハッチ
  6
Continuous
 62
   120
370
     5
100
AcDbLine
 10
2119.206006348741
 20
2100.00071262669
 30
0.0
 11
2103.038288337762
 21
2116.168430637668
 31
0.0
  0
LINE
  5
134
330
1F
100
AcDbEntity
  8
ハッチ
  6
Continuous
 62
   120
370
     5
100
AcDbLine
 10
2049.038258644985
 20
2764.136124894426
 30
0.0
 11
2035.174700262379
 21
2777.999683277028
 31
0.0
  0
LINE
  5
135
330
1F
100
AcDbEntity
  8
ハッチ
  6
Continuous
 62
   120
370
     5
100
AcDbLine
 10
2133.038431852858
 20
2764.98925944442
 30
0.0
 11
2120.027753999712
 21
2777.999683277028
 31
0.0
  0
LINE
  5
136
330
1F
100
AcDbEntity
  8
ハッチ
  6
Continuous
 62
   120
370
     5
100
AcDbLine
 10
2133.038431852858
 20
2722.562647265006
 30
0.0
 11
2103.038288337762
 21
2752.562622070314
 31
0.0
  0
LINE
  5
137
330
1F
100
AcDbEntity
  8
ハッチ
  6
Continuous
 62
   120
370
     5
100
AcDbLine
 10
2133.038431852858
 20
2595.284011428421
 30
0.0
 11
1989.03843185286
 21
2739.284011428422
 31
0.0
  0
LINE
  5
138
330
1F
100
AcDbEntity
  8
ハッチ
  6
Continuous
 62
   120
370
     5
100
AcDbLine
 10
2133.038431852858
 20
2552.857484559755
 30
0.0
 11
1989.03843185286
 21
2696.857484559755
 31
0.0
  0
LINE
  5
139
330
1F
100
AcDbEntity
  8
ハッチ
  6
Continuous
 62
   120
370
     5
100
AcDbLine
 10
2133.038431852858
 20
2510.431700010559
 30
0.0
 11
1989.03843185286
 21
2654.431700010558
 31
0.0
  0
LINE
  5
13A
330
1F
100
AcDbEntity
  8
ハッチ
  6
Continuous
 62
   120
370
     5
100
AcDbLine
 10
2133.038431852858
 20
2468.005173141892
 30
0.0
 11
1989.03843185286
 21
2612.005173141893
 31
0.0
  0
LINE
  5
13B
330
1F
100
AcDbEntity
  8
ハッチ
  6
Continuous
 62
   120
370
     5
100
AcDbLine
 10
2133.038431852858
 20
2425.578646273228
 30
0.0
 11
1989.03843185286
 21
2569.578646273226
 31
0.0
  0
LINE
  5
13C
330
1F
100
AcDbEntity
  8
ハッチ
  6
Continuous
 62
   120
370
     5
100
AcDbLine
 10
2133.038431852858
 20
2340.726334855363
 30
0.0
 11
1989.765162611935
 21
2483.999604096285
 31
0.0
  0
LINE
  5
13D
330
1F
100
AcDbEntity
  8
ハッチ
  6
Continuous
 62
   120
370
     5
100
AcDbLine
 10
2133.038431852858
 20
2298.299807986697
 30
0.0
 11
1989.03843185286
 21
2442.299807986699
 31
0.0
  0
LINE
  5
13E
330
1F
100
AcDbEntity
  8
ハッチ
  6
Continuous
 62
   120
370
     5
100
AcDbLine
 10
2133.038431852858
 20
2383.152119404561
 30
0.0
 11
1989.03843185286
 21
2527.152119404561
 31
0.0
  0
LINE
  5
13F
330
1F
100
AcDbEntity
  8
ハッチ
  6
Continuous
 62
   120
370
     5
100
AcDbLine
 10
2133.038431852858
 20
2255.874023437501
 30
0.0
 11
1989.03843185286
 21
2399.874023437501
 31
0.0
  0
LINE
  5
140
330
1F
100
AcDbEntity
  8
0-4_枠
  6
Continuous
 62
    92
370
    13
100
AcDbLine
 10
2133.038431852858
 20
2777.999683277028
 30
0.0
 11
2133.038431852858
 21
2099.999683277027
 31
0.0
  0
LINE
  5
141
330
1F
100
AcDbEntity
  8
0-6_扉
  6
Continuous
 62
   200
370
    20
100
AcDbLine
 10
1965.038431852861
 20
2546.999683277029
 30
0.0
 11
1965.038431852861
 21
2330.999683277028
 31
0.0
  0
LINE
  5
142
330
1F
100
AcDbEntity
  8
0-4_枠
  6
Continuous
 62
    92
370
    13
100
AcDbLine
 10
2133.038431852858
 20
2777.999683277028
 30
0.0
 11
2103.038431852858
 21
2777.999683277028
 31
0.0
  0
LINE
  5
143
330
1F
100
AcDbEntity
  8
0-4_枠
  6
Continuous
 62
    92
370
    13
100
AcDbLine
 10
2133.038431852858
 20
2099.999683277027
 30
0.0
 11
2103.038431852858
 21
2099.999683277027
 31
0.0
  0
LINE
  5
144
330
1F
100
AcDbEntity
  8
0-4_枠
  6
Continuous
 62
    92
370
    13
100
AcDbLine
 10
2049.03843185286
 20
2717.999683277028
 30
0.0
 11
2049.03843185286
 21
2777.999683277028
 31
0.0
  0
LINE
  5
145
330
1F
100
AcDbEntity
  8
0-4_枠
  6
Continuous
 62
    92
370
    13
100
AcDbLine
 10
2103.038431852858
 20
2717.999683277028
 30
0.0
 11
2103.038431852858
 21
2777.999683277028
 31
0.0
  0
LINE
  5
146
330
1F
100
AcDbEntity
  8
0-4_枠
  6
Continuous
 62
    92
370
    13
100
AcDbLine
 10
2103.038431852858
 20
2717.999683277028
 30
0.0
 11
2049.03843185286
 21
2717.999683277028
 31
0.0
  0
LINE
  5
147
330
1F
100
AcDbEntity
  8
0-4_枠
  6
Continuous
 62
    92
370
    13
100
AcDbLine
 10
2049.03843185286
 20
2159.999683277027
 30
0.0
 11
2049.03843185286
 21
2099.999683277027
 31
0.0
  0
LINE
  5
148
330
1F
100
AcDbEntity
  8
0-4_枠
  6
Continuous
 62
    92
370
    13
100
AcDbLine
 10
2103.038431852858
 20
2159.999683277027
 30
0.0
 11
2103.038431852858
 21
2099.999683277027
 31
0.0
  0
LINE
  5
149
330
1F
100
AcDbEntity
  8
0-4_枠
  6
Continuous
 62
    92
370
    13
100
AcDbLine
 10
2103.038431852858
 20
2159.999683277027
 30
0.0
 11
2049.03843185286
 21
2159.999683277027
 31
0.0
  0
LINE
  5
14A
330
1F
100
AcDbEntity
  8
0-4_枠
  6
Continuous
 62
    92
370
    13
100
AcDbLine
 10
2049.03843185286
 20
2099.999683277027
 30
0.0
 11
1989.03843185286
 21
2099.999683277027
 31
0.0
  0
LINE
  5
14B
330
1F
100
AcDbEntity
  8
0-4_枠
  6
Continuous
 62
    92
370
    13
100
AcDbLine
 10
2049.03843185286
 20
2102.999683277028
 30
0.0
 11
1992.038431852858
 21
2102.999683277028
 31
0.0
  0
LINE
  5
14C
330
1F
100
AcDbEntity
  8
0-4_枠
  6
Continuous
 62
    92
370
    13
100
AcDbLine
 10
2049.03843185286
 20
2777.999683277028
 30
0.0
 11
1989.03843185286
 21
2777.999683277028
 31
0.0
  0
LINE
  5
14D
330
1F
100
AcDbEntity
  8
0-4_枠
  6
Continuous
 62
    92
370
    13
100
AcDbLine
 10
2049.03843185286
 20
2774.999683277029
 30
0.0
 11
1992.038431852858
 21
2774.999683277029
 31
0.0
  0
LINE
  5
14E
330
1F
100
AcDbEntity
  8
0-7_金物
  6
Continuous
 62
     7
370
     9
100
AcDbLine
 10
2146.237866545654
 20
2529.000494879647
 30
0.0
 11
2146.237866545654
 21
2349.000643343539
 31
0.0
  0
LINE
  5
14F
330
1F
100
AcDbEntity
  8
0-7_金物
  6
Continuous
 62
     7
370
     9
100
AcDbLine
 10
2161.238287193351
 20
2529.000494879647
 30
0.0
 11
2161.238287193351
 21
2349.000643343539
 31
0.0
  0
LINE
  5
150
330
1F
100
AcDbEntity
  8
0-7_金物
  6
Continuous
 62
     7
370
     9
100
AcDbLine
 10
2146.237866545654
 20
2499.000395903716
 30
0.0
 11
2134.237901187228
 21
2499.000395903716
 31
0.0
  0
LINE
  5
151
330
1F
100
AcDbEntity
  8
0-7_金物
  6
Continuous
 62
     7
370
     9
100
AcDbLine
 10
2146.237866545654
 20
2379.00074231947
 30
0.0
 11
2134.237901187228
 21
2379.00074231947
 31
0.0
  0
LINE
  5
152
330
1F
100
AcDbEntity
  8
0-7_金物
  6
Continuous
 62
     7
370
     9
100
AcDbLine
 10
2134.237901187228
 20
2499.000395903716
 30
0.0
 11
2134.237901187228
 21
2379.00074231947
 31
0.0
  0
LINE
  5
153
330
1F
100
AcDbEntity
  8
0-7_金物
  6
Continuous
 62
     7
370
     9
100
AcDbLine
 10
2161.238287193351
 20
2529.000494879647
 30
0.0
 11
2146.237866545654
 21
2529.000494879647
 31
0.0
  0
LINE
  5
154
330
1F
100
AcDbEntity
  8
0-7_金物
  6
Continuous
 62
     7
370
     9
100
AcDbLine
 10
2161.238287193351
 20
2349.000643343539
 30
0.0
 11
2146.237866545654
 21
2349.000643343539
 31
0.0
  0
LINE
  5
155
330
1F
100
AcDbEntity
  8
0-7_金物
  6
Continuous
 62
     7
370
     9
100
AcDbLine
 10
2134.237901187228
 20
2493.000227644639
 30
0.0
 11
2133.038431852858
 21
2493.000227644639
 31
0.0
  0
LINE
  5
156
330
1F
100
AcDbEntity
  8
0-7_金物
  6
Continuous
 62
     7
370
     9
100
AcDbLine
 10
2134.237901187228
 20
2385.00016825908
 30
0.0
 11
2133.038431852858
 21
2385.00016825908
 31
0.0
  0
LINE
  5
157
330
1F
100
AcDbEntity
  8
仕上げ
  6
Continuous
 62
     7
370
     9
100
AcDbLine
 10
2163.038431852858
 20
2099.999683277027
 30
0.0
 11
2163.038431852858
 21
2777.999683277028
 31
0.0
  0
LINE
  5
158
330
1F
100
AcDbEntity
  8
仕上げ
  6
Continuous
 62
     7
370
     9
100
AcDbLine
 10
2463.038431852858
 20
2777.999683277028
 30
0.0
 11
2163.038431852858
 21
2777.999683277028
 31
0.0
  0
LINE
  5
159
330
1F
100
AcDbEntity
  8
仕上げ
  6
Continuous
 62
     7
370
     9
100
AcDbLine
 10
2463.038431852858
 20
2099.999683277027
 30
0.0
 11
2163.038431852858
 21
2099.999683277027
 31
0.0
  0
LINE
  5
15A
330
1F
100
AcDbEntity
  8
ハッチ
  6
Continuous
 62
   120
370
     5
100
AcDbLine
 10
2133.038431852858
 20
2680.136177395278
 30
0.0
 11
2095.174772989719
 21
2717.999683277028
 31
0.0
  0
LINE
  5
15B
330
1F
100
AcDbEntity
  8
ハッチ
  6
Continuous
 62
   120
370
     5
100
AcDbLine
 10
2133.038431852858
 20
2637.709795977619
 30
0.0
 11
2052.748544553449
 21
2717.999683277028
 31
0.0
  0
LINE
  5
15C
330
1F
100
AcDbEntity
  8
ハッチ
  6
Continuous
 62
   120
370
     5
100
AcDbLine
 10
2049.03843185286
 20
2721.709795977618
 30
0.0
 11
1992.748544553448
 21
2777.999683277028
 31
0.0
  0
LINE
  5
15D
330
1F
100
AcDbEntity
  8
0-1_通り芯
  6
JWW_CENTER1
 62
   120
370
     5
100
AcDbLine
 10
2463.038431852858
 20
2438.999683277028
 30
0.0
 11
-2467.202088485695
 21
2438.999683277028
 31
0.0
  0
LINE
  5
15E
330
1F
100
AcDbEntity
  8
0-0_補助線
  6
JWW_HOJO
 62
   120
370
     5
100
AcDbLine
 10
2487.038431852858
 20
1919.999683277027
 30
0.0
 11
-2467.202088485695
 21
1919.999683277027
 31
0.0
  0
LINE
  5
15F
330
1F
100
AcDbEntity
  8
ハッチ
  6
Continuous
 62
   120
370
     5
100
AcDbLine
 10
2133.038431852858
 20
2213.447496568835
 30
0.0
 11
1992.038431852858
 21
2354.447496568837
 31
0.0
  0
LINE
  5
160
330
1F
100
AcDbEntity
  8
0-4_枠
  6
Continuous
 62
    92
370
    13
100
AcDbLine
 10
1992.038431852858
 20
2312.999683277028
 30
0.0
 11
1992.038431852858
 21
2774.999683277029
 31
0.0
  0
LINE
  5
161
330
1F
100
AcDbEntity
  8
0-4_枠
  6
Continuous
 62
    92
370
    13
100
AcDbLine
 10
1989.03843185286
 20
2312.999683277028
 30
0.0
 11
1989.03843185286
 21
2777.999683277028
 31
0.0
  0
LINE
  5
162
330
1F
100
AcDbEntity
  8
0-4_枠
  6
Continuous
 62
    92
370
    13
100
AcDbLine
 10
1992.038431852858
 20
2156.999683277029
 30
0.0
 11
1992.038431852858
 21
2102.999683277028
 31
0.0
  0
LINE
  5
163
330
1F
100
AcDbEntity
  8
0-4_枠
  6
Continuous
 62
    92
370
    13
100
AcDbLine
 10
1989.03843185286
 20
2156.999683277029
 30
0.0
 11
1989.03843185286
 21
2099.999683277027
 31
0.0
  0
ARC
  5
164
330
1F
100
AcDbEntity
  8
戸当り
  6
Continuous
 62
     7
370
     9
100
AcDbCircle
 10
1966.452738493485
 20
2301.113941089529
 30
0.0
 40
26.92291831970215
100
AcDbArc
 50
19.27143859863282
 51
160.7285461425782
  0
ARC
  5
165
330
1F
100
AcDbEntity
  8
戸当り
  6
Continuous
 62
     7
370
     9
100
AcDbCircle
 10
1935.038431852857
 20
2303.999683277029
 30
0.0
 40
5.999999999999999
100
AcDbArc
 50
90.0
 51
180.0
  0
LINE
  5
166
330
1F
100
AcDbEntity
  8
戸当り
  6
Continuous
 62
     7
370
     9
100
AcDbLine
 10
1935.038431852857
 20
2309.999683277029
 30
0.0
 11
1953.03843185286
 21
2309.999683277029
 31
0.0
  0
LINE
  5
167
330
1F
100
AcDbEntity
  8
戸当り
  6
Continuous
 62
     7
370
     9
100
AcDbLine
 10
1989.03843185286
 20
2141.99968327703
 30
0.0
 11
1989.03843185286
 21
2159.999683277028
 31
0.0
  0
LINE
  5
168
330
1F
100
AcDbEntity
  8
戸当り
  6
Continuous
 62
     7
370
     9
100
AcDbLine
 10
2001.038431852857
 20
2159.999683277028
 30
0.0
 11
1989.03843185286
 21
2159.999683277028
 31
0.0
  0
LINE
  5
169
330
1F
100
AcDbEntity
  8
戸当り
  6
Continuous
 62
     7
370
     9
100
AcDbLine
 10
2001.038431852857
 20
2309.999683277029
 30
0.0
 11
2001.038431852857
 21
2159.999683277028
 31
0.0
  0
LINE
  5
16A
330
1F
100
AcDbEntity
  8
戸当り
  6
Continuous
 62
     7
370
     9
100
AcDbLine
 10
2001.038431852857
 20
2309.999683277029
 30
0.0
 11
1977.038431852859
 21
2309.999683277029
 31
0.0
  0
LINE
  5
16B
330
1F
100
AcDbEntity
  8
戸当り
  6
Continuous
 62
     7
370
     9
100
AcDbLine
 10
1977.038431852859
 20
2267.999683277028
 30
0.0
 11
1953.03843185286
 21
2267.999683277028
 31
0.0
  0
LINE
  5
16C
330
1F
100
AcDbEntity
  8
戸当り
  6
Continuous
 62
     7
370
     9
100
AcDbLine
 10
1977.038431852859
 20
2267.999683277028
 30
0.0
 11
1977.038431852859
 21
2309.999683277029
 31
0.0
  0
LINE
  5
16D
330
1F
100
AcDbEntity
  8
戸当り
  6
Continuous
 62
     7
370
     9
100
AcDbLine
 10
1953.03843185286
 20
2267.999683277028
 30
0.0
 11
1953.03843185286
 21
2309.999683277029
 31
0.0
  0
ARC
  5
16E
330
1F
100
AcDbEntity
  8
戸当り
  6
Continuous
 62
     7
370
     9
100
AcDbCircle
 10
1935.038431852857
 20
2147.999683277028
 30
0.0
 40
5.999999999999999
100
AcDbArc
 50
180.0
 51
270.0
  0
LINE
  5
16F
330
1F
100
AcDbEntity
  8
戸当り
  6
Continuous
 62
     7
370
     9
100
AcDbLine
 10
1929.03843185286
 20
2147.999683277028
 30
0.0
 11
1929.03843185286
 21
2303.999683277029
 31
0.0
  0
LINE
  5
170
330
1F
100
AcDbEntity
  8
戸当り
  6
Continuous
 62
     7
370
     9
100
AcDbLine
 10
1935.038431852857
 20
2141.99968327703
 30
0.0
 11
1989.03843185286
 21
2141.99968327703
 31
0.0
  0
LINE
  5
171
330
1F
100
AcDbEntity
  8
0-4_枠
  6
Continuous
 62
    92
370
    13
100
AcDbLine
 10
2001.038431852857
 20
2156.999683277029
 30
0.0
 11
1989.03843185286
 21
2156.999683277029
 31
0.0
  0
LINE
  5
172
330
1F
100
AcDbEntity
  8
0-4_枠
  6
Continuous
 62
    92
370
    13
100
AcDbLine
 10
2001.038431852857
 20
2312.999683277028
 30
0.0
 11
1989.03843185286
 21
2312.999683277028
 31
0.0
  0
LINE
  5
173
330
1F
100
AcDbEntity
  8
0-4_枠
  6
Continuous
 62
    92
370
    13
100
AcDbLine
 10
2001.038431852857
 20
2312.999683277028
 30
0.0
 11
2001.038431852857
 21
2156.999683277029
 31
0.0
  0
LINE
  5
174
330
1F
100
AcDbEntity
  8
ハッチ
  6
Continuous
 62
   120
370
     5
100
AcDbLine
 10
2049.038258644985
 20
2127.742363177901
 30
0.0
 11
2001.038431852857
 21
2175.742594099968
 31
0.0
  0
LINE
  5
175
330
1F
100
AcDbEntity
  8
ハッチ
  6
Continuous
 62
   120
370
     5
100
AcDbLine
 10
2133.038431852858
 20
2171.02096970017
 30
0.0
 11
2001.038431852857
 21
2303.020969700172
 31
0.0
  0
LINE
  5
176
330
1F
100
AcDbEntity
  8
ハッチ
  6
Continuous
 62
   120
370
     5
100
AcDbLine
 10
2059.207111469521
 20
2159.999683277027
 30
0.0
 11
2001.038431852857
 21
2218.168607765991
 31
0.0
  0
LINE
  5
177
330
1F
100
AcDbEntity
  8
ハッチ
  6
Continuous
 62
   120
370
     5
100
AcDbLine
 10
2133.038431852858
 20
2128.594442831504
 30
0.0
 11
2001.038431852857
 21
2260.594442831505
 31
0.0
  0
LINE
  5
178
330
1F
100
AcDbEntity
  8
0-B_寸法
  6
Continuous
 62
   120
370
     5
100
AcDbLine
 10
1989.03843185286
 20
1140.000197957028
 30
0.0
 11
1989.03843185286
 21
1920.000197957028
 31
0.0
  0
LINE
  5
179
330
1F
100
AcDbEntity
  8
0-B_寸法
  6
Continuous
 62
   120
370
     5
100
AcDbLine
 10
-2137.202088485695
 20
1140.000197957028
 30
0.0
 11
2133.038431852858
 21
1140.000197957028
 31
0.0
  0
LWPOLYLINE
  5
17A
330
1F
100
AcDbEntity
  8
0-B_寸法
  6
Continuous
 62
     7
370
     9
100
AcDbPolyline
 90
        4
 70
     1
 43
6.0
 10
1992.038431852859
 20
1140.000197957028
 42
0.4142135623731
 10
1989.03843185286
 20
1143.000197957028
 42
0.4142135623731
 10
1986.03843185286
 20
1140.000197957028
 42
0.4142135623731
 10
1989.03843185286
 20
1137.000197957028
 42
0.4142135623731
  0
LWPOLYLINE
  5
17B
330
1F
100
AcDbEntity
  8
0-B_寸法
  6
Continuous
 62
     7
370
     9
100
AcDbPolyline
 90
        4
 70
     1
 43
6.0
 10
2136.038431852858
 20
1140.000197957028
 42
0.4142135623731
 10
2133.038431852858
 20
1143.000197957028
 42
0.4142135623731
 10
2130.038431852858
 20
1140.000197957028
 42
0.4142135623731
 10
2133.038431852858
 20
1137.000197957028
 42
0.4142135623731
  0
LINE
  5
17C
330
1F
100
AcDbEntity
  8
0-B_寸法
  6
Continuous
 62
   120
370
     5
100
AcDbLine
 10
-2167.202088485695
 20
930.0001979570283
 30
0.0
 11
2163.038431852858
 21
930.0001979570283
 31
0.0
  0
LWPOLYLINE
  5
17D
330
1F
100
AcDbEntity
  8
0-B_寸法
  6
Continuous
 62
     7
370
     9
100
AcDbPolyline
 90
        4
 70
     1
 43
6.0
 10
2136.038431852858
 20
930.0001979570283
 42
0.4142135623731
 10
2133.038431852858
 20
933.0001979570283
 42
0.4142135623731
 10
2130.038431852858
 20
930.0001979570283
 42
0.4142135623731
 10
2133.038431852858
 20
927.0001979570283
 42
0.4142135623731
  0
LINE
  5
17E
330
1F
100
AcDbEntity
  8
0-B_寸法
  6
Continuous
 62
   120
370
     5
100
AcDbLine
 10
2133.038431852858
 20
930.0001979570283
 30
0.0
 11
2133.038431852858
 21
1919.999683277027
 31
0.0
  0
LINE
  5
17F
330
1F
100
AcDbEntity
  8
0-0_補助線
  6
JWW_HOJO
 62
   120
370
     5
100
AcDbLine
 10
2487.038431852858
 20
930.0001979570283
 30
0.0
 11
-2467.202088485695
 21
930.0001979570283
 31
0.0
  0
LINE
  5
180
330
1F
100
AcDbEntity
  8
0-0_補助線
  6
JWW_HOJO
 62
   120
370
     5
100
AcDbLine
 10
2487.038431852858
 20
720.0001979570291
 30
0.0
 11
-2467.202088485695
 21
720.0001979570291
 31
0.0
  0
LWPOLYLINE
  5
181
330
1F
100
AcDbEntity
  8
0-B_寸法
  6
Continuous
 62
     7
370
     9
100
AcDbPolyline
 90
        4
 70
     1
 43
6.0
 10
2166.038431852858
 20
930.0001979570283
 42
0.4142135623731
 10
2163.038431852858
 20
933.0001979570283
 42
0.4142135623731
 10
2160.038431852858
 20
930.0001979570283
 42
0.4142135623731
 10
2163.038431852858
 20
927.0001979570283
 42
0.4142135623731
  0
LINE
  5
182
330
1F
100
AcDbEntity
  8
0-B_寸法
  6
Continuous
 62
   120
370
     5
100
AcDbLine
 10
2163.038431852858
 20
720.0001979570291
 30
0.0
 11
2163.038431852858
 21
1919.999683277027
 31
0.0
  0
LINE
  5
183
330
1F
100
AcDbEntity
  8
0-B_寸法
  6
Continuous
 62
   120
370
     5
100
AcDbLine
 10
2163.038431852858
 20
720.0001979570291
 30
0.0
 11
-2167.202088485695
 21
720.0001979570291
 31
0.0
  0
LWPOLYLINE
  5
184
330
1F
100
AcDbEntity
  8
0-B_寸法
  6
Continuous
 62
     7
370
     9
100
AcDbPolyline
 90
        4
 70
     1
 43
6.0
 10
2166.038431852858
 20
720.0001979570291
 42
0.4142135623731
 10
2163.038431852858
 20
723.0001979570292
 42
0.4142135623731
 10
2160.038431852858
 20
720.0001979570291
 42
0.4142135623731
 10
2163.038431852858
 20
717.0001979570291
 42
0.4142135623731
  0
LINE
  5
185
330
1F
100
AcDbEntity
  8
0-0_補助線
  6
JWW_HOJO
 62
   120
370
     5
100
AcDbLine
 10
2487.038431852858
 20
1559.999683277027
 30
0.0
 11
-2467.202088485695
 21
1559.999683277027
 31
0.0
  0
LINE
  5
186
330
1F
100
AcDbEntity
  8
0-0_補助線
  6
JWW_HOJO
 62
   120
370
     5
100
AcDbLine
 10
2487.038431852858
 20
1349.999683277027
 30
0.0
 11
-2467.202088485695
 21
1349.999683277027
 31
0.0
  0
LINE
  5
187
330
1F
100
AcDbEntity
  8
0-0_補助線
  6
JWW_HOJO
 62
   120
370
     5
100
AcDbLine
 10
2487.038431852858
 20
1139.999683277027
 30
0.0
 11
-2467.202088485695
 21
1139.999683277027
 31
0.0
  0
LINE
  5
188
330
1F
100
AcDbEntity
  8
0-0_補助線
  6
JWW_HOJO
 62
   120
370
     5
100
AcDbLine
 10
2487.038431852858
 20
2852.768662182618
 30
0.0
 11
2487.038431852858
 21
720.0001979570291
 31
0.0
  0
LINE
  5
189
330
1F
100
AcDbEntity
  8
0-0_補助線
  6
JWW_HOJO
 62
   120
370
     5
100
AcDbLine
 10
2487.038431852858
 20
2852.768662182618
 30
0.0
 11
-2467.202088485695
 21
2852.768662182618
 31
0.0
  0
LINE
  5
18A
330
1F
100
AcDbEntity
  8
0-6_扉
  6
JWW_DASHED1
 62
     7
370
     9
100
AcDbLine
 10
1809.03843185286
 20
2852.768662182618
 30
0.0
 11
1809.03843185286
 21
1919.999683277027
 31
0.0
  0
LINE
  5
18B
330
1F
100
AcDbEntity
  8
0-6_扉
  6
JWW_DASHED1
 62
     7
370
     9
100
AcDbLine
 10
1593.038431852859
 20
2852.768662182618
 30
0.0
 11
1593.038431852859
 21
1919.999683277027
 31
0.0
  0
LINE
  5
18C
330
1F
100
AcDbEntity
  8
0-4_枠
  6
Continuous
 62
   120
370
     5
100
AcDbLine
 10
-62.0818283164175
 20
2663.999683277028
 30
0.0
 11
-1933.202088485691
 21
2663.999683277028
 31
0.0
  0
LINE
  5
18D
330
1F
100
AcDbEntity
  8
0-6_扉
  6
Continuous
 62
   200
370
    20
100
AcDbLine
 10
-62.0818283164175
 20
2546.999683277029
 30
0.0
 11
-1969.202088485696
 21
2546.999683277029
 31
0.0
  0
LINE
  5
18E
330
1F
100
AcDbEntity
  8
0-6_扉
  6
Continuous
 62
   200
370
    20
100
AcDbLine
 10
-62.0818283164175
 20
2330.999683277028
 30
0.0
 11
-1969.202088485696
 21
2330.999683277028
 31
0.0
  0
LINE
  5
18F
330
1F
100
AcDbEntity
  8
0-4_枠
  6
Continuous
 62
   120
370
     5
100
AcDbLine
 10
-62.0818283164175
 20
2213.999683277028
 30
0.0
 11
-1993.202088485691
 21
2213.999683277028
 31
0.0
  0
LINE
  5
190
330
1F
100
AcDbEntity
  8
0-0_補助線
  6
JWW_HOJO
 62
   120
370
     5
100
AcDbLine
 10
-62.0818283164175
 20
1919.999683277027
 30
0.0
 11
-62.0818283164175
 21
2852.768662182618
 31
0.0
  0
LINE
  5
191
330
1F
100
AcDbEntity
  8
0-0_補助線
  6
JWW_HOJO
 62
   120
370
     5
100
AcDbLine
 10
57.9181716835825
 20
1919.999683277027
 30
0.0
 11
57.9181716835825
 21
2852.768662182618
 31
0.0
  0
LINE
  5
192
330
1F
100
AcDbEntity
  8
0-4_枠
  6
Continuous
 62
   120
370
     5
100
AcDbLine
 10
1989.03843185286
 20
2663.999683277028
 30
0.0
 11
57.9181716835825
 21
2663.999683277028
 31
0.0
  0
LINE
  5
193
330
1F
100
AcDbEntity
  8
0-6_扉
  6
Continuous
 62
   200
370
    20
100
AcDbLine
 10
1965.038431852861
 20
2546.999683277029
 30
0.0
 11
57.9181716835825
 21
2546.999683277029
 31
0.0
  0
LINE
  5
194
330
1F
100
AcDbEntity
  8
0-6_扉
  6
Continuous
 62
   200
370
    20
100
AcDbLine
 10
1965.038431852861
 20
2330.999683277028
 30
0.0
 11
57.9181716835825
 21
2330.999683277028
 31
0.0
  0
LINE
  5
195
330
1F
100
AcDbEntity
  8
0-4_枠
  6
Continuous
 62
   120
370
     5
100
AcDbLine
 10
1929.038431852857
 20
2213.999683277028
 30
0.0
 11
57.9181716835825
 21
2213.999683277028
 31
0.0
  0
TEXT
  5
196
330
1F
100
AcDbEntity
  8
0-A_文字
  6
Continuous
 62
     7
370
     9
100
AcDbText
 10
-2485.685154557803
 20
3349.902031970294
 30
0.0
 40
91.44
  1
■横断面図
 41
1.1
  7
ＭＳ ゴシック
100
AcDbText
  0
TEXT
  5
197
330
1F
100
AcDbEntity
  8
0-A_文字
  6
Continuous
 62
     7
370
     9
100
AcDbText
 10
-2497.202088485695
 20
1966.919683277027
 30
0.0
 40
91.44
  1
（ラッチ側）
 41
0.9999999999999997
  7
ＭＳ ゴシック
100
AcDbText
  0
TEXT
  5
198
330
1F
100
AcDbEntity
  8
0-A_文字
  6
Continuous
 62
     7
370
     9
100
AcDbText
 10
1833.03843185286
 20
1966.919683277027
 30
0.0
 40
91.44
  1
（吊元側）
  7
ＭＳ ゴシック
100
AcDbText
  0
TEXT
  5
199
330
1F
100
AcDbEntity
  8
0-A_文字
  6
Continuous
 62
     7
370
     9
100
AcDbText
 10
1471.866791646646
 20
558.5718810928904
 30
0.0
 40
68.58
  1
※図示：右吊り元
  7
ＭＳ ゴシック
100
AcDbText
  0
TEXT
  5
19A
330
1F
100
AcDbEntity
  8
0-B_寸法
  6
Continuous
 62
     7
370
     0
100
AcDbText
 10
-2126.064596459242
 20
3167.423781332194
 30
0.0
 40
91.44
  1
24
  7
ＭＳ ゴシック
100
AcDbText
  0
TEXT
  5
19B
330
1F
100
AcDbEntity
  8
0-B_寸法
  6
Continuous
 62
     7
370
     0
100
AcDbText
 10
-2109.132868481736
 20
3024.479820779657
 30
0.0
 40
91.44
  1
9
  7
ＭＳ ゴシック
100
AcDbText
  0
TEXT
  5
19C
330
1F
100
AcDbEntity
  8
0-B_寸法
  6
Continuous
 62
     7
370
     0
100
AcDbText
 10
-2194.894516768488
 20
3023.52691357647
 30
0.0
 40
91.44
  1
5
  7
ＭＳ ゴシック
100
AcDbText
  0
TEXT
  5
19D
330
1F
100
AcDbEntity
  8
0-B_寸法
  6
Continuous
 62
     7
370
     0
100
AcDbText
 10
-1997.149521999131
 20
3022.574006373284
 30
0.0
 40
91.44
  1
10
  7
ＭＳ ゴシック
100
AcDbText
  0
TEXT
  5
19E
330
1F
100
AcDbEntity
  8
0-B_寸法
  6
Continuous
 62
     7
370
   211
100
AcDbText
 10
-1522.503366858796
 20
2379.00019795186
 30
0.0
 40
91.44
  1
36
 50
90.0
  7
ＭＳ ゴシック
100
AcDbText
  0
TEXT
  5
19F
330
1F
100
AcDbEntity
  8
0-B_寸法
  6
Continuous
 62
     7
370
     0
100
AcDbText
 10
-1711.084466275473
 20
2348.999683277028
 30
0.0
 40
91.44
  1
113
 50
90.0
  7
ＭＳ ゴシック
100
AcDbText
  0
TEXT
  5
1A0
330
1F
100
AcDbEntity
  8
0-B_寸法
  6
Continuous
 62
     7
370
     0
100
AcDbText
 10
1900.538501136009
 20
1378.92019795703
 30
0.0
 40
91.44
  1
4
  7
ＭＳ ゴシック
100
AcDbText
  0
TEXT
  5
1A1
330
1F
100
AcDbEntity
  8
0-B_寸法
  6
Continuous
 62
     7
370
   211
100
AcDbText
 10
-2125.202088485696
 20
1171.920197957028
 30
0.0
 40
91.44
  1
24
  7
ＭＳ ゴシック
100
AcDbText
  0
TEXT
  5
1A2
330
1F
100
AcDbEntity
  8
0-B_寸法
  6
Continuous
 62
     7
370
   211
100
AcDbText
 10
-482.081828316418
 20
1171.920197957028
 30
0.0
 40
91.44
  1
枠内＝711（688）
  7
ＭＳ ゴシック
100
AcDbText
  0
TEXT
  5
1A3
330
1F
100
AcDbEntity
  8
0-B_寸法
  6
Continuous
 62
     7
370
   211
100
AcDbText
 10
2001.038431852858
 20
1171.920197957028
 30
0.0
 40
91.44
  1
24
  7
ＭＳ ゴシック
100
AcDbText
  0
TEXT
  5
1A4
330
1F
100
AcDbEntity
  8
0-B_寸法
  6
Continuous
 62
     7
370
   211
100
AcDbText
 10
-2114.207727353246
 20
961.9201979570282
 30
0.0
 40
91.44
  1
5
  7
ＭＳ ゴシック
100
AcDbText
  0
TEXT
  5
1A5
330
1F
100
AcDbEntity
  8
0-B_寸法
  6
Continuous
 62
     7
370
     0
100
AcDbText
 10
-482.081828316418
 20
961.9201979570282
 30
0.0
 40
91.44
  1
枠外＝759（736）
  7
ＭＳ ゴシック
100
AcDbText
  0
TEXT
  5
1A6
330
1F
100
AcDbEntity
  8
0-B_寸法
  6
Continuous
 62
     7
370
   211
100
AcDbText
 10
2056.796896798285
 20
961.9201979570282
 30
0.0
 40
91.44
  1
5
  7
ＭＳ ゴシック
100
AcDbText
  0
TEXT
  5
1A7
330
1F
100
AcDbEntity
  8
0-B_寸法
  6
Continuous
 62
     7
370
   211
100
AcDbText
 10
-542.081828316418
 20
751.920197957029
 30
0.0
 40
91.44
  1
ＲＯＷ＝769（746）
  7
ＭＳ ゴシック
100
AcDbText
  0
LWPOLYLINE
  5
1A8
330
1F
100
AcDbEntity
  8
0-B_寸法
  6
Continuous
 62
     7
370
     9
100
AcDbPolyline
 90
        4
 70
     1
 43
6.0
 10
-1990.202088485691
 20
1350.000197957028
 42
0.4142135623731
 10
-1993.202088485691
 20
1353.000197957028
 42
0.4142135623731
 10
-1996.202088485691
 20
1350.000197957028
 42
0.4142135623731
 10
-1993.202088485691
 20
1347.000197957028
 42
0.4142135623731
  0
LWPOLYLINE
  5
1A9
330
1F
100
AcDbEntity
  8
0-B_寸法
  6
Continuous
 62
     7
370
     9
100
AcDbPolyline
 90
        4
 70
     1
 43
6.0
 10
-1966.202088485696
 20
1350.000197957028
 42
0.4142135623731
 10
-1969.202088485696
 20
1353.000197957028
 42
0.4142135623731
 10
-1972.202088485696
 20
1350.000197957028
 42
0.4142135623731
 10
-1969.202088485696
 20
1347.000197957028
 42
0.4142135623731
  0
LINE
  5
1AA
330
1F
100
AcDbEntity
  8
0-B_寸法
  6
Continuous
 62
   120
370
     5
100
AcDbLine
 10
-1969.202088485696
 20
1350.000197957028
 30
0.0
 11
-1969.202088485696
 21
1919.999683277027
 31
0.0
  0
LINE
  5
1AB
330
1F
100
AcDbEntity
  8
0-B_寸法
  6
Continuous
 62
   120
370
     5
100
AcDbLine
 10
-1993.202088485696
 20
1560.000197957028
 30
0.0
 11
-1933.202088485693
 21
1560.000197957028
 31
0.0
  0
LWPOLYLINE
  5
1AC
330
1F
100
AcDbEntity
  8
0-B_寸法
  6
Continuous
 62
     7
370
     9
100
AcDbPolyline
 90
        4
 70
     1
 43
6.0
 10
-1990.202088485696
 20
1560.000197957028
 42
0.4142135623731
 10
-1993.202088485696
 20
1563.000197957028
 42
0.4142135623731
 10
-1996.202088485696
 20
1560.000197957028
 42
0.4142135623731
 10
-1993.202088485696
 20
1557.000197957028
 42
0.4142135623731
  0
LWPOLYLINE
  5
1AD
330
1F
100
AcDbEntity
  8
0-B_寸法
  6
Continuous
 62
     7
370
     9
100
AcDbPolyline
 90
        4
 70
     1
 43
6.0
 10
-1930.202088485693
 20
1560.000197957028
 42
0.4142135623731
 10
-1933.202088485693
 20
1563.000197957028
 42
0.4142135623731
 10
-1936.202088485693
 20
1560.000197957028
 42
0.4142135623731
 10
-1933.202088485693
 20
1557.000197957028
 42
0.4142135623731
  0
LINE
  5
1AE
330
1F
100
AcDbEntity
  8
0-B_寸法
  6
Continuous
 62
   120
370
     5
100
AcDbLine
 10
-1933.202088485693
 20
1560.000197957028
 30
0.0
 11
-1933.202088485693
 21
1920.000197957028
 31
0.0
  0
LWPOLYLINE
  5
1AF
330
1F
100
AcDbEntity
  8
0-B_寸法
  6
Continuous
 62
     7
370
     9
100
AcDbPolyline
 90
        4
 70
     1
 43
6.0
 10
1992.038431852859
 20
1350.000197957028
 42
0.4142135623731
 10
1989.03843185286
 20
1353.000197957028
 42
0.4142135623731
 10
1986.03843185286
 20
1350.000197957028
 42
0.4142135623731
 10
1989.03843185286
 20
1347.000197957028
 42
0.4142135623731
  0
LINE
  5
1B0
330
1F
100
AcDbEntity
  8
0-B_寸法
  6
Continuous
 62
   120
370
     5
100
AcDbLine
 10
-1993.202088485691
 20
1350.000197957028
 30
0.0
 11
1989.03843185286
 21
1350.000197957028
 31
0.0
  0
LWPOLYLINE
  5
1B1
330
1F
100
AcDbEntity
  8
0-B_寸法
  6
Continuous
 62
     7
370
     9
100
AcDbPolyline
 90
        4
 70
     1
 43
6.0
 10
1968.038431852861
 20
1350.000197957028
 42
0.4142135623731
 10
1965.038431852861
 20
1353.000197957028
 42
0.4142135623731
 10
1962.038431852861
 20
1350.000197957028
 42
0.4142135623731
 10
1965.038431852861
 20
1347.000197957028
 42
0.4142135623731
  0
LINE
  5
1B2
330
1F
100
AcDbEntity
  8
0-B_寸法
  6
Continuous
 62
   120
370
     5
100
AcDbLine
 10
1965.038431852861
 20
1350.000197957028
 30
0.0
 11
1965.038431852861
 21
1919.999683277027
 31
0.0
  0
LINE
  5
1B3
330
1F
100
AcDbEntity
  8
0-B_寸法
  6
Continuous
 62
   120
370
     5
100
AcDbLine
 10
-1933.202088485693
 20
1560.000197957028
 30
0.0
 11
1593.038431852858
 21
1560.000197957028
 31
0.0
  0
LWPOLYLINE
  5
1B4
330
1F
100
AcDbEntity
  8
0-B_寸法
  6
Continuous
 62
     7
370
     9
100
AcDbPolyline
 90
        4
 70
     1
 43
6.0
 10
1596.038431852858
 20
1560.000197957028
 42
0.4142135623731
 10
1593.038431852858
 20
1563.000197957028
 42
0.4142135623731
 10
1590.038431852858
 20
1560.000197957028
 42
0.4142135623731
 10
1593.038431852858
 20
1557.000197957028
 42
0.4142135623731
  0
LINE
  5
1B5
330
1F
100
AcDbEntity
  8
0-B_寸法
  6
Continuous
 62
   120
370
     5
100
AcDbLine
 10
1593.038431852858
 20
1560.000197957028
 30
0.0
 11
1593.038431852858
 21
1920.000197957028
 31
0.0
  0
LINE
  5
1B6
330
1F
100
AcDbEntity
  8
0-B_寸法
  6
Continuous
 62
   120
370
     5
100
AcDbLine
 10
1593.038431852858
 20
1560.000197957028
 30
0.0
 11
1809.03843185286
 21
1560.000197957028
 31
0.0
  0
LWPOLYLINE
  5
1B7
330
1F
100
AcDbEntity
  8
0-B_寸法
  6
Continuous
 62
     7
370
     9
100
AcDbPolyline
 90
        4
 70
     1
 43
6.0
 10
1812.03843185286
 20
1560.000197957028
 42
0.4142135623731
 10
1809.03843185286
 20
1563.000197957028
 42
0.4142135623731
 10
1806.03843185286
 20
1560.000197957028
 42
0.4142135623731
 10
1809.03843185286
 20
1557.000197957028
 42
0.4142135623731
  0
LINE
  5
1B8
330
1F
100
AcDbEntity
  8
0-B_寸法
  6
Continuous
 62
   120
370
     5
100
AcDbLine
 10
1809.03843185286
 20
1560.000197957028
 30
0.0
 11
1809.03843185286
 21
1920.000197957028
 31
0.0
  0
LINE
  5
1B9
330
1F
100
AcDbEntity
  8
0-B_寸法
  6
Continuous
 62
   120
370
     5
100
AcDbLine
 10
1809.03843185286
 20
1560.000197957028
 30
0.0
 11
1929.03843185286
 21
1560.000197957028
 31
0.0
  0
LWPOLYLINE
  5
1BA
330
1F
100
AcDbEntity
  8
0-B_寸法
  6
Continuous
 62
     7
370
     9
100
AcDbPolyline
 90
        4
 70
     1
 43
6.0
 10
1932.038431852859
 20
1560.000197957028
 42
0.4142135623731
 10
1929.03843185286
 20
1563.000197957028
 42
0.4142135623731
 10
1926.03843185286
 20
1560.000197957028
 42
0.4142135623731
 10
1929.03843185286
 20
1557.000197957028
 42
0.4142135623731
  0
LINE
  5
1BB
330
1F
100
AcDbEntity
  8
0-B_寸法
  6
Continuous
 62
   120
370
     5
100
AcDbLine
 10
1929.03843185286
 20
1560.000197957028
 30
0.0
 11
1929.03843185286
 21
1920.000197957028
 31
0.0
  0
LINE
  5
1BC
330
1F
100
AcDbEntity
  8
0-B_寸法
  6
Continuous
 62
   120
370
     5
100
AcDbLine
 10
1929.03843185286
 20
1560.000197957028
 30
0.0
 11
1989.03843185286
 21
1560.000197957028
 31
0.0
  0
LWPOLYLINE
  5
1BD
330
1F
100
AcDbEntity
  8
0-B_寸法
  6
Continuous
 62
     7
370
     9
100
AcDbPolyline
 90
        4
 70
     1
 43
6.0
 10
1992.038431852859
 20
1560.000197957028
 42
0.4142135623731
 10
1989.03843185286
 20
1563.000197957028
 42
0.4142135623731
 10
1986.03843185286
 20
1560.000197957028
 42
0.4142135623731
 10
1989.03843185286
 20
1557.000197957028
 42
0.4142135623731
  0
TEXT
  5
1BE
330
1F
100
AcDbEntity
  8
0-B_寸法
  6
Continuous
 62
     7
370
   211
100
AcDbText
 10
-2023.202088485695
 20
1591.920197957028
 30
0.0
 40
91.44
  1
10
  7
ＭＳ ゴシック
100
AcDbText
  0
TEXT
  5
1BF
330
1F
100
AcDbEntity
  8
0-B_寸法
  6
Continuous
 62
     7
370
   211
100
AcDbText
 10
-722.0818283164155
 20
1591.920197957028
 30
0.0
 40
91.44
  1
有効開口寸法＝635（612）
  7
ＭＳ ゴシック
100
AcDbText
  0
TEXT
  5
1C0
330
1F
100
AcDbEntity
  8
0-B_寸法
  6
Continuous
 62
     7
370
   211
100
AcDbText
 10
1641.038431852859
 20
1591.920197957028
 30
0.0
 40
91.44
  1
36
  7
ＭＳ ゴシック
100
AcDbText
  0
TEXT
  5
1C1
330
1F
100
AcDbEntity
  8
0-B_寸法
  6
Continuous
 62
     7
370
   211
100
AcDbText
 10
1809.03843185286
 20
1591.920197957028
 30
0.0
 40
91.44
  1
20
 41
0.9999999999999982
  7
ＭＳ ゴシック
100
AcDbText
  0
TEXT
  5
1C2
330
1F
100
AcDbEntity
  8
0-B_寸法
  6
Continuous
 62
     7
370
   211
100
AcDbText
 10
1899.03843185286
 20
1591.920197957028
 30
0.0
 40
91.44
  1
10
  7
ＭＳ ゴシック
100
AcDbText
  0
TEXT
  5
1C3
330
1F
100
AcDbEntity
  8
0-B_寸法
  6
Continuous
 62
     7
370
     0
100
AcDbText
 10
-482.081828316418
 20
1381.920197957028
 30
0.0
 40
91.44
  1
ＤＷ＝703（680）
  7
ＭＳ ゴシック
100
AcDbText
  0
TEXT
  5
1C4
330
1F
100
AcDbEntity
  8
0-B_寸法
  6
Continuous
 62
     7
370
     0
100
AcDbText
 10
-1964.702088485695
 20
1378.92019795703
 30
0.0
 40
91.44
  1
4
  7
ＭＳ ゴシック
100
AcDbText
  0
LINE
  5
1C5
330
1F
100
AcDbEntity
  8
0-0_補助線
  6
JWW_HOJO
 62
   120
370
     5
100
AcDbLine
 10
9.918171683581818
 20
3126.189979042288
 30
0.0
 11
9.918171683581818
 21
507.1423599946689
 31
0.0
  0
TEXT
  5
1C6
330
1F
100
AcDbEntity
  8
0-A_文字
  6
Continuous
 62
     7
370
     9
100
AcDbText
 10
5130.835838693025
 20
3634.690181455871
 30
0.0
 40
68.58
  1
左吊元
 41
1.111111111111111
  7
ＭＳ ゴシック
100
AcDbText
  0
TEXT
  5
1C7
330
1F
100
AcDbEntity
  8
0-A_文字
  6
Continuous
 62
     7
370
     9
100
AcDbText
 10
4332.835838693026
 20
3634.690181455871
 30
0.0
 40
68.58
  1
右吊元
 41
1.111111111111111
  7
ＭＳ ゴシック
100
AcDbText
  0
LINE
  5
1C8
330
1F
100
AcDbEntity
  8
0-A_文字
  6
Continuous
 62
    92
370
    13
100
AcDbLine
 10
4083.835838693025
 20
3730.000181455871
 30
0.0
 11
4083.835838693025
 21
2764.000181455871
 31
0.0
  0
LINE
  5
1C9
330
1F
100
AcDbEntity
  8
0-A_文字
  6
Continuous
 62
    92
370
    13
100
AcDbLine
 10
4083.835838693025
 20
3604.000181455871
 30
0.0
 11
5679.835838693025
 21
3604.000181455871
 31
0.0
  0
LINE
  5
1CA
330
1F
100
AcDbEntity
  8
0-A_文字
  6
Continuous
 62
    92
370
    13
100
AcDbLine
 10
5679.835838693025
 20
3730.000181455871
 30
0.0
 11
4083.835838693025
 21
3730.000181455871
 31
0.0
  0
LINE
  5
1CB
330
1F
100
AcDbEntity
  8
0-A_文字
  6
Continuous
 62
    92
370
    13
100
AcDbLine
 10
5679.835838693025
 20
3730.000181455871
 30
0.0
 11
5679.835838693025
 21
2764.000181455871
 31
0.0
  0
LINE
  5
1CC
330
1F
100
AcDbEntity
  8
0-A_文字
  6
Continuous
 62
    92
370
    13
100
AcDbLine
 10
5679.835838693025
 20
2764.000181455871
 30
0.0
 11
4083.835838693025
 21
2764.000181455871
 31
0.0
  0
LINE
  5
1CD
330
1F
100
AcDbEntity
  8
0-A_文字
  6
Continuous
 62
    92
370
    13
100
AcDbLine
 10
4881.835838693025
 20
3730.000181455871
 30
0.0
 11
4881.835838693025
 21
2764.000181455871
 31
0.0
  0
LINE
  5
1CE
330
1F
100
AcDbEntity
  8
0-0_補助線
  6
JWW_HOJO
 62
   120
370
     5
100
AcDbLine
 10
5658.835838693025
 20
3730.000181455871
 30
0.0
 11
5658.835838693025
 21
2764.000181455871
 31
0.0
  0
LINE
  5
1CF
330
1F
100
AcDbEntity
  8
0-0_補助線
  6
JWW_HOJO
 62
   120
370
     5
100
AcDbLine
 10
4902.835838693025
 20
3730.000181455871
 30
0.0
 11
4902.835838693025
 21
2764.000181455871
 31
0.0
  0
LINE
  5
1D0
330
1F
100
AcDbEntity
  8
戸当り
  6
Continuous
 62
    40
370
    15
100
AcDbLine
 10
5436.235838693025
 20
3481.846273380329
 30
0.0
 11
5658.835838693025
 21
3481.846273380329
 31
0.0
  0
LINE
  5
1D1
330
1F
100
AcDbEntity
  8
戸当り
  6
Continuous
 62
    40
370
    15
100
AcDbLine
 10
5436.235838693025
 20
3481.846273380329
 30
0.0
 11
5436.235838693025
 21
3444.046273380329
 31
0.0
  0
LINE
  5
1D2
330
1F
100
AcDbEntity
  8
戸当り
  6
Continuous
 62
    40
370
    15
100
AcDbLine
 10
5125.435838693025
 20
3481.846273380329
 30
0.0
 11
4902.835838693025
 21
3481.846273380329
 31
0.0
  0
LINE
  5
1D3
330
1F
100
AcDbEntity
  8
戸当り
  6
Continuous
 62
    40
370
    15
100
AcDbLine
 10
4638.235838693025
 20
3481.846273380329
 30
0.0
 11
4860.835838693025
 21
3481.846273380329
 31
0.0
  0
LINE
  5
1D4
330
1F
100
AcDbEntity
  8
戸当り
  6
Continuous
 62
    40
370
    15
100
AcDbLine
 10
4327.435838693025
 20
3481.846273380329
 30
0.0
 11
4327.435838693025
 21
3444.046273380329
 31
0.0
  0
LINE
  5
1D5
330
1F
100
AcDbEntity
  8
戸当り
  6
Continuous
 62
    40
370
    15
100
AcDbLine
 10
4327.435838693025
 20
3481.846273380329
 30
0.0
 11
4104.835838693025
 21
3481.846273380329
 31
0.0
  0
LINE
  5
1D6
330
1F
100
AcDbEntity
  8
0-0_補助線
  6
JWW_HOJO
 62
   120
370
     5
100
AcDbLine
 10
4860.835838693025
 20
3730.000181455871
 30
0.0
 11
4860.835838693025
 21
2764.000181455871
 31
0.0
  0
LINE
  5
1D7
330
1F
100
AcDbEntity
  8
0-0_補助線
  6
JWW_HOJO
 62
   120
370
     5
100
AcDbLine
 10
4104.835838693025
 20
3730.000181455871
 30
0.0
 11
4104.835838693025
 21
2764.000181455871
 31
0.0
  0
LINE
  5
1D8
330
1F
100
AcDbEntity
  8
戸当り
  6
Continuous
 62
    40
370
    15
100
AcDbLine
 10
4104.835838693025
 20
3444.046273380329
 30
0.0
 11
4860.835838693025
 21
3444.046273380329
 31
0.0
  0
LINE
  5
1D9
330
1F
100
AcDbEntity
  8
戸当り
  6
Continuous
 62
    40
370
    15
100
AcDbLine
 10
4638.235838693025
 20
3481.846273380329
 30
0.0
 11
4638.235838693025
 21
3133.246273380328
 31
0.0
  0
ARC
  5
1DA
330
1F
100
AcDbEntity
  8
戸当り
  6
Continuous
 62
    40
370
    15
100
AcDbCircle
 10
4638.235838693025
 20
3444.046273380329
 30
0.0
 40
310.8
100
AcDbArc
 50
180.0
 51
270.0
  0
LINE
  5
1DB
330
1F
100
AcDbEntity
  8
戸当り
  6
Continuous
 62
    40
370
    15
100
AcDbLine
 10
5658.835838693025
 20
3444.046273380329
 30
0.0
 11
4902.835838693025
 21
3444.046273380329
 31
0.0
  0
LINE
  5
1DC
330
1F
100
AcDbEntity
  8
戸当り
  6
Continuous
 62
    40
370
    15
100
AcDbLine
 10
5125.435838693025
 20
3481.846273380329
 30
0.0
 11
5125.435838693024
 21
3133.246273380328
 31
0.0
  0
ARC
  5
1DD
330
1F
100
AcDbEntity
  8
戸当り
  6
Continuous
 62
    40
370
    15
100
AcDbCircle
 10
5125.435838693024
 20
3444.046273380329
 30
0.0
 40
310.8
100
AcDbArc
 50
270.0
 51
0.0
  0
ELLIPSE
  5
1DE
330
1F
100
AcDbEntity
  8
戸当り
  6
Continuous
 62
    92
370
    13
100
AcDbEllipse
 10
5207.192036141518
 20
2972.884428393055
 30
0.0
 11
-17.7763823922528
 21
100.8148742797557
 31
0.0
210
0.0
220
0.0
230
1.0
 40
0.4000000000000001
 41
1.85063327265668
 42
2.442876790075129
  0
ELLIPSE
  5
1DF
330
1F
100
AcDbEntity
  8
戸当り
  6
Continuous
 62
    92
370
    13
100
AcDbEllipse
 10
5207.192036141518
 20
2972.884428393055
 30
0.0
 11
-17.7763823922528
 21
100.8148742797557
 31
0.0
210
0.0
220
0.0
230
1.0
 40
0.4000000000000001
 41
3.840308517104467
 42
4.432552034522944
  0
ELLIPSE
  5
1E0
330
1F
100
AcDbEntity
  8
戸当り
  6
Continuous
 62
    92
370
    13
100
AcDbEllipse
 10
5206.772290091617
 20
2975.264926534712
 30
0.0
 11
-14.67024424252691
 21
83.19908946199425
 31
0.0
210
0.0
220
0.0
230
1.0
 40
0.5
 41
4.340591432030095
 42
8.225779182329084
  0
LINE
  5
1E1
330
1F
100
AcDbEntity
  8
戸当り
  6
Continuous
 62
    92
370
    13
100
AcDbLine
 10
5246.74191991428
 20
2900.267379069786
 30
0.0
 11
5194.863795824744
 21
2891.119866084259
 31
0.0
  0
LINE
  5
1E2
330
1F
100
AcDbEntity
  8
戸当り
  6
Continuous
 62
    92
370
    13
100
AcDbLine
 10
5248.929886952883
 20
2887.858801381832
 30
0.0
 11
5197.051762863347
 21
2878.711288396305
 31
0.0
  0
ELLIPSE
  5
1E3
330
1F
100
AcDbEntity
  8
戸当り
  6
Continuous
 62
    92
370
    13
100
AcDbEllipse
 10
5222.990824908115
 20
2883.285044889069
 30
0.0
 11
-7.622927487939132
 21
43.23177007461331
 31
0.0
210
0.0
220
0.0
230
1.0
 40
0.6
 41
1.570796326794897
 42
4.71238898038469
  0
ELLIPSE
  5
1E4
330
1F
100
AcDbEntity
  8
戸当り
  6
Continuous
 62
    92
370
    13
100
AcDbEllipse
 10
5361.652805079395
 20
3008.935263882863
 30
0.0
 11
26.49533313827762
 21
98.88192943551533
 31
0.0
210
0.0
220
0.0
230
1.0
 40
0.4
 41
1.85063327265668
 42
2.442876790075129
  0
ELLIPSE
  5
1E5
330
1F
100
AcDbEntity
  8
戸当り
  6
Continuous
 62
    92
370
    13
100
AcDbEllipse
 10
5361.652805079395
 20
3008.935263882863
 30
0.0
 11
26.49533313827762
 21
98.88192943551533
 31
0.0
210
0.0
220
0.0
230
1.0
 40
0.4
 41
3.840308517104467
 42
4.432552034522944
  0
ELLIPSE
  5
1E6
330
1F
100
AcDbEntity
  8
戸当り
  6
Continuous
 62
    92
370
    13
100
AcDbEllipse
 10
5362.278427952497
 20
3011.270120231655
 30
0.0
 11
21.86569797210526
 21
81.6038957748525
 31
0.0
210
0.0
220
0.0
230
1.0
 40
0.5
 41
4.340591432030095
 42
8.225779182329084
  0
LINE
  5
1E7
330
1F
100
AcDbEntity
  8
戸当り
  6
Continuous
 62
    92
370
    13
100
AcDbLine
 10
5366.807881561305
 20
2926.407363477468
 30
0.0
 11
5315.924427684911
 21
2940.041543851754
 31
0.0
  0
LINE
  5
1E8
330
1F
100
AcDbEntity
  8
戸当り
  6
Continuous
 62
    92
370
    13
100
AcDbLine
 10
5363.546761593014
 20
2914.236698066226
 30
0.0
 11
5312.66330771662
 21
2927.870878440512
 31
0.0
  0
ELLIPSE
  5
1E9
330
1F
100
AcDbEntity
  8
戸当り
  6
Continuous
 62
    92
370
    13
100
AcDbEllipse
 10
5338.105034654817
 20
2921.053788253369
 30
0.0
 11
11.36181697857171
 21
42.40287823032828
 31
0.0
210
0.0
220
0.0
230
1.0
 40
0.6
 41
1.570796326794897
 42
4.71238898038469
  0
LINE
  5
1EA
330
1F
100
AcDbEntity
  8
0-0_補助線
  6
JWW_HOJO
 62
   120
370
     5
100
AcDbLine
 10
5280.835838693025
 20
3730.000181455871
 30
0.0
 11
5280.835838693025
 21
2764.000181455871
 31
0.0
  0
LINE
  5
1EB
330
1F
100
AcDbEntity
  8
0-0_補助線
  6
JWW_HOJO
 62
   120
370
     5
100
AcDbLine
 10
4482.835838693024
 20
3730.000181455871
 30
0.0
 11
4482.835838693024
 21
2764.000181455871
 31
0.0
  0
ELLIPSE
  5
1EC
330
1F
100
AcDbEntity
  8
戸当り
  6
Continuous
 62
    92
370
    13
100
AcDbEllipse
 10
4409.192036141518
 20
2972.884428393055
 30
0.0
 11
-17.7763823922528
 21
100.8148742797557
 31
0.0
210
0.0
220
0.0
230
1.0
 40
0.4000000000000001
 41
1.85063327265668
 42
2.442876790075129
  0
ELLIPSE
  5
1ED
330
1F
100
AcDbEntity
  8
戸当り
  6
Continuous
 62
    92
370
    13
100
AcDbEllipse
 10
4409.192036141518
 20
2972.884428393055
 30
0.0
 11
-17.7763823922528
 21
100.8148742797557
 31
0.0
210
0.0
220
0.0
230
1.0
 40
0.4000000000000001
 41
3.840308517104467
 42
4.432552034522944
  0
ELLIPSE
  5
1EE
330
1F
100
AcDbEntity
  8
戸当り
  6
Continuous
 62
    92
370
    13
100
AcDbEllipse
 10
4408.772290091617
 20
2975.264926534712
 30
0.0
 11
-14.67024424252691
 21
83.19908946199425
 31
0.0
210
0.0
220
0.0
230
1.0
 40
0.5
 41
4.340591432030095
 42
8.225779182329084
  0
LINE
  5
1EF
330
1F
100
AcDbEntity
  8
戸当り
  6
Continuous
 62
    92
370
    13
100
AcDbLine
 10
4448.741919914279
 20
2900.267379069786
 30
0.0
 11
4396.863795824744
 21
2891.119866084259
 31
0.0
  0
LINE
  5
1F0
330
1F
100
AcDbEntity
  8
戸当り
  6
Continuous
 62
    92
370
    13
100
AcDbLine
 10
4450.929886952883
 20
2887.858801381832
 30
0.0
 11
4399.051762863347
 21
2878.711288396305
 31
0.0
  0
ELLIPSE
  5
1F1
330
1F
100
AcDbEntity
  8
戸当り
  6
Continuous
 62
    92
370
    13
100
AcDbEllipse
 10
4424.990824908115
 20
2883.285044889069
 30
0.0
 11
-7.622927487939132
 21
43.23177007461331
 31
0.0
210
0.0
220
0.0
230
1.0
 40
0.6
 41
1.570796326794897
 42
4.71238898038469
  0
ELLIPSE
  5
1F2
330
1F
100
AcDbEntity
  8
戸当り
  6
Continuous
 62
    92
370
    13
100
AcDbEllipse
 10
4563.652805079395
 20
3008.935263882863
 30
0.0
 11
26.49533313827762
 21
98.88192943551533
 31
0.0
210
0.0
220
0.0
230
1.0
 40
0.4
 41
1.85063327265668
 42
2.442876790075129
  0
ELLIPSE
  5
1F3
330
1F
100
AcDbEntity
  8
戸当り
  6
Continuous
 62
    92
370
    13
100
AcDbEllipse
 10
4563.652805079395
 20
3008.935263882863
 30
0.0
 11
26.49533313827762
 21
98.88192943551533
 31
0.0
210
0.0
220
0.0
230
1.0
 40
0.4
 41
3.840308517104467
 42
4.432552034522944
  0
ELLIPSE
  5
1F4
330
1F
100
AcDbEntity
  8
戸当り
  6
Continuous
 62
    92
370
    13
100
AcDbEllipse
 10
4564.278427952496
 20
3011.270120231655
 30
0.0
 11
21.86569797210526
 21
81.6038957748525
 31
0.0
210
0.0
220
0.0
230
1.0
 40
0.5
 41
4.340591432030095
 42
8.225779182329084
  0
LINE
  5
1F5
330
1F
100
AcDbEntity
  8
戸当り
  6
Continuous
 62
    92
370
    13
100
AcDbLine
 10
4568.807881561304
 20
2926.407363477468
 30
0.0
 11
4517.92442768491
 21
2940.041543851754
 31
0.0
  0
LINE
  5
1F6
330
1F
100
AcDbEntity
  8
戸当り
  6
Continuous
 62
    92
370
    13
100
AcDbLine
 10
4565.546761593013
 20
2914.236698066226
 30
0.0
 11
4514.66330771662
 21
2927.870878440512
 31
0.0
  0
ELLIPSE
  5
1F7
330
1F
100
AcDbEntity
  8
戸当り
  6
Continuous
 62
    92
370
    13
100
AcDbEllipse
 10
4540.105034654816
 20
2921.053788253369
 30
0.0
 11
11.36181697857171
 21
42.40287823032828
 31
0.0
210
0.0
220
0.0
230
1.0
 40
0.6
 41
1.570796326794897
 42
4.71238898038469
  0
TEXT
  5
1F8
330
1F
100
AcDbEntity
  8
0-A_文字
  6
Continuous
 62
     7
370
     9
100
AcDbText
 10
4083.835838693027
 20
3776.920181455871
 30
0.0
 40
91.44
  1
■吊り手方向
 41
1.104166666666667
  7
ＭＳ ゴシック
100
AcDbText
  0
LINE
  5
1F9
330
1F
100
AcDbEntity
  8
0-7_金物
  6
Continuous
 62
     7
370
     9
100
AcDbLine
 10
-1687.964025966922
 20
-3094.472620281206
 30
0.0
 11
-1670.199630665907
 21
-3094.472620281206
 31
0.0
  0
LINE
  5
1FA
330
1F
100
AcDbEntity
  8
0-7_金物
  6
Continuous
 62
     7
370
     9
100
AcDbLine
 10
-1687.964025966922
 20
-3009.091305003024
 30
0.0
 11
-1687.964025966922
 21
-3094.472620281206
 31
0.0
  0
LINE
  5
1FB
330
1F
100
AcDbEntity
  8
0-7_金物
  6
Continuous
 62
     7
370
     9
100
AcDbLine
 10
-1670.199630665907
 20
-3009.091305003024
 30
0.0
 11
-1670.199630665907
 21
-3094.472620281209
 31
0.0
  0
LINE
  5
1FC
330
1F
100
AcDbEntity
  8
0-6_扉
  6
Continuous
 62
   200
370
    20
100
AcDbLine
 10
-1787.081828316414
 20
-3009.000197951857
 30
0.0
 11
-1571.081828316416
 21
-3009.000197951857
 31
0.0
  0
LWPOLYLINE
  5
1FD
330
1F
100
AcDbEntity
  8
0-B_寸法
  6
Continuous
 62
     7
370
     9
100
AcDbPolyline
 90
        4
 70
     1
 43
6.0
 10
-617.0818283164183
 20
-3069.000197951857
 42
0.4142135623731
 10
-620.0818283164184
 20
-3066.000197951857
 42
0.4142135623731
 10
-623.0818283164184
 20
-3069.000197951857
 42
0.4142135623731
 10
-620.0818283164184
 20
-3072.000197951856
 42
0.4142135623731
  0
LWPOLYLINE
  5
1FE
330
1F
100
AcDbEntity
  8
0-B_寸法
  6
Continuous
 62
     7
370
     9
100
AcDbPolyline
 90
        4
 70
     1
 43
6.0
 10
-617.0818283164183
 20
-3009.000197951857
 42
0.4142135623731
 10
-620.0818283164184
 20
-3006.000197951857
 42
0.4142135623731
 10
-623.0818283164184
 20
-3009.000197951857
 42
0.4142135623731
 10
-620.0818283164184
 20
-3012.000197951856
 42
0.4142135623731
  0
LINE
  5
1FF
330
1F
100
AcDbEntity
  8
0-B_寸法
  6
Continuous
 62
   120
370
     5
100
AcDbLine
 10
-620.0818283164184
 20
-3087.000197951857
 30
0.0
 11
-980.0818283164167
 21
-3087.000197951857
 31
0.0
  0
LINE
  5
200
330
1F
100
AcDbEntity
  8
0-B_寸法
  6
Continuous
 62
   120
370
     5
100
AcDbLine
 10
-620.0818283164184
 20
-3009.000197951857
 30
0.0
 11
-980.0818283164167
 21
-3009.000197951857
 31
0.0
  0
LINE
  5
201
330
1F
100
AcDbEntity
  8
0-B_寸法
  6
Continuous
 62
   120
370
     5
100
AcDbLine
 10
-2768.081828316416
 20
-3159.000197951857
 30
0.0
 11
-2611.899507874426
 21
-3159.000197951857
 31
0.0
  0
LWPOLYLINE
  5
202
330
1F
100
AcDbEntity
  8
0-B_寸法
  6
Continuous
 62
     7
370
     9
100
AcDbPolyline
 90
        4
 70
     1
 43
6.0
 10
-2765.081828316416
 20
-3159.000197951857
 42
0.4142135623731
 10
-2768.081828316416
 20
-3156.000197951857
 42
0.4142135623731
 10
-2771.081828316416
 20
-3159.000197951857
 42
0.4142135623731
 10
-2768.081828316416
 20
-3162.000197951856
 42
0.4142135623731
  0
LINE
  5
203
330
1F
100
AcDbEntity
  8
0-1_通り芯
  6
JWW_CENTER1
 62
   120
370
     5
100
AcDbLine
 10
-2969.454627062586
 20
-3159.000197951857
 30
0.0
 11
-611.5508642550108
 21
-3159.000197951857
 31
0.0
  0
LWPOLYLINE
  5
204
330
1F
100
AcDbEntity
  8
0-B_寸法
  6
Continuous
 62
     7
370
     9
100
AcDbPolyline
 90
        4
 70
     1
 43
6.0
 10
-407.0818283164166
 20
-3159.000197951857
 42
0.4142135623731
 10
-410.0818283164166
 20
-3156.000197951857
 42
0.4142135623731
 10
-413.0818283164166
 20
-3159.000197951857
 42
0.4142135623731
 10
-410.0818283164166
 20
-3162.000197951856
 42
0.4142135623731
  0
LWPOLYLINE
  5
205
330
1F
100
AcDbEntity
  8
0-B_寸法
  6
Continuous
 62
     7
370
     9
100
AcDbPolyline
 90
        4
 70
     1
 43
6.0
 10
-407.0818283164166
 20
-3087.000197951857
 42
0.4142135623731
 10
-410.0818283164166
 20
-3084.000197951857
 42
0.4142135623731
 10
-413.0818283164166
 20
-3087.000197951857
 42
0.4142135623731
 10
-410.0818283164166
 20
-3090.000197951857
 42
0.4142135623731
  0
LINE
  5
206
330
1F
100
AcDbEntity
  8
0-B_寸法
  6
Continuous
 62
   120
370
     5
100
AcDbLine
 10
-410.0818283164166
 20
-3087.000197951857
 30
0.0
 11
-619.548682537007
 21
-3087.000197951857
 31
0.0
  0
LWPOLYLINE
  5
207
330
1F
100
AcDbEntity
  8
0-B_寸法
  6
Continuous
 62
     7
370
     9
100
AcDbPolyline
 90
        4
 70
     1
 43
6.0
 10
-407.0818283164166
 20
-3069.000197951857
 42
0.4142135623731
 10
-410.0818283164166
 20
-3066.000197951857
 42
0.4142135623731
 10
-413.0818283164166
 20
-3069.000197951857
 42
0.4142135623731
 10
-410.0818283164166
 20
-3072.000197951856
 42
0.4142135623731
  0
LINE
  5
208
330
1F
100
AcDbEntity
  8
0-B_寸法
  6
Continuous
 62
   120
370
     5
100
AcDbLine
 10
-410.0818283164166
 20
-3069.000197951857
 30
0.0
 11
-980.0818283164167
 21
-3069.000197951857
 31
0.0
  0
LWPOLYLINE
  5
209
330
1F
100
AcDbEntity
  8
0-B_寸法
  6
Continuous
 62
     7
370
     9
100
AcDbPolyline
 90
        4
 70
     1
 43
6.0
 10
-197.0818283164182
 20
-3159.000197951857
 42
0.4142135623731
 10
-200.0818283164182
 20
-3156.000197951857
 42
0.4142135623731
 10
-203.0818283164182
 20
-3159.000197951857
 42
0.4142135623731
 10
-200.0818283164182
 20
-3162.000197951856
 42
0.4142135623731
  0
LINE
  5
20A
330
1F
100
AcDbEntity
  8
0-B_寸法
  6
Continuous
 62
   120
370
     5
100
AcDbLine
 10
-200.0818283164182
 20
-3159.000197951857
 30
0.0
 11
-980.0818283164167
 21
-3159.000197951857
 31
0.0
  0
LINE
  5
20B
330
1F
100
AcDbEntity
  8
0-0_補助線
  6
JWW_HOJO
 62
   120
370
     5
100
AcDbLine
 10
-200.0818283164165
 20
-3159.000197951856
 30
0.0
 11
-2768.081828316416
 21
-3159.000197951856
 31
0.0
  0
LINE
  5
20C
330
1F
100
AcDbEntity
  8
0-0_補助線
  6
JWW_HOJO
 62
   120
370
     5
100
AcDbLine
 10
-1160.081828316417
 20
-1951.500452582901
 30
0.0
 11
-2198.081828316416
 21
-1951.500452582901
 31
0.0
  0
LINE
  5
20D
330
1F
100
AcDbEntity
  8
0-0_補助線
  6
JWW_HOJO
 62
   120
370
     5
100
AcDbLine
 10
-1160.081828316417
 20
-1831.500452582901
 30
0.0
 11
-2198.081828316416
 21
-1831.500452582901
 31
0.0
  0
LINE
  5
20E
330
1F
100
AcDbEntity
  8
0-4_枠
  6
Continuous
 62
   120
370
     5
100
AcDbLine
 10
-2018.081828316416
 20
-1951.500452582901
 30
0.0
 11
-2018.081828316416
 21
-3087.000197951857
 31
0.0
  0
LINE
  5
20F
330
1F
100
AcDbEntity
  8
0-6_扉
  6
Continuous
 62
   200
370
    20
100
AcDbLine
 10
-1787.081828316414
 20
-1951.500452582901
 30
0.0
 11
-1787.081828316414
 21
-3009.000197951857
 31
0.0
  0
LINE
  5
210
330
1F
100
AcDbEntity
  8
0-6_扉
  6
Continuous
 62
   200
370
    20
100
AcDbLine
 10
-1571.081828316416
 20
-1951.500452582901
 30
0.0
 11
-1571.081828316416
 21
-3009.000197951857
 31
0.0
  0
LINE
  5
211
330
1F
100
AcDbEntity
  8
0-4_枠
  6
Continuous
 62
   120
370
     5
100
AcDbLine
 10
-1340.081828316417
 20
-1951.500452582901
 30
0.0
 11
-1340.081828316417
 21
-3087.000197951857
 31
0.0
  0
LINE
  5
212
330
1F
100
AcDbEntity
  8
0-4_枠
  6
Continuous
 62
    92
370
    13
100
AcDbLine
 10
-1571.081828316414
 20
-559.9676289240679
 30
0.0
 11
-1571.081828316414
 21
-703.9676289240699
 31
0.0
  0
LINE
  5
213
330
1F
100
AcDbEntity
  8
0-4_枠
  6
Continuous
 62
    92
370
    13
100
AcDbLine
 10
-1571.081828316414
 20
-700.9680637995559
 30
0.0
 11
-1352.081393440926
 21
-700.9680637995559
 31
0.0
  0
LINE
  5
214
330
1F
100
AcDbEntity
  8
0-4_枠
  6
Continuous
 62
    92
370
    13
100
AcDbLine
 10
-1571.081828316414
 20
-703.9676289240699
 30
0.0
 11
-1349.081828316415
 21
-703.9676289240699
 31
0.0
  0
LINE
  5
215
330
1F
100
AcDbEntity
  8
0-4_枠
  6
Continuous
 62
    92
370
    13
100
AcDbLine
 10
-1787.081828316414
 20
-559.9676289240679
 30
0.0
 11
-1571.081828316414
 21
-559.9676289240679
 31
0.0
  0
LINE
  5
216
330
1F
100
AcDbEntity
  8
0-7_金物
  6
Continuous
 62
     7
370
     9
100
AcDbLine
 10
-1769.081828316417
 20
-901.9676289240676
 30
0.0
 11
-1589.081828316417
 21
-901.9676289240676
 31
0.0
  0
LINE
  5
217
330
1F
100
AcDbEntity
  8
0-7_金物
  6
Continuous
 62
     7
370
     9
100
AcDbLine
 10
-1769.081828316417
 20
-703.9676289240699
 30
0.0
 11
-1589.081828316417
 21
-703.9676289240699
 31
0.0
  0
LINE
  5
218
330
1F
100
AcDbEntity
  8
0-7_金物
  6
Continuous
 62
     7
370
     9
100
AcDbLine
 10
-1758.883346664414
 20
-710.0200055940697
 30
0.0
 11
-1758.883346664414
 21
-901.9676289240676
 31
0.0
  0
LINE
  5
219
330
1F
100
AcDbEntity
  8
0-7_金物
  6
Continuous
 62
     7
370
     9
100
AcDbLine
 10
-1758.883346664414
 20
-710.0200055940697
 30
0.0
 11
-1599.280309968415
 21
-710.0200055940697
 31
0.0
  0
LINE
  5
21A
330
1F
100
AcDbEntity
  8
0-7_金物
  6
Continuous
 62
     7
370
     9
100
AcDbLine
 10
-1599.280309968415
 20
-710.0200055940697
 30
0.0
 11
-1599.280309968415
 21
-901.9676289240676
 31
0.0
  0
LINE
  5
21B
330
1F
100
AcDbEntity
  8
0-7_金物
  6
Continuous
 62
     7
370
     9
100
AcDbLine
 10
-1672.392951585774
 20
-710.0200055940697
 30
0.0
 11
-1672.392951585774
 21
-901.9676289240676
 31
0.0
  0
LINE
  5
21C
330
1F
100
AcDbEntity
  8
0-7_金物
  6
Continuous
 62
     7
370
     9
100
AcDbLine
 10
-1685.77070504706
 20
-710.0200055940697
 30
0.0
 11
-1685.77070504706
 21
-901.9676289240676
 31
0.0
  0
LINE
  5
21D
330
1F
100
AcDbEntity
  8
0-7_金物
  6
Continuous
 62
     7
370
     9
100
AcDbLine
 10
-1769.081828316417
 20
-567.2353172570902
 30
0.0
 11
-1769.081828316417
 21
-901.9676289240676
 31
0.0
  0
LINE
  5
21E
330
1F
100
AcDbEntity
  8
0-7_金物
  6
Continuous
 62
     7
370
     9
100
AcDbLine
 10
-1769.081828316417
 20
-567.2353172570902
 30
0.0
 11
-1589.081828316417
 21
-567.2353172570902
 31
0.0
  0
LINE
  5
21F
330
1F
100
AcDbEntity
  8
0-7_金物
  6
Continuous
 62
     7
370
     9
100
AcDbLine
 10
-1589.081828316417
 20
-567.2353172570902
 30
0.0
 11
-1589.081828316417
 21
-901.9676289240676
 31
0.0
  0
LINE
  5
220
330
1F
100
AcDbEntity
  8
0-7_金物
  6
Continuous
 62
     7
370
     9
100
AcDbLine
 10
-1769.081828316417
 20
-682.4952463920683
 30
0.0
 11
-1589.081828316417
 21
-682.4952463920683
 31
0.0
  0
LINE
  5
221
330
1F
100
AcDbEntity
  8
0-7_金物
  6
Continuous
 62
     7
370
     9
100
AcDbLine
 10
-1728.778141290415
 20
-567.2353172570902
 30
0.0
 11
-1728.778141290415
 21
-682.4952463920683
 31
0.0
  0
LINE
  5
222
330
1F
100
AcDbEntity
  8
0-7_金物
  6
Continuous
 62
     7
370
     9
100
AcDbLine
 10
-1629.385515342415
 20
-567.2353172570902
 30
0.0
 11
-1629.385515342415
 21
-682.4952463920683
 31
0.0
  0
LINE
  5
223
330
1F
100
AcDbEntity
  8
0-7_金物
  6
Continuous
 62
     7
370
     9
100
AcDbLine
 10
-1769.082131584847
 20
-427.9679665247756
 30
0.0
 11
-1589.082268913949
 21
-427.9679665247756
 31
0.0
  0
LINE
  5
224
330
1F
100
AcDbEntity
  8
0-7_金物
  6
Continuous
 62
     7
370
     9
100
AcDbLine
 10
-1589.082268913949
 20
-415.9676289240693
 30
0.0
 11
-1589.082268913949
 21
-427.9679665247756
 31
0.0
  0
LINE
  5
225
330
1F
100
AcDbEntity
  8
0-7_金物
  6
Continuous
 62
     7
370
     9
100
AcDbLine
 10
-1769.082131584847
 20
-415.9676289240693
 30
0.0
 11
-1769.082131584847
 21
-427.9679665247756
 31
0.0
  0
LINE
  5
226
330
1F
100
AcDbEntity
  8
0-7_金物
  6
Continuous
 62
     7
370
     9
100
AcDbLine
 10
-1769.082131584847
 20
-415.9676289240693
 30
0.0
 11
-1589.082268913949
 21
-415.9676289240693
 31
0.0
  0
LINE
  5
227
330
1F
100
AcDbEntity
  8
0-7_金物
  6
Continuous
 62
     7
370
     9
100
AcDbLine
 10
-1739.082028588023
 20
-427.9679665247756
 30
0.0
 11
-1739.082028588023
 21
-439.9675602595178
 31
0.0
  0
LINE
  5
228
330
1F
100
AcDbEntity
  8
0-7_金物
  6
Continuous
 62
     7
370
     9
100
AcDbLine
 10
-1619.082371910777
 20
-427.9679665247756
 30
0.0
 11
-1619.082371910777
 21
-439.9675602595178
 31
0.0
  0
LINE
  5
229
330
1F
100
AcDbEntity
  8
0-7_金物
  6
Continuous
 62
     7
370
     9
100
AcDbLine
 10
-1739.082028588023
 20
-439.9675602595178
 30
0.0
 11
-1619.082371910777
 21
-439.9675602595178
 31
0.0
  0
LINE
  5
22A
330
1F
100
AcDbEntity
  8
0-7_金物
  6
Continuous
 62
     7
370
     9
100
AcDbLine
 10
-1733.081862648692
 20
-439.9675602595178
 30
0.0
 11
-1733.081862648692
 21
-463.96762892407
 31
0.0
  0
LINE
  5
22B
330
1F
100
AcDbEntity
  8
0-7_金物
  6
Continuous
 62
     7
370
     9
100
AcDbLine
 10
-1625.081793984141
 20
-463.96762892407
 30
0.0
 11
-1625.081793984141
 21
-439.9675602595178
 31
0.0
  0
LINE
  5
22C
330
1F
100
AcDbEntity
  8
仕上げ
  6
Continuous
 62
     7
370
     9
100
AcDbLine
 10
-2018.081828316416
 20
-415.9676289240693
 30
0.0
 11
-1340.081828316417
 21
-415.9676289240693
 31
0.0
  0
LINE
  5
22D
330
1F
100
AcDbEntity
  8
0-4_枠
  6
Continuous
 62
    92
370
    13
100
AcDbLine
 10
-2009.081828316417
 20
-493.96762892407
 30
0.0
 11
-1967.081828316414
 21
-493.96762892407
 31
0.0
  0
LINE
  5
22E
330
1F
100
AcDbEntity
  8
0-4_枠
  6
Continuous
 62
    92
370
    13
100
AcDbLine
 10
-2009.081828316417
 20
-523.9676289240699
 30
0.0
 11
-1949.081828316417
 21
-523.9676289240699
 31
0.0
  0
LINE
  5
22F
330
1F
100
AcDbEntity
  8
0-4_枠
  6
Continuous
 62
    92
370
    13
100
AcDbLine
 10
-2009.081828316417
 20
-523.9676289240699
 30
0.0
 11
-2009.081828316417
 21
-493.96762892407
 31
0.0
  0
LINE
  5
230
330
1F
100
AcDbEntity
  8
0-4_枠
  6
Continuous
 62
    92
370
    13
100
AcDbLine
 10
-1949.081828316417
 20
-577.9676289240685
 30
0.0
 11
-2009.081828316417
 21
-577.9676289240685
 31
0.0
  0
LINE
  5
231
330
1F
100
AcDbEntity
  8
0-4_枠
  6
Continuous
 62
    92
370
    13
100
AcDbLine
 10
-1949.081828316417
 20
-523.9676289240699
 30
0.0
 11
-1949.081828316417
 21
-577.9676289240685
 31
0.0
  0
LINE
  5
232
330
1F
100
AcDbEntity
  8
0-4_枠
  6
Continuous
 62
    92
370
    13
100
AcDbLine
 10
-2006.082263191905
 20
-577.9676289240685
 30
0.0
 11
-2006.082263191905
 21
-700.9680637995559
 31
0.0
  0
LINE
  5
233
330
1F
100
AcDbEntity
  8
0-4_枠
  6
Continuous
 62
    92
370
    13
100
AcDbLine
 10
-2009.081828316417
 20
-577.9676289240685
 30
0.0
 11
-2009.081828316417
 21
-703.9676289240699
 31
0.0
  0
LINE
  5
234
330
1F
100
AcDbEntity
  8
0-4_枠
  6
Continuous
 62
    92
370
    13
100
AcDbLine
 10
-1967.081828316414
 20
-493.96762892407
 30
0.0
 11
-1967.081828316414
 21
-463.96762892407
 31
0.0
  0
LINE
  5
235
330
1F
100
AcDbEntity
  8
0-4_枠
  6
Continuous
 62
    92
370
    13
100
AcDbLine
 10
-1349.081828316415
 20
-493.96762892407
 30
0.0
 11
-1391.081828316415
 21
-493.96762892407
 31
0.0
  0
LINE
  5
236
330
1F
100
AcDbEntity
  8
0-4_枠
  6
Continuous
 62
    92
370
    13
100
AcDbLine
 10
-1349.081828316415
 20
-523.9676289240699
 30
0.0
 11
-1409.081828316417
 21
-523.9676289240699
 31
0.0
  0
LINE
  5
237
330
1F
100
AcDbEntity
  8
0-4_枠
  6
Continuous
 62
    92
370
    13
100
AcDbLine
 10
-1349.081828316415
 20
-523.9676289240699
 30
0.0
 11
-1349.081828316415
 21
-493.96762892407
 31
0.0
  0
LINE
  5
238
330
1F
100
AcDbEntity
  8
0-4_枠
  6
Continuous
 62
    92
370
    13
100
AcDbLine
 10
-1409.081828316417
 20
-577.9676289240685
 30
0.0
 11
-1349.081828316415
 21
-577.9676289240685
 31
0.0
  0
LINE
  5
239
330
1F
100
AcDbEntity
  8
0-4_枠
  6
Continuous
 62
    92
370
    13
100
AcDbLine
 10
-1409.081828316417
 20
-523.9676289240699
 30
0.0
 11
-1409.081828316417
 21
-577.9676289240685
 31
0.0
  0
LINE
  5
23A
330
1F
100
AcDbEntity
  8
0-4_枠
  6
Continuous
 62
    92
370
    13
100
AcDbLine
 10
-1391.081828316415
 20
-493.96762892407
 30
0.0
 11
-1391.081828316415
 21
-463.96762892407
 31
0.0
  0
LINE
  5
23B
330
1F
100
AcDbEntity
  8
0-4_枠
  6
Continuous
 62
    92
370
    13
100
AcDbLine
 10
-1352.081393440926
 20
-577.9676289240685
 30
0.0
 11
-1352.081393440926
 21
-700.9680637995559
 31
0.0
  0
LINE
  5
23C
330
1F
100
AcDbEntity
  8
0-4_枠
  6
Continuous
 62
    92
370
    13
100
AcDbLine
 10
-1349.081828316415
 20
-577.9676289240685
 30
0.0
 11
-1349.081828316415
 21
-703.9676289240699
 31
0.0
  0
LINE
  5
23D
330
1F
100
AcDbEntity
  8
0-4_枠
  6
Continuous
 62
    92
370
    13
100
AcDbLine
 10
-1391.081828316415
 20
-463.96762892407
 30
0.0
 11
-1967.081828316414
 21
-463.96762892407
 31
0.0
  0
LINE
  5
23E
330
1F
100
AcDbEntity
  8
ハッチ
  6
Continuous
 62
   120
370
     5
100
AcDbLine
 10
-1387.922144625161
 20
-700.968063799552
 30
0.0
 11
-1352.081393440933
 21
-665.1273126153242
 31
0.0
  0
LINE
  5
23F
330
1F
100
AcDbEntity
  8
ハッチ
  6
Continuous
 62
   120
370
     5
100
AcDbLine
 10
-1447.319114244861
 20
-700.9680637995491
 30
0.0
 11
-1352.081393440933
 21
-605.7303429956223
 31
0.0
  0
LINE
  5
240
330
1F
100
AcDbEntity
  8
ハッチ
  6
Continuous
 62
   120
370
     5
100
AcDbLine
 10
-1506.716083864519
 20
-700.9680637995623
 30
0.0
 11
-1383.715648989035
 21
-577.9676289240754
 31
0.0
  0
LINE
  5
241
330
1F
100
AcDbEntity
  8
ハッチ
  6
Continuous
 62
   120
370
     5
100
AcDbLine
 10
-1566.113053484162
 20
-700.9680637995555
 30
0.0
 11
-1409.081828316417
 21
-543.9368386318099
 31
0.0
  0
LINE
  5
242
330
1F
100
AcDbEntity
  8
ハッチ
  6
Continuous
 62
   120
370
     5
100
AcDbLine
 10
-1389.11261860867
 20
-523.9676289240635
 30
0.0
 11
-1359.112618608675
 21
-493.96762892407
 31
0.0
  0
LINE
  5
243
330
1F
100
AcDbEntity
  8
ハッチ
  6
Continuous
 62
   120
370
     5
100
AcDbLine
 10
-1571.081828316419
 20
-646.5398690121112
 30
0.0
 11
-1391.081828316413
 21
-466.539869012104
 31
0.0
  0
LINE
  5
244
330
1F
100
AcDbEntity
  8
ハッチ
  6
Continuous
 62
   120
370
     5
100
AcDbLine
 10
-1571.081828316428
 20
-587.1428993924737
 30
0.0
 11
-1447.906557848021
 21
-463.9676289240666
 31
0.0
  0
LINE
  5
245
330
1F
100
AcDbEntity
  8
ハッチ
  6
Continuous
 62
   120
370
     5
100
AcDbLine
 10
-1603.303527467726
 20
-559.9676289240683
 30
0.0
 11
-1507.303527467728
 21
-463.96762892407
 31
0.0
  0
LINE
  5
246
330
1F
100
AcDbEntity
  8
ハッチ
  6
Continuous
 62
   120
370
     5
100
AcDbLine
 10
-1803.700931962861
 20
-700.9680637995525
 30
0.0
 11
-1789.844772301974
 21
-687.1119041386694
 31
0.0
  0
LINE
  5
247
330
1F
100
AcDbEntity
  8
ハッチ
  6
Continuous
 62
   120
370
     5
100
AcDbLine
 10
-1662.700497087363
 20
-559.967628924061
 30
0.0
 11
-1566.700497087368
 21
-463.9676289240666
 31
0.0
  0
LINE
  5
248
330
1F
100
AcDbEntity
  8
ハッチ
  6
Continuous
 62
   120
370
     5
100
AcDbLine
 10
-1863.097901582515
 20
-700.9680637995623
 30
0.0
 11
-1789.844772301964
 21
-627.7149345190153
 31
0.0
  0
LINE
  5
249
330
1F
100
AcDbEntity
  8
ハッチ
  6
Continuous
 62
   120
370
     5
100
AcDbLine
 10
-1722.097466707017
 20
-559.9676289240645
 30
0.0
 11
-1626.097466707012
 21
-463.9676289240601
 31
0.0
  0
LINE
  5
24A
330
1F
100
AcDbEntity
  8
ハッチ
  6
Continuous
 62
   120
370
     5
100
AcDbLine
 10
-1922.494871202214
 20
-700.9680637995593
 30
0.0
 11
-1789.844772301969
 21
-568.3179648993168
 31
0.0
  0
LINE
  5
24B
330
1F
100
AcDbEntity
  8
ハッチ
  6
Continuous
 62
   120
370
     5
100
AcDbLine
 10
-1781.494436326719
 20
-559.9676289240645
 30
0.0
 11
-1685.494436326714
 21
-463.9676289240601
 31
0.0
  0
LINE
  5
24C
330
1F
100
AcDbEntity
  8
ハッチ
  6
Continuous
 62
   120
370
     5
100
AcDbLine
 10
-1981.891840821871
 20
-700.9680637995691
 30
0.0
 11
-1744.891405946365
 21
-463.9676289240631
 31
0.0
  0
LINE
  5
24D
330
1F
100
AcDbEntity
  8
ハッチ
  6
Continuous
 62
   120
370
     5
100
AcDbLine
 10
-2006.08226319191
 20
-665.7615165499058
 30
0.0
 11
-1804.288375566075
 21
-463.9676289240734
 31
0.0
  0
LINE
  5
24E
330
1F
100
AcDbEntity
  8
ハッチ
  6
Continuous
 62
   120
370
     5
100
AcDbLine
 10
-2006.082263191898
 20
-606.3645469302483
 30
0.0
 11
-1977.685345185721
 21
-577.967628924072
 31
0.0
  0
LINE
  5
24F
330
1F
100
AcDbEntity
  8
ハッチ
  6
Continuous
 62
   120
370
     5
100
AcDbLine
 10
-1949.081828316419
 20
-549.3641120547695
 30
0.0
 11
-1863.685345185721
 21
-463.96762892407
 31
0.0
  0
LINE
  5
250
330
1F
100
AcDbEntity
  8
ハッチ
  6
Continuous
 62
   120
370
     5
100
AcDbLine
 10
-1983.08231480543
 20
-523.9676289240767
 30
0.0
 11
-1923.082314805423
 21
-463.96762892407
 31
0.0
  0
LINE
  5
251
330
1F
100
AcDbEntity
  8
0-4_枠
  6
Continuous
 62
    92
370
    13
100
AcDbLine
 10
-1787.081828316414
 20
-703.9676289240699
 30
0.0
 11
-2009.081828316417
 21
-703.9676289240699
 31
0.0
  0
LINE
  5
252
330
1F
100
AcDbEntity
  8
0-4_枠
  6
Continuous
 62
    92
370
    13
100
AcDbLine
 10
-1787.081828316414
 20
-700.9680637995559
 30
0.0
 11
-2006.082263191905
 21
-700.9680637995559
 31
0.0
  0
LINE
  5
253
330
1F
100
AcDbEntity
  8
0-4_枠
  6
Continuous
 62
    92
370
    13
100
AcDbLine
 10
-1787.081828316414
 20
-559.9676289240679
 30
0.0
 11
-1787.081828316414
 21
-703.9676289240699
 31
0.0
  0
LWPOLYLINE
  5
254
330
1F
100
AcDbEntity
  8
0-B_寸法
  6
Continuous
 62
     7
370
     9
100
AcDbPolyline
 90
        4
 70
     1
 43
6.0
 10
-617.0818283164167
 20
-703.9676289240699
 42
0.4142135623731
 10
-620.0818283164167
 20
-700.9676289240699
 42
0.4142135623731
 10
-623.0818283164167
 20
-703.9676289240699
 42
0.4142135623731
 10
-620.0818283164167
 20
-706.96762892407
 42
0.4142135623731
  0
LWPOLYLINE
  5
255
330
1F
100
AcDbEntity
  8
0-B_寸法
  6
Continuous
 62
     7
370
     9
100
AcDbPolyline
 90
        4
 70
     1
 43
6.0
 10
-617.0818283164167
 20
-901.9676289240676
 42
0.4142135623731
 10
-620.0818283164167
 20
-898.9676289240676
 42
0.4142135623731
 10
-623.0818283164167
 20
-901.9676289240676
 42
0.4142135623731
 10
-620.0818283164167
 20
-904.9676289240678
 42
0.4142135623731
  0
LINE
  5
256
330
1F
100
AcDbEntity
  8
0-B_寸法
  6
Continuous
 62
   120
370
     5
100
AcDbLine
 10
-620.0818283164167
 20
-703.9676289240699
 30
0.0
 11
-620.0818283164184
 21
-3069.000197951857
 31
0.0
  0
LINE
  5
257
330
1F
100
AcDbEntity
  8
0-B_寸法
  6
Continuous
 62
   120
370
     5
100
AcDbLine
 10
-620.0818283164167
 20
-901.9676289240676
 30
0.0
 11
-980.0818283164167
 21
-901.9676289240676
 31
0.0
  0
LINE
  5
258
330
1F
100
AcDbEntity
  8
0-B_寸法
  6
Continuous
 62
   120
370
     5
100
AcDbLine
 10
-2558.081828316416
 20
-463.96762892407
 30
0.0
 11
-2198.081828316416
 21
-463.96762892407
 31
0.0
  0
LWPOLYLINE
  5
259
330
1F
100
AcDbEntity
  8
0-B_寸法
  6
Continuous
 62
     7
370
     9
100
AcDbPolyline
 90
        4
 70
     1
 43
6.0
 10
-2375.081828316416
 20
-463.96762892407
 42
0.4142135623731
 10
-2378.081828316416
 20
-460.96762892407
 42
0.4142135623731
 10
-2381.081828316416
 20
-463.96762892407
 42
0.4142135623731
 10
-2378.081828316416
 20
-466.96762892407
 42
0.4142135623731
  0
LWPOLYLINE
  5
25A
330
1F
100
AcDbEntity
  8
0-B_寸法
  6
Continuous
 62
     7
370
     9
100
AcDbPolyline
 90
        4
 70
     1
 43
6.0
 10
-2555.081828316416
 20
-463.96762892407
 42
0.4142135623731
 10
-2558.081828316416
 20
-460.96762892407
 42
0.4142135623731
 10
-2561.081828316416
 20
-463.96762892407
 42
0.4142135623731
 10
-2558.081828316416
 20
-466.96762892407
 42
0.4142135623731
  0
LINE
  5
25B
330
1F
100
AcDbEntity
  8
0-B_寸法
  6
Continuous
 62
   120
370
     5
100
AcDbLine
 10
-2378.081828316416
 20
-493.96762892407
 30
0.0
 11
-2198.081828316416
 21
-493.96762892407
 31
0.0
  0
LWPOLYLINE
  5
25C
330
1F
100
AcDbEntity
  8
0-B_寸法
  6
Continuous
 62
     7
370
     9
100
AcDbPolyline
 90
        4
 70
     1
 43
6.0
 10
-2375.081828316416
 20
-493.96762892407
 42
0.4142135623731
 10
-2378.081828316416
 20
-490.9676289240699
 42
0.4142135623731
 10
-2381.081828316416
 20
-493.96762892407
 42
0.4142135623731
 10
-2378.081828316416
 20
-496.96762892407
 42
0.4142135623731
  0
LINE
  5
25D
330
1F
100
AcDbEntity
  8
0-B_寸法
  6
Continuous
 62
   120
370
     5
100
AcDbLine
 10
-2378.081828316416
 20
-523.9676289240699
 30
0.0
 11
-2198.081828316416
 21
-523.9676289240699
 31
0.0
  0
LWPOLYLINE
  5
25E
330
1F
100
AcDbEntity
  8
0-B_寸法
  6
Continuous
 62
     7
370
     9
100
AcDbPolyline
 90
        4
 70
     1
 43
6.0
 10
-2375.081828316416
 20
-523.9676289240699
 42
0.4142135623731
 10
-2378.081828316416
 20
-520.9676289240699
 42
0.4142135623731
 10
-2381.081828316416
 20
-523.9676289240699
 42
0.4142135623731
 10
-2378.081828316416
 20
-526.96762892407
 42
0.4142135623731
  0
LINE
  5
25F
330
1F
100
AcDbEntity
  8
0-B_寸法
  6
Continuous
 62
   120
370
     5
100
AcDbLine
 10
-2378.081828316416
 20
-577.9676289240685
 30
0.0
 11
-2198.081828316416
 21
-577.9676289240685
 31
0.0
  0
LWPOLYLINE
  5
260
330
1F
100
AcDbEntity
  8
0-B_寸法
  6
Continuous
 62
     7
370
     9
100
AcDbPolyline
 90
        4
 70
     1
 43
6.0
 10
-2375.081828316416
 20
-577.9676289240685
 42
0.4142135623731
 10
-2378.081828316416
 20
-574.9676289240685
 42
0.4142135623731
 10
-2381.081828316416
 20
-577.9676289240685
 42
0.4142135623731
 10
-2378.081828316416
 20
-580.9676289240687
 42
0.4142135623731
  0
LINE
  5
261
330
1F
100
AcDbEntity
  8
0-B_寸法
  6
Continuous
 62
   120
370
     5
100
AcDbLine
 10
-2558.081828316416
 20
-703.9676289240699
 30
0.0
 11
-2198.081828316416
 21
-703.9676289240699
 31
0.0
  0
LWPOLYLINE
  5
262
330
1F
100
AcDbEntity
  8
0-B_寸法
  6
Continuous
 62
     7
370
     9
100
AcDbPolyline
 90
        4
 70
     1
 43
6.0
 10
-2375.081828316416
 20
-703.9676289240699
 42
0.4142135623731
 10
-2378.081828316416
 20
-700.9676289240699
 42
0.4142135623731
 10
-2381.081828316416
 20
-703.9676289240699
 42
0.4142135623731
 10
-2378.081828316416
 20
-706.96762892407
 42
0.4142135623731
  0
LWPOLYLINE
  5
263
330
1F
100
AcDbEntity
  8
0-B_寸法
  6
Continuous
 62
     7
370
     9
100
AcDbPolyline
 90
        4
 70
     1
 43
6.0
 10
-2555.081828316416
 20
-703.9676289240699
 42
0.4142135623731
 10
-2558.081828316416
 20
-700.9676289240699
 42
0.4142135623731
 10
-2561.081828316416
 20
-703.9676289240699
 42
0.4142135623731
 10
-2558.081828316416
 20
-706.96762892407
 42
0.4142135623731
  0
LINE
  5
264
330
1F
100
AcDbEntity
  8
0-B_寸法
  6
Continuous
 62
   120
370
     5
100
AcDbLine
 10
-2378.081828316416
 20
-463.96762892407
 30
0.0
 11
-2378.081828316416
 21
-703.9676289240699
 31
0.0
  0
LINE
  5
265
330
1F
100
AcDbEntity
  8
0-B_寸法
  6
Continuous
 62
   120
370
     5
100
AcDbLine
 10
-2558.081828316416
 20
-463.96762892407
 30
0.0
 11
-2558.081828316416
 21
-703.9676289240699
 31
0.0
  0
LINE
  5
266
330
1F
100
AcDbEntity
  8
0-1_通り芯
  6
JWW_CENTER1
 62
   120
370
     5
100
AcDbLine
 10
-2198.081828316416
 20
-415.9676289240693
 30
0.0
 11
-2021.081828316415
 21
-415.9676289240693
 31
0.0
  0
LINE
  5
267
330
1F
100
AcDbEntity
  8
0-B_寸法
  6
Continuous
 62
   120
370
     5
100
AcDbLine
 10
-2009.081828316417
 20
-1155.592816839858
 30
0.0
 11
-2009.081828316417
 21
-976.997384818442
 31
0.0
  0
LWPOLYLINE
  5
268
330
1F
100
AcDbEntity
  8
0-B_寸法
  6
Continuous
 62
     7
370
     9
100
AcDbPolyline
 90
        4
 70
     1
 43
6.0
 10
-2006.081828316417
 20
-1155.592816839858
 42
0.4142135623731
 10
-2009.081828316417
 20
-1152.592816839858
 42
0.4142135623731
 10
-2012.081828316417
 20
-1155.592816839858
 42
0.4142135623731
 10
-2009.081828316417
 20
-1158.592816839858
 42
0.4142135623731
  0
LINE
  5
269
330
1F
100
AcDbEntity
  8
0-B_寸法
  6
Continuous
 62
   120
370
     5
100
AcDbLine
 10
-1349.081828316415
 20
-1155.592816839858
 30
0.0
 11
-1349.081828316415
 21
-976.997384818442
 31
0.0
  0
LWPOLYLINE
  5
26A
330
1F
100
AcDbEntity
  8
0-B_寸法
  6
Continuous
 62
     7
370
     9
100
AcDbPolyline
 90
        4
 70
     1
 43
6.0
 10
-1346.081828316415
 20
-1155.592816839858
 42
0.4142135623731
 10
-1349.081828316415
 20
-1152.592816839858
 42
0.4142135623731
 10
-1352.081828316415
 20
-1155.592816839858
 42
0.4142135623731
 10
-1349.081828316415
 20
-1158.592816839858
 42
0.4142135623731
  0
LINE
  5
26B
330
1F
100
AcDbEntity
  8
0-B_寸法
  6
Continuous
 62
   120
370
     5
100
AcDbLine
 10
-2009.081828316417
 20
-1155.592816839858
 30
0.0
 11
-1349.081828316415
 21
-1155.592816839858
 31
0.0
  0
LINE
  5
26C
330
1F
100
AcDbEntity
  8
0-B_寸法
  6
Continuous
 62
   120
370
     5
100
AcDbLine
 10
-2768.081828316416
 20
-415.9676289240693
 30
0.0
 11
-2768.081828316416
 21
-3159.000197951857
 31
0.0
  0
LWPOLYLINE
  5
26D
330
1F
100
AcDbEntity
  8
0-B_寸法
  6
Continuous
 62
     7
370
     9
100
AcDbPolyline
 90
        4
 70
     1
 43
6.0
 10
-2765.081828316416
 20
-415.9676289240693
 42
0.4142135623731
 10
-2768.081828316416
 20
-412.9676289240693
 42
0.4142135623731
 10
-2771.081828316416
 20
-415.9676289240693
 42
0.4142135623731
 10
-2768.081828316416
 20
-418.9676289240693
 42
0.4142135623731
  0
LINE
  5
26E
330
1F
100
AcDbEntity
  8
0-B_寸法
  6
Continuous
 62
   120
370
     5
100
AcDbLine
 10
-2768.081828316416
 20
-415.9676289240693
 30
0.0
 11
-2198.081828316416
 21
-415.9676289240693
 31
0.0
  0
LWPOLYLINE
  5
26F
330
1F
100
AcDbEntity
  8
0-B_寸法
  6
Continuous
 62
     7
370
     9
100
AcDbPolyline
 90
        4
 70
     1
 43
6.0
 10
-407.0818283164166
 20
-703.9676289240699
 42
0.4142135623731
 10
-410.0818283164166
 20
-700.9676289240699
 42
0.4142135623731
 10
-413.0818283164166
 20
-703.9676289240699
 42
0.4142135623731
 10
-410.0818283164166
 20
-706.96762892407
 42
0.4142135623731
  0
LWPOLYLINE
  5
270
330
1F
100
AcDbEntity
  8
0-B_寸法
  6
Continuous
 62
     7
370
     9
100
AcDbPolyline
 90
        4
 70
     1
 43
6.0
 10
-407.0818283164166
 20
-463.96762892407
 42
0.4142135623731
 10
-410.0818283164166
 20
-460.96762892407
 42
0.4142135623731
 10
-413.0818283164166
 20
-463.96762892407
 42
0.4142135623731
 10
-410.0818283164166
 20
-466.96762892407
 42
0.4142135623731
  0
LINE
  5
271
330
1F
100
AcDbEntity
  8
0-B_寸法
  6
Continuous
 62
   120
370
     5
100
AcDbLine
 10
-410.0818283164166
 20
-703.9676289240699
 30
0.0
 11
-980.0818283164167
 21
-703.9676289240699
 31
0.0
  0
LINE
  5
272
330
1F
100
AcDbEntity
  8
0-B_寸法
  6
Continuous
 62
   120
370
     5
100
AcDbLine
 10
-200.0818283164165
 20
-463.96762892407
 30
0.0
 11
-980.0818283164167
 21
-463.96762892407
 31
0.0
  0
LWPOLYLINE
  5
273
330
1F
100
AcDbEntity
  8
0-B_寸法
  6
Continuous
 62
     7
370
     9
100
AcDbPolyline
 90
        4
 70
     1
 43
6.0
 10
-197.0818283164165
 20
-463.96762892407
 42
0.4142135623731
 10
-200.0818283164165
 20
-460.96762892407
 42
0.4142135623731
 10
-203.0818283164165
 20
-463.96762892407
 42
0.4142135623731
 10
-200.0818283164165
 20
-466.96762892407
 42
0.4142135623731
  0
LINE
  5
274
330
1F
100
AcDbEntity
  8
0-1_通り芯
  6
JWW_CENTER1
 62
   120
370
     5
100
AcDbLine
 10
-2018.081828316416
 20
-415.9676289240693
 30
0.0
 11
-200.0818283164165
 21
-415.9676289240693
 31
0.0
  0
LINE
  5
275
330
1F
100
AcDbEntity
  8
0-4_枠
  6
Continuous
 62
   120
370
     5
100
AcDbLine
 10
-1967.081828316414
 20
-463.96762892407
 30
0.0
 11
-2018.081828316416
 21
-463.96762892407
 31
0.0
  0
LINE
  5
276
330
1F
100
AcDbEntity
  8
0-4_枠
  6
Continuous
 62
   120
370
     5
100
AcDbLine
 10
-1391.081828316415
 20
-463.96762892407
 30
0.0
 11
-1340.081828316417
 21
-463.96762892407
 31
0.0
  0
LINE
  5
277
330
1F
100
AcDbEntity
  8
0-4_枠
  6
Continuous
 62
   120
370
     5
100
AcDbLine
 10
-2018.081828316416
 20
-463.96762892407
 30
0.0
 11
-2018.081828316416
 21
-1831.500452582901
 31
0.0
  0
LINE
  5
278
330
1F
100
AcDbEntity
  8
0-4_枠
  6
Continuous
 62
   120
370
     5
100
AcDbLine
 10
-1340.081828316417
 20
-463.96762892407
 30
0.0
 11
-1340.081828316417
 21
-1831.500452582901
 31
0.0
  0
LINE
  5
279
330
1F
100
AcDbEntity
  8
0-B_寸法
  6
Continuous
 62
   120
370
     5
100
AcDbLine
 10
-1571.081828316416
 20
-1364.100750089518
 30
0.0
 11
-1787.081828316414
 21
-1364.100750089518
 31
0.0
  0
LWPOLYLINE
  5
27A
330
1F
100
AcDbEntity
  8
0-B_寸法
  6
Continuous
 62
     7
370
     9
100
AcDbPolyline
 90
        4
 70
     1
 43
6.0
 10
-1568.081828316416
 20
-1364.100750089518
 42
0.4142135623731
 10
-1571.081828316416
 20
-1361.100750089518
 42
0.4142135623731
 10
-1574.081828316416
 20
-1364.100750089518
 42
0.4142135623731
 10
-1571.081828316416
 20
-1367.100750089518
 42
0.4142135623731
  0
LWPOLYLINE
  5
27B
330
1F
100
AcDbEntity
  8
0-B_寸法
  6
Continuous
 62
     7
370
     9
100
AcDbPolyline
 90
        4
 70
     1
 43
6.0
 10
-1784.081828316414
 20
-1364.100750089518
 42
0.4142135623731
 10
-1787.081828316414
 20
-1361.100750089518
 42
0.4142135623731
 10
-1790.081828316414
 20
-1364.100750089518
 42
0.4142135623731
 10
-1787.081828316414
 20
-1367.100750089518
 42
0.4142135623731
  0
LINE
  5
27C
330
1F
100
AcDbEntity
  8
仕上げ
  6
Continuous
 62
     7
370
     9
100
AcDbLine
 10
-2018.081828316416
 20
-115.9676289509619
 30
0.0
 11
-2018.081828316416
 21
-415.9676289240693
 31
0.0
  0
LINE
  5
27D
330
1F
100
AcDbEntity
  8
仕上げ
  6
Continuous
 62
     7
370
     9
100
AcDbLine
 10
-1340.081828316417
 20
-115.9676289509619
 30
0.0
 11
-1340.081828316417
 21
-415.9676289240693
 31
0.0
  0
LINE
  5
27E
330
1F
100
AcDbEntity
  8
0-0_補助線
  6
JWW_HOJO
 62
   120
370
     5
100
AcDbLine
 10
-980.0818283164167
 20
-115.9676289509619
 30
0.0
 11
-980.0818283164167
 21
-3159.000197951856
 31
0.0
  0
LINE
  5
27F
330
1F
100
AcDbEntity
  8
0-0_補助線
  6
JWW_HOJO
 62
   120
370
     5
100
AcDbLine
 10
-620.0818283164167
 20
-115.9676289509619
 30
0.0
 11
-620.0818283164167
 21
-3159.000197951856
 31
0.0
  0
LINE
  5
280
330
1F
100
AcDbEntity
  8
0-0_補助線
  6
JWW_HOJO
 62
   120
370
     5
100
AcDbLine
 10
-2378.081828316416
 20
-115.9676289509619
 30
0.0
 11
-2378.081828316416
 21
-3159.000197951856
 31
0.0
  0
LINE
  5
281
330
1F
100
AcDbEntity
  8
0-0_補助線
  6
JWW_HOJO
 62
   120
370
     5
100
AcDbLine
 10
-2558.081828316416
 20
-115.9676289509619
 30
0.0
 11
-2558.081828316416
 21
-3159.000197951856
 31
0.0
  0
LINE
  5
282
330
1F
100
AcDbEntity
  8
0-1_通り芯
  6
JWW_CENTER1
 62
   120
370
     5
100
AcDbLine
 10
-1679.081828316417
 20
-115.9676289509619
 30
0.0
 11
-1679.081828316417
 21
-3339.000197951858
 31
0.0
  0
LINE
  5
283
330
1F
100
AcDbEntity
  8
0-0_補助線
  6
JWW_HOJO
 62
   120
370
     5
100
AcDbLine
 10
-2768.081828316416
 20
-115.9676289509619
 30
0.0
 11
-2768.081828316416
 21
-3159.000197951856
 31
0.0
  0
LINE
  5
284
330
1F
100
AcDbEntity
  8
0-0_補助線
  6
JWW_HOJO
 62
   120
370
     5
100
AcDbLine
 10
-410.0818283164166
 20
-115.9676289509619
 30
0.0
 11
-410.0818283164166
 21
-3159.000197951856
 31
0.0
  0
LINE
  5
285
330
1F
100
AcDbEntity
  8
0-0_補助線
  6
JWW_HOJO
 62
   120
370
     5
100
AcDbLine
 10
-200.0818283164165
 20
-115.9676289509619
 30
0.0
 11
-200.0818283164165
 21
-3159.000197951856
 31
0.0
  0
LINE
  5
286
330
1F
100
AcDbEntity
  8
0-0_補助線
  6
JWW_HOJO
 62
   120
370
     5
100
AcDbLine
 10
-200.0818283164165
 20
-115.9676289509619
 30
0.0
 11
-2768.081828316416
 21
-115.9676289509619
 31
0.0
  0
TEXT
  5
287
330
1F
100
AcDbEntity
  8
0-A_文字
  6
Continuous
 62
     7
370
     9
100
AcDbText
 10
-2768.081828316416
 20
37.48858101777067
 30
0.0
 40
91.44
  1
■竪断面図
 41
1.1
  7
ＭＳ ゴシック
100
AcDbText
  0
TEXT
  5
288
330
1F
100
AcDbEntity
  8
0-B_寸法
  6
Continuous
 62
     7
370
   211
100
AcDbText
 10
-2285.646763419128
 20
-461.4401658714027
 30
0.0
 40
91.44
  1
5
 50
90.0
  7
ＭＳ ゴシック
100
AcDbText
  0
TEXT
  5
289
330
1F
100
AcDbEntity
  8
0-B_寸法
  6
Continuous
 62
     7
370
   211
100
AcDbText
 10
-2410.001828316416
 20
-538.9676289240683
 30
0.0
 40
91.44
  1
5
 50
90.0
  7
ＭＳ ゴシック
100
AcDbText
  0
TEXT
  5
28A
330
1F
100
AcDbEntity
  8
0-B_寸法
  6
Continuous
 62
     7
370
   211
100
AcDbText
 10
-2290.001828316416
 20
-580.9676289240692
 30
0.0
 40
91.44
  1
9
 50
90.0
  7
ＭＳ ゴシック
100
AcDbText
  0
TEXT
  5
28B
330
1F
100
AcDbEntity
  8
0-B_寸法
  6
Continuous
 62
     7
370
   211
100
AcDbText
 10
-2590.001828316416
 20
-643.9676289240683
 30
0.0
 40
91.44
  1
40
 50
90.0
  7
ＭＳ ゴシック
100
AcDbText
  0
TEXT
  5
28C
330
1F
100
AcDbEntity
  8
0-B_寸法
  6
Continuous
 62
     7
370
   211
100
AcDbText
 10
-442.0018283164167
 20
-643.9676289240683
 30
0.0
 40
91.44
  1
40
 50
90.0
  7
ＭＳ ゴシック
100
AcDbText
  0
TEXT
  5
28D
330
1F
100
AcDbEntity
  8
0-B_寸法
  6
Continuous
 62
     7
370
   211
100
AcDbText
 10
-2410.001828316416
 20
-700.9676289240692
 30
0.0
 40
91.44
  1
21
 50
90.0
  7
ＭＳ ゴシック
100
AcDbText
  0
TEXT
  5
28E
330
1F
100
AcDbEntity
  8
0-B_寸法
  6
Continuous
 62
     7
370
     0
100
AcDbText
 10
-648.2683356040486
 20
-872.6971567260923
 30
0.0
 40
91.44
  1
33
 50
90.0
  7
ＭＳ ゴシック
100
AcDbText
  0
TEXT
  5
28F
330
1F
100
AcDbEntity
  8
0-B_寸法
  6
Continuous
 62
     7
370
     0
100
AcDbText
 10
-1768.551223000255
 20
-1123.672816839858
 30
0.0
 40
91.44
  1
110
  7
ＭＳ ゴシック
100
AcDbText
  0
TEXT
  5
290
330
1F
100
AcDbEntity
  8
0-B_寸法
  6
Continuous
 62
     7
370
   211
100
AcDbText
 10
-1739.081828316417
 20
-1332.180750089518
 30
0.0
 40
91.44
  1
36
  7
ＭＳ ゴシック
100
AcDbText
  0
TEXT
  5
291
330
1F
100
AcDbEntity
  8
0-B_寸法
  6
Continuous
 62
     7
370
     0
100
AcDbText
 10
-651.7915971472446
 20
-3010.798334796237
 30
0.0
 40
91.44
  1
10
 50
90.0
  7
ＭＳ ゴシック
100
AcDbText
  0
TEXT
  5
292
330
1F
100
AcDbEntity
  8
0-B_寸法
  6
Continuous
 62
     7
370
   211
100
AcDbText
 10
-442.0018283164167
 20
-3061.500197951857
 30
0.0
 40
91.44
  1
3
 50
90.0
  7
ＭＳ ゴシック
100
AcDbText
  0
TEXT
  5
293
330
1F
100
AcDbEntity
  8
0-B_寸法
  6
Continuous
 62
     7
370
   211
100
AcDbText
 10
-616.3275980790025
 20
-3282.750197951856
 30
0.0
 40
91.44
  1
12
 50
90.0
  7
ＭＳ ゴシック
100
AcDbText
  0
LINE
  5
294
330
1F
100
AcDbEntity
  8
仕上げ
  6
Continuous
 62
    40
370
    15
100
AcDbLine
 10
-1886.081828316417
 20
-3159.000197951857
 30
0.0
 11
-1886.081828316417
 21
-3087.000197951857
 31
0.0
  0
LINE
  5
295
330
1F
100
AcDbEntity
  8
仕上げ
  6
Continuous
 62
    40
370
    15
100
AcDbLine
 10
-2378.081828316416
 20
-3159.000197951857
 30
0.0
 11
-1886.081828316417
 21
-3159.000197951857
 31
0.0
  0
LINE
  5
296
330
1F
100
AcDbEntity
  8
仕上げ
  6
Continuous
 62
    40
370
    15
100
AcDbLine
 10
-2378.081828316416
 20
-3087.000197951857
 30
0.0
 11
-1886.081828316417
 21
-3087.000197951857
 31
0.0
  0
LINE
  5
297
330
1F
100
AcDbEntity
  8
仕上げ
  6
Continuous
 62
     7
370
     9
100
AcDbLine
 10
-2378.081828316416
 20
-3096.000197951856
 30
0.0
 11
-1886.081828316417
 21
-3096.000197951856
 31
0.0
  0
LINE
  5
298
330
1F
100
AcDbEntity
  8
仕上げ
  6
Continuous
 62
     7
370
     9
100
AcDbLine
 10
-2378.081828316416
 20
-3150.000197951855
 30
0.0
 11
-1886.081828316417
 21
-3150.000197951855
 31
0.0
  0
LINE
  5
299
330
1F
100
AcDbEntity
  8
仕上げ
  6
Continuous
 62
     7
370
     9
100
AcDbLine
 10
-2378.081828316416
 20
-3105.000197951857
 30
0.0
 11
-1886.081828316417
 21
-3105.000197951857
 31
0.0
  0
LINE
  5
29A
330
1F
100
AcDbEntity
  8
仕上げ
  6
Continuous
 62
     7
370
     9
100
AcDbLine
 10
-2378.081828316416
 20
-3114.000197951856
 30
0.0
 11
-1886.081828316417
 21
-3114.000197951856
 31
0.0
  0
LINE
  5
29B
330
1F
100
AcDbEntity
  8
仕上げ
  6
Continuous
 62
     7
370
     9
100
AcDbLine
 10
-2378.081828316416
 20
-3123.000197951857
 30
0.0
 11
-1886.081828316417
 21
-3123.000197951857
 31
0.0
  0
LINE
  5
29C
330
1F
100
AcDbEntity
  8
仕上げ
  6
Continuous
 62
     7
370
     9
100
AcDbLine
 10
-2378.081828316416
 20
-3132.000197951856
 30
0.0
 11
-1886.081828316417
 21
-3132.000197951856
 31
0.0
  0
LINE
  5
29D
330
1F
100
AcDbEntity
  8
仕上げ
  6
Continuous
 62
     7
370
     9
100
AcDbLine
 10
-2378.081828316416
 20
-3141.000197951856
 30
0.0
 11
-1886.081828316417
 21
-3141.000197951856
 31
0.0
  0
LINE
  5
29E
330
1F
100
AcDbEntity
  8
仕上げ
  6
Continuous
 62
    40
370
    15
100
AcDbLine
 10
-1472.081828316413
 20
-3159.000197951857
 30
0.0
 11
-1472.081828316413
 21
-3087.000197951858
 31
0.0
  0
LINE
  5
29F
330
1F
100
AcDbEntity
  8
仕上げ
  6
Continuous
 62
    40
370
    15
100
AcDbLine
 10
-980.0818283164167
 20
-3159.000197951857
 30
0.0
 11
-1472.081828316413
 21
-3159.000197951857
 31
0.0
  0
LINE
  5
2A0
330
1F
100
AcDbEntity
  8
仕上げ
  6
Continuous
 62
    40
370
    15
100
AcDbLine
 10
-980.0818283164167
 20
-3087.000197951857
 30
0.0
 11
-1472.081828316413
 21
-3087.000197951858
 31
0.0
  0
LINE
  5
2A1
330
1F
100
AcDbEntity
  8
仕上げ
  6
Continuous
 62
     7
370
     9
100
AcDbLine
 10
-980.0818283164167
 20
-3096.000197951856
 30
0.0
 11
-1472.081828316413
 21
-3096.000197951857
 31
0.0
  0
LINE
  5
2A2
330
1F
100
AcDbEntity
  8
仕上げ
  6
Continuous
 62
     7
370
     9
100
AcDbLine
 10
-980.0818283164167
 20
-3150.000197951855
 30
0.0
 11
-1472.081828316413
 21
-3150.000197951856
 31
0.0
  0
LINE
  5
2A3
330
1F
100
AcDbEntity
  8
仕上げ
  6
Continuous
 62
     7
370
     9
100
AcDbLine
 10
-980.0818283164167
 20
-3105.000197951857
 30
0.0
 11
-1472.081828316413
 21
-3105.000197951858
 31
0.0
  0
LINE
  5
2A4
330
1F
100
AcDbEntity
  8
仕上げ
  6
Continuous
 62
     7
370
     9
100
AcDbLine
 10
-980.0818283164167
 20
-3114.000197951856
 30
0.0
 11
-1472.081828316413
 21
-3114.000197951857
 31
0.0
  0
LINE
  5
2A5
330
1F
100
AcDbEntity
  8
仕上げ
  6
Continuous
 62
     7
370
     9
100
AcDbLine
 10
-980.0818283164167
 20
-3123.000197951857
 30
0.0
 11
-1472.081828316413
 21
-3123.000197951857
 31
0.0
  0
LINE
  5
2A6
330
1F
100
AcDbEntity
  8
仕上げ
  6
Continuous
 62
     7
370
     9
100
AcDbLine
 10
-980.0818283164167
 20
-3132.000197951856
 30
0.0
 11
-1472.081828316413
 21
-3132.000197951856
 31
0.0
  0
LINE
  5
2A7
330
1F
100
AcDbEntity
  8
仕上げ
  6
Continuous
 62
     7
370
     9
100
AcDbLine
 10
-980.0818283164167
 20
-3141.000197951856
 30
0.0
 11
-1472.081828316413
 21
-3141.000197951857
 31
0.0
  0
LINE
  5
2A8
330
1F
100
AcDbEntity
  8
0-7_金物
  6
Continuous
 62
     7
370
     9
100
AcDbLine
 10
-1691.791746121398
 20
-901.9676289240676
 30
0.0
 11
-1691.791746121398
 21
-913.455699568822
 31
0.0
  0
LINE
  5
2A9
330
1F
100
AcDbEntity
  8
0-7_金物
  6
Continuous
 62
     7
370
     9
100
AcDbLine
 10
-1666.37191051143
 20
-901.9676289240676
 30
0.0
 11
-1666.37191051143
 21
-913.455699568822
 31
0.0
  0
LINE
  5
2AA
330
1F
100
AcDbEntity
  8
0-6_扉
  6
Continuous
 62
   200
370
    20
100
AcDbLine
 10
-1787.081828316414
 20
-913.9676289240676
 30
0.0
 11
-1571.081828316416
 21
-913.9676289240676
 31
0.0
  0
LINE
  5
2AB
330
1F
100
AcDbEntity
  8
0-6_扉
  6
Continuous
 62
   200
370
    20
100
AcDbLine
 10
-1787.081828316414
 20
-913.9676289240676
 30
0.0
 11
-1787.081828316414
 21
-1831.500452582901
 31
0.0
  0
LINE
  5
2AC
330
1F
100
AcDbEntity
  8
0-6_扉
  6
Continuous
 62
   200
370
    20
100
AcDbLine
 10
-1571.081828316416
 20
-913.9676289240676
 30
0.0
 11
-1571.081828316416
 21
-1831.500452582901
 31
0.0
  0
LWPOLYLINE
  5
2AD
330
1F
100
AcDbEntity
  8
0-B_寸法
  6
Continuous
 62
     7
370
     9
100
AcDbPolyline
 90
        4
 70
     1
 43
6.0
 10
-617.0818283164167
 20
-913.9676289240676
 42
0.4142135623731
 10
-620.0818283164167
 20
-910.9676289240676
 42
0.4142135623731
 10
-623.0818283164167
 20
-913.9676289240676
 42
0.4142135623731
 10
-620.0818283164167
 20
-916.9676289240676
 42
0.4142135623731
  0
LINE
  5
2AE
330
1F
100
AcDbEntity
  8
0-B_寸法
  6
Continuous
 62
   120
370
     5
100
AcDbLine
 10
-620.0818283164167
 20
-913.9676289240676
 30
0.0
 11
-980.0818283164167
 21
-913.9676289240676
 31
0.0
  0
TEXT
  5
2AF
330
1F
100
AcDbEntity
  8
0-B_寸法
  6
Continuous
 62
     7
370
     0
100
AcDbText
 10
-652.0018283164167
 20
-986.0395536844511
 30
0.0
 40
91.44
  1
2
 50
90.0
  7
ＭＳ ゴシック
100
AcDbText
  0
LINE
  5
2B0
330
1F
100
AcDbEntity
  8
0-B_寸法
  6
Continuous
 62
   120
370
     5
100
AcDbLine
 10
-410.0818283164166
 20
-463.96762892407
 30
0.0
 11
-410.0818283164166
 21
-3159.000197951857
 31
0.0
  0
LWPOLYLINE
  5
2B1
330
1F
100
AcDbEntity
  8
0-B_寸法
  6
Continuous
 62
     7
370
     9
100
AcDbPolyline
 90
        4
 70
     1
 43
6.0
 10
-197.0818283164165
 20
-415.9676289240693
 42
0.4142135623731
 10
-200.0818283164165
 20
-412.9676289240693
 42
0.4142135623731
 10
-203.0818283164165
 20
-415.9676289240693
 42
0.4142135623731
 10
-200.0818283164165
 20
-418.9676289240693
 42
0.4142135623731
  0
LINE
  5
2B2
330
1F
100
AcDbEntity
  8
0-B_寸法
  6
Continuous
 62
   120
370
     5
100
AcDbLine
 10
-200.0818283164165
 20
-415.9676289240693
 30
0.0
 11
-980.0818283164167
 21
-415.9676289240693
 31
0.0
  0
LINE
  5
2B3
330
1F
100
AcDbEntity
  8
0-B_寸法
  6
Continuous
 62
   120
370
     5
100
AcDbLine
 10
-200.0818283164165
 20
-415.9676289240693
 30
0.0
 11
-200.0818283164182
 21
-3159.000197951857
 31
0.0
  0
TEXT
  5
2B4
330
1F
100
AcDbEntity
  8
0-B_寸法
  6
Continuous
 62
     7
370
     0
100
AcDbText
 10
-225.9079099026878
 20
-537.8843445260986
 30
0.0
 40
91.44
  1
8
 50
90.0
  7
ＭＳ ゴシック
100
AcDbText
  0
TEXT
  5
2B5
330
1F
100
AcDbEntity
  8
0-B_寸法
  6
Continuous
 62
     7
370
     0
100
AcDbText
 10
-2812.847132183821
 20
-2281.500452582901
 30
0.0
 40
91.44
  1
ＲＯＨ＝2,055
 50
90.0
  7
ＭＳ ゴシック
100
AcDbText
  0
TEXT
  5
2B6
330
1F
100
AcDbEntity
  8
0-B_寸法
  6
Continuous
 62
     7
370
     0
100
AcDbText
 10
-650.0826489610951
 20
-2221.500452582901
 30
0.0
 40
91.44
  1
ＤＨ＝1,947
 50
90.0
  7
ＭＳ ゴシック
100
AcDbText
  0
TEXT
  5
2B7
330
1F
100
AcDbEntity
  8
0-B_寸法
  6
Continuous
 62
     7
370
   211
100
AcDbText
 10
-442.0018283164167
 20
-2221.500452582901
 30
0.0
 40
91.44
  1
枠内＝1,992
 50
90.0
  7
ＭＳ ゴシック
100
AcDbText
  0
TEXT
  5
2B8
330
1F
100
AcDbEntity
  8
0-B_寸法
  6
Continuous
 62
     7
370
     0
100
AcDbText
 10
-225.91647874312
 20
-2221.500452582901
 30
0.0
 40
91.44
  1
枠外＝2,047
 50
90.0
  7
ＭＳ ゴシック
100
AcDbText
  0
LINE
  5
2B9
330
1F
100
AcDbEntity
  8
0-4_枠
  6
Continuous
 62
    92
370
    13
100
AcDbLine
 10
-1532.081828316418
 20
-3159.000197951857
 30
0.0
 11
-1532.081828316418
 21
-3122.999929015699
 31
0.0
  0
LINE
  5
2BA
330
1F
100
AcDbEntity
  8
0-4_枠
  6
Continuous
 62
    92
370
    13
100
AcDbLine
 10
-1826.081828316417
 20
-3159.000197951857
 30
0.0
 11
-1826.081828316417
 21
-3122.999929015699
 31
0.0
  0
LINE
  5
2BB
330
1F
100
AcDbEntity
  8
0-4_枠
  6
Continuous
 62
    92
370
    13
100
AcDbLine
 10
-1826.081828316417
 20
-3122.999929015699
 30
0.0
 11
-1532.081782540053
 21
-3122.999929015699
 31
0.0
  0
ARC
  5
2BC
330
1F
100
AcDbEntity
  8
0-4_枠
  6
Continuous
 62
    92
370
    13
100
AcDbCircle
 10
-1472.081828316418
 20
-3087.000197951856
 30
0.0
 40
18.0
100
AcDbArc
 50
0.0000000000000127
 51
90.00000000000001
  0
ARC
  5
2BD
330
1F
100
AcDbEntity
  8
0-4_枠
  6
Continuous
 62
    92
370
    13
100
AcDbCircle
 10
-1886.081828316417
 20
-3087.000197951856
 30
0.0
 40
18.0
100
AcDbArc
 50
90.0
 51
180.0
  0
ARC
  5
2BE
330
1F
100
AcDbEntity
  8
0-4_枠
  6
Continuous
 62
    92
370
    13
100
AcDbCircle
 10
-1886.081828316417
 20
-3087.000197951856
 30
0.0
 40
15.0
100
AcDbArc
 50
90.0
 51
180.0
  0
ARC
  5
2BF
330
1F
100
AcDbEntity
  8
0-4_枠
  6
Continuous
 62
    92
370
    13
100
AcDbCircle
 10
-1472.081828316418
 20
-3087.000197951856
 30
0.0
 40
15.0
100
AcDbArc
 50
0.0000000000000127
 51
90.00000000000001
  0
LINE
  5
2C0
330
1F
100
AcDbEntity
  8
ハッチ
  6
Continuous
 62
   120
370
     5
100
AcDbLine
 10
-1600.111911764709
 20
-3159.000197951848
 30
0.0
 11
-1513.111625662431
 21
-3071.999911849571
 31
0.0
  0
LINE
  5
2C1
330
1F
100
AcDbEntity
  8
ハッチ
  6
Continuous
 62
   120
370
     5
100
AcDbLine
 10
-1659.508881384363
 20
-3159.000197951858
 30
0.0
 11
-1572.508595282072
 21
-3071.999911849566
 31
0.0
  0
LINE
  5
2C2
330
1F
100
AcDbEntity
  8
ハッチ
  6
Continuous
 62
   120
370
     5
100
AcDbLine
 10
-1837.699790243421
 20
-3159.000197951867
 30
0.0
 11
-1750.69950414113
 21
-3071.999911849571
 31
0.0
  0
LINE
  5
2C3
330
1F
100
AcDbEntity
  8
ハッチ
  6
Continuous
 62
   120
370
     5
100
AcDbLine
 10
-1884.493729482761
 20
-3087.000197951856
 30
0.0
 11
-1869.493443380473
 21
-3071.999911849569
 31
0.0
  0
LINE
  5
2C4
330
1F
100
AcDbEntity
  8
0-4_枠
  6
Continuous
 62
    92
370
    13
100
AcDbLine
 10
-1880.081828316416
 20
-3087.000197951856
 30
0.0
 11
-1904.08182831642
 21
-3087.000197951856
 31
0.0
  0
LINE
  5
2C5
330
1F
100
AcDbEntity
  8
0-4_枠
  6
Continuous
 62
    92
370
    13
100
AcDbLine
 10
-1880.081828316416
 20
-3159.000197951857
 30
0.0
 11
-1880.081828316416
 21
-3087.000197951856
 31
0.0
  0
LINE
  5
2C6
330
1F
100
AcDbEntity
  8
0-4_枠
  6
Continuous
 62
    92
370
    13
100
AcDbLine
 10
-1478.081828316417
 20
-3159.000197951857
 30
0.0
 11
-1880.081828316416
 21
-3159.000197951857
 31
0.0
  0
LINE
  5
2C7
330
1F
100
AcDbEntity
  8
0-4_枠
  6
Continuous
 62
    92
370
    13
100
AcDbLine
 10
-1478.081828316417
 20
-3159.000197951857
 30
0.0
 11
-1478.081828316417
 21
-3087.000197951856
 31
0.0
  0
LINE
  5
2C8
330
1F
100
AcDbEntity
  8
0-4_枠
  6
Continuous
 62
    92
370
    13
100
AcDbLine
 10
-1478.081828316417
 20
-3087.000197951856
 30
0.0
 11
-1454.08182831642
 21
-3087.000197951856
 31
0.0
  0
LINE
  5
2C9
330
1F
100
AcDbEntity
  8
ハッチ
  6
Continuous
 62
   120
370
     5
100
AcDbLine
 10
-1880.081828316416
 20
-3141.98526640521
 30
0.0
 11
-1810.096473760757
 21
-3071.999911849554
 31
0.0
  0
LINE
  5
2CA
330
1F
100
AcDbEntity
  8
ハッチ
  6
Continuous
 62
   120
370
     5
100
AcDbLine
 10
-1540.714942145068
 20
-3159.000197951857
 30
0.0
 11
-1478.081828316417
 21
-3096.367084123209
 31
0.0
  0
LINE
  5
2CB
330
1F
100
AcDbEntity
  8
0-B_寸法
  6
Continuous
 62
   120
370
     5
100
AcDbLine
 10
-1886.081828316417
 20
-3399.000197951857
 30
0.0
 11
-1880.081828316416
 21
-3399.000197951857
 31
0.0
  0
LWPOLYLINE
  5
2CC
330
1F
100
AcDbEntity
  8
0-B_寸法
  6
Continuous
 62
     7
370
     9
100
AcDbPolyline
 90
        4
 70
     1
 43
6.0
 10
-1883.081828316417
 20
-3399.000197951857
 42
0.4142135623731
 10
-1886.081828316417
 20
-3396.000197951857
 42
0.4142135623731
 10
-1889.081828316417
 20
-3399.000197951857
 42
0.4142135623731
 10
-1886.081828316417
 20
-3402.000197951856
 42
0.4142135623731
  0
LWPOLYLINE
  5
2CD
330
1F
100
AcDbEntity
  8
0-B_寸法
  6
Continuous
 62
     7
370
     9
100
AcDbPolyline
 90
        4
 70
     1
 43
6.0
 10
-1877.081828316416
 20
-3399.000197951857
 42
0.4142135623731
 10
-1880.081828316416
 20
-3396.000197951857
 42
0.4142135623731
 10
-1883.081828316416
 20
-3399.000197951857
 42
0.4142135623731
 10
-1880.081828316416
 20
-3402.000197951856
 42
0.4142135623731
  0
LINE
  5
2CE
330
1F
100
AcDbEntity
  8
0-B_寸法
  6
Continuous
 62
   120
370
     5
100
AcDbLine
 10
-1886.081828316417
 20
-3399.000197951857
 30
0.0
 11
-1886.081828316417
 21
-3219.000197951857
 31
0.0
  0
LINE
  5
2CF
330
1F
100
AcDbEntity
  8
0-B_寸法
  6
Continuous
 62
   120
370
     5
100
AcDbLine
 10
-1880.081828316416
 20
-3399.000197951857
 30
0.0
 11
-1880.081828316416
 21
-3219.000197951857
 31
0.0
  0
LINE
  5
2D0
330
1F
100
AcDbEntity
  8
0-B_寸法
  6
Continuous
 62
   120
370
     5
100
AcDbLine
 10
-1880.081828316416
 20
-3399.000197951857
 30
0.0
 11
-1478.081828316417
 21
-3399.000197951857
 31
0.0
  0
LWPOLYLINE
  5
2D1
330
1F
100
AcDbEntity
  8
0-B_寸法
  6
Continuous
 62
     7
370
     9
100
AcDbPolyline
 90
        4
 70
     1
 43
6.0
 10
-1475.081828316417
 20
-3399.000197951857
 42
0.4142135623731
 10
-1478.081828316417
 20
-3396.000197951857
 42
0.4142135623731
 10
-1481.081828316417
 20
-3399.000197951857
 42
0.4142135623731
 10
-1478.081828316417
 20
-3402.000197951856
 42
0.4142135623731
  0
LINE
  5
2D2
330
1F
100
AcDbEntity
  8
0-B_寸法
  6
Continuous
 62
   120
370
     5
100
AcDbLine
 10
-1478.081828316417
 20
-3399.000197951857
 30
0.0
 11
-1478.081828316417
 21
-3219.000197951857
 31
0.0
  0
TEXT
  5
2D3
330
1F
100
AcDbEntity
  8
0-B_寸法
  6
Continuous
 62
     7
370
   211
100
AcDbText
 10
-1742.831828316417
 20
-3367.080197951856
 30
0.0
 40
91.44
  1
67
 41
1.0625
  7
ＭＳ ゴシック
100
AcDbText
  0
LINE
  5
2D4
330
1F
100
AcDbEntity
  8
0-B_寸法
  6
Continuous
 62
   120
370
     5
100
AcDbLine
 10
-1478.081828316417
 20
-3399.000197951857
 30
0.0
 11
-1472.081828316418
 21
-3399.000197951857
 31
0.0
  0
LWPOLYLINE
  5
2D5
330
1F
100
AcDbEntity
  8
0-B_寸法
  6
Continuous
 62
     7
370
     9
100
AcDbPolyline
 90
        4
 70
     1
 43
6.0
 10
-1469.081828316418
 20
-3399.000197951857
 42
0.4142135623731
 10
-1472.081828316418
 20
-3396.000197951857
 42
0.4142135623731
 10
-1475.081828316418
 20
-3399.000197951857
 42
0.4142135623731
 10
-1472.081828316418
 20
-3402.000197951856
 42
0.4142135623731
  0
LINE
  5
2D6
330
1F
100
AcDbEntity
  8
0-B_寸法
  6
Continuous
 62
   120
370
     5
100
AcDbLine
 10
-1472.081828316418
 20
-3399.000197951857
 30
0.0
 11
-1472.081828316418
 21
-3219.000197951857
 31
0.0
  0
TEXT
  5
2D7
330
1F
100
AcDbEntity
  8
0-B_寸法
  6
Continuous
 62
     7
370
   211
100
AcDbText
 10
-1967.081828316417
 20
-3367.080197951856
 30
0.0
 40
91.44
  1
1
  7
ＭＳ ゴシック
100
AcDbText
  0
TEXT
  5
2D8
330
1F
100
AcDbEntity
  8
0-B_寸法
  6
Continuous
 62
     7
370
   211
100
AcDbText
 10
-1451.081828316418
 20
-3367.080197951856
 30
0.0
 40
91.44
  1
1
  7
ＭＳ ゴシック
100
AcDbText
  0
LINE
  5
2D9
330
1F
100
AcDbEntity
  8
0-7_金物
  6
Continuous
 62
     7
370
     9
100
AcDbLine
 10
-1739.082074364388
 20
-3069.000197951857
 30
0.0
 11
-1717.174740990366
 21
-3069.000197951857
 31
0.0
  0
LINE
  5
2DA
330
1F
100
AcDbEntity
  8
0-7_金物
  6
Continuous
 62
     7
370
     9
100
AcDbLine
 10
-1717.174740990366
 20
-3075.000369613234
 30
0.0
 11
-1717.174740990366
 21
-3069.000197951857
 31
0.0
  0
LINE
  5
2DB
330
1F
100
AcDbEntity
  8
0-7_金物
  6
Continuous
 62
     7
370
     9
100
AcDbLine
 10
-1733.081908425057
 20
-3075.000369613234
 30
0.0
 11
-1717.174740990366
 21
-3075.000369613234
 31
0.0
  0
LINE
  5
2DC
330
1F
100
AcDbEntity
  8
0-7_金物
  6
Continuous
 62
     7
370
     9
100
AcDbLine
 10
-1619.081673821175
 20
-3069.000197951857
 30
0.0
 11
-1640.989007195199
 21
-3069.000197951857
 31
0.0
  0
LINE
  5
2DD
330
1F
100
AcDbEntity
  8
0-7_金物
  6
Continuous
 62
     7
370
     9
100
AcDbLine
 10
-1640.989007195199
 20
-3075.000369613234
 30
0.0
 11
-1640.989007195199
 21
-3069.000197951857
 31
0.0
  0
LINE
  5
2DE
330
1F
100
AcDbEntity
  8
0-7_金物
  6
Continuous
 62
     7
370
     9
100
AcDbLine
 10
-1625.081839760506
 20
-3075.000369613234
 30
0.0
 11
-1640.989007195199
 21
-3075.000369613234
 31
0.0
  0
LINE
  5
2DF
330
1F
100
AcDbEntity
  8
0-4_枠
  6
Continuous
 62
    92
370
    13
100
AcDbLine
 10
-1739.082074364388
 20
-3111.000197951856
 30
0.0
 11
-1619.081673821175
 21
-3111.000197951856
 31
0.0
  0
LINE
  5
2E0
330
1F
100
AcDbEntity
  8
0-7_金物
  6
Continuous
 62
     7
370
     9
100
AcDbLine
 10
-1619.081673821175
 20
-3111.000197951856
 30
0.0
 11
-1739.082074364388
 21
-3111.000197951856
 31
0.0
  0
LINE
  5
2E1
330
1F
100
AcDbEntity
  8
0-7_金物
  6
Continuous
 62
     7
370
     9
100
AcDbLine
 10
-1625.081839760506
 20
-3105.000029151501
 30
0.0
 11
-1733.081908425057
 21
-3105.000029151501
 31
0.0
  0
LINE
  5
2E2
330
1F
100
AcDbEntity
  8
0-4_枠
  6
Continuous
 62
    92
370
    13
100
AcDbLine
 10
-1739.082074364388
 20
-3071.647679870192
 30
0.0
 11
-1739.082074364388
 21
-3111.000197951856
 31
0.0
  0
LINE
  5
2E3
330
1F
100
AcDbEntity
  8
0-4_枠
  6
Continuous
 62
    92
370
    13
100
AcDbLine
 10
-1619.081673821175
 20
-3111.000197951856
 30
0.0
 11
-1619.081673821175
 21
-3071.647679870192
 31
0.0
  0
LINE
  5
2E4
330
1F
100
AcDbEntity
  8
0-7_金物
  6
Continuous
 62
     7
370
     9
100
AcDbLine
 10
-1625.081839760506
 20
-3075.000369613234
 30
0.0
 11
-1625.081839760506
 21
-3105.000029151501
 31
0.0
  0
LINE
  5
2E5
330
1F
100
AcDbEntity
  8
0-7_金物
  6
Continuous
 62
     7
370
     9
100
AcDbLine
 10
-1739.082074364388
 20
-3069.000197951857
 30
0.0
 11
-1739.082074364388
 21
-3111.000197951856
 31
0.0
  0
LINE
  5
2E6
330
1F
100
AcDbEntity
  8
0-7_金物
  6
Continuous
 62
     7
370
     9
100
AcDbLine
 10
-1733.081908425057
 20
-3075.000369613234
 30
0.0
 11
-1733.081908425057
 21
-3105.000029151501
 31
0.0
  0
LINE
  5
2E7
330
1F
100
AcDbEntity
  8
0-7_金物
  6
Continuous
 62
     7
370
     9
100
AcDbLine
 10
-1619.081673821175
 20
-3069.000197951857
 30
0.0
 11
-1619.081673821175
 21
-3111.000197951856
 31
0.0
  0
LINE
  5
2E8
330
1F
100
AcDbEntity
  8
0-4_枠
  6
Continuous
 62
    92
370
    13
100
AcDbLine
 10
-1886.081828316417
 20
-3069.000197951857
 30
0.0
 11
-1739.081874092781
 21
-3069.000197951857
 31
0.0
  0
LINE
  5
2E9
330
1F
100
AcDbEntity
  8
0-4_枠
  6
Continuous
 62
    92
370
    13
100
AcDbLine
 10
-1886.082080086435
 20
-3071.999911849561
 30
0.0
 11
-1739.081874092781
 21
-3071.999911849561
 31
0.0
  0
LINE
  5
2EA
330
1F
100
AcDbEntity
  8
0-4_枠
  6
Continuous
 62
    92
370
    13
100
AcDbLine
 10
-1619.081673821175
 20
-3069.000197951857
 30
0.0
 11
-1472.081828316418
 21
-3069.000197951857
 31
0.0
  0
LINE
  5
2EB
330
1F
100
AcDbEntity
  8
0-4_枠
  6
Continuous
 62
    92
370
    13
100
AcDbLine
 10
-1619.081673821175
 20
-3071.999911849561
 30
0.0
 11
-1472.081576546399
 21
-3071.999911849561
 31
0.0
  0
LINE
  5
2EC
330
1F
100
AcDbEntity
  8
ハッチ
  6
Continuous
 62
   120
370
     5
100
AcDbLine
 10
-1778.302820623706
 20
-3159.000197951853
 30
0.0
 11
-1730.302820623709
 21
-3111.000197951856
 31
0.0
  0
LINE
  5
2ED
330
1F
100
AcDbEntity
  8
ハッチ
  6
Continuous
 62
   120
370
     5
100
AcDbLine
 10
-1718.905851004051
 20
-3159.000197951843
 30
0.0
 11
-1670.905851004064
 21
-3111.000197951856
 31
0.0
  0
LINE
  5
2EE
330
1F
100
AcDbEntity
  8
0-B_寸法
  6
Continuous
 62
   120
370
     5
100
AcDbLine
 10
444.1696661273862
 20
-1615.845543233015
 30
0.0
 11
444.1696661273862
 21
-1687.845543233016
 31
0.0
  0
LINE
  5
2EF
330
1F
100
AcDbEntity
  8
0-A_文字
  6
Continuous
 62
    92
370
    13
100
AcDbLine
 10
219.9181716835818
 20
-415.9676289240693
 30
0.0
 11
219.9181716835835
 21
-2135.009185803656
 31
0.0
  0
LINE
  5
2F0
330
1F
100
AcDbEntity
  8
0-A_文字
  6
Continuous
 62
    92
370
    13
100
AcDbLine
 10
1719.918171683582
 20
-2015.538554400445
 30
0.0
 11
1719.918171683582
 21
-415.9676289240693
 31
0.0
  0
LINE
  5
2F1
330
1F
100
AcDbEntity
  8
0-A_文字
  6
Continuous
 62
    92
370
    13
100
AcDbLine
 10
1719.918171683582
 20
-2015.538554400445
 30
0.0
 11
1719.918171683582
 21
-3283.967834917721
 31
0.0
  0
LINE
  5
2F2
330
1F
100
AcDbEntity
  8
0-A_文字
  6
Continuous
 62
    92
370
    13
100
AcDbLine
 10
1719.918171683582
 20
-2315.009185803654
 30
0.0
 11
3519.918171683582
 21
-2315.009185803654
 31
0.0
  0
LINE
  5
2F3
330
1F
100
AcDbEntity
  8
0-A_文字
  6
Continuous
 62
    92
370
    13
100
AcDbLine
 10
1719.918171683582
 20
-3283.967834917721
 30
0.0
 11
3519.918171683582
 21
-3283.967834917721
 31
0.0
  0
LINE
  5
2F4
330
1F
100
AcDbEntity
  8
0-A_文字
  6
Continuous
 62
    92
370
    13
100
AcDbLine
 10
3519.918171683582
 20
-415.9676289240693
 30
0.0
 11
3519.918171683582
 21
-3283.967834917721
 31
0.0
  0
LINE
  5
2F5
330
1F
100
AcDbEntity
  8
0-A_文字
  6
Continuous
 62
    92
370
    13
100
AcDbLine
 10
219.9181716835818
 20
-415.9676289240693
 30
0.0
 11
3519.918171683586
 21
-415.9676289240693
 31
0.0
  0
LINE
  5
2F6
330
1F
100
AcDbEntity
  8
0-A_文字
  6
Continuous
 62
    92
370
    13
100
AcDbLine
 10
219.9181716835835
 20
-2135.009185803656
 30
0.0
 11
3519.918171683582
 21
-2135.009185803656
 31
0.0
  0
LINE
  5
2F7
330
1F
100
AcDbEntity
  8
0-A_文字
  6
Continuous
 62
    92
370
    13
100
AcDbLine
 10
3519.918171683582
 20
-595.9676289240692
 30
0.0
 11
219.9181716835818
 21
-595.9676289240692
 31
0.0
  0
TEXT
  5
2F8
330
1F
100
AcDbEntity
  8
0-A_文字
  6
Continuous
 62
     7
370
     0
100
AcDbText
 10
2019.918171683581
 20
-549.0476289240693
 30
0.0
 40
91.44
  1
フロアー貼り込み位置
  7
ＭＳ ゴシック
100
AcDbText
  0
LINE
  5
2F9
330
1F
100
AcDbEntity
  8
1-B_寸法
  6
Continuous
 62
   120
370
     5
100
AcDbLine
 10
3201.828453037215
 20
-2665.276546395596
 30
0.0
 11
3260.009170015967
 21
-2607.095829416843
 31
0.0
  0
LINE
  5
2FA
330
1F
100
AcDbEntity
  8
1-B_寸法
  6
Continuous
 62
   120
370
     5
100
AcDbLine
 10
3260.0084189929
 20
-2607.096580439908
 30
0.0
 11
3335.0084189929
 21
-2607.096580439908
 31
0.0
  0
LINE
  5
2FB
330
1F
100
AcDbEntity
  8
1-B_寸法
  6
Continuous
 62
   120
370
     5
100
AcDbLine
 10
2103.188613848589
 20
-2665.276546395596
 30
0.0
 11
2045.007896869833
 21
-2607.095829416843
 31
0.0
  0
LINE
  5
2FC
330
1F
100
AcDbEntity
  8
1-B_寸法
  6
Continuous
 62
   120
370
     5
100
AcDbLine
 10
2045.0086478929
 20
-2607.096580439908
 30
0.0
 11
1970.008647892899
 21
-2607.096580439908
 31
0.0
  0
LINE
  5
2FD
330
1F
100
AcDbEntity
  8
1-B_寸法
  6
Continuous
 62
   120
370
     5
100
AcDbLine
 10
3365.0084189929
 20
-2652.095078393778
 30
0.0
 11
3258.729186850756
 21
-2652.095078393778
 31
0.0
  0
LWPOLYLINE
  5
2FE
330
1F
100
AcDbEntity
  8
1-B_寸法
  6
Continuous
 62
     7
370
     9
100
AcDbPolyline
 90
        4
 70
     1
 43
6.0
 10
3368.008418992899
 20
-2652.095078393778
 42
0.4142135623731
 10
3365.0084189929
 20
-2649.095078393778
 42
0.4142135623731
 10
3362.0084189929
 20
-2652.095078393778
 42
0.4142135623731
 10
3365.0084189929
 20
-2655.095078393778
 42
0.4142135623731
  0
LINE
  5
2FF
330
1F
100
AcDbEntity
  8
1-B_寸法
  6
Continuous
 62
   120
370
     5
100
AcDbLine
 10
3365.0084189929
 20
-2877.096351548991
 30
0.0
 11
3258.729186850756
 21
-2877.096351548991
 31
0.0
  0
LWPOLYLINE
  5
300
330
1F
100
AcDbEntity
  8
1-B_寸法
  6
Continuous
 62
     7
370
     9
100
AcDbPolyline
 90
        4
 70
     1
 43
6.0
 10
3368.008418992899
 20
-2877.096351548991
 42
0.4142135623731
 10
3365.0084189929
 20
-2874.096351548991
 42
0.4142135623731
 10
3362.0084189929
 20
-2877.096351548991
 42
0.4142135623731
 10
3365.0084189929
 20
-2880.09635154899
 42
0.4142135623731
  0
LINE
  5
301
330
1F
100
AcDbEntity
  8
1-B_寸法
  6
Continuous
 62
   120
370
     5
100
AcDbLine
 10
3365.0084189929
 20
-2652.095078393778
 30
0.0
 11
3365.0084189929
 21
-2877.096351548991
 31
0.0
  0
LINE
  5
302
330
1F
100
AcDbEntity
  8
1-4_枠
  6
Continuous
 62
    92
370
    13
100
AcDbLine
 10
3020.008647883818
 20
-2877.096351548991
 30
0.0
 11
3020.008647883818
 21
-2787.095679208598
 31
0.0
  0
LINE
  5
303
330
1F
100
AcDbEntity
  8
1-4_枠
  6
Continuous
 62
    92
370
    13
100
AcDbLine
 10
2285.008647883818
 20
-2877.096351548991
 30
0.0
 11
2285.008647883818
 21
-2787.095679208598
 31
0.0
  0
LINE
  5
304
330
1F
100
AcDbEntity
  8
1-4_枠
  6
Continuous
 62
    92
370
    13
100
AcDbLine
 10
2285.008647883818
 20
-2787.095679208598
 30
0.0
 11
3020.008762324736
 21
-2787.095679208598
 31
0.0
  0
ARC
  5
305
330
1F
100
AcDbEntity
  8
1-4_枠
  6
Continuous
 62
    92
370
    13
100
AcDbCircle
 10
3170.008647883818
 20
-2697.096351548991
 30
0.0
 40
45.0
100
AcDbArc
 50
0.0
 51
90.0
  0
ARC
  5
306
330
1F
100
AcDbEntity
  8
1-4_枠
  6
Continuous
 62
    92
370
    13
100
AcDbCircle
 10
2135.008647883818
 20
-2697.096351548991
 30
0.0
 40
45.0
100
AcDbArc
 50
90.0
 51
180.0
  0
ARC
  5
307
330
1F
100
AcDbEntity
  8
1-4_枠
  6
Continuous
 62
    92
370
    13
100
AcDbCircle
 10
2135.008647883818
 20
-2697.096351548991
 30
0.0
 40
37.5
100
AcDbArc
 50
90.0
 51
180.0
  0
ARC
  5
308
330
1F
100
AcDbEntity
  8
1-4_枠
  6
Continuous
 62
    92
370
    13
100
AcDbCircle
 10
3170.008647883818
 20
-2697.096351548991
 30
0.0
 40
37.5
100
AcDbArc
 50
0.0
 51
90.0
  0
LINE
  5
309
330
1F
100
AcDbEntity
  8
1-B_寸法
  6
Continuous
 62
   120
370
     5
100
AcDbLine
 10
1940.008647883818
 20
-2652.096351548991
 30
0.0
 11
2045.008647883818
 21
-2652.096351548991
 31
0.0
  0
LWPOLYLINE
  5
30A
330
1F
100
AcDbEntity
  8
1-B_寸法
  6
Continuous
 62
     7
370
     9
100
AcDbPolyline
 90
        4
 70
     1
 43
6.0
 10
1943.008647883818
 20
-2652.096351548991
 42
0.4142135623731
 10
1940.008647883818
 20
-2649.096351548991
 42
0.4142135623731
 10
1937.008647883818
 20
-2652.096351548991
 42
0.4142135623731
 10
1940.008647883818
 20
-2655.09635154899
 42
0.4142135623731
  0
LINE
  5
30B
330
1F
100
AcDbEntity
  8
1-B_寸法
  6
Continuous
 62
   120
370
     5
100
AcDbLine
 10
1940.008647883818
 20
-2697.096351548991
 30
0.0
 11
2045.008647883818
 21
-2697.096351548991
 31
0.0
  0
LWPOLYLINE
  5
30C
330
1F
100
AcDbEntity
  8
1-B_寸法
  6
Continuous
 62
     7
370
     9
100
AcDbPolyline
 90
        4
 70
     1
 43
6.0
 10
1943.008647883818
 20
-2697.096351548991
 42
0.4142135623731
 10
1940.008647883818
 20
-2694.096351548991
 42
0.4142135623731
 10
1937.008647883818
 20
-2697.096351548991
 42
0.4142135623731
 10
1940.008647883818
 20
-2700.09635154899
 42
0.4142135623731
  0
LINE
  5
30D
330
1F
100
AcDbEntity
  8
1-B_寸法
  6
Continuous
 62
   120
370
     5
100
AcDbLine
 10
1940.008647883818
 20
-2652.096351548991
 30
0.0
 11
1940.008647883818
 21
-2877.096351548991
 31
0.0
  0
LINE
  5
30E
330
1F
100
AcDbEntity
  8
1-B_寸法
  6
Continuous
 62
   120
370
     5
100
AcDbLine
 10
1940.008647883818
 20
-2877.096351548991
 30
0.0
 11
2045.008647883818
 21
-2877.096351548991
 31
0.0
  0
LWPOLYLINE
  5
30F
330
1F
100
AcDbEntity
  8
1-B_寸法
  6
Continuous
 62
     7
370
     9
100
AcDbPolyline
 90
        4
 70
     1
 43
6.0
 10
1943.008647883818
 20
-2877.096351548991
 42
0.4142135623731
 10
1940.008647883818
 20
-2874.096351548991
 42
0.4142135623731
 10
1937.008647883818
 20
-2877.096351548991
 42
0.4142135623731
 10
1940.008647883818
 20
-2880.09635154899
 42
0.4142135623731
  0
TEXT
  5
310
330
1F
100
AcDbEntity
  8
1-A_文字
  6
Continuous
 62
     7
370
     0
100
AcDbText
 10
1947.5086478929
 20
-2590.176580439908
 30
0.0
 40
91.44
  1
R3
  7
ＭＳ ゴシック
100
AcDbText
  0
TEXT
  5
311
330
1F
100
AcDbEntity
  8
1-A_文字
  6
Continuous
 62
     7
370
     0
100
AcDbText
 10
3237.5084189929
 20
-2590.176580439908
 30
0.0
 40
91.44
  1
R3
  7
ＭＳ ゴシック
100
AcDbText
  0
TEXT
  5
312
330
1F
100
AcDbEntity
  8
1-B_寸法
  6
Continuous
 62
     7
370
     0
100
AcDbText
 10
1908.088647883818
 20
-2704.595714971384
 30
0.0
 40
91.44
  1
3
 50
90.0
  7
ＭＳ ゴシック
100
AcDbText
  0
TEXT
  5
313
330
1F
100
AcDbEntity
  8
1-B_寸法
  6
Continuous
 62
     7
370
     0
100
AcDbText
 10
3333.0884189929
 20
-2824.595457479319
 30
0.0
 40
91.44
  1
15
 50
90.0
  7
ＭＳ ゴシック
100
AcDbText
  0
TEXT
  5
314
330
1F
100
AcDbEntity
  8
1-B_寸法
  6
Continuous
 62
     7
370
     0
100
AcDbText
 10
1908.088647883818
 20
-2847.096609041056
 30
0.0
 40
91.44
  1
12
 50
90.0
  7
ＭＳ ゴシック
100
AcDbText
  0
LINE
  5
315
330
1F
100
AcDbEntity
  8
0-1_通り芯
  6
JWW_CENTER1
 62
   120
370
     5
100
AcDbLine
 10
2619.918171683581
 20
-835.9676289240692
 30
0.0
 11
2619.918171683581
 21
-2015.009185803658
 31
0.0
  0
TEXT
  5
316
330
1F
100
AcDbEntity
  8
0-A_文字
  6
Continuous
 62
     7
370
     0
100
AcDbText
 10
2199.918171683586
 20
-792.5961009999415
 30
0.0
 40
91.44
  1
壁(枠)センター
  7
ＭＳ ゴシック
100
AcDbText
  0
TEXT
  5
317
330
1F
100
AcDbEntity
  8
0-A_文字
  6
Continuous
 62
     7
370
     0
100
AcDbText
 10
2072.418171683582
 20
-1638.376718739781
 30
0.0
 40
91.44
  1
床
  7
ＭＳ ゴシック
100
AcDbText
  0
TEXT
  5
318
330
1F
100
AcDbEntity
  8
0-A_文字
  6
Continuous
 62
     7
370
     0
100
AcDbText
 10
3047.418171683582
 20
-1638.376718739781
 30
0.0
 40
91.44
  1
床
  7
ＭＳ ゴシック
100
AcDbText
  0
LWPOLYLINE
  5
319
330
1F
100
AcDbEntity
  8
0-B_寸法
  6
Continuous
 62
     7
370
     9
100
AcDbPolyline
 90
        4
 70
     1
 43
6.0
 10
699.516307107032
 20
-784.3302693390616
 42
0.4142135623731
 10
696.516307107032
 20
-781.3302693390616
 42
0.4142135623731
 10
693.5163071070319
 20
-784.3302693390616
 42
0.4142135623731
 10
696.516307107032
 20
-787.3302693390617
 42
0.4142135623731
  0
LWPOLYLINE
  5
31A
330
1F
100
AcDbEntity
  8
0-B_寸法
  6
Continuous
 62
     7
370
     9
100
AcDbPolyline
 90
        4
 70
     1
 43
6.0
 10
1377.516307107033
 20
-784.3302693390616
 42
0.4142135623731
 10
1374.516307107033
 20
-781.3302693390616
 42
0.4142135623731
 10
1371.516307107033
 20
-784.3302693390616
 42
0.4142135623731
 10
1374.516307107033
 20
-787.3302693390617
 42
0.4142135623731
  0
LINE
  5
31B
330
1F
100
AcDbEntity
  8
0-B_寸法
  6
Continuous
 62
   120
370
     5
100
AcDbLine
 10
1374.516307107033
 20
-784.3302693390616
 30
0.0
 11
696.516307107032
 21
-784.3302693390616
 31
0.0
  0
LINE
  5
31C
330
1F
100
AcDbEntity
  8
0-B_寸法
  6
Continuous
 62
   120
370
     5
100
AcDbLine
 10
696.516307107032
 20
-784.3302693390616
 30
0.0
 11
696.516307107032
 21
-934.3302693390616
 31
0.0
  0
LINE
  5
31D
330
1F
100
AcDbEntity
  8
0-B_寸法
  6
Continuous
 62
   120
370
     5
100
AcDbLine
 10
1374.516307107033
 20
-784.3302693390616
 30
0.0
 11
1374.516307107033
 21
-934.3302693390616
 31
0.0
  0
TEXT
  5
31E
330
1F
100
AcDbEntity
  8
0-B_寸法
  6
Continuous
 62
     7
370
     0
100
AcDbText
 10
945.5163071070324
 20
-752.4102693390616
 30
0.0
 40
91.44
  1
113
  7
ＭＳ ゴシック
100
AcDbText
  0
LWPOLYLINE
  5
31F
330
1F
100
AcDbEntity
  8
0-B_寸法
  6
Continuous
 62
     7
370
     9
100
AcDbPolyline
 90
        4
 70
     1
 43
6.0
 10
447.1696661273862
 20
-1615.845543233015
 42
0.4142135623731
 10
444.1696661273862
 20
-1612.845543233015
 42
0.4142135623731
 10
441.1696661273862
 20
-1615.845543233015
 42
0.4142135623731
 10
444.1696661273862
 20
-1618.845543233015
 42
0.4142135623731
  0
LWPOLYLINE
  5
320
330
1F
100
AcDbEntity
  8
0-B_寸法
  6
Continuous
 62
     7
370
     9
100
AcDbPolyline
 90
        4
 70
     1
 43
6.0
 10
447.1696661273862
 20
-1687.845543233016
 42
0.4142135623731
 10
444.1696661273862
 20
-1684.845543233016
 42
0.4142135623731
 10
441.1696661273862
 20
-1687.845543233016
 42
0.4142135623731
 10
444.1696661273862
 20
-1690.845543233016
 42
0.4142135623731
  0
LINE
  5
321
330
1F
100
AcDbEntity
  8
0-B_寸法
  6
Continuous
 62
   120
370
     5
100
AcDbLine
 10
444.1696661273862
 20
-1615.845543233015
 30
0.0
 11
564.1696661273862
 21
-1615.845543233015
 31
0.0
  0
LINE
  5
322
330
1F
100
AcDbEntity
  8
0-B_寸法
  6
Continuous
 62
   120
370
     5
100
AcDbLine
 10
444.1696661273862
 20
-1687.845543233016
 30
0.0
 11
564.1696661273862
 21
-1687.845543233016
 31
0.0
  0
TEXT
  5
323
330
1F
100
AcDbEntity
  8
0-B_寸法
  6
Continuous
 62
     7
370
   211
100
AcDbText
 10
412.2496661273862
 20
-1715.595543233016
 30
0.0
 40
91.44
  1
12
 50
90.0
 41
1.0625
  7
ＭＳ ゴシック
100
AcDbText
  0
LINE
  5
324
330
1F
100
AcDbEntity
  8
1-4_枠
  6
JWW_HOJO
 62
   120
370
     5
100
AcDbLine
 10
2165.008647883818
 20
-2877.096351548991
 30
0.0
 11
2165.008647883818
 21
-3244.978971296928
 31
0.0
  0
LINE
  5
325
330
1F
100
AcDbEntity
  8
1-4_枠
  6
JWW_HOJO
 62
   120
370
     5
100
AcDbLine
 10
3140.008647883818
 20
-2877.096351548991
 30
0.0
 11
3140.008647883818
 21
-3144.442572829495
 31
0.0
  0
LINE
  5
326
330
1F
100
AcDbEntity
  8
1-4_枠
  6
Continuous
 62
    92
370
    13
100
AcDbLine
 10
2165.008647883818
 20
-2697.096351548991
 30
0.0
 11
2090.008647883818
 21
-2697.096351548991
 31
0.0
  0
LINE
  5
327
330
1F
100
AcDbEntity
  8
1-4_枠
  6
Continuous
 62
    92
370
    13
100
AcDbLine
 10
3140.008647883818
 20
-2697.096351548991
 30
0.0
 11
3215.008647883818
 21
-2697.096351548991
 31
0.0
  0
LINE
  5
328
330
1F
100
AcDbEntity
  8
1-4_枠
  6
Continuous
 62
    92
370
    13
100
AcDbLine
 10
2165.008647883818
 20
-2697.096351548991
 30
0.0
 11
2165.008647883818
 21
-2877.096351548991
 31
0.0
  0
LINE
  5
329
330
1F
100
AcDbEntity
  8
1-4_枠
  6
Continuous
 62
    92
370
    13
100
AcDbLine
 10
3140.008647883818
 20
-2697.096351548991
 30
0.0
 11
3140.008647883818
 21
-2877.096351548991
 31
0.0
  0
LINE
  5
32A
330
1F
100
AcDbEntity
  8
1-4_枠
  6
Continuous
 62
    92
370
    13
100
AcDbLine
 10
2165.008647883818
 20
-2877.096351548991
 30
0.0
 11
3140.008647883818
 21
-2877.096351548991
 31
0.0
  0
LWPOLYLINE
  5
32B
330
1F
100
AcDbEntity
  8
0-B_寸法
  6
Continuous
 62
     7
370
     9
100
AcDbPolyline
 90
        4
 70
     1
 43
6.0
 10
837.517005196621
 20
-1897.845543233016
 42
0.4142135623731
 10
834.517005196621
 20
-1894.845543233016
 42
0.4142135623731
 10
831.517005196621
 20
-1897.845543233016
 42
0.4142135623731
 10
834.517005196621
 20
-1900.845543233016
 42
0.4142135623731
  0
LWPOLYLINE
  5
32C
330
1F
100
AcDbEntity
  8
0-B_寸法
  6
Continuous
 62
     7
370
     9
100
AcDbPolyline
 90
        4
 70
     1
 43
6.0
 10
891.5163071070194
 20
-1897.845543233016
 42
0.4142135623731
 10
888.5163071070194
 20
-1894.845543233016
 42
0.4142135623731
 10
885.5163071070193
 20
-1897.845543233016
 42
0.4142135623731
 10
888.5163071070194
 20
-1900.845543233016
 42
0.4142135623731
  0
LWPOLYLINE
  5
32D
330
1F
100
AcDbEntity
  8
0-B_寸法
  6
Continuous
 62
     7
370
     9
100
AcDbPolyline
 90
        4
 70
     1
 43
6.0
 10
1185.51630710702
 20
-1897.845543233016
 42
0.4142135623731
 10
1182.51630710702
 20
-1894.845543233016
 42
0.4142135623731
 10
1179.51630710702
 20
-1897.845543233016
 42
0.4142135623731
 10
1182.51630710702
 20
-1900.845543233016
 42
0.4142135623731
  0
LWPOLYLINE
  5
32E
330
1F
100
AcDbEntity
  8
0-B_寸法
  6
Continuous
 62
     7
370
     9
100
AcDbPolyline
 90
        4
 70
     1
 43
6.0
 10
1239.516307107021
 20
-1897.845543233016
 42
0.4142135623731
 10
1236.516307107021
 20
-1894.845543233016
 42
0.4142135623731
 10
1233.516307107021
 20
-1897.845543233016
 42
0.4142135623731
 10
1236.516307107021
 20
-1900.845543233016
 42
0.4142135623731
  0
TEXT
  5
32F
330
1F
100
AcDbEntity
  8
0-B_寸法
  6
Continuous
 62
     7
370
   211
100
AcDbText
 10
975.5163071070195
 20
-1865.925543233016
 30
0.0
 40
91.44
  1
49
  7
ＭＳ ゴシック
100
AcDbText
  0
LINE
  5
330
330
1F
100
AcDbEntity
  8
0-B_寸法
  6
Continuous
 62
   120
370
     5
100
AcDbLine
 10
1236.516307107021
 20
-1897.845543233016
 30
0.0
 11
1236.516307107021
 21
-1777.845543233016
 31
0.0
  0
LINE
  5
331
330
1F
100
AcDbEntity
  8
0-B_寸法
  6
Continuous
 62
   120
370
     5
100
AcDbLine
 10
1182.51630710702
 20
-1897.845543233016
 30
0.0
 11
1182.51630710702
 21
-1777.845543233016
 31
0.0
  0
LINE
  5
332
330
1F
100
AcDbEntity
  8
0-B_寸法
  6
Continuous
 62
   120
370
     5
100
AcDbLine
 10
888.5163071070194
 20
-1897.845543233016
 30
0.0
 11
888.5163071070194
 21
-1777.845543233016
 31
0.0
  0
LINE
  5
333
330
1F
100
AcDbEntity
  8
0-B_寸法
  6
Continuous
 62
   120
370
     5
100
AcDbLine
 10
834.517005196621
 20
-1897.845543233016
 30
0.0
 11
834.517005196621
 21
-1777.845543233016
 31
0.0
  0
LINE
  5
334
330
1F
100
AcDbEntity
  8
0-4_枠
  6
Continuous
 62
    92
370
    13
100
AcDbLine
 10
888.5163071070322
 20
-1653.645773259261
 30
0.0
 11
1182.516307107033
 21
-1653.645773259261
 31
0.0
  0
LINE
  5
335
330
1F
100
AcDbEntity
  8
0-4_枠
  6
Continuous
 62
    92
370
    13
100
AcDbLine
 10
888.5163071070322
 20
-1653.645773259261
 30
0.0
 11
888.5163071070322
 21
-1687.845543233016
 31
0.0
  0
LINE
  5
336
330
1F
100
AcDbEntity
  8
0-4_枠
  6
Continuous
 62
    92
370
    13
100
AcDbLine
 10
1182.516307107033
 20
-1653.645773259261
 30
0.0
 11
1182.516307107033
 21
-1687.845543233016
 31
0.0
  0
LWPOLYLINE
  5
337
330
1F
100
AcDbEntity
  8
0-B_寸法
  6
Continuous
 62
     7
370
     9
100
AcDbPolyline
 90
        4
 70
     1
 43
6.0
 10
2622.918171683581
 20
-1244.852184905387
 42
0.4142135623731
 10
2619.918171683581
 20
-1241.852184905387
 42
0.4142135623731
 10
2616.918171683581
 20
-1244.852184905387
 42
0.4142135623731
 10
2619.918171683581
 20
-1247.852184905387
 42
0.4142135623731
  0
LINE
  5
338
330
1F
100
AcDbEntity
  8
0-B_寸法
  6
Continuous
 62
   120
370
     5
100
AcDbLine
 10
2619.918171683581
 20
-1244.852184905387
 30
0.0
 11
2619.918171683581
 21
-1149.326690628592
 31
0.0
  0
TEXT
  5
339
330
1F
100
AcDbEntity
  8
0-B_寸法
  6
Continuous
 62
     7
370
     0
100
AcDbText
 10
2361.836373494023
 20
-1214.514309430191
 30
0.0
 40
91.44
  1
34.5
  7
ＭＳ ゴシック
100
AcDbText
  0
TEXT
  5
33A
330
1F
100
AcDbEntity
  8
0-B_寸法
  6
Continuous
 62
     7
370
     0
100
AcDbText
 10
2657.712002209158
 20
-1214.514309430191
 30
0.0
 40
91.44
  1
34.5
  7
ＭＳ ゴシック
100
AcDbText
  0
LWPOLYLINE
  5
33B
330
1F
100
AcDbEntity
  8
0-B_寸法
  6
Continuous
 62
     7
370
     9
100
AcDbPolyline
 90
        4
 70
     1
 43
6.0
 10
2829.918171683581
 20
-1244.852184905387
 42
0.4142135623731
 10
2826.918171683581
 20
-1241.852184905387
 42
0.4142135623731
 10
2823.918171683582
 20
-1244.852184905387
 42
0.4142135623731
 10
2826.918171683581
 20
-1247.852184905387
 42
0.4142135623731
  0
LWPOLYLINE
  5
33C
330
1F
100
AcDbEntity
  8
0-B_寸法
  6
Continuous
 62
     7
370
     9
100
AcDbPolyline
 90
        4
 70
     1
 43
6.0
 10
2415.918171683582
 20
-1244.852184905387
 42
0.4142135623731
 10
2412.918171683582
 20
-1241.852184905387
 42
0.4142135623731
 10
2409.918171683582
 20
-1244.852184905387
 42
0.4142135623731
 10
2412.918171683582
 20
-1247.852184905387
 42
0.4142135623731
  0
LINE
  5
33D
330
1F
100
AcDbEntity
  8
0-B_寸法
  6
Continuous
 62
   120
370
     5
100
AcDbLine
 10
2412.918171683582
 20
-1244.852184905387
 30
0.0
 11
2826.918171683581
 21
-1244.852184905387
 31
0.0
  0
LINE
  5
33E
330
1F
100
AcDbEntity
  8
0-4_枠
  6
Continuous
 62
    92
370
    13
100
AcDbLine
 10
2412.91817168358
 20
-895.9676289240697
 30
0.0
 11
2412.91817168358
 21
-1955.009185803657
 31
0.0
  0
LINE
  5
33F
330
1F
100
AcDbEntity
  8
0-4_枠
  6
Continuous
 62
    92
370
    13
100
AcDbLine
 10
2826.918171683581
 20
-895.9676289240697
 30
0.0
 11
2826.918171683581
 21
-1955.009185803657
 31
0.0
  0
LINE
  5
340
330
1F
100
AcDbEntity
  8
1-4_枠
  6
Continuous
 62
    92
370
    13
100
AcDbLine
 10
2135.008647883818
 20
-2652.096351548991
 30
0.0
 11
2502.508647883818
 21
-2652.096351548991
 31
0.0
  0
LINE
  5
341
330
1F
100
AcDbEntity
  8
1-4_枠
  6
Continuous
 62
    92
370
    13
100
AcDbLine
 10
2135.008018458773
 20
-2659.595636293252
 30
0.0
 11
2502.508647883818
 21
-2659.595636293252
 31
0.0
  0
LINE
  5
342
330
1F
100
AcDbEntity
  8
1-4_枠
  6
Continuous
 62
    92
370
    13
100
AcDbLine
 10
2802.508647883818
 20
-2652.096351548991
 30
0.0
 11
3170.008647883818
 21
-2652.096351548991
 31
0.0
  0
LINE
  5
343
330
1F
100
AcDbEntity
  8
1-4_枠
  6
Continuous
 62
    92
370
    13
100
AcDbLine
 10
2802.508647883818
 20
-2659.595636293252
 30
0.0
 11
3170.009277308867
 21
-2659.595636293252
 31
0.0
  0
LINE
  5
344
330
1F
100
AcDbEntity
  8
1-4_枠
  6
Continuous
 62
     7
370
     9
100
AcDbLine
 10
2517.508647883818
 20
-2667.096351548991
 30
0.0
 11
2517.508647883818
 21
-2742.096351548991
 31
0.0
  0
LINE
  5
345
330
1F
100
AcDbEntity
  8
1-4_枠
  6
Continuous
 62
     7
370
     9
100
AcDbLine
 10
2502.508647883818
 20
-2652.096351548991
 30
0.0
 11
2502.508647883818
 21
-2757.096351548991
 31
0.0
  0
LINE
  5
346
330
1F
100
AcDbEntity
  8
1-4_枠
  6
Continuous
 62
     7
370
     9
100
AcDbLine
 10
2502.508647883818
 20
-2652.096351548991
 30
0.0
 11
2558.008647883818
 21
-2652.096351548991
 31
0.0
  0
LINE
  5
347
330
1F
100
AcDbEntity
  8
1-4_枠
  6
Continuous
 62
     7
370
     9
100
AcDbLine
 10
2558.008647883818
 20
-2652.096351548991
 30
0.0
 11
2558.008647883818
 21
-2667.096351548991
 31
0.0
  0
LINE
  5
348
330
1F
100
AcDbEntity
  8
1-4_枠
  6
Continuous
 62
     7
370
     9
100
AcDbLine
 10
2517.508647883818
 20
-2667.096351548991
 30
0.0
 11
2558.008647883818
 21
-2667.096351548991
 31
0.0
  0
LINE
  5
349
330
1F
100
AcDbEntity
  8
1-4_枠
  6
Continuous
 62
     7
370
     9
100
AcDbLine
 10
2747.008647883818
 20
-2652.096351548991
 30
0.0
 11
2802.508647883818
 21
-2652.096351548991
 31
0.0
  0
LINE
  5
34A
330
1F
100
AcDbEntity
  8
1-4_枠
  6
Continuous
 62
     7
370
     9
100
AcDbLine
 10
2747.008647883818
 20
-2652.096351548991
 30
0.0
 11
2747.008647883818
 21
-2667.096351548991
 31
0.0
  0
LINE
  5
34B
330
1F
100
AcDbEntity
  8
1-4_枠
  6
Continuous
 62
     7
370
     9
100
AcDbLine
 10
2747.008647883818
 20
-2667.096351548991
 30
0.0
 11
2787.508647883818
 21
-2667.096351548991
 31
0.0
  0
LINE
  5
34C
330
1F
100
AcDbEntity
  8
1-4_枠
  6
Continuous
 62
     7
370
     9
100
AcDbLine
 10
2787.508647883818
 20
-2667.096351548991
 30
0.0
 11
2787.508647883818
 21
-2742.096351548991
 31
0.0
  0
LINE
  5
34D
330
1F
100
AcDbEntity
  8
1-4_枠
  6
Continuous
 62
     7
370
     9
100
AcDbLine
 10
2517.508647883818
 20
-2742.096351548991
 30
0.0
 11
2787.508647883818
 21
-2742.096351548991
 31
0.0
  0
LINE
  5
34E
330
1F
100
AcDbEntity
  8
1-4_枠
  6
Continuous
 62
     7
370
     9
100
AcDbLine
 10
2802.508647883818
 20
-2652.096351548991
 30
0.0
 11
2802.508647883818
 21
-2757.096351548991
 31
0.0
  0
LINE
  5
34F
330
1F
100
AcDbEntity
  8
1-4_枠
  6
Continuous
 62
     7
370
     9
100
AcDbLine
 10
2502.508647883818
 20
-2757.096351548991
 30
0.0
 11
2802.508647883818
 21
-2757.096351548991
 31
0.0
  0
LINE
  5
350
330
1F
100
AcDbEntity
  8
1-B_寸法
  6
Continuous
 62
   120
370
     5
100
AcDbLine
 10
2090.008647883818
 20
-2502.096580439908
 30
0.0
 11
3215.008647883818
 21
-2502.096580439908
 31
0.0
  0
LWPOLYLINE
  5
351
330
1F
100
AcDbEntity
  8
1-B_寸法
  6
Continuous
 62
     7
370
     9
100
AcDbPolyline
 90
        4
 70
     1
 43
6.0
 10
2093.008647883818
 20
-2502.096580439908
 42
0.4142135623731
 10
2090.008647883818
 20
-2499.096580439908
 42
0.4142135623731
 10
2087.008647883818
 20
-2502.096580439908
 42
0.4142135623731
 10
2090.008647883818
 20
-2505.096580439908
 42
0.4142135623731
  0
LWPOLYLINE
  5
352
330
1F
100
AcDbEntity
  8
1-B_寸法
  6
Continuous
 62
     7
370
     9
100
AcDbPolyline
 90
        4
 70
     1
 43
6.0
 10
3218.008647883818
 20
-2502.096580439908
 42
0.4142135623731
 10
3215.008647883818
 20
-2499.096580439908
 42
0.4142135623731
 10
3212.008647883818
 20
-2502.096580439908
 42
0.4142135623731
 10
3215.008647883818
 20
-2505.096580439908
 42
0.4142135623731
  0
LINE
  5
353
330
1F
100
AcDbEntity
  8
1-B_寸法
  6
Continuous
 62
   120
370
     5
100
AcDbLine
 10
2090.008647883818
 20
-2502.096580439908
 30
0.0
 11
2090.008647883818
 21
-2607.096580439908
 31
0.0
  0
LINE
  5
354
330
1F
100
AcDbEntity
  8
1-B_寸法
  6
Continuous
 62
   120
370
     5
100
AcDbLine
 10
3215.008647883818
 20
-2502.096580439908
 30
0.0
 11
3215.008647883818
 21
-2607.096580439908
 31
0.0
  0
TEXT
  5
355
330
1F
100
AcDbEntity
  8
1-B_寸法
  6
Continuous
 62
     7
370
   211
100
AcDbText
 10
2592.508647883818
 20
-2470.176580439908
 30
0.0
 40
91.44
  1
75
  7
ＭＳ ゴシック
100
AcDbText
  0
LINE
  5
356
330
1F
100
AcDbEntity
  8
1-B_寸法
  6
Continuous
 62
   120
370
     5
100
AcDbLine
 10
2090.008647883818
 20
-3027.096351548991
 30
0.0
 11
2165.008647883818
 21
-3027.096351548991
 31
0.0
  0
LWPOLYLINE
  5
357
330
1F
100
AcDbEntity
  8
1-B_寸法
  6
Continuous
 62
     7
370
     9
100
AcDbPolyline
 90
        4
 70
     1
 43
6.0
 10
2093.008647883818
 20
-3027.096351548991
 42
0.4142135623731
 10
2090.008647883818
 20
-3024.096351548991
 42
0.4142135623731
 10
2087.008647883818
 20
-3027.096351548991
 42
0.4142135623731
 10
2090.008647883818
 20
-3030.09635154899
 42
0.4142135623731
  0
LWPOLYLINE
  5
358
330
1F
100
AcDbEntity
  8
1-B_寸法
  6
Continuous
 62
     7
370
     9
100
AcDbPolyline
 90
        4
 70
     1
 43
6.0
 10
2168.008647883818
 20
-3027.096351548991
 42
0.4142135623731
 10
2165.008647883818
 20
-3024.096351548991
 42
0.4142135623731
 10
2162.008647883818
 20
-3027.096351548991
 42
0.4142135623731
 10
2165.008647883818
 20
-3030.09635154899
 42
0.4142135623731
  0
LINE
  5
359
330
1F
100
AcDbEntity
  8
1-B_寸法
  6
Continuous
 62
   120
370
     5
100
AcDbLine
 10
2090.008647883818
 20
-3027.096351548991
 30
0.0
 11
2090.008647883818
 21
-2922.096351548991
 31
0.0
  0
LINE
  5
35A
330
1F
100
AcDbEntity
  8
1-B_寸法
  6
Continuous
 62
   120
370
     5
100
AcDbLine
 10
2165.008647883818
 20
-3027.096351548991
 30
0.0
 11
2165.008647883818
 21
-2922.096351548991
 31
0.0
  0
TEXT
  5
35B
330
1F
100
AcDbEntity
  8
1-B_寸法
  6
Continuous
 62
     7
370
   211
100
AcDbText
 10
2097.508647883818
 20
-2995.176351548991
 30
0.0
 40
91.44
  1
5
  7
ＭＳ ゴシック
100
AcDbText
  0
LINE
  5
35C
330
1F
100
AcDbEntity
  8
1-B_寸法
  6
Continuous
 62
   120
370
     5
100
AcDbLine
 10
2165.008647883818
 20
-3027.096351548991
 30
0.0
 11
2285.008647883818
 21
-3027.096351548991
 31
0.0
  0
LWPOLYLINE
  5
35D
330
1F
100
AcDbEntity
  8
1-B_寸法
  6
Continuous
 62
     7
370
     9
100
AcDbPolyline
 90
        4
 70
     1
 43
6.0
 10
2288.008647883818
 20
-3027.096351548991
 42
0.4142135623731
 10
2285.008647883818
 20
-3024.096351548991
 42
0.4142135623731
 10
2282.008647883818
 20
-3027.096351548991
 42
0.4142135623731
 10
2285.008647883818
 20
-3030.09635154899
 42
0.4142135623731
  0
LINE
  5
35E
330
1F
100
AcDbEntity
  8
1-B_寸法
  6
Continuous
 62
   120
370
     5
100
AcDbLine
 10
2285.008647883818
 20
-3027.096351548991
 30
0.0
 11
2285.008647883818
 21
-2922.096351548991
 31
0.0
  0
TEXT
  5
35F
330
1F
100
AcDbEntity
  8
1-B_寸法
  6
Continuous
 62
     7
370
   211
100
AcDbText
 10
2195.008647883818
 20
-2995.176351548991
 30
0.0
 40
91.44
  1
8
  7
ＭＳ ゴシック
100
AcDbText
  0
LINE
  5
360
330
1F
100
AcDbEntity
  8
1-B_寸法
  6
Continuous
 62
   120
370
     5
100
AcDbLine
 10
2285.008647883818
 20
-3027.096351548991
 30
0.0
 11
3020.008647883818
 21
-3027.096351548991
 31
0.0
  0
LWPOLYLINE
  5
361
330
1F
100
AcDbEntity
  8
1-B_寸法
  6
Continuous
 62
     7
370
     9
100
AcDbPolyline
 90
        4
 70
     1
 43
6.0
 10
3023.008647883818
 20
-3027.096351548991
 42
0.4142135623731
 10
3020.008647883818
 20
-3024.096351548991
 42
0.4142135623731
 10
3017.008647883818
 20
-3027.096351548991
 42
0.4142135623731
 10
3020.008647883818
 20
-3030.09635154899
 42
0.4142135623731
  0
LINE
  5
362
330
1F
100
AcDbEntity
  8
1-B_寸法
  6
Continuous
 62
   120
370
     5
100
AcDbLine
 10
3020.008647883818
 20
-3027.096351548991
 30
0.0
 11
3020.008647883818
 21
-2922.096351548991
 31
0.0
  0
TEXT
  5
363
330
1F
100
AcDbEntity
  8
1-B_寸法
  6
Continuous
 62
     7
370
   211
100
AcDbText
 10
2592.508647883818
 20
-2995.176351548991
 30
0.0
 40
91.44
  1
49
  7
ＭＳ ゴシック
100
AcDbText
  0
LINE
  5
364
330
1F
100
AcDbEntity
  8
1-B_寸法
  6
Continuous
 62
   120
370
     5
100
AcDbLine
 10
3020.008647883818
 20
-3027.096351548991
 30
0.0
 11
3140.008647883818
 21
-3027.096351548991
 31
0.0
  0
LWPOLYLINE
  5
365
330
1F
100
AcDbEntity
  8
1-B_寸法
  6
Continuous
 62
     7
370
     9
100
AcDbPolyline
 90
        4
 70
     1
 43
6.0
 10
3143.008647883818
 20
-3027.096351548991
 42
0.4142135623731
 10
3140.008647883818
 20
-3024.096351548991
 42
0.4142135623731
 10
3137.008647883818
 20
-3027.096351548991
 42
0.4142135623731
 10
3140.008647883818
 20
-3030.09635154899
 42
0.4142135623731
  0
LINE
  5
366
330
1F
100
AcDbEntity
  8
1-B_寸法
  6
Continuous
 62
   120
370
     5
100
AcDbLine
 10
3140.008647883818
 20
-3027.096351548991
 30
0.0
 11
3140.008647883818
 21
-2922.096351548991
 31
0.0
  0
TEXT
  5
367
330
1F
100
AcDbEntity
  8
1-B_寸法
  6
Continuous
 62
     7
370
   211
100
AcDbText
 10
3050.008647883818
 20
-2995.176351548991
 30
0.0
 40
91.44
  1
8
  7
ＭＳ ゴシック
100
AcDbText
  0
LINE
  5
368
330
1F
100
AcDbEntity
  8
1-B_寸法
  6
Continuous
 62
   120
370
     5
100
AcDbLine
 10
3140.008647883818
 20
-3027.096351548991
 30
0.0
 11
3215.008647883818
 21
-3027.096351548991
 31
0.0
  0
LWPOLYLINE
  5
369
330
1F
100
AcDbEntity
  8
1-B_寸法
  6
Continuous
 62
     7
370
     9
100
AcDbPolyline
 90
        4
 70
     1
 43
6.0
 10
3218.008647883818
 20
-3027.096351548991
 42
0.4142135623731
 10
3215.008647883818
 20
-3024.096351548991
 42
0.4142135623731
 10
3212.008647883818
 20
-3027.096351548991
 42
0.4142135623731
 10
3215.008647883818
 20
-3030.09635154899
 42
0.4142135623731
  0
LINE
  5
36A
330
1F
100
AcDbEntity
  8
1-B_寸法
  6
Continuous
 62
   120
370
     5
100
AcDbLine
 10
3215.008647883818
 20
-3027.096351548991
 30
0.0
 11
3215.008647883818
 21
-2922.096351548991
 31
0.0
  0
TEXT
  5
36B
330
1F
100
AcDbEntity
  8
1-B_寸法
  6
Continuous
 62
     7
370
   211
100
AcDbText
 10
3147.508647883818
 20
-2995.176351548991
 30
0.0
 40
91.44
  1
5
  7
ＭＳ ゴシック
100
AcDbText
  0
LINE
  5
36C
330
1F
100
AcDbEntity
  8
1-B_寸法
  6
Continuous
 62
   120
370
     5
100
AcDbLine
 10
2165.008647883818
 20
-3205.974068066551
 30
0.0
 11
3140.008647883818
 21
-3205.974068066551
 31
0.0
  0
LWPOLYLINE
  5
36D
330
1F
100
AcDbEntity
  8
1-B_寸法
  6
Continuous
 62
     7
370
     9
100
AcDbPolyline
 90
        4
 70
     1
 43
6.0
 10
2168.008647883818
 20
-3205.974068066551
 42
0.4142135623731
 10
2165.008647883818
 20
-3202.974068066552
 42
0.4142135623731
 10
2162.008647883818
 20
-3205.974068066551
 42
0.4142135623731
 10
2165.008647883818
 20
-3208.974068066551
 42
0.4142135623731
  0
LWPOLYLINE
  5
36E
330
1F
100
AcDbEntity
  8
1-B_寸法
  6
Continuous
 62
     7
370
     9
100
AcDbPolyline
 90
        4
 70
     1
 43
6.0
 10
3143.008647883818
 20
-3205.974068066551
 42
0.4142135623731
 10
3140.008647883818
 20
-3202.974068066552
 42
0.4142135623731
 10
3137.008647883818
 20
-3205.974068066551
 42
0.4142135623731
 10
3140.008647883818
 20
-3208.974068066551
 42
0.4142135623731
  0
LINE
  5
36F
330
1F
100
AcDbEntity
  8
1-B_寸法
  6
Continuous
 62
   120
370
     5
100
AcDbLine
 10
2165.008647883818
 20
-3205.974068066551
 30
0.0
 11
2165.008647883818
 21
-3027.096351548991
 31
0.0
  0
LINE
  5
370
330
1F
100
AcDbEntity
  8
1-B_寸法
  6
Continuous
 62
   120
370
     5
100
AcDbLine
 10
3140.008647883818
 20
-3205.974068066551
 30
0.0
 11
3140.008647883818
 21
-3027.096351548991
 31
0.0
  0
TEXT
  5
371
330
1F
100
AcDbEntity
  8
1-B_寸法
  6
Continuous
 62
     7
370
   211
100
AcDbText
 10
2592.508647883818
 20
-3174.054068066551
 30
0.0
 40
91.44
  1
65
  7
ＭＳ ゴシック
100
AcDbText
  0
TEXT
  5
372
330
1F
100
AcDbEntity
  8
0-B_寸法
  6
Continuous
 62
     7
370
   211
100
AcDbText
 10
2559.918171683577
 20
-1409.85778536782
 30
0.0
 40
91.44
  1
69
  7
ＭＳ ゴシック
100
AcDbText
  0
LINE
  5
373
330
1F
100
AcDbEntity
  8
0-B_寸法
  6
Continuous
 62
   120
370
     5
100
AcDbLine
 10
2412.918171683578
 20
-1441.77778536782
 30
0.0
 11
2826.918171683581
 21
-1441.77778536782
 31
0.0
  0
LWPOLYLINE
  5
374
330
1F
100
AcDbEntity
  8
0-B_寸法
  6
Continuous
 62
     7
370
     9
100
AcDbPolyline
 90
        4
 70
     1
 43
6.0
 10
2829.918171683581
 20
-1441.77778536782
 42
0.4142135623731
 10
2826.918171683581
 20
-1438.77778536782
 42
0.4142135623731
 10
2823.918171683581
 20
-1441.77778536782
 42
0.4142135623731
 10
2826.918171683581
 20
-1444.77778536782
 42
0.4142135623731
  0
LWPOLYLINE
  5
375
330
1F
100
AcDbEntity
  8
0-B_寸法
  6
Continuous
 62
     7
370
     9
100
AcDbPolyline
 90
        4
 70
     1
 43
6.0
 10
2415.918171683578
 20
-1441.77778536782
 42
0.4142135623731
 10
2412.918171683578
 20
-1438.77778536782
 42
0.4142135623731
 10
2409.918171683578
 20
-1441.77778536782
 42
0.4142135623731
 10
2412.918171683578
 20
-1444.77778536782
 42
0.4142135623731
  0
TEXT
  5
376
330
1F
100
AcDbEntity
  8
0-A_文字
  6
Continuous
 62
     7
370
     9
100
AcDbText
 10
2109.918171683582
 20
-2268.089185803655
 30
0.0
 40
91.44
  1
下枠詳細図 (S=1/2)
  7
ＭＳ ゴシック
100
AcDbText
  0
LINE
  5
377
330
1F
100
AcDbEntity
  8
仕上げ
  6
Continuous
 62
   120
370
     5
100
AcDbLine
 10
2412.91817168358
 20
-1095.775940299987
 30
0.0
 11
1959.918171683582
 21
-1095.775940299987
 31
0.0
  0
LINE
  5
378
330
1F
100
AcDbEntity
  8
仕上げ
  6
Continuous
 62
   120
370
     5
100
AcDbLine
 10
1959.918171683582
 20
-1895.009185803657
 30
0.0
 11
2412.91817168358
 21
-1895.009185803657
 31
0.0
  0
LINE
  5
379
330
1F
100
AcDbEntity
  8
仕上げ
  6
Continuous
 62
   120
370
     5
100
AcDbLine
 10
2412.91817168358
 20
-1295.584251675905
 30
0.0
 11
1959.918171683582
 21
-1295.584251675905
 31
0.0
  0
LINE
  5
37A
330
1F
100
AcDbEntity
  8
仕上げ
  6
Continuous
 62
   120
370
     5
100
AcDbLine
 10
1959.918171683582
 20
-1495.392563051823
 30
0.0
 11
2412.91817168358
 21
-1495.392563051823
 31
0.0
  0
LINE
  5
37B
330
1F
100
AcDbEntity
  8
仕上げ
  6
Continuous
 62
   120
370
     5
100
AcDbLine
 10
1959.918171683582
 20
-1695.20087442774
 30
0.0
 11
2412.91817168358
 21
-1695.20087442774
 31
0.0
  0
LINE
  5
37C
330
1F
100
AcDbEntity
  8
仕上げ
  6
Continuous
 62
   120
370
     5
100
AcDbLine
 10
3279.918171683581
 20
-1095.775940299987
 30
0.0
 11
2826.918171683581
 21
-1095.775940299987
 31
0.0
  0
LINE
  5
37D
330
1F
100
AcDbEntity
  8
仕上げ
  6
Continuous
 62
   120
370
     5
100
AcDbLine
 10
3279.918171683581
 20
-1895.009185803657
 30
0.0
 11
2826.918171683581
 21
-1895.009185803657
 31
0.0
  0
LINE
  5
37E
330
1F
100
AcDbEntity
  8
仕上げ
  6
Continuous
 62
   120
370
     5
100
AcDbLine
 10
3279.918171683581
 20
-1695.20087442774
 30
0.0
 11
2826.918171683581
 21
-1695.20087442774
 31
0.0
  0
LINE
  5
37F
330
1F
100
AcDbEntity
  8
仕上げ
  6
Continuous
 62
   120
370
     5
100
AcDbLine
 10
3279.918171683581
 20
-1495.392563051823
 30
0.0
 11
2826.918171683581
 21
-1495.392563051823
 31
0.0
  0
LINE
  5
380
330
1F
100
AcDbEntity
  8
仕上げ
  6
Continuous
 62
   120
370
     5
100
AcDbLine
 10
3279.918171683581
 20
-1295.584251675905
 30
0.0
 11
2826.918171683581
 21
-1295.584251675905
 31
0.0
  0
TEXT
  5
381
330
1F
100
AcDbEntity
  8
0-A_文字
  6
Continuous
 62
     7
370
     9
100
AcDbText
 10
602.2028990369458
 20
-549.0476289240693
 30
0.0
 40
91.44
  1
竪枠下端形状図
  7
ＭＳ ゴシック
100
AcDbText
  0
LWPOLYLINE
  5
382
330
1F
100
AcDbEntity
  8
0-0_補助線
  6
Continuous
 62
     7
370
     9
100
AcDbPolyline
 90
        4
 70
     1
 43
6.0
 10
837.517005196621
 20
-1897.845543233016
 42
0.4142135623731
 10
834.517005196621
 20
-1894.845543233016
 42
0.4142135623731
 10
831.517005196621
 20
-1897.845543233016
 42
0.4142135623731
 10
834.517005196621
 20
-1900.845543233016
 42
0.4142135623731
  0
LWPOLYLINE
  5
383
330
1F
100
AcDbEntity
  8
0-0_補助線
  6
Continuous
 62
     7
370
     9
100
AcDbPolyline
 90
        4
 70
     1
 43
6.0
 10
699.5163071070316
 20
-1897.845543233016
 42
0.4142135623731
 10
696.5163071070316
 20
-1894.845543233016
 42
0.4142135623731
 10
693.5163071070316
 20
-1897.845543233016
 42
0.4142135623731
 10
696.5163071070316
 20
-1900.845543233016
 42
0.4142135623731
  0
LINE
  5
384
330
1F
100
AcDbEntity
  8
0-0_補助線
  6
Continuous
 62
   120
370
     5
100
AcDbLine
 10
834.517005196621
 20
-1897.845543233016
 30
0.0
 11
834.517005196621
 21
-1777.845543233016
 31
0.0
  0
LINE
  5
385
330
1F
100
AcDbEntity
  8
0-0_補助線
  6
Continuous
 62
   120
370
     5
100
AcDbLine
 10
696.5163071070316
 20
-1897.845543233016
 30
0.0
 11
696.5163071070316
 21
-1777.845543233016
 31
0.0
  0
TEXT
  5
386
330
1F
100
AcDbEntity
  8
0-0_補助線
  6
Continuous
 62
     7
370
   211
100
AcDbText
 10
705.5166561518263
 20
-1865.925543233016
 30
0.0
 40
91.44
  1
23
  7
ＭＳ ゴシック
100
AcDbText
  0
LINE
  5
387
330
1F
100
AcDbEntity
  8
0-0_補助線
  6
Continuous
 62
   120
370
     5
100
AcDbLine
 10
1236.516307107021
 20
-1897.845543233016
 30
0.0
 11
1374.516307107033
 21
-1897.845543233016
 31
0.0
  0
LWPOLYLINE
  5
388
330
1F
100
AcDbEntity
  8
0-0_補助線
  6
Continuous
 62
     7
370
     9
100
AcDbPolyline
 90
        4
 70
     1
 43
6.0
 10
1239.516307107021
 20
-1897.845543233016
 42
0.4142135623731
 10
1236.516307107021
 20
-1894.845543233016
 42
0.4142135623731
 10
1233.516307107021
 20
-1897.845543233016
 42
0.4142135623731
 10
1236.516307107021
 20
-1900.845543233016
 42
0.4142135623731
  0
LWPOLYLINE
  5
389
330
1F
100
AcDbEntity
  8
0-0_補助線
  6
Continuous
 62
     7
370
     9
100
AcDbPolyline
 90
        4
 70
     1
 43
6.0
 10
1377.516307107033
 20
-1897.845543233016
 42
0.4142135623731
 10
1374.516307107033
 20
-1894.845543233016
 42
0.4142135623731
 10
1371.516307107033
 20
-1897.845543233016
 42
0.4142135623731
 10
1374.516307107033
 20
-1900.845543233016
 42
0.4142135623731
  0
LINE
  5
38A
330
1F
100
AcDbEntity
  8
0-0_補助線
  6
Continuous
 62
   120
370
     5
100
AcDbLine
 10
1236.516307107021
 20
-1897.845543233016
 30
0.0
 11
1236.516307107021
 21
-1777.845543233016
 31
0.0
  0
LINE
  5
38B
330
1F
100
AcDbEntity
  8
0-0_補助線
  6
Continuous
 62
   120
370
     5
100
AcDbLine
 10
1374.516307107033
 20
-1897.845543233016
 30
0.0
 11
1374.516307107033
 21
-1777.845543233016
 31
0.0
  0
TEXT
  5
38C
330
1F
100
AcDbEntity
  8
0-0_補助線
  6
Continuous
 62
     7
370
   211
100
AcDbText
 10
1245.516307107027
 20
-1865.925543233016
 30
0.0
 40
91.44
  1
23
  7
ＭＳ ゴシック
100
AcDbText
  0
LINE
  5
38D
330
1F
100
AcDbEntity
  8
0-0_補助線
  6
Continuous
 62
   120
370
     5
100
AcDbLine
 10
1236.516307107021
 20
-1897.845543233016
 30
0.0
 11
696.5163071070316
 21
-1897.845543233016
 31
0.0
  0
TEXT
  5
38E
330
1F
100
AcDbEntity
  8
0-B_寸法
  6
Continuous
 62
     7
370
   211
100
AcDbText
 10
831.5166561518191
 20
-2018.506565420396
 30
0.0
 40
91.44
  1
9
  7
ＭＳ ゴシック
100
AcDbText
  0
TEXT
  5
38F
330
1F
100
AcDbEntity
  8
0-B_寸法
  6
Continuous
 62
     7
370
   211
100
AcDbText
 10
1179.51630710702
 20
-2018.506565420396
 30
0.0
 40
91.44
  1
9
  7
ＭＳ ゴシック
100
AcDbText
  0
LINE
  5
390
330
1F
100
AcDbEntity
  8
0-4_枠
  6
Continuous
 62
    92
370
    13
100
AcDbLine
 10
696.5163071070316
 20
-994.3302693390616
 30
0.0
 11
696.5163071070316
 21
-1615.845543233015
 31
0.0
  0
LINE
  5
391
330
1F
100
AcDbEntity
  8
0-4_枠
  6
Continuous
 62
    92
370
    13
100
AcDbLine
 10
696.5163071070316
 20
-1615.845543233015
 30
0.0
 11
834.5163071070327
 21
-1615.845543233015
 31
0.0
  0
LINE
  5
392
330
1F
100
AcDbEntity
  8
0-4_枠
  6
Continuous
 62
    92
370
    13
100
AcDbLine
 10
834.5163071070327
 20
-1687.845543233016
 30
0.0
 11
834.5163071070327
 21
-1615.845543233015
 31
0.0
  0
LINE
  5
393
330
1F
100
AcDbEntity
  8
0-4_枠
  6
Continuous
 62
    92
370
    13
100
AcDbLine
 10
834.5163071070327
 20
-1687.845543233016
 30
0.0
 11
888.5163071070322
 21
-1687.845543233016
 31
0.0
  0
LINE
  5
394
330
1F
100
AcDbEntity
  8
0-4_枠
  6
Continuous
 62
    92
370
    13
100
AcDbLine
 10
1182.516307107033
 20
-1687.845543233016
 30
0.0
 11
1236.516307107034
 21
-1687.845543233016
 31
0.0
  0
LINE
  5
395
330
1F
100
AcDbEntity
  8
0-4_枠
  6
Continuous
 62
    92
370
    13
100
AcDbLine
 10
1236.516307107034
 20
-1687.845543233016
 30
0.0
 11
1236.516307107034
 21
-1615.845543233015
 31
0.0
  0
LINE
  5
396
330
1F
100
AcDbEntity
  8
0-4_枠
  6
Continuous
 62
    92
370
    13
100
AcDbLine
 10
1236.516307107034
 20
-1615.845543233015
 30
0.0
 11
1374.516307107033
 21
-1615.845543233015
 31
0.0
  0
LINE
  5
397
330
1F
100
AcDbEntity
  8
0-4_枠
  6
Continuous
 62
    92
370
    13
100
AcDbLine
 10
1374.516307107033
 20
-994.3302693390616
 30
0.0
 11
1374.516307107033
 21
-1615.845543233015
 31
0.0
  0
ENDSEC
  0
SECTION
  2
OBJECTS
  0
DICTIONARY
  5
C
330
0
100
AcDbDictionary
281
     1
  3
ACAD_DETAILVIEWSTYLE
350
3CF
  3
ACAD_GROUP
350
D
  3
ACAD_LAYOUT
350
1A
  3
ACAD_MATERIAL
350
43
  3
ACAD_MLEADERSTYLE
350
6B
  3
ACAD_MLINESTYLE
350
17
  3
ACAD_PLOTSETTINGS
350
19
  3
ACAD_PLOTSTYLENAME
350
E
  3
ACAD_SCALELIST
350
47
  3
ACAD_SECTIONVIEWSTYLE
350
3D0
  3
ACAD_TABLESTYLE
350
69
  3
ACAD_VISUALSTYLE
350
2A
  3
ACDB_RECOMPOSE_DATA
350
3CC
  3
AcDbVariableDictionary
350
398
  0
SUN
  5
6D
330
29
100
AcDbSun
 90
        1
290
     0
 63
     7
421
 16777215
 40
1.0
291
     1
 91
  2455826
 92
 54000000
292
     0
 70
     2
 71
   256
280
     1
  0
DICTIONARY
  5
3CF
102
{ACAD_REACTORS
330
C
102
}
330
C
100
AcDbDictionary
281
     1
  0
DICTIONARY
  5
D
102
{ACAD_REACTORS
330
C
102
}
330
C
100
AcDbDictionary
281
     1
  0
DICTIONARY
  5
1A
102
{ACAD_REACTORS
330
C
102
}
330
C
100
AcDbDictionary
281
     1
  3
Layout1
350
1E
  3
Layout2
350
26
  3
Model
350
22
  0
DICTIONARY
  5
43
102
{ACAD_REACTORS
330
C
102
}
330
C
100
AcDbDictionary
281
     1
  3
ByBlock
350
45
  3
ByLayer
350
44
  3
Global
350
46
  0
DICTIONARY
  5
6B
102
{ACAD_REACTORS
330
C
102
}
330
C
100
AcDbDictionary
281
     1
  3
Standard
350
6C
  0
DICTIONARY
  5
17
102
{ACAD_REACTORS
330
C
102
}
330
C
100
AcDbDictionary
281
     1
  3
Standard
350
18
  0
DICTIONARY
  5
19
102
{ACAD_REACTORS
330
C
102
}
330
C
100
AcDbDictionary
281
     1
  0
ACDBDICTIONARYWDFLT
  5
E
102
{ACAD_REACTORS
330
C
102
}
330
C
100
AcDbDictionary
281
     1
  3
Normal
350
F
100
AcDbDictionaryWithDefault
340
F
  0
DICTIONARY
  5
47
102
{ACAD_REACTORS
330
C
102
}
330
C
100
AcDbDictionary
281
     1
  3
A0
350
48
  3
A1
350
49
  3
A2
350
4A
  3
A3
350
4B
  3
A4
350
4C
  3
A5
350
4D
  3
A6
350
4E
  3
A7
350
4F
  3
A8
350
50
  3
A9
350
51
  3
B0
350
52
  3
B1
350
53
  3
B2
350
54
  3
B3
350
55
  3
B4
350
56
  3
B5
350
57
  3
B6
350
58
  3
B7
350
59
  3
B8
350
5A
  3
B9
350
5B
  3
C0
350
5C
  3
C1
350
5D
  3
C2
350
5E
  3
C3
350
5F
  3
C4
350
60
  3
C5
350
61
  3
C6
350
62
  3
C7
350
63
  3
C8
350
64
  3
C9
350
65
  3
D0
350
66
  3
D1
350
67
  3
D2
350
68
  0
DICTIONARY
  5
3D0
102
{ACAD_REACTORS
330
C
102
}
330
C
100
AcDbDictionary
281
     1
  0
DICTIONARY
  5
69
102
{ACAD_REACTORS
330
C
102
}
330
C
100
AcDbDictionary
281
     1
  3
Standard
350
6A
  0
DICTIONARY
  5
2A
102
{ACAD_REACTORS
330
C
102
}
330
C
100
AcDbDictionary
281
     1
  3
2dWireframe
350
2F
  3
Basic
350
32
  3
Brighten
350
36
  3
ColorChange
350
3A
  3
Conceptual
350
34
  3
Dim
350
35
  3
EdgeColorOff
350
3D
  3
Facepattern
350
39
  3
Flat
350
2B
  3
FlatWithEdges
350
2C
  3
Gouraud
350
2D
  3
GouraudWithEdges
350
2E
  3
Hidden
350
31
  3
JitterOff
350
3B
  3
Linepattern
350
38
  3
OverhangOff
350
3C
  3
Realistic
350
33
  3
Shaded
350
42
  3
Shaded with edges
350
41
  3
Shades of Gray
350
3E
  3
Sketchy
350
3F
  3
Thicken
350
37
  3
Wireframe
350
30
  3
X-Ray
350
40
  0
XRECORD
  5
3CC
102
{ACAD_REACTORS
330
C
102
}
330
C
100
AcDbXrecord
280
     1
 90
        1
330
6A
  0
DICTIONARY
  5
398
102
{ACAD_REACTORS
330
C
102
}
330
C
100
AcDbDictionary
281
     1
  3
CANNOSCALE
350
399
  3
CENTEREXE
350
3D1
  3
CENTERLTYPEFILE
350
3D2
  3
CMLEADERSTYLE
350
3CE
  3
CTABLESTYLE
350
3CD
  0
LAYOUT
  5
1E
102
{ACAD_REACTORS
330
1A
102
}
330
1A
100
AcDbPlotSettings
  1

  2
none_device
  4

  6

 40
0.0
 41
0.0
 42
0.0
 43
0.0
 44
0.0
 45
0.0
 46
0.0
 47
0.0
 48
0.0
 49
0.0
140
0.0
141
0.0
142
1.0
143
1.0
 70
   688
 72
     1
 73
     0
 74
     5
  7

 75
    16
 76
     0
 77
     5
 78
   300
147
1.0
148
0.0
149
0.0
100
AcDbLayout
  1
Layout1
 70
     1
 71
     1
 10
0.0
 20
0.0
 11
420.0
 21
297.0
 12
0.0
 22
0.0
 32
0.0
 14
1.000000000000000E+20
 24
1.000000000000000E+20
 34
1.000000000000000E+20
 15
-1.000000000000000E+20
 25
-1.000000000000000E+20
 35
-1.000000000000000E+20
146
0.0
 13
0.0
 23
0.0
 33
0.0
 16
1.0
 26
0.0
 36
0.0
 17
0.0
 27
1.0
 37
0.0
 76
     0
330
1B
  0
LAYOUT
  5
26
102
{ACAD_REACTORS
330
1A
102
}
330
1A
100
AcDbPlotSettings
  1

  2
none_device
  4

  6

 40
0.0
 41
0.0
 42
0.0
 43
0.0
 44
0.0
 45
0.0
 46
0.0
 47
0.0
 48
0.0
 49
0.0
140
0.0
141
0.0
142
1.0
143
1.0
 70
   688
 72
     1
 73
     0
 74
     5
  7

 75
    16
 76
     0
 77
     5
 78
   300
147
1.0
148
0.0
149
0.0
100
AcDbLayout
  1
Layout2
 70
     1
 71
     2
 10
0.0
 20
0.0
 11
0.0
 21
0.0
 12
0.0
 22
0.0
 32
0.0
 14
0.0
 24
0.0
 34
0.0
 15
0.0
 25
0.0
 35
0.0
146
0.0
 13
0.0
 23
0.0
 33
0.0
 16
1.0
 26
0.0
 36
0.0
 17
0.0
 27
1.0
 37
0.0
 76
     0
330
23
  0
LAYOUT
  5
22
102
{ACAD_REACTORS
330
1A
102
}
330
1A
100
AcDbPlotSettings
  1

  2
none_device
  4
Letter_(8.50_x_11.00_Inches)
  6

 40
6.35
 41
6.35
 42
6.35000508
 43
6.35000508
 44
215.9
 45
279.4
 46
0.0
 47
0.0
 48
0.0
 49
0.0
140
0.0
141
0.0
142
1.0
143
1.0
 70
  1712
 72
     1
 73
     0
 74
     0
  7

 75
     0
 76
     0
 77
     5
 78
   300
147
1.0
148
0.0
149
0.0
100
AcDbLayout
  1
Model
 70
     1
 71
     0
 10
-6300.0
 20
-4455.0
 11
6300.0
 21
4455.0
 12
0.0
 22
0.0
 32
0.0
 14
-6300.0
 24
-4455.0
 34
0.0
 15
6300.0
 25
4455.0
 35
0.0
146
0.0
 13
0.0
 23
0.0
 33
0.0
 16
1.0
 26
0.0
 36
0.0
 17
0.0
 27
1.0
 37
0.0
 76
     0
330
1F
331
29
  0
MATERIAL
  5
45
102
{ACAD_REACTORS
330
43
102
}
330
43
100
AcDbMaterial
  1
ByBlock
 72
     1
 94
      127
  0
MATERIAL
  5
44
102
{ACAD_REACTORS
330
43
102
}
330
43
100
AcDbMaterial
  1
ByLayer
 72
     1
 94
      127
  0
MATERIAL
  5
46
102
{ACAD_REACTORS
330
43
102
}
330
43
100
AcDbMaterial
  1
Global
 72
     1
 94
      127
  0
MLEADERSTYLE
  5
6C
102
{ACAD_REACTORS
330
6B
102
}
330
6B
100
AcDbMLeaderStyle
179
     2
170
     2
171
     1
172
     0
 90
        2
 40
0.0
 41
0.0
173
     1
 91
-1056964608
340
14
 92
       -2
290
     1
 42
2.0
291
     1
 43
8.0
  3
Standard
341
0
 44
4.0
300

342
11
174
     1
178
     6
175
     1
176
     0
 93
-1056964608
 45
4.0
292
     0
297
     0
 46
4.0
343
0
 94
-1056964608
 47
1.0
 49
1.0
140
1.0
293
     1
141
0.0
294
     1
177
     0
142
1.0
295
     0
296
     0
143
3.75
271
     0
272
     9
273
     9
  0
MLINESTYLE
  5
18
102
{ACAD_REACTORS
330
17
102
}
330
17
100
AcDbMlineStyle
  2
Standard
 70
     0
  3

 62
   256
 51
90.0
 52
90.0
 71
     2
 49
0.5
 62
   256
  6
BYLAYER
 49
-0.5
 62
   256
  6
BYLAYER
  0
ACDBPLACEHOLDER
  5
F
102
{ACAD_REACTORS
330
E
102
}
330
E
  0
SCALE
  5
48
102
{ACAD_REACTORS
330
47
102
}
330
47
100
AcDbScale
 70
     0
300
1:1
140
1.0
141
1.0
290
     1
  0
SCALE
  5
49
102
{ACAD_REACTORS
330
47
102
}
330
47
100
AcDbScale
 70
     0
300
1:2
140
1.0
141
2.0
290
     0
  0
SCALE
  5
4A
102
{ACAD_REACTORS
330
47
102
}
330
47
100
AcDbScale
 70
     0
300
1:4
140
1.0
141
4.0
290
     0
  0
SCALE
  5
4B
102
{ACAD_REACTORS
330
47
102
}
330
47
100
AcDbScale
 70
     0
300
1:5
140
1.0
141
5.0
290
     0
  0
SCALE
  5
4C
102
{ACAD_REACTORS
330
47
102
}
330
47
100
AcDbScale
 70
     0
300
1:8
140
1.0
141
8.0
290
     0
  0
SCALE
  5
4D
102
{ACAD_REACTORS
330
47
102
}
330
47
100
AcDbScale
 70
     0
300
1:10
140
1.0
141
10.0
290
     0
  0
SCALE
  5
4E
102
{ACAD_REACTORS
330
47
102
}
330
47
100
AcDbScale
 70
     0
300
1:16
140
1.0
141
16.0
290
     0
  0
SCALE
  5
4F
102
{ACAD_REACTORS
330
47
102
}
330
47
100
AcDbScale
 70
     0
300
1:20
140
1.0
141
20.0
290
     0
  0
SCALE
  5
50
102
{ACAD_REACTORS
330
47
102
}
330
47
100
AcDbScale
 70
     0
300
1:30
140
1.0
141
30.0
290
     0
  0
SCALE
  5
51
102
{ACAD_REACTORS
330
47
102
}
330
47
100
AcDbScale
 70
     0
300
1:40
140
1.0
141
40.0
290
     0
  0
SCALE
  5
52
102
{ACAD_REACTORS
330
47
102
}
330
47
100
AcDbScale
 70
     0
300
1:50
140
1.0
141
50.0
290
     0
  0
SCALE
  5
53
102
{ACAD_REACTORS
330
47
102
}
330
47
100
AcDbScale
 70
     0
300
1:100
140
1.0
141
100.0
290
     0
  0
SCALE
  5
54
102
{ACAD_REACTORS
330
47
102
}
330
47
100
AcDbScale
 70
     0
300
2:1
140
2.0
141
1.0
290
     0
  0
SCALE
  5
55
102
{ACAD_REACTORS
330
47
102
}
330
47
100
AcDbScale
 70
     0
300
4:1
140
4.0
141
1.0
290
     0
  0
SCALE
  5
56
102
{ACAD_REACTORS
330
47
102
}
330
47
100
AcDbScale
 70
     0
300
8:1
140
8.0
141
1.0
290
     0
  0
SCALE
  5
57
102
{ACAD_REACTORS
330
47
102
}
330
47
100
AcDbScale
 70
     0
300
10:1
140
10.0
141
1.0
290
     0
  0
SCALE
  5
58
102
{ACAD_REACTORS
330
47
102
}
330
47
100
AcDbScale
 70
     0
300
100:1
140
100.0
141
1.0
290
     0
  0
SCALE
  5
59
102
{ACAD_REACTORS
330
47
102
}
330
47
100
AcDbScale
 70
     0
300
1/128" = 1'-0"
140
0.0078125
141
12.0
290
     0
  0
SCALE
  5
5A
102
{ACAD_REACTORS
330
47
102
}
330
47
100
AcDbScale
 70
     0
300
1/64" = 1'-0"
140
0.015625
141
12.0
290
     0
  0
SCALE
  5
5B
102
{ACAD_REACTORS
330
47
102
}
330
47
100
AcDbScale
 70
     0
300
1/32" = 1'-0"
140
0.03125
141
12.0
290
     0
  0
SCALE
  5
5C
102
{ACAD_REACTORS
330
47
102
}
330
47
100
AcDbScale
 70
     0
300
1/16" = 1'-0"
140
0.0625
141
12.0
290
     0
  0
SCALE
  5
5D
102
{ACAD_REACTORS
330
47
102
}
330
47
100
AcDbScale
 70
     0
300
3/32" = 1'-0"
140
0.09375
141
12.0
290
     0
  0
SCALE
  5
5E
102
{ACAD_REACTORS
330
47
102
}
330
47
100
AcDbScale
 70
     0
300
1/8" = 1'-0"
140
0.125
141
12.0
290
     0
  0
SCALE
  5
5F
102
{ACAD_REACTORS
330
47
102
}
330
47
100
AcDbScale
 70
     0
300
3/16" = 1'-0"
140
0.1875
141
12.0
290
     0
  0
SCALE
  5
60
102
{ACAD_REACTORS
330
47
102
}
330
47
100
AcDbScale
 70
     0
300
1/4" = 1'-0"
140
0.25
141
12.0
290
     0
  0
SCALE
  5
61
102
{ACAD_REACTORS
330
47
102
}
330
47
100
AcDbScale
 70
     0
300
3/8" = 1'-0"
140
0.375
141
12.0
290
     0
  0
SCALE
  5
62
102
{ACAD_REACTORS
330
47
102
}
330
47
100
AcDbScale
 70
     0
300
1/2" = 1'-0"
140
0.5
141
12.0
290
     0
  0
SCALE
  5
63
102
{ACAD_REACTORS
330
47
102
}
330
47
100
AcDbScale
 70
     0
300
3/4" = 1'-0"
140
0.75
141
12.0
290
     0
  0
SCALE
  5
64
102
{ACAD_REACTORS
330
47
102
}
330
47
100
AcDbScale
 70
     0
300
1" = 1'-0"
140
1.0
141
12.0
290
     0
  0
SCALE
  5
65
102
{ACAD_REACTORS
330
47
102
}
330
47
100
AcDbScale
 70
     0
300
1-1/2" = 1'-0"
140
1.5
141
12.0
290
     0
  0
SCALE
  5
66
102
{ACAD_REACTORS
330
47
102
}
330
47
100
AcDbScale
 70
     0
300
3" = 1'-0"
140
3.0
141
12.0
290
     0
  0
SCALE
  5
67
102
{ACAD_REACTORS
330
47
102
}
330
47
100
AcDbScale
 70
     0
300
6" = 1'-0"
140
6.0
141
12.0
290
     0
  0
SCALE
  5
68
102
{ACAD_REACTORS
330
47
102
}
330
47
100
AcDbScale
 70
     0
300
1'-0" = 1'-0"
140
12.0
141
12.0
290
     0
  0
TABLESTYLE
  5
6A
102
{ACAD_REACTORS
330
69
102
}
102
{ACAD_XDICTIONARY
360
3CA
102
}
330
69
100
AcDbTableStyle
  3
Standard
 70
     0
 71
     0
 40
0.06
 41
0.06
280
     0
281
     0
  7
Standard
140
4.5
170
     2
 62
     0
 63
   257
283
     0
 90
        4
 91
        0
  1

274
    -2
284
     1
 64
     0
275
    -2
285
     1
 65
     0
276
    -2
286
     1
 66
     0
277
    -2
287
     1
 67
     0
278
    -2
288
     1
 68
     0
279
    -2
289
     1
 69
     0
  7
Standard
140
6.0
170
     5
 62
     0
 63
   257
283
     0
 90
        4
 91
        0
  1

274
    -2
284
     1
 64
     0
275
    -2
285
     1
 65
     0
276
    -2
286
     1
 66
     0
277
    -2
287
     1
 67
     0
278
    -2
288
     1
 68
     0
279
    -2
289
     1
 69
     0
  7
Standard
140
4.5
170
     5
 62
     0
 63
   257
283
     0
 90
        4
 91
        0
  1

274
    -2
284
     1
 64
     0
275
    -2
285
     1
 65
     0
276
    -2
286
     1
 66
     0
277
    -2
287
     1
 67
     0
278
    -2
288
     1
 68
     0
279
    -2
289
     1
 69
     0
  0
VISUALSTYLE
  5
2F
102
{ACAD_REACTORS
330
2A
102
}
102
{ACAD_XDICTIONARY
360
3A2
102
}
330
2A
100
AcDbVisualStyle
  2
2dWireframe
 70
     4
177
     2
291
     0
 71
     0
176
     1
 72
     2
176
     1
 73
     0
176
     1
 90
        0
176
     1
 40
0.6
176
     1
 41
30.0
176
     1
 62
     5
 63
     7
421
 16777215
176
     1
 74
     1
176
     1
 91
        4
176
     1
 64
     7
176
     1
 65
   257
176
     1
 75
     1
176
     1
175
     1
176
     1
 42
1.0
176
     1
 92
        0
176
     1
 66
   257
176
     1
 43
1.0
176
     1
 76
     1
176
     1
 77
     6
176
     1
 78
     2
176
     1
 67
     7
176
     1
 79
     5
176
     1
170
     0
176
     1
171
     0
176
     1
290
     0
176
     1
 93
        1
176
     1
 44
0.0
176
     1
173
     0
176
     1
  0
VISUALSTYLE
  5
32
102
{ACAD_REACTORS
330
2A
102
}
102
{ACAD_XDICTIONARY
360
3A8
102
}
330
2A
100
AcDbVisualStyle
  2
Basic
 70
     7
177
     2
291
     1
 71
     1
176
     1
 72
     0
176
     1
 73
     1
176
     1
 90
        0
176
     1
 40
0.6
176
     1
 41
30.0
176
     1
 62
     5
 63
     7
421
 16777215
176
     1
 74
     0
176
     1
 91
        4
176
     1
 64
     7
176
     1
 65
   257
176
     1
 75
     1
176
     1
175
     1
176
     1
 42
1.0
176
     1
 92
        8
176
     1
 66
     7
176
     1
 43
1.0
176
     1
 76
     1
176
     1
 77
     6
176
     1
 78
     2
176
     1
 67
     7
176
     1
 79
     5
176
     1
170
     0
176
     1
171
     0
176
     1
290
     0
176
     1
 93
        1
176
     1
 44
0.0
176
     1
173
     0
176
     1
  0
VISUALSTYLE
  5
36
102
{ACAD_REACTORS
330
2A
102
}
102
{ACAD_XDICTIONARY
360
3B0
102
}
330
2A
100
AcDbVisualStyle
  2
Brighten
 70
    12
177
     2
291
     1
 71
     2
176
     1
 72
     2
176
     1
 73
     0
176
     1
 90
        0
176
     1
 40
0.6
176
     1
 41
30.0
176
     1
 62
     5
 63
     7
421
 16777215
176
     1
 74
     1
176
     1
 91
        4
176
     1
 64
     7
176
     1
 65
   257
176
     1
 75
     1
176
     1
175
     1
176
     1
 42
1.0
176
     1
 92
        8
176
     1
 66
     7
176
     1
 43
1.0
176
     1
 76
     1
176
     1
 77
     6
176
     1
 78
     2
176
     1
 67
     7
176
     1
 79
     5
176
     1
170
     0
176
     1
171
     0
176
     1
290
     0
176
     1
 93
        1
176
     1
 44
50.0
176
     1
173
     0
176
     1
  0
VISUALSTYLE
  5
3A
102
{ACAD_REACTORS
330
2A
102
}
102
{ACAD_XDICTIONARY
360
3B8
102
}
330
2A
100
AcDbVisualStyle
  2
ColorChange
 70
    16
177
     2
291
     1
 71
     2
176
     1
 72
     2
176
     1
 73
     3
176
     1
 90
        0
176
     1
 40
0.6
176
     1
 41
30.0
176
     1
 62
     5
 63
     8
421
  8421504
176
     1
 74
     1
176
     1
 91
        4
176
     1
 64
     7
176
     1
 65
   257
176
     1
 75
     1
176
     1
175
     1
176
     1
 42
1.0
176
     1
 92
        8
176
     1
 66
     8
424
  8421504
176
     1
 43
1.0
176
     1
 76
     1
176
     1
 77
     6
176
     1
 78
     2
176
     1
 67
     7
176
     1
 79
     5
176
     1
170
     0
176
     1
171
     0
176
     1
290
     0
176
     1
 93
        1
176
     1
 44
0.0
176
     1
173
     0
176
     1
  0
VISUALSTYLE
  5
34
102
{ACAD_REACTORS
330
2A
102
}
102
{ACAD_XDICTIONARY
360
3AC
102
}
330
2A
100
AcDbVisualStyle
  2
Conceptual
 70
     9
177
     2
291
     0
 71
     3
176
     1
 72
     2
176
     1
 73
     0
176
     1
 90
        0
176
     1
 40
0.6
176
     1
 41
30.0
176
     1
 62
     5
 63
     7
421
 16777215
176
     1
 74
     2
176
     1
 91
        2
176
     1
 64
     7
176
     1
 65
   257
176
     1
 75
     1
176
     1
175
     1
176
     1
 42
179.0
176
     1
 92
        8
176
     1
 66
     7
176
     1
 43
1.0
176
     1
 76
     1
176
     1
 77
     6
176
     1
 78
     2
176
     1
 67
     7
176
     1
 79
     3
176
     1
170
     0
176
     1
171
     0
176
     1
290
     0
176
     1
 93
        1
176
     1
 44
0.0
176
     1
173
     0
176
     1
  0
VISUALSTYLE
  5
35
102
{ACAD_REACTORS
330
2A
102
}
102
{ACAD_XDICTIONARY
360
3AE
102
}
330
2A
100
AcDbVisualStyle
  2
Dim
 70
    11
177
     2
291
     1
 71
     2
176
     1
 72
     2
176
     1
 73
     0
176
     1
 90
        0
176
     1
 40
0.6
176
     1
 41
30.0
176
     1
 62
     5
 63
     7
421
 16777215
176
     1
 74
     1
176
     1
 91
        4
176
     1
 64
     7
176
     1
 65
   257
176
     1
 75
     1
176
     1
175
     1
176
     1
 42
1.0
176
     1
 92
        8
176
     1
 66
     7
176
     1
 43
1.0
176
     1
 76
     1
176
     1
 77
     6
176
     1
 78
     2
176
     1
 67
     7
176
     1
 79
     5
176
     1
170
     0
176
     1
171
     0
176
     1
290
     0
176
     1
 93
        1
176
     1
 44
-50.0
176
     1
173
     0
176
     1
  0
VISUALSTYLE
  5
3D
102
{ACAD_REACTORS
330
2A
102
}
102
{ACAD_XDICTIONARY
360
3BE
102
}
330
2A
100
AcDbVisualStyle
  2
EdgeColorOff
 70
    22
177
     2
291
     1
 71
     2
176
     0
 72
     2
176
     0
 73
     0
176
     0
 90
        0
176
     0
 40
0.6
176
     0
 41
30.0
176
     0
 62
     5
 63
     7
421
 16777215
176
     0
 74
     1
176
     0
 91
        4
176
     0
 64
     7
176
     0
 65
   257
176
     0
 75
     1
176
     0
175
     1
176
     0
 42
1.0
176
     0
 92
        8
176
     2
 66
     7
176
     0
 43
1.0
176
     0
 76
     1
176
     0
 77
     6
176
     0
 78
     2
176
     0
 67
     7
176
     0
 79
     5
176
     0
170
     0
176
     0
171
     0
176
     0
290
     0
176
     0
 93
        1
176
     0
 44
0.0
176
     0
173
     0
176
     0
  0
VISUALSTYLE
  5
39
102
{ACAD_REACTORS
330
2A
102
}
102
{ACAD_XDICTIONARY
360
3B6
102
}
330
2A
100
AcDbVisualStyle
  2
Facepattern
 70
    15
177
     2
291
     1
 71
     2
176
     1
 72
     2
176
     1
 73
     0
176
     1
 90
        0
176
     1
 40
0.6
176
     1
 41
30.0
176
     1
 62
     5
 63
     7
421
 16777215
176
     1
 74
     1
176
     1
 91
        4
176
     1
 64
     7
176
     1
 65
   257
176
     1
 75
     1
176
     1
175
     1
176
     1
 42
1.0
176
     1
 92
        8
176
     1
 66
     7
176
     1
 43
1.0
176
     1
 76
     1
176
     1
 77
     6
176
     1
 78
     2
176
     1
 67
     7
176
     1
 79
     5
176
     1
170
     0
176
     1
171
     0
176
     1
290
     0
176
     1
 93
        1
176
     1
 44
0.0
176
     1
173
     0
176
     1
  0
VISUALSTYLE
  5
2B
102
{ACAD_REACTORS
330
2A
102
}
102
{ACAD_XDICTIONARY
360
39A
102
}
330
2A
100
AcDbVisualStyle
  2
Flat
 70
     0
177
     2
291
     1
 71
     2
176
     1
 72
     1
176
     1
 73
     1
176
     1
 90
        2
176
     1
 40
0.6
176
     1
 41
30.0
176
     1
 62
     5
 63
     7
421
 16777215
176
     1
 74
     0
176
     1
 91
        0
176
     1
 64
     7
176
     1
 65
   257
176
     1
 75
     1
176
     1
175
     1
176
     1
 42
1.0
176
     1
 92
        8
176
     1
 66
     7
176
     1
 43
1.0
176
     1
 76
     1
176
     1
 77
     6
176
     1
 78
     2
176
     1
 67
     7
176
     1
 79
     5
176
     1
170
     0
176
     1
171
     0
176
     1
290
     0
176
     1
 93
       13
176
     1
 44
0.0
176
     1
173
     0
176
     1
  0
VISUALSTYLE
  5
2C
102
{ACAD_REACTORS
330
2A
102
}
102
{ACAD_XDICTIONARY
360
39C
102
}
330
2A
100
AcDbVisualStyle
  2
FlatWithEdges
 70
     1
177
     2
291
     1
 71
     2
176
     1
 72
     1
176
     1
 73
     1
176
     1
 90
        2
176
     1
 40
0.6
176
     1
 41
30.0
176
     1
 62
     5
 63
     7
421
 16777215
176
     1
 74
     1
176
     1
 91
        0
176
     1
 64
     7
176
     1
 65
   257
176
     1
 75
     1
176
     1
175
     1
176
     1
 42
1.0
176
     1
 92
        0
176
     1
 66
   257
176
     1
 43
1.0
176
     1
 76
     1
176
     1
 77
     6
176
     1
 78
     2
176
     1
 67
     7
176
     1
 79
     5
176
     1
170
     0
176
     1
171
     0
176
     1
290
     0
176
     1
 93
       13
176
     1
 44
0.0
176
     1
173
     0
176
     1
  0
VISUALSTYLE
  5
2D
102
{ACAD_REACTORS
330
2A
102
}
102
{ACAD_XDICTIONARY
360
39E
102
}
330
2A
100
AcDbVisualStyle
  2
Gouraud
 70
     2
177
     2
291
     1
 71
     2
176
     1
 72
     2
176
     1
 73
     1
176
     1
 90
        2
176
     1
 40
0.6
176
     1
 41
30.0
176
     1
 62
     5
 63
     7
421
 16777215
176
     1
 74
     0
176
     1
 91
        0
176
     1
 64
     7
176
     1
 65
   257
176
     1
 75
     1
176
     1
175
     1
176
     1
 42
1.0
176
     1
 92
        0
176
     1
 66
     7
176
     1
 43
1.0
176
     1
 76
     1
176
     1
 77
     6
176
     1
 78
     2
176
     1
 67
     7
176
     1
 79
     5
176
     1
170
     0
176
     1
171
     0
176
     1
290
     0
176
     1
 93
       13
176
     1
 44
0.0
176
     1
173
     0
176
     1
  0
VISUALSTYLE
  5
2E
102
{ACAD_REACTORS
330
2A
102
}
102
{ACAD_XDICTIONARY
360
3A0
102
}
330
2A
100
AcDbVisualStyle
  2
GouraudWithEdges
 70
     3
177
     2
291
     1
 71
     2
176
     1
 72
     2
176
     1
 73
     1
176
     1
 90
        2
176
     1
 40
0.6
176
     1
 41
30.0
176
     1
 62
     5
 63
     7
421
 16777215
176
     1
 74
     1
176
     1
 91
        0
176
     1
 64
     7
176
     1
 65
   257
176
     1
 75
     1
176
     1
175
     1
176
     1
 42
1.0
176
     1
 92
        0
176
     1
 66
   257
176
     1
 43
1.0
176
     1
 76
     1
176
     1
 77
     6
176
     1
 78
     2
176
     1
 67
     7
176
     1
 79
     5
176
     1
170
     0
176
     1
171
     0
176
     1
290
     0
176
     1
 93
       13
176
     1
 44
0.0
176
     1
173
     0
176
     1
  0
VISUALSTYLE
  5
31
102
{ACAD_REACTORS
330
2A
102
}
102
{ACAD_XDICTIONARY
360
3A6
102
}
330
2A
100
AcDbVisualStyle
  2
Hidden
 70
     6
177
     2
291
     0
 71
     1
176
     1
 72
     2
176
     1
 73
     2
176
     1
 90
        0
176
     1
 40
0.6
176
     1
 41
30.0
176
     1
 62
     5
 63
     7
421
 16777215
176
     1
 74
     2
176
     1
 91
        2
176
     1
 64
     7
176
     1
 65
   257
176
     1
 75
     2
176
     1
175
     1
176
     1
 42
40.0
176
     1
 92
        0
176
     1
 66
   257
176
     1
 43
1.0
176
     1
 76
     1
176
     1
 77
     6
176
     1
 78
     2
176
     1
 67
     7
176
     1
 79
     3
176
     1
170
     0
176
     1
171
     0
176
     1
290
     0
176
     1
 93
        1
176
     1
 44
0.0
176
     1
173
     0
176
     1
  0
VISUALSTYLE
  5
3B
102
{ACAD_REACTORS
330
2A
102
}
102
{ACAD_XDICTIONARY
360
3BA
102
}
330
2A
100
AcDbVisualStyle
  2
JitterOff
 70
    20
177
     2
291
     1
 71
     2
176
     0
 72
     2
176
     0
 73
     0
176
     0
 90
        0
176
     0
 40
0.6
176
     0
 41
30.0
176
     0
 62
     5
 63
     7
421
 16777215
176
     0
 74
     1
176
     0
 91
        4
176
     0
 64
     7
176
     0
 65
   257
176
     0
 75
     1
176
     0
175
     1
176
     0
 42
1.0
176
     0
 92
       10
176
     2
 66
     7
176
     0
 43
1.0
176
     0
 76
     1
176
     0
 77
     6
176
     0
 78
     2
176
     0
 67
     7
176
     0
 79
     5
176
     0
170
     0
176
     0
171
     0
176
     0
290
     0
176
     0
 93
        1
176
     0
 44
0.0
176
     0
173
     0
176
     0
  0
VISUALSTYLE
  5
38
102
{ACAD_REACTORS
330
2A
102
}
102
{ACAD_XDICTIONARY
360
3B4
102
}
330
2A
100
AcDbVisualStyle
  2
Linepattern
 70
    14
177
     2
291
     1
 71
     2
176
     1
 72
     2
176
     1
 73
     0
176
     1
 90
        0
176
     1
 40
0.6
176
     1
 41
30.0
176
     1
 62
     5
 63
     7
421
 16777215
176
     1
 74
     1
176
     1
 91
        4
176
     1
 64
     7
176
     1
 65
   257
176
     1
 75
     7
176
     1
175
     7
176
     1
 42
1.0
176
     1
 92
        8
176
     1
 66
     7
176
     1
 43
1.0
176
     1
 76
     1
176
     1
 77
     6
176
     1
 78
     2
176
     1
 67
     7
176
     1
 79
     5
176
     1
170
     0
176
     1
171
     0
176
     1
290
     0
176
     1
 93
        1
176
     1
 44
0.0
176
     1
173
     0
176
     1
  0
VISUALSTYLE
  5
3C
102
{ACAD_REACTORS
330
2A
102
}
102
{ACAD_XDICTIONARY
360
3BC
102
}
330
2A
100
AcDbVisualStyle
  2
OverhangOff
 70
    21
177
     2
291
     1
 71
     2
176
     0
 72
     2
176
     0
 73
     0
176
     0
 90
        0
176
     0
 40
0.6
176
     0
 41
30.0
176
     0
 62
     5
 63
     7
421
 16777215
176
     0
 74
     1
176
     0
 91
        4
176
     0
 64
     7
176
     0
 65
   257
176
     0
 75
     1
176
     0
175
     1
176
     0
 42
1.0
176
     0
 92
        9
176
     2
 66
     7
176
     0
 43
1.0
176
     0
 76
     1
176
     0
 77
     6
176
     0
 78
     2
176
     0
 67
     7
176
     0
 79
     5
176
     0
170
     0
176
     0
171
     0
176
     0
290
     0
176
     0
 93
        1
176
     0
 44
0.0
176
     0
173
     0
176
     0
  0
VISUALSTYLE
  5
33
102
{ACAD_REACTORS
330
2A
102
}
102
{ACAD_XDICTIONARY
360
3AA
102
}
330
2A
100
AcDbVisualStyle
  2
Realistic
 70
     8
177
     2
291
     0
 71
     2
176
     1
 72
     3
176
     1
 73
     0
176
     1
 90
        2
176
     1
 40
0.6
176
     1
 41
30.0
176
     1
 62
     5
 63
     7
421
 16777215
176
     1
 74
     0
176
     1
 91
        0
176
     1
 64
     7
176
     1
 65
   257
176
     1
 75
     1
176
     1
175
     1
176
     1
 42
1.0
176
     1
 92
        8
176
     1
 66
   257
176
     1
 43
1.0
176
     1
 76
     1
176
     1
 77
     6
176
     1
 78
     2
176
     1
 67
     7
176
     1
 79
     3
176
     1
170
     0
176
     1
171
     0
176
     1
290
     0
176
     1
 93
       13
176
     1
 44
0.0
176
     1
173
     0
176
     1
  0
VISUALSTYLE
  5
42
102
{ACAD_REACTORS
330
2A
102
}
102
{ACAD_XDICTIONARY
360
3C8
102
}
330
2A
100
AcDbVisualStyle
  2
Shaded
 70
    27
177
     2
291
     0
 71
     2
176
     1
 72
     2
176
     1
 73
     1
176
     1
 90
        2
176
     1
 40
0.6
176
     1
 41
30.0
176
     1
 62
     5
 63
     7
421
 16777215
176
     1
 74
     0
176
     1
 91
        4
176
     1
 64
     7
176
     1
 65
   257
176
     1
 75
     1
176
     1
175
     1
176
     1
 42
1.0
176
     1
 92
        8
176
     1
 66
   257
176
     1
 43
1.0
176
     1
 76
     1
176
     1
 77
     6
176
     1
 78
     2
176
     1
 67
     8
425
  7895160
176
     1
 79
     3
176
     1
170
     0
176
     1
171
     0
176
     1
290
     0
176
     1
 93
        5
176
     1
 44
0.0
176
     1
173
     0
176
     1
  0
VISUALSTYLE
  5
41
102
{ACAD_REACTORS
330
2A
102
}
102
{ACAD_XDICTIONARY
360
3C6
102
}
330
2A
100
AcDbVisualStyle
  2
Shaded with edges
 70
    26
177
     2
291
     0
 71
     2
176
     1
 72
     2
176
     1
 73
     1
176
     1
 90
        2
176
     1
 40
0.6
176
     1
 41
30.0
176
     1
 62
     5
 63
     7
421
 16777215
176
     1
 74
     1
176
     1
 91
       10
176
     1
 64
     7
176
     1
 65
   257
176
     1
 75
     2
176
     1
175
     1
176
     1
 42
1.0
176
     1
 92
        8
176
     1
 66
   257
176
     1
 43
1.0
176
     1
 76
     1
176
     1
 77
     6
176
     1
 78
     2
176
     1
 67
     7
176
     1
 79
     3
176
     1
170
     0
176
     1
171
     0
176
     1
290
     0
176
     1
 93
        5
176
     1
 44
0.0
176
     1
173
     0
176
     1
  0
VISUALSTYLE
  5
3E
102
{ACAD_REACTORS
330
2A
102
}
102
{ACAD_XDICTIONARY
360
3C0
102
}
330
2A
100
AcDbVisualStyle
  2
Shades of Gray
 70
    23
177
     2
291
     0
 71
     2
176
     1
 72
     2
176
     1
 73
     3
176
     1
 90
        0
176
     1
 40
0.6
176
     1
 41
30.0
176
     1
 62
     5
 63
     7
421
 16777215
176
     1
 74
     2
176
     1
 91
        2
176
     1
 64
     7
176
     1
 65
     7
176
     1
 75
     1
176
     1
175
     1
176
     1
 42
40.0
176
     1
 92
        8
176
     1
 66
     7
176
     1
 43
1.0
176
     1
 76
     1
176
     1
 77
     6
176
     1
 78
     2
176
     1
 67
     7
176
     1
 79
     3
176
     1
170
     0
176
     1
171
     0
176
     1
290
     0
176
     1
 93
        1
176
     1
 44
0.0
176
     1
173
     0
176
     1
  0
VISUALSTYLE
  5
3F
102
{ACAD_REACTORS
330
2A
102
}
102
{ACAD_XDICTIONARY
360
3C2
102
}
330
2A
100
AcDbVisualStyle
  2
Sketchy
 70
    24
177
     2
291
     0
 71
     1
176
     1
 72
     2
176
     1
 73
     2
176
     1
 90
        0
176
     1
 40
0.6
176
     1
 41
30.0
176
     1
 62
     5
 63
     7
421
 16777215
176
     1
 74
     2
176
     1
 91
        2
176
     1
 64
     7
176
     1
 65
     7
176
     1
 75
     1
176
     1
175
     1
176
     1
 42
40.0
176
     1
 92
       11
176
     1
 66
     7
176
     1
 43
1.0
176
     1
 76
     1
176
     1
 77
     6
176
     1
 78
     2
176
     1
 67
     7
176
     1
 79
     6
176
     1
170
     0
176
     1
171
     0
176
     1
290
     0
176
     1
 93
        1
176
     1
 44
0.0
176
     1
173
     0
176
     1
  0
VISUALSTYLE
  5
37
102
{ACAD_REACTORS
330
2A
102
}
102
{ACAD_XDICTIONARY
360
3B2
102
}
330
2A
100
AcDbVisualStyle
  2
Thicken
 70
    13
177
     2
291
     1
 71
     2
176
     1
 72
     2
176
     1
 73
     0
176
     1
 90
        0
176
     1
 40
0.6
176
     1
 41
30.0
176
     1
 62
     5
 63
     7
421
 16777215
176
     1
 74
     1
176
     1
 91
        4
176
     1
 64
     7
176
     1
 65
   257
176
     1
 75
     1
176
     1
175
     1
176
     1
 42
1.0
176
     1
 92
       12
176
     1
 66
     7
176
     1
 43
1.0
176
     1
 76
     1
176
     1
 77
     6
176
     1
 78
     2
176
     1
 67
     7
176
     1
 79
     5
176
     1
170
     0
176
     1
171
     0
176
     1
290
     0
176
     1
 93
        1
176
     1
 44
0.0
176
     1
173
     0
176
     1
  0
VISUALSTYLE
  5
30
102
{ACAD_REACTORS
330
2A
102
}
102
{ACAD_XDICTIONARY
360
3A4
102
}
330
2A
100
AcDbVisualStyle
  2
Wireframe
 70
     5
177
     2
291
     0
 71
     0
176
     1
 72
     2
176
     1
 73
     0
176
     1
 90
        0
176
     1
 40
0.6
176
     1
 41
30.0
176
     1
 62
     5
 63
     7
421
 16777215
176
     1
 74
     1
176
     1
 91
        4
176
     1
 64
     7
176
     1
 65
   257
176
     1
 75
     1
176
     1
175
     1
176
     1
 42
1.0
176
     1
 92
        0
176
     1
 66
   257
176
     1
 43
1.0
176
     1
 76
     1
176
     1
 77
     6
176
     1
 78
     2
176
     1
 67
     7
176
     1
 79
     3
176
     1
170
     0
176
     1
171
     0
176
     1
290
     0
176
     1
 93
        1
176
     1
 44
0.0
176
     1
173
     0
176
     1
  0
VISUALSTYLE
  5
40
102
{ACAD_REACTORS
330
2A
102
}
102
{ACAD_XDICTIONARY
360
3C4
102
}
330
2A
100
AcDbVisualStyle
  2
X-Ray
 70
    25
177
     2
291
     0
 71
     2
176
     1
 72
     2
176
     1
 73
     1
176
     1
 90
        1
176
     1
 40
0.5
176
     1
 41
30.0
176
     1
 62
     5
 63
     7
421
 16777215
176
     1
 74
     1
176
     1
 91
        0
176
     1
 64
     7
176
     1
 65
   257
176
     1
 75
     1
176
     1
175
     1
176
     1
 42
1.0
176
     1
 92
        8
176
     1
 66
     7
176
     1
 43
1.0
176
     1
 76
     1
176
     1
 77
     6
176
     1
 78
     2
176
     1
 67
     7
176
     1
 79
     3
176
     1
170
     0
176
     1
171
     0
176
     1
290
     0
176
     1
 93
       13
176
     1
 44
0.0
176
     1
173
     0
176
     1
  0
DICTIONARYVAR
  5
399
102
{ACAD_REACTORS
330
398
102
}
330
398
100
DictionaryVariables
280
     0
  1
1:1
  0
DICTIONARYVAR
  5
3D1
102
{ACAD_REACTORS
330
398
102
}
330
398
100
DictionaryVariables
280
     0
  1
3.500000
  0
DICTIONARYVAR
  5
3D2
102
{ACAD_REACTORS
330
398
102
}
330
398
100
DictionaryVariables
280
     0
  1
acadiso.lin
  0
DICTIONARYVAR
  5
3CE
102
{ACAD_REACTORS
330
398
102
}
330
398
100
DictionaryVariables
280
     0
  1
Standard
  0
DICTIONARYVAR
  5
3CD
102
{ACAD_REACTORS
330
398
102
}
330
398
100
DictionaryVariables
280
     0
  1
Standard
  0
DICTIONARY
  5
3CA
330
6A
100
AcDbDictionary
280
     1
281
     1
  3
ACAD_ROUNDTRIP_2008_TABLESTYLE_CELLSTYLEMAP
360
3CB
  0
DICTIONARY
  5
3A2
330
2F
100
AcDbDictionary
280
     1
281
     1
  3
ACAD_XREC_ROUNDTRIP
360
3A3
  0
DICTIONARY
  5
3A8
330
32
100
AcDbDictionary
280
     1
281
     1
  3
ACAD_XREC_ROUNDTRIP
360
3A9
  0
DICTIONARY
  5
3B0
330
36
100
AcDbDictionary
280
     1
281
     1
  3
ACAD_XREC_ROUNDTRIP
360
3B1
  0
DICTIONARY
  5
3B8
330
3A
100
AcDbDictionary
280
     1
281
     1
  3
ACAD_XREC_ROUNDTRIP
360
3B9
  0
DICTIONARY
  5
3AC
330
34
100
AcDbDictionary
280
     1
281
     1
  3
ACAD_XREC_ROUNDTRIP
360
3AD
  0
DICTIONARY
  5
3AE
330
35
100
AcDbDictionary
280
     1
281
     1
  3
ACAD_XREC_ROUNDTRIP
360
3AF
  0
DICTIONARY
  5
3BE
330
3D
100
AcDbDictionary
280
     1
281
     1
  3
ACAD_XREC_ROUNDTRIP
360
3BF
  0
DICTIONARY
  5
3B6
330
39
100
AcDbDictionary
280
     1
281
     1
  3
ACAD_XREC_ROUNDTRIP
360
3B7
  0
DICTIONARY
  5
39A
330
2B
100
AcDbDictionary
280
     1
281
     1
  3
ACAD_XREC_ROUNDTRIP
360
39B
  0
DICTIONARY
  5
39C
330
2C
100
AcDbDictionary
280
     1
281
     1
  3
ACAD_XREC_ROUNDTRIP
360
39D
  0
DICTIONARY
  5
39E
330
2D
100
AcDbDictionary
280
     1
281
     1
  3
ACAD_XREC_ROUNDTRIP
360
39F
  0
DICTIONARY
  5
3A0
330
2E
100
AcDbDictionary
280
     1
281
     1
  3
ACAD_XREC_ROUNDTRIP
360
3A1
  0
DICTIONARY
  5
3A6
330
31
100
AcDbDictionary
280
     1
281
     1
  3
ACAD_XREC_ROUNDTRIP
360
3A7
  0
DICTIONARY
  5
3BA
330
3B
100
AcDbDictionary
280
     1
281
     1
  3
ACAD_XREC_ROUNDTRIP
360
3BB
  0
DICTIONARY
  5
3B4
330
38
100
AcDbDictionary
280
     1
281
     1
  3
ACAD_XREC_ROUNDTRIP
360
3B5
  0
DICTIONARY
  5
3BC
330
3C
100
AcDbDictionary
280
     1
281
     1
  3
ACAD_XREC_ROUNDTRIP
360
3BD
  0
DICTIONARY
  5
3AA
330
33
100
AcDbDictionary
280
     1
281
     1
  3
ACAD_XREC_ROUNDTRIP
360
3AB
  0
DICTIONARY
  5
3C8
330
42
100
AcDbDictionary
280
     1
281
     1
  3
ACAD_XREC_ROUNDTRIP
360
3C9
  0
DICTIONARY
  5
3C6
330
41
100
AcDbDictionary
280
     1
281
     1
  3
ACAD_XREC_ROUNDTRIP
360
3C7
  0
DICTIONARY
  5
3C0
330
3E
100
AcDbDictionary
280
     1
281
     1
  3
ACAD_XREC_ROUNDTRIP
360
3C1
  0
DICTIONARY
  5
3C2
330
3F
100
AcDbDictionary
280
     1
281
     1
  3
ACAD_XREC_ROUNDTRIP
360
3C3
  0
DICTIONARY
  5
3B2
330
37
100
AcDbDictionary
280
     1
281
     1
  3
ACAD_XREC_ROUNDTRIP
360
3B3
  0
DICTIONARY
  5
3A4
330
30
100
AcDbDictionary
280
     1
281
     1
  3
ACAD_XREC_ROUNDTRIP
360
3A5
  0
DICTIONARY
  5
3C4
330
40
100
AcDbDictionary
280
     1
281
     1
  3
ACAD_XREC_ROUNDTRIP
360
3C5
  0
CELLSTYLEMAP
  5
3CB
102
{ACAD_REACTORS
330
3CA
102
}
330
3CA
100
AcDbCellStyleMap
 90
        3
300
CELLSTYLE
  1
TABLEFORMAT_BEGIN
 90
        5
170
     1
 91
        0
 92
    32768
 62
   257
 93
        1
300
CONTENTFORMAT
  1
CONTENTFORMAT_BEGIN
 90
        0
 91
        0
 92
        4
 93
        0
300

 40
0.0
140
1.0
 94
        5
 62
     0
340
11
144
6.0
309
CONTENTFORMAT_END
171
     1
301
MARGIN
  1
CELLMARGIN_BEGIN
 40
1.5
 40
1.5
 40
1.5
 40
1.5
 40
1.5
 40
1.5
309
CELLMARGIN_END
 94
        6
 95
        1
302
GRIDFORMAT
  1
GRIDFORMAT_BEGIN
 90
        0
 91
        1
 62
     0
 92
       -2
340
14
 93
        0
 40
0.045
309
GRIDFORMAT_END
 95
        2
302
GRIDFORMAT
  1
GRIDFORMAT_BEGIN
 90
        0
 91
        1
 62
     0
 92
       -2
340
14
 93
        0
 40
0.045
309
GRIDFORMAT_END
 95
        4
302
GRIDFORMAT
  1
GRIDFORMAT_BEGIN
 90
        0
 91
        1
 62
     0
 92
       -2
340
14
 93
        0
 40
0.045
309
GRIDFORMAT_END
 95
        8
302
GRIDFORMAT
  1
GRIDFORMAT_BEGIN
 90
        0
 91
        1
 62
     0
 92
       -2
340
14
 93
        0
 40
0.045
309
GRIDFORMAT_END
 95
       16
302
GRIDFORMAT
  1
GRIDFORMAT_BEGIN
 90
        0
 91
        1
 62
     0
 92
       -2
340
14
 93
        0
 40
0.045
309
GRIDFORMAT_END
 95
       32
302
GRIDFORMAT
  1
GRIDFORMAT_BEGIN
 90
        0
 91
        1
 62
     0
 92
       -2
340
14
 93
        0
 40
0.045
309
GRIDFORMAT_END
309
TABLEFORMAT_END
  1
CELLSTYLE_BEGIN
 90
        1
 91
        1
300
_TITLE
309
CELLSTYLE_END
300
CELLSTYLE
  1
TABLEFORMAT_BEGIN
 90
        5
170
     1
 91
        0
 92
        0
 62
   257
 93
        1
300
CONTENTFORMAT
  1
CONTENTFORMAT_BEGIN
 90
        0
 91
        0
 92
        4
 93
        0
300

 40
0.0
140
1.0
 94
        5
 62
     0
340
11
144
4.5
309
CONTENTFORMAT_END
171
     1
301
MARGIN
  1
CELLMARGIN_BEGIN
 40
1.5
 40
1.5
 40
1.5
 40
1.5
 40
1.5
 40
1.5
309
CELLMARGIN_END
 94
        6
 95
        1
302
GRIDFORMAT
  1
GRIDFORMAT_BEGIN
 90
        0
 91
        1
 62
     0
 92
       -2
340
14
 93
        0
 40
0.045
309
GRIDFORMAT_END
 95
        2
302
GRIDFORMAT
  1
GRIDFORMAT_BEGIN
 90
        0
 91
        1
 62
     0
 92
       -2
340
14
 93
        0
 40
0.045
309
GRIDFORMAT_END
 95
        4
302
GRIDFORMAT
  1
GRIDFORMAT_BEGIN
 90
        0
 91
        1
 62
     0
 92
       -2
340
14
 93
        0
 40
0.045
309
GRIDFORMAT_END
 95
        8
302
GRIDFORMAT
  1
GRIDFORMAT_BEGIN
 90
        0
 91
        1
 62
     0
 92
       -2
340
14
 93
        0
 40
0.045
309
GRIDFORMAT_END
 95
       16
302
GRIDFORMAT
  1
GRIDFORMAT_BEGIN
 90
        0
 91
        1
 62
     0
 92
       -2
340
14
 93
        0
 40
0.045
309
GRIDFORMAT_END
 95
       32
302
GRIDFORMAT
  1
GRIDFORMAT_BEGIN
 90
        0
 91
        1
 62
     0
 92
       -2
340
14
 93
        0
 40
0.045
309
GRIDFORMAT_END
309
TABLEFORMAT_END
  1
CELLSTYLE_BEGIN
 90
        2
 91
        1
300
_HEADER
309
CELLSTYLE_END
300
CELLSTYLE
  1
TABLEFORMAT_BEGIN
 90
        5
170
     1
 91
        0
 92
        0
 62
   257
 93
        1
300
CONTENTFORMAT
  1
CONTENTFORMAT_BEGIN
 90
        0
 91
        0
 92
        4
 93
        0
300

 40
0.0
140
1.0
 94
        2
 62
     0
340
11
144
4.5
309
CONTENTFORMAT_END
171
     1
301
MARGIN
  1
CELLMARGIN_BEGIN
 40
1.5
 40
1.5
 40
1.5
 40
1.5
 40
1.5
 40
1.5
309
CELLMARGIN_END
 94
        6
 95
        1
302
GRIDFORMAT
  1
GRIDFORMAT_BEGIN
 90
        0
 91
        1
 62
     0
 92
       -2
340
14
 93
        0
 40
0.045
309
GRIDFORMAT_END
 95
        2
302
GRIDFORMAT
  1
GRIDFORMAT_BEGIN
 90
        0
 91
        1
 62
     0
 92
       -2
340
14
 93
        0
 40
0.045
309
GRIDFORMAT_END
 95
        4
302
GRIDFORMAT
  1
GRIDFORMAT_BEGIN
 90
        0
 91
        1
 62
     0
 92
       -2
340
14
 93
        0
 40
0.045
309
GRIDFORMAT_END
 95
        8
302
GRIDFORMAT
  1
GRIDFORMAT_BEGIN
 90
        0
 91
        1
 62
     0
 92
       -2
340
14
 93
        0
 40
0.045
309
GRIDFORMAT_END
 95
       16
302
GRIDFORMAT
  1
GRIDFORMAT_BEGIN
 90
        0
 91
        1
 62
     0
 92
       -2
340
14
 93
        0
 40
0.045
309
GRIDFORMAT_END
 95
       32
302
GRIDFORMAT
  1
GRIDFORMAT_BEGIN
 90
        0
 91
        1
 62
     0
 92
       -2
340
14
 93
        0
 40
0.045
309
GRIDFORMAT_END
309
TABLEFORMAT_END
  1
CELLSTYLE_BEGIN
 90
        3
 91
        2
300
_DATA
309
CELLSTYLE_END
  0
XRECORD
  5
3A3
102
{ACAD_REACTORS
330
3A2
102
}
330
3A2
100
AcDbXrecord
280
     1
102
RTVSPost2010Prop28
280
     1
102
RTVSPost2010PropOp28
 70
     1
102
RTVSPost2010Prop29
280
     1
102
RTVSPost2010PropOp29
 70
     1
102
RTVSPost2010Prop30
280
     0
102
RTVSPost2010PropOp30
 70
     1
102
RTVSPost2010Prop31
280
     0
102
RTVSPost2010PropOp31
 70
     1
102
RTVSPost2010Prop32
280
     0
102
RTVSPost2010PropOp32
 70
     1
102
RTVSPost2010Prop33
280
     0
102
RTVSPost2010PropOp33
 70
     1
102
RTVSPost2010Prop34
280
     0
102
RTVSPost2010PropOp34
 70
     1
102
RTVSPost2010Prop35
280
     0
102
RTVSPost2010PropOp35
 70
     1
102
RTVSPost2010Prop36
280
     0
102
RTVSPost2010PropOp36
 70
     1
102
RTVSPost2010Prop37
 90
       50
102
RTVSPost2010PropOp37
 70
     1
102
RTVSPost2010Prop38
140
0.0
102
RTVSPost2010PropOp38
 70
     1
102
RTVSPost2010Prop39
140
1.0
102
RTVSPost2010PropOp39
 70
     1
102
RTVSPost2010Prop40
 90
        0
102
RTVSPost2010PropOp40
 70
     1
102
RTVSPost2010Prop41ColorIndex
 90
       18
102
RTVSPost2010Prop41ColorRGB
 90
        0
102
RTVSPost2010PropOp41
 70
     1
102
RTVSPost2010Prop42
 90
       50
102
RTVSPost2010PropOp42
 70
     1
102
RTVSPost2010Prop43
 90
        3
102
RTVSPost2010PropOp43
 70
     1
102
RTVSPost2010Prop44ColorIndex
 90
        5
102
RTVSPost2010Prop44ColorRGB
 90
      255
102
RTVSPost2010PropOp44
 70
     1
102
RTVSPost2010Prop45
280
     0
102
RTVSPost2010PropOp45
 70
     1
102
RTVSPost2010Prop46
 90
       50
102
RTVSPost2010PropOp46
 70
     1
102
RTVSPost2010Prop47
 90
       50
102
RTVSPost2010PropOp47
 70
     1
102
RTVSPost2010Prop48
 90
       50
102
RTVSPost2010PropOp48
 70
     1
102
RTVSPost2010Prop49
280
     0
102
RTVSPost2010PropOp49
 70
     1
102
RTVSPost2010Prop50
 90
       50
102
RTVSPost2010PropOp50
 70
     1
102
RTVSPost2010Prop51ColorIndex
 90
      256
102
RTVSPost2010Prop51ColorRGB
 90
-16777216
102
RTVSPost2010PropOp51
 70
     0
102
RTVSPost2010Prop52
140
1.0
102
RTVSPost2010PropOp52
 70
     0
102
RTVSPost2010Prop53
 90
        2
102
RTVSPost2010PropOp53
 70
     1
102
RTVSPost2010Prop54
  1
strokes_ogs.tif
102
RTVSPost2010PropOp54
 70
     1
102
RTVSPost2010Prop55
280
     0
102
RTVSPost2010PropOp55
 70
     1
102
RTVSPost2010Prop56
140
1.0
102
RTVSPost2010PropOp56
 70
     1
102
RTVSPost2010Prop57
140
1.0
102
RTVSPost2010PropOp57
 70
     1
  0
XRECORD
  5
3A9
102
{ACAD_REACTORS
330
3A8
102
}
330
3A8
100
AcDbXrecord
280
     1
102
RTVSPost2010Prop28
280
     0
102
RTVSPost2010PropOp28
 70
     1
102
RTVSPost2010Prop29
280
     1
102
RTVSPost2010PropOp29
 70
     1
102
RTVSPost2010Prop30
280
     1
102
RTVSPost2010PropOp30
 70
     1
102
RTVSPost2010Prop31
280
     0
102
RTVSPost2010PropOp31
 70
     1
102
RTVSPost2010Prop32
280
     0
102
RTVSPost2010PropOp32
 70
     1
102
RTVSPost2010Prop33
280
     0
102
RTVSPost2010PropOp33
 70
     1
102
RTVSPost2010Prop34
280
     0
102
RTVSPost2010PropOp34
 70
     1
102
RTVSPost2010Prop35
280
     0
102
RTVSPost2010PropOp35
 70
     1
102
RTVSPost2010Prop36
280
     0
102
RTVSPost2010PropOp36
 70
     1
102
RTVSPost2010Prop37
 90
       50
102
RTVSPost2010PropOp37
 70
     1
102
RTVSPost2010Prop38
140
0.0
102
RTVSPost2010PropOp38
 70
     1
102
RTVSPost2010Prop39
140
1.0
102
RTVSPost2010PropOp39
 70
     1
102
RTVSPost2010Prop40
 90
        0
102
RTVSPost2010PropOp40
 70
     1
102
RTVSPost2010Prop41ColorIndex
 90
       18
102
RTVSPost2010Prop41ColorRGB
 90
        0
102
RTVSPost2010PropOp41
 70
     1
102
RTVSPost2010Prop42
 90
       50
102
RTVSPost2010PropOp42
 70
     1
102
RTVSPost2010Prop43
 90
        3
102
RTVSPost2010PropOp43
 70
     1
102
RTVSPost2010Prop44ColorIndex
 90
        5
102
RTVSPost2010Prop44ColorRGB
 90
      255
102
RTVSPost2010PropOp44
 70
     1
102
RTVSPost2010Prop45
280
     0
102
RTVSPost2010PropOp45
 70
     1
102
RTVSPost2010Prop46
 90
       50
102
RTVSPost2010PropOp46
 70
     1
102
RTVSPost2010Prop47
 90
       50
102
RTVSPost2010PropOp47
 70
     1
102
RTVSPost2010Prop48
 90
       50
102
RTVSPost2010PropOp48
 70
     1
102
RTVSPost2010Prop49
280
     0
102
RTVSPost2010PropOp49
 70
     1
102
RTVSPost2010Prop50
 90
       50
102
RTVSPost2010PropOp50
 70
     1
102
RTVSPost2010Prop51ColorIndex
 90
      256
102
RTVSPost2010Prop51ColorRGB
 90
-16777216
102
RTVSPost2010PropOp51
 70
     0
102
RTVSPost2010Prop52
140
1.0
102
RTVSPost2010PropOp52
 70
     0
102
RTVSPost2010Prop53
 90
        2
102
RTVSPost2010PropOp53
 70
     1
102
RTVSPost2010Prop54
  1
strokes_ogs.tif
102
RTVSPost2010PropOp54
 70
     1
102
RTVSPost2010Prop55
280
     0
102
RTVSPost2010PropOp55
 70
     1
102
RTVSPost2010Prop56
140
1.0
102
RTVSPost2010PropOp56
 70
     1
102
RTVSPost2010Prop57
140
1.0
102
RTVSPost2010PropOp57
 70
     1
  0
XRECORD
  5
3B1
102
{ACAD_REACTORS
330
3B0
102
}
330
3B0
100
AcDbXrecord
280
     1
102
RTVSPost2010Prop28
280
     0
102
RTVSPost2010PropOp28
 70
     1
102
RTVSPost2010Prop29
280
     1
102
RTVSPost2010PropOp29
 70
     1
102
RTVSPost2010Prop30
280
     1
102
RTVSPost2010PropOp30
 70
     1
102
RTVSPost2010Prop31
280
     0
102
RTVSPost2010PropOp31
 70
     1
102
RTVSPost2010Prop32
280
     0
102
RTVSPost2010PropOp32
 70
     1
102
RTVSPost2010Prop33
280
     0
102
RTVSPost2010PropOp33
 70
     1
102
RTVSPost2010Prop34
280
     0
102
RTVSPost2010PropOp34
 70
     1
102
RTVSPost2010Prop35
280
     0
102
RTVSPost2010PropOp35
 70
     1
102
RTVSPost2010Prop36
280
     0
102
RTVSPost2010PropOp36
 70
     1
102
RTVSPost2010Prop37
 90
       50
102
RTVSPost2010PropOp37
 70
     1
102
RTVSPost2010Prop38
140
0.0
102
RTVSPost2010PropOp38
 70
     1
102
RTVSPost2010Prop39
140
1.0
102
RTVSPost2010PropOp39
 70
     1
102
RTVSPost2010Prop40
 90
        0
102
RTVSPost2010PropOp40
 70
     1
102
RTVSPost2010Prop41ColorIndex
 90
       18
102
RTVSPost2010Prop41ColorRGB
 90
        0
102
RTVSPost2010PropOp41
 70
     1
102
RTVSPost2010Prop42
 90
       50
102
RTVSPost2010PropOp42
 70
     1
102
RTVSPost2010Prop43
 90
        3
102
RTVSPost2010PropOp43
 70
     1
102
RTVSPost2010Prop44ColorIndex
 90
        5
102
RTVSPost2010Prop44ColorRGB
 90
      255
102
RTVSPost2010PropOp44
 70
     1
102
RTVSPost2010Prop45
280
     0
102
RTVSPost2010PropOp45
 70
     1
102
RTVSPost2010Prop46
 90
       50
102
RTVSPost2010PropOp46
 70
     1
102
RTVSPost2010Prop47
 90
       50
102
RTVSPost2010PropOp47
 70
     1
102
RTVSPost2010Prop48
 90
       50
102
RTVSPost2010PropOp48
 70
     1
102
RTVSPost2010Prop49
280
     0
102
RTVSPost2010PropOp49
 70
     1
102
RTVSPost2010Prop50
 90
       50
102
RTVSPost2010PropOp50
 70
     1
102
RTVSPost2010Prop51ColorIndex
 90
      256
102
RTVSPost2010Prop51ColorRGB
 90
-16777216
102
RTVSPost2010PropOp51
 70
     0
102
RTVSPost2010Prop52
140
1.0
102
RTVSPost2010PropOp52
 70
     0
102
RTVSPost2010Prop53
 90
        2
102
RTVSPost2010PropOp53
 70
     1
102
RTVSPost2010Prop54
  1
strokes_ogs.tif
102
RTVSPost2010PropOp54
 70
     1
102
RTVSPost2010Prop55
280
     0
102
RTVSPost2010PropOp55
 70
     1
102
RTVSPost2010Prop56
140
1.0
102
RTVSPost2010PropOp56
 70
     1
102
RTVSPost2010Prop57
140
1.0
102
RTVSPost2010PropOp57
 70
     1
  0
XRECORD
  5
3B9
102
{ACAD_REACTORS
330
3B8
102
}
330
3B8
100
AcDbXrecord
280
     1
102
RTVSPost2010Prop28
280
     0
102
RTVSPost2010PropOp28
 70
     1
102
RTVSPost2010Prop29
280
     1
102
RTVSPost2010PropOp29
 70
     1
102
RTVSPost2010Prop30
280
     1
102
RTVSPost2010PropOp30
 70
     1
102
RTVSPost2010Prop31
280
     0
102
RTVSPost2010PropOp31
 70
     1
102
RTVSPost2010Prop32
280
     0
102
RTVSPost2010PropOp32
 70
     1
102
RTVSPost2010Prop33
280
     0
102
RTVSPost2010PropOp33
 70
     1
102
RTVSPost2010Prop34
280
     0
102
RTVSPost2010PropOp34
 70
     1
102
RTVSPost2010Prop35
280
     0
102
RTVSPost2010PropOp35
 70
     1
102
RTVSPost2010Prop36
280
     0
102
RTVSPost2010PropOp36
 70
     1
102
RTVSPost2010Prop37
 90
       50
102
RTVSPost2010PropOp37
 70
     1
102
RTVSPost2010Prop38
140
0.0
102
RTVSPost2010PropOp38
 70
     1
102
RTVSPost2010Prop39
140
1.0
102
RTVSPost2010PropOp39
 70
     1
102
RTVSPost2010Prop40
 90
        0
102
RTVSPost2010PropOp40
 70
     1
102
RTVSPost2010Prop41ColorIndex
 90
       18
102
RTVSPost2010Prop41ColorRGB
 90
        0
102
RTVSPost2010PropOp41
 70
     1
102
RTVSPost2010Prop42
 90
       50
102
RTVSPost2010PropOp42
 70
     1
102
RTVSPost2010Prop43
 90
        3
102
RTVSPost2010PropOp43
 70
     1
102
RTVSPost2010Prop44ColorIndex
 90
        5
102
RTVSPost2010Prop44ColorRGB
 90
      255
102
RTVSPost2010PropOp44
 70
     1
102
RTVSPost2010Prop45
280
     0
102
RTVSPost2010PropOp45
 70
     1
102
RTVSPost2010Prop46
 90
       50
102
RTVSPost2010PropOp46
 70
     1
102
RTVSPost2010Prop47
 90
       50
102
RTVSPost2010PropOp47
 70
     1
102
RTVSPost2010Prop48
 90
       50
102
RTVSPost2010PropOp48
 70
     1
102
RTVSPost2010Prop49
280
     0
102
RTVSPost2010PropOp49
 70
     1
102
RTVSPost2010Prop50
 90
       50
102
RTVSPost2010PropOp50
 70
     1
102
RTVSPost2010Prop51ColorIndex
 90
      256
102
RTVSPost2010Prop51ColorRGB
 90
-16777216
102
RTVSPost2010PropOp51
 70
     0
102
RTVSPost2010Prop52
140
1.0
102
RTVSPost2010PropOp52
 70
     0
102
RTVSPost2010Prop53
 90
        2
102
RTVSPost2010PropOp53
 70
     1
102
RTVSPost2010Prop54
  1
strokes_ogs.tif
102
RTVSPost2010PropOp54
 70
     1
102
RTVSPost2010Prop55
280
     0
102
RTVSPost2010PropOp55
 70
     1
102
RTVSPost2010Prop56
140
1.0
102
RTVSPost2010PropOp56
 70
     1
102
RTVSPost2010Prop57
140
1.0
102
RTVSPost2010PropOp57
 70
     1
  0
XRECORD
  5
3AD
102
{ACAD_REACTORS
330
3AC
102
}
330
3AC
100
AcDbXrecord
280
     1
102
RTVSPost2010Prop28
280
     0
102
RTVSPost2010PropOp28
 70
     1
102
RTVSPost2010Prop29
280
     1
102
RTVSPost2010PropOp29
 70
     1
102
RTVSPost2010Prop30
280
     1
102
RTVSPost2010PropOp30
 70
     1
102
RTVSPost2010Prop31
280
     0
102
RTVSPost2010PropOp31
 70
     1
102
RTVSPost2010Prop32
280
     0
102
RTVSPost2010PropOp32
 70
     1
102
RTVSPost2010Prop33
280
     0
102
RTVSPost2010PropOp33
 70
     1
102
RTVSPost2010Prop34
280
     0
102
RTVSPost2010PropOp34
 70
     1
102
RTVSPost2010Prop35
280
     0
102
RTVSPost2010PropOp35
 70
     1
102
RTVSPost2010Prop36
280
     0
102
RTVSPost2010PropOp36
 70
     1
102
RTVSPost2010Prop37
 90
       50
102
RTVSPost2010PropOp37
 70
     1
102
RTVSPost2010Prop38
140
0.0
102
RTVSPost2010PropOp38
 70
     1
102
RTVSPost2010Prop39
140
1.0
102
RTVSPost2010PropOp39
 70
     1
102
RTVSPost2010Prop40
 90
        0
102
RTVSPost2010PropOp40
 70
     1
102
RTVSPost2010Prop41ColorIndex
 90
       18
102
RTVSPost2010Prop41ColorRGB
 90
        0
102
RTVSPost2010PropOp41
 70
     1
102
RTVSPost2010Prop42
 90
       50
102
RTVSPost2010PropOp42
 70
     1
102
RTVSPost2010Prop43
 90
        3
102
RTVSPost2010PropOp43
 70
     1
102
RTVSPost2010Prop44ColorIndex
 90
        5
102
RTVSPost2010Prop44ColorRGB
 90
      255
102
RTVSPost2010PropOp44
 70
     1
102
RTVSPost2010Prop45
280
     0
102
RTVSPost2010PropOp45
 70
     1
102
RTVSPost2010Prop46
 90
       50
102
RTVSPost2010PropOp46
 70
     1
102
RTVSPost2010Prop47
 90
       50
102
RTVSPost2010PropOp47
 70
     1
102
RTVSPost2010Prop48
 90
       50
102
RTVSPost2010PropOp48
 70
     1
102
RTVSPost2010Prop49
280
     0
102
RTVSPost2010PropOp49
 70
     1
102
RTVSPost2010Prop50
 90
       50
102
RTVSPost2010PropOp50
 70
     1
102
RTVSPost2010Prop51ColorIndex
 90
      256
102
RTVSPost2010Prop51ColorRGB
 90
-16777216
102
RTVSPost2010PropOp51
 70
     0
102
RTVSPost2010Prop52
140
1.0
102
RTVSPost2010PropOp52
 70
     0
102
RTVSPost2010Prop53
 90
        2
102
RTVSPost2010PropOp53
 70
     1
102
RTVSPost2010Prop54
  1
strokes_ogs.tif
102
RTVSPost2010PropOp54
 70
     1
102
RTVSPost2010Prop55
280
     0
102
RTVSPost2010PropOp55
 70
     1
102
RTVSPost2010Prop56
140
1.0
102
RTVSPost2010PropOp56
 70
     1
102
RTVSPost2010Prop57
140
1.0
102
RTVSPost2010PropOp57
 70
     1
  0
XRECORD
  5
3AF
102
{ACAD_REACTORS
330
3AE
102
}
330
3AE
100
AcDbXrecord
280
     1
102
RTVSPost2010Prop28
280
     0
102
RTVSPost2010PropOp28
 70
     1
102
RTVSPost2010Prop29
280
     1
102
RTVSPost2010PropOp29
 70
     1
102
RTVSPost2010Prop30
280
     1
102
RTVSPost2010PropOp30
 70
     1
102
RTVSPost2010Prop31
280
     0
102
RTVSPost2010PropOp31
 70
     1
102
RTVSPost2010Prop32
280
     0
102
RTVSPost2010PropOp32
 70
     1
102
RTVSPost2010Prop33
280
     0
102
RTVSPost2010PropOp33
 70
     1
102
RTVSPost2010Prop34
280
     0
102
RTVSPost2010PropOp34
 70
     1
102
RTVSPost2010Prop35
280
     0
102
RTVSPost2010PropOp35
 70
     1
102
RTVSPost2010Prop36
280
     0
102
RTVSPost2010PropOp36
 70
     1
102
RTVSPost2010Prop37
 90
       50
102
RTVSPost2010PropOp37
 70
     1
102
RTVSPost2010Prop38
140
0.0
102
RTVSPost2010PropOp38
 70
     1
102
RTVSPost2010Prop39
140
1.0
102
RTVSPost2010PropOp39
 70
     1
102
RTVSPost2010Prop40
 90
        0
102
RTVSPost2010PropOp40
 70
     1
102
RTVSPost2010Prop41ColorIndex
 90
       18
102
RTVSPost2010Prop41ColorRGB
 90
        0
102
RTVSPost2010PropOp41
 70
     1
102
RTVSPost2010Prop42
 90
       50
102
RTVSPost2010PropOp42
 70
     1
102
RTVSPost2010Prop43
 90
        3
102
RTVSPost2010PropOp43
 70
     1
102
RTVSPost2010Prop44ColorIndex
 90
        5
102
RTVSPost2010Prop44ColorRGB
 90
      255
102
RTVSPost2010PropOp44
 70
     1
102
RTVSPost2010Prop45
280
     0
102
RTVSPost2010PropOp45
 70
     1
102
RTVSPost2010Prop46
 90
       50
102
RTVSPost2010PropOp46
 70
     1
102
RTVSPost2010Prop47
 90
       50
102
RTVSPost2010PropOp47
 70
     1
102
RTVSPost2010Prop48
 90
       50
102
RTVSPost2010PropOp48
 70
     1
102
RTVSPost2010Prop49
280
     0
102
RTVSPost2010PropOp49
 70
     1
102
RTVSPost2010Prop50
 90
       50
102
RTVSPost2010PropOp50
 70
     1
102
RTVSPost2010Prop51ColorIndex
 90
      256
102
RTVSPost2010Prop51ColorRGB
 90
-16777216
102
RTVSPost2010PropOp51
 70
     0
102
RTVSPost2010Prop52
140
1.0
102
RTVSPost2010PropOp52
 70
     0
102
RTVSPost2010Prop53
 90
        2
102
RTVSPost2010PropOp53
 70
     1
102
RTVSPost2010Prop54
  1
strokes_ogs.tif
102
RTVSPost2010PropOp54
 70
     1
102
RTVSPost2010Prop55
280
     0
102
RTVSPost2010PropOp55
 70
     1
102
RTVSPost2010Prop56
140
1.0
102
RTVSPost2010PropOp56
 70
     1
102
RTVSPost2010Prop57
140
1.0
102
RTVSPost2010PropOp57
 70
     1
  0
XRECORD
  5
3BF
102
{ACAD_REACTORS
330
3BE
102
}
330
3BE
100
AcDbXrecord
280
     1
102
RTVSPost2010Prop28
280
     0
102
RTVSPost2010PropOp28
 70
     0
102
RTVSPost2010Prop29
280
     1
102
RTVSPost2010PropOp29
 70
     0
102
RTVSPost2010Prop30
280
     1
102
RTVSPost2010PropOp30
 70
     0
102
RTVSPost2010Prop31
280
     0
102
RTVSPost2010PropOp31
 70
     0
102
RTVSPost2010Prop32
280
     0
102
RTVSPost2010PropOp32
 70
     0
102
RTVSPost2010Prop33
280
     0
102
RTVSPost2010PropOp33
 70
     0
102
RTVSPost2010Prop34
280
     0
102
RTVSPost2010PropOp34
 70
     0
102
RTVSPost2010Prop35
280
     0
102
RTVSPost2010PropOp35
 70
     0
102
RTVSPost2010Prop36
280
     0
102
RTVSPost2010PropOp36
 70
     0
102
RTVSPost2010Prop37
 90
       50
102
RTVSPost2010PropOp37
 70
     0
102
RTVSPost2010Prop38
140
0.0
102
RTVSPost2010PropOp38
 70
     0
102
RTVSPost2010Prop39
140
1.0
102
RTVSPost2010PropOp39
 70
     0
102
RTVSPost2010Prop40
 90
        0
102
RTVSPost2010PropOp40
 70
     0
102
RTVSPost2010Prop41ColorIndex
 90
       18
102
RTVSPost2010Prop41ColorRGB
 90
        0
102
RTVSPost2010PropOp41
 70
     0
102
RTVSPost2010Prop42
 90
       50
102
RTVSPost2010PropOp42
 70
     0
102
RTVSPost2010Prop43
 90
        3
102
RTVSPost2010PropOp43
 70
     0
102
RTVSPost2010Prop44ColorIndex
 90
        5
102
RTVSPost2010Prop44ColorRGB
 90
      255
102
RTVSPost2010PropOp44
 70
     0
102
RTVSPost2010Prop45
280
     0
102
RTVSPost2010PropOp45
 70
     0
102
RTVSPost2010Prop46
 90
       50
102
RTVSPost2010PropOp46
 70
     0
102
RTVSPost2010Prop47
 90
       50
102
RTVSPost2010PropOp47
 70
     0
102
RTVSPost2010Prop48
 90
       50
102
RTVSPost2010PropOp48
 70
     0
102
RTVSPost2010Prop49
280
     0
102
RTVSPost2010PropOp49
 70
     0
102
RTVSPost2010Prop50
 90
       50
102
RTVSPost2010PropOp50
 70
     0
102
RTVSPost2010Prop51ColorIndex
 90
      256
102
RTVSPost2010Prop51ColorRGB
 90
-16777216
102
RTVSPost2010PropOp51
 70
     0
102
RTVSPost2010Prop52
140
1.0
102
RTVSPost2010PropOp52
 70
     0
102
RTVSPost2010Prop53
 90
        2
102
RTVSPost2010PropOp53
 70
     0
102
RTVSPost2010Prop54
  1
strokes_ogs.tif
102
RTVSPost2010PropOp54
 70
     0
102
RTVSPost2010Prop55
280
     0
102
RTVSPost2010PropOp55
 70
     0
102
RTVSPost2010Prop56
140
1.0
102
RTVSPost2010PropOp56
 70
     0
102
RTVSPost2010Prop57
140
1.0
102
RTVSPost2010PropOp57
 70
     0
  0
XRECORD
  5
3B7
102
{ACAD_REACTORS
330
3B6
102
}
330
3B6
100
AcDbXrecord
280
     1
102
RTVSPost2010Prop28
280
     0
102
RTVSPost2010PropOp28
 70
     1
102
RTVSPost2010Prop29
280
     1
102
RTVSPost2010PropOp29
 70
     1
102
RTVSPost2010Prop30
280
     1
102
RTVSPost2010PropOp30
 70
     1
102
RTVSPost2010Prop31
280
     0
102
RTVSPost2010PropOp31
 70
     1
102
RTVSPost2010Prop32
280
     0
102
RTVSPost2010PropOp32
 70
     1
102
RTVSPost2010Prop33
280
     0
102
RTVSPost2010PropOp33
 70
     1
102
RTVSPost2010Prop34
280
     0
102
RTVSPost2010PropOp34
 70
     1
102
RTVSPost2010Prop35
280
     0
102
RTVSPost2010PropOp35
 70
     1
102
RTVSPost2010Prop36
280
     0
102
RTVSPost2010PropOp36
 70
     1
102
RTVSPost2010Prop37
 90
       50
102
RTVSPost2010PropOp37
 70
     1
102
RTVSPost2010Prop38
140
0.0
102
RTVSPost2010PropOp38
 70
     1
102
RTVSPost2010Prop39
140
1.0
102
RTVSPost2010PropOp39
 70
     1
102
RTVSPost2010Prop40
 90
        0
102
RTVSPost2010PropOp40
 70
     1
102
RTVSPost2010Prop41ColorIndex
 90
       18
102
RTVSPost2010Prop41ColorRGB
 90
        0
102
RTVSPost2010PropOp41
 70
     1
102
RTVSPost2010Prop42
 90
       50
102
RTVSPost2010PropOp42
 70
     1
102
RTVSPost2010Prop43
 90
        3
102
RTVSPost2010PropOp43
 70
     1
102
RTVSPost2010Prop44ColorIndex
 90
        5
102
RTVSPost2010Prop44ColorRGB
 90
      255
102
RTVSPost2010PropOp44
 70
     1
102
RTVSPost2010Prop45
280
     0
102
RTVSPost2010PropOp45
 70
     1
102
RTVSPost2010Prop46
 90
       50
102
RTVSPost2010PropOp46
 70
     1
102
RTVSPost2010Prop47
 90
       50
102
RTVSPost2010PropOp47
 70
     1
102
RTVSPost2010Prop48
 90
       50
102
RTVSPost2010PropOp48
 70
     1
102
RTVSPost2010Prop49
280
     0
102
RTVSPost2010PropOp49
 70
     1
102
RTVSPost2010Prop50
 90
       50
102
RTVSPost2010PropOp50
 70
     1
102
RTVSPost2010Prop51ColorIndex
 90
      256
102
RTVSPost2010Prop51ColorRGB
 90
-16777216
102
RTVSPost2010PropOp51
 70
     0
102
RTVSPost2010Prop52
140
1.0
102
RTVSPost2010PropOp52
 70
     0
102
RTVSPost2010Prop53
 90
        2
102
RTVSPost2010PropOp53
 70
     1
102
RTVSPost2010Prop54
  1
strokes_ogs.tif
102
RTVSPost2010PropOp54
 70
     1
102
RTVSPost2010Prop55
280
     0
102
RTVSPost2010PropOp55
 70
     1
102
RTVSPost2010Prop56
140
1.0
102
RTVSPost2010PropOp56
 70
     1
102
RTVSPost2010Prop57
140
1.0
102
RTVSPost2010PropOp57
 70
     1
  0
XRECORD
  5
39B
102
{ACAD_REACTORS
330
39A
102
}
330
39A
100
AcDbXrecord
280
     1
102
RTVSPost2010Prop28
280
     0
102
RTVSPost2010PropOp28
 70
     1
102
RTVSPost2010Prop29
280
     1
102
RTVSPost2010PropOp29
 70
     1
102
RTVSPost2010Prop30
280
     1
102
RTVSPost2010PropOp30
 70
     1
102
RTVSPost2010Prop31
280
     0
102
RTVSPost2010PropOp31
 70
     1
102
RTVSPost2010Prop32
280
     0
102
RTVSPost2010PropOp32
 70
     1
102
RTVSPost2010Prop33
280
     0
102
RTVSPost2010PropOp33
 70
     1
102
RTVSPost2010Prop34
280
     0
102
RTVSPost2010PropOp34
 70
     1
102
RTVSPost2010Prop35
280
     0
102
RTVSPost2010PropOp35
 70
     1
102
RTVSPost2010Prop36
280
     0
102
RTVSPost2010PropOp36
 70
     1
102
RTVSPost2010Prop37
 90
       50
102
RTVSPost2010PropOp37
 70
     1
102
RTVSPost2010Prop38
140
0.0
102
RTVSPost2010PropOp38
 70
     1
102
RTVSPost2010Prop39
140
1.0
102
RTVSPost2010PropOp39
 70
     1
102
RTVSPost2010Prop40
 90
        0
102
RTVSPost2010PropOp40
 70
     1
102
RTVSPost2010Prop41ColorIndex
 90
       18
102
RTVSPost2010Prop41ColorRGB
 90
        0
102
RTVSPost2010PropOp41
 70
     1
102
RTVSPost2010Prop42
 90
       50
102
RTVSPost2010PropOp42
 70
     1
102
RTVSPost2010Prop43
 90
        3
102
RTVSPost2010PropOp43
 70
     1
102
RTVSPost2010Prop44ColorIndex
 90
        5
102
RTVSPost2010Prop44ColorRGB
 90
      255
102
RTVSPost2010PropOp44
 70
     1
102
RTVSPost2010Prop45
280
     0
102
RTVSPost2010PropOp45
 70
     1
102
RTVSPost2010Prop46
 90
       50
102
RTVSPost2010PropOp46
 70
     1
102
RTVSPost2010Prop47
 90
       50
102
RTVSPost2010PropOp47
 70
     1
102
RTVSPost2010Prop48
 90
       50
102
RTVSPost2010PropOp48
 70
     1
102
RTVSPost2010Prop49
280
     0
102
RTVSPost2010PropOp49
 70
     1
102
RTVSPost2010Prop50
 90
       50
102
RTVSPost2010PropOp50
 70
     1
102
RTVSPost2010Prop51ColorIndex
 90
      256
102
RTVSPost2010Prop51ColorRGB
 90
-16777216
102
RTVSPost2010PropOp51
 70
     0
102
RTVSPost2010Prop52
140
1.0
102
RTVSPost2010PropOp52
 70
     0
102
RTVSPost2010Prop53
 90
        2
102
RTVSPost2010PropOp53
 70
     1
102
RTVSPost2010Prop54
  1
strokes_ogs.tif
102
RTVSPost2010PropOp54
 70
     1
102
RTVSPost2010Prop55
280
     0
102
RTVSPost2010PropOp55
 70
     1
102
RTVSPost2010Prop56
140
1.0
102
RTVSPost2010PropOp56
 70
     1
102
RTVSPost2010Prop57
140
1.0
102
RTVSPost2010PropOp57
 70
     1
  0
XRECORD
  5
39D
102
{ACAD_REACTORS
330
39C
102
}
330
39C
100
AcDbXrecord
280
     1
102
RTVSPost2010Prop28
280
     0
102
RTVSPost2010PropOp28
 70
     1
102
RTVSPost2010Prop29
280
     1
102
RTVSPost2010PropOp29
 70
     1
102
RTVSPost2010Prop30
280
     1
102
RTVSPost2010PropOp30
 70
     1
102
RTVSPost2010Prop31
280
     0
102
RTVSPost2010PropOp31
 70
     1
102
RTVSPost2010Prop32
280
     0
102
RTVSPost2010PropOp32
 70
     1
102
RTVSPost2010Prop33
280
     0
102
RTVSPost2010PropOp33
 70
     1
102
RTVSPost2010Prop34
280
     0
102
RTVSPost2010PropOp34
 70
     1
102
RTVSPost2010Prop35
280
     0
102
RTVSPost2010PropOp35
 70
     1
102
RTVSPost2010Prop36
280
     0
102
RTVSPost2010PropOp36
 70
     1
102
RTVSPost2010Prop37
 90
       50
102
RTVSPost2010PropOp37
 70
     1
102
RTVSPost2010Prop38
140
0.0
102
RTVSPost2010PropOp38
 70
     1
102
RTVSPost2010Prop39
140
1.0
102
RTVSPost2010PropOp39
 70
     1
102
RTVSPost2010Prop40
 90
        0
102
RTVSPost2010PropOp40
 70
     1
102
RTVSPost2010Prop41ColorIndex
 90
       18
102
RTVSPost2010Prop41ColorRGB
 90
        0
102
RTVSPost2010PropOp41
 70
     1
102
RTVSPost2010Prop42
 90
       50
102
RTVSPost2010PropOp42
 70
     1
102
RTVSPost2010Prop43
 90
        3
102
RTVSPost2010PropOp43
 70
     1
102
RTVSPost2010Prop44ColorIndex
 90
        5
102
RTVSPost2010Prop44ColorRGB
 90
      255
102
RTVSPost2010PropOp44
 70
     1
102
RTVSPost2010Prop45
280
     0
102
RTVSPost2010PropOp45
 70
     1
102
RTVSPost2010Prop46
 90
       50
102
RTVSPost2010PropOp46
 70
     1
102
RTVSPost2010Prop47
 90
       50
102
RTVSPost2010PropOp47
 70
     1
102
RTVSPost2010Prop48
 90
       50
102
RTVSPost2010PropOp48
 70
     1
102
RTVSPost2010Prop49
280
     0
102
RTVSPost2010PropOp49
 70
     1
102
RTVSPost2010Prop50
 90
       50
102
RTVSPost2010PropOp50
 70
     1
102
RTVSPost2010Prop51ColorIndex
 90
      256
102
RTVSPost2010Prop51ColorRGB
 90
-16777216
102
RTVSPost2010PropOp51
 70
     0
102
RTVSPost2010Prop52
140
1.0
102
RTVSPost2010PropOp52
 70
     0
102
RTVSPost2010Prop53
 90
        2
102
RTVSPost2010PropOp53
 70
     1
102
RTVSPost2010Prop54
  1
strokes_ogs.tif
102
RTVSPost2010PropOp54
 70
     1
102
RTVSPost2010Prop55
280
     0
102
RTVSPost2010PropOp55
 70
     1
102
RTVSPost2010Prop56
140
1.0
102
RTVSPost2010PropOp56
 70
     1
102
RTVSPost2010Prop57
140
1.0
102
RTVSPost2010PropOp57
 70
     1
  0
XRECORD
  5
39F
102
{ACAD_REACTORS
330
39E
102
}
330
39E
100
AcDbXrecord
280
     1
102
RTVSPost2010Prop28
280
     0
102
RTVSPost2010PropOp28
 70
     1
102
RTVSPost2010Prop29
280
     1
102
RTVSPost2010PropOp29
 70
     1
102
RTVSPost2010Prop30
280
     1
102
RTVSPost2010PropOp30
 70
     1
102
RTVSPost2010Prop31
280
     0
102
RTVSPost2010PropOp31
 70
     1
102
RTVSPost2010Prop32
280
     0
102
RTVSPost2010PropOp32
 70
     1
102
RTVSPost2010Prop33
280
     0
102
RTVSPost2010PropOp33
 70
     1
102
RTVSPost2010Prop34
280
     0
102
RTVSPost2010PropOp34
 70
     1
102
RTVSPost2010Prop35
280
     0
102
RTVSPost2010PropOp35
 70
     1
102
RTVSPost2010Prop36
280
     0
102
RTVSPost2010PropOp36
 70
     1
102
RTVSPost2010Prop37
 90
       50
102
RTVSPost2010PropOp37
 70
     1
102
RTVSPost2010Prop38
140
0.0
102
RTVSPost2010PropOp38
 70
     1
102
RTVSPost2010Prop39
140
1.0
102
RTVSPost2010PropOp39
 70
     1
102
RTVSPost2010Prop40
 90
        0
102
RTVSPost2010PropOp40
 70
     1
102
RTVSPost2010Prop41ColorIndex
 90
       18
102
RTVSPost2010Prop41ColorRGB
 90
        0
102
RTVSPost2010PropOp41
 70
     1
102
RTVSPost2010Prop42
 90
       50
102
RTVSPost2010PropOp42
 70
     1
102
RTVSPost2010Prop43
 90
        3
102
RTVSPost2010PropOp43
 70
     1
102
RTVSPost2010Prop44ColorIndex
 90
        5
102
RTVSPost2010Prop44ColorRGB
 90
      255
102
RTVSPost2010PropOp44
 70
     1
102
RTVSPost2010Prop45
280
     0
102
RTVSPost2010PropOp45
 70
     1
102
RTVSPost2010Prop46
 90
       50
102
RTVSPost2010PropOp46
 70
     1
102
RTVSPost2010Prop47
 90
       50
102
RTVSPost2010PropOp47
 70
     1
102
RTVSPost2010Prop48
 90
       50
102
RTVSPost2010PropOp48
 70
     1
102
RTVSPost2010Prop49
280
     0
102
RTVSPost2010PropOp49
 70
     1
102
RTVSPost2010Prop50
 90
       50
102
RTVSPost2010PropOp50
 70
     1
102
RTVSPost2010Prop51ColorIndex
 90
      256
102
RTVSPost2010Prop51ColorRGB
 90
-16777216
102
RTVSPost2010PropOp51
 70
     0
102
RTVSPost2010Prop52
140
1.0
102
RTVSPost2010PropOp52
 70
     0
102
RTVSPost2010Prop53
 90
        2
102
RTVSPost2010PropOp53
 70
     1
102
RTVSPost2010Prop54
  1
strokes_ogs.tif
102
RTVSPost2010PropOp54
 70
     1
102
RTVSPost2010Prop55
280
     0
102
RTVSPost2010PropOp55
 70
     1
102
RTVSPost2010Prop56
140
1.0
102
RTVSPost2010PropOp56
 70
     1
102
RTVSPost2010Prop57
140
1.0
102
RTVSPost2010PropOp57
 70
     1
  0
XRECORD
  5
3A1
102
{ACAD_REACTORS
330
3A0
102
}
330
3A0
100
AcDbXrecord
280
     1
102
RTVSPost2010Prop28
280
     0
102
RTVSPost2010PropOp28
 70
     1
102
RTVSPost2010Prop29
280
     1
102
RTVSPost2010PropOp29
 70
     1
102
RTVSPost2010Prop30
280
     1
102
RTVSPost2010PropOp30
 70
     1
102
RTVSPost2010Prop31
280
     0
102
RTVSPost2010PropOp31
 70
     1
102
RTVSPost2010Prop32
280
     0
102
RTVSPost2010PropOp32
 70
     1
102
RTVSPost2010Prop33
280
     0
102
RTVSPost2010PropOp33
 70
     1
102
RTVSPost2010Prop34
280
     0
102
RTVSPost2010PropOp34
 70
     1
102
RTVSPost2010Prop35
280
     0
102
RTVSPost2010PropOp35
 70
     1
102
RTVSPost2010Prop36
280
     0
102
RTVSPost2010PropOp36
 70
     1
102
RTVSPost2010Prop37
 90
       50
102
RTVSPost2010PropOp37
 70
     1
102
RTVSPost2010Prop38
140
0.0
102
RTVSPost2010PropOp38
 70
     1
102
RTVSPost2010Prop39
140
1.0
102
RTVSPost2010PropOp39
 70
     1
102
RTVSPost2010Prop40
 90
        0
102
RTVSPost2010PropOp40
 70
     1
102
RTVSPost2010Prop41ColorIndex
 90
       18
102
RTVSPost2010Prop41ColorRGB
 90
        0
102
RTVSPost2010PropOp41
 70
     1
102
RTVSPost2010Prop42
 90
       50
102
RTVSPost2010PropOp42
 70
     1
102
RTVSPost2010Prop43
 90
        3
102
RTVSPost2010PropOp43
 70
     1
102
RTVSPost2010Prop44ColorIndex
 90
        5
102
RTVSPost2010Prop44ColorRGB
 90
      255
102
RTVSPost2010PropOp44
 70
     1
102
RTVSPost2010Prop45
280
     0
102
RTVSPost2010PropOp45
 70
     1
102
RTVSPost2010Prop46
 90
       50
102
RTVSPost2010PropOp46
 70
     1
102
RTVSPost2010Prop47
 90
       50
102
RTVSPost2010PropOp47
 70
     1
102
RTVSPost2010Prop48
 90
       50
102
RTVSPost2010PropOp48
 70
     1
102
RTVSPost2010Prop49
280
     0
102
RTVSPost2010PropOp49
 70
     1
102
RTVSPost2010Prop50
 90
       50
102
RTVSPost2010PropOp50
 70
     1
102
RTVSPost2010Prop51ColorIndex
 90
      256
102
RTVSPost2010Prop51ColorRGB
 90
-16777216
102
RTVSPost2010PropOp51
 70
     0
102
RTVSPost2010Prop52
140
1.0
102
RTVSPost2010PropOp52
 70
     0
102
RTVSPost2010Prop53
 90
        2
102
RTVSPost2010PropOp53
 70
     1
102
RTVSPost2010Prop54
  1
strokes_ogs.tif
102
RTVSPost2010PropOp54
 70
     1
102
RTVSPost2010Prop55
280
     0
102
RTVSPost2010PropOp55
 70
     1
102
RTVSPost2010Prop56
140
1.0
102
RTVSPost2010PropOp56
 70
     1
102
RTVSPost2010Prop57
140
1.0
102
RTVSPost2010PropOp57
 70
     1
  0
XRECORD
  5
3A7
102
{ACAD_REACTORS
330
3A6
102
}
330
3A6
100
AcDbXrecord
280
     1
102
RTVSPost2010Prop28
280
     0
102
RTVSPost2010PropOp28
 70
     1
102
RTVSPost2010Prop29
280
     1
102
RTVSPost2010PropOp29
 70
     1
102
RTVSPost2010Prop30
280
     1
102
RTVSPost2010PropOp30
 70
     1
102
RTVSPost2010Prop31
280
     0
102
RTVSPost2010PropOp31
 70
     1
102
RTVSPost2010Prop32
280
     0
102
RTVSPost2010PropOp32
 70
     1
102
RTVSPost2010Prop33
280
     0
102
RTVSPost2010PropOp33
 70
     1
102
RTVSPost2010Prop34
280
     0
102
RTVSPost2010PropOp34
 70
     1
102
RTVSPost2010Prop35
280
     0
102
RTVSPost2010PropOp35
 70
     1
102
RTVSPost2010Prop36
280
     0
102
RTVSPost2010PropOp36
 70
     1
102
RTVSPost2010Prop37
 90
       50
102
RTVSPost2010PropOp37
 70
     1
102
RTVSPost2010Prop38
140
0.0
102
RTVSPost2010PropOp38
 70
     1
102
RTVSPost2010Prop39
140
1.0
102
RTVSPost2010PropOp39
 70
     1
102
RTVSPost2010Prop40
 90
        0
102
RTVSPost2010PropOp40
 70
     1
102
RTVSPost2010Prop41ColorIndex
 90
       18
102
RTVSPost2010Prop41ColorRGB
 90
        0
102
RTVSPost2010PropOp41
 70
     1
102
RTVSPost2010Prop42
 90
       50
102
RTVSPost2010PropOp42
 70
     1
102
RTVSPost2010Prop43
 90
        3
102
RTVSPost2010PropOp43
 70
     1
102
RTVSPost2010Prop44ColorIndex
 90
        5
102
RTVSPost2010Prop44ColorRGB
 90
      255
102
RTVSPost2010PropOp44
 70
     1
102
RTVSPost2010Prop45
280
     0
102
RTVSPost2010PropOp45
 70
     1
102
RTVSPost2010Prop46
 90
       50
102
RTVSPost2010PropOp46
 70
     1
102
RTVSPost2010Prop47
 90
       50
102
RTVSPost2010PropOp47
 70
     1
102
RTVSPost2010Prop48
 90
       50
102
RTVSPost2010PropOp48
 70
     1
102
RTVSPost2010Prop49
280
     0
102
RTVSPost2010PropOp49
 70
     1
102
RTVSPost2010Prop50
 90
       50
102
RTVSPost2010PropOp50
 70
     1
102
RTVSPost2010Prop51ColorIndex
 90
      256
102
RTVSPost2010Prop51ColorRGB
 90
-16777216
102
RTVSPost2010PropOp51
 70
     0
102
RTVSPost2010Prop52
140
1.0
102
RTVSPost2010PropOp52
 70
     0
102
RTVSPost2010Prop53
 90
        2
102
RTVSPost2010PropOp53
 70
     1
102
RTVSPost2010Prop54
  1
strokes_ogs.tif
102
RTVSPost2010PropOp54
 70
     1
102
RTVSPost2010Prop55
280
     0
102
RTVSPost2010PropOp55
 70
     1
102
RTVSPost2010Prop56
140
1.0
102
RTVSPost2010PropOp56
 70
     1
102
RTVSPost2010Prop57
140
1.0
102
RTVSPost2010PropOp57
 70
     1
  0
XRECORD
  5
3BB
102
{ACAD_REACTORS
330
3BA
102
}
330
3BA
100
AcDbXrecord
280
     1
102
RTVSPost2010Prop28
280
     0
102
RTVSPost2010PropOp28
 70
     0
102
RTVSPost2010Prop29
280
     1
102
RTVSPost2010PropOp29
 70
     0
102
RTVSPost2010Prop30
280
     1
102
RTVSPost2010PropOp30
 70
     0
102
RTVSPost2010Prop31
280
     0
102
RTVSPost2010PropOp31
 70
     0
102
RTVSPost2010Prop32
280
     0
102
RTVSPost2010PropOp32
 70
     0
102
RTVSPost2010Prop33
280
     0
102
RTVSPost2010PropOp33
 70
     0
102
RTVSPost2010Prop34
280
     0
102
RTVSPost2010PropOp34
 70
     0
102
RTVSPost2010Prop35
280
     0
102
RTVSPost2010PropOp35
 70
     0
102
RTVSPost2010Prop36
280
     0
102
RTVSPost2010PropOp36
 70
     0
102
RTVSPost2010Prop37
 90
       50
102
RTVSPost2010PropOp37
 70
     0
102
RTVSPost2010Prop38
140
0.0
102
RTVSPost2010PropOp38
 70
     0
102
RTVSPost2010Prop39
140
1.0
102
RTVSPost2010PropOp39
 70
     0
102
RTVSPost2010Prop40
 90
        0
102
RTVSPost2010PropOp40
 70
     0
102
RTVSPost2010Prop41ColorIndex
 90
       18
102
RTVSPost2010Prop41ColorRGB
 90
        0
102
RTVSPost2010PropOp41
 70
     0
102
RTVSPost2010Prop42
 90
       50
102
RTVSPost2010PropOp42
 70
     0
102
RTVSPost2010Prop43
 90
        3
102
RTVSPost2010PropOp43
 70
     0
102
RTVSPost2010Prop44ColorIndex
 90
        5
102
RTVSPost2010Prop44ColorRGB
 90
      255
102
RTVSPost2010PropOp44
 70
     0
102
RTVSPost2010Prop45
280
     0
102
RTVSPost2010PropOp45
 70
     0
102
RTVSPost2010Prop46
 90
       50
102
RTVSPost2010PropOp46
 70
     0
102
RTVSPost2010Prop47
 90
       50
102
RTVSPost2010PropOp47
 70
     0
102
RTVSPost2010Prop48
 90
       50
102
RTVSPost2010PropOp48
 70
     0
102
RTVSPost2010Prop49
280
     0
102
RTVSPost2010PropOp49
 70
     0
102
RTVSPost2010Prop50
 90
       50
102
RTVSPost2010PropOp50
 70
     0
102
RTVSPost2010Prop51ColorIndex
 90
      256
102
RTVSPost2010Prop51ColorRGB
 90
-16777216
102
RTVSPost2010PropOp51
 70
     0
102
RTVSPost2010Prop52
140
1.0
102
RTVSPost2010PropOp52
 70
     0
102
RTVSPost2010Prop53
 90
        2
102
RTVSPost2010PropOp53
 70
     0
102
RTVSPost2010Prop54
  1
strokes_ogs.tif
102
RTVSPost2010PropOp54
 70
     0
102
RTVSPost2010Prop55
280
     0
102
RTVSPost2010PropOp55
 70
     0
102
RTVSPost2010Prop56
140
1.0
102
RTVSPost2010PropOp56
 70
     0
102
RTVSPost2010Prop57
140
1.0
102
RTVSPost2010PropOp57
 70
     0
  0
XRECORD
  5
3B5
102
{ACAD_REACTORS
330
3B4
102
}
330
3B4
100
AcDbXrecord
280
     1
102
RTVSPost2010Prop28
280
     0
102
RTVSPost2010PropOp28
 70
     1
102
RTVSPost2010Prop29
280
     1
102
RTVSPost2010PropOp29
 70
     1
102
RTVSPost2010Prop30
280
     1
102
RTVSPost2010PropOp30
 70
     1
102
RTVSPost2010Prop31
280
     0
102
RTVSPost2010PropOp31
 70
     1
102
RTVSPost2010Prop32
280
     0
102
RTVSPost2010PropOp32
 70
     1
102
RTVSPost2010Prop33
280
     0
102
RTVSPost2010PropOp33
 70
     1
102
RTVSPost2010Prop34
280
     0
102
RTVSPost2010PropOp34
 70
     1
102
RTVSPost2010Prop35
280
     0
102
RTVSPost2010PropOp35
 70
     1
102
RTVSPost2010Prop36
280
     0
102
RTVSPost2010PropOp36
 70
     1
102
RTVSPost2010Prop37
 90
       50
102
RTVSPost2010PropOp37
 70
     1
102
RTVSPost2010Prop38
140
0.0
102
RTVSPost2010PropOp38
 70
     1
102
RTVSPost2010Prop39
140
1.0
102
RTVSPost2010PropOp39
 70
     1
102
RTVSPost2010Prop40
 90
        0
102
RTVSPost2010PropOp40
 70
     1
102
RTVSPost2010Prop41ColorIndex
 90
       18
102
RTVSPost2010Prop41ColorRGB
 90
        0
102
RTVSPost2010PropOp41
 70
     1
102
RTVSPost2010Prop42
 90
       50
102
RTVSPost2010PropOp42
 70
     1
102
RTVSPost2010Prop43
 90
        3
102
RTVSPost2010PropOp43
 70
     1
102
RTVSPost2010Prop44ColorIndex
 90
        5
102
RTVSPost2010Prop44ColorRGB
 90
      255
102
RTVSPost2010PropOp44
 70
     1
102
RTVSPost2010Prop45
280
     0
102
RTVSPost2010PropOp45
 70
     1
102
RTVSPost2010Prop46
 90
       50
102
RTVSPost2010PropOp46
 70
     1
102
RTVSPost2010Prop47
 90
       50
102
RTVSPost2010PropOp47
 70
     1
102
RTVSPost2010Prop48
 90
       50
102
RTVSPost2010PropOp48
 70
     1
102
RTVSPost2010Prop49
280
     0
102
RTVSPost2010PropOp49
 70
     1
102
RTVSPost2010Prop50
 90
       50
102
RTVSPost2010PropOp50
 70
     1
102
RTVSPost2010Prop51ColorIndex
 90
      256
102
RTVSPost2010Prop51ColorRGB
 90
-16777216
102
RTVSPost2010PropOp51
 70
     0
102
RTVSPost2010Prop52
140
1.0
102
RTVSPost2010PropOp52
 70
     0
102
RTVSPost2010Prop53
 90
        2
102
RTVSPost2010PropOp53
 70
     1
102
RTVSPost2010Prop54
  1
strokes_ogs.tif
102
RTVSPost2010PropOp54
 70
     1
102
RTVSPost2010Prop55
280
     0
102
RTVSPost2010PropOp55
 70
     1
102
RTVSPost2010Prop56
140
1.0
102
RTVSPost2010PropOp56
 70
     1
102
RTVSPost2010Prop57
140
1.0
102
RTVSPost2010PropOp57
 70
     1
  0
XRECORD
  5
3BD
102
{ACAD_REACTORS
330
3BC
102
}
330
3BC
100
AcDbXrecord
280
     1
102
RTVSPost2010Prop28
280
     0
102
RTVSPost2010PropOp28
 70
     0
102
RTVSPost2010Prop29
280
     1
102
RTVSPost2010PropOp29
 70
     0
102
RTVSPost2010Prop30
280
     1
102
RTVSPost2010PropOp30
 70
     0
102
RTVSPost2010Prop31
280
     0
102
RTVSPost2010PropOp31
 70
     0
102
RTVSPost2010Prop32
280
     0
102
RTVSPost2010PropOp32
 70
     0
102
RTVSPost2010Prop33
280
     0
102
RTVSPost2010PropOp33
 70
     0
102
RTVSPost2010Prop34
280
     0
102
RTVSPost2010PropOp34
 70
     0
102
RTVSPost2010Prop35
280
     0
102
RTVSPost2010PropOp35
 70
     0
102
RTVSPost2010Prop36
280
     0
102
RTVSPost2010PropOp36
 70
     0
102
RTVSPost2010Prop37
 90
       50
102
RTVSPost2010PropOp37
 70
     0
102
RTVSPost2010Prop38
140
0.0
102
RTVSPost2010PropOp38
 70
     0
102
RTVSPost2010Prop39
140
1.0
102
RTVSPost2010PropOp39
 70
     0
102
RTVSPost2010Prop40
 90
        0
102
RTVSPost2010PropOp40
 70
     0
102
RTVSPost2010Prop41ColorIndex
 90
       18
102
RTVSPost2010Prop41ColorRGB
 90
        0
102
RTVSPost2010PropOp41
 70
     0
102
RTVSPost2010Prop42
 90
       50
102
RTVSPost2010PropOp42
 70
     0
102
RTVSPost2010Prop43
 90
        3
102
RTVSPost2010PropOp43
 70
     0
102
RTVSPost2010Prop44ColorIndex
 90
        5
102
RTVSPost2010Prop44ColorRGB
 90
      255
102
RTVSPost2010PropOp44
 70
     0
102
RTVSPost2010Prop45
280
     0
102
RTVSPost2010PropOp45
 70
     0
102
RTVSPost2010Prop46
 90
       50
102
RTVSPost2010PropOp46
 70
     0
102
RTVSPost2010Prop47
 90
       50
102
RTVSPost2010PropOp47
 70
     0
102
RTVSPost2010Prop48
 90
       50
102
RTVSPost2010PropOp48
 70
     0
102
RTVSPost2010Prop49
280
     0
102
RTVSPost2010PropOp49
 70
     0
102
RTVSPost2010Prop50
 90
       50
102
RTVSPost2010PropOp50
 70
     0
102
RTVSPost2010Prop51ColorIndex
 90
      256
102
RTVSPost2010Prop51ColorRGB
 90
-16777216
102
RTVSPost2010PropOp51
 70
     0
102
RTVSPost2010Prop52
140
1.0
102
RTVSPost2010PropOp52
 70
     0
102
RTVSPost2010Prop53
 90
        2
102
RTVSPost2010PropOp53
 70
     0
102
RTVSPost2010Prop54
  1
strokes_ogs.tif
102
RTVSPost2010PropOp54
 70
     0
102
RTVSPost2010Prop55
280
     0
102
RTVSPost2010PropOp55
 70
     0
102
RTVSPost2010Prop56
140
1.0
102
RTVSPost2010PropOp56
 70
     0
102
RTVSPost2010Prop57
140
1.0
102
RTVSPost2010PropOp57
 70
     0
  0
XRECORD
  5
3AB
102
{ACAD_REACTORS
330
3AA
102
}
330
3AA
100
AcDbXrecord
280
     1
102
RTVSPost2010Prop28
280
     0
102
RTVSPost2010PropOp28
 70
     1
102
RTVSPost2010Prop29
280
     1
102
RTVSPost2010PropOp29
 70
     1
102
RTVSPost2010Prop30
280
     1
102
RTVSPost2010PropOp30
 70
     1
102
RTVSPost2010Prop31
280
     0
102
RTVSPost2010PropOp31
 70
     1
102
RTVSPost2010Prop32
280
     0
102
RTVSPost2010PropOp32
 70
     1
102
RTVSPost2010Prop33
280
     0
102
RTVSPost2010PropOp33
 70
     1
102
RTVSPost2010Prop34
280
     0
102
RTVSPost2010PropOp34
 70
     1
102
RTVSPost2010Prop35
280
     0
102
RTVSPost2010PropOp35
 70
     1
102
RTVSPost2010Prop36
280
     0
102
RTVSPost2010PropOp36
 70
     1
102
RTVSPost2010Prop37
 90
       50
102
RTVSPost2010PropOp37
 70
     1
102
RTVSPost2010Prop38
140
0.0
102
RTVSPost2010PropOp38
 70
     1
102
RTVSPost2010Prop39
140
1.0
102
RTVSPost2010PropOp39
 70
     1
102
RTVSPost2010Prop40
 90
        0
102
RTVSPost2010PropOp40
 70
     1
102
RTVSPost2010Prop41ColorIndex
 90
       18
102
RTVSPost2010Prop41ColorRGB
 90
        0
102
RTVSPost2010PropOp41
 70
     1
102
RTVSPost2010Prop42
 90
       50
102
RTVSPost2010PropOp42
 70
     1
102
RTVSPost2010Prop43
 90
        3
102
RTVSPost2010PropOp43
 70
     1
102
RTVSPost2010Prop44ColorIndex
 90
        5
102
RTVSPost2010Prop44ColorRGB
 90
      255
102
RTVSPost2010PropOp44
 70
     1
102
RTVSPost2010Prop45
280
     0
102
RTVSPost2010PropOp45
 70
     1
102
RTVSPost2010Prop46
 90
       50
102
RTVSPost2010PropOp46
 70
     1
102
RTVSPost2010Prop47
 90
       50
102
RTVSPost2010PropOp47
 70
     1
102
RTVSPost2010Prop48
 90
       50
102
RTVSPost2010PropOp48
 70
     1
102
RTVSPost2010Prop49
280
     0
102
RTVSPost2010PropOp49
 70
     1
102
RTVSPost2010Prop50
 90
       50
102
RTVSPost2010PropOp50
 70
     1
102
RTVSPost2010Prop51ColorIndex
 90
      256
102
RTVSPost2010Prop51ColorRGB
 90
-16777216
102
RTVSPost2010PropOp51
 70
     0
102
RTVSPost2010Prop52
140
1.0
102
RTVSPost2010PropOp52
 70
     0
102
RTVSPost2010Prop53
 90
        2
102
RTVSPost2010PropOp53
 70
     1
102
RTVSPost2010Prop54
  1
strokes_ogs.tif
102
RTVSPost2010PropOp54
 70
     1
102
RTVSPost2010Prop55
280
     0
102
RTVSPost2010PropOp55
 70
     1
102
RTVSPost2010Prop56
140
1.0
102
RTVSPost2010PropOp56
 70
     1
102
RTVSPost2010Prop57
140
1.0
102
RTVSPost2010PropOp57
 70
     1
  0
XRECORD
  5
3C9
102
{ACAD_REACTORS
330
3C8
102
}
330
3C8
100
AcDbXrecord
280
     1
102
RTVSPost2010Prop28
280
     0
102
RTVSPost2010PropOp28
 70
     1
102
RTVSPost2010Prop29
280
     1
102
RTVSPost2010PropOp29
 70
     1
102
RTVSPost2010Prop30
280
     1
102
RTVSPost2010PropOp30
 70
     1
102
RTVSPost2010Prop31
280
     0
102
RTVSPost2010PropOp31
 70
     1
102
RTVSPost2010Prop32
280
     0
102
RTVSPost2010PropOp32
 70
     1
102
RTVSPost2010Prop33
280
     0
102
RTVSPost2010PropOp33
 70
     1
102
RTVSPost2010Prop34
280
     0
102
RTVSPost2010PropOp34
 70
     1
102
RTVSPost2010Prop35
280
     0
102
RTVSPost2010PropOp35
 70
     1
102
RTVSPost2010Prop36
280
     0
102
RTVSPost2010PropOp36
 70
     1
102
RTVSPost2010Prop37
 90
       50
102
RTVSPost2010PropOp37
 70
     1
102
RTVSPost2010Prop38
140
0.0
102
RTVSPost2010PropOp38
 70
     1
102
RTVSPost2010Prop39
140
1.0
102
RTVSPost2010PropOp39
 70
     1
102
RTVSPost2010Prop40
 90
        0
102
RTVSPost2010PropOp40
 70
     1
102
RTVSPost2010Prop41ColorIndex
 90
       18
102
RTVSPost2010Prop41ColorRGB
 90
        0
102
RTVSPost2010PropOp41
 70
     1
102
RTVSPost2010Prop42
 90
       50
102
RTVSPost2010PropOp42
 70
     1
102
RTVSPost2010Prop43
 90
        3
102
RTVSPost2010PropOp43
 70
     1
102
RTVSPost2010Prop44ColorIndex
 90
        5
102
RTVSPost2010Prop44ColorRGB
 90
      255
102
RTVSPost2010PropOp44
 70
     1
102
RTVSPost2010Prop45
280
     0
102
RTVSPost2010PropOp45
 70
     1
102
RTVSPost2010Prop46
 90
       50
102
RTVSPost2010PropOp46
 70
     1
102
RTVSPost2010Prop47
 90
       50
102
RTVSPost2010PropOp47
 70
     1
102
RTVSPost2010Prop48
 90
       50
102
RTVSPost2010PropOp48
 70
     1
102
RTVSPost2010Prop49
280
     0
102
RTVSPost2010PropOp49
 70
     1
102
RTVSPost2010Prop50
 90
       50
102
RTVSPost2010PropOp50
 70
     1
102
RTVSPost2010Prop51ColorIndex
 90
      256
102
RTVSPost2010Prop51ColorRGB
 90
-16777216
102
RTVSPost2010PropOp51
 70
     0
102
RTVSPost2010Prop52
140
1.0
102
RTVSPost2010PropOp52
 70
     0
102
RTVSPost2010Prop53
 90
        2
102
RTVSPost2010PropOp53
 70
     1
102
RTVSPost2010Prop54
  1
strokes_ogs.tif
102
RTVSPost2010PropOp54
 70
     1
102
RTVSPost2010Prop55
280
     0
102
RTVSPost2010PropOp55
 70
     1
102
RTVSPost2010Prop56
140
1.0
102
RTVSPost2010PropOp56
 70
     1
102
RTVSPost2010Prop57
140
1.0
102
RTVSPost2010PropOp57
 70
     1
  0
XRECORD
  5
3C7
102
{ACAD_REACTORS
330
3C6
102
}
330
3C6
100
AcDbXrecord
280
     1
102
RTVSPost2010Prop28
280
     0
102
RTVSPost2010PropOp28
 70
     1
102
RTVSPost2010Prop29
280
     1
102
RTVSPost2010PropOp29
 70
     1
102
RTVSPost2010Prop30
280
     1
102
RTVSPost2010PropOp30
 70
     1
102
RTVSPost2010Prop31
280
     0
102
RTVSPost2010PropOp31
 70
     1
102
RTVSPost2010Prop32
280
     0
102
RTVSPost2010PropOp32
 70
     1
102
RTVSPost2010Prop33
280
     0
102
RTVSPost2010PropOp33
 70
     1
102
RTVSPost2010Prop34
280
     0
102
RTVSPost2010PropOp34
 70
     1
102
RTVSPost2010Prop35
280
     0
102
RTVSPost2010PropOp35
 70
     1
102
RTVSPost2010Prop36
280
     0
102
RTVSPost2010PropOp36
 70
     1
102
RTVSPost2010Prop37
 90
       50
102
RTVSPost2010PropOp37
 70
     1
102
RTVSPost2010Prop38
140
0.0
102
RTVSPost2010PropOp38
 70
     1
102
RTVSPost2010Prop39
140
1.0
102
RTVSPost2010PropOp39
 70
     1
102
RTVSPost2010Prop40
 90
        0
102
RTVSPost2010PropOp40
 70
     1
102
RTVSPost2010Prop41ColorIndex
 90
       18
102
RTVSPost2010Prop41ColorRGB
 90
        0
102
RTVSPost2010PropOp41
 70
     1
102
RTVSPost2010Prop42
 90
       50
102
RTVSPost2010PropOp42
 70
     1
102
RTVSPost2010Prop43
 90
        3
102
RTVSPost2010PropOp43
 70
     1
102
RTVSPost2010Prop44ColorIndex
 90
        5
102
RTVSPost2010Prop44ColorRGB
 90
      255
102
RTVSPost2010PropOp44
 70
     1
102
RTVSPost2010Prop45
280
     0
102
RTVSPost2010PropOp45
 70
     1
102
RTVSPost2010Prop46
 90
       50
102
RTVSPost2010PropOp46
 70
     1
102
RTVSPost2010Prop47
 90
       50
102
RTVSPost2010PropOp47
 70
     1
102
RTVSPost2010Prop48
 90
       50
102
RTVSPost2010PropOp48
 70
     1
102
RTVSPost2010Prop49
280
     0
102
RTVSPost2010PropOp49
 70
     1
102
RTVSPost2010Prop50
 90
       50
102
RTVSPost2010PropOp50
 70
     1
102
RTVSPost2010Prop51ColorIndex
 90
      256
102
RTVSPost2010Prop51ColorRGB
 90
-16777216
102
RTVSPost2010PropOp51
 70
     0
102
RTVSPost2010Prop52
140
1.0
102
RTVSPost2010PropOp52
 70
     0
102
RTVSPost2010Prop53
 90
        2
102
RTVSPost2010PropOp53
 70
     1
102
RTVSPost2010Prop54
  1
strokes_ogs.tif
102
RTVSPost2010PropOp54
 70
     1
102
RTVSPost2010Prop55
280
     0
102
RTVSPost2010PropOp55
 70
     1
102
RTVSPost2010Prop56
140
1.0
102
RTVSPost2010PropOp56
 70
     1
102
RTVSPost2010Prop57
140
1.0
102
RTVSPost2010PropOp57
 70
     1
  0
XRECORD
  5
3C1
102
{ACAD_REACTORS
330
3C0
102
}
330
3C0
100
AcDbXrecord
280
     1
102
RTVSPost2010Prop28
280
     0
102
RTVSPost2010PropOp28
 70
     1
102
RTVSPost2010Prop29
280
     1
102
RTVSPost2010PropOp29
 70
     1
102
RTVSPost2010Prop30
280
     1
102
RTVSPost2010PropOp30
 70
     1
102
RTVSPost2010Prop31
280
     0
102
RTVSPost2010PropOp31
 70
     1
102
RTVSPost2010Prop32
280
     0
102
RTVSPost2010PropOp32
 70
     1
102
RTVSPost2010Prop33
280
     0
102
RTVSPost2010PropOp33
 70
     1
102
RTVSPost2010Prop34
280
     0
102
RTVSPost2010PropOp34
 70
     1
102
RTVSPost2010Prop35
280
     0
102
RTVSPost2010PropOp35
 70
     1
102
RTVSPost2010Prop36
280
     0
102
RTVSPost2010PropOp36
 70
     1
102
RTVSPost2010Prop37
 90
       50
102
RTVSPost2010PropOp37
 70
     1
102
RTVSPost2010Prop38
140
0.0
102
RTVSPost2010PropOp38
 70
     1
102
RTVSPost2010Prop39
140
1.0
102
RTVSPost2010PropOp39
 70
     1
102
RTVSPost2010Prop40
 90
        0
102
RTVSPost2010PropOp40
 70
     1
102
RTVSPost2010Prop41ColorIndex
 90
       18
102
RTVSPost2010Prop41ColorRGB
 90
        0
102
RTVSPost2010PropOp41
 70
     1
102
RTVSPost2010Prop42
 90
       50
102
RTVSPost2010PropOp42
 70
     1
102
RTVSPost2010Prop43
 90
        3
102
RTVSPost2010PropOp43
 70
     1
102
RTVSPost2010Prop44ColorIndex
 90
        5
102
RTVSPost2010Prop44ColorRGB
 90
      255
102
RTVSPost2010PropOp44
 70
     1
102
RTVSPost2010Prop45
280
     0
102
RTVSPost2010PropOp45
 70
     1
102
RTVSPost2010Prop46
 90
       50
102
RTVSPost2010PropOp46
 70
     1
102
RTVSPost2010Prop47
 90
       50
102
RTVSPost2010PropOp47
 70
     1
102
RTVSPost2010Prop48
 90
       50
102
RTVSPost2010PropOp48
 70
     1
102
RTVSPost2010Prop49
280
     0
102
RTVSPost2010PropOp49
 70
     1
102
RTVSPost2010Prop50
 90
       50
102
RTVSPost2010PropOp50
 70
     1
102
RTVSPost2010Prop51ColorIndex
 90
      256
102
RTVSPost2010Prop51ColorRGB
 90
-16777216
102
RTVSPost2010PropOp51
 70
     0
102
RTVSPost2010Prop52
140
1.0
102
RTVSPost2010PropOp52
 70
     0
102
RTVSPost2010Prop53
 90
        2
102
RTVSPost2010PropOp53
 70
     1
102
RTVSPost2010Prop54
  1
strokes_ogs.tif
102
RTVSPost2010PropOp54
 70
     1
102
RTVSPost2010Prop55
280
     0
102
RTVSPost2010PropOp55
 70
     1
102
RTVSPost2010Prop56
140
1.0
102
RTVSPost2010PropOp56
 70
     1
102
RTVSPost2010Prop57
140
1.0
102
RTVSPost2010PropOp57
 70
     1
  0
XRECORD
  5
3C3
102
{ACAD_REACTORS
330
3C2
102
}
330
3C2
100
AcDbXrecord
280
     1
102
RTVSPost2010Prop28
280
     0
102
RTVSPost2010PropOp28
 70
     1
102
RTVSPost2010Prop29
280
     1
102
RTVSPost2010PropOp29
 70
     1
102
RTVSPost2010Prop30
280
     1
102
RTVSPost2010PropOp30
 70
     1
102
RTVSPost2010Prop31
280
     0
102
RTVSPost2010PropOp31
 70
     1
102
RTVSPost2010Prop32
280
     0
102
RTVSPost2010PropOp32
 70
     1
102
RTVSPost2010Prop33
280
     0
102
RTVSPost2010PropOp33
 70
     1
102
RTVSPost2010Prop34
280
     0
102
RTVSPost2010PropOp34
 70
     1
102
RTVSPost2010Prop35
280
     0
102
RTVSPost2010PropOp35
 70
     1
102
RTVSPost2010Prop36
280
     0
102
RTVSPost2010PropOp36
 70
     1
102
RTVSPost2010Prop37
 90
       50
102
RTVSPost2010PropOp37
 70
     1
102
RTVSPost2010Prop38
140
0.0
102
RTVSPost2010PropOp38
 70
     1
102
RTVSPost2010Prop39
140
1.0
102
RTVSPost2010PropOp39
 70
     1
102
RTVSPost2010Prop40
 90
        0
102
RTVSPost2010PropOp40
 70
     1
102
RTVSPost2010Prop41ColorIndex
 90
       18
102
RTVSPost2010Prop41ColorRGB
 90
        0
102
RTVSPost2010PropOp41
 70
     1
102
RTVSPost2010Prop42
 90
       50
102
RTVSPost2010PropOp42
 70
     1
102
RTVSPost2010Prop43
 90
        3
102
RTVSPost2010PropOp43
 70
     1
102
RTVSPost2010Prop44ColorIndex
 90
        5
102
RTVSPost2010Prop44ColorRGB
 90
      255
102
RTVSPost2010PropOp44
 70
     1
102
RTVSPost2010Prop45
280
     0
102
RTVSPost2010PropOp45
 70
     1
102
RTVSPost2010Prop46
 90
       50
102
RTVSPost2010PropOp46
 70
     1
102
RTVSPost2010Prop47
 90
       50
102
RTVSPost2010PropOp47
 70
     1
102
RTVSPost2010Prop48
 90
       50
102
RTVSPost2010PropOp48
 70
     1
102
RTVSPost2010Prop49
280
     0
102
RTVSPost2010PropOp49
 70
     1
102
RTVSPost2010Prop50
 90
       50
102
RTVSPost2010PropOp50
 70
     1
102
RTVSPost2010Prop51ColorIndex
 90
      256
102
RTVSPost2010Prop51ColorRGB
 90
-16777216
102
RTVSPost2010PropOp51
 70
     0
102
RTVSPost2010Prop52
140
1.0
102
RTVSPost2010PropOp52
 70
     0
102
RTVSPost2010Prop53
 90
        2
102
RTVSPost2010PropOp53
 70
     1
102
RTVSPost2010Prop54
  1
strokes_ogs.tif
102
RTVSPost2010PropOp54
 70
     1
102
RTVSPost2010Prop55
280
     0
102
RTVSPost2010PropOp55
 70
     1
102
RTVSPost2010Prop56
140
1.0
102
RTVSPost2010PropOp56
 70
     1
102
RTVSPost2010Prop57
140
1.0
102
RTVSPost2010PropOp57
 70
     1
  0
XRECORD
  5
3B3
102
{ACAD_REACTORS
330
3B2
102
}
330
3B2
100
AcDbXrecord
280
     1
102
RTVSPost2010Prop28
280
     0
102
RTVSPost2010PropOp28
 70
     1
102
RTVSPost2010Prop29
280
     1
102
RTVSPost2010PropOp29
 70
     1
102
RTVSPost2010Prop30
280
     1
102
RTVSPost2010PropOp30
 70
     1
102
RTVSPost2010Prop31
280
     0
102
RTVSPost2010PropOp31
 70
     1
102
RTVSPost2010Prop32
280
     0
102
RTVSPost2010PropOp32
 70
     1
102
RTVSPost2010Prop33
280
     0
102
RTVSPost2010PropOp33
 70
     1
102
RTVSPost2010Prop34
280
     0
102
RTVSPost2010PropOp34
 70
     1
102
RTVSPost2010Prop35
280
     0
102
RTVSPost2010PropOp35
 70
     1
102
RTVSPost2010Prop36
280
     0
102
RTVSPost2010PropOp36
 70
     1
102
RTVSPost2010Prop37
 90
       50
102
RTVSPost2010PropOp37
 70
     1
102
RTVSPost2010Prop38
140
0.0
102
RTVSPost2010PropOp38
 70
     1
102
RTVSPost2010Prop39
140
1.0
102
RTVSPost2010PropOp39
 70
     1
102
RTVSPost2010Prop40
 90
        0
102
RTVSPost2010PropOp40
 70
     1
102
RTVSPost2010Prop41ColorIndex
 90
       18
102
RTVSPost2010Prop41ColorRGB
 90
        0
102
RTVSPost2010PropOp41
 70
     1
102
RTVSPost2010Prop42
 90
       50
102
RTVSPost2010PropOp42
 70
     1
102
RTVSPost2010Prop43
 90
        3
102
RTVSPost2010PropOp43
 70
     1
102
RTVSPost2010Prop44ColorIndex
 90
        5
102
RTVSPost2010Prop44ColorRGB
 90
      255
102
RTVSPost2010PropOp44
 70
     1
102
RTVSPost2010Prop45
280
     0
102
RTVSPost2010PropOp45
 70
     1
102
RTVSPost2010Prop46
 90
       50
102
RTVSPost2010PropOp46
 70
     1
102
RTVSPost2010Prop47
 90
       50
102
RTVSPost2010PropOp47
 70
     1
102
RTVSPost2010Prop48
 90
       50
102
RTVSPost2010PropOp48
 70
     1
102
RTVSPost2010Prop49
280
     0
102
RTVSPost2010PropOp49
 70
     1
102
RTVSPost2010Prop50
 90
       50
102
RTVSPost2010PropOp50
 70
     1
102
RTVSPost2010Prop51ColorIndex
 90
      256
102
RTVSPost2010Prop51ColorRGB
 90
-16777216
102
RTVSPost2010PropOp51
 70
     0
102
RTVSPost2010Prop52
140
1.0
102
RTVSPost2010PropOp52
 70
     0
102
RTVSPost2010Prop53
 90
        2
102
RTVSPost2010PropOp53
 70
     1
102
RTVSPost2010Prop54
  1
strokes_ogs.tif
102
RTVSPost2010PropOp54
 70
     1
102
RTVSPost2010Prop55
280
     0
102
RTVSPost2010PropOp55
 70
     1
102
RTVSPost2010Prop56
140
1.0
102
RTVSPost2010PropOp56
 70
     1
102
RTVSPost2010Prop57
140
1.0
102
RTVSPost2010PropOp57
 70
     1
  0
XRECORD
  5
3A5
102
{ACAD_REACTORS
330
3A4
102
}
330
3A4
100
AcDbXrecord
280
     1
102
RTVSPost2010Prop28
280
     0
102
RTVSPost2010PropOp28
 70
     1
102
RTVSPost2010Prop29
280
     1
102
RTVSPost2010PropOp29
 70
     1
102
RTVSPost2010Prop30
280
     1
102
RTVSPost2010PropOp30
 70
     1
102
RTVSPost2010Prop31
280
     0
102
RTVSPost2010PropOp31
 70
     1
102
RTVSPost2010Prop32
280
     0
102
RTVSPost2010PropOp32
 70
     1
102
RTVSPost2010Prop33
280
     0
102
RTVSPost2010PropOp33
 70
     1
102
RTVSPost2010Prop34
280
     0
102
RTVSPost2010PropOp34
 70
     1
102
RTVSPost2010Prop35
280
     0
102
RTVSPost2010PropOp35
 70
     1
102
RTVSPost2010Prop36
280
     0
102
RTVSPost2010PropOp36
 70
     1
102
RTVSPost2010Prop37
 90
       50
102
RTVSPost2010PropOp37
 70
     1
102
RTVSPost2010Prop38
140
0.0
102
RTVSPost2010PropOp38
 70
     1
102
RTVSPost2010Prop39
140
1.0
102
RTVSPost2010PropOp39
 70
     1
102
RTVSPost2010Prop40
 90
        0
102
RTVSPost2010PropOp40
 70
     1
102
RTVSPost2010Prop41ColorIndex
 90
       18
102
RTVSPost2010Prop41ColorRGB
 90
        0
102
RTVSPost2010PropOp41
 70
     1
102
RTVSPost2010Prop42
 90
       50
102
RTVSPost2010PropOp42
 70
     1
102
RTVSPost2010Prop43
 90
        3
102
RTVSPost2010PropOp43
 70
     1
102
RTVSPost2010Prop44ColorIndex
 90
        5
102
RTVSPost2010Prop44ColorRGB
 90
      255
102
RTVSPost2010PropOp44
 70
     1
102
RTVSPost2010Prop45
280
     0
102
RTVSPost2010PropOp45
 70
     1
102
RTVSPost2010Prop46
 90
       50
102
RTVSPost2010PropOp46
 70
     1
102
RTVSPost2010Prop47
 90
       50
102
RTVSPost2010PropOp47
 70
     1
102
RTVSPost2010Prop48
 90
       50
102
RTVSPost2010PropOp48
 70
     1
102
RTVSPost2010Prop49
280
     0
102
RTVSPost2010PropOp49
 70
     1
102
RTVSPost2010Prop50
 90
       50
102
RTVSPost2010PropOp50
 70
     1
102
RTVSPost2010Prop51ColorIndex
 90
      256
102
RTVSPost2010Prop51ColorRGB
 90
-16777216
102
RTVSPost2010PropOp51
 70
     0
102
RTVSPost2010Prop52
140
1.0
102
RTVSPost2010PropOp52
 70
     0
102
RTVSPost2010Prop53
 90
        2
102
RTVSPost2010PropOp53
 70
     1
102
RTVSPost2010Prop54
  1
strokes_ogs.tif
102
RTVSPost2010PropOp54
 70
     1
102
RTVSPost2010Prop55
280
     0
102
RTVSPost2010PropOp55
 70
     1
102
RTVSPost2010Prop56
140
1.0
102
RTVSPost2010PropOp56
 70
     1
102
RTVSPost2010Prop57
140
1.0
102
RTVSPost2010PropOp57
 70
     1
  0
XRECORD
  5
3C5
102
{ACAD_REACTORS
330
3C4
102
}
330
3C4
100
AcDbXrecord
280
     1
102
RTVSPost2010Prop28
280
     0
102
RTVSPost2010PropOp28
 70
     1
102
RTVSPost2010Prop29
280
     1
102
RTVSPost2010PropOp29
 70
     1
102
RTVSPost2010Prop30
280
     1
102
RTVSPost2010PropOp30
 70
     1
102
RTVSPost2010Prop31
280
     0
102
RTVSPost2010PropOp31
 70
     1
102
RTVSPost2010Prop32
280
     0
102
RTVSPost2010PropOp32
 70
     1
102
RTVSPost2010Prop33
280
     0
102
RTVSPost2010PropOp33
 70
     1
102
RTVSPost2010Prop34
280
     0
102
RTVSPost2010PropOp34
 70
     1
102
RTVSPost2010Prop35
280
     0
102
RTVSPost2010PropOp35
 70
     1
102
RTVSPost2010Prop36
280
     0
102
RTVSPost2010PropOp36
 70
     1
102
RTVSPost2010Prop37
 90
       50
102
RTVSPost2010PropOp37
 70
     1
102
RTVSPost2010Prop38
140
0.0
102
RTVSPost2010PropOp38
 70
     1
102
RTVSPost2010Prop39
140
1.0
102
RTVSPost2010PropOp39
 70
     1
102
RTVSPost2010Prop40
 90
        0
102
RTVSPost2010PropOp40
 70
     1
102
RTVSPost2010Prop41ColorIndex
 90
       18
102
RTVSPost2010Prop41ColorRGB
 90
        0
102
RTVSPost2010PropOp41
 70
     1
102
RTVSPost2010Prop42
 90
       50
102
RTVSPost2010PropOp42
 70
     1
102
RTVSPost2010Prop43
 90
        3
102
RTVSPost2010PropOp43
 70
     1
102
RTVSPost2010Prop44ColorIndex
 90
        5
102
RTVSPost2010Prop44ColorRGB
 90
      255
102
RTVSPost2010PropOp44
 70
     1
102
RTVSPost2010Prop45
280
     0
102
RTVSPost2010PropOp45
 70
     1
102
RTVSPost2010Prop46
 90
       50
102
RTVSPost2010PropOp46
 70
     1
102
RTVSPost2010Prop47
 90
       50
102
RTVSPost2010PropOp47
 70
     1
102
RTVSPost2010Prop48
 90
       50
102
RTVSPost2010PropOp48
 70
     1
102
RTVSPost2010Prop49
280
     0
102
RTVSPost2010PropOp49
 70
     1
102
RTVSPost2010Prop50
 90
       50
102
RTVSPost2010PropOp50
 70
     1
102
RTVSPost2010Prop51ColorIndex
 90
      256
102
RTVSPost2010Prop51ColorRGB
 90
-16777216
102
RTVSPost2010PropOp51
 70
     0
102
RTVSPost2010Prop52
140
1.0
102
RTVSPost2010PropOp52
 70
     0
102
RTVSPost2010Prop53
 90
        2
102
RTVSPost2010PropOp53
 70
     1
102
RTVSPost2010Prop54
  1
strokes_ogs.tif
102
RTVSPost2010PropOp54
 70
     1
102
RTVSPost2010Prop55
280
     0
102
RTVSPost2010PropOp55
 70
     1
102
RTVSPost2010Prop56
140
1.0
102
RTVSPost2010PropOp56
 70
     1
102
RTVSPost2010Prop57
140
1.0
102
RTVSPost2010PropOp57
 70
     1
  0
ENDSEC
  0
EOF
