  0
SECTION
  2
HEADER
  9
$ACADVER
  1
AC1024
  9
$ACADMAINTVER
 70
     6
  9
$DWGCODEPAGE
  3
ANSI_932
  9
$INSBASE
 10
0.0
 20
0.0
 30
0.0
  9
$EXTMIN
 10
-4455.0
 20
-3150.0
 30
0.0
  9
$EXTMAX
 10
4455.0
 20
3150.0
 30
0.0
  9
$LIMMIN
 10
-4455.0
 20
-3150.0
  9
$LIMMAX
 10
4455.0
 20
3150.0
  9
$ORTHOMODE
 70
     0
  9
$REGENMODE
 70
     1
  9
$FILLMODE
 70
     1
  9
$QTEXTMODE
 70
     0
  9
$MIRRTEXT
 70
     1
  9
$LTSCALE
 40
30.0
  9
$ATTMODE
 70
     1
  9
$TEXTSIZE
 40
2.5
  9
$TRACEWID
 40
1.0
  9
$TEXTSTYLE
  7
Standard
  9
$CLAYER
  8
0
  9
$CELTYPE
  6
ByLayer
  9
$CECOLOR
 62
   256
  9
$CELTSCALE
 40
1.0
  9
$DISPSILH
 70
     0
  9
$DIMSCALE
 40
1.0
  9
$DIMASZ
 40
2.5
  9
$DIMEXO
 40
0.625
  9
$DIMDLI
 40
3.75
  9
$DIMRND
 40
0.0
  9
$DIMDLE
 40
0.0
  9
$DIMEXE
 40
1.25
  9
$DIMTP
 40
0.0
  9
$DIMTM
 40
0.0
  9
$DIMTXT
 40
2.5
  9
$DIMCEN
 40
2.5
  9
$DIMTSZ
 40
0.0
  9
$DIMTOL
 70
     0
  9
$DIMLIM
 70
     0
  9
$DIMTIH
 70
     0
  9
$DIMTOH
 70
     0
  9
$DIMSE1
 70
     0
  9
$DIMSE2
 70
     0
  9
$DIMTAD
 70
     1
  9
$DIMZIN
 70
     8
  9
$DIMBLK
  1

  9
$DIMASO
 70
     1
  9
$DIMSHO
 70
     1
  9
$DIMPOST
  1

  9
$DIMAPOST
  1

  9
$DIMALT
 70
     0
  9
$DIMALTD
 70
     3
  9
$DIMALTF
 40
0.03937007874016
  9
$DIMLFAC
 40
1.0
  9
$DIMTOFL
 70
     1
  9
$DIMTVP
 40
0.0
  9
$DIMTIX
 70
     0
  9
$DIMSOXD
 70
     0
  9
$DIMSAH
 70
     0
  9
$DIMBLK1
  1

  9
$DIMBLK2
  1

  9
$DIMSTYLE
  2
ISO-25
  9
$DIMCLRD
 70
     0
  9
$DIMCLRE
 70
     0
  9
$DIMCLRT
 70
     0
  9
$DIMTFAC
 40
1.0
  9
$DIMGAP
 40
0.625
  9
$DIMJUST
 70
     0
  9
$DIMSD1
 70
     0
  9
$DIMSD2
 70
     0
  9
$DIMTOLJ
 70
     0
  9
$DIMTZIN
 70
     8
  9
$DIMALTZ
 70
     0
  9
$DIMALTTZ
 70
     0
  9
$DIMUPT
 70
     0
  9
$DIMDEC
 70
     2
  9
$DIMTDEC
 70
     2
  9
$DIMALTU
 70
     2
  9
$DIMALTTD
 70
     3
  9
$DIMTXSTY
  7
Standard
  9
$DIMAUNIT
 70
     0
  9
$DIMADEC
 70
     0
  9
$DIMALTRND
 40
0.0
  9
$DIMAZIN
 70
     0
  9
$DIMDSEP
 70
    44
  9
$DIMATFIT
 70
     3
  9
$DIMFRAC
 70
     0
  9
$DIMLDRBLK
  1

  9
$DIMLUNIT
 70
     2
  9
$DIMLWD
 70
    -2
  9
$DIMLWE
 70
    -2
  9
$DIMTMOVE
 70
     0
  9
$DIMFXL
 40
1.0
  9
$DIMFXLON
 70
     0
  9
$DIMJOGANG
 40
0.7853981633974483
  9
$DIMTFILL
 70
     0
  9
$DIMTFILLCLR
 70
     0
  9
$DIMARCSYM
 70
     0
  9
$DIMLTYPE
  6

  9
$DIMLTEX1
  6

  9
$DIMLTEX2
  6

  9
$DIMTXTDIRECTION
 70
     0
  9
$LUNITS
 70
     2
  9
$LUPREC
 70
     4
  9
$SKETCHINC
 40
1.0
  9
$FILLETRAD
 40
10.0
  9
$AUNITS
 70
     0
  9
$AUPREC
 70
     0
  9
$MENU
  1
.
  9
$ELEVATION
 40
0.0
  9
$PELEVATION
 40
0.0
  9
$THICKNESS
 40
0.0
  9
$LIMCHECK
 70
     0
  9
$CHAMFERA
 40
10.0
  9
$CHAMFERB
 40
10.0
  9
$CHAMFERC
 40
20.0
  9
$CHAMFERD
 40
0.0
  9
$SKPOLY
 70
     0
  9
$TDCREATE
 40
2457953.4004325
  9
$TDUCREATE
 40
2457953.0254325
  9
$TDUPDATE
 40
2457953.400432512
  9
$TDUUPDATE
 40
2457953.025432512
  9
$TDINDWG
 40
0.0000000116
  9
$TDUSRTIMER
 40
0.0000000116
  9
$USRTIMER
 70
     1
  9
$ANGBASE
 50
0.0
  9
$ANGDIR
 70
     0
  9
$PDMODE
 70
     0
  9
$PDSIZE
 40
0.0
  9
$PLINEWID
 40
0.0
  9
$SPLFRAME
 70
     0
  9
$SPLINETYPE
 70
     6
  9
$SPLINESEGS
 70
     8
  9
$HANDSEED
  5
2B1
  9
$SURFTAB1
 70
     6
  9
$SURFTAB2
 70
     6
  9
$SURFTYPE
 70
     6
  9
$SURFU
 70
     6
  9
$SURFV
 70
     6
  9
$UCSBASE
  2

  9
$UCSNAME
  2

  9
$UCSORG
 10
0.0
 20
0.0
 30
0.0
  9
$UCSXDIR
 10
1.0
 20
0.0
 30
0.0
  9
$UCSYDIR
 10
0.0
 20
1.0
 30
0.0
  9
$UCSORTHOREF
  2

  9
$UCSORTHOVIEW
 70
     0
  9
$UCSORGTOP
 10
0.0
 20
0.0
 30
0.0
  9
$UCSORGBOTTOM
 10
0.0
 20
0.0
 30
0.0
  9
$UCSORGLEFT
 10
0.0
 20
0.0
 30
0.0
  9
$UCSORGRIGHT
 10
0.0
 20
0.0
 30
0.0
  9
$UCSORGFRONT
 10
0.0
 20
0.0
 30
0.0
  9
$UCSORGBACK
 10
0.0
 20
0.0
 30
0.0
  9
$PUCSBASE
  2

  9
$PUCSNAME
  2

  9
$PUCSORG
 10
0.0
 20
0.0
 30
0.0
  9
$PUCSXDIR
 10
1.0
 20
0.0
 30
0.0
  9
$PUCSYDIR
 10
0.0
 20
1.0
 30
0.0
  9
$PUCSORTHOREF
  2

  9
$PUCSORTHOVIEW
 70
     0
  9
$PUCSORGTOP
 10
0.0
 20
0.0
 30
0.0
  9
$PUCSORGBOTTOM
 10
0.0
 20
0.0
 30
0.0
  9
$PUCSORGLEFT
 10
0.0
 20
0.0
 30
0.0
  9
$PUCSORGRIGHT
 10
0.0
 20
0.0
 30
0.0
  9
$PUCSORGFRONT
 10
0.0
 20
0.0
 30
0.0
  9
$PUCSORGBACK
 10
0.0
 20
0.0
 30
0.0
  9
$USERI1
 70
     0
  9
$USERI2
 70
     0
  9
$USERI3
 70
     0
  9
$USERI4
 70
     0
  9
$USERI5
 70
     0
  9
$USERR1
 40
0.0
  9
$USERR2
 40
0.0
  9
$USERR3
 40
0.0
  9
$USERR4
 40
0.0
  9
$USERR5
 40
0.0
  9
$WORLDVIEW
 70
     1
  9
$SHADEDGE
 70
     3
  9
$SHADEDIF
 70
    70
  9
$TILEMODE
 70
     1
  9
$MAXACTVP
 70
    64
  9
$PINSBASE
 10
0.0
 20
0.0
 30
0.0
  9
$PLIMCHECK
 70
     0
  9
$PEXTMIN
 10
1.000000000000000E+20
 20
1.000000000000000E+20
 30
1.000000000000000E+20
  9
$PEXTMAX
 10
-1.000000000000000E+20
 20
-1.000000000000000E+20
 30
-1.000000000000000E+20
  9
$PLIMMIN
 10
0.0
 20
0.0
  9
$PLIMMAX
 10
420.0
 20
297.0
  9
$UNITMODE
 70
     0
  9
$VISRETAIN
 70
     1
  9
$PLINEGEN
 70
     0
  9
$PSLTSCALE
 70
     1
  9
$TREEDEPTH
 70
  3020
  9
$CMLSTYLE
  2
Standard
  9
$CMLJUST
 70
     0
  9
$CMLSCALE
 40
20.0
  9
$PROXYGRAPHICS
 70
     1
  9
$MEASUREMENT
 70
     1
  9
$CELWEIGHT
370
    -1
  9
$ENDCAPS
280
     0
  9
$JOINSTYLE
280
     0
  9
$LWDISPLAY
290
     0
  9
$INSUNITS
 70
     4
  9
$HYPERLINKBASE
  1

  9
$STYLESHEET
  1

  9
$XEDIT
290
     1
  9
$CEPSNTYPE
380
     0
  9
$PSTYLEMODE
290
     1
  9
$FINGERPRINTGUID
  2
{8FC1003C-0BB1-457E-A945-8CE63E2FD012}
  9
$VERSIONGUID
  2
{FAEB1C32-E019-11D5-929B-00C0DF256EC4}
  9
$EXTNAMES
290
     1
  9
$PSVPSCALE
 40
0.0
  9
$OLESTARTUP
290
     0
  9
$SORTENTS
280
   127
  9
$INDEXCTL
280
     0
  9
$HIDETEXT
280
     1
  9
$XCLIPFRAME
280
     2
  9
$HALOGAP
280
     0
  9
$OBSCOLOR
 70
   257
  9
$OBSLTYPE
280
     0
  9
$INTERSECTIONDISPLAY
280
     0
  9
$INTERSECTIONCOLOR
 70
   257
  9
$DIMASSOC
280
     2
  9
$PROJECTNAME
  1

  9
$CAMERADISPLAY
290
     0
  9
$LENSLENGTH
 40
50.0
  9
$CAMERAHEIGHT
 40
0.0
  9
$STEPSPERSEC
 40
2.0
  9
$STEPSIZE
 40
6.0
  9
$3DDWFPREC
 40
2.0
  9
$PSOLWIDTH
 40
5.0
  9
$PSOLHEIGHT
 40
80.0
  9
$LOFTANG1
 40
1.570796326794897
  9
$LOFTANG2
 40
1.570796326794897
  9
$LOFTMAG1
 40
0.0
  9
$LOFTMAG2
 40
0.0
  9
$LOFTPARAM
 70
     7
  9
$LOFTNORMALS
280
     1
  9
$LATITUDE
 40
37.795
  9
$LONGITUDE
 40
-122.394
  9
$NORTHDIRECTION
 40
0.0
  9
$TIMEZONE
 70
 -8000
  9
$LIGHTGLYPHDISPLAY
280
     1
  9
$TILEMODELIGHTSYNCH
280
     1
  9
$SOLIDHIST
280
     1
  9
$SHOWHIST
280
     1
  9
$DWFFRAME
280
     2
  9
$DGNFRAME
280
     2
  9
$REALWORLDSCALE
290
     1
  9
$INTERFERECOLOR
 62
   256
  9
$CSHADOW
280
     0
  9
$SHADOWPLANELOCATION
 40
0.0
  0
ENDSEC
  0
SECTION
  2
CLASSES
  0
CLASS
  1
ACDBDICTIONARYWDFLT
  2
AcDbDictionaryWithDefault
  3
ObjectDBX Classes
 90
        0
 91
        4
280
     0
281
     0
  0
CLASS
  1
VISUALSTYLE
  2
AcDbVisualStyle
  3
ObjectDBX Classes
 90
     4095
 91
        4
280
     0
281
     0
  0
CLASS
  1
MATERIAL
  2
AcDbMaterial
  3
ObjectDBX Classes
 90
     1153
 91
        4
280
     0
281
     0
  0
ENDSEC
  0
SECTION
  2
TABLES
  0
TABLE
  2
VPORT
  5
8
330
0
100
AcDbSymbolTable
 70
     1
  0
VPORT
  5
29
330
8
100
AcDbSymbolTableRecord
100
AcDbViewportTableRecord
  2
*Active
 70
     0
 10
0.0
 20
0.0
 11
1.0
 21
1.0
 12
0.0
 22
0.0
 13
0.0
 23
0.0
 14
10.0
 24
10.0
 15
10.0
 25
10.0
 16
0.0
 26
0.0
 36
1.0
 17
0.0
 27
0.0
 37
0.0
 40
6930.000000000001
 41
1.414285714285714
 42
50.0
 43
0.0
 44
0.0
 50
0.0
 51
0.0
 71
     0
 72
 10000
 73
     1
 74
     3
 75
     0
 76
     0
 77
     0
 78
     0
281
     0
 65
     1
110
0.0
120
0.0
130
0.0
111
1.0
121
0.0
131
0.0
112
0.0
122
1.0
132
0.0
 79
     0
146
0.0
 60
     3
 61
     5
292
     1
282
     1
141
0.0
142
0.0
 63
   250
  0
ENDTAB
  0
TABLE
  2
LTYPE
  5
5
330
0
100
AcDbSymbolTable
 70
     2
  0
LTYPE
  5
14
330
5
100
AcDbSymbolTableRecord
100
AcDbLinetypeTableRecord
  2
ByBlock
 70
     0
  3

 72
    65
 73
     0
 40
0.0
  0
LTYPE
  5
15
330
5
100
AcDbSymbolTableRecord
100
AcDbLinetypeTableRecord
  2
ByLayer
 70
     0
  3

 72
    65
 73
     0
 40
0.0
  0
LTYPE
  5
16
330
5
100
AcDbSymbolTableRecord
100
AcDbLinetypeTableRecord
  2
Continuous
 70
     0
  3
Solid line
 72
    65
 73
     0
 40
0.0
  0
LTYPE
  5
3F
330
5
100
AcDbSymbolTableRecord
100
AcDbLinetypeTableRecord
  2
JWW_DASHED1
 70
     0
  3
-  --  --  --  --  --  --  --  -
 72
    65
 73
     2
 40
1.693333333333333
 49
0.8466666666666667
 74
     0
 49
-0.8466666666666667
 74
     0
  0
ENDTAB
  0
TABLE
  2
LAYER
  5
2
330
0
100
AcDbSymbolTable
 70
     3
  0
LAYER
  5
10
330
2
100
AcDbSymbolTableRecord
100
AcDbLayerTableRecord
  2
0
 70
     0
 62
     7
  6
Continuous
370
    -3
390
F
347
3E
  0
LAYER
  5
40
330
2
100
AcDbSymbolTableRecord
100
AcDbLayerTableRecord
  2
寸法
 70
     0
 62
     7
  6
Continuous
370
    -3
390
F
347
3E
  0
LAYER
  5
41
330
2
100
AcDbSymbolTableRecord
100
AcDbLayerTableRecord
  2
0-0
 70
     0
 62
     7
  6
Continuous
370
    -3
390
F
347
3E
  0
ENDTAB
  0
TABLE
  2
STYLE
  5
3
330
0
100
AcDbSymbolTable
 70
     1
  0
STYLE
  5
11
330
3
100
AcDbSymbolTableRecord
100
AcDbTextStyleTableRecord
  2
Standard
 70
     0
 40
0.0
 41
1.0
 50
0.0
 71
     0
 42
2.5
  3
txt
  4

  0
ENDTAB
  0
TABLE
  2
VIEW
  5
6
330
0
100
AcDbSymbolTable
 70
     0
  0
ENDTAB
  0
TABLE
  2
UCS
  5
7
330
0
100
AcDbSymbolTable
 70
     0
  0
ENDTAB
  0
TABLE
  2
APPID
  5
9
330
0
100
AcDbSymbolTable
 70
     1
  0
APPID
  5
12
330
9
100
AcDbSymbolTableRecord
100
AcDbRegAppTableRecord
  2
ACAD
 70
     0
  0
ENDTAB
  0
TABLE
  2
DIMSTYLE
  5
A
330
0
100
AcDbSymbolTable
 70
     1
100
AcDbDimStyleTable
  0
DIMSTYLE
105
27
330
A
100
AcDbSymbolTableRecord
100
AcDbDimStyleTableRecord
  2
ISO-25
 70
     0
 41
2.5
 42
0.625
 43
3.75
 44
1.25
 73
     0
 74
     0
 77
     1
 78
     8
140
2.5
141
2.5
143
0.03937007874016
147
0.625
171
     3
172
     1
178
     0
271
     2
272
     2
274
     3
278
    44
283
     0
284
     8
340
11
  0
ENDTAB
  0
TABLE
  2
BLOCK_RECORD
  5
1
330
0
100
AcDbSymbolTable
 70
     1
  0
BLOCK_RECORD
  5
1F
330
1
100
AcDbSymbolTableRecord
100
AcDbBlockTableRecord
  2
*Model_Space
340
22
 70
     0
280
     1
281
     0
  0
BLOCK_RECORD
  5
1B
330
1
100
AcDbSymbolTableRecord
100
AcDbBlockTableRecord
  2
*Paper_Space
340
1E
 70
     0
280
     1
281
     0
  0
BLOCK_RECORD
  5
23
330
1
100
AcDbSymbolTableRecord
100
AcDbBlockTableRecord
  2
*Paper_Space0
340
26
 70
     0
280
     1
281
     0
  0
ENDTAB
  0
ENDSEC
  0
SECTION
  2
BLOCKS
  0
BLOCK
  5
20
330
1F
100
AcDbEntity
  8
0
100
AcDbBlockBegin
  2
*Model_Space
 70
     0
 10
0.0
 20
0.0
 30
0.0
  3
*Model_Space
  1

  0
ENDBLK
  5
21
330
1F
100
AcDbEntity
  8
0
100
AcDbBlockEnd
  0
BLOCK
  5
1C
330
1B
100
AcDbEntity
 67
     1
  8
0
100
AcDbBlockBegin
  2
*Paper_Space
 70
     0
 10
0.0
 20
0.0
 30
0.0
  3
*Paper_Space
  1

  0
ENDBLK
  5
1D
330
1B
100
AcDbEntity
 67
     1
  8
0
100
AcDbBlockEnd
  0
BLOCK
  5
24
330
23
100
AcDbEntity
  8
0
100
AcDbBlockBegin
  2
*Paper_Space0
 70
     0
 10
0.0
 20
0.0
 30
0.0
  3
*Paper_Space0
  1

  0
ENDBLK
  5
25
330
23
100
AcDbEntity
  8
0
100
AcDbBlockEnd
  0
ENDSEC
  0
SECTION
  2
ENTITIES
  0
LWPOLYLINE
  5
42
330
1F
100
AcDbEntity
  8
寸法
  6
Continuous
 62
     7
370
     9
100
AcDbPolyline
 90
        4
 70
     1
 43
3.0
 10
-1139.853158478409
 20
-781.0155279503133
 42
0.4142135623731
 10
-1141.353158478409
 20
-779.5155279503132
 42
0.4142135623731
 10
-1142.853158478409
 20
-781.0155279503133
 42
0.4142135623731
 10
-1141.353158478409
 20
-782.5155279503133
 42
0.4142135623731
  0
LINE
  5
43
330
1F
100
AcDbEntity
  8
寸法
  6
Continuous
 62
   120
370
     5
100
AcDbLine
 10
-1141.353158478409
 20
-781.0155279503133
 30
0.0
 11
-741.3531584784079
 21
-781.0155279503133
 31
0.0
  0
LWPOLYLINE
  5
44
330
1F
100
AcDbEntity
  8
寸法
  6
Continuous
 62
     7
370
     9
100
AcDbPolyline
 90
        4
 70
     1
 43
3.0
 10
-659.8531584784056
 20
-1231.015527950312
 42
0.4142135623731
 10
-661.3531584784056
 20
-1229.515527950312
 42
0.4142135623731
 10
-662.8531584784056
 20
-1231.015527950312
 42
0.4142135623731
 10
-661.3531584784056
 20
-1232.515527950312
 42
0.4142135623731
  0
LWPOLYLINE
  5
45
330
1F
100
AcDbEntity
  8
寸法
  6
Continuous
 62
     7
370
     9
100
AcDbPolyline
 90
        4
 70
     1
 43
3.0
 10
-689.8531584784056
 20
-1431.015527950313
 42
0.4142135623731
 10
-691.3531584784056
 20
-1429.515527950313
 42
0.4142135623731
 10
-692.8531584784056
 20
-1431.015527950313
 42
0.4142135623731
 10
-691.3531584784056
 20
-1432.515527950312
 42
0.4142135623731
  0
LWPOLYLINE
  5
46
330
1F
100
AcDbEntity
  8
寸法
  6
Continuous
 62
     7
370
     9
100
AcDbPolyline
 90
        4
 70
     1
 43
3.0
 10
-662.8531584784063
 20
-1031.015527950313
 42
0.4142135623731
 10
-664.3531584784063
 20
-1029.515527950313
 42
0.4142135623731
 10
-665.8531584784063
 20
-1031.015527950313
 42
0.4142135623731
 10
-664.3531584784063
 20
-1032.515527950313
 42
0.4142135623731
  0
LWPOLYLINE
  5
47
330
1F
100
AcDbEntity
  8
寸法
  6
Continuous
 62
     7
370
     9
100
AcDbPolyline
 90
        4
 70
     1
 43
3.0
 10
147.1468415215937
 20
-1031.015527950313
 42
0.4142135623731
 10
145.6468415215937
 20
-1029.515527950313
 42
0.4142135623731
 10
144.1468415215937
 20
-1031.015527950313
 42
0.4142135623731
 10
145.6468415215937
 20
-1032.515527950313
 42
0.4142135623731
  0
LINE
  5
48
330
1F
100
AcDbEntity
  8
寸法
  6
Continuous
 62
   120
370
     5
100
AcDbLine
 10
-661.3531584784056
 20
-1231.015527950312
 30
0.0
 11
-661.3531584784056
 21
-831.0155279503138
 31
0.0
  0
LINE
  5
49
330
1F
100
AcDbEntity
  8
寸法
  6
Continuous
 62
   120
370
     5
100
AcDbLine
 10
-691.3531584784056
 20
-1431.015527950313
 30
0.0
 11
-691.3531584784056
 21
-831.0155279503138
 31
0.0
  0
LINE
  5
4A
330
1F
100
AcDbEntity
  8
寸法
  6
Continuous
 62
   120
370
     5
100
AcDbLine
 10
-664.3531584784063
 20
-1031.015527950313
 30
0.0
 11
-664.3531584784063
 21
-831.0155279503138
 31
0.0
  0
LINE
  5
4B
330
1F
100
AcDbEntity
  8
寸法
  6
Continuous
 62
   120
370
     5
100
AcDbLine
 10
145.6468415215937
 20
-1031.015527950313
 30
0.0
 11
145.6468415215937
 21
-831.0155279503138
 31
0.0
  0
LINE
  5
4C
330
1F
100
AcDbEntity
  8
寸法
  6
Continuous
 62
   120
370
     5
100
AcDbLine
 10
145.6468415215937
 20
-1031.015527950313
 30
0.0
 11
-664.3531584784063
 21
-1031.015527950313
 31
0.0
  0
LWPOLYLINE
  5
4D
330
1F
100
AcDbEntity
  8
寸法
  6
Continuous
 62
     7
370
     9
100
AcDbPolyline
 90
        4
 70
     1
 43
3.0
 10
-1139.853158478409
 20
1253.984472049686
 42
0.4142135623731
 10
-1141.353158478409
 20
1255.484472049686
 42
0.4142135623731
 10
-1142.853158478409
 20
1253.984472049686
 42
0.4142135623731
 10
-1141.353158478409
 20
1252.484472049686
 42
0.4142135623731
  0
LINE
  5
4E
330
1F
100
AcDbEntity
  8
寸法
  6
Continuous
 62
   120
370
     5
100
AcDbLine
 10
-1141.353158478409
 20
1253.984472049686
 30
0.0
 11
-741.3531584784079
 21
1253.984472049686
 31
0.0
  0
LINE
  5
4F
330
1F
100
AcDbEntity
  8
寸法
  6
Continuous
 62
   120
370
     5
100
AcDbLine
 10
-1141.353158478409
 20
1253.984472049686
 30
0.0
 11
-1141.353158478409
 21
-781.0155279503133
 31
0.0
  0
LWPOLYLINE
  5
50
330
1F
100
AcDbEntity
  8
寸法
  6
Continuous
 62
     7
370
     9
100
AcDbPolyline
 90
        4
 70
     1
 43
3.0
 10
818.146841521594
 20
-1231.015527950312
 42
0.4142135623731
 10
816.646841521594
 20
-1229.515527950312
 42
0.4142135623731
 10
815.146841521594
 20
-1231.015527950312
 42
0.4142135623731
 10
816.646841521594
 20
-1232.515527950312
 42
0.4142135623731
  0
LINE
  5
51
330
1F
100
AcDbEntity
  8
寸法
  6
Continuous
 62
   120
370
     5
100
AcDbLine
 10
816.646841521594
 20
-1231.015527950312
 30
0.0
 11
816.646841521594
 21
-831.0155279503138
 31
0.0
  0
LINE
  5
52
330
1F
100
AcDbEntity
  8
寸法
  6
Continuous
 62
   120
370
     5
100
AcDbLine
 10
-661.3531584784056
 20
-1231.015527950312
 30
0.0
 11
816.646841521594
 21
-1231.015527950312
 31
0.0
  0
LWPOLYLINE
  5
53
330
1F
100
AcDbEntity
  8
寸法
  6
Continuous
 62
     7
370
     9
100
AcDbPolyline
 90
        4
 70
     1
 43
3.0
 10
1658.146841521594
 20
-1431.015527950312
 42
0.4142135623731
 10
1656.646841521594
 20
-1429.515527950312
 42
0.4142135623731
 10
1655.146841521594
 20
-1431.015527950312
 42
0.4142135623731
 10
1656.646841521594
 20
-1432.515527950311
 42
0.4142135623731
  0
LINE
  5
54
330
1F
100
AcDbEntity
  8
寸法
  6
Continuous
 62
   120
370
     5
100
AcDbLine
 10
1656.646841521594
 20
-1431.015527950312
 30
0.0
 11
1656.646841521594
 21
-831.015527950313
 31
0.0
  0
LINE
  5
55
330
1F
100
AcDbEntity
  8
寸法
  6
Continuous
 62
   120
370
     5
100
AcDbLine
 10
-691.3531584784056
 20
-1431.015527950313
 30
0.0
 11
1656.646841521594
 21
-1431.015527950312
 31
0.0
  0
LWPOLYLINE
  5
56
330
1F
100
AcDbEntity
  8
寸法
  6
Continuous
 62
     7
370
     9
100
AcDbPolyline
 90
        4
 70
     1
 43
3.0
 10
-939.8531584784067
 20
1209.984472049686
 42
0.4142135623731
 10
-941.3531584784067
 20
1211.484472049686
 42
0.4142135623731
 10
-942.8531584784067
 20
1209.984472049686
 42
0.4142135623731
 10
-941.3531584784067
 20
1208.484472049686
 42
0.4142135623731
  0
LINE
  5
57
330
1F
100
AcDbEntity
  8
寸法
  6
Continuous
 62
   120
370
     5
100
AcDbLine
 10
-941.3531584784067
 20
1209.984472049686
 30
0.0
 11
-941.3531584784067
 21
-773.0155279503138
 31
0.0
  0
LINE
  5
58
330
1F
100
AcDbEntity
  8
寸法
  6
Continuous
 62
   120
370
     5
100
AcDbLine
 10
-941.3531584784067
 20
1209.984472049686
 30
0.0
 11
-741.3531584784079
 21
1209.984472049686
 31
0.0
  0
LWPOLYLINE
  5
59
330
1F
100
AcDbEntity
  8
寸法
  6
Continuous
 62
     7
370
     9
100
AcDbPolyline
 90
        4
 70
     1
 43
3.0
 10
-939.8531584784067
 20
-773.0155279503138
 42
0.4142135623731
 10
-941.3531584784067
 20
-771.5155279503136
 42
0.4142135623731
 10
-942.8531584784067
 20
-773.0155279503138
 42
0.4142135623731
 10
-941.3531584784067
 20
-774.5155279503138
 42
0.4142135623731
  0
LINE
  5
5A
330
1F
100
AcDbEntity
  8
寸法
  6
Continuous
 62
   120
370
     5
100
AcDbLine
 10
-941.3531584784067
 20
-773.0155279503138
 30
0.0
 11
-741.3531584784079
 21
-773.0155279503138
 31
0.0
  0
MTEXT
  5
5B
330
1F
100
AcDbEntity
  8
寸法
  6
Continuous
 62
     7
370
    70
100
AcDbMText
 10
-1156.353158478409
 20
15.80947204968721
 30
0.0
 40
57.14999999999999
 41
412.5
 46
0.0
 71
     7
 72
     1
  1
{\fＭＳ ゴシック|b0|i0|c128|p49;枠外＝2,035}
 11
6.123031769111886E-17
 21
1.0
 31
0.0
 73
     1
 44
1.0
  0
MTEXT
  5
5C
330
1F
100
AcDbEntity
  8
寸法
  6
Continuous
 62
     7
370
    70
100
AcDbMText
 10
-956.3531584784067
 20
9.309472049685873
 30
0.0
 40
57.14999999999999
 41
412.5
 46
0.0
 71
     7
 72
     1
  1
{\fＭＳ ゴシック|b0|i0|c128|p49;ＤＨ＝1,983}
 11
6.123031769111886E-17
 21
1.0
 31
0.0
 73
     1
 44
1.0
  0
MTEXT
  5
5D
330
1F
100
AcDbEntity
  8
寸法
  6
Continuous
 62
     7
370
   211
100
AcDbMText
 10
-428.1031584784063
 20
-1024.940527950313
 30
0.0
 40
57.15
 41
337.5
 46
0.0
 71
     7
 72
     1
  1
{\fＭＳ ゴシック|b0|i0|c128|p49;ＤＷ＝810}
 73
     1
 44
1.0
  0
MTEXT
  5
5E
330
1F
100
AcDbEntity
  8
寸法
  6
Continuous
 62
     7
370
   211
100
AcDbMText
 10
-203.6031584784058
 20
-1224.940527950312
 30
0.0
 40
57.15000000000001
 41
562.5
 46
0.0
 71
     7
 72
     1
  1
{\fＭＳ ゴシック|b0|i0|c128|p49;有効開口＝1,478}
 73
     1
 44
1.0
  0
MTEXT
  5
5F
330
1F
100
AcDbEntity
  8
寸法
  6
Continuous
 62
     7
370
   211
100
AcDbMText
 10
276.3968415215942
 20
-1424.940527950313
 30
0.0
 40
57.14999999999999
 41
412.5
 46
0.0
 71
     7
 72
     1
  1
{\fＭＳ ゴシック|b0|i0|c128|p49;枠外＝2,348}
 73
     1
 44
1.0
  0
LINE
  5
60
330
1F
100
AcDbEntity
  8
0-0
  6
Continuous
 62
    92
370
    13
100
AcDbLine
 10
-661.3531584784056
 20
-781.0155279503124
 30
0.0
 11
-691.3531584784056
 21
-781.0155279503124
 31
0.0
  0
LINE
  5
61
330
1F
100
AcDbEntity
  8
0-0
  6
Continuous
 62
    92
370
    13
100
AcDbLine
 10
-691.3531584784056
 20
-781.0155279503124
 30
0.0
 11
-691.3531584784056
 21
1253.984472049686
 31
0.0
  0
LINE
  5
62
330
1F
100
AcDbEntity
  8
0-0
  6
Continuous
 62
    92
370
    13
100
AcDbLine
 10
-661.3531584784056
 20
-781.0155279503124
 30
0.0
 11
-661.3531584784056
 21
1253.984472049686
 31
0.0
  0
LINE
  5
63
330
1F
100
AcDbEntity
  8
0-0
  6
Continuous
 62
    92
370
    13
100
AcDbLine
 10
816.646841521594
 20
-781.0155279503133
 30
0.0
 11
846.646841521594
 21
-781.0155279503133
 31
0.0
  0
LINE
  5
64
330
1F
100
AcDbEntity
  8
0-0
  6
Continuous
 62
    92
370
    13
100
AcDbLine
 10
1656.646841521594
 20
-781.0155279503124
 30
0.0
 11
1626.646841521594
 21
-781.0155279503124
 31
0.0
  0
LINE
  5
65
330
1F
100
AcDbEntity
  8
0-0
  6
Continuous
 62
    92
370
    13
100
AcDbLine
 10
-661.3531584784056
 20
1223.984472049687
 30
0.0
 11
1626.646841521594
 21
1223.984472049687
 31
0.0
  0
LINE
  5
66
330
1F
100
AcDbEntity
  8
0-0
  6
Continuous
 62
    92
370
    13
100
AcDbLine
 10
-691.3531584784056
 20
1253.984472049686
 30
0.0
 11
1656.646841521594
 21
1253.984472049686
 31
0.0
  0
LINE
  5
67
330
1F
100
AcDbEntity
  8
0-0
  6
Continuous
 62
    92
370
    13
100
AcDbLine
 10
1656.646841521594
 20
-781.0155279503124
 30
0.0
 11
1656.646841521594
 21
1253.984472049686
 31
0.0
  0
LINE
  5
68
330
1F
100
AcDbEntity
  8
0-0
  6
Continuous
 62
    92
370
    13
100
AcDbLine
 10
1626.646841521594
 20
-781.0155279503124
 30
0.0
 11
1626.646841521594
 21
1253.984472049686
 31
0.0
  0
LINE
  5
69
330
1F
100
AcDbEntity
  8
0-0
  6
JWW_DASHED1
 62
   120
370
     5
100
AcDbLine
 10
145.6468415215937
 20
-773.0155279503133
 30
0.0
 11
145.6468415215937
 21
1209.984472049686
 31
0.0
  0
LINE
  5
6A
330
1F
100
AcDbEntity
  8
0-0
  6
JWW_DASHED1
 62
   120
370
     5
100
AcDbLine
 10
-664.3531584784063
 20
1209.984472049686
 30
0.0
 11
-661.3531584784056
 21
1209.984472049686
 31
0.0
  0
LINE
  5
6B
330
1F
100
AcDbEntity
  8
0-0
  6
JWW_DASHED1
 62
   120
370
     5
100
AcDbLine
 10
-664.3531584784063
 20
-773.0155279503133
 30
0.0
 11
-664.3531584784063
 21
1209.984472049686
 31
0.0
  0
LINE
  5
6C
330
1F
100
AcDbEntity
  8
0-0
  6
JWW_DASHED1
 62
   120
370
     5
100
AcDbLine
 10
-661.3531584784056
 20
-773.0155279503133
 30
0.0
 11
-664.3531584784063
 21
-773.0155279503133
 31
0.0
  0
LINE
  5
6D
330
1F
100
AcDbEntity
  8
0-0
  6
Continuous
 62
     7
370
     9
100
AcDbLine
 10
-628.3531584784083
 20
214.0844720496868
 30
0.0
 11
-628.3531584784083
 21
154.8844720496869
 31
0.0
  0
LINE
  5
6E
330
1F
100
AcDbEntity
  8
0-0
  6
Continuous
 62
     7
370
     9
100
AcDbLine
 10
-598.3531584784083
 20
154.8844720496869
 30
0.0
 11
-598.3531584784083
 21
214.0844720496868
 31
0.0
  0
ARC
  5
6F
330
1F
100
AcDbEntity
  8
0-0
  6
Continuous
 62
     7
370
     9
100
AcDbCircle
 10
-613.3531584784083
 20
214.0844720496868
 30
0.0
 40
15.0
100
AcDbArc
 50
0.0
 51
180.0
  0
ARC
  5
70
330
1F
100
AcDbEntity
  8
0-0
  6
Continuous
 62
     7
370
     9
100
AcDbCircle
 10
-613.3531584784083
 20
154.8844720496869
 30
0.0
 40
15.0
100
AcDbArc
 50
180.0
 51
0.0
  0
ARC
  5
71
330
1F
100
AcDbEntity
  8
0-0
  6
Continuous
 62
    92
370
    13
100
AcDbCircle
 10
-632.8531584784076
 20
124.9844720496868
 30
0.0
 40
1.5
100
AcDbArc
 50
180.0
 51
270.0
  0
LINE
  5
72
330
1F
100
AcDbEntity
  8
0-0
  6
Continuous
 62
    92
370
    13
100
AcDbLine
 10
-634.3531584784063
 20
124.9844720496868
 30
0.0
 11
-634.3531584784063
 21
243.9844720496869
 31
0.0
  0
LINE
  5
73
330
1F
100
AcDbEntity
  8
0-0
  6
Continuous
 62
    92
370
    13
100
AcDbLine
 10
-632.8531584784076
 20
123.4844720496869
 30
0.0
 11
-593.853158478409
 21
123.4844720496869
 31
0.0
  0
ARC
  5
74
330
1F
100
AcDbEntity
  8
0-0
  6
Continuous
 62
    92
370
    13
100
AcDbCircle
 10
-593.853158478409
 20
124.9844720496868
 30
0.0
 40
1.5
100
AcDbArc
 50
270.0
 51
0.0
  0
LINE
  5
75
330
1F
100
AcDbEntity
  8
0-0
  6
Continuous
 62
    92
370
    13
100
AcDbLine
 10
-592.3531584784104
 20
124.9844720496868
 30
0.0
 11
-592.3531584784104
 21
243.9844720496869
 31
0.0
  0
ARC
  5
76
330
1F
100
AcDbEntity
  8
0-0
  6
Continuous
 62
    92
370
    13
100
AcDbCircle
 10
-593.853158478409
 20
243.9844720496869
 30
0.0
 40
1.5
100
AcDbArc
 50
0.0
 51
90.00000000000001
  0
LINE
  5
77
330
1F
100
AcDbEntity
  8
0-0
  6
Continuous
 62
    92
370
    13
100
AcDbLine
 10
-593.853158478409
 20
245.4844720496868
 30
0.0
 11
-632.8531584784076
 21
245.4844720496868
 31
0.0
  0
ARC
  5
78
330
1F
100
AcDbEntity
  8
0-0
  6
Continuous
 62
    92
370
    13
100
AcDbCircle
 10
-632.8531584784076
 20
243.9844720496869
 30
0.0
 40
1.5
100
AcDbArc
 50
90.0
 51
180.0
  0
LINE
  5
79
330
1F
100
AcDbEntity
  8
0-0
  6
Continuous
 62
    92
370
    13
100
AcDbLine
 10
67.64684152159475
 20
1209.984472049686
 30
0.0
 11
67.64684152159475
 21
-773.0155279503133
 31
0.0
  0
LINE
  5
7A
330
1F
100
AcDbEntity
  8
0-0
  6
Continuous
 62
    92
370
    13
100
AcDbLine
 10
-661.3531584784056
 20
-773.0155279503133
 30
0.0
 11
877.6468415215938
 21
-773.0155279503133
 31
0.0
  0
LINE
  5
7B
330
1F
100
AcDbEntity
  8
0-0
  6
Continuous
 62
    92
370
    13
100
AcDbLine
 10
877.6468415215938
 20
-773.0155279503133
 30
0.0
 11
877.6468415215938
 21
1209.984472049686
 31
0.0
  0
LINE
  5
7C
330
1F
100
AcDbEntity
  8
0-0
  6
Continuous
 62
    92
370
    13
100
AcDbLine
 10
-661.3531584784056
 20
1209.984472049686
 30
0.0
 11
877.6468415215938
 21
1209.984472049686
 31
0.0
  0
LINE
  5
7D
330
1F
100
AcDbEntity
  8
0-0
  6
JWW_DASHED1
 62
   120
370
     5
100
AcDbLine
 10
846.646841521594
 20
-773.0155279503133
 30
0.0
 11
846.646841521594
 21
1223.984472049687
 31
0.0
  0
LINE
  5
7E
330
1F
100
AcDbEntity
  8
0-0
  6
JWW_DASHED1
 62
   120
370
     5
100
AcDbLine
 10
816.646841521594
 20
-773.0155279503133
 30
0.0
 11
816.646841521594
 21
1223.984472049687
 31
0.0
  0
LINE
  5
7F
330
1F
100
AcDbEntity
  8
0-0
  6
Continuous
 62
    92
370
    13
100
AcDbLine
 10
846.646841521594
 20
-773.0155279503133
 30
0.0
 11
846.646841521594
 21
-781.0155279503133
 31
0.0
  0
LINE
  5
80
330
1F
100
AcDbEntity
  8
0-0
  6
Continuous
 62
    92
370
    13
100
AcDbLine
 10
816.646841521594
 20
-773.0155279503133
 30
0.0
 11
816.646841521594
 21
-781.0155279503133
 31
0.0
  0
LINE
  5
81
330
1F
100
AcDbEntity
  8
0-0
  6
Continuous
 62
     7
370
     9
100
AcDbLine
 10
-545.8531584784057
 20
-623.0155279503133
 30
0.0
 11
-560.8531584784057
 21
-638.0155279503133
 31
0.0
  0
LINE
  5
82
330
1F
100
AcDbEntity
  8
0-0
  6
Continuous
 62
     7
370
     9
100
AcDbLine
 10
-560.8531584784057
 20
1089.984472049687
 30
0.0
 11
-545.8531584784057
 21
1074.984472049687
 31
0.0
  0
LINE
  5
83
330
1F
100
AcDbEntity
  8
0-0
  6
Continuous
 62
     7
370
     9
100
AcDbLine
 10
-560.8531584784057
 20
-773.0155279503133
 30
0.0
 11
-560.8531584784057
 21
1209.984472049687
 31
0.0
  0
LINE
  5
84
330
1F
100
AcDbEntity
  8
0-0
  6
Continuous
 62
     7
370
     9
100
AcDbLine
 10
27.14684152159279
 20
-623.0155279503133
 30
0.0
 11
42.14684152159279
 21
-638.0155279503133
 31
0.0
  0
LINE
  5
85
330
1F
100
AcDbEntity
  8
0-0
  6
Continuous
 62
     7
370
     9
100
AcDbLine
 10
42.14684152159279
 20
1089.984472049687
 30
0.0
 11
27.14684152159279
 21
1074.984472049687
 31
0.0
  0
LINE
  5
86
330
1F
100
AcDbEntity
  8
0-0
  6
Continuous
 62
     7
370
     9
100
AcDbLine
 10
42.14684152159279
 20
-773.0155279503133
 30
0.0
 11
42.14684152159279
 21
1209.984472049687
 31
0.0
  0
LINE
  5
87
330
1F
100
AcDbEntity
  8
0-0
  6
Continuous
 62
     7
370
     9
100
AcDbLine
 10
-560.8531584784057
 20
1089.984472049687
 30
0.0
 11
42.14684152159279
 21
1089.984472049687
 31
0.0
  0
LINE
  5
88
330
1F
100
AcDbEntity
  8
0-0
  6
Continuous
 62
     7
370
     9
100
AcDbLine
 10
-560.8531584784057
 20
-638.0155279503133
 30
0.0
 11
42.14684152159279
 21
-638.0155279503133
 31
0.0
  0
LINE
  5
89
330
1F
100
AcDbEntity
  8
0-0
  6
Continuous
 62
     7
370
     9
100
AcDbLine
 10
-545.8531584784057
 20
-100.0155279503132
 30
0.0
 11
-560.8531584784057
 21
-115.0155279503132
 31
0.0
  0
LINE
  5
8A
330
1F
100
AcDbEntity
  8
0-0
  6
Continuous
 62
     7
370
     9
100
AcDbLine
 10
-560.8531584784057
 20
-190.0155279503132
 30
0.0
 11
-545.8531584784057
 21
-205.0155279503132
 31
0.0
  0
LINE
  5
8B
330
1F
100
AcDbEntity
  8
0-0
  6
Continuous
 62
     7
370
     9
100
AcDbLine
 10
27.14684152159279
 20
-100.0155279503132
 30
0.0
 11
42.14684152159279
 21
-115.0155279503132
 31
0.0
  0
LINE
  5
8C
330
1F
100
AcDbEntity
  8
0-0
  6
Continuous
 62
     7
370
     9
100
AcDbLine
 10
42.14684152159279
 20
-190.0155279503132
 30
0.0
 11
27.14684152159279
 21
-205.0155279503132
 31
0.0
  0
LINE
  5
8D
330
1F
100
AcDbEntity
  8
0-0
  6
Continuous
 62
     7
370
     9
100
AcDbLine
 10
-560.8531584784057
 20
-115.0155279503132
 30
0.0
 11
42.14684152159279
 21
-115.0155279503132
 31
0.0
  0
LINE
  5
8E
330
1F
100
AcDbEntity
  8
0-0
  6
Continuous
 62
     7
370
     9
100
AcDbLine
 10
-560.8531584784057
 20
-190.0155279503132
 30
0.0
 11
42.14684152159279
 21
-190.0155279503132
 31
0.0
  0
LINE
  5
8F
330
1F
100
AcDbEntity
  8
0-0
  6
Continuous
 62
     7
370
     9
100
AcDbLine
 10
-515.8531584784057
 20
-593.0155279503133
 30
0.0
 11
-515.8531584784057
 21
-235.0155279503132
 31
0.0
  0
LINE
  5
90
330
1F
100
AcDbEntity
  8
0-0
  6
Continuous
 62
     7
370
     9
100
AcDbLine
 10
-515.8531584784057
 20
-593.0155279503133
 30
0.0
 11
-530.8531584784057
 21
-608.0155279503133
 31
0.0
  0
LINE
  5
91
330
1F
100
AcDbEntity
  8
0-0
  6
Continuous
 62
     7
370
     9
100
AcDbLine
 10
-530.8531584784057
 20
-220.0155279503132
 30
0.0
 11
-515.8531584784057
 21
-235.0155279503132
 31
0.0
  0
LINE
  5
92
330
1F
100
AcDbEntity
  8
0-0
  6
Continuous
 62
     7
370
     9
100
AcDbLine
 10
-2.853158478407209
 20
-593.0155279503133
 30
0.0
 11
12.14684152159279
 21
-608.0155279503133
 31
0.0
  0
LINE
  5
93
330
1F
100
AcDbEntity
  8
0-0
  6
Continuous
 62
     7
370
     9
100
AcDbLine
 10
12.14684152159279
 20
-220.0155279503132
 30
0.0
 11
-2.853158478407209
 21
-235.0155279503132
 31
0.0
  0
LINE
  5
94
330
1F
100
AcDbEntity
  8
0-0
  6
Continuous
 62
     7
370
     9
100
AcDbLine
 10
-515.8531584784057
 20
-235.0155279503132
 30
0.0
 11
-2.853158478407209
 21
-235.0155279503132
 31
0.0
  0
LINE
  5
95
330
1F
100
AcDbEntity
  8
0-0
  6
Continuous
 62
     7
370
     9
100
AcDbLine
 10
-2.853158478407209
 20
-593.0155279503133
 30
0.0
 11
-2.853158478407209
 21
-235.0155279503132
 31
0.0
  0
LINE
  5
96
330
1F
100
AcDbEntity
  8
0-0
  6
Continuous
 62
     7
370
     9
100
AcDbLine
 10
-515.8531584784057
 20
-593.0155279503133
 30
0.0
 11
-2.853158478407209
 21
-593.0155279503133
 31
0.0
  0
LINE
  5
97
330
1F
100
AcDbEntity
  8
0-0
  6
Continuous
 62
    92
370
    13
100
AcDbLine
 10
-545.8531584784057
 20
1074.984472049687
 30
0.0
 11
27.14684152159279
 21
1074.984472049687
 31
0.0
  0
LINE
  5
98
330
1F
100
AcDbEntity
  8
0-0
  6
Continuous
 62
    92
370
    13
100
AcDbLine
 10
-545.8531584784057
 20
-623.0155279503133
 30
0.0
 11
27.14684152159279
 21
-623.0155279503133
 31
0.0
  0
LINE
  5
99
330
1F
100
AcDbEntity
  8
0-0
  6
Continuous
 62
    92
370
    13
100
AcDbLine
 10
-545.8531584784057
 20
-100.0155279503132
 30
0.0
 11
27.14684152159279
 21
-100.0155279503132
 31
0.0
  0
LINE
  5
9A
330
1F
100
AcDbEntity
  8
0-0
  6
Continuous
 62
    92
370
    13
100
AcDbLine
 10
-545.8531584784057
 20
-205.0155279503132
 30
0.0
 11
27.14684152159279
 21
-205.0155279503132
 31
0.0
  0
LINE
  5
9B
330
1F
100
AcDbEntity
  8
0-0
  6
Continuous
 62
    92
370
    13
100
AcDbLine
 10
-545.8531584784057
 20
-100.0155279503132
 30
0.0
 11
-545.8531584784057
 21
1074.984472049687
 31
0.0
  0
LINE
  5
9C
330
1F
100
AcDbEntity
  8
0-0
  6
Continuous
 62
    92
370
    13
100
AcDbLine
 10
-545.8531584784057
 20
-623.0155279503133
 30
0.0
 11
-545.8531584784057
 21
-205.0155279503132
 31
0.0
  0
LINE
  5
9D
330
1F
100
AcDbEntity
  8
0-0
  6
Continuous
 62
    92
370
    13
100
AcDbLine
 10
27.14684152159279
 20
-100.0155279503132
 30
0.0
 11
27.14684152159279
 21
1074.984472049687
 31
0.0
  0
LINE
  5
9E
330
1F
100
AcDbEntity
  8
0-0
  6
Continuous
 62
    92
370
    13
100
AcDbLine
 10
27.14684152159279
 20
-623.0155279503133
 30
0.0
 11
27.14684152159279
 21
-205.0155279503132
 31
0.0
  0
LINE
  5
9F
330
1F
100
AcDbEntity
  8
0-0
  6
Continuous
 62
     7
370
     9
100
AcDbLine
 10
186.1468415215953
 20
-623.0155279503133
 30
0.0
 11
171.1468415215953
 21
-638.0155279503133
 31
0.0
  0
LINE
  5
A0
330
1F
100
AcDbEntity
  8
0-0
  6
Continuous
 62
     7
370
     9
100
AcDbLine
 10
171.1468415215953
 20
1089.984472049687
 30
0.0
 11
186.1468415215953
 21
1074.984472049687
 31
0.0
  0
LINE
  5
A1
330
1F
100
AcDbEntity
  8
0-0
  6
Continuous
 62
     7
370
     9
100
AcDbLine
 10
171.1468415215953
 20
-773.0155279503133
 30
0.0
 11
171.1468415215953
 21
1209.984472049687
 31
0.0
  0
LINE
  5
A2
330
1F
100
AcDbEntity
  8
0-0
  6
Continuous
 62
     7
370
     9
100
AcDbLine
 10
759.1468415215938
 20
-623.0155279503133
 30
0.0
 11
774.1468415215938
 21
-638.0155279503133
 31
0.0
  0
LINE
  5
A3
330
1F
100
AcDbEntity
  8
0-0
  6
Continuous
 62
     7
370
     9
100
AcDbLine
 10
774.1468415215938
 20
1089.984472049687
 30
0.0
 11
759.1468415215938
 21
1074.984472049687
 31
0.0
  0
LINE
  5
A4
330
1F
100
AcDbEntity
  8
0-0
  6
Continuous
 62
     7
370
     9
100
AcDbLine
 10
774.1468415215938
 20
-773.0155279503133
 30
0.0
 11
774.1468415215938
 21
1209.984472049687
 31
0.0
  0
LINE
  5
A5
330
1F
100
AcDbEntity
  8
0-0
  6
Continuous
 62
     7
370
     9
100
AcDbLine
 10
171.1468415215953
 20
1089.984472049687
 30
0.0
 11
774.1468415215938
 21
1089.984472049687
 31
0.0
  0
LINE
  5
A6
330
1F
100
AcDbEntity
  8
0-0
  6
Continuous
 62
     7
370
     9
100
AcDbLine
 10
171.1468415215953
 20
-638.0155279503133
 30
0.0
 11
774.1468415215938
 21
-638.0155279503133
 31
0.0
  0
LINE
  5
A7
330
1F
100
AcDbEntity
  8
0-0
  6
Continuous
 62
     7
370
     9
100
AcDbLine
 10
186.1468415215953
 20
-100.0155279503132
 30
0.0
 11
171.1468415215953
 21
-115.0155279503132
 31
0.0
  0
LINE
  5
A8
330
1F
100
AcDbEntity
  8
0-0
  6
Continuous
 62
     7
370
     9
100
AcDbLine
 10
171.1468415215953
 20
-190.0155279503132
 30
0.0
 11
186.1468415215953
 21
-205.0155279503132
 31
0.0
  0
LINE
  5
A9
330
1F
100
AcDbEntity
  8
0-0
  6
Continuous
 62
     7
370
     9
100
AcDbLine
 10
759.1468415215938
 20
-100.0155279503132
 30
0.0
 11
774.1468415215938
 21
-115.0155279503132
 31
0.0
  0
LINE
  5
AA
330
1F
100
AcDbEntity
  8
0-0
  6
Continuous
 62
     7
370
     9
100
AcDbLine
 10
774.1468415215938
 20
-190.0155279503132
 30
0.0
 11
759.1468415215938
 21
-205.0155279503132
 31
0.0
  0
LINE
  5
AB
330
1F
100
AcDbEntity
  8
0-0
  6
Continuous
 62
     7
370
     9
100
AcDbLine
 10
171.1468415215953
 20
-115.0155279503132
 30
0.0
 11
774.1468415215938
 21
-115.0155279503132
 31
0.0
  0
LINE
  5
AC
330
1F
100
AcDbEntity
  8
0-0
  6
Continuous
 62
     7
370
     9
100
AcDbLine
 10
171.1468415215953
 20
-190.0155279503132
 30
0.0
 11
774.1468415215938
 21
-190.0155279503132
 31
0.0
  0
LINE
  5
AD
330
1F
100
AcDbEntity
  8
0-0
  6
Continuous
 62
     7
370
     9
100
AcDbLine
 10
216.1468415215953
 20
-593.0155279503133
 30
0.0
 11
216.1468415215953
 21
-235.0155279503132
 31
0.0
  0
LINE
  5
AE
330
1F
100
AcDbEntity
  8
0-0
  6
Continuous
 62
     7
370
     9
100
AcDbLine
 10
216.1468415215953
 20
-593.0155279503133
 30
0.0
 11
201.1468415215953
 21
-608.0155279503133
 31
0.0
  0
LINE
  5
AF
330
1F
100
AcDbEntity
  8
0-0
  6
Continuous
 62
     7
370
     9
100
AcDbLine
 10
201.1468415215953
 20
-220.0155279503132
 30
0.0
 11
216.1468415215953
 21
-235.0155279503132
 31
0.0
  0
LINE
  5
B0
330
1F
100
AcDbEntity
  8
0-0
  6
Continuous
 62
     7
370
     9
100
AcDbLine
 10
729.1468415215938
 20
-593.0155279503133
 30
0.0
 11
744.1468415215938
 21
-608.0155279503133
 31
0.0
  0
LINE
  5
B1
330
1F
100
AcDbEntity
  8
0-0
  6
Continuous
 62
     7
370
     9
100
AcDbLine
 10
744.1468415215938
 20
-220.0155279503132
 30
0.0
 11
729.1468415215938
 21
-235.0155279503132
 31
0.0
  0
LINE
  5
B2
330
1F
100
AcDbEntity
  8
0-0
  6
Continuous
 62
     7
370
     9
100
AcDbLine
 10
216.1468415215953
 20
-235.0155279503132
 30
0.0
 11
729.1468415215938
 21
-235.0155279503132
 31
0.0
  0
LINE
  5
B3
330
1F
100
AcDbEntity
  8
0-0
  6
Continuous
 62
     7
370
     9
100
AcDbLine
 10
729.1468415215938
 20
-593.0155279503133
 30
0.0
 11
729.1468415215938
 21
-235.0155279503132
 31
0.0
  0
LINE
  5
B4
330
1F
100
AcDbEntity
  8
0-0
  6
Continuous
 62
     7
370
     9
100
AcDbLine
 10
216.1468415215953
 20
-593.0155279503133
 30
0.0
 11
729.1468415215938
 21
-593.0155279503133
 31
0.0
  0
LINE
  5
B5
330
1F
100
AcDbEntity
  8
0-0
  6
Continuous
 62
    92
370
    13
100
AcDbLine
 10
186.1468415215953
 20
1074.984472049687
 30
0.0
 11
759.1468415215938
 21
1074.984472049687
 31
0.0
  0
LINE
  5
B6
330
1F
100
AcDbEntity
  8
0-0
  6
Continuous
 62
    92
370
    13
100
AcDbLine
 10
186.1468415215953
 20
-623.0155279503133
 30
0.0
 11
759.1468415215938
 21
-623.0155279503133
 31
0.0
  0
LINE
  5
B7
330
1F
100
AcDbEntity
  8
0-0
  6
Continuous
 62
    92
370
    13
100
AcDbLine
 10
186.1468415215953
 20
-100.0155279503132
 30
0.0
 11
759.1468415215938
 21
-100.0155279503132
 31
0.0
  0
LINE
  5
B8
330
1F
100
AcDbEntity
  8
0-0
  6
Continuous
 62
    92
370
    13
100
AcDbLine
 10
186.1468415215953
 20
-205.0155279503132
 30
0.0
 11
759.1468415215938
 21
-205.0155279503132
 31
0.0
  0
LINE
  5
B9
330
1F
100
AcDbEntity
  8
0-0
  6
Continuous
 62
    92
370
    13
100
AcDbLine
 10
186.1468415215953
 20
-100.0155279503132
 30
0.0
 11
186.1468415215953
 21
1074.984472049687
 31
0.0
  0
LINE
  5
BA
330
1F
100
AcDbEntity
  8
0-0
  6
Continuous
 62
    92
370
    13
100
AcDbLine
 10
186.1468415215953
 20
-623.0155279503133
 30
0.0
 11
186.1468415215953
 21
-205.0155279503132
 31
0.0
  0
LINE
  5
BB
330
1F
100
AcDbEntity
  8
0-0
  6
Continuous
 62
    92
370
    13
100
AcDbLine
 10
759.1468415215938
 20
-100.0155279503132
 30
0.0
 11
759.1468415215938
 21
1074.984472049687
 31
0.0
  0
LINE
  5
BC
330
1F
100
AcDbEntity
  8
0-0
  6
Continuous
 62
    92
370
    13
100
AcDbLine
 10
759.1468415215938
 20
-623.0155279503133
 30
0.0
 11
759.1468415215938
 21
-205.0155279503132
 31
0.0
  0
LINE
  5
BD
330
1F
100
AcDbEntity
  8
0-0
  6
JWW_DASHED1
 62
   120
370
     5
100
AcDbLine
 10
-545.8531584784066
 20
-99.01567626425685
 30
0.0
 11
27.14684152159407
 21
-99.01567626425685
 31
0.0
  0
LINE
  5
BE
330
1F
100
AcDbEntity
  8
0-0
  6
JWW_DASHED1
 62
   120
370
     5
100
AcDbLine
 10
-545.8531584784066
 20
-86.01567626315713
 30
0.0
 11
27.14684152159407
 21
-86.01567626315713
 31
0.0
  0
LINE
  5
BF
330
1F
100
AcDbEntity
  8
0-0
  6
JWW_DASHED1
 62
   120
370
     5
100
AcDbLine
 10
-545.8531584784066
 20
-85.01567626325695
 30
0.0
 11
27.14684152159407
 21
-85.01567626325695
 31
0.0
  0
LINE
  5
C0
330
1F
100
AcDbEntity
  8
0-0
  6
JWW_DASHED1
 62
   120
370
     5
100
AcDbLine
 10
-545.8531584784066
 20
-72.01567626215734
 30
0.0
 11
27.14684152159407
 21
-72.01567626215734
 31
0.0
  0
LINE
  5
C1
330
1F
100
AcDbEntity
  8
0-0
  6
JWW_DASHED1
 62
   120
370
     5
100
AcDbLine
 10
-545.8531584784066
 20
-71.01567626225716
 30
0.0
 11
27.14684152159407
 21
-71.01567626225716
 31
0.0
  0
LINE
  5
C2
330
1F
100
AcDbEntity
  8
0-0
  6
JWW_DASHED1
 62
   120
370
     5
100
AcDbLine
 10
-545.8531584784066
 20
-58.01567626115755
 30
0.0
 11
27.14684152159407
 21
-58.01567626115755
 31
0.0
  0
LINE
  5
C3
330
1F
100
AcDbEntity
  8
0-0
  6
JWW_DASHED1
 62
   120
370
     5
100
AcDbLine
 10
-545.8531584784066
 20
-57.01567626125737
 30
0.0
 11
27.14684152159407
 21
-57.01567626125737
 31
0.0
  0
LINE
  5
C4
330
1F
100
AcDbEntity
  8
0-0
  6
JWW_DASHED1
 62
   120
370
     5
100
AcDbLine
 10
-545.8531584784066
 20
-44.01567626015776
 30
0.0
 11
27.14684152159407
 21
-44.01567626015776
 31
0.0
  0
LINE
  5
C5
330
1F
100
AcDbEntity
  8
0-0
  6
JWW_DASHED1
 62
   120
370
     5
100
AcDbLine
 10
-545.8531584784066
 20
-43.01567626025758
 30
0.0
 11
27.14684152159407
 21
-43.01567626025758
 31
0.0
  0
LINE
  5
C6
330
1F
100
AcDbEntity
  8
0-0
  6
JWW_DASHED1
 62
   120
370
     5
100
AcDbLine
 10
-545.8531584784066
 20
-30.01567625915797
 30
0.0
 11
27.14684152159407
 21
-30.01567625915797
 31
0.0
  0
LINE
  5
C7
330
1F
100
AcDbEntity
  8
0-0
  6
JWW_DASHED1
 62
   120
370
     5
100
AcDbLine
 10
-545.8531584784066
 20
-29.01567625925779
 30
0.0
 11
27.14684152159407
 21
-29.01567625925779
 31
0.0
  0
LINE
  5
C8
330
1F
100
AcDbEntity
  8
0-0
  6
JWW_DASHED1
 62
   120
370
     5
100
AcDbLine
 10
-545.8531584784066
 20
-16.01567625815818
 30
0.0
 11
27.14684152159407
 21
-16.01567625815818
 31
0.0
  0
LINE
  5
C9
330
1F
100
AcDbEntity
  8
0-0
  6
JWW_DASHED1
 62
   120
370
     5
100
AcDbLine
 10
-545.8531584784066
 20
-15.015676258258
 30
0.0
 11
27.14684152159407
 21
-15.015676258258
 31
0.0
  0
LINE
  5
CA
330
1F
100
AcDbEntity
  8
0-0
  6
JWW_DASHED1
 62
   120
370
     5
100
AcDbLine
 10
-545.8531584784066
 20
-2.01567625715839
 30
0.0
 11
27.14684152159407
 21
-2.01567625715839
 31
0.0
  0
LINE
  5
CB
330
1F
100
AcDbEntity
  8
0-0
  6
JWW_DASHED1
 62
   120
370
     5
100
AcDbLine
 10
-545.8531584784066
 20
-1.015676257258207
 30
0.0
 11
27.14684152159407
 21
-1.015676257258207
 31
0.0
  0
LINE
  5
CC
330
1F
100
AcDbEntity
  8
0-0
  6
JWW_DASHED1
 62
   120
370
     5
100
AcDbLine
 10
-545.8531584784066
 20
11.98432374384129
 30
0.0
 11
27.14684152159407
 21
11.98432374384129
 31
0.0
  0
LINE
  5
CD
330
1F
100
AcDbEntity
  8
0-0
  6
JWW_DASHED1
 62
   120
370
     5
100
AcDbLine
 10
-545.8531584784066
 20
12.98432374374148
 30
0.0
 11
27.14684152159407
 21
12.98432374374148
 31
0.0
  0
LINE
  5
CE
330
1F
100
AcDbEntity
  8
0-0
  6
JWW_DASHED1
 62
   120
370
     5
100
AcDbLine
 10
-545.8531584784066
 20
25.98432374484119
 30
0.0
 11
27.14684152159407
 21
25.98432374484119
 31
0.0
  0
LINE
  5
CF
330
1F
100
AcDbEntity
  8
0-0
  6
JWW_DASHED1
 62
   120
370
     5
100
AcDbLine
 10
-545.8531584784066
 20
26.98432374474137
 30
0.0
 11
27.14684152159407
 21
26.98432374474137
 31
0.0
  0
LINE
  5
D0
330
1F
100
AcDbEntity
  8
0-0
  6
JWW_DASHED1
 62
   120
370
     5
100
AcDbLine
 10
-545.8531584784066
 20
39.98432374584098
 30
0.0
 11
27.14684152159407
 21
39.98432374584098
 31
0.0
  0
LINE
  5
D1
330
1F
100
AcDbEntity
  8
0-0
  6
JWW_DASHED1
 62
   120
370
     5
100
AcDbLine
 10
-545.8531584784066
 20
40.98432374574116
 30
0.0
 11
27.14684152159407
 21
40.98432374574116
 31
0.0
  0
LINE
  5
D2
330
1F
100
AcDbEntity
  8
0-0
  6
JWW_DASHED1
 62
   120
370
     5
100
AcDbLine
 10
-545.8531584784066
 20
53.98432374684077
 30
0.0
 11
27.14684152159407
 21
53.98432374684077
 31
0.0
  0
LINE
  5
D3
330
1F
100
AcDbEntity
  8
0-0
  6
JWW_DASHED1
 62
   120
370
     5
100
AcDbLine
 10
-545.8531584784066
 20
54.98432374674096
 30
0.0
 11
27.14684152159407
 21
54.98432374674096
 31
0.0
  0
LINE
  5
D4
330
1F
100
AcDbEntity
  8
0-0
  6
JWW_DASHED1
 62
   120
370
     5
100
AcDbLine
 10
-545.8531584784066
 20
67.98432374784056
 30
0.0
 11
27.14684152159407
 21
67.98432374784056
 31
0.0
  0
LINE
  5
D5
330
1F
100
AcDbEntity
  8
0-0
  6
JWW_DASHED1
 62
   120
370
     5
100
AcDbLine
 10
-545.8531584784066
 20
68.98432374774075
 30
0.0
 11
27.14684152159407
 21
68.98432374774075
 31
0.0
  0
LINE
  5
D6
330
1F
100
AcDbEntity
  8
0-0
  6
JWW_DASHED1
 62
   120
370
     5
100
AcDbLine
 10
-545.8531584784066
 20
81.98432374884035
 30
0.0
 11
27.14684152159407
 21
81.98432374884035
 31
0.0
  0
LINE
  5
D7
330
1F
100
AcDbEntity
  8
0-0
  6
JWW_DASHED1
 62
   120
370
     5
100
AcDbLine
 10
-545.8531584784066
 20
82.98432374874054
 30
0.0
 11
27.14684152159407
 21
82.98432374874054
 31
0.0
  0
LINE
  5
D8
330
1F
100
AcDbEntity
  8
0-0
  6
JWW_DASHED1
 62
   120
370
     5
100
AcDbLine
 10
-545.8531584784066
 20
95.98432374984014
 30
0.0
 11
27.14684152159407
 21
95.98432374984014
 31
0.0
  0
LINE
  5
D9
330
1F
100
AcDbEntity
  8
0-0
  6
JWW_DASHED1
 62
   120
370
     5
100
AcDbLine
 10
-545.8531584784066
 20
96.98432374974033
 30
0.0
 11
27.14684152159407
 21
96.98432374974033
 31
0.0
  0
LINE
  5
DA
330
1F
100
AcDbEntity
  8
0-0
  6
JWW_DASHED1
 62
   120
370
     5
100
AcDbLine
 10
-545.8531584784066
 20
109.9843237508399
 30
0.0
 11
27.14684152159407
 21
109.9843237508399
 31
0.0
  0
LINE
  5
DB
330
1F
100
AcDbEntity
  8
0-0
  6
JWW_DASHED1
 62
   120
370
     5
100
AcDbLine
 10
-545.8531584784066
 20
110.9843237507401
 30
0.0
 11
27.14684152159407
 21
110.9843237507401
 31
0.0
  0
LINE
  5
DC
330
1F
100
AcDbEntity
  8
0-0
  6
JWW_DASHED1
 62
   120
370
     5
100
AcDbLine
 10
-545.8531584784066
 20
123.9843237518396
 30
0.0
 11
27.14684152159407
 21
123.9843237518396
 31
0.0
  0
LINE
  5
DD
330
1F
100
AcDbEntity
  8
0-0
  6
JWW_DASHED1
 62
   120
370
     5
100
AcDbLine
 10
-545.8531584784066
 20
124.9843237517398
 30
0.0
 11
27.14684152159407
 21
124.9843237517398
 31
0.0
  0
LINE
  5
DE
330
1F
100
AcDbEntity
  8
0-0
  6
JWW_DASHED1
 62
   120
370
     5
100
AcDbLine
 10
-545.8531584784066
 20
137.9843237528395
 30
0.0
 11
27.14684152159407
 21
137.9843237528395
 31
0.0
  0
LINE
  5
DF
330
1F
100
AcDbEntity
  8
0-0
  6
JWW_DASHED1
 62
   120
370
     5
100
AcDbLine
 10
-545.8531584784066
 20
138.9843237527397
 30
0.0
 11
27.14684152159407
 21
138.9843237527397
 31
0.0
  0
LINE
  5
E0
330
1F
100
AcDbEntity
  8
0-0
  6
JWW_DASHED1
 62
   120
370
     5
100
AcDbLine
 10
-545.8531584784066
 20
151.9843237538393
 30
0.0
 11
27.14684152159407
 21
151.9843237538393
 31
0.0
  0
LINE
  5
E1
330
1F
100
AcDbEntity
  8
0-0
  6
JWW_DASHED1
 62
   120
370
     5
100
AcDbLine
 10
-545.8531584784066
 20
152.9843237537395
 30
0.0
 11
27.14684152159407
 21
152.9843237537395
 31
0.0
  0
LINE
  5
E2
330
1F
100
AcDbEntity
  8
0-0
  6
JWW_DASHED1
 62
   120
370
     5
100
AcDbLine
 10
-545.8531584784066
 20
165.9843237548391
 30
0.0
 11
27.14684152159407
 21
165.9843237548391
 31
0.0
  0
LINE
  5
E3
330
1F
100
AcDbEntity
  8
0-0
  6
JWW_DASHED1
 62
   120
370
     5
100
AcDbLine
 10
-545.8531584784066
 20
166.9843237547393
 30
0.0
 11
27.14684152159407
 21
166.9843237547393
 31
0.0
  0
LINE
  5
E4
330
1F
100
AcDbEntity
  8
0-0
  6
JWW_DASHED1
 62
   120
370
     5
100
AcDbLine
 10
-545.8531584784066
 20
179.9843237558389
 30
0.0
 11
27.14684152159407
 21
179.9843237558389
 31
0.0
  0
LINE
  5
E5
330
1F
100
AcDbEntity
  8
0-0
  6
JWW_DASHED1
 62
   120
370
     5
100
AcDbLine
 10
-545.8531584784066
 20
180.9843237557391
 30
0.0
 11
27.14684152159407
 21
180.9843237557391
 31
0.0
  0
LINE
  5
E6
330
1F
100
AcDbEntity
  8
0-0
  6
JWW_DASHED1
 62
   120
370
     5
100
AcDbLine
 10
-545.8531584784066
 20
193.9843237568387
 30
0.0
 11
27.14684152159407
 21
193.9843237568387
 31
0.0
  0
LINE
  5
E7
330
1F
100
AcDbEntity
  8
0-0
  6
JWW_DASHED1
 62
   120
370
     5
100
AcDbLine
 10
-545.8531584784066
 20
194.9843237567389
 30
0.0
 11
27.14684152159407
 21
194.9843237567389
 31
0.0
  0
LINE
  5
E8
330
1F
100
AcDbEntity
  8
0-0
  6
JWW_DASHED1
 62
   120
370
     5
100
AcDbLine
 10
-545.8531584784066
 20
207.9843237578385
 30
0.0
 11
27.14684152159407
 21
207.9843237578385
 31
0.0
  0
LINE
  5
E9
330
1F
100
AcDbEntity
  8
0-0
  6
JWW_DASHED1
 62
   120
370
     5
100
AcDbLine
 10
-545.8531584784066
 20
208.9843237577387
 30
0.0
 11
27.14684152159407
 21
208.9843237577387
 31
0.0
  0
LINE
  5
EA
330
1F
100
AcDbEntity
  8
0-0
  6
JWW_DASHED1
 62
   120
370
     5
100
AcDbLine
 10
-545.8531584784066
 20
221.9843237588383
 30
0.0
 11
27.14684152159407
 21
221.9843237588383
 31
0.0
  0
LINE
  5
EB
330
1F
100
AcDbEntity
  8
0-0
  6
JWW_DASHED1
 62
   120
370
     5
100
AcDbLine
 10
-545.8531584784066
 20
222.9843237587384
 30
0.0
 11
27.14684152159407
 21
222.9843237587384
 31
0.0
  0
LINE
  5
EC
330
1F
100
AcDbEntity
  8
0-0
  6
JWW_DASHED1
 62
   120
370
     5
100
AcDbLine
 10
-545.8531584784066
 20
235.984323759838
 30
0.0
 11
27.14684152159407
 21
235.984323759838
 31
0.0
  0
LINE
  5
ED
330
1F
100
AcDbEntity
  8
0-0
  6
JWW_DASHED1
 62
   120
370
     5
100
AcDbLine
 10
-545.8531584784066
 20
236.9843237597382
 30
0.0
 11
27.14684152159407
 21
236.9843237597382
 31
0.0
  0
LINE
  5
EE
330
1F
100
AcDbEntity
  8
0-0
  6
JWW_DASHED1
 62
   120
370
     5
100
AcDbLine
 10
-545.8531584784066
 20
249.9843237608378
 30
0.0
 11
27.14684152159407
 21
249.9843237608378
 31
0.0
  0
LINE
  5
EF
330
1F
100
AcDbEntity
  8
0-0
  6
JWW_DASHED1
 62
   120
370
     5
100
AcDbLine
 10
-545.8531584784066
 20
250.984323760738
 30
0.0
 11
27.14684152159407
 21
250.984323760738
 31
0.0
  0
LINE
  5
F0
330
1F
100
AcDbEntity
  8
0-0
  6
JWW_DASHED1
 62
   120
370
     5
100
AcDbLine
 10
-545.8531584784066
 20
263.9843237618374
 30
0.0
 11
27.14684152159407
 21
263.9843237618374
 31
0.0
  0
LINE
  5
F1
330
1F
100
AcDbEntity
  8
0-0
  6
JWW_DASHED1
 62
   120
370
     5
100
AcDbLine
 10
-545.8531584784066
 20
264.9843237617378
 30
0.0
 11
27.14684152159407
 21
264.9843237617378
 31
0.0
  0
LINE
  5
F2
330
1F
100
AcDbEntity
  8
0-0
  6
JWW_DASHED1
 62
   120
370
     5
100
AcDbLine
 10
-545.8531584784066
 20
277.9843237628374
 30
0.0
 11
27.14684152159407
 21
277.9843237628374
 31
0.0
  0
LINE
  5
F3
330
1F
100
AcDbEntity
  8
0-0
  6
JWW_DASHED1
 62
   120
370
     5
100
AcDbLine
 10
-545.8531584784066
 20
278.9843237627376
 30
0.0
 11
27.14684152159407
 21
278.9843237627376
 31
0.0
  0
LINE
  5
F4
330
1F
100
AcDbEntity
  8
0-0
  6
JWW_DASHED1
 62
   120
370
     5
100
AcDbLine
 10
-545.8531584784066
 20
291.9843237638372
 30
0.0
 11
27.14684152159407
 21
291.9843237638372
 31
0.0
  0
LINE
  5
F5
330
1F
100
AcDbEntity
  8
0-0
  6
JWW_DASHED1
 62
   120
370
     5
100
AcDbLine
 10
-545.8531584784066
 20
292.9843237637374
 30
0.0
 11
27.14684152159407
 21
292.9843237637374
 31
0.0
  0
LINE
  5
F6
330
1F
100
AcDbEntity
  8
0-0
  6
JWW_DASHED1
 62
   120
370
     5
100
AcDbLine
 10
-545.8531584784066
 20
305.984323764837
 30
0.0
 11
27.14684152159407
 21
305.984323764837
 31
0.0
  0
LINE
  5
F7
330
1F
100
AcDbEntity
  8
0-0
  6
JWW_DASHED1
 62
   120
370
     5
100
AcDbLine
 10
-545.8531584784066
 20
306.9843237647372
 30
0.0
 11
27.14684152159407
 21
306.9843237647372
 31
0.0
  0
LINE
  5
F8
330
1F
100
AcDbEntity
  8
0-0
  6
JWW_DASHED1
 62
   120
370
     5
100
AcDbLine
 10
-545.8531584784066
 20
319.9843237658368
 30
0.0
 11
27.14684152159407
 21
319.9843237658368
 31
0.0
  0
LINE
  5
F9
330
1F
100
AcDbEntity
  8
0-0
  6
JWW_DASHED1
 62
   120
370
     5
100
AcDbLine
 10
-545.8531584784066
 20
320.984323765737
 30
0.0
 11
27.14684152159407
 21
320.984323765737
 31
0.0
  0
LINE
  5
FA
330
1F
100
AcDbEntity
  8
0-0
  6
JWW_DASHED1
 62
   120
370
     5
100
AcDbLine
 10
-545.8531584784066
 20
333.9843237668366
 30
0.0
 11
27.14684152159407
 21
333.9843237668366
 31
0.0
  0
LINE
  5
FB
330
1F
100
AcDbEntity
  8
0-0
  6
JWW_DASHED1
 62
   120
370
     5
100
AcDbLine
 10
-545.8531584784066
 20
334.9843237667368
 30
0.0
 11
27.14684152159407
 21
334.9843237667368
 31
0.0
  0
LINE
  5
FC
330
1F
100
AcDbEntity
  8
0-0
  6
JWW_DASHED1
 62
   120
370
     5
100
AcDbLine
 10
-545.8531584784066
 20
347.9843237678364
 30
0.0
 11
27.14684152159407
 21
347.9843237678364
 31
0.0
  0
LINE
  5
FD
330
1F
100
AcDbEntity
  8
0-0
  6
JWW_DASHED1
 62
   120
370
     5
100
AcDbLine
 10
-545.8531584784066
 20
348.9843237677366
 30
0.0
 11
27.14684152159407
 21
348.9843237677366
 31
0.0
  0
LINE
  5
FE
330
1F
100
AcDbEntity
  8
0-0
  6
JWW_DASHED1
 62
   120
370
     5
100
AcDbLine
 10
-545.8531584784066
 20
361.9843237688361
 30
0.0
 11
27.14684152159407
 21
361.9843237688361
 31
0.0
  0
LINE
  5
FF
330
1F
100
AcDbEntity
  8
0-0
  6
JWW_DASHED1
 62
   120
370
     5
100
AcDbLine
 10
-545.8531584784066
 20
362.9843237687363
 30
0.0
 11
27.14684152159407
 21
362.9843237687363
 31
0.0
  0
LINE
  5
100
330
1F
100
AcDbEntity
  8
0-0
  6
JWW_DASHED1
 62
   120
370
     5
100
AcDbLine
 10
-545.8531584784066
 20
375.984323769836
 30
0.0
 11
27.14684152159407
 21
375.984323769836
 31
0.0
  0
LINE
  5
101
330
1F
100
AcDbEntity
  8
0-0
  6
JWW_DASHED1
 62
   120
370
     5
100
AcDbLine
 10
-545.8531584784066
 20
376.9843237697359
 30
0.0
 11
27.14684152159407
 21
376.9843237697359
 31
0.0
  0
LINE
  5
102
330
1F
100
AcDbEntity
  8
0-0
  6
JWW_DASHED1
 62
   120
370
     5
100
AcDbLine
 10
-545.8531584784066
 20
389.9843237708358
 30
0.0
 11
27.14684152159407
 21
389.9843237708358
 31
0.0
  0
LINE
  5
103
330
1F
100
AcDbEntity
  8
0-0
  6
JWW_DASHED1
 62
   120
370
     5
100
AcDbLine
 10
-545.8531584784066
 20
390.984323770736
 30
0.0
 11
27.14684152159407
 21
390.984323770736
 31
0.0
  0
LINE
  5
104
330
1F
100
AcDbEntity
  8
0-0
  6
JWW_DASHED1
 62
   120
370
     5
100
AcDbLine
 10
-545.8531584784066
 20
403.9843237718355
 30
0.0
 11
27.14684152159407
 21
403.9843237718355
 31
0.0
  0
LINE
  5
105
330
1F
100
AcDbEntity
  8
0-0
  6
JWW_DASHED1
 62
   120
370
     5
100
AcDbLine
 10
-545.8531584784066
 20
404.9843237717357
 30
0.0
 11
27.14684152159407
 21
404.9843237717357
 31
0.0
  0
LINE
  5
106
330
1F
100
AcDbEntity
  8
0-0
  6
JWW_DASHED1
 62
   120
370
     5
100
AcDbLine
 10
-545.8531584784066
 20
417.9843237728353
 30
0.0
 11
27.14684152159407
 21
417.9843237728353
 31
0.0
  0
LINE
  5
107
330
1F
100
AcDbEntity
  8
0-0
  6
JWW_DASHED1
 62
   120
370
     5
100
AcDbLine
 10
-545.8531584784066
 20
418.9843237727355
 30
0.0
 11
27.14684152159407
 21
418.9843237727355
 31
0.0
  0
LINE
  5
108
330
1F
100
AcDbEntity
  8
0-0
  6
JWW_DASHED1
 62
   120
370
     5
100
AcDbLine
 10
-545.8531584784066
 20
431.9843237738351
 30
0.0
 11
27.14684152159407
 21
431.9843237738351
 31
0.0
  0
LINE
  5
109
330
1F
100
AcDbEntity
  8
0-0
  6
JWW_DASHED1
 62
   120
370
     5
100
AcDbLine
 10
-545.8531584784066
 20
432.9843237737353
 30
0.0
 11
27.14684152159407
 21
432.9843237737353
 31
0.0
  0
LINE
  5
10A
330
1F
100
AcDbEntity
  8
0-0
  6
JWW_DASHED1
 62
   120
370
     5
100
AcDbLine
 10
-545.8531584784066
 20
445.9843237748349
 30
0.0
 11
27.14684152159407
 21
445.9843237748349
 31
0.0
  0
LINE
  5
10B
330
1F
100
AcDbEntity
  8
0-0
  6
JWW_DASHED1
 62
   120
370
     5
100
AcDbLine
 10
-545.8531584784066
 20
446.9843237747351
 30
0.0
 11
27.14684152159407
 21
446.9843237747351
 31
0.0
  0
LINE
  5
10C
330
1F
100
AcDbEntity
  8
0-0
  6
JWW_DASHED1
 62
   120
370
     5
100
AcDbLine
 10
-545.8531584784066
 20
459.9843237758347
 30
0.0
 11
27.14684152159407
 21
459.9843237758347
 31
0.0
  0
LINE
  5
10D
330
1F
100
AcDbEntity
  8
0-0
  6
JWW_DASHED1
 62
   120
370
     5
100
AcDbLine
 10
-545.8531584784066
 20
460.9843237757349
 30
0.0
 11
27.14684152159407
 21
460.9843237757349
 31
0.0
  0
LINE
  5
10E
330
1F
100
AcDbEntity
  8
0-0
  6
JWW_DASHED1
 62
   120
370
     5
100
AcDbLine
 10
-545.8531584784066
 20
473.9843237768345
 30
0.0
 11
27.14684152159407
 21
473.9843237768345
 31
0.0
  0
LINE
  5
10F
330
1F
100
AcDbEntity
  8
0-0
  6
JWW_DASHED1
 62
   120
370
     5
100
AcDbLine
 10
-545.8531584784066
 20
474.9843237767346
 30
0.0
 11
27.14684152159407
 21
474.9843237767346
 31
0.0
  0
LINE
  5
110
330
1F
100
AcDbEntity
  8
0-0
  6
JWW_DASHED1
 62
   120
370
     5
100
AcDbLine
 10
-545.8531584784066
 20
487.984323777834
 30
0.0
 11
27.14684152159407
 21
487.984323777834
 31
0.0
  0
LINE
  5
111
330
1F
100
AcDbEntity
  8
0-0
  6
JWW_DASHED1
 62
   120
370
     5
100
AcDbLine
 10
-545.8531584784066
 20
488.9843237777345
 30
0.0
 11
27.14684152159407
 21
488.9843237777345
 31
0.0
  0
LINE
  5
112
330
1F
100
AcDbEntity
  8
0-0
  6
JWW_DASHED1
 62
   120
370
     5
100
AcDbLine
 10
-545.8531584784066
 20
501.9843237788341
 30
0.0
 11
27.14684152159407
 21
501.9843237788341
 31
0.0
  0
LINE
  5
113
330
1F
100
AcDbEntity
  8
0-0
  6
JWW_DASHED1
 62
   120
370
     5
100
AcDbLine
 10
-545.8531584784066
 20
502.9843237787343
 30
0.0
 11
27.14684152159407
 21
502.9843237787343
 31
0.0
  0
LINE
  5
114
330
1F
100
AcDbEntity
  8
0-0
  6
JWW_DASHED1
 62
   120
370
     5
100
AcDbLine
 10
-545.8531584784066
 20
515.9843237798339
 30
0.0
 11
27.14684152159407
 21
515.9843237798339
 31
0.0
  0
LINE
  5
115
330
1F
100
AcDbEntity
  8
0-0
  6
JWW_DASHED1
 62
   120
370
     5
100
AcDbLine
 10
-545.8531584784066
 20
516.984323779734
 30
0.0
 11
27.14684152159407
 21
516.984323779734
 31
0.0
  0
LINE
  5
116
330
1F
100
AcDbEntity
  8
0-0
  6
JWW_DASHED1
 62
   120
370
     5
100
AcDbLine
 10
-545.8531584784066
 20
529.9843237808336
 30
0.0
 11
27.14684152159407
 21
529.9843237808336
 31
0.0
  0
LINE
  5
117
330
1F
100
AcDbEntity
  8
0-0
  6
JWW_DASHED1
 62
   120
370
     5
100
AcDbLine
 10
-545.8531584784066
 20
530.9843237807338
 30
0.0
 11
27.14684152159407
 21
530.9843237807338
 31
0.0
  0
LINE
  5
118
330
1F
100
AcDbEntity
  8
0-0
  6
JWW_DASHED1
 62
   120
370
     5
100
AcDbLine
 10
-545.8531584784066
 20
543.9843237818334
 30
0.0
 11
27.14684152159407
 21
543.9843237818334
 31
0.0
  0
LINE
  5
119
330
1F
100
AcDbEntity
  8
0-0
  6
JWW_DASHED1
 62
   120
370
     5
100
AcDbLine
 10
-545.8531584784066
 20
544.9843237817336
 30
0.0
 11
27.14684152159407
 21
544.9843237817336
 31
0.0
  0
LINE
  5
11A
330
1F
100
AcDbEntity
  8
0-0
  6
JWW_DASHED1
 62
   120
370
     5
100
AcDbLine
 10
-545.8531584784066
 20
557.9843237828333
 30
0.0
 11
27.14684152159407
 21
557.9843237828333
 31
0.0
  0
LINE
  5
11B
330
1F
100
AcDbEntity
  8
0-0
  6
JWW_DASHED1
 62
   120
370
     5
100
AcDbLine
 10
-545.8531584784066
 20
558.9843237827334
 30
0.0
 11
27.14684152159407
 21
558.9843237827334
 31
0.0
  0
LINE
  5
11C
330
1F
100
AcDbEntity
  8
0-0
  6
JWW_DASHED1
 62
   120
370
     5
100
AcDbLine
 10
-545.8531584784066
 20
571.984323783833
 30
0.0
 11
27.14684152159407
 21
571.984323783833
 31
0.0
  0
LINE
  5
11D
330
1F
100
AcDbEntity
  8
0-0
  6
JWW_DASHED1
 62
   120
370
     5
100
AcDbLine
 10
-545.8531584784066
 20
572.9843237837332
 30
0.0
 11
27.14684152159407
 21
572.9843237837332
 31
0.0
  0
LINE
  5
11E
330
1F
100
AcDbEntity
  8
0-0
  6
JWW_DASHED1
 62
   120
370
     5
100
AcDbLine
 10
-545.8531584784066
 20
585.9843237848328
 30
0.0
 11
27.14684152159407
 21
585.9843237848328
 31
0.0
  0
LINE
  5
11F
330
1F
100
AcDbEntity
  8
0-0
  6
JWW_DASHED1
 62
   120
370
     5
100
AcDbLine
 10
-545.8531584784066
 20
586.984323784733
 30
0.0
 11
27.14684152159407
 21
586.984323784733
 31
0.0
  0
LINE
  5
120
330
1F
100
AcDbEntity
  8
0-0
  6
JWW_DASHED1
 62
   120
370
     5
100
AcDbLine
 10
-545.8531584784066
 20
599.9843237858327
 30
0.0
 11
27.14684152159407
 21
599.9843237858327
 31
0.0
  0
LINE
  5
121
330
1F
100
AcDbEntity
  8
0-0
  6
JWW_DASHED1
 62
   120
370
     5
100
AcDbLine
 10
-545.8531584784066
 20
600.9843237857326
 30
0.0
 11
27.14684152159407
 21
600.9843237857326
 31
0.0
  0
LINE
  5
122
330
1F
100
AcDbEntity
  8
0-0
  6
JWW_DASHED1
 62
   120
370
     5
100
AcDbLine
 10
-545.8531584784066
 20
613.9843237868324
 30
0.0
 11
27.14684152159407
 21
613.9843237868324
 31
0.0
  0
LINE
  5
123
330
1F
100
AcDbEntity
  8
0-0
  6
JWW_DASHED1
 62
   120
370
     5
100
AcDbLine
 10
-545.8531584784066
 20
614.9843237867326
 30
0.0
 11
27.14684152159407
 21
614.9843237867326
 31
0.0
  0
LINE
  5
124
330
1F
100
AcDbEntity
  8
0-0
  6
JWW_DASHED1
 62
   120
370
     5
100
AcDbLine
 10
-545.8531584784066
 20
627.9843237878322
 30
0.0
 11
27.14684152159407
 21
627.9843237878322
 31
0.0
  0
LINE
  5
125
330
1F
100
AcDbEntity
  8
0-0
  6
JWW_DASHED1
 62
   120
370
     5
100
AcDbLine
 10
-545.8531584784066
 20
628.9843237877324
 30
0.0
 11
27.14684152159407
 21
628.9843237877324
 31
0.0
  0
LINE
  5
126
330
1F
100
AcDbEntity
  8
0-0
  6
JWW_DASHED1
 62
   120
370
     5
100
AcDbLine
 10
-545.8531584784066
 20
641.984323788832
 30
0.0
 11
27.14684152159407
 21
641.984323788832
 31
0.0
  0
LINE
  5
127
330
1F
100
AcDbEntity
  8
0-0
  6
JWW_DASHED1
 62
   120
370
     5
100
AcDbLine
 10
-545.8531584784066
 20
642.9843237887321
 30
0.0
 11
27.14684152159407
 21
642.9843237887321
 31
0.0
  0
LINE
  5
128
330
1F
100
AcDbEntity
  8
0-0
  6
JWW_DASHED1
 62
   120
370
     5
100
AcDbLine
 10
-545.8531584784066
 20
655.9843237898317
 30
0.0
 11
27.14684152159407
 21
655.9843237898317
 31
0.0
  0
LINE
  5
129
330
1F
100
AcDbEntity
  8
0-0
  6
JWW_DASHED1
 62
   120
370
     5
100
AcDbLine
 10
-545.8531584784066
 20
656.9843237897319
 30
0.0
 11
27.14684152159407
 21
656.9843237897319
 31
0.0
  0
LINE
  5
12A
330
1F
100
AcDbEntity
  8
0-0
  6
JWW_DASHED1
 62
   120
370
     5
100
AcDbLine
 10
-545.8531584784066
 20
669.9843237908316
 30
0.0
 11
27.14684152159407
 21
669.9843237908316
 31
0.0
  0
LINE
  5
12B
330
1F
100
AcDbEntity
  8
0-0
  6
JWW_DASHED1
 62
   120
370
     5
100
AcDbLine
 10
-545.8531584784066
 20
670.9843237907318
 30
0.0
 11
27.14684152159407
 21
670.9843237907318
 31
0.0
  0
LINE
  5
12C
330
1F
100
AcDbEntity
  8
0-0
  6
JWW_DASHED1
 62
   120
370
     5
100
AcDbLine
 10
-545.8531584784066
 20
683.9843237918313
 30
0.0
 11
27.14684152159407
 21
683.9843237918313
 31
0.0
  0
LINE
  5
12D
330
1F
100
AcDbEntity
  8
0-0
  6
JWW_DASHED1
 62
   120
370
     5
100
AcDbLine
 10
-545.8531584784066
 20
684.9843237917315
 30
0.0
 11
27.14684152159407
 21
684.9843237917315
 31
0.0
  0
LINE
  5
12E
330
1F
100
AcDbEntity
  8
0-0
  6
JWW_DASHED1
 62
   120
370
     5
100
AcDbLine
 10
-545.8531584784066
 20
697.9843237928311
 30
0.0
 11
27.14684152159407
 21
697.9843237928311
 31
0.0
  0
LINE
  5
12F
330
1F
100
AcDbEntity
  8
0-0
  6
JWW_DASHED1
 62
   120
370
     5
100
AcDbLine
 10
-545.8531584784066
 20
698.9843237927313
 30
0.0
 11
27.14684152159407
 21
698.9843237927313
 31
0.0
  0
LINE
  5
130
330
1F
100
AcDbEntity
  8
0-0
  6
JWW_DASHED1
 62
   120
370
     5
100
AcDbLine
 10
-545.8531584784066
 20
711.9843237938308
 30
0.0
 11
27.14684152159407
 21
711.9843237938308
 31
0.0
  0
LINE
  5
131
330
1F
100
AcDbEntity
  8
0-0
  6
JWW_DASHED1
 62
   120
370
     5
100
AcDbLine
 10
-545.8531584784066
 20
712.9843237937312
 30
0.0
 11
27.14684152159407
 21
712.9843237937312
 31
0.0
  0
LINE
  5
132
330
1F
100
AcDbEntity
  8
0-0
  6
JWW_DASHED1
 62
   120
370
     5
100
AcDbLine
 10
-545.8531584784066
 20
725.9843237948307
 30
0.0
 11
27.14684152159407
 21
725.9843237948307
 31
0.0
  0
LINE
  5
133
330
1F
100
AcDbEntity
  8
0-0
  6
JWW_DASHED1
 62
   120
370
     5
100
AcDbLine
 10
-545.8531584784066
 20
726.9843237947309
 30
0.0
 11
27.14684152159407
 21
726.9843237947309
 31
0.0
  0
LINE
  5
134
330
1F
100
AcDbEntity
  8
0-0
  6
JWW_DASHED1
 62
   120
370
     5
100
AcDbLine
 10
-545.8531584784066
 20
739.9843237958305
 30
0.0
 11
27.14684152159407
 21
739.9843237958305
 31
0.0
  0
LINE
  5
135
330
1F
100
AcDbEntity
  8
0-0
  6
JWW_DASHED1
 62
   120
370
     5
100
AcDbLine
 10
-545.8531584784066
 20
740.9843237957307
 30
0.0
 11
27.14684152159407
 21
740.9843237957307
 31
0.0
  0
LINE
  5
136
330
1F
100
AcDbEntity
  8
0-0
  6
JWW_DASHED1
 62
   120
370
     5
100
AcDbLine
 10
-545.8531584784066
 20
753.9843237968303
 30
0.0
 11
27.14684152159407
 21
753.9843237968303
 31
0.0
  0
LINE
  5
137
330
1F
100
AcDbEntity
  8
0-0
  6
JWW_DASHED1
 62
   120
370
     5
100
AcDbLine
 10
-545.8531584784066
 20
754.9843237967305
 30
0.0
 11
27.14684152159407
 21
754.9843237967305
 31
0.0
  0
LINE
  5
138
330
1F
100
AcDbEntity
  8
0-0
  6
JWW_DASHED1
 62
   120
370
     5
100
AcDbLine
 10
-545.8531584784066
 20
767.98432379783
 30
0.0
 11
27.14684152159407
 21
767.98432379783
 31
0.0
  0
LINE
  5
139
330
1F
100
AcDbEntity
  8
0-0
  6
JWW_DASHED1
 62
   120
370
     5
100
AcDbLine
 10
-545.8531584784066
 20
768.9843237977302
 30
0.0
 11
27.14684152159407
 21
768.9843237977302
 31
0.0
  0
LINE
  5
13A
330
1F
100
AcDbEntity
  8
0-0
  6
JWW_DASHED1
 62
   120
370
     5
100
AcDbLine
 10
-545.8531584784066
 20
781.9843237988299
 30
0.0
 11
27.14684152159407
 21
781.9843237988299
 31
0.0
  0
LINE
  5
13B
330
1F
100
AcDbEntity
  8
0-0
  6
JWW_DASHED1
 62
   120
370
     5
100
AcDbLine
 10
-545.8531584784066
 20
782.9843237987301
 30
0.0
 11
27.14684152159407
 21
782.9843237987301
 31
0.0
  0
LINE
  5
13C
330
1F
100
AcDbEntity
  8
0-0
  6
JWW_DASHED1
 62
   120
370
     5
100
AcDbLine
 10
-545.8531584784066
 20
795.9843237998297
 30
0.0
 11
27.14684152159407
 21
795.9843237998297
 31
0.0
  0
LINE
  5
13D
330
1F
100
AcDbEntity
  8
0-0
  6
JWW_DASHED1
 62
   120
370
     5
100
AcDbLine
 10
-545.8531584784066
 20
796.9843237997299
 30
0.0
 11
27.14684152159407
 21
796.9843237997299
 31
0.0
  0
LINE
  5
13E
330
1F
100
AcDbEntity
  8
0-0
  6
JWW_DASHED1
 62
   120
370
     5
100
AcDbLine
 10
-545.8531584784066
 20
809.9843238008292
 30
0.0
 11
27.14684152159407
 21
809.9843238008292
 31
0.0
  0
LINE
  5
13F
330
1F
100
AcDbEntity
  8
0-0
  6
JWW_DASHED1
 62
   120
370
     5
100
AcDbLine
 10
-545.8531584784066
 20
810.9843238007294
 30
0.0
 11
27.14684152159407
 21
810.9843238007294
 31
0.0
  0
LINE
  5
140
330
1F
100
AcDbEntity
  8
0-0
  6
JWW_DASHED1
 62
   120
370
     5
100
AcDbLine
 10
-545.8531584784066
 20
823.9843238018293
 30
0.0
 11
27.14684152159407
 21
823.9843238018293
 31
0.0
  0
LINE
  5
141
330
1F
100
AcDbEntity
  8
0-0
  6
JWW_DASHED1
 62
   120
370
     5
100
AcDbLine
 10
-545.8531584784066
 20
824.9843238017293
 30
0.0
 11
27.14684152159407
 21
824.9843238017293
 31
0.0
  0
LINE
  5
142
330
1F
100
AcDbEntity
  8
0-0
  6
JWW_DASHED1
 62
   120
370
     5
100
AcDbLine
 10
-545.8531584784066
 20
837.9843238028291
 30
0.0
 11
27.14684152159407
 21
837.9843238028291
 31
0.0
  0
LINE
  5
143
330
1F
100
AcDbEntity
  8
0-0
  6
JWW_DASHED1
 62
   120
370
     5
100
AcDbLine
 10
-545.8531584784066
 20
838.9843238027293
 30
0.0
 11
27.14684152159407
 21
838.9843238027293
 31
0.0
  0
LINE
  5
144
330
1F
100
AcDbEntity
  8
0-0
  6
JWW_DASHED1
 62
   120
370
     5
100
AcDbLine
 10
-545.8531584784066
 20
851.9843238038288
 30
0.0
 11
27.14684152159407
 21
851.9843238038288
 31
0.0
  0
LINE
  5
145
330
1F
100
AcDbEntity
  8
0-0
  6
JWW_DASHED1
 62
   120
370
     5
100
AcDbLine
 10
-545.8531584784066
 20
852.984323803729
 30
0.0
 11
27.14684152159407
 21
852.984323803729
 31
0.0
  0
LINE
  5
146
330
1F
100
AcDbEntity
  8
0-0
  6
JWW_DASHED1
 62
   120
370
     5
100
AcDbLine
 10
-545.8531584784066
 20
865.9843238048286
 30
0.0
 11
27.14684152159407
 21
865.9843238048286
 31
0.0
  0
LINE
  5
147
330
1F
100
AcDbEntity
  8
0-0
  6
JWW_DASHED1
 62
   120
370
     5
100
AcDbLine
 10
-545.8531584784066
 20
866.9843238047288
 30
0.0
 11
27.14684152159407
 21
866.9843238047288
 31
0.0
  0
LINE
  5
148
330
1F
100
AcDbEntity
  8
0-0
  6
JWW_DASHED1
 62
   120
370
     5
100
AcDbLine
 10
-545.8531584784066
 20
879.9843238058284
 30
0.0
 11
27.14684152159407
 21
879.9843238058284
 31
0.0
  0
LINE
  5
149
330
1F
100
AcDbEntity
  8
0-0
  6
JWW_DASHED1
 62
   120
370
     5
100
AcDbLine
 10
-545.8531584784066
 20
880.9843238057285
 30
0.0
 11
27.14684152159407
 21
880.9843238057285
 31
0.0
  0
LINE
  5
14A
330
1F
100
AcDbEntity
  8
0-0
  6
JWW_DASHED1
 62
   120
370
     5
100
AcDbLine
 10
-545.8531584784066
 20
893.9843238068282
 30
0.0
 11
27.14684152159407
 21
893.9843238068282
 31
0.0
  0
LINE
  5
14B
330
1F
100
AcDbEntity
  8
0-0
  6
JWW_DASHED1
 62
   120
370
     5
100
AcDbLine
 10
-545.8531584784066
 20
894.9843238067284
 30
0.0
 11
27.14684152159407
 21
894.9843238067284
 31
0.0
  0
LINE
  5
14C
330
1F
100
AcDbEntity
  8
0-0
  6
JWW_DASHED1
 62
   120
370
     5
100
AcDbLine
 10
-545.8531584784066
 20
907.984323807828
 30
0.0
 11
27.14684152159407
 21
907.984323807828
 31
0.0
  0
LINE
  5
14D
330
1F
100
AcDbEntity
  8
0-0
  6
JWW_DASHED1
 62
   120
370
     5
100
AcDbLine
 10
-545.8531584784066
 20
908.9843238077282
 30
0.0
 11
27.14684152159407
 21
908.9843238077282
 31
0.0
  0
LINE
  5
14E
330
1F
100
AcDbEntity
  8
0-0
  6
JWW_DASHED1
 62
   120
370
     5
100
AcDbLine
 10
-545.8531584784066
 20
921.9843238088275
 30
0.0
 11
27.14684152159407
 21
921.9843238088275
 31
0.0
  0
LINE
  5
14F
330
1F
100
AcDbEntity
  8
0-0
  6
JWW_DASHED1
 62
   120
370
     5
100
AcDbLine
 10
-545.8531584784066
 20
922.9843238087277
 30
0.0
 11
27.14684152159407
 21
922.9843238087277
 31
0.0
  0
LINE
  5
150
330
1F
100
AcDbEntity
  8
0-0
  6
JWW_DASHED1
 62
   120
370
     5
100
AcDbLine
 10
-545.8531584784066
 20
935.9843238098274
 30
0.0
 11
27.14684152159407
 21
935.9843238098274
 31
0.0
  0
LINE
  5
151
330
1F
100
AcDbEntity
  8
0-0
  6
JWW_DASHED1
 62
   120
370
     5
100
AcDbLine
 10
-545.8531584784066
 20
936.9843238097278
 30
0.0
 11
27.14684152159407
 21
936.9843238097278
 31
0.0
  0
LINE
  5
152
330
1F
100
AcDbEntity
  8
0-0
  6
JWW_DASHED1
 62
   120
370
     5
100
AcDbLine
 10
-545.8531584784066
 20
949.9843238108274
 30
0.0
 11
27.14684152159407
 21
949.9843238108274
 31
0.0
  0
LINE
  5
153
330
1F
100
AcDbEntity
  8
0-0
  6
JWW_DASHED1
 62
   120
370
     5
100
AcDbLine
 10
-545.8531584784066
 20
950.9843238107276
 30
0.0
 11
27.14684152159407
 21
950.9843238107276
 31
0.0
  0
LINE
  5
154
330
1F
100
AcDbEntity
  8
0-0
  6
JWW_DASHED1
 62
   120
370
     5
100
AcDbLine
 10
-545.8531584784066
 20
963.9843238118272
 30
0.0
 11
27.14684152159407
 21
963.9843238118272
 31
0.0
  0
LINE
  5
155
330
1F
100
AcDbEntity
  8
0-0
  6
JWW_DASHED1
 62
   120
370
     5
100
AcDbLine
 10
-545.8531584784066
 20
964.9843238117273
 30
0.0
 11
27.14684152159407
 21
964.9843238117273
 31
0.0
  0
LINE
  5
156
330
1F
100
AcDbEntity
  8
0-0
  6
JWW_DASHED1
 62
   120
370
     5
100
AcDbLine
 10
-545.8531584784066
 20
977.9843238128269
 30
0.0
 11
27.14684152159407
 21
977.9843238128269
 31
0.0
  0
LINE
  5
157
330
1F
100
AcDbEntity
  8
0-0
  6
JWW_DASHED1
 62
   120
370
     5
100
AcDbLine
 10
-545.8531584784066
 20
978.9843238127269
 30
0.0
 11
27.14684152159407
 21
978.9843238127269
 31
0.0
  0
LINE
  5
158
330
1F
100
AcDbEntity
  8
0-0
  6
JWW_DASHED1
 62
   120
370
     5
100
AcDbLine
 10
-545.8531584784066
 20
991.9843238138267
 30
0.0
 11
27.14684152159407
 21
991.9843238138267
 31
0.0
  0
LINE
  5
159
330
1F
100
AcDbEntity
  8
0-0
  6
JWW_DASHED1
 62
   120
370
     5
100
AcDbLine
 10
-545.8531584784066
 20
992.9843238137269
 30
0.0
 11
27.14684152159407
 21
992.9843238137269
 31
0.0
  0
LINE
  5
15A
330
1F
100
AcDbEntity
  8
0-0
  6
JWW_DASHED1
 62
   120
370
     5
100
AcDbLine
 10
-545.8531584784066
 20
1005.984323814827
 30
0.0
 11
27.14684152159407
 21
1005.984323814827
 31
0.0
  0
LINE
  5
15B
330
1F
100
AcDbEntity
  8
0-0
  6
JWW_DASHED1
 62
   120
370
     5
100
AcDbLine
 10
-545.8531584784066
 20
1006.984323814727
 30
0.0
 11
27.14684152159407
 21
1006.984323814727
 31
0.0
  0
LINE
  5
15C
330
1F
100
AcDbEntity
  8
0-0
  6
JWW_DASHED1
 62
   120
370
     5
100
AcDbLine
 10
-539.8531400203749
 20
-100.0155279503132
 30
0.0
 11
-539.8531400203749
 21
1074.984472049687
 31
0.0
  0
LINE
  5
15D
330
1F
100
AcDbEntity
  8
0-0
  6
JWW_DASHED1
 62
   120
370
     5
100
AcDbLine
 10
-6.85313998247409
 20
-100.0155279503132
 30
0.0
 11
-6.85313998247409
 21
1074.984472049687
 31
0.0
  0
LINE
  5
15E
330
1F
100
AcDbEntity
  8
0-0
  6
JWW_DASHED1
 62
   120
370
     5
100
AcDbLine
 10
-7.853139982374273
 20
-100.0155279503132
 30
0.0
 11
-7.853139982374273
 21
1074.984472049687
 31
0.0
  0
LINE
  5
15F
330
1F
100
AcDbEntity
  8
0-0
  6
JWW_DASHED1
 62
   120
370
     5
100
AcDbLine
 10
-20.85313998347431
 20
-100.0155279503132
 30
0.0
 11
-20.85313998347431
 21
1074.984472049687
 31
0.0
  0
LINE
  5
160
330
1F
100
AcDbEntity
  8
0-0
  6
JWW_DASHED1
 62
   120
370
     5
100
AcDbLine
 10
-21.85313998337449
 20
-100.0155279503132
 30
0.0
 11
-21.85313998337449
 21
1074.984472049687
 31
0.0
  0
LINE
  5
161
330
1F
100
AcDbEntity
  8
0-0
  6
JWW_DASHED1
 62
   120
370
     5
100
AcDbLine
 10
-34.85313998447452
 20
-100.0155279503132
 30
0.0
 11
-34.85313998447452
 21
1074.984472049687
 31
0.0
  0
LINE
  5
162
330
1F
100
AcDbEntity
  8
0-0
  6
JWW_DASHED1
 62
   120
370
     5
100
AcDbLine
 10
-35.85313998437471
 20
-100.0155279503132
 30
0.0
 11
-35.85313998437471
 21
1074.984472049687
 31
0.0
  0
LINE
  5
163
330
1F
100
AcDbEntity
  8
0-0
  6
JWW_DASHED1
 62
   120
370
     5
100
AcDbLine
 10
-48.85313998547474
 20
-100.0155279503132
 30
0.0
 11
-48.85313998547474
 21
1074.984472049687
 31
0.0
  0
LINE
  5
164
330
1F
100
AcDbEntity
  8
0-0
  6
JWW_DASHED1
 62
   120
370
     5
100
AcDbLine
 10
-49.85313998537492
 20
-100.0155279503132
 30
0.0
 11
-49.85313998537492
 21
1074.984472049687
 31
0.0
  0
LINE
  5
165
330
1F
100
AcDbEntity
  8
0-0
  6
JWW_DASHED1
 62
   120
370
     5
100
AcDbLine
 10
-62.85313998647496
 20
-100.0155279503132
 30
0.0
 11
-62.85313998647496
 21
1074.984472049687
 31
0.0
  0
LINE
  5
166
330
1F
100
AcDbEntity
  8
0-0
  6
JWW_DASHED1
 62
   120
370
     5
100
AcDbLine
 10
-63.85313998637514
 20
-100.0155279503132
 30
0.0
 11
-63.85313998637429
 21
1074.984472049687
 31
0.0
  0
LINE
  5
167
330
1F
100
AcDbEntity
  8
0-0
  6
JWW_DASHED1
 62
   120
370
     5
100
AcDbLine
 10
-76.85313998747517
 20
-100.0155279503132
 30
0.0
 11
-76.85313998747432
 21
1074.984472049687
 31
0.0
  0
LINE
  5
168
330
1F
100
AcDbEntity
  8
0-0
  6
JWW_DASHED1
 62
   120
370
     5
100
AcDbLine
 10
-77.8531399873745
 20
-100.0155279503132
 30
0.0
 11
-77.8531399873745
 21
1074.984472049687
 31
0.0
  0
LINE
  5
169
330
1F
100
AcDbEntity
  8
0-0
  6
JWW_DASHED1
 62
   120
370
     5
100
AcDbLine
 10
-90.85313998847454
 20
-100.0155279503132
 30
0.0
 11
-90.85313998847454
 21
1074.984472049687
 31
0.0
  0
LINE
  5
16A
330
1F
100
AcDbEntity
  8
0-0
  6
JWW_DASHED1
 62
   120
370
     5
100
AcDbLine
 10
-91.85313998837472
 20
-100.0155279503132
 30
0.0
 11
-91.85313998837472
 21
1074.984472049687
 31
0.0
  0
LINE
  5
16B
330
1F
100
AcDbEntity
  8
0-0
  6
JWW_DASHED1
 62
   120
370
     5
100
AcDbLine
 10
-104.8531399894739
 20
-100.0155279503132
 30
0.0
 11
-104.8531399894739
 21
1074.984472049687
 31
0.0
  0
LINE
  5
16C
330
1F
100
AcDbEntity
  8
0-0
  6
JWW_DASHED1
 62
   120
370
     5
100
AcDbLine
 10
-105.8531399893741
 20
-100.0155279503132
 30
0.0
 11
-105.8531399893741
 21
1074.984472049687
 31
0.0
  0
LINE
  5
16D
330
1F
100
AcDbEntity
  8
0-0
  6
JWW_DASHED1
 62
   120
370
     5
100
AcDbLine
 10
-118.8531399904741
 20
-100.0155279503132
 30
0.0
 11
-118.8531399904741
 21
1074.984472049687
 31
0.0
  0
LINE
  5
16E
330
1F
100
AcDbEntity
  8
0-0
  6
JWW_DASHED1
 62
   120
370
     5
100
AcDbLine
 10
-119.8531399903743
 20
-100.0155279503132
 30
0.0
 11
-119.8531399903743
 21
1074.984472049687
 31
0.0
  0
LINE
  5
16F
330
1F
100
AcDbEntity
  8
0-0
  6
JWW_DASHED1
 62
   120
370
     5
100
AcDbLine
 10
-132.8531399914743
 20
-100.0155279503132
 30
0.0
 11
-132.8531399914743
 21
1074.984472049687
 31
0.0
  0
LINE
  5
170
330
1F
100
AcDbEntity
  8
0-0
  6
JWW_DASHED1
 62
   120
370
     5
100
AcDbLine
 10
-133.8531399913745
 20
-100.0155279503132
 30
0.0
 11
-133.8531399913745
 21
1074.984472049687
 31
0.0
  0
LINE
  5
171
330
1F
100
AcDbEntity
  8
0-0
  6
JWW_DASHED1
 62
   120
370
     5
100
AcDbLine
 10
-146.8531399924746
 20
-100.0155279503132
 30
0.0
 11
-146.8531399924746
 21
1074.984472049687
 31
0.0
  0
LINE
  5
172
330
1F
100
AcDbEntity
  8
0-0
  6
JWW_DASHED1
 62
   120
370
     5
100
AcDbLine
 10
-147.8531399923747
 20
-100.0155279503132
 30
0.0
 11
-147.8531399923747
 21
1074.984472049687
 31
0.0
  0
LINE
  5
173
330
1F
100
AcDbEntity
  8
0-0
  6
JWW_DASHED1
 62
   120
370
     5
100
AcDbLine
 10
-160.8531399934748
 20
-100.0155279503132
 30
0.0
 11
-160.8531399934748
 21
1074.984472049687
 31
0.0
  0
LINE
  5
174
330
1F
100
AcDbEntity
  8
0-0
  6
JWW_DASHED1
 62
   120
370
     5
100
AcDbLine
 10
-161.853139993375
 20
-100.0155279503132
 30
0.0
 11
-161.853139993375
 21
1074.984472049687
 31
0.0
  0
LINE
  5
175
330
1F
100
AcDbEntity
  8
0-0
  6
JWW_DASHED1
 62
   120
370
     5
100
AcDbLine
 10
-174.8531399944742
 20
-100.0155279503132
 30
0.0
 11
-174.8531399944742
 21
1074.984472049687
 31
0.0
  0
LINE
  5
176
330
1F
100
AcDbEntity
  8
0-0
  6
JWW_DASHED1
 62
   120
370
     5
100
AcDbLine
 10
-175.8531399943744
 20
-100.0155279503132
 30
0.0
 11
-175.8531399943744
 21
1074.984472049687
 31
0.0
  0
LINE
  5
177
330
1F
100
AcDbEntity
  8
0-0
  6
JWW_DASHED1
 62
   120
370
     5
100
AcDbLine
 10
-188.8531399954744
 20
-100.0155279503132
 30
0.0
 11
-188.8531399954744
 21
1074.984472049687
 31
0.0
  0
LINE
  5
178
330
1F
100
AcDbEntity
  8
0-0
  6
JWW_DASHED1
 62
   120
370
     5
100
AcDbLine
 10
-189.8531399953745
 20
-100.0155279503132
 30
0.0
 11
-189.8531399953745
 21
1074.984472049687
 31
0.0
  0
LINE
  5
179
330
1F
100
AcDbEntity
  8
0-0
  6
JWW_DASHED1
 62
   120
370
     5
100
AcDbLine
 10
-202.8531399964746
 20
-100.0155279503132
 30
0.0
 11
-202.8531399964746
 21
1074.984472049687
 31
0.0
  0
LINE
  5
17A
330
1F
100
AcDbEntity
  8
0-0
  6
JWW_DASHED1
 62
   120
370
     5
100
AcDbLine
 10
-203.8531399963748
 20
-100.0155279503132
 30
0.0
 11
-203.8531399963748
 21
1074.984472049687
 31
0.0
  0
LINE
  5
17B
330
1F
100
AcDbEntity
  8
0-0
  6
JWW_DASHED1
 62
   120
370
     5
100
AcDbLine
 10
-216.8531399974739
 20
-100.0155279503132
 30
0.0
 11
-216.8531399974739
 21
1074.984472049687
 31
0.0
  0
LINE
  5
17C
330
1F
100
AcDbEntity
  8
0-0
  6
JWW_DASHED1
 62
   120
370
     5
100
AcDbLine
 10
-217.8531399973741
 20
-100.0155279503132
 30
0.0
 11
-217.8531399973741
 21
1074.984472049687
 31
0.0
  0
LINE
  5
17D
330
1F
100
AcDbEntity
  8
0-0
  6
JWW_DASHED1
 62
   120
370
     5
100
AcDbLine
 10
-230.8531399984741
 20
-100.0155279503132
 30
0.0
 11
-230.8531399984741
 21
1074.984472049687
 31
0.0
  0
LINE
  5
17E
330
1F
100
AcDbEntity
  8
0-0
  6
JWW_DASHED1
 62
   120
370
     5
100
AcDbLine
 10
-231.8531399983743
 20
-100.0155279503132
 30
0.0
 11
-231.8531399983743
 21
1074.984472049687
 31
0.0
  0
LINE
  5
17F
330
1F
100
AcDbEntity
  8
0-0
  6
JWW_DASHED1
 62
   120
370
     5
100
AcDbLine
 10
-244.8531399994744
 20
-100.0155279503132
 30
0.0
 11
-244.8531399994744
 21
1074.984472049687
 31
0.0
  0
LINE
  5
180
330
1F
100
AcDbEntity
  8
0-0
  6
JWW_DASHED1
 62
   120
370
     5
100
AcDbLine
 10
-245.8531399993745
 20
-100.0155279503132
 30
0.0
 11
-245.8531399993745
 21
1074.984472049687
 31
0.0
  0
LINE
  5
181
330
1F
100
AcDbEntity
  8
0-0
  6
JWW_DASHED1
 62
   120
370
     5
100
AcDbLine
 10
-258.8531400004746
 20
-100.0155279503132
 30
0.0
 11
-258.8531400004746
 21
1074.984472049687
 31
0.0
  0
LINE
  5
182
330
1F
100
AcDbEntity
  8
0-0
  6
JWW_DASHED1
 62
   120
370
     5
100
AcDbLine
 10
-259.8531400003748
 20
-100.0155279503132
 30
0.0
 11
-259.8531400003748
 21
1074.984472049687
 31
0.0
  0
LINE
  5
183
330
1F
100
AcDbEntity
  8
0-0
  6
JWW_DASHED1
 62
   120
370
     5
100
AcDbLine
 10
-272.8531400014748
 20
-100.0155279503132
 30
0.0
 11
-272.8531400014748
 21
1074.984472049687
 31
0.0
  0
LINE
  5
184
330
1F
100
AcDbEntity
  8
0-0
  6
JWW_DASHED1
 62
   120
370
     5
100
AcDbLine
 10
-273.853140001375
 20
-100.0155279503132
 30
0.0
 11
-273.853140001375
 21
1074.984472049687
 31
0.0
  0
LINE
  5
185
330
1F
100
AcDbEntity
  8
0-0
  6
JWW_DASHED1
 62
   120
370
     5
100
AcDbLine
 10
-286.8531400024742
 20
-100.0155279503132
 30
0.0
 11
-286.8531400024742
 21
1074.984472049687
 31
0.0
  0
LINE
  5
186
330
1F
100
AcDbEntity
  8
0-0
  6
JWW_DASHED1
 62
   120
370
     5
100
AcDbLine
 10
-287.8531400023743
 20
-100.0155279503132
 30
0.0
 11
-287.8531400023743
 21
1074.984472049687
 31
0.0
  0
LINE
  5
187
330
1F
100
AcDbEntity
  8
0-0
  6
JWW_DASHED1
 62
   120
370
     5
100
AcDbLine
 10
-300.8531400034744
 20
-100.0155279503132
 30
0.0
 11
-300.8531400034744
 21
1074.984472049687
 31
0.0
  0
LINE
  5
188
330
1F
100
AcDbEntity
  8
0-0
  6
JWW_DASHED1
 62
   120
370
     5
100
AcDbLine
 10
-301.8531400033746
 20
-100.0155279503132
 30
0.0
 11
-301.8531400033746
 21
1074.984472049687
 31
0.0
  0
LINE
  5
189
330
1F
100
AcDbEntity
  8
0-0
  6
JWW_DASHED1
 62
   120
370
     5
100
AcDbLine
 10
-314.8531400044746
 20
-100.0155279503132
 30
0.0
 11
-314.8531400044746
 21
1074.984472049687
 31
0.0
  0
LINE
  5
18A
330
1F
100
AcDbEntity
  8
0-0
  6
JWW_DASHED1
 62
   120
370
     5
100
AcDbLine
 10
-315.8531400043748
 20
-100.0155279503132
 30
0.0
 11
-315.8531400043748
 21
1074.984472049687
 31
0.0
  0
LINE
  5
18B
330
1F
100
AcDbEntity
  8
0-0
  6
JWW_DASHED1
 62
   120
370
     5
100
AcDbLine
 10
-328.853140005474
 20
-100.0155279503132
 30
0.0
 11
-328.853140005474
 21
1074.984472049687
 31
0.0
  0
LINE
  5
18C
330
1F
100
AcDbEntity
  8
0-0
  6
JWW_DASHED1
 62
   120
370
     5
100
AcDbLine
 10
-329.8531400053741
 20
-100.0155279503132
 30
0.0
 11
-329.8531400053741
 21
1074.984472049687
 31
0.0
  0
LINE
  5
18D
330
1F
100
AcDbEntity
  8
0-0
  6
JWW_DASHED1
 62
   120
370
     5
100
AcDbLine
 10
-342.8531400064742
 20
-100.0155279503132
 30
0.0
 11
-342.8531400064742
 21
1074.984472049687
 31
0.0
  0
LINE
  5
18E
330
1F
100
AcDbEntity
  8
0-0
  6
JWW_DASHED1
 62
   120
370
     5
100
AcDbLine
 10
-343.8531400063744
 20
-100.0155279503132
 30
0.0
 11
-343.8531400063744
 21
1074.984472049687
 31
0.0
  0
LINE
  5
18F
330
1F
100
AcDbEntity
  8
0-0
  6
JWW_DASHED1
 62
   120
370
     5
100
AcDbLine
 10
-356.8531400074744
 20
-100.0155279503132
 30
0.0
 11
-356.8531400074744
 21
1074.984472049687
 31
0.0
  0
LINE
  5
190
330
1F
100
AcDbEntity
  8
0-0
  6
JWW_DASHED1
 62
   120
370
     5
100
AcDbLine
 10
-357.8531400073746
 20
-100.0155279503132
 30
0.0
 11
-357.8531400073746
 21
1074.984472049687
 31
0.0
  0
LINE
  5
191
330
1F
100
AcDbEntity
  8
0-0
  6
JWW_DASHED1
 62
   120
370
     5
100
AcDbLine
 10
-370.8531400084746
 20
-100.0155279503132
 30
0.0
 11
-370.8531400084746
 21
1074.984472049687
 31
0.0
  0
LINE
  5
192
330
1F
100
AcDbEntity
  8
0-0
  6
JWW_DASHED1
 62
   120
370
     5
100
AcDbLine
 10
-371.8531400083748
 20
-100.0155279503132
 30
0.0
 11
-371.8531400083748
 21
1074.984472049687
 31
0.0
  0
LINE
  5
193
330
1F
100
AcDbEntity
  8
0-0
  6
JWW_DASHED1
 62
   120
370
     5
100
AcDbLine
 10
-384.8531400094748
 20
-100.0155279503132
 30
0.0
 11
-384.8531400094748
 21
1074.984472049687
 31
0.0
  0
LINE
  5
194
330
1F
100
AcDbEntity
  8
0-0
  6
JWW_DASHED1
 62
   120
370
     5
100
AcDbLine
 10
-385.853140009375
 20
-100.0155279503132
 30
0.0
 11
-385.853140009375
 21
1074.984472049687
 31
0.0
  0
LINE
  5
195
330
1F
100
AcDbEntity
  8
0-0
  6
JWW_DASHED1
 62
   120
370
     5
100
AcDbLine
 10
-398.8531400104742
 20
-100.0155279503132
 30
0.0
 11
-398.8531400104742
 21
1074.984472049687
 31
0.0
  0
LINE
  5
196
330
1F
100
AcDbEntity
  8
0-0
  6
JWW_DASHED1
 62
   120
370
     5
100
AcDbLine
 10
-399.8531400103744
 20
-100.0155279503132
 30
0.0
 11
-399.8531400103744
 21
1074.984472049687
 31
0.0
  0
LINE
  5
197
330
1F
100
AcDbEntity
  8
0-0
  6
JWW_DASHED1
 62
   120
370
     5
100
AcDbLine
 10
-412.8531400114744
 20
-100.0155279503132
 30
0.0
 11
-412.8531400114744
 21
1074.984472049687
 31
0.0
  0
LINE
  5
198
330
1F
100
AcDbEntity
  8
0-0
  6
JWW_DASHED1
 62
   120
370
     5
100
AcDbLine
 10
-413.8531400113746
 20
-100.0155279503132
 30
0.0
 11
-413.8531400113746
 21
1074.984472049687
 31
0.0
  0
LINE
  5
199
330
1F
100
AcDbEntity
  8
0-0
  6
JWW_DASHED1
 62
   120
370
     5
100
AcDbLine
 10
-426.8531400124746
 20
-100.0155279503132
 30
0.0
 11
-426.8531400124746
 21
1074.984472049687
 31
0.0
  0
LINE
  5
19A
330
1F
100
AcDbEntity
  8
0-0
  6
JWW_DASHED1
 62
   120
370
     5
100
AcDbLine
 10
-427.8531400123748
 20
-100.0155279503132
 30
0.0
 11
-427.8531400123748
 21
1074.984472049687
 31
0.0
  0
LINE
  5
19B
330
1F
100
AcDbEntity
  8
0-0
  6
JWW_DASHED1
 62
   120
370
     5
100
AcDbLine
 10
-440.853140013474
 20
-100.0155279503132
 30
0.0
 11
-440.853140013474
 21
1074.984472049687
 31
0.0
  0
LINE
  5
19C
330
1F
100
AcDbEntity
  8
0-0
  6
JWW_DASHED1
 62
   120
370
     5
100
AcDbLine
 10
-441.8531400133742
 20
-100.0155279503132
 30
0.0
 11
-441.8531400133742
 21
1074.984472049687
 31
0.0
  0
LINE
  5
19D
330
1F
100
AcDbEntity
  8
0-0
  6
JWW_DASHED1
 62
   120
370
     5
100
AcDbLine
 10
-454.8531400144742
 20
-100.0155279503132
 30
0.0
 11
-454.8531400144742
 21
1074.984472049687
 31
0.0
  0
LINE
  5
19E
330
1F
100
AcDbEntity
  8
0-0
  6
JWW_DASHED1
 62
   120
370
     5
100
AcDbLine
 10
-455.8531400143744
 20
-100.0155279503132
 30
0.0
 11
-455.8531400143744
 21
1074.984472049687
 31
0.0
  0
LINE
  5
19F
330
1F
100
AcDbEntity
  8
0-0
  6
JWW_DASHED1
 62
   120
370
     5
100
AcDbLine
 10
-468.8531400154744
 20
-100.0155279503132
 30
0.0
 11
-468.8531400154744
 21
1074.984472049687
 31
0.0
  0
LINE
  5
1A0
330
1F
100
AcDbEntity
  8
0-0
  6
JWW_DASHED1
 62
   120
370
     5
100
AcDbLine
 10
-469.8531400153746
 20
-100.0155279503132
 30
0.0
 11
-469.8531400153746
 21
1074.984472049687
 31
0.0
  0
LINE
  5
1A1
330
1F
100
AcDbEntity
  8
0-0
  6
JWW_DASHED1
 62
   120
370
     5
100
AcDbLine
 10
-482.8531400164746
 20
-100.0155279503132
 30
0.0
 11
-482.8531400164746
 21
1074.984472049687
 31
0.0
  0
LINE
  5
1A2
330
1F
100
AcDbEntity
  8
0-0
  6
JWW_DASHED1
 62
   120
370
     5
100
AcDbLine
 10
-483.8531400163748
 20
-100.0155279503132
 30
0.0
 11
-483.8531400163748
 21
1074.984472049687
 31
0.0
  0
LINE
  5
1A3
330
1F
100
AcDbEntity
  8
0-0
  6
JWW_DASHED1
 62
   120
370
     5
100
AcDbLine
 10
-496.8531400174749
 20
-100.0155279503132
 30
0.0
 11
-496.8531400174749
 21
1074.984472049687
 31
0.0
  0
LINE
  5
1A4
330
1F
100
AcDbEntity
  8
0-0
  6
JWW_DASHED1
 62
   120
370
     5
100
AcDbLine
 10
-497.853140017375
 20
-100.0155279503132
 30
0.0
 11
-497.853140017375
 21
1074.984472049687
 31
0.0
  0
LINE
  5
1A5
330
1F
100
AcDbEntity
  8
0-0
  6
JWW_DASHED1
 62
   120
370
     5
100
AcDbLine
 10
-510.8531400184742
 20
-100.0155279503132
 30
0.0
 11
-510.8531400184742
 21
1074.984472049687
 31
0.0
  0
LINE
  5
1A6
330
1F
100
AcDbEntity
  8
0-0
  6
JWW_DASHED1
 62
   120
370
     5
100
AcDbLine
 10
-511.8531400183744
 20
-100.0155279503132
 30
0.0
 11
-511.8531400183744
 21
1074.984472049687
 31
0.0
  0
LINE
  5
1A7
330
1F
100
AcDbEntity
  8
0-0
  6
JWW_DASHED1
 62
   120
370
     5
100
AcDbLine
 10
-524.8531400194745
 20
-100.0155279503132
 30
0.0
 11
-524.8531400194745
 21
1074.984472049687
 31
0.0
  0
LINE
  5
1A8
330
1F
100
AcDbEntity
  8
0-0
  6
JWW_DASHED1
 62
   120
370
     5
100
AcDbLine
 10
-525.8531400193747
 20
-100.0155279503132
 30
0.0
 11
-525.8531400193747
 21
1074.984472049687
 31
0.0
  0
LINE
  5
1A9
330
1F
100
AcDbEntity
  8
0-0
  6
JWW_DASHED1
 62
   120
370
     5
100
AcDbLine
 10
-538.8531400204747
 20
-100.0155279503132
 30
0.0
 11
-538.8531400204747
 21
1074.984472049687
 31
0.0
  0
LINE
  5
1AA
330
1F
100
AcDbEntity
  8
0-0
  6
JWW_DASHED1
 62
   120
370
     5
100
AcDbLine
 10
21.14686001952538
 20
-100.0155279503132
 30
0.0
 11
21.14686001952538
 21
1074.984472049687
 31
0.0
  0
LINE
  5
1AB
330
1F
100
AcDbEntity
  8
0-0
  6
JWW_DASHED1
 62
   120
370
     5
100
AcDbLine
 10
6.146860018624984
 20
-100.0155279503132
 30
0.0
 11
6.146860018624984
 21
1074.984472049687
 31
0.0
  0
LINE
  5
1AC
330
1F
100
AcDbEntity
  8
0-0
  6
JWW_DASHED1
 62
   120
370
     5
100
AcDbLine
 10
20.1468600196252
 20
-100.0155279503132
 30
0.0
 11
20.1468600196252
 21
1074.984472049687
 31
0.0
  0
LINE
  5
1AD
330
1F
100
AcDbEntity
  8
0-0
  6
JWW_DASHED1
 62
   120
370
     5
100
AcDbLine
 10
7.146860018525167
 20
-100.0155279503132
 30
0.0
 11
7.146860018525167
 21
1074.984472049687
 31
0.0
  0
LINE
  5
1AE
330
1F
100
AcDbEntity
  8
0-0
  6
JWW_DASHED1
 62
   120
370
     5
100
AcDbLine
 10
-545.8531584784057
 20
1062.984323818726
 30
0.0
 11
27.14684152159322
 21
1062.984323818726
 31
0.0
  0
LINE
  5
1AF
330
1F
100
AcDbEntity
  8
0-0
  6
JWW_DASHED1
 62
   120
370
     5
100
AcDbLine
 10
-545.8531584784057
 20
1019.984323815826
 30
0.0
 11
27.14684152159322
 21
1019.984323815826
 31
0.0
  0
LINE
  5
1B0
330
1F
100
AcDbEntity
  8
0-0
  6
JWW_DASHED1
 62
   120
370
     5
100
AcDbLine
 10
-545.8531584784057
 20
1020.984323815726
 30
0.0
 11
27.14684152159322
 21
1020.984323815726
 31
0.0
  0
LINE
  5
1B1
330
1F
100
AcDbEntity
  8
0-0
  6
JWW_DASHED1
 62
   120
370
     5
100
AcDbLine
 10
-545.8531584784057
 20
1033.984323816826
 30
0.0
 11
27.14684152159322
 21
1033.984323816826
 31
0.0
  0
LINE
  5
1B2
330
1F
100
AcDbEntity
  8
0-0
  6
JWW_DASHED1
 62
   120
370
     5
100
AcDbLine
 10
-545.8531584784057
 20
1034.984323816726
 30
0.0
 11
27.14684152159322
 21
1034.984323816726
 31
0.0
  0
LINE
  5
1B3
330
1F
100
AcDbEntity
  8
0-0
  6
JWW_DASHED1
 62
   120
370
     5
100
AcDbLine
 10
-545.8531584784057
 20
1047.984323817826
 30
0.0
 11
27.14684152159322
 21
1047.984323817826
 31
0.0
  0
LINE
  5
1B4
330
1F
100
AcDbEntity
  8
0-0
  6
JWW_DASHED1
 62
   120
370
     5
100
AcDbLine
 10
-545.8531584784057
 20
1048.984323817726
 30
0.0
 11
27.14684152159322
 21
1048.984323817726
 31
0.0
  0
LINE
  5
1B5
330
1F
100
AcDbEntity
  8
0-0
  6
JWW_DASHED1
 62
   120
370
     5
100
AcDbLine
 10
-545.8531584784057
 20
1061.984323818826
 30
0.0
 11
27.14684152159322
 21
1061.984323818826
 31
0.0
  0
LINE
  5
1B6
330
1F
100
AcDbEntity
  8
0-0
  6
JWW_DASHED1
 62
   120
370
     5
100
AcDbLine
 10
186.1468415215953
 20
-99.01567626425685
 30
0.0
 11
759.1468415215959
 21
-99.01567626425685
 31
0.0
  0
LINE
  5
1B7
330
1F
100
AcDbEntity
  8
0-0
  6
JWW_DASHED1
 62
   120
370
     5
100
AcDbLine
 10
186.1468415215953
 20
-86.01567626315713
 30
0.0
 11
759.1468415215959
 21
-86.01567626315713
 31
0.0
  0
LINE
  5
1B8
330
1F
100
AcDbEntity
  8
0-0
  6
JWW_DASHED1
 62
   120
370
     5
100
AcDbLine
 10
186.1468415215953
 20
-85.01567626325695
 30
0.0
 11
759.1468415215959
 21
-85.01567626325695
 31
0.0
  0
LINE
  5
1B9
330
1F
100
AcDbEntity
  8
0-0
  6
JWW_DASHED1
 62
   120
370
     5
100
AcDbLine
 10
186.1468415215953
 20
-72.01567626215734
 30
0.0
 11
759.1468415215959
 21
-72.01567626215734
 31
0.0
  0
LINE
  5
1BA
330
1F
100
AcDbEntity
  8
0-0
  6
JWW_DASHED1
 62
   120
370
     5
100
AcDbLine
 10
186.1468415215953
 20
-71.01567626225716
 30
0.0
 11
759.1468415215959
 21
-71.01567626225716
 31
0.0
  0
LINE
  5
1BB
330
1F
100
AcDbEntity
  8
0-0
  6
JWW_DASHED1
 62
   120
370
     5
100
AcDbLine
 10
186.1468415215953
 20
-58.01567626115755
 30
0.0
 11
759.1468415215959
 21
-58.01567626115755
 31
0.0
  0
LINE
  5
1BC
330
1F
100
AcDbEntity
  8
0-0
  6
JWW_DASHED1
 62
   120
370
     5
100
AcDbLine
 10
186.1468415215953
 20
-57.01567626125737
 30
0.0
 11
759.1468415215959
 21
-57.01567626125737
 31
0.0
  0
LINE
  5
1BD
330
1F
100
AcDbEntity
  8
0-0
  6
JWW_DASHED1
 62
   120
370
     5
100
AcDbLine
 10
186.1468415215953
 20
-44.01567626015776
 30
0.0
 11
759.1468415215959
 21
-44.01567626015776
 31
0.0
  0
LINE
  5
1BE
330
1F
100
AcDbEntity
  8
0-0
  6
JWW_DASHED1
 62
   120
370
     5
100
AcDbLine
 10
186.1468415215953
 20
-43.01567626025758
 30
0.0
 11
759.1468415215959
 21
-43.01567626025758
 31
0.0
  0
LINE
  5
1BF
330
1F
100
AcDbEntity
  8
0-0
  6
JWW_DASHED1
 62
   120
370
     5
100
AcDbLine
 10
186.1468415215953
 20
-30.01567625915797
 30
0.0
 11
759.1468415215959
 21
-30.01567625915797
 31
0.0
  0
LINE
  5
1C0
330
1F
100
AcDbEntity
  8
0-0
  6
JWW_DASHED1
 62
   120
370
     5
100
AcDbLine
 10
186.1468415215953
 20
-29.01567625925779
 30
0.0
 11
759.1468415215959
 21
-29.01567625925779
 31
0.0
  0
LINE
  5
1C1
330
1F
100
AcDbEntity
  8
0-0
  6
JWW_DASHED1
 62
   120
370
     5
100
AcDbLine
 10
186.1468415215953
 20
-16.01567625815818
 30
0.0
 11
759.1468415215959
 21
-16.01567625815818
 31
0.0
  0
LINE
  5
1C2
330
1F
100
AcDbEntity
  8
0-0
  6
JWW_DASHED1
 62
   120
370
     5
100
AcDbLine
 10
186.1468415215953
 20
-15.015676258258
 30
0.0
 11
759.1468415215959
 21
-15.015676258258
 31
0.0
  0
LINE
  5
1C3
330
1F
100
AcDbEntity
  8
0-0
  6
JWW_DASHED1
 62
   120
370
     5
100
AcDbLine
 10
186.1468415215953
 20
-2.01567625715839
 30
0.0
 11
759.1468415215959
 21
-2.01567625715839
 31
0.0
  0
LINE
  5
1C4
330
1F
100
AcDbEntity
  8
0-0
  6
JWW_DASHED1
 62
   120
370
     5
100
AcDbLine
 10
186.1468415215953
 20
-1.015676257258207
 30
0.0
 11
759.1468415215959
 21
-1.015676257258207
 31
0.0
  0
LINE
  5
1C5
330
1F
100
AcDbEntity
  8
0-0
  6
JWW_DASHED1
 62
   120
370
     5
100
AcDbLine
 10
186.1468415215953
 20
11.98432374384129
 30
0.0
 11
759.1468415215959
 21
11.98432374384129
 31
0.0
  0
LINE
  5
1C6
330
1F
100
AcDbEntity
  8
0-0
  6
JWW_DASHED1
 62
   120
370
     5
100
AcDbLine
 10
186.1468415215953
 20
12.98432374374148
 30
0.0
 11
759.1468415215959
 21
12.98432374374148
 31
0.0
  0
LINE
  5
1C7
330
1F
100
AcDbEntity
  8
0-0
  6
JWW_DASHED1
 62
   120
370
     5
100
AcDbLine
 10
186.1468415215953
 20
25.98432374484119
 30
0.0
 11
759.1468415215959
 21
25.98432374484119
 31
0.0
  0
LINE
  5
1C8
330
1F
100
AcDbEntity
  8
0-0
  6
JWW_DASHED1
 62
   120
370
     5
100
AcDbLine
 10
186.1468415215953
 20
26.98432374474137
 30
0.0
 11
759.1468415215959
 21
26.98432374474137
 31
0.0
  0
LINE
  5
1C9
330
1F
100
AcDbEntity
  8
0-0
  6
JWW_DASHED1
 62
   120
370
     5
100
AcDbLine
 10
186.1468415215953
 20
39.98432374584098
 30
0.0
 11
759.1468415215959
 21
39.98432374584098
 31
0.0
  0
LINE
  5
1CA
330
1F
100
AcDbEntity
  8
0-0
  6
JWW_DASHED1
 62
   120
370
     5
100
AcDbLine
 10
186.1468415215953
 20
40.98432374574116
 30
0.0
 11
759.1468415215959
 21
40.98432374574116
 31
0.0
  0
LINE
  5
1CB
330
1F
100
AcDbEntity
  8
0-0
  6
JWW_DASHED1
 62
   120
370
     5
100
AcDbLine
 10
186.1468415215953
 20
53.98432374684077
 30
0.0
 11
759.1468415215959
 21
53.98432374684077
 31
0.0
  0
LINE
  5
1CC
330
1F
100
AcDbEntity
  8
0-0
  6
JWW_DASHED1
 62
   120
370
     5
100
AcDbLine
 10
186.1468415215953
 20
54.98432374674096
 30
0.0
 11
759.1468415215959
 21
54.98432374674096
 31
0.0
  0
LINE
  5
1CD
330
1F
100
AcDbEntity
  8
0-0
  6
JWW_DASHED1
 62
   120
370
     5
100
AcDbLine
 10
186.1468415215953
 20
67.98432374784056
 30
0.0
 11
759.1468415215959
 21
67.98432374784056
 31
0.0
  0
LINE
  5
1CE
330
1F
100
AcDbEntity
  8
0-0
  6
JWW_DASHED1
 62
   120
370
     5
100
AcDbLine
 10
186.1468415215953
 20
68.98432374774075
 30
0.0
 11
759.1468415215959
 21
68.98432374774075
 31
0.0
  0
LINE
  5
1CF
330
1F
100
AcDbEntity
  8
0-0
  6
JWW_DASHED1
 62
   120
370
     5
100
AcDbLine
 10
186.1468415215953
 20
81.98432374884035
 30
0.0
 11
759.1468415215959
 21
81.98432374884035
 31
0.0
  0
LINE
  5
1D0
330
1F
100
AcDbEntity
  8
0-0
  6
JWW_DASHED1
 62
   120
370
     5
100
AcDbLine
 10
186.1468415215953
 20
82.98432374874054
 30
0.0
 11
759.1468415215959
 21
82.98432374874054
 31
0.0
  0
LINE
  5
1D1
330
1F
100
AcDbEntity
  8
0-0
  6
JWW_DASHED1
 62
   120
370
     5
100
AcDbLine
 10
186.1468415215953
 20
95.98432374984014
 30
0.0
 11
759.1468415215959
 21
95.98432374984014
 31
0.0
  0
LINE
  5
1D2
330
1F
100
AcDbEntity
  8
0-0
  6
JWW_DASHED1
 62
   120
370
     5
100
AcDbLine
 10
186.1468415215953
 20
96.98432374974033
 30
0.0
 11
759.1468415215959
 21
96.98432374974033
 31
0.0
  0
LINE
  5
1D3
330
1F
100
AcDbEntity
  8
0-0
  6
JWW_DASHED1
 62
   120
370
     5
100
AcDbLine
 10
186.1468415215953
 20
109.9843237508399
 30
0.0
 11
759.1468415215959
 21
109.9843237508399
 31
0.0
  0
LINE
  5
1D4
330
1F
100
AcDbEntity
  8
0-0
  6
JWW_DASHED1
 62
   120
370
     5
100
AcDbLine
 10
186.1468415215953
 20
110.9843237507401
 30
0.0
 11
759.1468415215959
 21
110.9843237507401
 31
0.0
  0
LINE
  5
1D5
330
1F
100
AcDbEntity
  8
0-0
  6
JWW_DASHED1
 62
   120
370
     5
100
AcDbLine
 10
186.1468415215953
 20
123.9843237518396
 30
0.0
 11
759.1468415215959
 21
123.9843237518396
 31
0.0
  0
LINE
  5
1D6
330
1F
100
AcDbEntity
  8
0-0
  6
JWW_DASHED1
 62
   120
370
     5
100
AcDbLine
 10
186.1468415215953
 20
124.9843237517398
 30
0.0
 11
759.1468415215959
 21
124.9843237517398
 31
0.0
  0
LINE
  5
1D7
330
1F
100
AcDbEntity
  8
0-0
  6
JWW_DASHED1
 62
   120
370
     5
100
AcDbLine
 10
186.1468415215953
 20
137.9843237528395
 30
0.0
 11
759.1468415215959
 21
137.9843237528395
 31
0.0
  0
LINE
  5
1D8
330
1F
100
AcDbEntity
  8
0-0
  6
JWW_DASHED1
 62
   120
370
     5
100
AcDbLine
 10
186.1468415215953
 20
138.9843237527397
 30
0.0
 11
759.1468415215959
 21
138.9843237527397
 31
0.0
  0
LINE
  5
1D9
330
1F
100
AcDbEntity
  8
0-0
  6
JWW_DASHED1
 62
   120
370
     5
100
AcDbLine
 10
186.1468415215953
 20
151.9843237538393
 30
0.0
 11
759.1468415215959
 21
151.9843237538393
 31
0.0
  0
LINE
  5
1DA
330
1F
100
AcDbEntity
  8
0-0
  6
JWW_DASHED1
 62
   120
370
     5
100
AcDbLine
 10
186.1468415215953
 20
152.9843237537395
 30
0.0
 11
759.1468415215959
 21
152.9843237537395
 31
0.0
  0
LINE
  5
1DB
330
1F
100
AcDbEntity
  8
0-0
  6
JWW_DASHED1
 62
   120
370
     5
100
AcDbLine
 10
186.1468415215953
 20
165.9843237548391
 30
0.0
 11
759.1468415215959
 21
165.9843237548391
 31
0.0
  0
LINE
  5
1DC
330
1F
100
AcDbEntity
  8
0-0
  6
JWW_DASHED1
 62
   120
370
     5
100
AcDbLine
 10
186.1468415215953
 20
166.9843237547393
 30
0.0
 11
759.1468415215959
 21
166.9843237547393
 31
0.0
  0
LINE
  5
1DD
330
1F
100
AcDbEntity
  8
0-0
  6
JWW_DASHED1
 62
   120
370
     5
100
AcDbLine
 10
186.1468415215953
 20
179.9843237558389
 30
0.0
 11
759.1468415215959
 21
179.9843237558389
 31
0.0
  0
LINE
  5
1DE
330
1F
100
AcDbEntity
  8
0-0
  6
JWW_DASHED1
 62
   120
370
     5
100
AcDbLine
 10
186.1468415215953
 20
180.9843237557391
 30
0.0
 11
759.1468415215959
 21
180.9843237557391
 31
0.0
  0
LINE
  5
1DF
330
1F
100
AcDbEntity
  8
0-0
  6
JWW_DASHED1
 62
   120
370
     5
100
AcDbLine
 10
186.1468415215953
 20
193.9843237568387
 30
0.0
 11
759.1468415215959
 21
193.9843237568387
 31
0.0
  0
LINE
  5
1E0
330
1F
100
AcDbEntity
  8
0-0
  6
JWW_DASHED1
 62
   120
370
     5
100
AcDbLine
 10
186.1468415215953
 20
194.9843237567389
 30
0.0
 11
759.1468415215959
 21
194.9843237567389
 31
0.0
  0
LINE
  5
1E1
330
1F
100
AcDbEntity
  8
0-0
  6
JWW_DASHED1
 62
   120
370
     5
100
AcDbLine
 10
186.1468415215953
 20
207.9843237578385
 30
0.0
 11
759.1468415215959
 21
207.9843237578385
 31
0.0
  0
LINE
  5
1E2
330
1F
100
AcDbEntity
  8
0-0
  6
JWW_DASHED1
 62
   120
370
     5
100
AcDbLine
 10
186.1468415215953
 20
208.9843237577387
 30
0.0
 11
759.1468415215959
 21
208.9843237577387
 31
0.0
  0
LINE
  5
1E3
330
1F
100
AcDbEntity
  8
0-0
  6
JWW_DASHED1
 62
   120
370
     5
100
AcDbLine
 10
186.1468415215953
 20
221.9843237588383
 30
0.0
 11
759.1468415215959
 21
221.9843237588383
 31
0.0
  0
LINE
  5
1E4
330
1F
100
AcDbEntity
  8
0-0
  6
JWW_DASHED1
 62
   120
370
     5
100
AcDbLine
 10
186.1468415215953
 20
222.9843237587384
 30
0.0
 11
759.1468415215959
 21
222.9843237587384
 31
0.0
  0
LINE
  5
1E5
330
1F
100
AcDbEntity
  8
0-0
  6
JWW_DASHED1
 62
   120
370
     5
100
AcDbLine
 10
186.1468415215953
 20
235.984323759838
 30
0.0
 11
759.1468415215959
 21
235.984323759838
 31
0.0
  0
LINE
  5
1E6
330
1F
100
AcDbEntity
  8
0-0
  6
JWW_DASHED1
 62
   120
370
     5
100
AcDbLine
 10
186.1468415215953
 20
236.9843237597382
 30
0.0
 11
759.1468415215959
 21
236.9843237597382
 31
0.0
  0
LINE
  5
1E7
330
1F
100
AcDbEntity
  8
0-0
  6
JWW_DASHED1
 62
   120
370
     5
100
AcDbLine
 10
186.1468415215953
 20
249.9843237608378
 30
0.0
 11
759.1468415215959
 21
249.9843237608378
 31
0.0
  0
LINE
  5
1E8
330
1F
100
AcDbEntity
  8
0-0
  6
JWW_DASHED1
 62
   120
370
     5
100
AcDbLine
 10
186.1468415215953
 20
250.984323760738
 30
0.0
 11
759.1468415215959
 21
250.984323760738
 31
0.0
  0
LINE
  5
1E9
330
1F
100
AcDbEntity
  8
0-0
  6
JWW_DASHED1
 62
   120
370
     5
100
AcDbLine
 10
186.1468415215953
 20
263.9843237618374
 30
0.0
 11
759.1468415215959
 21
263.9843237618374
 31
0.0
  0
LINE
  5
1EA
330
1F
100
AcDbEntity
  8
0-0
  6
JWW_DASHED1
 62
   120
370
     5
100
AcDbLine
 10
186.1468415215953
 20
264.9843237617378
 30
0.0
 11
759.1468415215959
 21
264.9843237617378
 31
0.0
  0
LINE
  5
1EB
330
1F
100
AcDbEntity
  8
0-0
  6
JWW_DASHED1
 62
   120
370
     5
100
AcDbLine
 10
186.1468415215953
 20
277.9843237628374
 30
0.0
 11
759.1468415215959
 21
277.9843237628374
 31
0.0
  0
LINE
  5
1EC
330
1F
100
AcDbEntity
  8
0-0
  6
JWW_DASHED1
 62
   120
370
     5
100
AcDbLine
 10
186.1468415215953
 20
278.9843237627376
 30
0.0
 11
759.1468415215959
 21
278.9843237627376
 31
0.0
  0
LINE
  5
1ED
330
1F
100
AcDbEntity
  8
0-0
  6
JWW_DASHED1
 62
   120
370
     5
100
AcDbLine
 10
186.1468415215953
 20
291.9843237638372
 30
0.0
 11
759.1468415215959
 21
291.9843237638372
 31
0.0
  0
LINE
  5
1EE
330
1F
100
AcDbEntity
  8
0-0
  6
JWW_DASHED1
 62
   120
370
     5
100
AcDbLine
 10
186.1468415215953
 20
292.9843237637374
 30
0.0
 11
759.1468415215959
 21
292.9843237637374
 31
0.0
  0
LINE
  5
1EF
330
1F
100
AcDbEntity
  8
0-0
  6
JWW_DASHED1
 62
   120
370
     5
100
AcDbLine
 10
186.1468415215953
 20
305.984323764837
 30
0.0
 11
759.1468415215959
 21
305.984323764837
 31
0.0
  0
LINE
  5
1F0
330
1F
100
AcDbEntity
  8
0-0
  6
JWW_DASHED1
 62
   120
370
     5
100
AcDbLine
 10
186.1468415215953
 20
306.9843237647372
 30
0.0
 11
759.1468415215959
 21
306.9843237647372
 31
0.0
  0
LINE
  5
1F1
330
1F
100
AcDbEntity
  8
0-0
  6
JWW_DASHED1
 62
   120
370
     5
100
AcDbLine
 10
186.1468415215953
 20
319.9843237658368
 30
0.0
 11
759.1468415215959
 21
319.9843237658368
 31
0.0
  0
LINE
  5
1F2
330
1F
100
AcDbEntity
  8
0-0
  6
JWW_DASHED1
 62
   120
370
     5
100
AcDbLine
 10
186.1468415215953
 20
320.984323765737
 30
0.0
 11
759.1468415215959
 21
320.984323765737
 31
0.0
  0
LINE
  5
1F3
330
1F
100
AcDbEntity
  8
0-0
  6
JWW_DASHED1
 62
   120
370
     5
100
AcDbLine
 10
186.1468415215953
 20
333.9843237668366
 30
0.0
 11
759.1468415215959
 21
333.9843237668366
 31
0.0
  0
LINE
  5
1F4
330
1F
100
AcDbEntity
  8
0-0
  6
JWW_DASHED1
 62
   120
370
     5
100
AcDbLine
 10
186.1468415215953
 20
334.9843237667368
 30
0.0
 11
759.1468415215959
 21
334.9843237667368
 31
0.0
  0
LINE
  5
1F5
330
1F
100
AcDbEntity
  8
0-0
  6
JWW_DASHED1
 62
   120
370
     5
100
AcDbLine
 10
186.1468415215953
 20
347.9843237678364
 30
0.0
 11
759.1468415215959
 21
347.9843237678364
 31
0.0
  0
LINE
  5
1F6
330
1F
100
AcDbEntity
  8
0-0
  6
JWW_DASHED1
 62
   120
370
     5
100
AcDbLine
 10
186.1468415215953
 20
348.9843237677366
 30
0.0
 11
759.1468415215959
 21
348.9843237677366
 31
0.0
  0
LINE
  5
1F7
330
1F
100
AcDbEntity
  8
0-0
  6
JWW_DASHED1
 62
   120
370
     5
100
AcDbLine
 10
186.1468415215953
 20
361.9843237688361
 30
0.0
 11
759.1468415215959
 21
361.9843237688361
 31
0.0
  0
LINE
  5
1F8
330
1F
100
AcDbEntity
  8
0-0
  6
JWW_DASHED1
 62
   120
370
     5
100
AcDbLine
 10
186.1468415215953
 20
362.9843237687363
 30
0.0
 11
759.1468415215959
 21
362.9843237687363
 31
0.0
  0
LINE
  5
1F9
330
1F
100
AcDbEntity
  8
0-0
  6
JWW_DASHED1
 62
   120
370
     5
100
AcDbLine
 10
186.1468415215953
 20
375.984323769836
 30
0.0
 11
759.1468415215959
 21
375.984323769836
 31
0.0
  0
LINE
  5
1FA
330
1F
100
AcDbEntity
  8
0-0
  6
JWW_DASHED1
 62
   120
370
     5
100
AcDbLine
 10
186.1468415215953
 20
376.9843237697359
 30
0.0
 11
759.1468415215959
 21
376.9843237697359
 31
0.0
  0
LINE
  5
1FB
330
1F
100
AcDbEntity
  8
0-0
  6
JWW_DASHED1
 62
   120
370
     5
100
AcDbLine
 10
186.1468415215953
 20
389.9843237708358
 30
0.0
 11
759.1468415215959
 21
389.9843237708358
 31
0.0
  0
LINE
  5
1FC
330
1F
100
AcDbEntity
  8
0-0
  6
JWW_DASHED1
 62
   120
370
     5
100
AcDbLine
 10
186.1468415215953
 20
390.984323770736
 30
0.0
 11
759.1468415215959
 21
390.984323770736
 31
0.0
  0
LINE
  5
1FD
330
1F
100
AcDbEntity
  8
0-0
  6
JWW_DASHED1
 62
   120
370
     5
100
AcDbLine
 10
186.1468415215953
 20
403.9843237718355
 30
0.0
 11
759.1468415215959
 21
403.9843237718355
 31
0.0
  0
LINE
  5
1FE
330
1F
100
AcDbEntity
  8
0-0
  6
JWW_DASHED1
 62
   120
370
     5
100
AcDbLine
 10
186.1468415215953
 20
404.9843237717357
 30
0.0
 11
759.1468415215959
 21
404.9843237717357
 31
0.0
  0
LINE
  5
1FF
330
1F
100
AcDbEntity
  8
0-0
  6
JWW_DASHED1
 62
   120
370
     5
100
AcDbLine
 10
186.1468415215953
 20
417.9843237728353
 30
0.0
 11
759.1468415215959
 21
417.9843237728353
 31
0.0
  0
LINE
  5
200
330
1F
100
AcDbEntity
  8
0-0
  6
JWW_DASHED1
 62
   120
370
     5
100
AcDbLine
 10
186.1468415215953
 20
418.9843237727355
 30
0.0
 11
759.1468415215959
 21
418.9843237727355
 31
0.0
  0
LINE
  5
201
330
1F
100
AcDbEntity
  8
0-0
  6
JWW_DASHED1
 62
   120
370
     5
100
AcDbLine
 10
186.1468415215953
 20
431.9843237738351
 30
0.0
 11
759.1468415215959
 21
431.9843237738351
 31
0.0
  0
LINE
  5
202
330
1F
100
AcDbEntity
  8
0-0
  6
JWW_DASHED1
 62
   120
370
     5
100
AcDbLine
 10
186.1468415215953
 20
432.9843237737353
 30
0.0
 11
759.1468415215959
 21
432.9843237737353
 31
0.0
  0
LINE
  5
203
330
1F
100
AcDbEntity
  8
0-0
  6
JWW_DASHED1
 62
   120
370
     5
100
AcDbLine
 10
186.1468415215953
 20
445.9843237748349
 30
0.0
 11
759.1468415215959
 21
445.9843237748349
 31
0.0
  0
LINE
  5
204
330
1F
100
AcDbEntity
  8
0-0
  6
JWW_DASHED1
 62
   120
370
     5
100
AcDbLine
 10
186.1468415215953
 20
446.9843237747351
 30
0.0
 11
759.1468415215959
 21
446.9843237747351
 31
0.0
  0
LINE
  5
205
330
1F
100
AcDbEntity
  8
0-0
  6
JWW_DASHED1
 62
   120
370
     5
100
AcDbLine
 10
186.1468415215953
 20
459.9843237758347
 30
0.0
 11
759.1468415215959
 21
459.9843237758347
 31
0.0
  0
LINE
  5
206
330
1F
100
AcDbEntity
  8
0-0
  6
JWW_DASHED1
 62
   120
370
     5
100
AcDbLine
 10
186.1468415215953
 20
460.9843237757349
 30
0.0
 11
759.1468415215959
 21
460.9843237757349
 31
0.0
  0
LINE
  5
207
330
1F
100
AcDbEntity
  8
0-0
  6
JWW_DASHED1
 62
   120
370
     5
100
AcDbLine
 10
186.1468415215953
 20
473.9843237768345
 30
0.0
 11
759.1468415215959
 21
473.9843237768345
 31
0.0
  0
LINE
  5
208
330
1F
100
AcDbEntity
  8
0-0
  6
JWW_DASHED1
 62
   120
370
     5
100
AcDbLine
 10
186.1468415215953
 20
474.9843237767346
 30
0.0
 11
759.1468415215959
 21
474.9843237767346
 31
0.0
  0
LINE
  5
209
330
1F
100
AcDbEntity
  8
0-0
  6
JWW_DASHED1
 62
   120
370
     5
100
AcDbLine
 10
186.1468415215953
 20
487.984323777834
 30
0.0
 11
759.1468415215959
 21
487.984323777834
 31
0.0
  0
LINE
  5
20A
330
1F
100
AcDbEntity
  8
0-0
  6
JWW_DASHED1
 62
   120
370
     5
100
AcDbLine
 10
186.1468415215953
 20
488.9843237777345
 30
0.0
 11
759.1468415215959
 21
488.9843237777345
 31
0.0
  0
LINE
  5
20B
330
1F
100
AcDbEntity
  8
0-0
  6
JWW_DASHED1
 62
   120
370
     5
100
AcDbLine
 10
186.1468415215953
 20
501.9843237788341
 30
0.0
 11
759.1468415215959
 21
501.9843237788341
 31
0.0
  0
LINE
  5
20C
330
1F
100
AcDbEntity
  8
0-0
  6
JWW_DASHED1
 62
   120
370
     5
100
AcDbLine
 10
186.1468415215953
 20
502.9843237787343
 30
0.0
 11
759.1468415215959
 21
502.9843237787343
 31
0.0
  0
LINE
  5
20D
330
1F
100
AcDbEntity
  8
0-0
  6
JWW_DASHED1
 62
   120
370
     5
100
AcDbLine
 10
186.1468415215953
 20
515.9843237798339
 30
0.0
 11
759.1468415215959
 21
515.9843237798339
 31
0.0
  0
LINE
  5
20E
330
1F
100
AcDbEntity
  8
0-0
  6
JWW_DASHED1
 62
   120
370
     5
100
AcDbLine
 10
186.1468415215953
 20
516.984323779734
 30
0.0
 11
759.1468415215959
 21
516.984323779734
 31
0.0
  0
LINE
  5
20F
330
1F
100
AcDbEntity
  8
0-0
  6
JWW_DASHED1
 62
   120
370
     5
100
AcDbLine
 10
186.1468415215953
 20
529.9843237808336
 30
0.0
 11
759.1468415215959
 21
529.9843237808336
 31
0.0
  0
LINE
  5
210
330
1F
100
AcDbEntity
  8
0-0
  6
JWW_DASHED1
 62
   120
370
     5
100
AcDbLine
 10
186.1468415215953
 20
530.9843237807338
 30
0.0
 11
759.1468415215959
 21
530.9843237807338
 31
0.0
  0
LINE
  5
211
330
1F
100
AcDbEntity
  8
0-0
  6
JWW_DASHED1
 62
   120
370
     5
100
AcDbLine
 10
186.1468415215953
 20
543.9843237818334
 30
0.0
 11
759.1468415215959
 21
543.9843237818334
 31
0.0
  0
LINE
  5
212
330
1F
100
AcDbEntity
  8
0-0
  6
JWW_DASHED1
 62
   120
370
     5
100
AcDbLine
 10
186.1468415215953
 20
544.9843237817336
 30
0.0
 11
759.1468415215959
 21
544.9843237817336
 31
0.0
  0
LINE
  5
213
330
1F
100
AcDbEntity
  8
0-0
  6
JWW_DASHED1
 62
   120
370
     5
100
AcDbLine
 10
186.1468415215953
 20
557.9843237828333
 30
0.0
 11
759.1468415215959
 21
557.9843237828333
 31
0.0
  0
LINE
  5
214
330
1F
100
AcDbEntity
  8
0-0
  6
JWW_DASHED1
 62
   120
370
     5
100
AcDbLine
 10
186.1468415215953
 20
558.9843237827334
 30
0.0
 11
759.1468415215959
 21
558.9843237827334
 31
0.0
  0
LINE
  5
215
330
1F
100
AcDbEntity
  8
0-0
  6
JWW_DASHED1
 62
   120
370
     5
100
AcDbLine
 10
186.1468415215953
 20
571.984323783833
 30
0.0
 11
759.1468415215959
 21
571.984323783833
 31
0.0
  0
LINE
  5
216
330
1F
100
AcDbEntity
  8
0-0
  6
JWW_DASHED1
 62
   120
370
     5
100
AcDbLine
 10
186.1468415215953
 20
572.9843237837332
 30
0.0
 11
759.1468415215959
 21
572.9843237837332
 31
0.0
  0
LINE
  5
217
330
1F
100
AcDbEntity
  8
0-0
  6
JWW_DASHED1
 62
   120
370
     5
100
AcDbLine
 10
186.1468415215953
 20
585.9843237848328
 30
0.0
 11
759.1468415215959
 21
585.9843237848328
 31
0.0
  0
LINE
  5
218
330
1F
100
AcDbEntity
  8
0-0
  6
JWW_DASHED1
 62
   120
370
     5
100
AcDbLine
 10
186.1468415215953
 20
586.984323784733
 30
0.0
 11
759.1468415215959
 21
586.984323784733
 31
0.0
  0
LINE
  5
219
330
1F
100
AcDbEntity
  8
0-0
  6
JWW_DASHED1
 62
   120
370
     5
100
AcDbLine
 10
186.1468415215953
 20
599.9843237858327
 30
0.0
 11
759.1468415215959
 21
599.9843237858327
 31
0.0
  0
LINE
  5
21A
330
1F
100
AcDbEntity
  8
0-0
  6
JWW_DASHED1
 62
   120
370
     5
100
AcDbLine
 10
186.1468415215953
 20
600.9843237857326
 30
0.0
 11
759.1468415215959
 21
600.9843237857326
 31
0.0
  0
LINE
  5
21B
330
1F
100
AcDbEntity
  8
0-0
  6
JWW_DASHED1
 62
   120
370
     5
100
AcDbLine
 10
186.1468415215953
 20
613.9843237868324
 30
0.0
 11
759.1468415215959
 21
613.9843237868324
 31
0.0
  0
LINE
  5
21C
330
1F
100
AcDbEntity
  8
0-0
  6
JWW_DASHED1
 62
   120
370
     5
100
AcDbLine
 10
186.1468415215953
 20
614.9843237867326
 30
0.0
 11
759.1468415215959
 21
614.9843237867326
 31
0.0
  0
LINE
  5
21D
330
1F
100
AcDbEntity
  8
0-0
  6
JWW_DASHED1
 62
   120
370
     5
100
AcDbLine
 10
186.1468415215953
 20
627.9843237878322
 30
0.0
 11
759.1468415215959
 21
627.9843237878322
 31
0.0
  0
LINE
  5
21E
330
1F
100
AcDbEntity
  8
0-0
  6
JWW_DASHED1
 62
   120
370
     5
100
AcDbLine
 10
186.1468415215953
 20
628.9843237877324
 30
0.0
 11
759.1468415215959
 21
628.9843237877324
 31
0.0
  0
LINE
  5
21F
330
1F
100
AcDbEntity
  8
0-0
  6
JWW_DASHED1
 62
   120
370
     5
100
AcDbLine
 10
186.1468415215953
 20
641.984323788832
 30
0.0
 11
759.1468415215959
 21
641.984323788832
 31
0.0
  0
LINE
  5
220
330
1F
100
AcDbEntity
  8
0-0
  6
JWW_DASHED1
 62
   120
370
     5
100
AcDbLine
 10
186.1468415215953
 20
642.9843237887321
 30
0.0
 11
759.1468415215959
 21
642.9843237887321
 31
0.0
  0
LINE
  5
221
330
1F
100
AcDbEntity
  8
0-0
  6
JWW_DASHED1
 62
   120
370
     5
100
AcDbLine
 10
186.1468415215953
 20
655.9843237898317
 30
0.0
 11
759.1468415215959
 21
655.9843237898317
 31
0.0
  0
LINE
  5
222
330
1F
100
AcDbEntity
  8
0-0
  6
JWW_DASHED1
 62
   120
370
     5
100
AcDbLine
 10
186.1468415215953
 20
656.9843237897319
 30
0.0
 11
759.1468415215959
 21
656.9843237897319
 31
0.0
  0
LINE
  5
223
330
1F
100
AcDbEntity
  8
0-0
  6
JWW_DASHED1
 62
   120
370
     5
100
AcDbLine
 10
186.1468415215953
 20
669.9843237908316
 30
0.0
 11
759.1468415215959
 21
669.9843237908316
 31
0.0
  0
LINE
  5
224
330
1F
100
AcDbEntity
  8
0-0
  6
JWW_DASHED1
 62
   120
370
     5
100
AcDbLine
 10
186.1468415215953
 20
670.9843237907318
 30
0.0
 11
759.1468415215959
 21
670.9843237907318
 31
0.0
  0
LINE
  5
225
330
1F
100
AcDbEntity
  8
0-0
  6
JWW_DASHED1
 62
   120
370
     5
100
AcDbLine
 10
186.1468415215953
 20
683.9843237918313
 30
0.0
 11
759.1468415215959
 21
683.9843237918313
 31
0.0
  0
LINE
  5
226
330
1F
100
AcDbEntity
  8
0-0
  6
JWW_DASHED1
 62
   120
370
     5
100
AcDbLine
 10
186.1468415215953
 20
684.9843237917315
 30
0.0
 11
759.1468415215959
 21
684.9843237917315
 31
0.0
  0
LINE
  5
227
330
1F
100
AcDbEntity
  8
0-0
  6
JWW_DASHED1
 62
   120
370
     5
100
AcDbLine
 10
186.1468415215953
 20
697.9843237928311
 30
0.0
 11
759.1468415215959
 21
697.9843237928311
 31
0.0
  0
LINE
  5
228
330
1F
100
AcDbEntity
  8
0-0
  6
JWW_DASHED1
 62
   120
370
     5
100
AcDbLine
 10
186.1468415215953
 20
698.9843237927313
 30
0.0
 11
759.1468415215959
 21
698.9843237927313
 31
0.0
  0
LINE
  5
229
330
1F
100
AcDbEntity
  8
0-0
  6
JWW_DASHED1
 62
   120
370
     5
100
AcDbLine
 10
186.1468415215953
 20
711.9843237938308
 30
0.0
 11
759.1468415215959
 21
711.9843237938308
 31
0.0
  0
LINE
  5
22A
330
1F
100
AcDbEntity
  8
0-0
  6
JWW_DASHED1
 62
   120
370
     5
100
AcDbLine
 10
186.1468415215953
 20
712.9843237937312
 30
0.0
 11
759.1468415215959
 21
712.9843237937312
 31
0.0
  0
LINE
  5
22B
330
1F
100
AcDbEntity
  8
0-0
  6
JWW_DASHED1
 62
   120
370
     5
100
AcDbLine
 10
186.1468415215953
 20
725.9843237948307
 30
0.0
 11
759.1468415215959
 21
725.9843237948307
 31
0.0
  0
LINE
  5
22C
330
1F
100
AcDbEntity
  8
0-0
  6
JWW_DASHED1
 62
   120
370
     5
100
AcDbLine
 10
186.1468415215953
 20
726.9843237947309
 30
0.0
 11
759.1468415215959
 21
726.9843237947309
 31
0.0
  0
LINE
  5
22D
330
1F
100
AcDbEntity
  8
0-0
  6
JWW_DASHED1
 62
   120
370
     5
100
AcDbLine
 10
186.1468415215953
 20
739.9843237958305
 30
0.0
 11
759.1468415215959
 21
739.9843237958305
 31
0.0
  0
LINE
  5
22E
330
1F
100
AcDbEntity
  8
0-0
  6
JWW_DASHED1
 62
   120
370
     5
100
AcDbLine
 10
186.1468415215953
 20
740.9843237957307
 30
0.0
 11
759.1468415215959
 21
740.9843237957307
 31
0.0
  0
LINE
  5
22F
330
1F
100
AcDbEntity
  8
0-0
  6
JWW_DASHED1
 62
   120
370
     5
100
AcDbLine
 10
186.1468415215953
 20
753.9843237968303
 30
0.0
 11
759.1468415215959
 21
753.9843237968303
 31
0.0
  0
LINE
  5
230
330
1F
100
AcDbEntity
  8
0-0
  6
JWW_DASHED1
 62
   120
370
     5
100
AcDbLine
 10
186.1468415215953
 20
754.9843237967305
 30
0.0
 11
759.1468415215959
 21
754.9843237967305
 31
0.0
  0
LINE
  5
231
330
1F
100
AcDbEntity
  8
0-0
  6
JWW_DASHED1
 62
   120
370
     5
100
AcDbLine
 10
186.1468415215953
 20
767.98432379783
 30
0.0
 11
759.1468415215959
 21
767.98432379783
 31
0.0
  0
LINE
  5
232
330
1F
100
AcDbEntity
  8
0-0
  6
JWW_DASHED1
 62
   120
370
     5
100
AcDbLine
 10
186.1468415215953
 20
768.9843237977302
 30
0.0
 11
759.1468415215959
 21
768.9843237977302
 31
0.0
  0
LINE
  5
233
330
1F
100
AcDbEntity
  8
0-0
  6
JWW_DASHED1
 62
   120
370
     5
100
AcDbLine
 10
186.1468415215953
 20
781.9843237988299
 30
0.0
 11
759.1468415215959
 21
781.9843237988299
 31
0.0
  0
LINE
  5
234
330
1F
100
AcDbEntity
  8
0-0
  6
JWW_DASHED1
 62
   120
370
     5
100
AcDbLine
 10
186.1468415215953
 20
782.9843237987301
 30
0.0
 11
759.1468415215959
 21
782.9843237987301
 31
0.0
  0
LINE
  5
235
330
1F
100
AcDbEntity
  8
0-0
  6
JWW_DASHED1
 62
   120
370
     5
100
AcDbLine
 10
186.1468415215953
 20
795.9843237998297
 30
0.0
 11
759.1468415215959
 21
795.9843237998297
 31
0.0
  0
LINE
  5
236
330
1F
100
AcDbEntity
  8
0-0
  6
JWW_DASHED1
 62
   120
370
     5
100
AcDbLine
 10
186.1468415215953
 20
796.9843237997299
 30
0.0
 11
759.1468415215959
 21
796.9843237997299
 31
0.0
  0
LINE
  5
237
330
1F
100
AcDbEntity
  8
0-0
  6
JWW_DASHED1
 62
   120
370
     5
100
AcDbLine
 10
186.1468415215953
 20
809.9843238008292
 30
0.0
 11
759.1468415215959
 21
809.9843238008292
 31
0.0
  0
LINE
  5
238
330
1F
100
AcDbEntity
  8
0-0
  6
JWW_DASHED1
 62
   120
370
     5
100
AcDbLine
 10
186.1468415215953
 20
810.9843238007294
 30
0.0
 11
759.1468415215959
 21
810.9843238007294
 31
0.0
  0
LINE
  5
239
330
1F
100
AcDbEntity
  8
0-0
  6
JWW_DASHED1
 62
   120
370
     5
100
AcDbLine
 10
186.1468415215953
 20
823.9843238018293
 30
0.0
 11
759.1468415215959
 21
823.9843238018293
 31
0.0
  0
LINE
  5
23A
330
1F
100
AcDbEntity
  8
0-0
  6
JWW_DASHED1
 62
   120
370
     5
100
AcDbLine
 10
186.1468415215953
 20
824.9843238017293
 30
0.0
 11
759.1468415215959
 21
824.9843238017293
 31
0.0
  0
LINE
  5
23B
330
1F
100
AcDbEntity
  8
0-0
  6
JWW_DASHED1
 62
   120
370
     5
100
AcDbLine
 10
186.1468415215953
 20
837.9843238028291
 30
0.0
 11
759.1468415215959
 21
837.9843238028291
 31
0.0
  0
LINE
  5
23C
330
1F
100
AcDbEntity
  8
0-0
  6
JWW_DASHED1
 62
   120
370
     5
100
AcDbLine
 10
186.1468415215953
 20
838.9843238027293
 30
0.0
 11
759.1468415215959
 21
838.9843238027293
 31
0.0
  0
LINE
  5
23D
330
1F
100
AcDbEntity
  8
0-0
  6
JWW_DASHED1
 62
   120
370
     5
100
AcDbLine
 10
186.1468415215953
 20
851.9843238038288
 30
0.0
 11
759.1468415215959
 21
851.9843238038288
 31
0.0
  0
LINE
  5
23E
330
1F
100
AcDbEntity
  8
0-0
  6
JWW_DASHED1
 62
   120
370
     5
100
AcDbLine
 10
186.1468415215953
 20
852.984323803729
 30
0.0
 11
759.1468415215959
 21
852.984323803729
 31
0.0
  0
LINE
  5
23F
330
1F
100
AcDbEntity
  8
0-0
  6
JWW_DASHED1
 62
   120
370
     5
100
AcDbLine
 10
186.1468415215953
 20
865.9843238048286
 30
0.0
 11
759.1468415215959
 21
865.9843238048286
 31
0.0
  0
LINE
  5
240
330
1F
100
AcDbEntity
  8
0-0
  6
JWW_DASHED1
 62
   120
370
     5
100
AcDbLine
 10
186.1468415215953
 20
866.9843238047288
 30
0.0
 11
759.1468415215959
 21
866.9843238047288
 31
0.0
  0
LINE
  5
241
330
1F
100
AcDbEntity
  8
0-0
  6
JWW_DASHED1
 62
   120
370
     5
100
AcDbLine
 10
186.1468415215953
 20
879.9843238058284
 30
0.0
 11
759.1468415215959
 21
879.9843238058284
 31
0.0
  0
LINE
  5
242
330
1F
100
AcDbEntity
  8
0-0
  6
JWW_DASHED1
 62
   120
370
     5
100
AcDbLine
 10
186.1468415215953
 20
880.9843238057285
 30
0.0
 11
759.1468415215959
 21
880.9843238057285
 31
0.0
  0
LINE
  5
243
330
1F
100
AcDbEntity
  8
0-0
  6
JWW_DASHED1
 62
   120
370
     5
100
AcDbLine
 10
186.1468415215953
 20
893.9843238068282
 30
0.0
 11
759.1468415215959
 21
893.9843238068282
 31
0.0
  0
LINE
  5
244
330
1F
100
AcDbEntity
  8
0-0
  6
JWW_DASHED1
 62
   120
370
     5
100
AcDbLine
 10
186.1468415215953
 20
894.9843238067284
 30
0.0
 11
759.1468415215959
 21
894.9843238067284
 31
0.0
  0
LINE
  5
245
330
1F
100
AcDbEntity
  8
0-0
  6
JWW_DASHED1
 62
   120
370
     5
100
AcDbLine
 10
186.1468415215953
 20
907.984323807828
 30
0.0
 11
759.1468415215959
 21
907.984323807828
 31
0.0
  0
LINE
  5
246
330
1F
100
AcDbEntity
  8
0-0
  6
JWW_DASHED1
 62
   120
370
     5
100
AcDbLine
 10
186.1468415215953
 20
908.9843238077282
 30
0.0
 11
759.1468415215959
 21
908.9843238077282
 31
0.0
  0
LINE
  5
247
330
1F
100
AcDbEntity
  8
0-0
  6
JWW_DASHED1
 62
   120
370
     5
100
AcDbLine
 10
186.1468415215953
 20
921.9843238088275
 30
0.0
 11
759.1468415215959
 21
921.9843238088275
 31
0.0
  0
LINE
  5
248
330
1F
100
AcDbEntity
  8
0-0
  6
JWW_DASHED1
 62
   120
370
     5
100
AcDbLine
 10
186.1468415215953
 20
922.9843238087277
 30
0.0
 11
759.1468415215959
 21
922.9843238087277
 31
0.0
  0
LINE
  5
249
330
1F
100
AcDbEntity
  8
0-0
  6
JWW_DASHED1
 62
   120
370
     5
100
AcDbLine
 10
186.1468415215953
 20
935.9843238098274
 30
0.0
 11
759.1468415215959
 21
935.9843238098274
 31
0.0
  0
LINE
  5
24A
330
1F
100
AcDbEntity
  8
0-0
  6
JWW_DASHED1
 62
   120
370
     5
100
AcDbLine
 10
186.1468415215953
 20
936.9843238097278
 30
0.0
 11
759.1468415215959
 21
936.9843238097278
 31
0.0
  0
LINE
  5
24B
330
1F
100
AcDbEntity
  8
0-0
  6
JWW_DASHED1
 62
   120
370
     5
100
AcDbLine
 10
186.1468415215953
 20
949.9843238108274
 30
0.0
 11
759.1468415215959
 21
949.9843238108274
 31
0.0
  0
LINE
  5
24C
330
1F
100
AcDbEntity
  8
0-0
  6
JWW_DASHED1
 62
   120
370
     5
100
AcDbLine
 10
186.1468415215953
 20
950.9843238107276
 30
0.0
 11
759.1468415215959
 21
950.9843238107276
 31
0.0
  0
LINE
  5
24D
330
1F
100
AcDbEntity
  8
0-0
  6
JWW_DASHED1
 62
   120
370
     5
100
AcDbLine
 10
186.1468415215953
 20
963.9843238118272
 30
0.0
 11
759.1468415215959
 21
963.9843238118272
 31
0.0
  0
LINE
  5
24E
330
1F
100
AcDbEntity
  8
0-0
  6
JWW_DASHED1
 62
   120
370
     5
100
AcDbLine
 10
186.1468415215953
 20
964.9843238117273
 30
0.0
 11
759.1468415215959
 21
964.9843238117273
 31
0.0
  0
LINE
  5
24F
330
1F
100
AcDbEntity
  8
0-0
  6
JWW_DASHED1
 62
   120
370
     5
100
AcDbLine
 10
186.1468415215953
 20
977.9843238128269
 30
0.0
 11
759.1468415215959
 21
977.9843238128269
 31
0.0
  0
LINE
  5
250
330
1F
100
AcDbEntity
  8
0-0
  6
JWW_DASHED1
 62
   120
370
     5
100
AcDbLine
 10
186.1468415215953
 20
978.9843238127269
 30
0.0
 11
759.1468415215959
 21
978.9843238127269
 31
0.0
  0
LINE
  5
251
330
1F
100
AcDbEntity
  8
0-0
  6
JWW_DASHED1
 62
   120
370
     5
100
AcDbLine
 10
186.1468415215953
 20
991.9843238138267
 30
0.0
 11
759.1468415215959
 21
991.9843238138267
 31
0.0
  0
LINE
  5
252
330
1F
100
AcDbEntity
  8
0-0
  6
JWW_DASHED1
 62
   120
370
     5
100
AcDbLine
 10
186.1468415215953
 20
992.9843238137269
 30
0.0
 11
759.1468415215959
 21
992.9843238137269
 31
0.0
  0
LINE
  5
253
330
1F
100
AcDbEntity
  8
0-0
  6
JWW_DASHED1
 62
   120
370
     5
100
AcDbLine
 10
186.1468415215953
 20
1005.984323814827
 30
0.0
 11
759.1468415215959
 21
1005.984323814827
 31
0.0
  0
LINE
  5
254
330
1F
100
AcDbEntity
  8
0-0
  6
JWW_DASHED1
 62
   120
370
     5
100
AcDbLine
 10
186.1468415215953
 20
1006.984323814727
 30
0.0
 11
759.1468415215959
 21
1006.984323814727
 31
0.0
  0
LINE
  5
255
330
1F
100
AcDbEntity
  8
0-0
  6
JWW_DASHED1
 62
   120
370
     5
100
AcDbLine
 10
192.146859979627
 20
-100.0155279503132
 30
0.0
 11
192.146859979627
 21
1074.984472049687
 31
0.0
  0
LINE
  5
256
330
1F
100
AcDbEntity
  8
0-0
  6
JWW_DASHED1
 62
   120
370
     5
100
AcDbLine
 10
725.1468600175274
 20
-100.0155279503132
 30
0.0
 11
725.1468600175274
 21
1074.984472049687
 31
0.0
  0
LINE
  5
257
330
1F
100
AcDbEntity
  8
0-0
  6
JWW_DASHED1
 62
   120
370
     5
100
AcDbLine
 10
724.1468600176272
 20
-100.0155279503132
 30
0.0
 11
724.1468600176277
 21
1074.984472049687
 31
0.0
  0
LINE
  5
258
330
1F
100
AcDbEntity
  8
0-0
  6
JWW_DASHED1
 62
   120
370
     5
100
AcDbLine
 10
711.1468600165272
 20
-100.0155279503132
 30
0.0
 11
711.1468600165276
 21
1074.984472049687
 31
0.0
  0
LINE
  5
259
330
1F
100
AcDbEntity
  8
0-0
  6
JWW_DASHED1
 62
   120
370
     5
100
AcDbLine
 10
710.1468600166274
 20
-100.0155279503132
 30
0.0
 11
710.1468600166274
 21
1074.984472049687
 31
0.0
  0
LINE
  5
25A
330
1F
100
AcDbEntity
  8
0-0
  6
JWW_DASHED1
 62
   120
370
     5
100
AcDbLine
 10
697.146860015527
 20
-100.0155279503132
 30
0.0
 11
697.146860015527
 21
1074.984472049687
 31
0.0
  0
LINE
  5
25B
330
1F
100
AcDbEntity
  8
0-0
  6
JWW_DASHED1
 62
   120
370
     5
100
AcDbLine
 10
696.1468600156272
 20
-100.0155279503132
 30
0.0
 11
696.1468600156272
 21
1074.984472049687
 31
0.0
  0
LINE
  5
25C
330
1F
100
AcDbEntity
  8
0-0
  6
JWW_DASHED1
 62
   120
370
     5
100
AcDbLine
 10
683.1468600145272
 20
-100.0155279503132
 30
0.0
 11
683.1468600145272
 21
1074.984472049687
 31
0.0
  0
LINE
  5
25D
330
1F
100
AcDbEntity
  8
0-0
  6
JWW_DASHED1
 62
   120
370
     5
100
AcDbLine
 10
682.146860014627
 20
-100.0155279503132
 30
0.0
 11
682.146860014627
 21
1074.984472049687
 31
0.0
  0
LINE
  5
25E
330
1F
100
AcDbEntity
  8
0-0
  6
JWW_DASHED1
 62
   120
370
     5
100
AcDbLine
 10
669.146860013527
 20
-100.0155279503132
 30
0.0
 11
669.146860013527
 21
1074.984472049687
 31
0.0
  0
LINE
  5
25F
330
1F
100
AcDbEntity
  8
0-0
  6
JWW_DASHED1
 62
   120
370
     5
100
AcDbLine
 10
668.1468600136271
 20
-100.0155279503132
 30
0.0
 11
668.1468600136276
 21
1074.984472049687
 31
0.0
  0
LINE
  5
260
330
1F
100
AcDbEntity
  8
0-0
  6
JWW_DASHED1
 62
   120
370
     5
100
AcDbLine
 10
655.1468600125271
 20
-100.0155279503132
 30
0.0
 11
655.1468600125276
 21
1074.984472049687
 31
0.0
  0
LINE
  5
261
330
1F
100
AcDbEntity
  8
0-0
  6
JWW_DASHED1
 62
   120
370
     5
100
AcDbLine
 10
654.1468600126274
 20
-100.0155279503132
 30
0.0
 11
654.1468600126274
 21
1074.984472049687
 31
0.0
  0
LINE
  5
262
330
1F
100
AcDbEntity
  8
0-0
  6
JWW_DASHED1
 62
   120
370
     5
100
AcDbLine
 10
641.1468600115273
 20
-100.0155279503132
 30
0.0
 11
641.1468600115273
 21
1074.984472049687
 31
0.0
  0
LINE
  5
263
330
1F
100
AcDbEntity
  8
0-0
  6
JWW_DASHED1
 62
   120
370
     5
100
AcDbLine
 10
640.1468600116272
 20
-100.0155279503132
 30
0.0
 11
640.1468600116272
 21
1074.984472049687
 31
0.0
  0
LINE
  5
264
330
1F
100
AcDbEntity
  8
0-0
  6
JWW_DASHED1
 62
   120
370
     5
100
AcDbLine
 10
627.1468600105276
 20
-100.0155279503132
 30
0.0
 11
627.1468600105276
 21
1074.984472049687
 31
0.0
  0
LINE
  5
265
330
1F
100
AcDbEntity
  8
0-0
  6
JWW_DASHED1
 62
   120
370
     5
100
AcDbLine
 10
626.1468600106274
 20
-100.0155279503132
 30
0.0
 11
626.1468600106274
 21
1074.984472049687
 31
0.0
  0
LINE
  5
266
330
1F
100
AcDbEntity
  8
0-0
  6
JWW_DASHED1
 62
   120
370
     5
100
AcDbLine
 10
613.1468600095277
 20
-100.0155279503132
 30
0.0
 11
613.1468600095277
 21
1074.984472049687
 31
0.0
  0
LINE
  5
267
330
1F
100
AcDbEntity
  8
0-0
  6
JWW_DASHED1
 62
   120
370
     5
100
AcDbLine
 10
612.1468600096275
 20
-100.0155279503132
 30
0.0
 11
612.1468600096275
 21
1074.984472049687
 31
0.0
  0
LINE
  5
268
330
1F
100
AcDbEntity
  8
0-0
  6
JWW_DASHED1
 62
   120
370
     5
100
AcDbLine
 10
599.1468600085275
 20
-100.0155279503132
 30
0.0
 11
599.1468600085275
 21
1074.984472049687
 31
0.0
  0
LINE
  5
269
330
1F
100
AcDbEntity
  8
0-0
  6
JWW_DASHED1
 62
   120
370
     5
100
AcDbLine
 10
598.1468600086273
 20
-100.0155279503132
 30
0.0
 11
598.1468600086273
 21
1074.984472049687
 31
0.0
  0
LINE
  5
26A
330
1F
100
AcDbEntity
  8
0-0
  6
JWW_DASHED1
 62
   120
370
     5
100
AcDbLine
 10
585.1468600075273
 20
-100.0155279503132
 30
0.0
 11
585.1468600075273
 21
1074.984472049687
 31
0.0
  0
LINE
  5
26B
330
1F
100
AcDbEntity
  8
0-0
  6
JWW_DASHED1
 62
   120
370
     5
100
AcDbLine
 10
584.1468600076271
 20
-100.0155279503132
 30
0.0
 11
584.1468600076271
 21
1074.984472049687
 31
0.0
  0
LINE
  5
26C
330
1F
100
AcDbEntity
  8
0-0
  6
JWW_DASHED1
 62
   120
370
     5
100
AcDbLine
 10
571.1468600065275
 20
-100.0155279503132
 30
0.0
 11
571.1468600065275
 21
1074.984472049687
 31
0.0
  0
LINE
  5
26D
330
1F
100
AcDbEntity
  8
0-0
  6
JWW_DASHED1
 62
   120
370
     5
100
AcDbLine
 10
570.1468600066273
 20
-100.0155279503132
 30
0.0
 11
570.1468600066273
 21
1074.984472049687
 31
0.0
  0
LINE
  5
26E
330
1F
100
AcDbEntity
  8
0-0
  6
JWW_DASHED1
 62
   120
370
     5
100
AcDbLine
 10
557.1468600055275
 20
-100.0155279503132
 30
0.0
 11
557.1468600055275
 21
1074.984472049687
 31
0.0
  0
LINE
  5
26F
330
1F
100
AcDbEntity
  8
0-0
  6
JWW_DASHED1
 62
   120
370
     5
100
AcDbLine
 10
556.1468600056276
 20
-100.0155279503132
 30
0.0
 11
556.1468600056276
 21
1074.984472049687
 31
0.0
  0
LINE
  5
270
330
1F
100
AcDbEntity
  8
0-0
  6
JWW_DASHED1
 62
   120
370
     5
100
AcDbLine
 10
543.1468600045275
 20
-100.0155279503132
 30
0.0
 11
543.1468600045275
 21
1074.984472049687
 31
0.0
  0
LINE
  5
271
330
1F
100
AcDbEntity
  8
0-0
  6
JWW_DASHED1
 62
   120
370
     5
100
AcDbLine
 10
542.1468600046271
 20
-100.0155279503132
 30
0.0
 11
542.1468600046271
 21
1074.984472049687
 31
0.0
  0
LINE
  5
272
330
1F
100
AcDbEntity
  8
0-0
  6
JWW_DASHED1
 62
   120
370
     5
100
AcDbLine
 10
529.1468600035271
 20
-100.0155279503132
 30
0.0
 11
529.1468600035271
 21
1074.984472049687
 31
0.0
  0
LINE
  5
273
330
1F
100
AcDbEntity
  8
0-0
  6
JWW_DASHED1
 62
   120
370
     5
100
AcDbLine
 10
528.1468600036271
 20
-100.0155279503132
 30
0.0
 11
528.1468600036271
 21
1074.984472049687
 31
0.0
  0
LINE
  5
274
330
1F
100
AcDbEntity
  8
0-0
  6
JWW_DASHED1
 62
   120
370
     5
100
AcDbLine
 10
515.1468600025275
 20
-100.0155279503132
 30
0.0
 11
515.1468600025275
 21
1074.984472049687
 31
0.0
  0
LINE
  5
275
330
1F
100
AcDbEntity
  8
0-0
  6
JWW_DASHED1
 62
   120
370
     5
100
AcDbLine
 10
514.1468600026274
 20
-100.0155279503132
 30
0.0
 11
514.1468600026274
 21
1074.984472049687
 31
0.0
  0
LINE
  5
276
330
1F
100
AcDbEntity
  8
0-0
  6
JWW_DASHED1
 62
   120
370
     5
100
AcDbLine
 10
501.1468600015277
 20
-100.0155279503132
 30
0.0
 11
501.1468600015277
 21
1074.984472049687
 31
0.0
  0
LINE
  5
277
330
1F
100
AcDbEntity
  8
0-0
  6
JWW_DASHED1
 62
   120
370
     5
100
AcDbLine
 10
500.1468600016271
 20
-100.0155279503132
 30
0.0
 11
500.1468600016271
 21
1074.984472049687
 31
0.0
  0
LINE
  5
278
330
1F
100
AcDbEntity
  8
0-0
  6
JWW_DASHED1
 62
   120
370
     5
100
AcDbLine
 10
487.1468600005275
 20
-100.0155279503132
 30
0.0
 11
487.1468600005275
 21
1074.984472049687
 31
0.0
  0
LINE
  5
279
330
1F
100
AcDbEntity
  8
0-0
  6
JWW_DASHED1
 62
   120
370
     5
100
AcDbLine
 10
486.1468600006273
 20
-100.0155279503132
 30
0.0
 11
486.1468600006273
 21
1074.984472049687
 31
0.0
  0
LINE
  5
27A
330
1F
100
AcDbEntity
  8
0-0
  6
JWW_DASHED1
 62
   120
370
     5
100
AcDbLine
 10
473.1468599995273
 20
-100.0155279503132
 30
0.0
 11
473.1468599995273
 21
1074.984472049687
 31
0.0
  0
LINE
  5
27B
330
1F
100
AcDbEntity
  8
0-0
  6
JWW_DASHED1
 62
   120
370
     5
100
AcDbLine
 10
472.1468599996271
 20
-100.0155279503132
 30
0.0
 11
472.1468599996271
 21
1074.984472049687
 31
0.0
  0
LINE
  5
27C
330
1F
100
AcDbEntity
  8
0-0
  6
JWW_DASHED1
 62
   120
370
     5
100
AcDbLine
 10
459.1468599985271
 20
-100.0155279503132
 30
0.0
 11
459.1468599985271
 21
1074.984472049687
 31
0.0
  0
LINE
  5
27D
330
1F
100
AcDbEntity
  8
0-0
  6
JWW_DASHED1
 62
   120
370
     5
100
AcDbLine
 10
458.1468599986273
 20
-100.0155279503132
 30
0.0
 11
458.1468599986273
 21
1074.984472049687
 31
0.0
  0
LINE
  5
27E
330
1F
100
AcDbEntity
  8
0-0
  6
JWW_DASHED1
 62
   120
370
     5
100
AcDbLine
 10
445.1468599975277
 20
-100.0155279503132
 30
0.0
 11
445.1468599975277
 21
1074.984472049687
 31
0.0
  0
LINE
  5
27F
330
1F
100
AcDbEntity
  8
0-0
  6
JWW_DASHED1
 62
   120
370
     5
100
AcDbLine
 10
444.1468599976275
 20
-100.0155279503132
 30
0.0
 11
444.1468599976275
 21
1074.984472049687
 31
0.0
  0
LINE
  5
280
330
1F
100
AcDbEntity
  8
0-0
  6
JWW_DASHED1
 62
   120
370
     5
100
AcDbLine
 10
431.1468599965275
 20
-100.0155279503132
 30
0.0
 11
431.1468599965275
 21
1074.984472049687
 31
0.0
  0
LINE
  5
281
330
1F
100
AcDbEntity
  8
0-0
  6
JWW_DASHED1
 62
   120
370
     5
100
AcDbLine
 10
430.1468599966273
 20
-100.0155279503132
 30
0.0
 11
430.1468599966273
 21
1074.984472049687
 31
0.0
  0
LINE
  5
282
330
1F
100
AcDbEntity
  8
0-0
  6
JWW_DASHED1
 62
   120
370
     5
100
AcDbLine
 10
417.1468599955273
 20
-100.0155279503132
 30
0.0
 11
417.1468599955273
 21
1074.984472049687
 31
0.0
  0
LINE
  5
283
330
1F
100
AcDbEntity
  8
0-0
  6
JWW_DASHED1
 62
   120
370
     5
100
AcDbLine
 10
416.1468599956271
 20
-100.0155279503132
 30
0.0
 11
416.1468599956271
 21
1074.984472049687
 31
0.0
  0
LINE
  5
284
330
1F
100
AcDbEntity
  8
0-0
  6
JWW_DASHED1
 62
   120
370
     5
100
AcDbLine
 10
403.1468599945275
 20
-100.0155279503132
 30
0.0
 11
403.1468599945275
 21
1074.984472049687
 31
0.0
  0
LINE
  5
285
330
1F
100
AcDbEntity
  8
0-0
  6
JWW_DASHED1
 62
   120
370
     5
100
AcDbLine
 10
402.1468599946273
 20
-100.0155279503132
 30
0.0
 11
402.1468599946273
 21
1074.984472049687
 31
0.0
  0
LINE
  5
286
330
1F
100
AcDbEntity
  8
0-0
  6
JWW_DASHED1
 62
   120
370
     5
100
AcDbLine
 10
389.1468599935277
 20
-100.0155279503132
 30
0.0
 11
389.1468599935277
 21
1074.984472049687
 31
0.0
  0
LINE
  5
287
330
1F
100
AcDbEntity
  8
0-0
  6
JWW_DASHED1
 62
   120
370
     5
100
AcDbLine
 10
388.1468599936275
 20
-100.0155279503132
 30
0.0
 11
388.1468599936275
 21
1074.984472049687
 31
0.0
  0
LINE
  5
288
330
1F
100
AcDbEntity
  8
0-0
  6
JWW_DASHED1
 62
   120
370
     5
100
AcDbLine
 10
375.1468599925275
 20
-100.0155279503132
 30
0.0
 11
375.1468599925275
 21
1074.984472049687
 31
0.0
  0
LINE
  5
289
330
1F
100
AcDbEntity
  8
0-0
  6
JWW_DASHED1
 62
   120
370
     5
100
AcDbLine
 10
374.1468599926273
 20
-100.0155279503132
 30
0.0
 11
374.1468599926273
 21
1074.984472049687
 31
0.0
  0
LINE
  5
28A
330
1F
100
AcDbEntity
  8
0-0
  6
JWW_DASHED1
 62
   120
370
     5
100
AcDbLine
 10
361.1468599915273
 20
-100.0155279503132
 30
0.0
 11
361.1468599915273
 21
1074.984472049687
 31
0.0
  0
LINE
  5
28B
330
1F
100
AcDbEntity
  8
0-0
  6
JWW_DASHED1
 62
   120
370
     5
100
AcDbLine
 10
360.1468599916271
 20
-100.0155279503132
 30
0.0
 11
360.1468599916271
 21
1074.984472049687
 31
0.0
  0
LINE
  5
28C
330
1F
100
AcDbEntity
  8
0-0
  6
JWW_DASHED1
 62
   120
370
     5
100
AcDbLine
 10
347.1468599905274
 20
-100.0155279503132
 30
0.0
 11
347.1468599905274
 21
1074.984472049687
 31
0.0
  0
LINE
  5
28D
330
1F
100
AcDbEntity
  8
0-0
  6
JWW_DASHED1
 62
   120
370
     5
100
AcDbLine
 10
346.1468599906273
 20
-100.0155279503132
 30
0.0
 11
346.1468599906273
 21
1074.984472049687
 31
0.0
  0
LINE
  5
28E
330
1F
100
AcDbEntity
  8
0-0
  6
JWW_DASHED1
 62
   120
370
     5
100
AcDbLine
 10
333.1468599895277
 20
-100.0155279503132
 30
0.0
 11
333.1468599895277
 21
1074.984472049687
 31
0.0
  0
LINE
  5
28F
330
1F
100
AcDbEntity
  8
0-0
  6
JWW_DASHED1
 62
   120
370
     5
100
AcDbLine
 10
332.1468599896275
 20
-100.0155279503132
 30
0.0
 11
332.1468599896275
 21
1074.984472049687
 31
0.0
  0
LINE
  5
290
330
1F
100
AcDbEntity
  8
0-0
  6
JWW_DASHED1
 62
   120
370
     5
100
AcDbLine
 10
319.1468599885275
 20
-100.0155279503132
 30
0.0
 11
319.1468599885275
 21
1074.984472049687
 31
0.0
  0
LINE
  5
291
330
1F
100
AcDbEntity
  8
0-0
  6
JWW_DASHED1
 62
   120
370
     5
100
AcDbLine
 10
318.1468599886273
 20
-100.0155279503132
 30
0.0
 11
318.1468599886273
 21
1074.984472049687
 31
0.0
  0
LINE
  5
292
330
1F
100
AcDbEntity
  8
0-0
  6
JWW_DASHED1
 62
   120
370
     5
100
AcDbLine
 10
305.1468599875273
 20
-100.0155279503132
 30
0.0
 11
305.1468599875273
 21
1074.984472049687
 31
0.0
  0
LINE
  5
293
330
1F
100
AcDbEntity
  8
0-0
  6
JWW_DASHED1
 62
   120
370
     5
100
AcDbLine
 10
304.1468599876271
 20
-100.0155279503132
 30
0.0
 11
304.1468599876271
 21
1074.984472049687
 31
0.0
  0
LINE
  5
294
330
1F
100
AcDbEntity
  8
0-0
  6
JWW_DASHED1
 62
   120
370
     5
100
AcDbLine
 10
291.1468599865279
 20
-100.0155279503132
 30
0.0
 11
291.1468599865279
 21
1074.984472049687
 31
0.0
  0
LINE
  5
295
330
1F
100
AcDbEntity
  8
0-0
  6
JWW_DASHED1
 62
   120
370
     5
100
AcDbLine
 10
290.1468599866277
 20
-100.0155279503132
 30
0.0
 11
290.1468599866277
 21
1074.984472049687
 31
0.0
  0
LINE
  5
296
330
1F
100
AcDbEntity
  8
0-0
  6
JWW_DASHED1
 62
   120
370
     5
100
AcDbLine
 10
277.1468599855277
 20
-100.0155279503132
 30
0.0
 11
277.1468599855277
 21
1074.984472049687
 31
0.0
  0
LINE
  5
297
330
1F
100
AcDbEntity
  8
0-0
  6
JWW_DASHED1
 62
   120
370
     5
100
AcDbLine
 10
276.1468599856275
 20
-100.0155279503132
 30
0.0
 11
276.1468599856275
 21
1074.984472049687
 31
0.0
  0
LINE
  5
298
330
1F
100
AcDbEntity
  8
0-0
  6
JWW_DASHED1
 62
   120
370
     5
100
AcDbLine
 10
263.1468599845273
 20
-100.0155279503132
 30
0.0
 11
263.1468599845273
 21
1074.984472049687
 31
0.0
  0
LINE
  5
299
330
1F
100
AcDbEntity
  8
0-0
  6
JWW_DASHED1
 62
   120
370
     5
100
AcDbLine
 10
262.1468599846272
 20
-100.0155279503132
 30
0.0
 11
262.1468599846272
 21
1074.984472049687
 31
0.0
  0
LINE
  5
29A
330
1F
100
AcDbEntity
  8
0-0
  6
JWW_DASHED1
 62
   120
370
     5
100
AcDbLine
 10
249.1468599835271
 20
-100.0155279503132
 30
0.0
 11
249.1468599835271
 21
1074.984472049687
 31
0.0
  0
LINE
  5
29B
330
1F
100
AcDbEntity
  8
0-0
  6
JWW_DASHED1
 62
   120
370
     5
100
AcDbLine
 10
248.1468599836269
 20
-100.0155279503132
 30
0.0
 11
248.1468599836269
 21
1074.984472049687
 31
0.0
  0
LINE
  5
29C
330
1F
100
AcDbEntity
  8
0-0
  6
JWW_DASHED1
 62
   120
370
     5
100
AcDbLine
 10
235.1468599825269
 20
-100.0155279503132
 30
0.0
 11
235.1468599825269
 21
1074.984472049687
 31
0.0
  0
LINE
  5
29D
330
1F
100
AcDbEntity
  8
0-0
  6
JWW_DASHED1
 62
   120
370
     5
100
AcDbLine
 10
234.1468599826267
 20
-100.0155279503132
 30
0.0
 11
234.1468599826267
 21
1074.984472049687
 31
0.0
  0
LINE
  5
29E
330
1F
100
AcDbEntity
  8
0-0
  6
JWW_DASHED1
 62
   120
370
     5
100
AcDbLine
 10
221.1468599815277
 20
-100.0155279503132
 30
0.0
 11
221.1468599815277
 21
1074.984472049687
 31
0.0
  0
LINE
  5
29F
330
1F
100
AcDbEntity
  8
0-0
  6
JWW_DASHED1
 62
   120
370
     5
100
AcDbLine
 10
220.1468599816275
 20
-100.0155279503132
 30
0.0
 11
220.1468599816275
 21
1074.984472049687
 31
0.0
  0
LINE
  5
2A0
330
1F
100
AcDbEntity
  8
0-0
  6
JWW_DASHED1
 62
   120
370
     5
100
AcDbLine
 10
207.1468599805274
 20
-100.0155279503132
 30
0.0
 11
207.1468599805274
 21
1074.984472049687
 31
0.0
  0
LINE
  5
2A1
330
1F
100
AcDbEntity
  8
0-0
  6
JWW_DASHED1
 62
   120
370
     5
100
AcDbLine
 10
206.1468599806273
 20
-100.0155279503132
 30
0.0
 11
206.1468599806273
 21
1074.984472049687
 31
0.0
  0
LINE
  5
2A2
330
1F
100
AcDbEntity
  8
0-0
  6
JWW_DASHED1
 62
   120
370
     5
100
AcDbLine
 10
193.1468599795272
 20
-100.0155279503132
 30
0.0
 11
193.1468599795272
 21
1074.984472049687
 31
0.0
  0
LINE
  5
2A3
330
1F
100
AcDbEntity
  8
0-0
  6
JWW_DASHED1
 62
   120
370
     5
100
AcDbLine
 10
753.1468600195274
 20
-100.0155279503132
 30
0.0
 11
753.1468600195274
 21
1074.984472049687
 31
0.0
  0
LINE
  5
2A4
330
1F
100
AcDbEntity
  8
0-0
  6
JWW_DASHED1
 62
   120
370
     5
100
AcDbLine
 10
738.1468600186274
 20
-100.0155279503132
 30
0.0
 11
738.1468600186274
 21
1074.984472049687
 31
0.0
  0
LINE
  5
2A5
330
1F
100
AcDbEntity
  8
0-0
  6
JWW_DASHED1
 62
   120
370
     5
100
AcDbLine
 10
752.146860019627
 20
-100.0155279503132
 30
0.0
 11
752.146860019627
 21
1074.984472049687
 31
0.0
  0
LINE
  5
2A6
330
1F
100
AcDbEntity
  8
0-0
  6
JWW_DASHED1
 62
   120
370
     5
100
AcDbLine
 10
739.1468600185269
 20
-100.0155279503132
 30
0.0
 11
739.1468600185269
 21
1074.984472049687
 31
0.0
  0
LINE
  5
2A7
330
1F
100
AcDbEntity
  8
0-0
  6
JWW_DASHED1
 62
   120
370
     5
100
AcDbLine
 10
186.1468415215961
 20
1062.984323818726
 30
0.0
 11
759.1468415215951
 21
1062.984323818726
 31
0.0
  0
LINE
  5
2A8
330
1F
100
AcDbEntity
  8
0-0
  6
JWW_DASHED1
 62
   120
370
     5
100
AcDbLine
 10
186.1468415215961
 20
1019.984323815826
 30
0.0
 11
759.1468415215951
 21
1019.984323815826
 31
0.0
  0
LINE
  5
2A9
330
1F
100
AcDbEntity
  8
0-0
  6
JWW_DASHED1
 62
   120
370
     5
100
AcDbLine
 10
186.1468415215961
 20
1020.984323815726
 30
0.0
 11
759.1468415215951
 21
1020.984323815726
 31
0.0
  0
LINE
  5
2AA
330
1F
100
AcDbEntity
  8
0-0
  6
JWW_DASHED1
 62
   120
370
     5
100
AcDbLine
 10
186.1468415215961
 20
1033.984323816826
 30
0.0
 11
759.1468415215951
 21
1033.984323816826
 31
0.0
  0
LINE
  5
2AB
330
1F
100
AcDbEntity
  8
0-0
  6
JWW_DASHED1
 62
   120
370
     5
100
AcDbLine
 10
186.1468415215961
 20
1034.984323816726
 30
0.0
 11
759.1468415215951
 21
1034.984323816726
 31
0.0
  0
LINE
  5
2AC
330
1F
100
AcDbEntity
  8
0-0
  6
JWW_DASHED1
 62
   120
370
     5
100
AcDbLine
 10
186.1468415215961
 20
1047.984323817826
 30
0.0
 11
759.1468415215951
 21
1047.984323817826
 31
0.0
  0
LINE
  5
2AD
330
1F
100
AcDbEntity
  8
0-0
  6
JWW_DASHED1
 62
   120
370
     5
100
AcDbLine
 10
186.1468415215961
 20
1048.984323817726
 30
0.0
 11
759.1468415215951
 21
1048.984323817726
 31
0.0
  0
LINE
  5
2AE
330
1F
100
AcDbEntity
  8
0-0
  6
JWW_DASHED1
 62
   120
370
     5
100
AcDbLine
 10
186.1468415215961
 20
1061.984323818826
 30
0.0
 11
759.1468415215951
 21
1061.984323818826
 31
0.0
  0
ENDSEC
  0
SECTION
  2
OBJECTS
  0
DICTIONARY
  5
C
330
0
100
AcDbDictionary
281
     1
  3
ACAD_GROUP
350
D
  3
ACAD_LAYOUT
350
1A
  3
ACAD_MATERIAL
350
3B
  3
ACAD_MLEADERSTYLE
350
2B0
  3
ACAD_MLINESTYLE
350
17
  3
ACAD_PLOTSETTINGS
350
19
  3
ACAD_PLOTSTYLENAME
350
E
  3
ACAD_TABLESTYLE
350
2AF
  3
ACAD_VISUALSTYLE
350
2A
  0
DICTIONARY
  5
D
102
{ACAD_REACTORS
330
C
102
}
330
C
100
AcDbDictionary
281
     1
  0
DICTIONARY
  5
1A
102
{ACAD_REACTORS
330
C
102
}
330
C
100
AcDbDictionary
281
     1
  3
Layout1
350
1E
  3
Layout2
350
26
  3
Model
350
22
  0
DICTIONARY
  5
3B
102
{ACAD_REACTORS
330
C
102
}
330
C
100
AcDbDictionary
281
     1
  3
ByBlock
350
3D
  3
ByLayer
350
3C
  3
Global
350
3E
  0
DICTIONARY
  5
2B0
102
{ACAD_REACTORS
330
C
102
}
330
C
100
AcDbDictionary
281
     1
  0
DICTIONARY
  5
17
102
{ACAD_REACTORS
330
C
102
}
330
C
100
AcDbDictionary
281
     1
  3
Standard
350
18
  0
DICTIONARY
  5
19
102
{ACAD_REACTORS
330
C
102
}
330
C
100
AcDbDictionary
281
     1
  0
ACDBDICTIONARYWDFLT
  5
E
102
{ACAD_REACTORS
330
C
102
}
330
C
100
AcDbDictionary
281
     1
  3
Normal
350
F
100
AcDbDictionaryWithDefault
340
F
  0
DICTIONARY
  5
2AF
102
{ACAD_REACTORS
330
C
102
}
330
C
100
AcDbDictionary
281
     1
  0
DICTIONARY
  5
2A
102
{ACAD_REACTORS
330
C
102
}
330
C
100
AcDbDictionary
281
     1
  3
2dWireframe
350
2F
  3
3D Hidden
350
31
  3
3dWireframe
350
30
  3
Basic
350
32
  3
Brighten
350
36
  3
ColorChange
350
3A
  3
Conceptual
350
34
  3
Dim
350
35
  3
Facepattern
350
39
  3
Flat
350
2B
  3
FlatWithEdges
350
2C
  3
Gouraud
350
2D
  3
GouraudWithEdges
350
2E
  3
Linepattern
350
38
  3
Realistic
350
33
  3
Thicken
350
37
  0
LAYOUT
  5
1E
102
{ACAD_REACTORS
330
1A
102
}
330
1A
100
AcDbPlotSettings
  1

  2
none_device
  4

  6

 40
0.0
 41
0.0
 42
0.0
 43
0.0
 44
0.0
 45
0.0
 46
0.0
 47
0.0
 48
0.0
 49
0.0
140
0.0
141
0.0
142
1.0
143
1.0
 70
   688
 72
     0
 73
     0
 74
     5
  7

 75
    16
 76
     0
 77
     5
 78
   300
147
1.0
148
0.0
149
0.0
100
AcDbLayout
  1
Layout1
 70
     1
 71
     1
 10
0.0
 20
0.0
 11
420.0
 21
297.0
 12
0.0
 22
0.0
 32
0.0
 14
1.000000000000000E+20
 24
1.000000000000000E+20
 34
1.000000000000000E+20
 15
-1.000000000000000E+20
 25
-1.000000000000000E+20
 35
-1.000000000000000E+20
146
0.0
 13
0.0
 23
0.0
 33
0.0
 16
1.0
 26
0.0
 36
0.0
 17
0.0
 27
1.0
 37
0.0
 76
     0
330
1B
  0
LAYOUT
  5
26
102
{ACAD_REACTORS
330
1A
102
}
330
1A
100
AcDbPlotSettings
  1

  2
none_device
  4

  6

 40
0.0
 41
0.0
 42
0.0
 43
0.0
 44
0.0
 45
0.0
 46
0.0
 47
0.0
 48
0.0
 49
0.0
140
0.0
141
0.0
142
1.0
143
1.0
 70
   688
 72
     0
 73
     0
 74
     5
  7

 75
    16
 76
     0
 77
     5
 78
   300
147
1.0
148
0.0
149
0.0
100
AcDbLayout
  1
Layout2
 70
     1
 71
     2
 10
0.0
 20
0.0
 11
0.0
 21
0.0
 12
0.0
 22
0.0
 32
0.0
 14
0.0
 24
0.0
 34
0.0
 15
0.0
 25
0.0
 35
0.0
146
0.0
 13
0.0
 23
0.0
 33
0.0
 16
1.0
 26
0.0
 36
0.0
 17
0.0
 27
1.0
 37
0.0
 76
     0
330
23
  0
LAYOUT
  5
22
102
{ACAD_REACTORS
330
1A
102
}
330
1A
100
AcDbPlotSettings
  1

  2
none_device
  4

  6

 40
0.0
 41
0.0
 42
0.0
 43
0.0
 44
0.0
 45
0.0
 46
0.0
 47
0.0
 48
0.0
 49
0.0
140
0.0
141
0.0
142
1.0
143
1.0
 70
  1712
 72
     0
 73
     0
 74
     0
  7

 75
     0
 76
     0
 77
     5
 78
   300
147
1.0
148
0.0
149
0.0
100
AcDbLayout
  1
Model
 70
     1
 71
     0
 10
-4455.0
 20
-3150.0
 11
4455.0
 21
3150.0
 12
0.0
 22
0.0
 32
0.0
 14
-4455.0
 24
-3150.0
 34
0.0
 15
4455.0
 25
3150.0
 35
0.0
146
0.0
 13
0.0
 23
0.0
 33
0.0
 16
1.0
 26
0.0
 36
0.0
 17
0.0
 27
1.0
 37
0.0
 76
     0
330
1F
331
29
  0
MATERIAL
  5
3D
102
{ACAD_REACTORS
330
3B
102
}
330
3B
100
AcDbMaterial
  1
ByBlock
 72
     1
 94
      127
  0
MATERIAL
  5
3C
102
{ACAD_REACTORS
330
3B
102
}
330
3B
100
AcDbMaterial
  1
ByLayer
 72
     1
 94
      127
  0
MATERIAL
  5
3E
102
{ACAD_REACTORS
330
3B
102
}
330
3B
100
AcDbMaterial
  1
Global
 72
     1
 94
      127
  0
MLINESTYLE
  5
18
102
{ACAD_REACTORS
330
17
102
}
330
17
100
AcDbMlineStyle
  2
Standard
 70
     0
  3

 62
   256
 51
90.0
 52
90.0
 71
     2
 49
0.5
 62
   256
  6
BYLAYER
 49
-0.5
 62
   256
  6
BYLAYER
  0
ACDBPLACEHOLDER
  5
F
102
{ACAD_REACTORS
330
E
102
}
330
E
  0
VISUALSTYLE
  5
2F
102
{ACAD_REACTORS
330
2A
102
}
330
2A
100
AcDbVisualStyle
  2
2dWireframe
 70
     4
177
     2
291
     0
 71
     0
176
     1
 72
     2
176
     1
 73
     0
176
     1
 90
        0
176
     1
 40
-0.6
176
     1
 41
-30.0
176
     1
 62
     5
 63
     7
421
 16777215
176
     1
 74
     1
176
     1
 91
        4
176
     1
 64
     7
176
     1
 65
   257
176
     1
 75
     1
176
     1
175
     1
176
     1
 42
1.0
176
     1
 92
        0
176
     1
 66
   257
176
     1
 43
1.0
176
     1
 76
     1
176
     1
 77
     6
176
     1
 78
     2
176
     1
 67
     7
176
     1
 79
     5
176
     1
170
     0
176
     1
171
     0
176
     1
290
     0
176
     1
 93
        1
176
     1
 44
0.0
176
     1
173
     0
176
     1
  0
VISUALSTYLE
  5
31
102
{ACAD_REACTORS
330
2A
102
}
330
2A
100
AcDbVisualStyle
  2
3D Hidden
 70
     6
177
     2
291
     0
 71
     1
176
     1
 72
     2
176
     1
 73
     2
176
     1
 90
        0
176
     1
 40
-0.6
176
     1
 41
-30.0
176
     1
 62
     5
 63
     7
421
 16777215
176
     1
 74
     2
176
     1
 91
        2
176
     1
 64
     7
176
     1
 65
   257
176
     1
 75
     2
176
     1
175
     1
176
     1
 42
40.0
176
     1
 92
        0
176
     1
 66
   257
176
     1
 43
1.0
176
     1
 76
     1
176
     1
 77
     6
176
     1
 78
     2
176
     1
 67
     7
176
     1
 79
     3
176
     1
170
     0
176
     1
171
     0
176
     1
290
     0
176
     1
 93
        1
176
     1
 44
0.0
176
     1
173
     0
176
     1
  0
VISUALSTYLE
  5
30
102
{ACAD_REACTORS
330
2A
102
}
330
2A
100
AcDbVisualStyle
  2
3dWireframe
 70
     5
177
     2
291
     0
 71
     0
176
     1
 72
     2
176
     1
 73
     0
176
     1
 90
        0
176
     1
 40
-0.6
176
     1
 41
-30.0
176
     1
 62
     5
 63
     7
421
 16777215
176
     1
 74
     1
176
     1
 91
        4
176
     1
 64
     7
176
     1
 65
   257
176
     1
 75
     1
176
     1
175
     1
176
     1
 42
1.0
176
     1
 92
        0
176
     1
 66
   257
176
     1
 43
1.0
176
     1
 76
     1
176
     1
 77
     6
176
     1
 78
     2
176
     1
 67
     7
176
     1
 79
     5
176
     1
170
     0
176
     1
171
     0
176
     1
290
     0
176
     1
 93
        1
176
     1
 44
0.0
176
     1
173
     0
176
     1
  0
VISUALSTYLE
  5
32
102
{ACAD_REACTORS
330
2A
102
}
330
2A
100
AcDbVisualStyle
  2
Basic
 70
     7
177
     2
291
     1
 71
     1
176
     1
 72
     0
176
     1
 73
     1
176
     1
 90
        0
176
     1
 40
-0.6
176
     1
 41
-30.0
176
     1
 62
     5
 63
     7
421
 16777215
176
     1
 74
     0
176
     1
 91
        4
176
     1
 64
     7
176
     1
 65
   257
176
     1
 75
     1
176
     1
175
     1
176
     1
 42
1.0
176
     1
 92
        8
176
     1
 66
     7
176
     1
 43
1.0
176
     1
 76
     1
176
     1
 77
     6
176
     1
 78
     2
176
     1
 67
     7
176
     1
 79
     5
176
     1
170
     0
176
     1
171
     0
176
     1
290
     0
176
     1
 93
        1
176
     1
 44
0.0
176
     1
173
     0
176
     1
  0
VISUALSTYLE
  5
36
102
{ACAD_REACTORS
330
2A
102
}
330
2A
100
AcDbVisualStyle
  2
Brighten
 70
    12
177
     2
291
     1
 71
     2
176
     1
 72
     2
176
     1
 73
     0
176
     1
 90
        0
176
     1
 40
-0.6
176
     1
 41
-30.0
176
     1
 62
     5
 63
     7
421
 16777215
176
     1
 74
     1
176
     1
 91
        4
176
     1
 64
     7
176
     1
 65
   257
176
     1
 75
     1
176
     1
175
     1
176
     1
 42
1.0
176
     1
 92
        8
176
     1
 66
     7
176
     1
 43
1.0
176
     1
 76
     1
176
     1
 77
     6
176
     1
 78
     2
176
     1
 67
     7
176
     1
 79
     5
176
     1
170
     0
176
     1
171
     0
176
     1
290
     0
176
     1
 93
        1
176
     1
 44
50.0
176
     1
173
     0
176
     1
  0
VISUALSTYLE
  5
3A
102
{ACAD_REACTORS
330
2A
102
}
330
2A
100
AcDbVisualStyle
  2
ColorChange
 70
    16
177
     2
291
     1
 71
     2
176
     1
 72
     2
176
     1
 73
     3
176
     1
 90
        0
176
     1
 40
-0.6
176
     1
 41
-30.0
176
     1
 62
     5
 63
     8
421
  8421504
176
     1
 74
     1
176
     1
 91
        4
176
     1
 64
     7
176
     1
 65
   257
176
     1
 75
     1
176
     1
175
     1
176
     1
 42
1.0
176
     1
 92
        8
176
     1
 66
     8
424
  8421504
176
     1
 43
1.0
176
     1
 76
     1
176
     1
 77
     6
176
     1
 78
     2
176
     1
 67
     7
176
     1
 79
     5
176
     1
170
     0
176
     1
171
     0
176
     1
290
     0
176
     1
 93
        1
176
     1
 44
0.0
176
     1
173
     0
176
     1
  0
VISUALSTYLE
  5
34
102
{ACAD_REACTORS
330
2A
102
}
330
2A
100
AcDbVisualStyle
  2
Conceptual
 70
     9
177
     2
291
     0
 71
     3
176
     1
 72
     2
176
     1
 73
     0
176
     1
 90
        0
176
     1
 40
-0.6
176
     1
 41
-30.0
176
     1
 62
     5
 63
     7
421
 16777215
176
     1
 74
     2
176
     1
 91
        2
176
     1
 64
     7
176
     1
 65
   257
176
     1
 75
     1
176
     1
175
     1
176
     1
 42
40.0
176
     1
 92
        8
176
     1
 66
     7
176
     1
 43
1.0
176
     1
 76
     1
176
     1
 77
     6
176
     1
 78
     2
176
     1
 67
     7
176
     1
 79
     3
176
     1
170
     0
176
     1
171
     0
176
     1
290
     0
176
     1
 93
        1
176
     1
 44
0.0
176
     1
173
     0
176
     1
  0
VISUALSTYLE
  5
35
102
{ACAD_REACTORS
330
2A
102
}
330
2A
100
AcDbVisualStyle
  2
Dim
 70
    11
177
     2
291
     1
 71
     2
176
     1
 72
     2
176
     1
 73
     0
176
     1
 90
        0
176
     1
 40
-0.6
176
     1
 41
-30.0
176
     1
 62
     5
 63
     7
421
 16777215
176
     1
 74
     1
176
     1
 91
        4
176
     1
 64
     7
176
     1
 65
   257
176
     1
 75
     1
176
     1
175
     1
176
     1
 42
1.0
176
     1
 92
        8
176
     1
 66
     7
176
     1
 43
1.0
176
     1
 76
     1
176
     1
 77
     6
176
     1
 78
     2
176
     1
 67
     7
176
     1
 79
     5
176
     1
170
     0
176
     1
171
     0
176
     1
290
     0
176
     1
 93
        1
176
     1
 44
-50.0
176
     1
173
     0
176
     1
  0
VISUALSTYLE
  5
39
102
{ACAD_REACTORS
330
2A
102
}
330
2A
100
AcDbVisualStyle
  2
Facepattern
 70
    15
177
     2
291
     1
 71
     2
176
     1
 72
     2
176
     1
 73
     0
176
     1
 90
        0
176
     1
 40
-0.6
176
     1
 41
-30.0
176
     1
 62
     5
 63
     7
421
 16777215
176
     1
 74
     1
176
     1
 91
        4
176
     1
 64
     7
176
     1
 65
   257
176
     1
 75
     1
176
     1
175
     1
176
     1
 42
1.0
176
     1
 92
        8
176
     1
 66
     7
176
     1
 43
1.0
176
     1
 76
     1
176
     1
 77
     6
176
     1
 78
     2
176
     1
 67
     7
176
     1
 79
     5
176
     1
170
     0
176
     1
171
     0
176
     1
290
     0
176
     1
 93
        1
176
     1
 44
0.0
176
     1
173
     0
176
     1
  0
VISUALSTYLE
  5
2B
102
{ACAD_REACTORS
330
2A
102
}
330
2A
100
AcDbVisualStyle
  2
Flat
 70
     0
177
     2
291
     1
 71
     2
176
     1
 72
     1
176
     1
 73
     1
176
     1
 90
        2
176
     1
 40
-0.6
176
     1
 41
30.0
176
     1
 62
     5
 63
     7
421
 16777215
176
     1
 74
     0
176
     1
 91
        4
176
     1
 64
     7
176
     1
 65
   257
176
     1
 75
     1
176
     1
175
     1
176
     1
 42
1.0
176
     1
 92
        8
176
     1
 66
     7
176
     1
 43
1.0
176
     1
 76
     1
176
     1
 77
     6
176
     1
 78
     2
176
     1
 67
     7
176
     1
 79
     5
176
     1
170
     0
176
     1
171
     0
176
     1
290
     0
176
     1
 93
       13
176
     1
 44
0.0
176
     1
173
     0
176
     1
  0
VISUALSTYLE
  5
2C
102
{ACAD_REACTORS
330
2A
102
}
330
2A
100
AcDbVisualStyle
  2
FlatWithEdges
 70
     1
177
     2
291
     1
 71
     2
176
     1
 72
     1
176
     1
 73
     1
176
     1
 90
        2
176
     1
 40
-0.6
176
     1
 41
30.0
176
     1
 62
     5
 63
     7
421
 16777215
176
     1
 74
     1
176
     1
 91
        4
176
     1
 64
     7
176
     1
 65
   257
176
     1
 75
     1
176
     1
175
     1
176
     1
 42
1.0
176
     1
 92
        0
176
     1
 66
   257
176
     1
 43
1.0
176
     1
 76
     1
176
     1
 77
     6
176
     1
 78
     2
176
     1
 67
     7
176
     1
 79
     5
176
     1
170
     0
176
     1
171
     0
176
     1
290
     0
176
     1
 93
       13
176
     1
 44
0.0
176
     1
173
     0
176
     1
  0
VISUALSTYLE
  5
2D
102
{ACAD_REACTORS
330
2A
102
}
330
2A
100
AcDbVisualStyle
  2
Gouraud
 70
     2
177
     2
291
     1
 71
     2
176
     1
 72
     2
176
     1
 73
     1
176
     1
 90
        2
176
     1
 40
-0.6
176
     1
 41
30.0
176
     1
 62
     5
 63
     7
421
 16777215
176
     1
 74
     0
176
     1
 91
        4
176
     1
 64
     7
176
     1
 65
   257
176
     1
 75
     1
176
     1
175
     1
176
     1
 42
1.0
176
     1
 92
        0
176
     1
 66
     7
176
     1
 43
1.0
176
     1
 76
     1
176
     1
 77
     6
176
     1
 78
     2
176
     1
 67
     7
176
     1
 79
     5
176
     1
170
     0
176
     1
171
     0
176
     1
290
     0
176
     1
 93
       13
176
     1
 44
0.0
176
     1
173
     0
176
     1
  0
VISUALSTYLE
  5
2E
102
{ACAD_REACTORS
330
2A
102
}
330
2A
100
AcDbVisualStyle
  2
GouraudWithEdges
 70
     3
177
     2
291
     1
 71
     2
176
     1
 72
     2
176
     1
 73
     1
176
     1
 90
        2
176
     1
 40
-0.6
176
     1
 41
30.0
176
     1
 62
     5
 63
     7
421
 16777215
176
     1
 74
     1
176
     1
 91
        4
176
     1
 64
     7
176
     1
 65
   257
176
     1
 75
     1
176
     1
175
     1
176
     1
 42
1.0
176
     1
 92
        0
176
     1
 66
   257
176
     1
 43
1.0
176
     1
 76
     1
176
     1
 77
     6
176
     1
 78
     2
176
     1
 67
     7
176
     1
 79
     5
176
     1
170
     0
176
     1
171
     0
176
     1
290
     0
176
     1
 93
       13
176
     1
 44
0.0
176
     1
173
     0
176
     1
  0
VISUALSTYLE
  5
38
102
{ACAD_REACTORS
330
2A
102
}
330
2A
100
AcDbVisualStyle
  2
Linepattern
 70
    14
177
     2
291
     1
 71
     2
176
     1
 72
     2
176
     1
 73
     0
176
     1
 90
        0
176
     1
 40
-0.6
176
     1
 41
-30.0
176
     1
 62
     5
 63
     7
421
 16777215
176
     1
 74
     1
176
     1
 91
        4
176
     1
 64
     7
176
     1
 65
   257
176
     1
 75
     7
176
     1
175
     7
176
     1
 42
1.0
176
     1
 92
        8
176
     1
 66
     7
176
     1
 43
1.0
176
     1
 76
     1
176
     1
 77
     6
176
     1
 78
     2
176
     1
 67
     7
176
     1
 79
     5
176
     1
170
     0
176
     1
171
     0
176
     1
290
     0
176
     1
 93
        1
176
     1
 44
0.0
176
     1
173
     0
176
     1
  0
VISUALSTYLE
  5
33
102
{ACAD_REACTORS
330
2A
102
}
330
2A
100
AcDbVisualStyle
  2
Realistic
 70
     8
177
     2
291
     0
 71
     2
176
     1
 72
     2
176
     1
 73
     0
176
     1
 90
        0
176
     1
 40
-0.6
176
     1
 41
-30.0
176
     1
 62
     5
 63
     7
421
 16777215
176
     1
 74
     1
176
     1
 91
        0
176
     1
 64
     7
176
     1
 65
   257
176
     1
 75
     1
176
     1
175
     1
176
     1
 42
1.0
176
     1
 92
        8
176
     1
 66
     8
424
  7895160
176
     1
 43
1.0
176
     1
 76
     1
176
     1
 77
     6
176
     1
 78
     2
176
     1
 67
     7
176
     1
 79
     5
176
     1
170
     0
176
     1
171
     0
176
     1
290
     0
176
     1
 93
       13
176
     1
 44
0.0
176
     1
173
     0
176
     1
  0
VISUALSTYLE
  5
37
102
{ACAD_REACTORS
330
2A
102
}
330
2A
100
AcDbVisualStyle
  2
Thicken
 70
    13
177
     2
291
     1
 71
     2
176
     1
 72
     2
176
     1
 73
     0
176
     1
 90
        0
176
     1
 40
-0.6
176
     1
 41
-30.0
176
     1
 62
     5
 63
     7
421
 16777215
176
     1
 74
     1
176
     1
 91
        4
176
     1
 64
     7
176
     1
 65
   257
176
     1
 75
     1
176
     1
175
     1
176
     1
 42
1.0
176
     1
 92
       12
176
     1
 66
     7
176
     1
 43
1.0
176
     1
 76
     1
176
     1
 77
     6
176
     1
 78
     2
176
     1
 67
     7
176
     1
 79
     5
176
     1
170
     0
176
     1
171
     0
176
     1
290
     0
176
     1
 93
        1
176
     1
 44
0.0
176
     1
173
     0
176
     1
  0
ENDSEC
  0
EOF
