  0
SECTION
  2
HEADER
  9
$ACADVER
  1
AC1024
  9
$ACADMAINTVER
 70
     6
  9
$DWGCODEPAGE
  3
ANSI_932
  9
$INSBASE
 10
0.0
 20
0.0
 30
0.0
  9
$EXTMIN
 10
-4455.0
 20
-3150.0
 30
0.0
  9
$EXTMAX
 10
4455.0
 20
3150.0
 30
0.0
  9
$LIMMIN
 10
-4455.0
 20
-3150.0
  9
$LIMMAX
 10
4455.0
 20
3150.0
  9
$ORTHOMODE
 70
     0
  9
$REGENMODE
 70
     1
  9
$FILLMODE
 70
     1
  9
$QTEXTMODE
 70
     0
  9
$MIRRTEXT
 70
     1
  9
$LTSCALE
 40
30.0
  9
$ATTMODE
 70
     1
  9
$TEXTSIZE
 40
2.5
  9
$TRACEWID
 40
1.0
  9
$TEXTSTYLE
  7
Standard
  9
$CLAYER
  8
0
  9
$CELTYPE
  6
ByLayer
  9
$CECOLOR
 62
   256
  9
$CELTSCALE
 40
1.0
  9
$DISPSILH
 70
     0
  9
$DIMSCALE
 40
1.0
  9
$DIMASZ
 40
2.5
  9
$DIMEXO
 40
0.625
  9
$DIMDLI
 40
3.75
  9
$DIMRND
 40
0.0
  9
$DIMDLE
 40
0.0
  9
$DIMEXE
 40
1.25
  9
$DIMTP
 40
0.0
  9
$DIMTM
 40
0.0
  9
$DIMTXT
 40
2.5
  9
$DIMCEN
 40
2.5
  9
$DIMTSZ
 40
0.0
  9
$DIMTOL
 70
     0
  9
$DIMLIM
 70
     0
  9
$DIMTIH
 70
     0
  9
$DIMTOH
 70
     0
  9
$DIMSE1
 70
     0
  9
$DIMSE2
 70
     0
  9
$DIMTAD
 70
     1
  9
$DIMZIN
 70
     8
  9
$DIMBLK
  1

  9
$DIMASO
 70
     1
  9
$DIMSHO
 70
     1
  9
$DIMPOST
  1

  9
$DIMAPOST
  1

  9
$DIMALT
 70
     0
  9
$DIMALTD
 70
     3
  9
$DIMALTF
 40
0.03937007874016
  9
$DIMLFAC
 40
1.0
  9
$DIMTOFL
 70
     1
  9
$DIMTVP
 40
0.0
  9
$DIMTIX
 70
     0
  9
$DIMSOXD
 70
     0
  9
$DIMSAH
 70
     0
  9
$DIMBLK1
  1

  9
$DIMBLK2
  1

  9
$DIMSTYLE
  2
ISO-25
  9
$DIMCLRD
 70
     0
  9
$DIMCLRE
 70
     0
  9
$DIMCLRT
 70
     0
  9
$DIMTFAC
 40
1.0
  9
$DIMGAP
 40
0.625
  9
$DIMJUST
 70
     0
  9
$DIMSD1
 70
     0
  9
$DIMSD2
 70
     0
  9
$DIMTOLJ
 70
     0
  9
$DIMTZIN
 70
     8
  9
$DIMALTZ
 70
     0
  9
$DIMALTTZ
 70
     0
  9
$DIMUPT
 70
     0
  9
$DIMDEC
 70
     2
  9
$DIMTDEC
 70
     2
  9
$DIMALTU
 70
     2
  9
$DIMALTTD
 70
     3
  9
$DIMTXSTY
  7
Standard
  9
$DIMAUNIT
 70
     0
  9
$DIMADEC
 70
     0
  9
$DIMALTRND
 40
0.0
  9
$DIMAZIN
 70
     0
  9
$DIMDSEP
 70
    44
  9
$DIMATFIT
 70
     3
  9
$DIMFRAC
 70
     0
  9
$DIMLDRBLK
  1

  9
$DIMLUNIT
 70
     2
  9
$DIMLWD
 70
    -2
  9
$DIMLWE
 70
    -2
  9
$DIMTMOVE
 70
     0
  9
$DIMFXL
 40
1.0
  9
$DIMFXLON
 70
     0
  9
$DIMJOGANG
 40
0.7853981633974483
  9
$DIMTFILL
 70
     0
  9
$DIMTFILLCLR
 70
     0
  9
$DIMARCSYM
 70
     0
  9
$DIMLTYPE
  6

  9
$DIMLTEX1
  6

  9
$DIMLTEX2
  6

  9
$DIMTXTDIRECTION
 70
     0
  9
$LUNITS
 70
     2
  9
$LUPREC
 70
     4
  9
$SKETCHINC
 40
1.0
  9
$FILLETRAD
 40
10.0
  9
$AUNITS
 70
     0
  9
$AUPREC
 70
     0
  9
$MENU
  1
.
  9
$ELEVATION
 40
0.0
  9
$PELEVATION
 40
0.0
  9
$THICKNESS
 40
0.0
  9
$LIMCHECK
 70
     0
  9
$CHAMFERA
 40
10.0
  9
$CHAMFERB
 40
10.0
  9
$CHAMFERC
 40
20.0
  9
$CHAMFERD
 40
0.0
  9
$SKPOLY
 70
     0
  9
$TDCREATE
 40
2457953.400411701
  9
$TDUCREATE
 40
2457953.025411701
  9
$TDUPDATE
 40
2457953.400411713
  9
$TDUUPDATE
 40
2457953.025411713
  9
$TDINDWG
 40
0.0000000116
  9
$TDUSRTIMER
 40
0.0000000116
  9
$USRTIMER
 70
     1
  9
$ANGBASE
 50
0.0
  9
$ANGDIR
 70
     0
  9
$PDMODE
 70
     0
  9
$PDSIZE
 40
0.0
  9
$PLINEWID
 40
0.0
  9
$SPLFRAME
 70
     0
  9
$SPLINETYPE
 70
     6
  9
$SPLINESEGS
 70
     8
  9
$HANDSEED
  5
25B
  9
$SURFTAB1
 70
     6
  9
$SURFTAB2
 70
     6
  9
$SURFTYPE
 70
     6
  9
$SURFU
 70
     6
  9
$SURFV
 70
     6
  9
$UCSBASE
  2

  9
$UCSNAME
  2

  9
$UCSORG
 10
0.0
 20
0.0
 30
0.0
  9
$UCSXDIR
 10
1.0
 20
0.0
 30
0.0
  9
$UCSYDIR
 10
0.0
 20
1.0
 30
0.0
  9
$UCSORTHOREF
  2

  9
$UCSORTHOVIEW
 70
     0
  9
$UCSORGTOP
 10
0.0
 20
0.0
 30
0.0
  9
$UCSORGBOTTOM
 10
0.0
 20
0.0
 30
0.0
  9
$UCSORGLEFT
 10
0.0
 20
0.0
 30
0.0
  9
$UCSORGRIGHT
 10
0.0
 20
0.0
 30
0.0
  9
$UCSORGFRONT
 10
0.0
 20
0.0
 30
0.0
  9
$UCSORGBACK
 10
0.0
 20
0.0
 30
0.0
  9
$PUCSBASE
  2

  9
$PUCSNAME
  2

  9
$PUCSORG
 10
0.0
 20
0.0
 30
0.0
  9
$PUCSXDIR
 10
1.0
 20
0.0
 30
0.0
  9
$PUCSYDIR
 10
0.0
 20
1.0
 30
0.0
  9
$PUCSORTHOREF
  2

  9
$PUCSORTHOVIEW
 70
     0
  9
$PUCSORGTOP
 10
0.0
 20
0.0
 30
0.0
  9
$PUCSORGBOTTOM
 10
0.0
 20
0.0
 30
0.0
  9
$PUCSORGLEFT
 10
0.0
 20
0.0
 30
0.0
  9
$PUCSORGRIGHT
 10
0.0
 20
0.0
 30
0.0
  9
$PUCSORGFRONT
 10
0.0
 20
0.0
 30
0.0
  9
$PUCSORGBACK
 10
0.0
 20
0.0
 30
0.0
  9
$USERI1
 70
     0
  9
$USERI2
 70
     0
  9
$USERI3
 70
     0
  9
$USERI4
 70
     0
  9
$USERI5
 70
     0
  9
$USERR1
 40
0.0
  9
$USERR2
 40
0.0
  9
$USERR3
 40
0.0
  9
$USERR4
 40
0.0
  9
$USERR5
 40
0.0
  9
$WORLDVIEW
 70
     1
  9
$SHADEDGE
 70
     3
  9
$SHADEDIF
 70
    70
  9
$TILEMODE
 70
     1
  9
$MAXACTVP
 70
    64
  9
$PINSBASE
 10
0.0
 20
0.0
 30
0.0
  9
$PLIMCHECK
 70
     0
  9
$PEXTMIN
 10
1.000000000000000E+20
 20
1.000000000000000E+20
 30
1.000000000000000E+20
  9
$PEXTMAX
 10
-1.000000000000000E+20
 20
-1.000000000000000E+20
 30
-1.000000000000000E+20
  9
$PLIMMIN
 10
0.0
 20
0.0
  9
$PLIMMAX
 10
420.0
 20
297.0
  9
$UNITMODE
 70
     0
  9
$VISRETAIN
 70
     1
  9
$PLINEGEN
 70
     0
  9
$PSLTSCALE
 70
     1
  9
$TREEDEPTH
 70
  3020
  9
$CMLSTYLE
  2
Standard
  9
$CMLJUST
 70
     0
  9
$CMLSCALE
 40
20.0
  9
$PROXYGRAPHICS
 70
     1
  9
$MEASUREMENT
 70
     1
  9
$CELWEIGHT
370
    -1
  9
$ENDCAPS
280
     0
  9
$JOINSTYLE
280
     0
  9
$LWDISPLAY
290
     0
  9
$INSUNITS
 70
     4
  9
$HYPERLINKBASE
  1

  9
$STYLESHEET
  1

  9
$XEDIT
290
     1
  9
$CEPSNTYPE
380
     0
  9
$PSTYLEMODE
290
     1
  9
$FINGERPRINTGUID
  2
{723A9823-35F3-49BD-8FF4-FC87008BFFC7}
  9
$VERSIONGUID
  2
{FAEB1C32-E019-11D5-929B-00C0DF256EC4}
  9
$EXTNAMES
290
     1
  9
$PSVPSCALE
 40
0.0
  9
$OLESTARTUP
290
     0
  9
$SORTENTS
280
   127
  9
$INDEXCTL
280
     0
  9
$HIDETEXT
280
     1
  9
$XCLIPFRAME
280
     2
  9
$HALOGAP
280
     0
  9
$OBSCOLOR
 70
   257
  9
$OBSLTYPE
280
     0
  9
$INTERSECTIONDISPLAY
280
     0
  9
$INTERSECTIONCOLOR
 70
   257
  9
$DIMASSOC
280
     2
  9
$PROJECTNAME
  1

  9
$CAMERADISPLAY
290
     0
  9
$LENSLENGTH
 40
50.0
  9
$CAMERAHEIGHT
 40
0.0
  9
$STEPSPERSEC
 40
2.0
  9
$STEPSIZE
 40
6.0
  9
$3DDWFPREC
 40
2.0
  9
$PSOLWIDTH
 40
5.0
  9
$PSOLHEIGHT
 40
80.0
  9
$LOFTANG1
 40
1.570796326794897
  9
$LOFTANG2
 40
1.570796326794897
  9
$LOFTMAG1
 40
0.0
  9
$LOFTMAG2
 40
0.0
  9
$LOFTPARAM
 70
     7
  9
$LOFTNORMALS
280
     1
  9
$LATITUDE
 40
37.795
  9
$LONGITUDE
 40
-122.394
  9
$NORTHDIRECTION
 40
0.0
  9
$TIMEZONE
 70
 -8000
  9
$LIGHTGLYPHDISPLAY
280
     1
  9
$TILEMODELIGHTSYNCH
280
     1
  9
$SOLIDHIST
280
     1
  9
$SHOWHIST
280
     1
  9
$DWFFRAME
280
     2
  9
$DGNFRAME
280
     2
  9
$REALWORLDSCALE
290
     1
  9
$INTERFERECOLOR
 62
   256
  9
$CSHADOW
280
     0
  9
$SHADOWPLANELOCATION
 40
0.0
  0
ENDSEC
  0
SECTION
  2
CLASSES
  0
CLASS
  1
ACDBDICTIONARYWDFLT
  2
AcDbDictionaryWithDefault
  3
ObjectDBX Classes
 90
        0
 91
        4
280
     0
281
     0
  0
CLASS
  1
VISUALSTYLE
  2
AcDbVisualStyle
  3
ObjectDBX Classes
 90
     4095
 91
        4
280
     0
281
     0
  0
CLASS
  1
MATERIAL
  2
AcDbMaterial
  3
ObjectDBX Classes
 90
     1153
 91
        4
280
     0
281
     0
  0
ENDSEC
  0
SECTION
  2
TABLES
  0
TABLE
  2
VPORT
  5
8
330
0
100
AcDbSymbolTable
 70
     1
  0
VPORT
  5
29
330
8
100
AcDbSymbolTableRecord
100
AcDbViewportTableRecord
  2
*Active
 70
     0
 10
0.0
 20
0.0
 11
1.0
 21
1.0
 12
0.0
 22
0.0
 13
0.0
 23
0.0
 14
10.0
 24
10.0
 15
10.0
 25
10.0
 16
0.0
 26
0.0
 36
1.0
 17
0.0
 27
0.0
 37
0.0
 40
6930.000000000001
 41
1.414285714285714
 42
50.0
 43
0.0
 44
0.0
 50
0.0
 51
0.0
 71
     0
 72
 10000
 73
     1
 74
     3
 75
     0
 76
     0
 77
     0
 78
     0
281
     0
 65
     1
110
0.0
120
0.0
130
0.0
111
1.0
121
0.0
131
0.0
112
0.0
122
1.0
132
0.0
 79
     0
146
0.0
 60
     3
 61
     5
292
     1
282
     1
141
0.0
142
0.0
 63
   250
  0
ENDTAB
  0
TABLE
  2
LTYPE
  5
5
330
0
100
AcDbSymbolTable
 70
     2
  0
LTYPE
  5
14
330
5
100
AcDbSymbolTableRecord
100
AcDbLinetypeTableRecord
  2
ByBlock
 70
     0
  3

 72
    65
 73
     0
 40
0.0
  0
LTYPE
  5
15
330
5
100
AcDbSymbolTableRecord
100
AcDbLinetypeTableRecord
  2
ByLayer
 70
     0
  3

 72
    65
 73
     0
 40
0.0
  0
LTYPE
  5
16
330
5
100
AcDbSymbolTableRecord
100
AcDbLinetypeTableRecord
  2
Continuous
 70
     0
  3
Solid line
 72
    65
 73
     0
 40
0.0
  0
LTYPE
  5
3F
330
5
100
AcDbSymbolTableRecord
100
AcDbLinetypeTableRecord
  2
JWW_DASHED1
 70
     0
  3
-  --  --  --  --  --  --  --  -
 72
    65
 73
     2
 40
1.693333333333333
 49
0.8466666666666667
 74
     0
 49
-0.8466666666666667
 74
     0
  0
ENDTAB
  0
TABLE
  2
LAYER
  5
2
330
0
100
AcDbSymbolTable
 70
     3
  0
LAYER
  5
10
330
2
100
AcDbSymbolTableRecord
100
AcDbLayerTableRecord
  2
0
 70
     0
 62
     7
  6
Continuous
370
    -3
390
F
347
3E
  0
LAYER
  5
40
330
2
100
AcDbSymbolTableRecord
100
AcDbLayerTableRecord
  2
0-0
 70
     0
 62
     7
  6
Continuous
370
    -3
390
F
347
3E
  0
LAYER
  5
41
330
2
100
AcDbSymbolTableRecord
100
AcDbLayerTableRecord
  2
寸法
 70
     0
 62
     7
  6
Continuous
370
    -3
390
F
347
3E
  0
ENDTAB
  0
TABLE
  2
STYLE
  5
3
330
0
100
AcDbSymbolTable
 70
     1
  0
STYLE
  5
11
330
3
100
AcDbSymbolTableRecord
100
AcDbTextStyleTableRecord
  2
Standard
 70
     0
 40
0.0
 41
1.0
 50
0.0
 71
     0
 42
2.5
  3
txt
  4

  0
ENDTAB
  0
TABLE
  2
VIEW
  5
6
330
0
100
AcDbSymbolTable
 70
     0
  0
ENDTAB
  0
TABLE
  2
UCS
  5
7
330
0
100
AcDbSymbolTable
 70
     0
  0
ENDTAB
  0
TABLE
  2
APPID
  5
9
330
0
100
AcDbSymbolTable
 70
     1
  0
APPID
  5
12
330
9
100
AcDbSymbolTableRecord
100
AcDbRegAppTableRecord
  2
ACAD
 70
     0
  0
ENDTAB
  0
TABLE
  2
DIMSTYLE
  5
A
330
0
100
AcDbSymbolTable
 70
     1
100
AcDbDimStyleTable
  0
DIMSTYLE
105
27
330
A
100
AcDbSymbolTableRecord
100
AcDbDimStyleTableRecord
  2
ISO-25
 70
     0
 41
2.5
 42
0.625
 43
3.75
 44
1.25
 73
     0
 74
     0
 77
     1
 78
     8
140
2.5
141
2.5
143
0.03937007874016
147
0.625
171
     3
172
     1
178
     0
271
     2
272
     2
274
     3
278
    44
283
     0
284
     8
340
11
  0
ENDTAB
  0
TABLE
  2
BLOCK_RECORD
  5
1
330
0
100
AcDbSymbolTable
 70
     1
  0
BLOCK_RECORD
  5
1F
330
1
100
AcDbSymbolTableRecord
100
AcDbBlockTableRecord
  2
*Model_Space
340
22
 70
     0
280
     1
281
     0
  0
BLOCK_RECORD
  5
1B
330
1
100
AcDbSymbolTableRecord
100
AcDbBlockTableRecord
  2
*Paper_Space
340
1E
 70
     0
280
     1
281
     0
  0
BLOCK_RECORD
  5
23
330
1
100
AcDbSymbolTableRecord
100
AcDbBlockTableRecord
  2
*Paper_Space0
340
26
 70
     0
280
     1
281
     0
  0
ENDTAB
  0
ENDSEC
  0
SECTION
  2
BLOCKS
  0
BLOCK
  5
20
330
1F
100
AcDbEntity
  8
0
100
AcDbBlockBegin
  2
*Model_Space
 70
     0
 10
0.0
 20
0.0
 30
0.0
  3
*Model_Space
  1

  0
ENDBLK
  5
21
330
1F
100
AcDbEntity
  8
0
100
AcDbBlockEnd
  0
BLOCK
  5
1C
330
1B
100
AcDbEntity
 67
     1
  8
0
100
AcDbBlockBegin
  2
*Paper_Space
 70
     0
 10
0.0
 20
0.0
 30
0.0
  3
*Paper_Space
  1

  0
ENDBLK
  5
1D
330
1B
100
AcDbEntity
 67
     1
  8
0
100
AcDbBlockEnd
  0
BLOCK
  5
24
330
23
100
AcDbEntity
  8
0
100
AcDbBlockBegin
  2
*Paper_Space0
 70
     0
 10
0.0
 20
0.0
 30
0.0
  3
*Paper_Space0
  1

  0
ENDBLK
  5
25
330
23
100
AcDbEntity
  8
0
100
AcDbBlockEnd
  0
ENDSEC
  0
SECTION
  2
ENTITIES
  0
LINE
  5
42
330
1F
100
AcDbEntity
  8
0-0
  6
Continuous
 62
    92
370
    13
100
AcDbLine
 10
-738.2612432422724
 20
-947.7286519404336
 30
0.0
 11
-768.2612432422724
 21
-947.7286519404336
 31
0.0
  0
LINE
  5
43
330
1F
100
AcDbEntity
  8
0-0
  6
Continuous
 62
    92
370
    13
100
AcDbLine
 10
-768.2612432422724
 20
-947.7286519404336
 30
0.0
 11
-768.2612432422724
 21
1087.271348059565
 31
0.0
  0
LINE
  5
44
330
1F
100
AcDbEntity
  8
0-0
  6
Continuous
 62
    92
370
    13
100
AcDbLine
 10
-738.2612432422724
 20
-947.7286519404336
 30
0.0
 11
-738.2612432422724
 21
1087.271348059565
 31
0.0
  0
LINE
  5
45
330
1F
100
AcDbEntity
  8
0-0
  6
Continuous
 62
    92
370
    13
100
AcDbLine
 10
739.7387567577272
 20
-947.7286519404342
 30
0.0
 11
769.7387567577272
 21
-947.7286519404342
 31
0.0
  0
LINE
  5
46
330
1F
100
AcDbEntity
  8
0-0
  6
Continuous
 62
    92
370
    13
100
AcDbLine
 10
1579.738756757727
 20
-947.7286519404336
 30
0.0
 11
1549.738756757727
 21
-947.7286519404336
 31
0.0
  0
LINE
  5
47
330
1F
100
AcDbEntity
  8
0-0
  6
Continuous
 62
    92
370
    13
100
AcDbLine
 10
-738.2612432422724
 20
1057.271348059566
 30
0.0
 11
1549.738756757727
 21
1057.271348059566
 31
0.0
  0
LINE
  5
48
330
1F
100
AcDbEntity
  8
0-0
  6
Continuous
 62
    92
370
    13
100
AcDbLine
 10
-768.2612432422724
 20
1087.271348059565
 30
0.0
 11
1579.738756757727
 21
1087.271348059565
 31
0.0
  0
LINE
  5
49
330
1F
100
AcDbEntity
  8
0-0
  6
Continuous
 62
    92
370
    13
100
AcDbLine
 10
1579.738756757727
 20
-947.7286519404336
 30
0.0
 11
1579.738756757727
 21
1087.271348059565
 31
0.0
  0
LINE
  5
4A
330
1F
100
AcDbEntity
  8
0-0
  6
Continuous
 62
    92
370
    13
100
AcDbLine
 10
1549.738756757727
 20
-947.7286519404336
 30
0.0
 11
1549.738756757727
 21
1087.271348059565
 31
0.0
  0
LINE
  5
4B
330
1F
100
AcDbEntity
  8
0-0
  6
JWW_DASHED1
 62
   120
370
     5
100
AcDbLine
 10
68.73875675772695
 20
-939.7286519404345
 30
0.0
 11
68.73875675772695
 21
1043.271348059565
 31
0.0
  0
LINE
  5
4C
330
1F
100
AcDbEntity
  8
0-0
  6
JWW_DASHED1
 62
   120
370
     5
100
AcDbLine
 10
-741.261243242273
 20
1043.271348059565
 30
0.0
 11
-738.2612432422724
 21
1043.271348059565
 31
0.0
  0
LINE
  5
4D
330
1F
100
AcDbEntity
  8
0-0
  6
JWW_DASHED1
 62
   120
370
     5
100
AcDbLine
 10
-741.261243242273
 20
-939.7286519404345
 30
0.0
 11
-741.261243242273
 21
1043.271348059565
 31
0.0
  0
LINE
  5
4E
330
1F
100
AcDbEntity
  8
0-0
  6
JWW_DASHED1
 62
   120
370
     5
100
AcDbLine
 10
-738.2612432422724
 20
-939.7286519404345
 30
0.0
 11
-741.261243242273
 21
-939.7286519404345
 31
0.0
  0
LINE
  5
4F
330
1F
100
AcDbEntity
  8
0-0
  6
Continuous
 62
     7
370
     9
100
AcDbLine
 10
-705.2612432422751
 20
47.37134805956565
 30
0.0
 11
-705.2612432422751
 21
-11.82865194043423
 31
0.0
  0
LINE
  5
50
330
1F
100
AcDbEntity
  8
0-0
  6
Continuous
 62
     7
370
     9
100
AcDbLine
 10
-675.2612432422751
 20
-11.82865194043423
 30
0.0
 11
-675.2612432422751
 21
47.37134805956565
 31
0.0
  0
ARC
  5
51
330
1F
100
AcDbEntity
  8
0-0
  6
Continuous
 62
     7
370
     9
100
AcDbCircle
 10
-690.2612432422751
 20
47.37134805956565
 30
0.0
 40
15.0
100
AcDbArc
 50
0.0
 51
180.0
  0
ARC
  5
52
330
1F
100
AcDbEntity
  8
0-0
  6
Continuous
 62
     7
370
     9
100
AcDbCircle
 10
-690.2612432422751
 20
-11.82865194043423
 30
0.0
 40
15.0
100
AcDbArc
 50
180.0
 51
0.0
  0
ARC
  5
53
330
1F
100
AcDbEntity
  8
0-0
  6
Continuous
 62
    92
370
    13
100
AcDbCircle
 10
-709.7612432422744
 20
-41.72865194043432
 30
0.0
 40
1.5
100
AcDbArc
 50
180.0
 51
270.0
  0
LINE
  5
54
330
1F
100
AcDbEntity
  8
0-0
  6
Continuous
 62
    92
370
    13
100
AcDbLine
 10
-711.261243242273
 20
-41.72865194043432
 30
0.0
 11
-711.261243242273
 21
77.27134805956574
 31
0.0
  0
LINE
  5
55
330
1F
100
AcDbEntity
  8
0-0
  6
Continuous
 62
    92
370
    13
100
AcDbLine
 10
-709.7612432422744
 20
-43.22865194043423
 30
0.0
 11
-670.7612432422758
 21
-43.22865194043423
 31
0.0
  0
ARC
  5
56
330
1F
100
AcDbEntity
  8
0-0
  6
Continuous
 62
    92
370
    13
100
AcDbCircle
 10
-670.7612432422758
 20
-41.72865194043432
 30
0.0
 40
1.5
100
AcDbArc
 50
270.0
 51
0.0
  0
LINE
  5
57
330
1F
100
AcDbEntity
  8
0-0
  6
Continuous
 62
    92
370
    13
100
AcDbLine
 10
-669.2612432422771
 20
-41.72865194043432
 30
0.0
 11
-669.2612432422771
 21
77.27134805956574
 31
0.0
  0
ARC
  5
58
330
1F
100
AcDbEntity
  8
0-0
  6
Continuous
 62
    92
370
    13
100
AcDbCircle
 10
-670.7612432422758
 20
77.27134805956574
 30
0.0
 40
1.5
100
AcDbArc
 50
0.0
 51
90.00000000000001
  0
LINE
  5
59
330
1F
100
AcDbEntity
  8
0-0
  6
Continuous
 62
    92
370
    13
100
AcDbLine
 10
-670.7612432422758
 20
78.77134805956565
 30
0.0
 11
-709.7612432422744
 21
78.77134805956565
 31
0.0
  0
ARC
  5
5A
330
1F
100
AcDbEntity
  8
0-0
  6
Continuous
 62
    92
370
    13
100
AcDbCircle
 10
-709.7612432422744
 20
77.27134805956574
 30
0.0
 40
1.5
100
AcDbArc
 50
90.0
 51
180.0
  0
LINE
  5
5B
330
1F
100
AcDbEntity
  8
0-0
  6
Continuous
 62
    92
370
    13
100
AcDbLine
 10
-9.26124324227203
 20
1043.271348059565
 30
0.0
 11
-9.26124324227203
 21
-939.7286519404345
 31
0.0
  0
LINE
  5
5C
330
1F
100
AcDbEntity
  8
0-0
  6
Continuous
 62
    92
370
    13
100
AcDbLine
 10
-738.2612432422724
 20
-939.7286519404345
 30
0.0
 11
800.7387567577271
 21
-939.7286519404345
 31
0.0
  0
LINE
  5
5D
330
1F
100
AcDbEntity
  8
0-0
  6
Continuous
 62
    92
370
    13
100
AcDbLine
 10
800.7387567577271
 20
-939.7286519404345
 30
0.0
 11
800.7387567577271
 21
1043.271348059565
 31
0.0
  0
LINE
  5
5E
330
1F
100
AcDbEntity
  8
0-0
  6
Continuous
 62
    92
370
    13
100
AcDbLine
 10
-738.2612432422724
 20
1043.271348059565
 30
0.0
 11
800.7387567577271
 21
1043.271348059565
 31
0.0
  0
LINE
  5
5F
330
1F
100
AcDbEntity
  8
0-0
  6
JWW_DASHED1
 62
   120
370
     5
100
AcDbLine
 10
769.7387567577272
 20
-939.7286519404345
 30
0.0
 11
769.7387567577272
 21
1057.271348059566
 31
0.0
  0
LINE
  5
60
330
1F
100
AcDbEntity
  8
0-0
  6
JWW_DASHED1
 62
   120
370
     5
100
AcDbLine
 10
739.7387567577272
 20
-939.7286519404345
 30
0.0
 11
739.7387567577272
 21
1057.271348059566
 31
0.0
  0
LINE
  5
61
330
1F
100
AcDbEntity
  8
0-0
  6
Continuous
 62
    92
370
    13
100
AcDbLine
 10
769.7387567577272
 20
-939.7286519404345
 30
0.0
 11
769.7387567577272
 21
-947.7286519404342
 31
0.0
  0
LINE
  5
62
330
1F
100
AcDbEntity
  8
0-0
  6
Continuous
 62
    92
370
    13
100
AcDbLine
 10
739.7387567577272
 20
-939.7286519404345
 30
0.0
 11
739.7387567577272
 21
-947.7286519404342
 31
0.0
  0
LINE
  5
63
330
1F
100
AcDbEntity
  8
0-0
  6
Continuous
 62
    92
370
    13
100
AcDbLine
 10
-41.26124324227021
 20
-798.7286519404339
 30
0.0
 11
-631.2612432422708
 21
-798.7286519404339
 31
0.0
  0
LINE
  5
64
330
1F
100
AcDbEntity
  8
0-0
  6
Continuous
 62
    92
370
    13
100
AcDbLine
 10
-631.2612432422708
 20
1043.271348059566
 30
0.0
 11
-631.2612432422708
 21
-939.728651940434
 31
0.0
  0
LINE
  5
65
330
1F
100
AcDbEntity
  8
0-0
  6
Continuous
 62
    92
370
    13
100
AcDbLine
 10
-41.26124324227021
 20
1043.271348059566
 30
0.0
 11
-41.26124324227021
 21
-939.728651940434
 31
0.0
  0
LINE
  5
66
330
1F
100
AcDbEntity
  8
0-0
  6
Continuous
 62
    92
370
    13
100
AcDbLine
 10
-631.2612432422708
 20
908.2713480595661
 30
0.0
 11
-41.26124324227021
 21
908.2713480595661
 31
0.0
  0
LINE
  5
67
330
1F
100
AcDbEntity
  8
0-0
  6
JWW_DASHED1
 62
   120
370
     5
100
AcDbLine
 10
-42.57900184312916
 20
-798.7286519404265
 30
0.0
 11
-41.26124324227703
 21
-797.4108933395759
 31
0.0
  0
LINE
  5
68
330
1F
100
AcDbEntity
  8
0-0
  6
JWW_DASHED1
 62
   120
370
     5
100
AcDbLine
 10
-52.47849677835234
 20
-798.7286519404339
 30
0.0
 11
-41.26124324227021
 21
-787.5113984043518
 31
0.0
  0
LINE
  5
69
330
1F
100
AcDbEntity
  8
0-0
  6
JWW_DASHED1
 62
   120
370
     5
100
AcDbLine
 10
-62.37799171357722
 20
-798.7286519404424
 30
0.0
 11
-41.26124324226339
 21
-777.611903469128
 31
0.0
  0
LINE
  5
6A
330
1F
100
AcDbEntity
  8
0-0
  6
JWW_DASHED1
 62
   120
370
     5
100
AcDbLine
 10
-72.27748664872706
 20
-798.7286519404297
 30
0.0
 11
-41.26124324227533
 21
-767.7124085339792
 31
0.0
  0
LINE
  5
6B
330
1F
100
AcDbEntity
  8
0-0
  6
JWW_DASHED1
 62
   120
370
     5
100
AcDbLine
 10
-82.17698158395024
 20
-798.7286519404365
 30
0.0
 11
-41.26124324226851
 21
-757.8129135987548
 31
0.0
  0
LINE
  5
6C
330
1F
100
AcDbEntity
  8
0-0
  6
JWW_DASHED1
 62
   120
370
     5
100
AcDbLine
 10
-92.07647651915977
 20
-798.7286519404297
 30
0.0
 11
-41.26124324227703
 21
-747.913418663547
 31
0.0
  0
LINE
  5
6D
330
1F
100
AcDbEntity
  8
0-0
  6
JWW_DASHED1
 62
   120
370
     5
100
AcDbLine
 10
-101.975971454325
 20
-798.7286519404331
 30
0.0
 11
-41.26124324227362
 21
-738.0139237283826
 31
0.0
  0
LINE
  5
6E
330
1F
100
AcDbEntity
  8
0-0
  6
JWW_DASHED1
 62
   120
370
     5
100
AcDbLine
 10
-111.8754663895311
 20
-798.7286519404246
 30
0.0
 11
-41.26124324228215
 21
-728.1144287931747
 31
0.0
  0
LINE
  5
6F
330
1F
100
AcDbEntity
  8
0-0
  6
JWW_DASHED1
 62
   120
370
     5
100
AcDbLine
 10
-121.774961324727
 20
-798.7286519404305
 30
0.0
 11
-41.26124324227703
 21
-718.2149338579798
 31
0.0
  0
LINE
  5
70
330
1F
100
AcDbEntity
  8
0-0
  6
JWW_DASHED1
 62
   120
370
     5
100
AcDbLine
 10
-131.6744562599212
 20
-798.7286519404356
 30
0.0
 11
-41.26124324227192
 21
-708.3154389227856
 31
0.0
  0
LINE
  5
71
330
1F
100
AcDbEntity
  8
0-0
  6
JWW_DASHED1
 62
   120
370
     5
100
AcDbLine
 10
-141.573951195129
 20
-798.728651940428
 30
0.0
 11
-41.26124324228044
 21
-698.4159439875777
 31
0.0
  0
LINE
  5
72
330
1F
100
AcDbEntity
  8
0-0
  6
JWW_DASHED1
 62
   120
370
     5
100
AcDbLine
 10
-151.4734461302942
 20
-798.7286519404314
 30
0.0
 11
-41.26124324227533
 21
-688.5164490524116
 31
0.0
  0
LINE
  5
73
330
1F
100
AcDbEntity
  8
0-0
  6
JWW_DASHED1
 62
   120
370
     5
100
AcDbLine
 10
-161.3729410655191
 20
-798.728651940439
 30
0.0
 11
-41.26124324227021
 21
-678.6169541171894
 31
0.0
  0
LINE
  5
74
330
1F
100
AcDbEntity
  8
0-0
  6
JWW_DASHED1
 62
   120
370
     5
100
AcDbLine
 10
-171.2724360007269
 20
-798.7286519404305
 30
0.0
 11
-41.26124324227703
 21
-668.7174591819816
 31
0.0
  0
LINE
  5
75
330
1F
100
AcDbEntity
  8
0-0
  6
JWW_DASHED1
 62
   120
370
     5
100
AcDbLine
 10
-181.1719309358887
 20
-798.7286519404305
 30
0.0
 11
-41.26124324227362
 21
-658.817964246815
 31
0.0
  0
LINE
  5
76
330
1F
100
AcDbEntity
  8
0-0
  6
JWW_DASHED1
 62
   120
370
     5
100
AcDbLine
 10
-191.071425871117
 20
-798.7286519404416
 30
0.0
 11
-41.2612432422668
 21
-648.9184693115927
 31
0.0
  0
LINE
  5
77
330
1F
100
AcDbEntity
  8
0-0
  6
JWW_DASHED1
 62
   120
370
     5
100
AcDbLine
 10
-200.9709208063248
 20
-798.7286519404339
 30
0.0
 11
-41.26124324227533
 21
-639.0189743763844
 31
0.0
  0
LINE
  5
78
330
1F
100
AcDbEntity
  8
0-0
  6
JWW_DASHED1
 62
   120
370
     5
100
AcDbLine
 10
-210.8704157414849
 20
-798.7286519404327
 30
0.0
 11
-41.26124324227021
 21
-629.1194794412185
 31
0.0
  0
LINE
  5
79
330
1F
100
AcDbEntity
  8
0-0
  6
JWW_DASHED1
 62
   120
370
     5
100
AcDbLine
 10
-220.7699106767132
 20
-798.728651940445
 30
0.0
 11
-41.2612432422651
 21
-619.2199845059961
 31
0.0
  0
LINE
  5
7A
330
1F
100
AcDbEntity
  8
0-0
  6
JWW_DASHED1
 62
   120
370
     5
100
AcDbLine
 10
-230.6694056119227
 20
-798.7286519404365
 30
0.0
 11
-41.26124324227362
 21
-609.3204895707883
 31
0.0
  0
LINE
  5
7B
330
1F
100
AcDbEntity
  8
0-0
  6
JWW_DASHED1
 62
   120
370
     5
100
AcDbLine
 10
-240.5689005470811
 20
-798.7286519404348
 30
0.0
 11
-41.26124324226851
 21
-599.4209946356214
 31
0.0
  0
LINE
  5
7C
330
1F
100
AcDbEntity
  8
0-0
  6
JWW_DASHED1
 62
   120
370
     5
100
AcDbLine
 10
-250.4683954823111
 20
-798.7286519404475
 30
0.0
 11
-41.26124324226339
 21
-589.5214997003991
 31
0.0
  0
LINE
  5
7D
330
1F
100
AcDbEntity
  8
0-0
  6
JWW_DASHED1
 62
   120
370
     5
100
AcDbLine
 10
-260.3678904175206
 20
-798.7286519404399
 30
0.0
 11
-41.26124324227192
 21
-579.6220047651913
 31
0.0
  0
LINE
  5
7E
330
1F
100
AcDbEntity
  8
0-0
  6
JWW_DASHED1
 62
   120
370
     5
100
AcDbLine
 10
-270.2673853526687
 20
-798.7286519404271
 30
0.0
 11
-41.26124324228215
 21
-569.72250983004
 31
0.0
  0
LINE
  5
7F
330
1F
100
AcDbEntity
  8
0-0
  6
JWW_DASHED1
 62
   120
370
     5
100
AcDbLine
 10
-280.1668802878868
 20
-798.7286519404288
 30
0.0
 11
-41.26124324227362
 21
-559.8230148948165
 31
0.0
  0
LINE
  5
80
330
1F
100
AcDbEntity
  8
0-0
  6
JWW_DASHED1
 62
   120
370
     5
100
AcDbLine
 10
-290.0663752231168
 20
-798.7286519404424
 30
0.0
 11
-41.26124324226851
 21
-549.9235199595951
 31
0.0
  0
LINE
  5
81
330
1F
100
AcDbEntity
  8
0-0
  6
JWW_DASHED1
 62
   120
370
     5
100
AcDbLine
 10
-299.9658701582666
 20
-798.7286519404305
 30
0.0
 11
-41.26124324228215
 21
-540.0240250244456
 31
0.0
  0
LINE
  5
82
330
1F
100
AcDbEntity
  8
0-0
  6
JWW_DASHED1
 62
   120
370
     5
100
AcDbLine
 10
-309.865365093483
 20
-798.7286519404305
 30
0.0
 11
-41.26124324227192
 21
-530.1245300892194
 31
0.0
  0
LINE
  5
83
330
1F
100
AcDbEntity
  8
0-0
  6
JWW_DASHED1
 62
   120
370
     5
100
AcDbLine
 10
-319.7648600287147
 20
-798.7286519404458
 30
0.0
 11
-41.2612432422668
 21
-520.225035153998
 31
0.0
  0
LINE
  5
84
330
1F
100
AcDbEntity
  8
0-0
  6
JWW_DASHED1
 62
   120
370
     5
100
AcDbLine
 10
-329.6643549638645
 20
-798.7286519404331
 30
0.0
 11
-41.26124324228044
 21
-510.325540218849
 31
0.0
  0
LINE
  5
85
330
1F
100
AcDbEntity
  8
0-0
  6
JWW_DASHED1
 62
   120
370
     5
100
AcDbLine
 10
-339.5638498990809
 20
-798.7286519404331
 30
0.0
 11
-41.26124324227021
 21
-500.4260452836224
 31
0.0
  0
LINE
  5
86
330
1F
100
AcDbEntity
  8
0-0
  6
JWW_DASHED1
 62
   120
370
     5
100
AcDbLine
 10
-349.4633448342529
 20
-798.7286519404441
 30
0.0
 11
-41.26124324227021
 21
-490.5265503484606
 31
0.0
  0
LINE
  5
87
330
1F
100
AcDbEntity
  8
0-0
  6
JWW_DASHED1
 62
   120
370
     5
100
AcDbLine
 10
-359.3628397694624
 20
-798.7286519404365
 30
0.0
 11
-41.26124324227703
 21
-480.6270554132524
 31
0.0
  0
LINE
  5
88
330
1F
100
AcDbEntity
  8
0-0
  6
JWW_DASHED1
 62
   120
370
     5
100
AcDbLine
 10
-369.2623347046685
 20
-798.728651940428
 30
0.0
 11
-41.26124324228385
 21
-470.7275604780415
 31
0.0
  0
LINE
  5
89
330
1F
100
AcDbEntity
  8
0-0
  6
JWW_DASHED1
 62
   120
370
     5
100
AcDbLine
 10
-379.1618296398508
 20
-798.7286519404475
 30
0.0
 11
-41.2612432422668
 21
-460.8280655428636
 31
0.0
  0
LINE
  5
8A
330
1F
100
AcDbEntity
  8
0-0
  6
JWW_DASHED1
 62
   120
370
     5
100
AcDbLine
 10
-389.0613245750586
 20
-798.728651940439
 30
0.0
 11
-41.26124324227533
 21
-450.9285706076557
 31
0.0
  0
LINE
  5
8B
330
1F
100
AcDbEntity
  8
0-0
  6
JWW_DASHED1
 62
   120
370
     5
100
AcDbLine
 10
-398.9608195102664
 20
-798.7286519404314
 30
0.0
 11
-41.26124324228385
 21
-441.0290756724479
 31
0.0
  0
LINE
  5
8C
330
1F
100
AcDbEntity
  8
0-0
  6
JWW_DASHED1
 62
   120
370
     5
100
AcDbLine
 10
-408.8603144454487
 20
-798.7286519404504
 30
0.0
 11
-41.2612432422651
 21
-431.1295807372674
 31
0.0
  0
LINE
  5
8D
330
1F
100
AcDbEntity
  8
0-0
  6
JWW_DASHED1
 62
   120
370
     5
100
AcDbLine
 10
-418.7598093806565
 20
-798.7286519404424
 30
0.0
 11
-41.26124324227362
 21
-421.2300858020595
 31
0.0
  0
LINE
  5
8E
330
1F
100
AcDbEntity
  8
0-0
  6
JWW_DASHED1
 62
   120
370
     5
100
AcDbLine
 10
-428.6593043158643
 20
-798.7286519404339
 30
0.0
 11
-41.26124324228215
 21
-411.3305908668513
 31
0.0
  0
LINE
  5
8F
330
1F
100
AcDbEntity
  8
0-0
  6
JWW_DASHED1
 62
   120
370
     5
100
AcDbLine
 10
-438.5587992510295
 20
-798.7286519404373
 30
0.0
 11
-41.26124324227533
 21
-401.4310959316827
 31
0.0
  0
LINE
  5
90
330
1F
100
AcDbEntity
  8
0-0
  6
JWW_DASHED1
 62
   120
370
     5
100
AcDbLine
 10
-448.4582941862544
 20
-798.7286519404453
 30
0.0
 11
-41.26124324227192
 21
-391.5316009964625
 31
0.0
  0
LINE
  5
91
330
1F
100
AcDbEntity
  8
0-0
  6
JWW_DASHED1
 62
   120
370
     5
100
AcDbLine
 10
-458.3577891214622
 20
-798.7286519404373
 30
0.0
 11
-41.26124324228044
 21
-381.6321060612547
 31
0.0
  0
LINE
  5
92
330
1F
100
AcDbEntity
  8
0-0
  6
JWW_DASHED1
 62
   120
370
     5
100
AcDbLine
 10
-468.2572840566155
 20
-798.7286519404292
 30
0.0
 11
-41.26124324227362
 21
-371.7326111260861
 31
0.0
  0
LINE
  5
93
330
1F
100
AcDbEntity
  8
0-0
  6
JWW_DASHED1
 62
   120
370
     5
100
AcDbLine
 10
-478.1567789918506
 20
-798.7286519404485
 30
0.0
 11
-41.26124324227021
 21
-361.8331161908663
 31
0.0
  0
LINE
  5
94
330
1F
100
AcDbEntity
  8
0-0
  6
JWW_DASHED1
 62
   120
370
     5
100
AcDbLine
 10
-488.0562739270601
 20
-798.7286519404402
 30
0.0
 11
-41.26124324227703
 21
-351.9336212556581
 31
0.0
  0
LINE
  5
95
330
1F
100
AcDbEntity
  8
0-0
  6
JWW_DASHED1
 62
   120
370
     5
100
AcDbLine
 10
-497.9557688622117
 20
-798.7286519404314
 30
0.0
 11
-41.26124324227021
 21
-342.034126320489
 31
0.0
  0
LINE
  5
96
330
1F
100
AcDbEntity
  8
0-0
  6
JWW_DASHED1
 62
   120
370
     5
100
AcDbLine
 10
-507.8552637974485
 20
-798.7286519404514
 30
0.0
 11
-41.2612432422668
 21
-332.1346313852692
 31
0.0
  0
LINE
  5
97
330
1F
100
AcDbEntity
  8
0-0
  6
JWW_DASHED1
 62
   120
370
     5
100
AcDbLine
 10
-517.754758732658
 20
-798.7286519404433
 30
0.0
 11
-41.26124324227533
 21
-322.2351364500614
 31
0.0
  0
LINE
  5
98
330
1F
100
AcDbEntity
  8
0-0
  6
JWW_DASHED1
 62
   120
370
     5
100
AcDbLine
 10
-527.6542536678096
 20
-798.7286519404333
 30
0.0
 11
-41.2612432422668
 21
-312.335641514892
 31
0.0
  0
LINE
  5
99
330
1F
100
AcDbEntity
  8
0-0
  6
JWW_DASHED1
 62
   120
370
     5
100
AcDbLine
 10
-537.5537486030464
 20
-798.7286519404544
 30
0.0
 11
-41.2612432422651
 21
-302.436146579673
 31
0.0
  0
LINE
  5
9A
330
1F
100
AcDbEntity
  8
0-0
  6
JWW_DASHED1
 62
   120
370
     5
100
AcDbLine
 10
-547.4532435381963
 20
-798.7286519404419
 30
0.0
 11
-41.26124324227703
 21
-292.5366516445237
 31
0.0
  0
LINE
  5
9B
330
1F
100
AcDbEntity
  8
0-0
  6
JWW_DASHED1
 62
   120
370
     5
100
AcDbLine
 10
-557.3527384734041
 20
-798.7286519404339
 30
0.0
 11
-41.26124324228044
 21
-282.6371567093111
 31
0.0
  0
LINE
  5
9C
330
1F
100
AcDbEntity
  8
0-0
  6
JWW_DASHED1
 62
   120
370
     5
100
AcDbLine
 10
-567.2522334086136
 20
-798.7286519404275
 30
0.0
 11
-41.26124324227362
 21
-272.7376617740871
 31
0.0
  0
LINE
  5
9D
330
1F
100
AcDbEntity
  8
0-0
  6
JWW_DASHED1
 62
   120
370
     5
100
AcDbLine
 10
-577.1517283437925
 20
-798.728651940445
 30
0.0
 11
-41.26124324227533
 21
-262.838166838927
 31
0.0
  0
LINE
  5
9E
330
1F
100
AcDbEntity
  8
0-0
  6
JWW_DASHED1
 62
   120
370
     5
100
AcDbLine
 10
-587.051223279002
 20
-798.7286519404367
 30
0.0
 11
-41.26124324228385
 21
-252.9386719037192
 31
0.0
  0
LINE
  5
9F
330
1F
100
AcDbEntity
  8
0-0
  6
JWW_DASHED1
 62
   120
370
     5
100
AcDbLine
 10
-596.9507182142115
 20
-798.7286519404297
 30
0.0
 11
-41.26124324227021
 21
-243.03917696849
 31
0.0
  0
LINE
  5
A0
330
1F
100
AcDbEntity
  8
0-0
  6
JWW_DASHED1
 62
   120
370
     5
100
AcDbLine
 10
-606.8502131493904
 20
-798.728651940448
 30
0.0
 11
-41.26124324227362
 21
-233.1396820333304
 31
0.0
  0
LINE
  5
A1
330
1F
100
AcDbEntity
  8
0-0
  6
JWW_DASHED1
 62
   120
370
     5
100
AcDbLine
 10
-616.7497080845999
 20
-798.7286519404399
 30
0.0
 11
-41.26124324228044
 21
-223.2401870981221
 31
0.0
  0
LINE
  5
A2
330
1F
100
AcDbEntity
  8
0-0
  6
JWW_DASHED1
 62
   120
370
     5
100
AcDbLine
 10
-626.6492030198077
 20
-798.7286519404316
 30
0.0
 11
-41.26124324226851
 21
-213.3406921628934
 31
0.0
  0
LINE
  5
A3
330
1F
100
AcDbEntity
  8
0-0
  6
JWW_DASHED1
 62
   120
370
     5
100
AcDbLine
 10
-631.2612432422537
 20
-793.4411972277159
 30
0.0
 11
-41.26124324227021
 21
-203.4411972277338
 31
0.0
  0
LINE
  5
A4
330
1F
100
AcDbEntity
  8
0-0
  6
JWW_DASHED1
 62
   120
370
     5
100
AcDbLine
 10
-631.2612432422623
 20
-783.541702292508
 30
0.0
 11
-41.26124324227874
 21
-193.5417022925259
 31
0.0
  0
LINE
  5
A5
330
1F
100
AcDbEntity
  8
0-0
  6
JWW_DASHED1
 62
   120
370
     5
100
AcDbLine
 10
-631.2612432422691
 20
-773.6422073573
 30
0.0
 11
-41.26124324228215
 21
-183.6422073573121
 31
0.0
  0
LINE
  5
A6
330
1F
100
AcDbEntity
  8
0-0
  6
JWW_DASHED1
 62
   120
370
     5
100
AcDbLine
 10
-631.261243242252
 20
-763.7427124221194
 30
0.0
 11
-41.26124324226851
 21
-173.7427124221372
 31
0.0
  0
LINE
  5
A7
330
1F
100
AcDbEntity
  8
0-0
  6
JWW_DASHED1
 62
   120
370
     5
100
AcDbLine
 10
-631.2612432422588
 20
-753.8432174869116
 30
0.0
 11
-41.26124324227703
 21
-163.8432174869293
 31
0.0
  0
LINE
  5
A8
330
1F
100
AcDbEntity
  8
0-0
  6
JWW_DASHED1
 62
   120
370
     5
100
AcDbLine
 10
-631.2612432422691
 20
-743.9437225517038
 30
0.0
 11
-41.26124324228556
 21
-153.9437225517215
 31
0.0
  0
LINE
  5
A9
330
1F
100
AcDbEntity
  8
0-0
  6
JWW_DASHED1
 62
   120
370
     5
100
AcDbLine
 10
-631.2612432422486
 20
-734.0442276165228
 30
0.0
 11
-41.2612432422668
 21
-144.0442276165405
 31
0.0
  0
LINE
  5
AA
330
1F
100
AcDbEntity
  8
0-0
  6
JWW_DASHED1
 62
   120
370
     5
100
AcDbLine
 10
-631.2612432422571
 20
-724.144732681315
 30
0.0
 11
-41.26124324227533
 21
-134.1447326813327
 31
0.0
  0
LINE
  5
AB
330
1F
100
AcDbEntity
  8
0-0
  6
JWW_DASHED1
 62
   120
370
     5
100
AcDbLine
 10
-631.2612432422657
 20
-714.2452377461071
 30
0.0
 11
-41.26124324228385
 21
-124.2452377461249
 31
0.0
  0
LINE
  5
AC
330
1F
100
AcDbEntity
  8
0-0
  6
JWW_DASHED1
 62
   120
370
     5
100
AcDbLine
 10
-631.2612432422776
 20
-704.3457428109568
 30
0.0
 11
-41.26124324227362
 21
-114.3457428109537
 31
0.0
  0
LINE
  5
AD
330
1F
100
AcDbEntity
  8
0-0
  6
JWW_DASHED1
 62
   120
370
     5
100
AcDbLine
 10
-631.2612432422554
 20
-694.4462478757183
 30
0.0
 11
-41.26124324227362
 21
-104.4462478757357
 31
0.0
  0
LINE
  5
AE
330
1F
100
AcDbEntity
  8
0-0
  6
JWW_DASHED1
 62
   120
370
     5
100
AcDbLine
 10
-631.2612432422691
 20
-684.5467529405694
 30
0.0
 11
-41.26124324228556
 21
-94.5467529405871
 31
0.0
  0
LINE
  5
AF
330
1F
100
AcDbEntity
  8
0-0
  6
JWW_DASHED1
 62
   120
370
     5
100
AcDbLine
 10
-631.2612432422759
 20
-674.6472580053602
 30
0.0
 11
-41.26124324227192
 21
-84.64725800535668
 31
0.0
  0
LINE
  5
B0
330
1F
100
AcDbEntity
  8
0-0
  6
JWW_DASHED1
 62
   120
370
     5
100
AcDbLine
 10
-631.2612432422537
 20
-664.7477630701217
 30
0.0
 11
-41.26124324227021
 21
-74.74776307013947
 31
0.0
  0
LINE
  5
B1
330
1F
100
AcDbEntity
  8
0-0
  6
JWW_DASHED1
 62
   120
370
     5
100
AcDbLine
 10
-631.2612432422657
 20
-654.8482681349723
 30
0.0
 11
-41.26124324228385
 21
-64.84826813499048
 31
0.0
  0
LINE
  5
B2
330
1F
100
AcDbEntity
  8
0-0
  6
JWW_DASHED1
 62
   120
370
     5
100
AcDbLine
 10
-631.2612432422725
 20
-644.9487731997632
 30
0.0
 11
-41.26124324227021
 21
-54.94877319975963
 31
0.0
  0
LINE
  5
B3
330
1F
100
AcDbEntity
  8
0-0
  6
JWW_DASHED1
 62
   120
370
     5
100
AcDbLine
 10
-631.261243242252
 20
-635.0492782645251
 30
0.0
 11
-41.26124324226851
 21
-45.04927826454285
 31
0.0
  0
LINE
  5
B4
330
1F
100
AcDbEntity
  8
0-0
  6
JWW_DASHED1
 62
   120
370
     5
100
AcDbLine
 10
-631.261243242264
 20
-625.1497833293761
 30
0.0
 11
-41.26124324228044
 21
-35.14978332939343
 31
0.0
  0
LINE
  5
B5
330
1F
100
AcDbEntity
  8
0-0
  6
JWW_DASHED1
 62
   120
370
     5
100
AcDbLine
 10
-631.2612432422708
 20
-615.2502883941665
 30
0.0
 11
-41.2612432422668
 21
-25.25028839416258
 31
0.0
  0
LINE
  5
B6
330
1F
100
AcDbEntity
  8
0-0
  6
JWW_DASHED1
 62
   120
370
     5
100
AcDbLine
 10
-631.2612432422623
 20
-605.3507934589426
 30
0.0
 11
-41.26124324227533
 21
-15.35079345895475
 31
0.0
  0
LINE
  5
B7
330
1F
100
AcDbEntity
  8
0-0
  6
JWW_DASHED1
 62
   120
370
     5
100
AcDbLine
 10
-631.2612432422623
 20
-595.4512985237794
 30
0.0
 11
-41.26124324228044
 21
-5.451298523797234
 31
0.0
  0
LINE
  5
B8
330
1F
100
AcDbEntity
  8
0-0
  6
JWW_DASHED1
 62
   120
370
     5
100
AcDbLine
 10
-631.2612432422691
 20
-585.5518035885713
 30
0.0
 11
-41.26124324228726
 21
4.448196411411018
 31
0.0
  0
LINE
  5
B9
330
1F
100
AcDbEntity
  8
0-0
  6
JWW_DASHED1
 62
   120
370
     5
100
AcDbLine
 10
-631.2612432422759
 20
-575.6523086533613
 30
0.0
 11
-41.26124324227362
 21
14.34769134664229
 31
0.0
  0
LINE
  5
BA
330
1F
100
AcDbEntity
  8
0-0
  6
JWW_DASHED1
 62
   120
370
     5
100
AcDbLine
 10
-631.2612432422588
 20
-565.7528137181829
 30
0.0
 11
-41.26124324227703
 21
24.24718628179939
 31
0.0
  0
LINE
  5
BB
330
1F
100
AcDbEntity
  8
0-0
  6
JWW_DASHED1
 62
   120
370
     5
100
AcDbLine
 10
-631.2612432422691
 20
-555.8533187829746
 30
0.0
 11
-41.26124324228556
 21
34.14668121700764
 31
0.0
  0
LINE
  5
BC
330
1F
100
AcDbEntity
  8
0-0
  6
JWW_DASHED1
 62
   120
370
     5
100
AcDbLine
 10
-631.2612432422742
 20
-545.9538238477646
 30
0.0
 11
-41.26124324227021
 21
44.04617615223891
 31
0.0
  0
LINE
  5
BD
330
1F
100
AcDbEntity
  8
0-0
  6
JWW_DASHED1
 62
   120
370
     5
100
AcDbLine
 10
-631.2612432422571
 20
-536.0543289125862
 30
0.0
 11
-41.26124324227533
 21
53.94567108739601
 31
0.0
  0
LINE
  5
BE
330
1F
100
AcDbEntity
  8
0-0
  6
JWW_DASHED1
 62
   120
370
     5
100
AcDbLine
 10
-631.2612432422657
 20
-526.154833977378
 30
0.0
 11
-41.26124324228385
 21
63.84516602260426
 31
0.0
  0
LINE
  5
BF
330
1F
100
AcDbEntity
  8
0-0
  6
JWW_DASHED1
 62
   120
370
     5
100
AcDbLine
 10
-631.2612432422725
 20
-516.2553390421676
 30
0.0
 11
-41.2612432422668
 21
73.74466095783639
 31
0.0
  0
LINE
  5
C0
330
1F
100
AcDbEntity
  8
0-0
  6
JWW_DASHED1
 62
   120
370
     5
100
AcDbLine
 10
-631.2612432422554
 20
-506.3558441069896
 30
0.0
 11
-41.26124324227362
 21
83.64415589299263
 31
0.0
  0
LINE
  5
C1
330
1F
100
AcDbEntity
  8
0-0
  6
JWW_DASHED1
 62
   120
370
     5
100
AcDbLine
 10
-631.261243242264
 20
-496.4563491717814
 30
0.0
 11
-41.26124324228044
 21
93.54365082820088
 31
0.0
  0
LINE
  5
C2
330
1F
100
AcDbEntity
  8
0-0
  6
JWW_DASHED1
 62
   120
370
     5
100
AcDbLine
 10
-631.2612432422742
 20
-486.5568542366294
 30
0.0
 11
-41.26124324227021
 21
103.4431457633742
 31
0.0
  0
LINE
  5
C3
330
1F
100
AcDbEntity
  8
0-0
  6
JWW_DASHED1
 62
   120
370
     5
100
AcDbLine
 10
-631.2612432422537
 20
-476.6573593013925
 30
0.0
 11
-41.26124324227021
 21
113.3426406985892
 31
0.0
  0
LINE
  5
C4
330
1F
100
AcDbEntity
  8
0-0
  6
JWW_DASHED1
 62
   120
370
     5
100
AcDbLine
 10
-631.2612432422623
 20
-466.7578643661847
 30
0.0
 11
-41.26124324227874
 21
123.2421356337975
 31
0.0
  0
LINE
  5
C5
330
1F
100
AcDbEntity
  8
0-0
  6
JWW_DASHED1
 62
   120
370
     5
100
AcDbLine
 10
-631.2612432422708
 20
-456.8583694310323
 30
0.0
 11
-41.2612432422668
 21
133.1416305689708
 31
0.0
  0
LINE
  5
C6
330
1F
100
AcDbEntity
  8
0-0
  6
JWW_DASHED1
 62
   120
370
     5
100
AcDbLine
 10
-631.261243242252
 20
-446.9588744957964
 30
0.0
 11
-41.26124324226851
 21
143.0411255041863
 31
0.0
  0
LINE
  5
C7
330
1F
100
AcDbEntity
  8
0-0
  6
JWW_DASHED1
 62
   120
370
     5
100
AcDbLine
 10
-631.2612432422588
 20
-437.0593795605881
 30
0.0
 11
-41.26124324227703
 21
152.9406204393941
 31
0.0
  0
LINE
  5
C8
330
1F
100
AcDbEntity
  8
0-0
  6
JWW_DASHED1
 62
   120
370
     5
100
AcDbLine
 10
-631.2612432422691
 20
-427.1598846254361
 30
0.0
 11
-41.26124324228044
 21
162.8401153745521
 31
0.0
  0
LINE
  5
C9
330
1F
100
AcDbEntity
  8
0-0
  6
JWW_DASHED1
 62
   120
370
     5
100
AcDbLine
 10
-631.2612432422776
 20
-417.2603896902274
 30
0.0
 11
-41.26124324227362
 21
172.7396103097757
 31
0.0
  0
LINE
  5
CA
330
1F
100
AcDbEntity
  8
0-0
  6
JWW_DASHED1
 62
   120
370
     5
100
AcDbLine
 10
-631.2612432422571
 20
-407.3608947549915
 30
0.0
 11
-41.26124324227533
 21
182.6391052449907
 31
0.0
  0
LINE
  5
CB
330
1F
100
AcDbEntity
  8
0-0
  6
JWW_DASHED1
 62
   120
370
     5
100
AcDbLine
 10
-631.2612432422691
 20
-397.4613998198425
 30
0.0
 11
-41.26124324228726
 21
192.5386001801402
 31
0.0
  0
LINE
  5
CC
330
1F
100
AcDbEntity
  8
0-0
  6
JWW_DASHED1
 62
   120
370
     5
100
AcDbLine
 10
-631.2612432422742
 20
-387.5619048846308
 30
0.0
 11
-41.26124324227021
 21
202.4380951153727
 31
0.0
  0
LINE
  5
CD
330
1F
100
AcDbEntity
  8
0-0
  6
JWW_DASHED1
 62
   120
370
     5
100
AcDbLine
 10
-631.2612432422554
 20
-377.6624099493953
 30
0.0
 11
-41.26124324227362
 21
212.3375900505874
 31
0.0
  0
LINE
  5
CE
330
1F
100
AcDbEntity
  8
0-0
  6
JWW_DASHED1
 62
   120
370
     5
100
AcDbLine
 10
-631.2612432422674
 20
-367.7629150142459
 30
0.0
 11
-41.26124324228556
 21
222.2370849857364
 31
0.0
  0
LINE
  5
CF
330
1F
100
AcDbEntity
  8
0-0
  6
JWW_DASHED1
 62
   120
370
     5
100
AcDbLine
 10
-631.2612432422725
 20
-357.8634200790342
 30
0.0
 11
-41.26124324226851
 21
232.1365799209698
 31
0.0
  0
LINE
  5
D0
330
1F
100
AcDbEntity
  8
0-0
  6
JWW_DASHED1
 62
   120
370
     5
100
AcDbLine
 10
-631.261243242252
 20
-347.9639251437982
 30
0.0
 11
-41.26124324227021
 21
242.036074856184
 31
0.0
  0
LINE
  5
D1
330
1F
100
AcDbEntity
  8
0-0
  6
JWW_DASHED1
 62
   120
370
     5
100
AcDbLine
 10
-631.2612432422657
 20
-338.0644302086492
 30
0.0
 11
-41.26124324228385
 21
251.935569791333
 31
0.0
  0
LINE
  5
D2
330
1F
100
AcDbEntity
  8
0-0
  6
JWW_DASHED1
 62
   120
370
     5
100
AcDbLine
 10
-631.2612432422691
 20
-328.1649352734368
 30
0.0
 11
-41.26124324228215
 21
261.8350647265506
 31
0.0
  0
LINE
  5
D3
330
1F
100
AcDbEntity
  8
0-0
  6
JWW_DASHED1
 62
   120
370
     5
100
AcDbLine
 10
-631.2612432422623
 20
-318.2654403382131
 30
0.0
 11
-41.26124324227362
 21
271.7345596617747
 31
0.0
  0
LINE
  5
D4
330
1F
100
AcDbEntity
  8
0-0
  6
JWW_DASHED1
 62
   120
370
     5
100
AcDbLine
 10
-631.261243242264
 20
-308.3659454030526
 30
0.0
 11
-41.26124324228044
 21
281.6340545969296
 31
0.0
  0
LINE
  5
D5
330
1F
100
AcDbEntity
  8
0-0
  6
JWW_DASHED1
 62
   120
370
     5
100
AcDbLine
 10
-631.2612432422725
 20
-298.4664504678444
 30
0.0
 11
-41.26124324228897
 21
291.5335495321374
 31
0.0
  0
LINE
  5
D6
330
1F
100
AcDbEntity
  8
0-0
  6
JWW_DASHED1
 62
   120
370
     5
100
AcDbLine
 10
-631.261243242252
 20
-288.5669555326638
 30
0.0
 11
-41.26124324227021
 21
301.4330444673184
 31
0.0
  0
LINE
  5
D7
330
1F
100
AcDbEntity
  8
0-0
  6
JWW_DASHED1
 62
   120
370
     5
100
AcDbLine
 10
-631.2612432422623
 20
-278.667460597456
 30
0.0
 11
-41.26124324227874
 21
311.3325394025267
 31
0.0
  0
LINE
  5
D8
330
1F
100
AcDbEntity
  8
0-0
  6
JWW_DASHED1
 62
   120
370
     5
100
AcDbLine
 10
-631.2612432422691
 20
-268.7679656622478
 30
0.0
 11
-41.26124324228726
 21
321.232034337734
 31
0.0
  0
LINE
  5
D9
330
1F
100
AcDbEntity
  8
0-0
  6
JWW_DASHED1
 62
   120
370
     5
100
AcDbLine
 10
-631.2612432422623
 20
-258.8684707270779
 30
0.0
 11
-41.26124324227362
 21
331.1315292729095
 31
0.0
  0
LINE
  5
DA
330
1F
100
AcDbEntity
  8
0-0
  6
JWW_DASHED1
 62
   120
370
     5
100
AcDbLine
 10
-631.2612432422588
 20
-248.9689757918594
 30
0.0
 11
-41.26124324227703
 21
341.0310242081229
 31
0.0
  0
LINE
  5
DB
330
1F
100
AcDbEntity
  8
0-0
  6
JWW_DASHED1
 62
   120
370
     5
100
AcDbLine
 10
-631.2612432422674
 20
-239.0694808566511
 30
0.0
 11
-41.26124324228556
 21
350.9305191433307
 31
0.0
  0
LINE
  5
DC
330
1F
100
AcDbEntity
  8
0-0
  6
JWW_DASHED1
 62
   120
370
     5
100
AcDbLine
 10
-631.2612432422759
 20
-229.169985921497
 30
0.0
 11
-41.26124324227192
 21
360.8300140785065
 31
0.0
  0
LINE
  5
DD
330
1F
100
AcDbEntity
  8
0-0
  6
JWW_DASHED1
 62
   120
370
     5
100
AcDbLine
 10
-631.2612432422571
 20
-219.2704909862628
 30
0.0
 11
-41.26124324227362
 21
370.7295090137199
 31
0.0
  0
LINE
  5
DE
330
1F
100
AcDbEntity
  8
0-0
  6
JWW_DASHED1
 62
   120
370
     5
100
AcDbLine
 10
-631.2612432422657
 20
-209.3709960510545
 30
0.0
 11
-41.26124324228385
 21
380.6290039489277
 31
0.0
  0
LINE
  5
DF
330
1F
100
AcDbEntity
  8
0-0
  6
JWW_DASHED1
 62
   120
370
     5
100
AcDbLine
 10
-631.2612432422725
 20
-199.4715011159
 30
0.0
 11
-41.26124324226851
 21
390.5284988841036
 31
0.0
  0
LINE
  5
E0
330
1F
100
AcDbEntity
  8
0-0
  6
JWW_DASHED1
 62
   120
370
     5
100
AcDbLine
 10
-631.2612432422554
 20
-189.5720061806662
 30
0.0
 11
-41.26124324227362
 21
400.4279938193161
 31
0.0
  0
LINE
  5
E1
330
1F
100
AcDbEntity
  8
0-0
  6
JWW_DASHED1
 62
   120
370
     5
100
AcDbLine
 10
-631.261243242264
 20
-179.6725112454579
 30
0.0
 11
-41.26124324228044
 21
410.3274887545239
 31
0.0
  0
LINE
  5
E2
330
1F
100
AcDbEntity
  8
0-0
  6
JWW_DASHED1
 62
   120
370
     5
100
AcDbLine
 10
-631.2612432422708
 20
-169.7730163103034
 30
0.0
 11
-41.2612432422668
 21
420.2269836897002
 31
0.0
  0
LINE
  5
E3
330
1F
100
AcDbEntity
  8
0-0
  6
JWW_DASHED1
 62
   120
370
     5
100
AcDbLine
 10
-631.261243242252
 20
-159.8735213750695
 30
0.0
 11
-41.26124324227021
 21
430.1264786249127
 31
0.0
  0
LINE
  5
E4
330
1F
100
AcDbEntity
  8
0-0
  6
JWW_DASHED1
 62
   120
370
     5
100
AcDbLine
 10
-631.2612432422623
 20
-149.9740264398617
 30
0.0
 11
-41.26124324227874
 21
440.025973560121
 31
0.0
  0
LINE
  5
E5
330
1F
100
AcDbEntity
  8
0-0
  6
JWW_DASHED1
 62
   120
370
     5
100
AcDbLine
 10
-631.2612432422691
 20
-140.0745315047067
 30
0.0
 11
-41.26124324228044
 21
449.9254684952815
 31
0.0
  0
LINE
  5
E6
330
1F
100
AcDbEntity
  8
0-0
  6
JWW_DASHED1
 62
   120
370
     5
100
AcDbLine
 10
-631.2612432422759
 20
-130.175036569498
 30
0.0
 11
-41.26124324227192
 21
459.8249634305051
 31
0.0
  0
LINE
  5
E7
330
1F
100
AcDbEntity
  8
0-0
  6
JWW_DASHED1
 62
   120
370
     5
100
AcDbLine
 10
-631.2612432422588
 20
-120.2755416342647
 30
0.0
 11
-41.26124324227703
 21
469.7244583657172
 31
0.0
  0
LINE
  5
E8
330
1F
100
AcDbEntity
  8
0-0
  6
JWW_DASHED1
 62
   120
370
     5
100
AcDbLine
 10
-631.2612432422725
 20
-110.3760466991157
 30
0.0
 11
-41.26124324228897
 21
479.6239533008666
 31
0.0
  0
LINE
  5
E9
330
1F
100
AcDbEntity
  8
0-0
  6
JWW_DASHED1
 62
   120
370
     5
100
AcDbLine
 10
-631.2612432422742
 20
-100.4765517639014
 30
0.0
 11
-41.26124324227021
 21
489.5234482361021
 31
0.0
  0
LINE
  5
EA
330
1F
100
AcDbEntity
  8
0-0
  6
JWW_DASHED1
 62
   120
370
     5
100
AcDbLine
 10
-631.2612432422623
 20
-90.5770568287273
 30
0.0
 11
-41.26124324227874
 21
499.4229431712554
 31
0.0
  0
LINE
  5
EB
330
1F
100
AcDbEntity
  8
0-0
  6
JWW_DASHED1
 62
   120
370
     5
100
AcDbLine
 10
-631.2612432422691
 20
-80.67756189351904
 30
0.0
 11
-41.26124324228726
 21
509.3224381064632
 31
0.0
  0
LINE
  5
EC
330
1F
100
AcDbEntity
  8
0-0
  6
JWW_DASHED1
 62
   120
370
     5
100
AcDbLine
 10
-631.2612432422725
 20
-70.7780669583044
 30
0.0
 11
-41.2612432422668
 21
519.2219330416991
 31
0.0
  0
LINE
  5
ED
330
1F
100
AcDbEntity
  8
0-0
  6
JWW_DASHED1
 62
   120
370
     5
100
AcDbLine
 10
-631.2612432422588
 20
-60.87857202313025
 30
0.0
 11
-41.26124324227703
 21
529.1214279768516
 31
0.0
  0
LINE
  5
EE
330
1F
100
AcDbEntity
  8
0-0
  6
JWW_DASHED1
 62
   120
370
     5
100
AcDbLine
 10
-631.2612432422674
 20
-50.97907708792242
 30
0.0
 11
-41.26124324228556
 21
539.0209229120599
 31
0.0
  0
LINE
  5
EF
330
1F
100
AcDbEntity
  8
0-0
  6
JWW_DASHED1
 62
   120
370
     5
100
AcDbLine
 10
-631.2612432422691
 20
-41.07958215270777
 30
0.0
 11
-41.26124324228044
 21
548.92041784728
 31
0.0
  0
LINE
  5
F0
330
1F
100
AcDbEntity
  8
0-0
  6
JWW_DASHED1
 62
   120
370
     5
100
AcDbLine
 10
-631.2612432422571
 20
-31.18008721753405
 30
0.0
 11
-41.26124324227362
 21
558.8199127824486
 31
0.0
  0
LINE
  5
F1
330
1F
100
AcDbEntity
  8
0-0
  6
JWW_DASHED1
 62
   120
370
     5
100
AcDbLine
 10
-631.2612432422657
 20
-21.28059228232623
 30
0.0
 11
-41.26124324228385
 21
568.7194077176564
 31
0.0
  0
LINE
  5
F2
330
1F
100
AcDbEntity
  8
0-0
  6
JWW_DASHED1
 62
   120
370
     5
100
AcDbLine
 10
-631.2612432422742
 20
-11.38109734711797
 30
0.0
 11
-41.26124324229067
 21
578.6189026528642
 31
0.0
  0
LINE
  5
F3
330
1F
100
AcDbEntity
  8
0-0
  6
JWW_DASHED1
 62
   120
370
     5
100
AcDbLine
 10
-631.2612432422554
 20
-1.48160241193743
 30
0.0
 11
-41.26124324227192
 21
588.5183975880448
 31
0.0
  0
LINE
  5
F4
330
1F
100
AcDbEntity
  8
0-0
  6
JWW_DASHED1
 62
   120
370
     5
100
AcDbLine
 10
-631.2612432422623
 20
8.417892523270822
 30
0.0
 11
-41.26124324228044
 21
598.417892523253
 31
0.0
  0
LINE
  5
F5
330
1F
100
AcDbEntity
  8
0-0
  6
JWW_DASHED1
 62
   120
370
     5
100
AcDbLine
 10
-631.2612432422725
 20
18.31738745847865
 30
0.0
 11
-41.26124324228897
 21
608.3173874584609
 31
0.0
  0
LINE
  5
F6
330
1F
100
AcDbEntity
  8
0-0
  6
JWW_DASHED1
 62
   120
370
     5
100
AcDbLine
 10
-631.2612432422759
 20
28.21688239363532
 30
0.0
 11
-41.26124324227362
 21
618.2168823936393
 31
0.0
  0
LINE
  5
F7
330
1F
100
AcDbEntity
  8
0-0
  6
JWW_DASHED1
 62
   120
370
     5
100
AcDbLine
 10
-631.2612432422623
 20
38.11637732886744
 30
0.0
 11
-41.26124324227874
 21
628.1163773288497
 31
0.0
  0
LINE
  5
F8
330
1F
100
AcDbEntity
  8
0-0
  6
JWW_DASHED1
 62
   120
370
     5
100
AcDbLine
 10
-631.2612432422691
 20
48.01587226407527
 30
0.0
 11
-41.26124324228726
 21
638.0158722640575
 31
0.0
  0
LINE
  5
F9
330
1F
100
AcDbEntity
  8
0-0
  6
JWW_DASHED1
 62
   120
370
     5
100
AcDbLine
 10
-631.2612432422742
 20
57.91536719923236
 30
0.0
 11
-41.26124324227021
 21
647.9153671992359
 31
0.0
  0
LINE
  5
FA
330
1F
100
AcDbEntity
  8
0-0
  6
JWW_DASHED1
 62
   120
370
     5
100
AcDbLine
 10
-631.2612432422588
 20
67.81486213446406
 30
0.0
 11
-41.26124324227703
 21
657.8148621344463
 31
0.0
  0
LINE
  5
FB
330
1F
100
AcDbEntity
  8
0-0
  6
JWW_DASHED1
 62
   120
370
     5
100
AcDbLine
 10
-631.2612432422674
 20
77.71435706967189
 30
0.0
 11
-41.26124324228385
 21
667.7143570696545
 31
0.0
  0
LINE
  5
FC
330
1F
100
AcDbEntity
  8
0-0
  6
JWW_DASHED1
 62
   120
370
     5
100
AcDbLine
 10
-631.2612432422725
 20
87.61385200482941
 30
0.0
 11
-41.26124324226851
 21
677.6138520048326
 31
0.0
  0
LINE
  5
FD
330
1F
100
AcDbEntity
  8
0-0
  6
JWW_DASHED1
 62
   120
370
     5
100
AcDbLine
 10
-631.2612432422571
 20
97.51334694006026
 30
0.0
 11
-41.26124324227362
 21
687.5133469400429
 31
0.0
  0
LINE
  5
FE
330
1F
100
AcDbEntity
  8
0-0
  6
JWW_DASHED1
 62
   120
370
     5
100
AcDbLine
 10
-631.2612432422691
 20
107.4128418752097
 30
0.0
 11
-41.26124324228726
 21
697.4128418751919
 31
0.0
  0
LINE
  5
FF
330
1F
100
AcDbEntity
  8
0-0
  6
JWW_DASHED1
 62
   120
370
     5
100
AcDbLine
 10
-631.2612432422691
 20
117.312336810426
 30
0.0
 11
-41.26124324228044
 21
707.3123368104139
 31
0.0
  0
LINE
  5
100
330
1F
100
AcDbEntity
  8
0-0
  6
JWW_DASHED1
 62
   120
370
     5
100
AcDbLine
 10
-631.2612432422623
 20
127.2118317456496
 30
0.0
 11
-41.26124324227362
 21
717.2118317456378
 31
0.0
  0
LINE
  5
101
330
1F
100
AcDbEntity
  8
0-0
  6
JWW_DASHED1
 62
   120
370
     5
100
AcDbLine
 10
-631.2612432422674
 20
137.1113266808063
 30
0.0
 11
-41.26124324228556
 21
727.1113266807886
 31
0.0
  0
LINE
  5
102
330
1F
100
AcDbEntity
  8
0-0
  6
JWW_DASHED1
 62
   120
370
     5
100
AcDbLine
 10
-631.2612432422759
 20
147.0108216160141
 30
0.0
 11
-41.26124324229409
 21
737.0108216159967
 31
0.0
  0
LINE
  5
103
330
1F
100
AcDbEntity
  8
0-0
  6
JWW_DASHED1
 62
   120
370
     5
100
AcDbLine
 10
-631.2612432422759
 20
156.9103165512313
 30
0.0
 11
-41.26124324227192
 21
746.9103165512345
 31
0.0
  0
LINE
  5
104
330
1F
100
AcDbEntity
  8
0-0
  6
JWW_DASHED1
 62
   120
370
     5
100
AcDbLine
 10
-631.2612432422657
 20
166.8098114864029
 30
0.0
 11
-41.26124324228385
 21
756.8098114863851
 31
0.0
  0
LINE
  5
105
330
1F
100
AcDbEntity
  8
0-0
  6
JWW_DASHED1
 62
   120
370
     5
100
AcDbLine
 10
-631.2612432422742
 20
176.7093064216107
 30
0.0
 11
-41.26124324229067
 21
766.7093064215929
 31
0.0
  0
LINE
  5
106
330
1F
100
AcDbEntity
  8
0-0
  6
JWW_DASHED1
 62
   120
370
     5
100
AcDbLine
 10
-631.2612432422725
 20
186.6088013568279
 30
0.0
 11
-41.26124324227021
 21
776.6088013568313
 31
0.0
  0
LINE
  5
107
330
1F
100
AcDbEntity
  8
0-0
  6
JWW_DASHED1
 62
   120
370
     5
100
AcDbLine
 10
-631.261243242264
 20
196.5082962919996
 30
0.0
 11
-41.26124324228044
 21
786.5082962919818
 31
0.0
  0
LINE
  5
108
330
1F
100
AcDbEntity
  8
0-0
  6
JWW_DASHED1
 62
   120
370
     5
100
AcDbLine
 10
-631.2612432422725
 20
206.4077912272074
 30
0.0
 11
-41.26124324228897
 21
796.4077912271896
 31
0.0
  0
LINE
  5
109
330
1F
100
AcDbEntity
  8
0-0
  6
JWW_DASHED1
 62
   120
370
     5
100
AcDbLine
 10
-631.2612432422708
 20
216.3072861624246
 30
0.0
 11
-41.2612432422668
 21
806.3072861624286
 31
0.0
  0
LINE
  5
10A
330
1F
100
AcDbEntity
  8
0-0
  6
JWW_DASHED1
 62
   120
370
     5
100
AcDbLine
 10
-631.2612432422605
 20
226.2067810975961
 30
0.0
 11
-41.26124324227874
 21
816.2067810975784
 31
0.0
  0
LINE
  5
10B
330
1F
100
AcDbEntity
  8
0-0
  6
JWW_DASHED1
 62
   120
370
     5
100
AcDbLine
 10
-631.2612432422691
 20
236.106276032804
 30
0.0
 11
-41.26124324228726
 21
826.1062760327862
 31
0.0
  0
LINE
  5
10C
330
1F
100
AcDbEntity
  8
0-0
  6
JWW_DASHED1
 62
   120
370
     5
100
AcDbLine
 10
-631.2612432422691
 20
246.0057709680216
 30
0.0
 11
-41.26124324228044
 21
836.0057709680094
 31
0.0
  0
LINE
  5
10D
330
1F
100
AcDbEntity
  8
0-0
  6
JWW_DASHED1
 62
   120
370
     5
100
AcDbLine
 10
-631.2612432422588
 20
255.9052659031928
 30
0.0
 11
-41.26124324227703
 21
845.9052659031753
 31
0.0
  0
LINE
  5
10E
330
1F
100
AcDbEntity
  8
0-0
  6
JWW_DASHED1
 62
   120
370
     5
100
AcDbLine
 10
-631.2612432422674
 20
265.804760838401
 30
0.0
 11
-41.26124324228385
 21
855.8047608383829
 31
0.0
  0
LINE
  5
10F
330
1F
100
AcDbEntity
  8
0-0
  6
JWW_DASHED1
 62
   120
370
     5
100
AcDbLine
 10
-631.2612432422759
 20
275.7042557736085
 30
0.0
 11
-41.26124324229409
 21
865.704255773591
 31
0.0
  0
LINE
  5
110
330
1F
100
AcDbEntity
  8
0-0
  6
JWW_DASHED1
 62
   120
370
     5
100
AcDbLine
 10
-631.2612432422571
 20
285.603750708789
 30
0.0
 11
-41.26124324227362
 21
875.6037507087715
 31
0.0
  0
LINE
  5
111
330
1F
100
AcDbEntity
  8
0-0
  6
JWW_DASHED1
 62
   120
370
     5
100
AcDbLine
 10
-631.2612432422657
 20
295.5032456439972
 30
0.0
 11
-41.26124324228385
 21
885.5032456439793
 31
0.0
  0
LINE
  5
112
330
1F
100
AcDbEntity
  8
0-0
  6
JWW_DASHED1
 62
   120
370
     5
100
AcDbLine
 10
-631.2612432422759
 20
305.4027405791757
 30
0.0
 11
-41.26124324229409
 21
895.4027405791581
 31
0.0
  0
LINE
  5
113
330
1F
100
AcDbEntity
  8
0-0
  6
JWW_DASHED1
 62
   120
370
     5
100
AcDbLine
 10
-631.2612432422759
 20
315.3022355143647
 30
0.0
 11
-41.26124324227192
 21
905.3022355143682
 31
0.0
  0
LINE
  5
114
330
1F
100
AcDbEntity
  8
0-0
  6
JWW_DASHED1
 62
   120
370
     5
100
AcDbLine
 10
-631.2612432422623
 20
325.2017304495939
 30
0.0
 11
-48.19162563228133
 21
908.2713480595761
 31
0.0
  0
LINE
  5
115
330
1F
100
AcDbEntity
  8
0-0
  6
JWW_DASHED1
 62
   120
370
     5
100
AcDbLine
 10
-631.2612432422759
 20
335.1012253847429
 30
0.0
 11
-58.09112056742947
 21
908.2713480595883
 31
0.0
  0
LINE
  5
116
330
1F
100
AcDbEntity
  8
0-0
  6
JWW_DASHED1
 62
   120
370
     5
100
AcDbLine
 10
-631.2612432422725
 20
345.0007203199613
 30
0.0
 11
-67.9906155026697
 21
908.2713480595654
 31
0.0
  0
LINE
  5
117
330
1F
100
AcDbEntity
  8
0-0
  6
JWW_DASHED1
 62
   120
370
     5
100
AcDbLine
 10
-631.2612432422605
 20
354.9002152551905
 30
0.0
 11
-77.89011043787923
 21
908.2713480595729
 31
0.0
  0
LINE
  5
118
330
1F
100
AcDbEntity
  8
0-0
  6
JWW_DASHED1
 62
   120
370
     5
100
AcDbLine
 10
-631.2612432422725
 20
364.7997101903395
 30
0.0
 11
-87.78960537302737
 21
908.2713480595854
 31
0.0
  0
LINE
  5
119
330
1F
100
AcDbEntity
  8
0-0
  6
JWW_DASHED1
 62
   120
370
     5
100
AcDbLine
 10
-631.2612432422708
 20
374.6992051255584
 30
0.0
 11
-97.68910030826589
 21
908.2713480595637
 31
0.0
  0
LINE
  5
11A
330
1F
100
AcDbEntity
  8
0-0
  6
JWW_DASHED1
 62
   120
370
     5
100
AcDbLine
 10
-631.2612432422588
 20
384.5987000607871
 30
0.0
 11
-107.5885952434754
 21
908.2713480595701
 31
0.0
  0
LINE
  5
11B
330
1F
100
AcDbEntity
  8
0-0
  6
JWW_DASHED1
 62
   120
370
     5
100
AcDbLine
 10
-631.2612432422725
 20
394.4981949959361
 30
0.0
 11
-117.4880901786253
 21
908.2713480595825
 31
0.0
  0
LINE
  5
11C
330
1F
100
AcDbEntity
  8
0-0
  6
JWW_DASHED1
 62
   120
370
     5
100
AcDbLine
 10
-631.2612432422691
 20
404.3976899311554
 30
0.0
 11
-127.3875851138484
 21
908.2713480595746
 31
0.0
  0
LINE
  5
11D
330
1F
100
AcDbEntity
  8
0-0
  6
JWW_DASHED1
 62
   120
370
     5
100
AcDbLine
 10
-631.2612432422623
 20
414.297184866379
 30
0.0
 11
-137.2870800490733
 21
908.2713480595671
 31
0.0
  0
LINE
  5
11E
330
1F
100
AcDbEntity
  8
0-0
  6
JWW_DASHED1
 62
   120
370
     5
100
AcDbLine
 10
-631.2612432422691
 20
424.1966798015332
 30
0.0
 11
-147.1865749842232
 21
908.2713480595795
 31
0.0
  0
LINE
  5
11F
330
1F
100
AcDbEntity
  8
0-0
  6
JWW_DASHED1
 62
   120
370
     5
100
AcDbLine
 10
-631.2612432422776
 20
434.0961747367405
 30
0.0
 11
-157.086069919431
 21
908.2713480595876
 31
0.0
  0
LINE
  5
120
330
1F
100
AcDbEntity
  8
0-0
  6
JWW_DASHED1
 62
   120
370
     5
100
AcDbLine
 10
-631.2612432422742
 20
443.9956696719603
 30
0.0
 11
-166.9855648546678
 21
908.2713480595671
 31
0.0
  0
LINE
  5
121
330
1F
100
AcDbEntity
  8
0-0
  6
JWW_DASHED1
 62
   120
370
     5
100
AcDbLine
 10
-631.2612432422674
 20
453.8951646071293
 30
0.0
 11
-176.8850597898211
 21
908.2713480595763
 31
0.0
  0
LINE
  5
122
330
1F
100
AcDbEntity
  8
0-0
  6
JWW_DASHED1
 62
   120
370
     5
100
AcDbLine
 10
-631.2612432422759
 20
463.7946595423372
 30
0.0
 11
-186.7845547250289
 21
908.2713480595846
 31
0.0
  0
LINE
  5
123
330
1F
100
AcDbEntity
  8
0-0
  6
JWW_DASHED1
 62
   120
370
     5
100
AcDbLine
 10
-631.2612432422725
 20
473.6941544775573
 30
0.0
 11
-196.684049660264
 21
908.2713480595654
 31
0.0
  0
LINE
  5
124
330
1F
100
AcDbEntity
  8
0-0
  6
JWW_DASHED1
 62
   120
370
     5
100
AcDbLine
 10
-631.2612432422657
 20
483.5936494127264
 30
0.0
 11
-206.5835445954173
 21
908.2713480595735
 31
0.0
  0
LINE
  5
125
330
1F
100
AcDbEntity
  8
0-0
  6
JWW_DASHED1
 62
   120
370
     5
100
AcDbLine
 10
-631.2612432422725
 20
493.4931443479342
 30
0.0
 11
-216.4830395306251
 21
908.2713480595814
 31
0.0
  0
LINE
  5
126
330
1F
100
AcDbEntity
  8
0-0
  6
JWW_DASHED1
 62
   120
370
     5
100
AcDbLine
 10
-631.2612432422691
 20
503.392639283154
 30
0.0
 11
-226.3825344658619
 21
908.2713480595627
 31
0.0
  0
LINE
  5
127
330
1F
100
AcDbEntity
  8
0-0
  6
JWW_DASHED1
 62
   120
370
     5
100
AcDbLine
 10
-631.2612432422623
 20
513.2921342183225
 30
0.0
 11
-236.2820294010152
 21
908.2713480595705
 31
0.0
  0
LINE
  5
128
330
1F
100
AcDbEntity
  8
0-0
  6
JWW_DASHED1
 62
   120
370
     5
100
AcDbLine
 10
-631.2612432422708
 20
523.1916291535308
 30
0.0
 11
-246.181524336223
 21
908.271348059578
 31
0.0
  0
LINE
  5
129
330
1F
100
AcDbEntity
  8
0-0
  6
JWW_DASHED1
 62
   120
370
     5
100
AcDbLine
 10
-631.2612432422674
 20
533.091124088751
 30
0.0
 11
-256.0810192714479
 21
908.2713480595705
 31
0.0
  0
LINE
  5
12A
330
1F
100
AcDbEntity
  8
0-0
  6
JWW_DASHED1
 62
   120
370
     5
100
AcDbLine
 10
-631.2612432422605
 20
542.9906190239192
 30
0.0
 11
-265.9805142066131
 21
908.2713480595671
 31
0.0
  0
LINE
  5
12B
330
1F
100
AcDbEntity
  8
0-0
  6
JWW_DASHED1
 62
   120
370
     5
100
AcDbLine
 10
-631.2612432422691
 20
552.8901139591275
 30
0.0
 11
-275.8800091418209
 21
908.2713480595752
 31
0.0
  0
LINE
  5
12C
330
1F
100
AcDbEntity
  8
0-0
  6
JWW_DASHED1
 62
   120
370
     5
100
AcDbLine
 10
-631.2612432422691
 20
562.7896088942892
 30
0.0
 11
-285.7795040769963
 21
908.2713480595627
 31
0.0
  0
LINE
  5
12D
330
1F
100
AcDbEntity
  8
0-0
  6
JWW_DASHED1
 62
   120
370
     5
100
AcDbLine
 10
-631.2612432422623
 20
572.6891038295129
 30
0.0
 11
-295.6789990122093
 21
908.2713480595642
 31
0.0
  0
LINE
  5
12E
330
1F
100
AcDbEntity
  8
0-0
  6
JWW_DASHED1
 62
   120
370
     5
100
AcDbLine
 10
-631.2612432422674
 20
582.5885987647241
 30
0.0
 11
-305.5784939474188
 21
908.2713480595722
 31
0.0
  0
LINE
  5
12F
330
1F
100
AcDbEntity
  8
0-0
  6
JWW_DASHED1
 62
   120
370
     5
100
AcDbLine
 10
-631.2612432422657
 20
592.4880936998859
 30
0.0
 11
-315.477988882584
 21
908.2713480595688
 31
0.0
  0
LINE
  5
130
330
1F
100
AcDbEntity
  8
0-0
  6
JWW_DASHED1
 62
   120
370
     5
100
AcDbLine
 10
-631.2612432422759
 20
602.3875886350941
 30
0.0
 11
-325.3774838178003
 21
908.2713480595688
 31
0.0
  0
LINE
  5
131
330
1F
100
AcDbEntity
  8
0-0
  6
JWW_DASHED1
 62
   120
370
     5
100
AcDbLine
 10
-631.2612432422657
 20
612.2870835703206
 30
0.0
 11
-335.2769787530167
 21
908.2713480595695
 31
0.0
  0
LINE
  5
132
330
1F
100
AcDbEntity
  8
0-0
  6
JWW_DASHED1
 62
   120
370
     5
100
AcDbLine
 10
-631.2612432422776
 20
622.1865785054697
 30
0.0
 11
-345.1764736881648
 21
908.2713480595814
 31
0.0
  0
LINE
  5
133
330
1F
100
AcDbEntity
  8
0-0
  6
JWW_DASHED1
 62
   120
370
     5
100
AcDbLine
 10
-631.2612432422725
 20
632.0860734406907
 30
0.0
 11
-355.0759686233965
 21
908.2713480595667
 31
0.0
  0
LINE
  5
134
330
1F
100
AcDbEntity
  8
0-0
  6
JWW_DASHED1
 62
   120
370
     5
100
AcDbLine
 10
-631.2612432422623
 20
641.9855683759173
 30
0.0
 11
-364.9754635586146
 21
908.2713480595661
 31
0.0
  0
LINE
  5
135
330
1F
100
AcDbEntity
  8
0-0
  6
JWW_DASHED1
 62
   120
370
     5
100
AcDbLine
 10
-631.2612432422759
 20
651.8850633110663
 30
0.0
 11
-374.8749584937627
 21
908.271348059579
 31
0.0
  0
LINE
  5
136
330
1F
100
AcDbEntity
  8
0-0
  6
JWW_DASHED1
 62
   120
370
     5
100
AcDbLine
 10
-631.2612432422708
 20
661.7845582462878
 30
0.0
 11
-384.7744534289927
 21
908.2713480595644
 31
0.0
  0
LINE
  5
137
330
1F
100
AcDbEntity
  8
0-0
  6
JWW_DASHED1
 62
   120
370
     5
100
AcDbLine
 10
-631.2612432422605
 20
671.684053181514
 30
0.0
 11
-394.6739483642108
 21
908.2713480595633
 31
0.0
  0
LINE
  5
138
330
1F
100
AcDbEntity
  8
0-0
  6
JWW_DASHED1
 62
   120
370
     5
100
AcDbLine
 10
-631.2612432422725
 20
681.5835481166629
 30
0.0
 11
-404.5734432993606
 21
908.2713480595756
 31
0.0
  0
LINE
  5
139
330
1F
100
AcDbEntity
  8
0-0
  6
JWW_DASHED1
 62
   120
370
     5
100
AcDbLine
 10
-631.2612432422674
 20
691.4830430518848
 30
0.0
 11
-414.4729382345838
 21
908.2713480595678
 31
0.0
  0
LINE
  5
13A
330
1F
100
AcDbEntity
  8
0-0
  6
JWW_DASHED1
 62
   120
370
     5
100
AcDbLine
 10
-631.2612432422605
 20
701.3825379871084
 30
0.0
 11
-424.3724331698087
 21
908.2713480595603
 31
0.0
  0
LINE
  5
13B
330
1F
100
AcDbEntity
  8
0-0
  6
JWW_DASHED1
 62
   120
370
     5
100
AcDbLine
 10
-631.2612432422708
 20
711.2820329222595
 30
0.0
 11
-434.2719281049585
 21
908.2713480595727
 31
0.0
  0
LINE
  5
13C
330
1F
100
AcDbEntity
  8
0-0
  6
JWW_DASHED1
 62
   120
370
     5
100
AcDbLine
 10
-631.2612432422793
 20
721.1815278574678
 30
0.0
 11
-444.1714230401664
 21
908.2713480595808
 31
0.0
  0
LINE
  5
13D
330
1F
100
AcDbEntity
  8
0-0
  6
JWW_DASHED1
 62
   120
370
     5
100
AcDbLine
 10
-631.2612432422742
 20
731.0810227926897
 30
0.0
 11
-454.0709179753947
 21
908.2713480595684
 31
0.0
  0
LINE
  5
13E
330
1F
100
AcDbEntity
  8
0-0
  6
JWW_DASHED1
 62
   120
370
     5
100
AcDbLine
 10
-631.2612432422691
 20
740.9805177278562
 30
0.0
 11
-463.9704129105547
 21
908.2713480595695
 31
0.0
  0
LINE
  5
13F
330
1F
100
AcDbEntity
  8
0-0
  6
JWW_DASHED1
 62
   120
370
     5
100
AcDbLine
 10
-631.2612432422776
 20
750.880012663064
 30
0.0
 11
-473.8699078457626
 21
908.2713480595778
 31
0.0
  0
LINE
  5
140
330
1F
100
AcDbEntity
  8
0-0
  6
JWW_DASHED1
 62
   120
370
     5
100
AcDbLine
 10
-631.2612432422725
 20
760.7795075982863
 30
0.0
 11
-483.7694027809926
 21
908.2713480595661
 31
0.0
  0
LINE
  5
141
330
1F
100
AcDbEntity
  8
0-0
  6
JWW_DASHED1
 62
   120
370
     5
100
AcDbLine
 10
-631.2612432422674
 20
770.6790025334528
 30
0.0
 11
-493.6688977161526
 21
908.2713480595667
 31
0.0
  0
LINE
  5
142
330
1F
100
AcDbEntity
  8
0-0
  6
JWW_DASHED1
 62
   120
370
     5
100
AcDbLine
 10
-631.2612432422759
 20
780.5784974686609
 30
0.0
 11
-503.5683926513605
 21
908.2713480595746
 31
0.0
  0
LINE
  5
143
330
1F
100
AcDbEntity
  8
0-0
  6
JWW_DASHED1
 62
   120
370
     5
100
AcDbLine
 10
-631.2612432422691
 20
790.4779924038834
 30
0.0
 11
-513.4678875865887
 21
908.2713480595642
 31
0.0
  0
LINE
  5
144
330
1F
100
AcDbEntity
  8
0-0
  6
JWW_DASHED1
 62
   120
370
     5
100
AcDbLine
 10
-631.2612432422657
 20
800.3774873390493
 30
0.0
 11
-523.3673825217505
 21
908.2713480595637
 31
0.0
  0
LINE
  5
145
330
1F
100
AcDbEntity
  8
0-0
  6
JWW_DASHED1
 62
   120
370
     5
100
AcDbLine
 10
-631.2612432422725
 20
810.2769822742571
 30
0.0
 11
-533.2668774569584
 21
908.2713480595722
 31
0.0
  0
LINE
  5
146
330
1F
100
AcDbEntity
  8
0-0
  6
JWW_DASHED1
 62
   120
370
     5
100
AcDbLine
 10
-631.2612432422657
 20
820.1764772094803
 30
0.0
 11
-543.1663723921832
 21
908.2713480595642
 31
0.0
  0
LINE
  5
147
330
1F
100
AcDbEntity
  8
0-0
  6
JWW_DASHED1
 62
   120
370
     5
100
AcDbLine
 10
-631.2612432422623
 20
830.075972144646
 30
0.0
 11
-553.0658673273484
 21
908.2713480595608
 31
0.0
  0
LINE
  5
148
330
1F
100
AcDbEntity
  8
0-0
  6
JWW_DASHED1
 62
   120
370
     5
100
AcDbLine
 10
-631.2612432422708
 20
839.9754670798538
 30
0.0
 11
-562.9653622625563
 21
908.2713480595688
 31
0.0
  0
LINE
  5
149
330
1F
100
AcDbEntity
  8
0-0
  6
JWW_DASHED1
 62
   120
370
     5
100
AcDbLine
 10
-631.2612432422793
 20
849.8749620150621
 30
0.0
 11
-572.8648571977641
 21
908.2713480595769
 31
0.0
  0
LINE
  5
14A
330
1F
100
AcDbEntity
  8
0-0
  6
JWW_DASHED1
 62
   120
370
     5
100
AcDbLine
 10
-631.2612432422605
 20
859.7744569502422
 30
0.0
 11
-582.7643521329446
 21
908.2713480595576
 31
0.0
  0
LINE
  5
14B
330
1F
100
AcDbEntity
  8
0-0
  6
JWW_DASHED1
 62
   120
370
     5
100
AcDbLine
 10
-631.2612432422691
 20
869.6739518854505
 30
0.0
 11
-592.6638470681542
 21
908.2713480595659
 31
0.0
  0
LINE
  5
14C
330
1F
100
AcDbEntity
  8
0-0
  6
JWW_DASHED1
 62
   120
370
     5
100
AcDbLine
 10
-631.2612432422776
 20
879.5734468206588
 30
0.0
 11
-602.563342003362
 21
908.2713480595739
 31
0.0
  0
LINE
  5
14D
330
1F
100
AcDbEntity
  8
0-0
  6
JWW_DASHED1
 62
   120
370
     5
100
AcDbLine
 10
-631.2612432422742
 20
889.4729417558235
 30
0.0
 11
-612.4628369385272
 21
908.2713480595701
 31
0.0
  0
LINE
  5
14E
330
1F
100
AcDbEntity
  8
0-0
  6
JWW_DASHED1
 62
   120
370
     5
100
AcDbLine
 10
-631.2612432422657
 20
899.3724366910474
 30
0.0
 11
-622.362331873752
 21
908.2713480595627
 31
0.0
  0
LINE
  5
14F
330
1F
100
AcDbEntity
  8
0-0
  6
Continuous
 62
    92
370
    13
100
AcDbLine
 10
690.7387567577291
 20
-798.7286519404339
 30
0.0
 11
100.7387567577302
 21
-798.7286519404339
 31
0.0
  0
LINE
  5
150
330
1F
100
AcDbEntity
  8
0-0
  6
Continuous
 62
    92
370
    13
100
AcDbLine
 10
100.7387567577302
 20
1043.271348059566
 30
0.0
 11
100.7387567577302
 21
-939.728651940434
 31
0.0
  0
LINE
  5
151
330
1F
100
AcDbEntity
  8
0-0
  6
Continuous
 62
    92
370
    13
100
AcDbLine
 10
690.7387567577291
 20
1043.271348059566
 30
0.0
 11
690.7387567577291
 21
-939.728651940434
 31
0.0
  0
LINE
  5
152
330
1F
100
AcDbEntity
  8
0-0
  6
Continuous
 62
    92
370
    13
100
AcDbLine
 10
100.7387567577302
 20
908.2713480595661
 30
0.0
 11
690.7387567577291
 21
908.2713480595661
 31
0.0
  0
LINE
  5
153
330
1F
100
AcDbEntity
  8
0-0
  6
JWW_DASHED1
 62
   120
370
     5
100
AcDbLine
 10
689.4209981568719
 20
-798.7286519404265
 30
0.0
 11
690.7387567577223
 21
-797.4108933395759
 31
0.0
  0
LINE
  5
154
330
1F
100
AcDbEntity
  8
0-0
  6
JWW_DASHED1
 62
   120
370
     5
100
AcDbLine
 10
679.521503221647
 20
-798.7286519404339
 30
0.0
 11
690.7387567577291
 21
-787.5113984043518
 31
0.0
  0
LINE
  5
155
330
1F
100
AcDbEntity
  8
0-0
  6
JWW_DASHED1
 62
   120
370
     5
100
AcDbLine
 10
669.6220082864238
 20
-798.7286519404424
 30
0.0
 11
690.7387567577376
 21
-777.611903469128
 31
0.0
  0
LINE
  5
156
330
1F
100
AcDbEntity
  8
0-0
  6
JWW_DASHED1
 62
   120
370
     5
100
AcDbLine
 10
659.722513351274
 20
-798.7286519404297
 30
0.0
 11
690.738756757724
 21
-767.7124085339792
 31
0.0
  0
LINE
  5
157
330
1F
100
AcDbEntity
  8
0-0
  6
JWW_DASHED1
 62
   120
370
     5
100
AcDbLine
 10
649.8230184160508
 20
-798.7286519404365
 30
0.0
 11
690.7387567577325
 21
-757.8129135987548
 31
0.0
  0
LINE
  5
158
330
1F
100
AcDbEntity
  8
0-0
  6
JWW_DASHED1
 62
   120
370
     5
100
AcDbLine
 10
639.9235234808413
 20
-798.7286519404297
 30
0.0
 11
690.738756757724
 21
-747.913418663547
 31
0.0
  0
LINE
  5
159
330
1F
100
AcDbEntity
  8
0-0
  6
JWW_DASHED1
 62
   120
370
     5
100
AcDbLine
 10
630.0240285456761
 20
-798.7286519404331
 30
0.0
 11
690.7387567577257
 21
-738.0139237283826
 31
0.0
  0
LINE
  5
15A
330
1F
100
AcDbEntity
  8
0-0
  6
JWW_DASHED1
 62
   120
370
     5
100
AcDbLine
 10
620.1245336104682
 20
-798.7286519404246
 30
0.0
 11
690.7387567577189
 21
-728.1144287931747
 31
0.0
  0
LINE
  5
15B
330
1F
100
AcDbEntity
  8
0-0
  6
JWW_DASHED1
 62
   120
370
     5
100
AcDbLine
 10
610.2250386752723
 20
-798.7286519404305
 30
0.0
 11
690.738756757724
 21
-718.2149338579798
 31
0.0
  0
LINE
  5
15C
330
1F
100
AcDbEntity
  8
0-0
  6
JWW_DASHED1
 62
   120
370
     5
100
AcDbLine
 10
600.3255437400799
 20
-798.7286519404356
 30
0.0
 11
690.7387567577291
 21
-708.3154389227856
 31
0.0
  0
LINE
  5
15D
330
1F
100
AcDbEntity
  8
0-0
  6
JWW_DASHED1
 62
   120
370
     5
100
AcDbLine
 10
590.4260488048703
 20
-798.728651940428
 30
0.0
 11
690.7387567577206
 21
-698.4159439875777
 31
0.0
  0
LINE
  5
15E
330
1F
100
AcDbEntity
  8
0-0
  6
JWW_DASHED1
 62
   120
370
     5
100
AcDbLine
 10
580.5265538697051
 20
-798.7286519404314
 30
0.0
 11
690.738756757724
 21
-688.5164490524116
 31
0.0
  0
LINE
  5
15F
330
1F
100
AcDbEntity
  8
0-0
  6
JWW_DASHED1
 62
   120
370
     5
100
AcDbLine
 10
570.627058934482
 20
-798.728651940439
 30
0.0
 11
690.7387567577308
 21
-678.6169541171894
 31
0.0
  0
LINE
  5
160
330
1F
100
AcDbEntity
  8
0-0
  6
JWW_DASHED1
 62
   120
370
     5
100
AcDbLine
 10
560.7275639992724
 20
-798.7286519404305
 30
0.0
 11
690.7387567577223
 21
-668.7174591819816
 31
0.0
  0
LINE
  5
161
330
1F
100
AcDbEntity
  8
0-0
  6
JWW_DASHED1
 62
   120
370
     5
100
AcDbLine
 10
550.8280690641107
 20
-798.7286519404305
 30
0.0
 11
690.7387567577274
 21
-658.817964246815
 31
0.0
  0
LINE
  5
162
330
1F
100
AcDbEntity
  8
0-0
  6
JWW_DASHED1
 62
   120
370
     5
100
AcDbLine
 10
540.9285741288841
 20
-798.7286519404416
 30
0.0
 11
690.7387567577325
 21
-648.9184693115927
 31
0.0
  0
LINE
  5
163
330
1F
100
AcDbEntity
  8
0-0
  6
JWW_DASHED1
 62
   120
370
     5
100
AcDbLine
 10
531.0290791936745
 20
-798.7286519404339
 30
0.0
 11
690.7387567577257
 21
-639.0189743763844
 31
0.0
  0
LINE
  5
164
330
1F
100
AcDbEntity
  8
0-0
  6
JWW_DASHED1
 62
   120
370
     5
100
AcDbLine
 10
521.1295842585145
 20
-798.7286519404327
 30
0.0
 11
690.7387567577291
 21
-629.1194794412185
 31
0.0
  0
LINE
  5
165
330
1F
100
AcDbEntity
  8
0-0
  6
JWW_DASHED1
 62
   120
370
     5
100
AcDbLine
 10
511.2300893232862
 20
-798.728651940445
 30
0.0
 11
690.7387567577359
 21
-619.2199845059961
 31
0.0
  0
LINE
  5
166
330
1F
100
AcDbEntity
  8
0-0
  6
JWW_DASHED1
 62
   120
370
     5
100
AcDbLine
 10
501.3305943880783
 20
-798.7286519404365
 30
0.0
 11
690.7387567577257
 21
-609.3204895707883
 31
0.0
  0
LINE
  5
167
330
1F
100
AcDbEntity
  8
0-0
  6
JWW_DASHED1
 62
   120
370
     5
100
AcDbLine
 10
491.4310994529183
 20
-798.7286519404348
 30
0.0
 11
690.7387567577325
 21
-599.4209946356214
 31
0.0
  0
LINE
  5
168
330
1F
100
AcDbEntity
  8
0-0
  6
JWW_DASHED1
 62
   120
370
     5
100
AcDbLine
 10
481.5316045176883
 20
-798.7286519404475
 30
0.0
 11
690.7387567577376
 21
-589.5214997003991
 31
0.0
  0
LINE
  5
169
330
1F
100
AcDbEntity
  8
0-0
  6
JWW_DASHED1
 62
   120
370
     5
100
AcDbLine
 10
471.6321095824804
 20
-798.7286519404399
 30
0.0
 11
690.7387567577291
 21
-579.6220047651913
 31
0.0
  0
LINE
  5
16A
330
1F
100
AcDbEntity
  8
0-0
  6
JWW_DASHED1
 62
   120
370
     5
100
AcDbLine
 10
461.7326146473306
 20
-798.7286519404271
 30
0.0
 11
690.7387567577189
 21
-569.72250983004
 31
0.0
  0
LINE
  5
16B
330
1F
100
AcDbEntity
  8
0-0
  6
JWW_DASHED1
 62
   120
370
     5
100
AcDbLine
 10
451.8331197121142
 20
-798.7286519404288
 30
0.0
 11
690.7387567577257
 21
-559.8230148948165
 31
0.0
  0
LINE
  5
16C
330
1F
100
AcDbEntity
  8
0-0
  6
JWW_DASHED1
 62
   120
370
     5
100
AcDbLine
 10
441.9336247768825
 20
-798.7286519404424
 30
0.0
 11
690.7387567577308
 21
-549.9235199595951
 31
0.0
  0
LINE
  5
16D
330
1F
100
AcDbEntity
  8
0-0
  6
JWW_DASHED1
 62
   120
370
     5
100
AcDbLine
 10
432.0341298417327
 20
-798.7286519404305
 30
0.0
 11
690.7387567577189
 21
-540.0240250244456
 31
0.0
  0
LINE
  5
16E
330
1F
100
AcDbEntity
  8
0-0
  6
JWW_DASHED1
 62
   120
370
     5
100
AcDbLine
 10
422.1346349065163
 20
-798.7286519404305
 30
0.0
 11
690.7387567577291
 21
-530.1245300892194
 31
0.0
  0
LINE
  5
16F
330
1F
100
AcDbEntity
  8
0-0
  6
JWW_DASHED1
 62
   120
370
     5
100
AcDbLine
 10
412.2351399712863
 20
-798.7286519404458
 30
0.0
 11
690.7387567577325
 21
-520.225035153998
 31
0.0
  0
LINE
  5
170
330
1F
100
AcDbEntity
  8
0-0
  6
JWW_DASHED1
 62
   120
370
     5
100
AcDbLine
 10
402.3356450361365
 20
-798.7286519404331
 30
0.0
 11
690.7387567577206
 21
-510.325540218849
 31
0.0
  0
LINE
  5
171
330
1F
100
AcDbEntity
  8
0-0
  6
JWW_DASHED1
 62
   120
370
     5
100
AcDbLine
 10
392.4361501009201
 20
-798.7286519404331
 30
0.0
 11
690.7387567577308
 21
-500.4260452836224
 31
0.0
  0
LINE
  5
172
330
1F
100
AcDbEntity
  8
0-0
  6
JWW_DASHED1
 62
   120
370
     5
100
AcDbLine
 10
382.5366551657464
 20
-798.7286519404441
 30
0.0
 11
690.7387567577308
 21
-490.5265503484606
 31
0.0
  0
LINE
  5
173
330
1F
100
AcDbEntity
  8
0-0
  6
JWW_DASHED1
 62
   120
370
     5
100
AcDbLine
 10
372.6371602305386
 20
-798.7286519404365
 30
0.0
 11
690.7387567577223
 21
-480.6270554132524
 31
0.0
  0
LINE
  5
174
330
1F
100
AcDbEntity
  8
0-0
  6
JWW_DASHED1
 62
   120
370
     5
100
AcDbLine
 10
362.7376652953308
 20
-798.728651940428
 30
0.0
 11
690.7387567577172
 21
-470.7275604780415
 31
0.0
  0
LINE
  5
175
330
1F
100
AcDbEntity
  8
0-0
  6
JWW_DASHED1
 62
   120
370
     5
100
AcDbLine
 10
352.8381703601485
 20
-798.7286519404475
 30
0.0
 11
690.7387567577325
 21
-460.8280655428636
 31
0.0
  0
LINE
  5
176
330
1F
100
AcDbEntity
  8
0-0
  6
JWW_DASHED1
 62
   120
370
     5
100
AcDbLine
 10
342.9386754249407
 20
-798.728651940439
 30
0.0
 11
690.7387567577257
 21
-450.9285706076557
 31
0.0
  0
LINE
  5
177
330
1F
100
AcDbEntity
  8
0-0
  6
JWW_DASHED1
 62
   120
370
     5
100
AcDbLine
 10
333.0391804897329
 20
-798.7286519404314
 30
0.0
 11
690.7387567577155
 21
-441.0290756724479
 31
0.0
  0
LINE
  5
178
330
1F
100
AcDbEntity
  8
0-0
  6
JWW_DASHED1
 62
   120
370
     5
100
AcDbLine
 10
323.1396855545523
 20
-798.7286519404504
 30
0.0
 11
690.7387567577359
 21
-431.1295807372674
 31
0.0
  0
LINE
  5
179
330
1F
100
AcDbEntity
  8
0-0
  6
JWW_DASHED1
 62
   120
370
     5
100
AcDbLine
 10
313.2401906193445
 20
-798.7286519404424
 30
0.0
 11
690.7387567577257
 21
-421.2300858020595
 31
0.0
  0
LINE
  5
17A
330
1F
100
AcDbEntity
  8
0-0
  6
JWW_DASHED1
 62
   120
370
     5
100
AcDbLine
 10
303.340695684135
 20
-798.7286519404339
 30
0.0
 11
690.7387567577189
 21
-411.3305908668513
 31
0.0
  0
LINE
  5
17B
330
1F
100
AcDbEntity
  8
0-0
  6
JWW_DASHED1
 62
   120
370
     5
100
AcDbLine
 10
293.4412007489698
 20
-798.7286519404373
 30
0.0
 11
690.7387567577257
 21
-401.4310959316827
 31
0.0
  0
LINE
  5
17C
330
1F
100
AcDbEntity
  8
0-0
  6
JWW_DASHED1
 62
   120
370
     5
100
AcDbLine
 10
283.5417058137466
 20
-798.7286519404453
 30
0.0
 11
690.7387567577291
 21
-391.5316009964625
 31
0.0
  0
LINE
  5
17D
330
1F
100
AcDbEntity
  8
0-0
  6
JWW_DASHED1
 62
   120
370
     5
100
AcDbLine
 10
273.6422108785371
 20
-798.7286519404373
 30
0.0
 11
690.7387567577206
 21
-381.6321060612547
 31
0.0
  0
LINE
  5
17E
330
1F
100
AcDbEntity
  8
0-0
  6
JWW_DASHED1
 62
   120
370
     5
100
AcDbLine
 10
263.7427159433838
 20
-798.7286519404292
 30
0.0
 11
690.7387567577274
 21
-371.7326111260861
 31
0.0
  0
LINE
  5
17F
330
1F
100
AcDbEntity
  8
0-0
  6
JWW_DASHED1
 62
   120
370
     5
100
AcDbLine
 10
253.8432210081487
 20
-798.7286519404485
 30
0.0
 11
690.7387567577308
 21
-361.8331161908663
 31
0.0
  0
LINE
  5
180
330
1F
100
AcDbEntity
  8
0-0
  6
JWW_DASHED1
 62
   120
370
     5
100
AcDbLine
 10
243.9437260729409
 20
-798.7286519404402
 30
0.0
 11
690.7387567577223
 21
-351.9336212556581
 31
0.0
  0
LINE
  5
181
330
1F
100
AcDbEntity
  8
0-0
  6
JWW_DASHED1
 62
   120
370
     5
100
AcDbLine
 10
234.0442311377876
 20
-798.7286519404314
 30
0.0
 11
690.7387567577291
 21
-342.034126320489
 31
0.0
  0
LINE
  5
182
330
1F
100
AcDbEntity
  8
0-0
  6
JWW_DASHED1
 62
   120
370
     5
100
AcDbLine
 10
224.1447362025508
 20
-798.7286519404514
 30
0.0
 11
690.7387567577325
 21
-332.1346313852692
 31
0.0
  0
LINE
  5
183
330
1F
100
AcDbEntity
  8
0-0
  6
JWW_DASHED1
 62
   120
370
     5
100
AcDbLine
 10
214.245241267343
 20
-798.7286519404433
 30
0.0
 11
690.7387567577257
 21
-322.2351364500614
 31
0.0
  0
LINE
  5
184
330
1F
100
AcDbEntity
  8
0-0
  6
JWW_DASHED1
 62
   120
370
     5
100
AcDbLine
 10
204.3457463321914
 20
-798.7286519404333
 30
0.0
 11
690.7387567577325
 21
-312.335641514892
 31
0.0
  0
LINE
  5
185
330
1F
100
AcDbEntity
  8
0-0
  6
JWW_DASHED1
 62
   120
370
     5
100
AcDbLine
 10
194.4462513969529
 20
-798.7286519404544
 30
0.0
 11
690.7387567577359
 21
-302.436146579673
 31
0.0
  0
LINE
  5
186
330
1F
100
AcDbEntity
  8
0-0
  6
JWW_DASHED1
 62
   120
370
     5
100
AcDbLine
 10
184.5467564618048
 20
-798.7286519404419
 30
0.0
 11
690.7387567577223
 21
-292.5366516445237
 31
0.0
  0
LINE
  5
187
330
1F
100
AcDbEntity
  8
0-0
  6
JWW_DASHED1
 62
   120
370
     5
100
AcDbLine
 10
174.6472615265952
 20
-798.7286519404339
 30
0.0
 11
690.7387567577189
 21
-282.6371567093111
 31
0.0
  0
LINE
  5
188
330
1F
100
AcDbEntity
  8
0-0
  6
JWW_DASHED1
 62
   120
370
     5
100
AcDbLine
 10
164.7477665913857
 20
-798.7286519404275
 30
0.0
 11
690.7387567577257
 21
-272.7376617740871
 31
0.0
  0
LINE
  5
189
330
1F
100
AcDbEntity
  8
0-0
  6
JWW_DASHED1
 62
   120
370
     5
100
AcDbLine
 10
154.8482716562069
 20
-798.728651940445
 30
0.0
 11
690.7387567577257
 21
-262.838166838927
 31
0.0
  0
LINE
  5
18A
330
1F
100
AcDbEntity
  8
0-0
  6
JWW_DASHED1
 62
   120
370
     5
100
AcDbLine
 10
144.948776720999
 20
-798.7286519404367
 30
0.0
 11
690.7387567577155
 21
-252.9386719037192
 31
0.0
  0
LINE
  5
18B
330
1F
100
AcDbEntity
  8
0-0
  6
JWW_DASHED1
 62
   120
370
     5
100
AcDbLine
 10
135.0492817857895
 20
-798.7286519404297
 30
0.0
 11
690.7387567577291
 21
-243.03917696849
 31
0.0
  0
LINE
  5
18C
330
1F
100
AcDbEntity
  8
0-0
  6
JWW_DASHED1
 62
   120
370
     5
100
AcDbLine
 10
125.149786850609
 20
-798.728651940448
 30
0.0
 11
690.7387567577274
 21
-233.1396820333304
 31
0.0
  0
LINE
  5
18D
330
1F
100
AcDbEntity
  8
0-0
  6
JWW_DASHED1
 62
   120
370
     5
100
AcDbLine
 10
115.2502919154011
 20
-798.7286519404399
 30
0.0
 11
690.7387567577189
 21
-223.2401870981221
 31
0.0
  0
LINE
  5
18E
330
1F
100
AcDbEntity
  8
0-0
  6
JWW_DASHED1
 62
   120
370
     5
100
AcDbLine
 10
105.3507969801933
 20
-798.7286519404316
 30
0.0
 11
690.7387567577325
 21
-213.3406921628934
 31
0.0
  0
LINE
  5
18F
330
1F
100
AcDbEntity
  8
0-0
  6
JWW_DASHED1
 62
   120
370
     5
100
AcDbLine
 10
100.7387567577473
 20
-793.4411972277159
 30
0.0
 11
690.7387567577291
 21
-203.4411972277338
 31
0.0
  0
LINE
  5
190
330
1F
100
AcDbEntity
  8
0-0
  6
JWW_DASHED1
 62
   120
370
     5
100
AcDbLine
 10
100.7387567577388
 20
-783.541702292508
 30
0.0
 11
690.7387567577206
 21
-193.5417022925259
 31
0.0
  0
LINE
  5
191
330
1F
100
AcDbEntity
  8
0-0
  6
JWW_DASHED1
 62
   120
370
     5
100
AcDbLine
 10
100.7387567577302
 20
-773.6422073573
 30
0.0
 11
690.7387567577189
 21
-183.6422073573121
 31
0.0
  0
LINE
  5
192
330
1F
100
AcDbEntity
  8
0-0
  6
JWW_DASHED1
 62
   120
370
     5
100
AcDbLine
 10
100.738756757749
 20
-763.7427124221194
 30
0.0
 11
690.7387567577308
 21
-173.7427124221372
 31
0.0
  0
LINE
  5
193
330
1F
100
AcDbEntity
  8
0-0
  6
JWW_DASHED1
 62
   120
370
     5
100
AcDbLine
 10
100.7387567577405
 20
-753.8432174869116
 30
0.0
 11
690.7387567577223
 21
-163.8432174869293
 31
0.0
  0
LINE
  5
194
330
1F
100
AcDbEntity
  8
0-0
  6
JWW_DASHED1
 62
   120
370
     5
100
AcDbLine
 10
100.7387567577319
 20
-743.9437225517038
 30
0.0
 11
690.7387567577155
 21
-153.9437225517215
 31
0.0
  0
LINE
  5
195
330
1F
100
AcDbEntity
  8
0-0
  6
JWW_DASHED1
 62
   120
370
     5
100
AcDbLine
 10
100.7387567577507
 20
-734.0442276165228
 30
0.0
 11
690.7387567577325
 21
-144.0442276165405
 31
0.0
  0
LINE
  5
196
330
1F
100
AcDbEntity
  8
0-0
  6
JWW_DASHED1
 62
   120
370
     5
100
AcDbLine
 10
100.7387567577422
 20
-724.144732681315
 30
0.0
 11
690.7387567577257
 21
-134.1447326813327
 31
0.0
  0
LINE
  5
197
330
1F
100
AcDbEntity
  8
0-0
  6
JWW_DASHED1
 62
   120
370
     5
100
AcDbLine
 10
100.7387567577337
 20
-714.2452377461071
 30
0.0
 11
690.7387567577155
 21
-124.2452377461249
 31
0.0
  0
LINE
  5
198
330
1F
100
AcDbEntity
  8
0-0
  6
JWW_DASHED1
 62
   120
370
     5
100
AcDbLine
 10
100.7387567577234
 20
-704.3457428109568
 30
0.0
 11
690.7387567577257
 21
-114.3457428109537
 31
0.0
  0
LINE
  5
199
330
1F
100
AcDbEntity
  8
0-0
  6
JWW_DASHED1
 62
   120
370
     5
100
AcDbLine
 10
100.7387567577439
 20
-694.4462478757183
 30
0.0
 11
690.7387567577274
 21
-104.4462478757357
 31
0.0
  0
LINE
  5
19A
330
1F
100
AcDbEntity
  8
0-0
  6
JWW_DASHED1
 62
   120
370
     5
100
AcDbLine
 10
100.7387567577319
 20
-684.5467529405694
 30
0.0
 11
690.7387567577155
 21
-94.5467529405871
 31
0.0
  0
LINE
  5
19B
330
1F
100
AcDbEntity
  8
0-0
  6
JWW_DASHED1
 62
   120
370
     5
100
AcDbLine
 10
100.7387567577251
 20
-674.6472580053602
 30
0.0
 11
690.7387567577291
 21
-84.64725800535668
 31
0.0
  0
LINE
  5
19C
330
1F
100
AcDbEntity
  8
0-0
  6
JWW_DASHED1
 62
   120
370
     5
100
AcDbLine
 10
100.7387567577473
 20
-664.7477630701217
 30
0.0
 11
690.7387567577291
 21
-74.74776307013947
 31
0.0
  0
LINE
  5
19D
330
1F
100
AcDbEntity
  8
0-0
  6
JWW_DASHED1
 62
   120
370
     5
100
AcDbLine
 10
100.7387567577337
 20
-654.8482681349723
 30
0.0
 11
690.7387567577155
 21
-64.84826813499048
 31
0.0
  0
LINE
  5
19E
330
1F
100
AcDbEntity
  8
0-0
  6
JWW_DASHED1
 62
   120
370
     5
100
AcDbLine
 10
100.7387567577268
 20
-644.9487731997632
 30
0.0
 11
690.7387567577308
 21
-54.94877319975963
 31
0.0
  0
LINE
  5
19F
330
1F
100
AcDbEntity
  8
0-0
  6
JWW_DASHED1
 62
   120
370
     5
100
AcDbLine
 10
100.738756757749
 20
-635.0492782645251
 30
0.0
 11
690.7387567577325
 21
-45.04927826454285
 31
0.0
  0
LINE
  5
1A0
330
1F
100
AcDbEntity
  8
0-0
  6
JWW_DASHED1
 62
   120
370
     5
100
AcDbLine
 10
100.7387567577371
 20
-625.1497833293761
 30
0.0
 11
690.7387567577189
 21
-35.14978332939343
 31
0.0
  0
LINE
  5
1A1
330
1F
100
AcDbEntity
  8
0-0
  6
JWW_DASHED1
 62
   120
370
     5
100
AcDbLine
 10
100.7387567577302
 20
-615.2502883941665
 30
0.0
 11
690.7387567577325
 21
-25.25028839416258
 31
0.0
  0
LINE
  5
1A2
330
1F
100
AcDbEntity
  8
0-0
  6
JWW_DASHED1
 62
   120
370
     5
100
AcDbLine
 10
100.7387567577371
 20
-605.3507934589426
 30
0.0
 11
690.7387567577257
 21
-15.35079345895475
 31
0.0
  0
LINE
  5
1A3
330
1F
100
AcDbEntity
  8
0-0
  6
JWW_DASHED1
 62
   120
370
     5
100
AcDbLine
 10
100.7387567577388
 20
-595.4512985237794
 30
0.0
 11
690.7387567577206
 21
-5.451298523797234
 31
0.0
  0
LINE
  5
1A4
330
1F
100
AcDbEntity
  8
0-0
  6
JWW_DASHED1
 62
   120
370
     5
100
AcDbLine
 10
100.7387567577302
 20
-585.5518035885713
 30
0.0
 11
690.738756757712
 21
4.448196411411018
 31
0.0
  0
LINE
  5
1A5
330
1F
100
AcDbEntity
  8
0-0
  6
JWW_DASHED1
 62
   120
370
     5
100
AcDbLine
 10
100.7387567577234
 20
-575.6523086533613
 30
0.0
 11
690.7387567577274
 21
14.34769134664229
 31
0.0
  0
LINE
  5
1A6
330
1F
100
AcDbEntity
  8
0-0
  6
JWW_DASHED1
 62
   120
370
     5
100
AcDbLine
 10
100.7387567577405
 20
-565.7528137181829
 30
0.0
 11
690.7387567577223
 21
24.24718628179939
 31
0.0
  0
LINE
  5
1A7
330
1F
100
AcDbEntity
  8
0-0
  6
JWW_DASHED1
 62
   120
370
     5
100
AcDbLine
 10
100.7387567577319
 20
-555.8533187829746
 30
0.0
 11
690.7387567577155
 21
34.14668121700764
 31
0.0
  0
LINE
  5
1A8
330
1F
100
AcDbEntity
  8
0-0
  6
JWW_DASHED1
 62
   120
370
     5
100
AcDbLine
 10
100.7387567577268
 20
-545.9538238477646
 30
0.0
 11
690.7387567577291
 21
44.04617615223891
 31
0.0
  0
LINE
  5
1A9
330
1F
100
AcDbEntity
  8
0-0
  6
JWW_DASHED1
 62
   120
370
     5
100
AcDbLine
 10
100.7387567577422
 20
-536.0543289125862
 30
0.0
 11
690.7387567577257
 21
53.94567108739601
 31
0.0
  0
LINE
  5
1AA
330
1F
100
AcDbEntity
  8
0-0
  6
JWW_DASHED1
 62
   120
370
     5
100
AcDbLine
 10
100.7387567577337
 20
-526.154833977378
 30
0.0
 11
690.7387567577172
 21
63.84516602260426
 31
0.0
  0
LINE
  5
1AB
330
1F
100
AcDbEntity
  8
0-0
  6
JWW_DASHED1
 62
   120
370
     5
100
AcDbLine
 10
100.7387567577285
 20
-516.2553390421676
 30
0.0
 11
690.7387567577325
 21
73.74466095783639
 31
0.0
  0
LINE
  5
1AC
330
1F
100
AcDbEntity
  8
0-0
  6
JWW_DASHED1
 62
   120
370
     5
100
AcDbLine
 10
100.7387567577439
 20
-506.3558441069896
 30
0.0
 11
690.7387567577274
 21
83.64415589299263
 31
0.0
  0
LINE
  5
1AD
330
1F
100
AcDbEntity
  8
0-0
  6
JWW_DASHED1
 62
   120
370
     5
100
AcDbLine
 10
100.7387567577371
 20
-496.4563491717814
 30
0.0
 11
690.7387567577189
 21
93.54365082820088
 31
0.0
  0
LINE
  5
1AE
330
1F
100
AcDbEntity
  8
0-0
  6
JWW_DASHED1
 62
   120
370
     5
100
AcDbLine
 10
100.7387567577268
 20
-486.5568542366294
 30
0.0
 11
690.7387567577308
 21
103.4431457633742
 31
0.0
  0
LINE
  5
1AF
330
1F
100
AcDbEntity
  8
0-0
  6
JWW_DASHED1
 62
   120
370
     5
100
AcDbLine
 10
100.7387567577473
 20
-476.6573593013925
 30
0.0
 11
690.7387567577291
 21
113.3426406985892
 31
0.0
  0
LINE
  5
1B0
330
1F
100
AcDbEntity
  8
0-0
  6
JWW_DASHED1
 62
   120
370
     5
100
AcDbLine
 10
100.7387567577388
 20
-466.7578643661847
 30
0.0
 11
690.7387567577206
 21
123.2421356337975
 31
0.0
  0
LINE
  5
1B1
330
1F
100
AcDbEntity
  8
0-0
  6
JWW_DASHED1
 62
   120
370
     5
100
AcDbLine
 10
100.7387567577285
 20
-456.8583694310323
 30
0.0
 11
690.7387567577325
 21
133.1416305689708
 31
0.0
  0
LINE
  5
1B2
330
1F
100
AcDbEntity
  8
0-0
  6
JWW_DASHED1
 62
   120
370
     5
100
AcDbLine
 10
100.738756757749
 20
-446.9588744957964
 30
0.0
 11
690.7387567577325
 21
143.0411255041863
 31
0.0
  0
LINE
  5
1B3
330
1F
100
AcDbEntity
  8
0-0
  6
JWW_DASHED1
 62
   120
370
     5
100
AcDbLine
 10
100.7387567577405
 20
-437.0593795605881
 30
0.0
 11
690.7387567577223
 21
152.9406204393941
 31
0.0
  0
LINE
  5
1B4
330
1F
100
AcDbEntity
  8
0-0
  6
JWW_DASHED1
 62
   120
370
     5
100
AcDbLine
 10
100.7387567577302
 20
-427.1598846254361
 30
0.0
 11
690.7387567577189
 21
162.8401153745521
 31
0.0
  0
LINE
  5
1B5
330
1F
100
AcDbEntity
  8
0-0
  6
JWW_DASHED1
 62
   120
370
     5
100
AcDbLine
 10
100.7387567577234
 20
-417.2603896902274
 30
0.0
 11
690.7387567577257
 21
172.7396103097757
 31
0.0
  0
LINE
  5
1B6
330
1F
100
AcDbEntity
  8
0-0
  6
JWW_DASHED1
 62
   120
370
     5
100
AcDbLine
 10
100.7387567577439
 20
-407.3608947549915
 30
0.0
 11
690.7387567577257
 21
182.6391052449907
 31
0.0
  0
LINE
  5
1B7
330
1F
100
AcDbEntity
  8
0-0
  6
JWW_DASHED1
 62
   120
370
     5
100
AcDbLine
 10
100.7387567577302
 20
-397.4613998198425
 30
0.0
 11
690.738756757712
 21
192.5386001801402
 31
0.0
  0
LINE
  5
1B8
330
1F
100
AcDbEntity
  8
0-0
  6
JWW_DASHED1
 62
   120
370
     5
100
AcDbLine
 10
100.7387567577251
 20
-387.5619048846308
 30
0.0
 11
690.7387567577291
 21
202.4380951153727
 31
0.0
  0
LINE
  5
1B9
330
1F
100
AcDbEntity
  8
0-0
  6
JWW_DASHED1
 62
   120
370
     5
100
AcDbLine
 10
100.7387567577439
 20
-377.6624099493953
 30
0.0
 11
690.7387567577274
 21
212.3375900505874
 31
0.0
  0
LINE
  5
1BA
330
1F
100
AcDbEntity
  8
0-0
  6
JWW_DASHED1
 62
   120
370
     5
100
AcDbLine
 10
100.7387567577319
 20
-367.7629150142459
 30
0.0
 11
690.7387567577155
 21
222.2370849857364
 31
0.0
  0
LINE
  5
1BB
330
1F
100
AcDbEntity
  8
0-0
  6
JWW_DASHED1
 62
   120
370
     5
100
AcDbLine
 10
100.7387567577268
 20
-357.8634200790342
 30
0.0
 11
690.7387567577325
 21
232.1365799209698
 31
0.0
  0
LINE
  5
1BC
330
1F
100
AcDbEntity
  8
0-0
  6
JWW_DASHED1
 62
   120
370
     5
100
AcDbLine
 10
100.7387567577473
 20
-347.9639251437982
 30
0.0
 11
690.7387567577291
 21
242.036074856184
 31
0.0
  0
LINE
  5
1BD
330
1F
100
AcDbEntity
  8
0-0
  6
JWW_DASHED1
 62
   120
370
     5
100
AcDbLine
 10
100.7387567577337
 20
-338.0644302086492
 30
0.0
 11
690.7387567577172
 21
251.935569791333
 31
0.0
  0
LINE
  5
1BE
330
1F
100
AcDbEntity
  8
0-0
  6
JWW_DASHED1
 62
   120
370
     5
100
AcDbLine
 10
100.7387567577302
 20
-328.1649352734368
 30
0.0
 11
690.7387567577189
 21
261.8350647265506
 31
0.0
  0
LINE
  5
1BF
330
1F
100
AcDbEntity
  8
0-0
  6
JWW_DASHED1
 62
   120
370
     5
100
AcDbLine
 10
100.7387567577371
 20
-318.2654403382131
 30
0.0
 11
690.7387567577257
 21
271.7345596617747
 31
0.0
  0
LINE
  5
1C0
330
1F
100
AcDbEntity
  8
0-0
  6
JWW_DASHED1
 62
   120
370
     5
100
AcDbLine
 10
100.7387567577371
 20
-308.3659454030526
 30
0.0
 11
690.7387567577189
 21
281.6340545969296
 31
0.0
  0
LINE
  5
1C1
330
1F
100
AcDbEntity
  8
0-0
  6
JWW_DASHED1
 62
   120
370
     5
100
AcDbLine
 10
100.7387567577285
 20
-298.4664504678444
 30
0.0
 11
690.7387567577103
 21
291.5335495321374
 31
0.0
  0
LINE
  5
1C2
330
1F
100
AcDbEntity
  8
0-0
  6
JWW_DASHED1
 62
   120
370
     5
100
AcDbLine
 10
100.7387567577473
 20
-288.5669555326638
 30
0.0
 11
690.7387567577291
 21
301.4330444673184
 31
0.0
  0
LINE
  5
1C3
330
1F
100
AcDbEntity
  8
0-0
  6
JWW_DASHED1
 62
   120
370
     5
100
AcDbLine
 10
100.7387567577388
 20
-278.667460597456
 30
0.0
 11
690.7387567577223
 21
311.3325394025267
 31
0.0
  0
LINE
  5
1C4
330
1F
100
AcDbEntity
  8
0-0
  6
JWW_DASHED1
 62
   120
370
     5
100
AcDbLine
 10
100.7387567577302
 20
-268.7679656622478
 30
0.0
 11
690.738756757712
 21
321.232034337734
 31
0.0
  0
LINE
  5
1C5
330
1F
100
AcDbEntity
  8
0-0
  6
JWW_DASHED1
 62
   120
370
     5
100
AcDbLine
 10
100.7387567577388
 20
-258.8684707270779
 30
0.0
 11
690.7387567577257
 21
331.1315292729095
 31
0.0
  0
LINE
  5
1C6
330
1F
100
AcDbEntity
  8
0-0
  6
JWW_DASHED1
 62
   120
370
     5
100
AcDbLine
 10
100.7387567577405
 20
-248.9689757918594
 30
0.0
 11
690.738756757724
 21
341.0310242081229
 31
0.0
  0
LINE
  5
1C7
330
1F
100
AcDbEntity
  8
0-0
  6
JWW_DASHED1
 62
   120
370
     5
100
AcDbLine
 10
100.7387567577337
 20
-239.0694808566511
 30
0.0
 11
690.7387567577155
 21
350.9305191433307
 31
0.0
  0
LINE
  5
1C8
330
1F
100
AcDbEntity
  8
0-0
  6
JWW_DASHED1
 62
   120
370
     5
100
AcDbLine
 10
100.7387567577251
 20
-229.169985921497
 30
0.0
 11
690.7387567577291
 21
360.8300140785065
 31
0.0
  0
LINE
  5
1C9
330
1F
100
AcDbEntity
  8
0-0
  6
JWW_DASHED1
 62
   120
370
     5
100
AcDbLine
 10
100.7387567577439
 20
-219.2704909862628
 30
0.0
 11
690.7387567577257
 21
370.7295090137199
 31
0.0
  0
LINE
  5
1CA
330
1F
100
AcDbEntity
  8
0-0
  6
JWW_DASHED1
 62
   120
370
     5
100
AcDbLine
 10
100.7387567577337
 20
-209.3709960510545
 30
0.0
 11
690.7387567577172
 21
380.6290039489277
 31
0.0
  0
LINE
  5
1CB
330
1F
100
AcDbEntity
  8
0-0
  6
JWW_DASHED1
 62
   120
370
     5
100
AcDbLine
 10
100.7387567577268
 20
-199.4715011159
 30
0.0
 11
690.7387567577308
 21
390.5284988841036
 31
0.0
  0
LINE
  5
1CC
330
1F
100
AcDbEntity
  8
0-0
  6
JWW_DASHED1
 62
   120
370
     5
100
AcDbLine
 10
100.7387567577456
 20
-189.5720061806662
 30
0.0
 11
690.7387567577274
 21
400.4279938193161
 31
0.0
  0
LINE
  5
1CD
330
1F
100
AcDbEntity
  8
0-0
  6
JWW_DASHED1
 62
   120
370
     5
100
AcDbLine
 10
100.7387567577371
 20
-179.6725112454579
 30
0.0
 11
690.7387567577189
 21
410.3274887545239
 31
0.0
  0
LINE
  5
1CE
330
1F
100
AcDbEntity
  8
0-0
  6
JWW_DASHED1
 62
   120
370
     5
100
AcDbLine
 10
100.7387567577302
 20
-169.7730163103034
 30
0.0
 11
690.7387567577325
 21
420.2269836897002
 31
0.0
  0
LINE
  5
1CF
330
1F
100
AcDbEntity
  8
0-0
  6
JWW_DASHED1
 62
   120
370
     5
100
AcDbLine
 10
100.7387567577473
 20
-159.8735213750695
 30
0.0
 11
690.7387567577291
 21
430.1264786249127
 31
0.0
  0
LINE
  5
1D0
330
1F
100
AcDbEntity
  8
0-0
  6
JWW_DASHED1
 62
   120
370
     5
100
AcDbLine
 10
100.7387567577388
 20
-149.9740264398617
 30
0.0
 11
690.7387567577223
 21
440.025973560121
 31
0.0
  0
LINE
  5
1D1
330
1F
100
AcDbEntity
  8
0-0
  6
JWW_DASHED1
 62
   120
370
     5
100
AcDbLine
 10
100.7387567577319
 20
-140.0745315047067
 30
0.0
 11
690.7387567577206
 21
449.9254684952815
 31
0.0
  0
LINE
  5
1D2
330
1F
100
AcDbEntity
  8
0-0
  6
JWW_DASHED1
 62
   120
370
     5
100
AcDbLine
 10
100.7387567577234
 20
-130.175036569498
 30
0.0
 11
690.7387567577274
 21
459.8249634305051
 31
0.0
  0
LINE
  5
1D3
330
1F
100
AcDbEntity
  8
0-0
  6
JWW_DASHED1
 62
   120
370
     5
100
AcDbLine
 10
100.7387567577405
 20
-120.2755416342647
 30
0.0
 11
690.738756757724
 21
469.7244583657172
 31
0.0
  0
LINE
  5
1D4
330
1F
100
AcDbEntity
  8
0-0
  6
JWW_DASHED1
 62
   120
370
     5
100
AcDbLine
 10
100.7387567577285
 20
-110.3760466991157
 30
0.0
 11
690.7387567577103
 21
479.6239533008666
 31
0.0
  0
LINE
  5
1D5
330
1F
100
AcDbEntity
  8
0-0
  6
JWW_DASHED1
 62
   120
370
     5
100
AcDbLine
 10
100.7387567577268
 20
-100.4765517639014
 30
0.0
 11
690.7387567577308
 21
489.5234482361021
 31
0.0
  0
LINE
  5
1D6
330
1F
100
AcDbEntity
  8
0-0
  6
JWW_DASHED1
 62
   120
370
     5
100
AcDbLine
 10
100.7387567577388
 20
-90.5770568287273
 30
0.0
 11
690.7387567577223
 21
499.4229431712554
 31
0.0
  0
LINE
  5
1D7
330
1F
100
AcDbEntity
  8
0-0
  6
JWW_DASHED1
 62
   120
370
     5
100
AcDbLine
 10
100.7387567577302
 20
-80.67756189351904
 30
0.0
 11
690.738756757712
 21
509.3224381064632
 31
0.0
  0
LINE
  5
1D8
330
1F
100
AcDbEntity
  8
0-0
  6
JWW_DASHED1
 62
   120
370
     5
100
AcDbLine
 10
100.7387567577285
 20
-70.7780669583044
 30
0.0
 11
690.7387567577325
 21
519.2219330416991
 31
0.0
  0
LINE
  5
1D9
330
1F
100
AcDbEntity
  8
0-0
  6
JWW_DASHED1
 62
   120
370
     5
100
AcDbLine
 10
100.7387567577405
 20
-60.87857202313025
 30
0.0
 11
690.738756757724
 21
529.1214279768516
 31
0.0
  0
LINE
  5
1DA
330
1F
100
AcDbEntity
  8
0-0
  6
JWW_DASHED1
 62
   120
370
     5
100
AcDbLine
 10
100.7387567577319
 20
-50.97907708792242
 30
0.0
 11
690.7387567577155
 21
539.0209229120599
 31
0.0
  0
LINE
  5
1DB
330
1F
100
AcDbEntity
  8
0-0
  6
JWW_DASHED1
 62
   120
370
     5
100
AcDbLine
 10
100.7387567577302
 20
-41.07958215270777
 30
0.0
 11
690.7387567577189
 21
548.92041784728
 31
0.0
  0
LINE
  5
1DC
330
1F
100
AcDbEntity
  8
0-0
  6
JWW_DASHED1
 62
   120
370
     5
100
AcDbLine
 10
100.7387567577439
 20
-31.18008721753405
 30
0.0
 11
690.7387567577257
 21
558.8199127824486
 31
0.0
  0
LINE
  5
1DD
330
1F
100
AcDbEntity
  8
0-0
  6
JWW_DASHED1
 62
   120
370
     5
100
AcDbLine
 10
100.7387567577337
 20
-21.28059228232623
 30
0.0
 11
690.7387567577172
 21
568.7194077176564
 31
0.0
  0
LINE
  5
1DE
330
1F
100
AcDbEntity
  8
0-0
  6
JWW_DASHED1
 62
   120
370
     5
100
AcDbLine
 10
100.7387567577268
 20
-11.38109734711797
 30
0.0
 11
690.7387567577086
 21
578.6189026528642
 31
0.0
  0
LINE
  5
1DF
330
1F
100
AcDbEntity
  8
0-0
  6
JWW_DASHED1
 62
   120
370
     5
100
AcDbLine
 10
100.7387567577456
 20
-1.48160241193743
 30
0.0
 11
690.7387567577274
 21
588.5183975880448
 31
0.0
  0
LINE
  5
1E0
330
1F
100
AcDbEntity
  8
0-0
  6
JWW_DASHED1
 62
   120
370
     5
100
AcDbLine
 10
100.7387567577371
 20
8.417892523270822
 30
0.0
 11
690.7387567577189
 21
598.417892523253
 31
0.0
  0
LINE
  5
1E1
330
1F
100
AcDbEntity
  8
0-0
  6
JWW_DASHED1
 62
   120
370
     5
100
AcDbLine
 10
100.7387567577285
 20
18.31738745847865
 30
0.0
 11
690.738756757712
 21
608.3173874584609
 31
0.0
  0
LINE
  5
1E2
330
1F
100
AcDbEntity
  8
0-0
  6
JWW_DASHED1
 62
   120
370
     5
100
AcDbLine
 10
100.7387567577234
 20
28.21688239363532
 30
0.0
 11
690.7387567577274
 21
618.2168823936393
 31
0.0
  0
LINE
  5
1E3
330
1F
100
AcDbEntity
  8
0-0
  6
JWW_DASHED1
 62
   120
370
     5
100
AcDbLine
 10
100.7387567577388
 20
38.11637732886744
 30
0.0
 11
690.7387567577223
 21
628.1163773288497
 31
0.0
  0
LINE
  5
1E4
330
1F
100
AcDbEntity
  8
0-0
  6
JWW_DASHED1
 62
   120
370
     5
100
AcDbLine
 10
100.7387567577302
 20
48.01587226407527
 30
0.0
 11
690.738756757712
 21
638.0158722640575
 31
0.0
  0
LINE
  5
1E5
330
1F
100
AcDbEntity
  8
0-0
  6
JWW_DASHED1
 62
   120
370
     5
100
AcDbLine
 10
100.7387567577268
 20
57.91536719923236
 30
0.0
 11
690.7387567577291
 21
647.9153671992359
 31
0.0
  0
LINE
  5
1E6
330
1F
100
AcDbEntity
  8
0-0
  6
JWW_DASHED1
 62
   120
370
     5
100
AcDbLine
 10
100.7387567577405
 20
67.81486213446406
 30
0.0
 11
690.738756757724
 21
657.8148621344463
 31
0.0
  0
LINE
  5
1E7
330
1F
100
AcDbEntity
  8
0-0
  6
JWW_DASHED1
 62
   120
370
     5
100
AcDbLine
 10
100.7387567577337
 20
77.71435706967189
 30
0.0
 11
690.7387567577155
 21
667.7143570696545
 31
0.0
  0
LINE
  5
1E8
330
1F
100
AcDbEntity
  8
0-0
  6
JWW_DASHED1
 62
   120
370
     5
100
AcDbLine
 10
100.7387567577285
 20
87.61385200482941
 30
0.0
 11
690.7387567577325
 21
677.6138520048326
 31
0.0
  0
LINE
  5
1E9
330
1F
100
AcDbEntity
  8
0-0
  6
JWW_DASHED1
 62
   120
370
     5
100
AcDbLine
 10
100.7387567577439
 20
97.51334694006026
 30
0.0
 11
690.7387567577257
 21
687.5133469400429
 31
0.0
  0
LINE
  5
1EA
330
1F
100
AcDbEntity
  8
0-0
  6
JWW_DASHED1
 62
   120
370
     5
100
AcDbLine
 10
100.7387567577302
 20
107.4128418752097
 30
0.0
 11
690.738756757712
 21
697.4128418751919
 31
0.0
  0
LINE
  5
1EB
330
1F
100
AcDbEntity
  8
0-0
  6
JWW_DASHED1
 62
   120
370
     5
100
AcDbLine
 10
100.7387567577302
 20
117.312336810426
 30
0.0
 11
690.7387567577189
 21
707.3123368104139
 31
0.0
  0
LINE
  5
1EC
330
1F
100
AcDbEntity
  8
0-0
  6
JWW_DASHED1
 62
   120
370
     5
100
AcDbLine
 10
100.7387567577371
 20
127.2118317456496
 30
0.0
 11
690.7387567577257
 21
717.2118317456378
 31
0.0
  0
LINE
  5
1ED
330
1F
100
AcDbEntity
  8
0-0
  6
JWW_DASHED1
 62
   120
370
     5
100
AcDbLine
 10
100.7387567577319
 20
137.1113266808063
 30
0.0
 11
690.7387567577155
 21
727.1113266807886
 31
0.0
  0
LINE
  5
1EE
330
1F
100
AcDbEntity
  8
0-0
  6
JWW_DASHED1
 62
   120
370
     5
100
AcDbLine
 10
100.7387567577234
 20
147.0108216160141
 30
0.0
 11
690.7387567577069
 21
737.0108216159967
 31
0.0
  0
LINE
  5
1EF
330
1F
100
AcDbEntity
  8
0-0
  6
JWW_DASHED1
 62
   120
370
     5
100
AcDbLine
 10
100.7387567577251
 20
156.9103165512313
 30
0.0
 11
690.7387567577291
 21
746.9103165512345
 31
0.0
  0
LINE
  5
1F0
330
1F
100
AcDbEntity
  8
0-0
  6
JWW_DASHED1
 62
   120
370
     5
100
AcDbLine
 10
100.7387567577354
 20
166.8098114864029
 30
0.0
 11
690.7387567577172
 21
756.8098114863851
 31
0.0
  0
LINE
  5
1F1
330
1F
100
AcDbEntity
  8
0-0
  6
JWW_DASHED1
 62
   120
370
     5
100
AcDbLine
 10
100.7387567577268
 20
176.7093064216107
 30
0.0
 11
690.7387567577086
 21
766.7093064215929
 31
0.0
  0
LINE
  5
1F2
330
1F
100
AcDbEntity
  8
0-0
  6
JWW_DASHED1
 62
   120
370
     5
100
AcDbLine
 10
100.7387567577268
 20
186.6088013568279
 30
0.0
 11
690.7387567577308
 21
776.6088013568313
 31
0.0
  0
LINE
  5
1F3
330
1F
100
AcDbEntity
  8
0-0
  6
JWW_DASHED1
 62
   120
370
     5
100
AcDbLine
 10
100.7387567577371
 20
196.5082962919996
 30
0.0
 11
690.7387567577189
 21
786.5082962919818
 31
0.0
  0
LINE
  5
1F4
330
1F
100
AcDbEntity
  8
0-0
  6
JWW_DASHED1
 62
   120
370
     5
100
AcDbLine
 10
100.7387567577285
 20
206.4077912272074
 30
0.0
 11
690.738756757712
 21
796.4077912271896
 31
0.0
  0
LINE
  5
1F5
330
1F
100
AcDbEntity
  8
0-0
  6
JWW_DASHED1
 62
   120
370
     5
100
AcDbLine
 10
100.7387567577302
 20
216.3072861624246
 30
0.0
 11
690.7387567577325
 21
806.3072861624286
 31
0.0
  0
LINE
  5
1F6
330
1F
100
AcDbEntity
  8
0-0
  6
JWW_DASHED1
 62
   120
370
     5
100
AcDbLine
 10
100.7387567577388
 20
226.2067810975961
 30
0.0
 11
690.7387567577223
 21
816.2067810975784
 31
0.0
  0
LINE
  5
1F7
330
1F
100
AcDbEntity
  8
0-0
  6
JWW_DASHED1
 62
   120
370
     5
100
AcDbLine
 10
100.7387567577302
 20
236.106276032804
 30
0.0
 11
690.738756757712
 21
826.1062760327862
 31
0.0
  0
LINE
  5
1F8
330
1F
100
AcDbEntity
  8
0-0
  6
JWW_DASHED1
 62
   120
370
     5
100
AcDbLine
 10
100.7387567577319
 20
246.0057709680216
 30
0.0
 11
690.7387567577189
 21
836.0057709680094
 31
0.0
  0
LINE
  5
1F9
330
1F
100
AcDbEntity
  8
0-0
  6
JWW_DASHED1
 62
   120
370
     5
100
AcDbLine
 10
100.7387567577405
 20
255.9052659031928
 30
0.0
 11
690.738756757724
 21
845.9052659031753
 31
0.0
  0
LINE
  5
1FA
330
1F
100
AcDbEntity
  8
0-0
  6
JWW_DASHED1
 62
   120
370
     5
100
AcDbLine
 10
100.7387567577337
 20
265.804760838401
 30
0.0
 11
690.7387567577155
 21
855.8047608383829
 31
0.0
  0
LINE
  5
1FB
330
1F
100
AcDbEntity
  8
0-0
  6
JWW_DASHED1
 62
   120
370
     5
100
AcDbLine
 10
100.7387567577234
 20
275.7042557736085
 30
0.0
 11
690.7387567577069
 21
865.704255773591
 31
0.0
  0
LINE
  5
1FC
330
1F
100
AcDbEntity
  8
0-0
  6
JWW_DASHED1
 62
   120
370
     5
100
AcDbLine
 10
100.7387567577439
 20
285.603750708789
 30
0.0
 11
690.7387567577257
 21
875.6037507087715
 31
0.0
  0
LINE
  5
1FD
330
1F
100
AcDbEntity
  8
0-0
  6
JWW_DASHED1
 62
   120
370
     5
100
AcDbLine
 10
100.7387567577354
 20
295.5032456439972
 30
0.0
 11
690.7387567577172
 21
885.5032456439793
 31
0.0
  0
LINE
  5
1FE
330
1F
100
AcDbEntity
  8
0-0
  6
JWW_DASHED1
 62
   120
370
     5
100
AcDbLine
 10
100.7387567577234
 20
305.4027405791757
 30
0.0
 11
690.7387567577069
 21
895.4027405791581
 31
0.0
  0
LINE
  5
1FF
330
1F
100
AcDbEntity
  8
0-0
  6
JWW_DASHED1
 62
   120
370
     5
100
AcDbLine
 10
100.7387567577234
 20
315.3022355143647
 30
0.0
 11
690.7387567577274
 21
905.3022355143682
 31
0.0
  0
LINE
  5
200
330
1F
100
AcDbEntity
  8
0-0
  6
JWW_DASHED1
 62
   120
370
     5
100
AcDbLine
 10
100.7387567577371
 20
325.2017304495939
 30
0.0
 11
683.8083743677197
 21
908.2713480595761
 31
0.0
  0
LINE
  5
201
330
1F
100
AcDbEntity
  8
0-0
  6
JWW_DASHED1
 62
   120
370
     5
100
AcDbLine
 10
100.7387567577251
 20
335.1012253847429
 30
0.0
 11
673.9088794325698
 21
908.2713480595883
 31
0.0
  0
LINE
  5
202
330
1F
100
AcDbEntity
  8
0-0
  6
JWW_DASHED1
 62
   120
370
     5
100
AcDbLine
 10
100.7387567577268
 20
345.0007203199613
 30
0.0
 11
664.0093844973313
 21
908.2713480595654
 31
0.0
  0
LINE
  5
203
330
1F
100
AcDbEntity
  8
0-0
  6
JWW_DASHED1
 62
   120
370
     5
100
AcDbLine
 10
100.7387567577388
 20
354.9002152551905
 30
0.0
 11
654.1098895621218
 21
908.2713480595729
 31
0.0
  0
LINE
  5
204
330
1F
100
AcDbEntity
  8
0-0
  6
JWW_DASHED1
 62
   120
370
     5
100
AcDbLine
 10
100.7387567577268
 20
364.7997101903395
 30
0.0
 11
644.210394626972
 21
908.2713480595854
 31
0.0
  0
LINE
  5
205
330
1F
100
AcDbEntity
  8
0-0
  6
JWW_DASHED1
 62
   120
370
     5
100
AcDbLine
 10
100.7387567577285
 20
374.6992051255584
 30
0.0
 11
634.3108996917351
 21
908.2713480595637
 31
0.0
  0
LINE
  5
206
330
1F
100
AcDbEntity
  8
0-0
  6
JWW_DASHED1
 62
   120
370
     5
100
AcDbLine
 10
100.7387567577405
 20
384.5987000607871
 30
0.0
 11
624.4114047565239
 21
908.2713480595701
 31
0.0
  0
LINE
  5
207
330
1F
100
AcDbEntity
  8
0-0
  6
JWW_DASHED1
 62
   120
370
     5
100
AcDbLine
 10
100.7387567577285
 20
394.4981949959361
 30
0.0
 11
614.511909821374
 21
908.2713480595825
 31
0.0
  0
LINE
  5
208
330
1F
100
AcDbEntity
  8
0-0
  6
JWW_DASHED1
 62
   120
370
     5
100
AcDbLine
 10
100.7387567577319
 20
404.3976899311554
 30
0.0
 11
604.6124148861509
 21
908.2713480595746
 31
0.0
  0
LINE
  5
209
330
1F
100
AcDbEntity
  8
0-0
  6
JWW_DASHED1
 62
   120
370
     5
100
AcDbLine
 10
100.7387567577388
 20
414.297184866379
 30
0.0
 11
594.7129199509277
 21
908.2713480595671
 31
0.0
  0
LINE
  5
20A
330
1F
100
AcDbEntity
  8
0-0
  6
JWW_DASHED1
 62
   120
370
     5
100
AcDbLine
 10
100.7387567577302
 20
424.1966798015332
 30
0.0
 11
584.8134250157779
 21
908.2713480595795
 31
0.0
  0
LINE
  5
20B
330
1F
100
AcDbEntity
  8
0-0
  6
JWW_DASHED1
 62
   120
370
     5
100
AcDbLine
 10
100.7387567577234
 20
434.0961747367405
 30
0.0
 11
574.91393008057
 21
908.2713480595876
 31
0.0
  0
LINE
  5
20C
330
1F
100
AcDbEntity
  8
0-0
  6
JWW_DASHED1
 62
   120
370
     5
100
AcDbLine
 10
100.7387567577251
 20
443.9956696719603
 30
0.0
 11
565.0144351453332
 21
908.2713480595671
 31
0.0
  0
LINE
  5
20D
330
1F
100
AcDbEntity
  8
0-0
  6
JWW_DASHED1
 62
   120
370
     5
100
AcDbLine
 10
100.7387567577337
 20
453.8951646071293
 30
0.0
 11
555.11494021018
 21
908.2713480595763
 31
0.0
  0
LINE
  5
20E
330
1F
100
AcDbEntity
  8
0-0
  6
JWW_DASHED1
 62
   120
370
     5
100
AcDbLine
 10
100.7387567577251
 20
463.7946595423372
 30
0.0
 11
545.2154452749721
 21
908.2713480595846
 31
0.0
  0
LINE
  5
20F
330
1F
100
AcDbEntity
  8
0-0
  6
JWW_DASHED1
 62
   120
370
     5
100
AcDbLine
 10
100.7387567577285
 20
473.6941544775573
 30
0.0
 11
535.3159503397353
 21
908.2713480595654
 31
0.0
  0
LINE
  5
210
330
1F
100
AcDbEntity
  8
0-0
  6
JWW_DASHED1
 62
   120
370
     5
100
AcDbLine
 10
100.7387567577354
 20
483.5936494127264
 30
0.0
 11
525.416455404582
 21
908.2713480595735
 31
0.0
  0
LINE
  5
211
330
1F
100
AcDbEntity
  8
0-0
  6
JWW_DASHED1
 62
   120
370
     5
100
AcDbLine
 10
100.7387567577268
 20
493.4931443479342
 30
0.0
 11
515.5169604693742
 21
908.2713480595814
 31
0.0
  0
LINE
  5
212
330
1F
100
AcDbEntity
  8
0-0
  6
JWW_DASHED1
 62
   120
370
     5
100
AcDbLine
 10
100.7387567577302
 20
503.392639283154
 30
0.0
 11
505.6174655341391
 21
908.2713480595627
 31
0.0
  0
LINE
  5
213
330
1F
100
AcDbEntity
  8
0-0
  6
JWW_DASHED1
 62
   120
370
     5
100
AcDbLine
 10
100.7387567577371
 20
513.2921342183225
 30
0.0
 11
495.7179705989859
 21
908.2713480595705
 31
0.0
  0
LINE
  5
214
330
1F
100
AcDbEntity
  8
0-0
  6
JWW_DASHED1
 62
   120
370
     5
100
AcDbLine
 10
100.7387567577285
 20
523.1916291535308
 30
0.0
 11
485.8184756637763
 21
908.271348059578
 31
0.0
  0
LINE
  5
215
330
1F
100
AcDbEntity
  8
0-0
  6
JWW_DASHED1
 62
   120
370
     5
100
AcDbLine
 10
100.7387567577337
 20
533.091124088751
 30
0.0
 11
475.9189807285532
 21
908.2713480595705
 31
0.0
  0
LINE
  5
216
330
1F
100
AcDbEntity
  8
0-0
  6
JWW_DASHED1
 62
   120
370
     5
100
AcDbLine
 10
100.7387567577405
 20
542.9906190239192
 30
0.0
 11
466.019485793388
 21
908.2713480595671
 31
0.0
  0
LINE
  5
217
330
1F
100
AcDbEntity
  8
0-0
  6
JWW_DASHED1
 62
   120
370
     5
100
AcDbLine
 10
100.7387567577302
 20
552.8901139591275
 30
0.0
 11
456.1199908581784
 21
908.2713480595752
 31
0.0
  0
LINE
  5
218
330
1F
100
AcDbEntity
  8
0-0
  6
JWW_DASHED1
 62
   120
370
     5
100
AcDbLine
 10
100.7387567577302
 20
562.7896088942892
 30
0.0
 11
446.2204959230047
 21
908.2713480595627
 31
0.0
  0
LINE
  5
219
330
1F
100
AcDbEntity
  8
0-0
  6
JWW_DASHED1
 62
   120
370
     5
100
AcDbLine
 10
100.7387567577388
 20
572.6891038295129
 30
0.0
 11
436.3210009877901
 21
908.2713480595642
 31
0.0
  0
LINE
  5
21A
330
1F
100
AcDbEntity
  8
0-0
  6
JWW_DASHED1
 62
   120
370
     5
100
AcDbLine
 10
100.7387567577337
 20
582.5885987647241
 30
0.0
 11
426.4215060525822
 21
908.2713480595722
 31
0.0
  0
LINE
  5
21B
330
1F
100
AcDbEntity
  8
0-0
  6
JWW_DASHED1
 62
   120
370
     5
100
AcDbLine
 10
100.7387567577337
 20
592.4880936998859
 30
0.0
 11
416.522011117417
 21
908.2713480595688
 31
0.0
  0
LINE
  5
21C
330
1F
100
AcDbEntity
  8
0-0
  6
JWW_DASHED1
 62
   120
370
     5
100
AcDbLine
 10
100.7387567577251
 20
602.3875886350941
 30
0.0
 11
406.622516182199
 21
908.2713480595688
 31
0.0
  0
LINE
  5
21D
330
1F
100
AcDbEntity
  8
0-0
  6
JWW_DASHED1
 62
   120
370
     5
100
AcDbLine
 10
100.7387567577354
 20
612.2870835703206
 30
0.0
 11
396.7230212469843
 21
908.2713480595695
 31
0.0
  0
LINE
  5
21E
330
1F
100
AcDbEntity
  8
0-0
  6
JWW_DASHED1
 62
   120
370
     5
100
AcDbLine
 10
100.7387567577234
 20
622.1865785054697
 30
0.0
 11
386.8235263118345
 21
908.2713480595814
 31
0.0
  0
LINE
  5
21F
330
1F
100
AcDbEntity
  8
0-0
  6
JWW_DASHED1
 62
   120
370
     5
100
AcDbLine
 10
100.7387567577268
 20
632.0860734406907
 30
0.0
 11
376.9240313766028
 21
908.2713480595667
 31
0.0
  0
LINE
  5
220
330
1F
100
AcDbEntity
  8
0-0
  6
JWW_DASHED1
 62
   120
370
     5
100
AcDbLine
 10
100.7387567577371
 20
641.9855683759173
 30
0.0
 11
367.0245364413864
 21
908.2713480595661
 31
0.0
  0
LINE
  5
221
330
1F
100
AcDbEntity
  8
0-0
  6
JWW_DASHED1
 62
   120
370
     5
100
AcDbLine
 10
100.7387567577251
 20
651.8850633110663
 30
0.0
 11
357.1250415062366
 21
908.271348059579
 31
0.0
  0
LINE
  5
222
330
1F
100
AcDbEntity
  8
0-0
  6
JWW_DASHED1
 62
   120
370
     5
100
AcDbLine
 10
100.7387567577302
 20
661.7845582462878
 30
0.0
 11
347.2255465710066
 21
908.2713480595644
 31
0.0
  0
LINE
  5
223
330
1F
100
AcDbEntity
  8
0-0
  6
JWW_DASHED1
 62
   120
370
     5
100
AcDbLine
 10
100.7387567577405
 20
671.684053181514
 30
0.0
 11
337.3260516357902
 21
908.2713480595633
 31
0.0
  0
LINE
  5
224
330
1F
100
AcDbEntity
  8
0-0
  6
JWW_DASHED1
 62
   120
370
     5
100
AcDbLine
 10
100.7387567577268
 20
681.5835481166629
 30
0.0
 11
327.4265567006387
 21
908.2713480595756
 31
0.0
  0
LINE
  5
225
330
1F
100
AcDbEntity
  8
0-0
  6
JWW_DASHED1
 62
   120
370
     5
100
AcDbLine
 10
100.7387567577319
 20
691.4830430518848
 30
0.0
 11
317.5270617654155
 21
908.2713480595678
 31
0.0
  0
LINE
  5
226
330
1F
100
AcDbEntity
  8
0-0
  6
JWW_DASHED1
 62
   120
370
     5
100
AcDbLine
 10
100.7387567577405
 20
701.3825379871084
 30
0.0
 11
307.6275668301923
 21
908.2713480595603
 31
0.0
  0
LINE
  5
227
330
1F
100
AcDbEntity
  8
0-0
  6
JWW_DASHED1
 62
   120
370
     5
100
AcDbLine
 10
100.7387567577285
 20
711.2820329222595
 30
0.0
 11
297.7280718950425
 21
908.2713480595727
 31
0.0
  0
LINE
  5
228
330
1F
100
AcDbEntity
  8
0-0
  6
JWW_DASHED1
 62
   120
370
     5
100
AcDbLine
 10
100.73875675772
 20
721.1815278574678
 30
0.0
 11
287.8285769598347
 21
908.2713480595808
 31
0.0
  0
LINE
  5
229
330
1F
100
AcDbEntity
  8
0-0
  6
JWW_DASHED1
 62
   120
370
     5
100
AcDbLine
 10
100.7387567577268
 20
731.0810227926897
 30
0.0
 11
277.9290820246047
 21
908.2713480595684
 31
0.0
  0
LINE
  5
22A
330
1F
100
AcDbEntity
  8
0-0
  6
JWW_DASHED1
 62
   120
370
     5
100
AcDbLine
 10
100.7387567577302
 20
740.9805177278562
 30
0.0
 11
268.0295870894446
 21
908.2713480595695
 31
0.0
  0
LINE
  5
22B
330
1F
100
AcDbEntity
  8
0-0
  6
JWW_DASHED1
 62
   120
370
     5
100
AcDbLine
 10
100.7387567577234
 20
750.880012663064
 30
0.0
 11
258.1300921542368
 21
908.2713480595778
 31
0.0
  0
LINE
  5
22C
330
1F
100
AcDbEntity
  8
0-0
  6
JWW_DASHED1
 62
   120
370
     5
100
AcDbLine
 10
100.7387567577285
 20
760.7795075982863
 30
0.0
 11
248.2305972190085
 21
908.2713480595661
 31
0.0
  0
LINE
  5
22D
330
1F
100
AcDbEntity
  8
0-0
  6
JWW_DASHED1
 62
   120
370
     5
100
AcDbLine
 10
100.7387567577337
 20
770.6790025334528
 30
0.0
 11
238.3311022838484
 21
908.2713480595667
 31
0.0
  0
LINE
  5
22E
330
1F
100
AcDbEntity
  8
0-0
  6
JWW_DASHED1
 62
   120
370
     5
100
AcDbLine
 10
100.7387567577251
 20
780.5784974686609
 30
0.0
 11
228.4316073486389
 21
908.2713480595746
 31
0.0
  0
LINE
  5
22F
330
1F
100
AcDbEntity
  8
0-0
  6
JWW_DASHED1
 62
   120
370
     5
100
AcDbLine
 10
100.7387567577319
 20
790.4779924038834
 30
0.0
 11
218.5321124134123
 21
908.2713480595642
 31
0.0
  0
LINE
  5
230
330
1F
100
AcDbEntity
  8
0-0
  6
JWW_DASHED1
 62
   120
370
     5
100
AcDbLine
 10
100.7387567577354
 20
800.3774873390493
 30
0.0
 11
208.6326174782505
 21
908.2713480595637
 31
0.0
  0
LINE
  5
231
330
1F
100
AcDbEntity
  8
0-0
  6
JWW_DASHED1
 62
   120
370
     5
100
AcDbLine
 10
100.7387567577268
 20
810.2769822742571
 30
0.0
 11
198.733122543041
 21
908.2713480595722
 31
0.0
  0
LINE
  5
232
330
1F
100
AcDbEntity
  8
0-0
  6
JWW_DASHED1
 62
   120
370
     5
100
AcDbLine
 10
100.7387567577337
 20
820.1764772094803
 30
0.0
 11
188.8336276078178
 21
908.2713480595642
 31
0.0
  0
LINE
  5
233
330
1F
100
AcDbEntity
  8
0-0
  6
JWW_DASHED1
 62
   120
370
     5
100
AcDbLine
 10
100.7387567577371
 20
830.075972144646
 30
0.0
 11
178.9341326726526
 21
908.2713480595608
 31
0.0
  0
LINE
  5
234
330
1F
100
AcDbEntity
  8
0-0
  6
JWW_DASHED1
 62
   120
370
     5
100
AcDbLine
 10
100.7387567577302
 20
839.9754670798538
 30
0.0
 11
169.0346377374431
 21
908.2713480595688
 31
0.0
  0
LINE
  5
235
330
1F
100
AcDbEntity
  8
0-0
  6
JWW_DASHED1
 62
   120
370
     5
100
AcDbLine
 10
100.73875675772
 20
849.8749620150621
 30
0.0
 11
159.1351428022352
 21
908.2713480595769
 31
0.0
  0
LINE
  5
236
330
1F
100
AcDbEntity
  8
0-0
  6
JWW_DASHED1
 62
   120
370
     5
100
AcDbLine
 10
100.7387567577388
 20
859.7744569502422
 30
0.0
 11
149.2356478670547
 21
908.2713480595576
 31
0.0
  0
LINE
  5
237
330
1F
100
AcDbEntity
  8
0-0
  6
JWW_DASHED1
 62
   120
370
     5
100
AcDbLine
 10
100.7387567577302
 20
869.6739518854505
 30
0.0
 11
139.3361529318469
 21
908.2713480595659
 31
0.0
  0
LINE
  5
238
330
1F
100
AcDbEntity
  8
0-0
  6
JWW_DASHED1
 62
   120
370
     5
100
AcDbLine
 10
100.7387567577234
 20
879.5734468206588
 30
0.0
 11
129.436657996639
 21
908.2713480595739
 31
0.0
  0
LINE
  5
239
330
1F
100
AcDbEntity
  8
0-0
  6
JWW_DASHED1
 62
   120
370
     5
100
AcDbLine
 10
100.7387567577268
 20
889.4729417558235
 30
0.0
 11
119.5371630614721
 21
908.2713480595701
 31
0.0
  0
LINE
  5
23A
330
1F
100
AcDbEntity
  8
0-0
  6
JWW_DASHED1
 62
   120
370
     5
100
AcDbLine
 10
100.7387567577337
 20
899.3724366910474
 30
0.0
 11
109.637668126249
 21
908.2713480595627
 31
0.0
  0
LWPOLYLINE
  5
23B
330
1F
100
AcDbEntity
  8
寸法
  6
Continuous
 62
     7
370
     9
100
AcDbPolyline
 90
        4
 70
     1
 43
3.0
 10
-1216.761243242276
 20
-947.7286519404342
 42
0.4142135623731
 10
-1218.261243242276
 20
-946.2286519404342
 42
0.4142135623731
 10
-1219.761243242275
 20
-947.7286519404342
 42
0.4142135623731
 10
-1218.261243242276
 20
-949.2286519404344
 42
0.4142135623731
  0
LINE
  5
23C
330
1F
100
AcDbEntity
  8
寸法
  6
Continuous
 62
   120
370
     5
100
AcDbLine
 10
-1218.261243242276
 20
-947.7286519404342
 30
0.0
 11
-818.2612432422746
 21
-947.7286519404342
 31
0.0
  0
LWPOLYLINE
  5
23D
330
1F
100
AcDbEntity
  8
寸法
  6
Continuous
 62
     7
370
     9
100
AcDbPolyline
 90
        4
 70
     1
 43
3.0
 10
-736.7612432422724
 20
-1397.728651940434
 42
0.4142135623731
 10
-738.2612432422724
 20
-1396.228651940434
 42
0.4142135623731
 10
-739.7612432422724
 20
-1397.728651940434
 42
0.4142135623731
 10
-738.2612432422724
 20
-1399.228651940434
 42
0.4142135623731
  0
LWPOLYLINE
  5
23E
330
1F
100
AcDbEntity
  8
寸法
  6
Continuous
 62
     7
370
     9
100
AcDbPolyline
 90
        4
 70
     1
 43
3.0
 10
-766.7612432422724
 20
-1597.728651940434
 42
0.4142135623731
 10
-768.2612432422724
 20
-1596.228651940434
 42
0.4142135623731
 10
-769.7612432422724
 20
-1597.728651940434
 42
0.4142135623731
 10
-768.2612432422724
 20
-1599.228651940434
 42
0.4142135623731
  0
LWPOLYLINE
  5
23F
330
1F
100
AcDbEntity
  8
寸法
  6
Continuous
 62
     7
370
     9
100
AcDbPolyline
 90
        4
 70
     1
 43
3.0
 10
-739.761243242273
 20
-1197.728651940434
 42
0.4142135623731
 10
-741.261243242273
 20
-1196.228651940434
 42
0.4142135623731
 10
-742.761243242273
 20
-1197.728651940434
 42
0.4142135623731
 10
-741.261243242273
 20
-1199.228651940434
 42
0.4142135623731
  0
LWPOLYLINE
  5
240
330
1F
100
AcDbEntity
  8
寸法
  6
Continuous
 62
     7
370
     9
100
AcDbPolyline
 90
        4
 70
     1
 43
3.0
 10
70.23875675772695
 20
-1197.728651940434
 42
0.4142135623731
 10
68.73875675772695
 20
-1196.228651940434
 42
0.4142135623731
 10
67.23875675772695
 20
-1197.728651940434
 42
0.4142135623731
 10
68.73875675772695
 20
-1199.228651940434
 42
0.4142135623731
  0
LINE
  5
241
330
1F
100
AcDbEntity
  8
寸法
  6
Continuous
 62
   120
370
     5
100
AcDbLine
 10
-738.2612432422724
 20
-1397.728651940434
 30
0.0
 11
-738.2612432422724
 21
-997.7286519404349
 31
0.0
  0
LINE
  5
242
330
1F
100
AcDbEntity
  8
寸法
  6
Continuous
 62
   120
370
     5
100
AcDbLine
 10
-768.2612432422724
 20
-1597.728651940434
 30
0.0
 11
-768.2612432422724
 21
-997.7286519404349
 31
0.0
  0
LINE
  5
243
330
1F
100
AcDbEntity
  8
寸法
  6
Continuous
 62
   120
370
     5
100
AcDbLine
 10
-741.261243242273
 20
-1197.728651940434
 30
0.0
 11
-741.261243242273
 21
-997.7286519404349
 31
0.0
  0
LINE
  5
244
330
1F
100
AcDbEntity
  8
寸法
  6
Continuous
 62
   120
370
     5
100
AcDbLine
 10
68.73875675772695
 20
-1197.728651940434
 30
0.0
 11
68.73875675772695
 21
-997.7286519404349
 31
0.0
  0
LINE
  5
245
330
1F
100
AcDbEntity
  8
寸法
  6
Continuous
 62
   120
370
     5
100
AcDbLine
 10
68.73875675772695
 20
-1197.728651940434
 30
0.0
 11
-741.261243242273
 21
-1197.728651940434
 31
0.0
  0
LWPOLYLINE
  5
246
330
1F
100
AcDbEntity
  8
寸法
  6
Continuous
 62
     7
370
     9
100
AcDbPolyline
 90
        4
 70
     1
 43
3.0
 10
-1216.761243242276
 20
1087.271348059565
 42
0.4142135623731
 10
-1218.261243242276
 20
1088.771348059565
 42
0.4142135623731
 10
-1219.761243242275
 20
1087.271348059565
 42
0.4142135623731
 10
-1218.261243242276
 20
1085.771348059565
 42
0.4142135623731
  0
LINE
  5
247
330
1F
100
AcDbEntity
  8
寸法
  6
Continuous
 62
   120
370
     5
100
AcDbLine
 10
-1218.261243242276
 20
1087.271348059565
 30
0.0
 11
-818.2612432422746
 21
1087.271348059565
 31
0.0
  0
LINE
  5
248
330
1F
100
AcDbEntity
  8
寸法
  6
Continuous
 62
   120
370
     5
100
AcDbLine
 10
-1218.261243242276
 20
1087.271348059565
 30
0.0
 11
-1218.261243242276
 21
-947.7286519404342
 31
0.0
  0
LWPOLYLINE
  5
249
330
1F
100
AcDbEntity
  8
寸法
  6
Continuous
 62
     7
370
     9
100
AcDbPolyline
 90
        4
 70
     1
 43
3.0
 10
741.2387567577272
 20
-1397.728651940434
 42
0.4142135623731
 10
739.7387567577272
 20
-1396.228651940434
 42
0.4142135623731
 10
738.2387567577272
 20
-1397.728651940434
 42
0.4142135623731
 10
739.7387567577272
 20
-1399.228651940434
 42
0.4142135623731
  0
LINE
  5
24A
330
1F
100
AcDbEntity
  8
寸法
  6
Continuous
 62
   120
370
     5
100
AcDbLine
 10
739.7387567577272
 20
-1397.728651940434
 30
0.0
 11
739.7387567577272
 21
-997.7286519404349
 31
0.0
  0
LINE
  5
24B
330
1F
100
AcDbEntity
  8
寸法
  6
Continuous
 62
   120
370
     5
100
AcDbLine
 10
-738.2612432422724
 20
-1397.728651940434
 30
0.0
 11
739.7387567577272
 21
-1397.728651940434
 31
0.0
  0
LWPOLYLINE
  5
24C
330
1F
100
AcDbEntity
  8
寸法
  6
Continuous
 62
     7
370
     9
100
AcDbPolyline
 90
        4
 70
     1
 43
3.0
 10
1581.238756757727
 20
-1597.728651940433
 42
0.4142135623731
 10
1579.738756757727
 20
-1596.228651940433
 42
0.4142135623731
 10
1578.238756757727
 20
-1597.728651940433
 42
0.4142135623731
 10
1579.738756757727
 20
-1599.228651940433
 42
0.4142135623731
  0
LINE
  5
24D
330
1F
100
AcDbEntity
  8
寸法
  6
Continuous
 62
   120
370
     5
100
AcDbLine
 10
1579.738756757727
 20
-1597.728651940433
 30
0.0
 11
1579.738756757727
 21
-997.7286519404341
 31
0.0
  0
LINE
  5
24E
330
1F
100
AcDbEntity
  8
寸法
  6
Continuous
 62
   120
370
     5
100
AcDbLine
 10
-768.2612432422724
 20
-1597.728651940434
 30
0.0
 11
1579.738756757727
 21
-1597.728651940433
 31
0.0
  0
LWPOLYLINE
  5
24F
330
1F
100
AcDbEntity
  8
寸法
  6
Continuous
 62
     7
370
     9
100
AcDbPolyline
 90
        4
 70
     1
 43
3.0
 10
-1016.761243242274
 20
1043.271348059565
 42
0.4142135623731
 10
-1018.261243242274
 20
1044.771348059565
 42
0.4142135623731
 10
-1019.761243242273
 20
1043.271348059565
 42
0.4142135623731
 10
-1018.261243242274
 20
1041.771348059565
 42
0.4142135623731
  0
LINE
  5
250
330
1F
100
AcDbEntity
  8
寸法
  6
Continuous
 62
   120
370
     5
100
AcDbLine
 10
-1018.261243242274
 20
1043.271348059565
 30
0.0
 11
-1018.261243242274
 21
-939.7286519404347
 31
0.0
  0
LINE
  5
251
330
1F
100
AcDbEntity
  8
寸法
  6
Continuous
 62
   120
370
     5
100
AcDbLine
 10
-1018.261243242274
 20
1043.271348059565
 30
0.0
 11
-818.2612432422746
 21
1043.271348059565
 31
0.0
  0
LWPOLYLINE
  5
252
330
1F
100
AcDbEntity
  8
寸法
  6
Continuous
 62
     7
370
     9
100
AcDbPolyline
 90
        4
 70
     1
 43
3.0
 10
-1016.761243242274
 20
-939.7286519404347
 42
0.4142135623731
 10
-1018.261243242274
 20
-938.2286519404347
 42
0.4142135623731
 10
-1019.761243242273
 20
-939.7286519404347
 42
0.4142135623731
 10
-1018.261243242274
 20
-941.2286519404348
 42
0.4142135623731
  0
LINE
  5
253
330
1F
100
AcDbEntity
  8
寸法
  6
Continuous
 62
   120
370
     5
100
AcDbLine
 10
-1018.261243242274
 20
-939.7286519404347
 30
0.0
 11
-818.2612432422746
 21
-939.7286519404347
 31
0.0
  0
MTEXT
  5
254
330
1F
100
AcDbEntity
  8
寸法
  6
Continuous
 62
     7
370
    70
100
AcDbMText
 10
-1233.261243242276
 20
-150.903651940434
 30
0.0
 40
57.14999999999999
 41
412.5
 46
0.0
 71
     7
 72
     1
  1
{\fＭＳ ゴシック|b0|i0|c128|p49;枠外＝2,035}
 11
6.123031769111886E-17
 21
1.0
 31
0.0
 73
     1
 44
1.0
  0
MTEXT
  5
255
330
1F
100
AcDbEntity
  8
寸法
  6
Continuous
 62
     7
370
    70
100
AcDbMText
 10
-1033.261243242273
 20
-157.4036519404353
 30
0.0
 40
57.14999999999999
 41
412.5
 46
0.0
 71
     7
 72
     1
  1
{\fＭＳ ゴシック|b0|i0|c128|p49;ＤＨ＝1,983}
 11
6.123031769111886E-17
 21
1.0
 31
0.0
 73
     1
 44
1.0
  0
MTEXT
  5
256
330
1F
100
AcDbEntity
  8
寸法
  6
Continuous
 62
     7
370
   211
100
AcDbMText
 10
-505.0112432422731
 20
-1191.653651940434
 30
0.0
 40
57.15
 41
337.5
 46
0.0
 71
     7
 72
     1
  1
{\fＭＳ ゴシック|b0|i0|c128|p49;ＤＷ＝810}
 73
     1
 44
1.0
  0
MTEXT
  5
257
330
1F
100
AcDbEntity
  8
寸法
  6
Continuous
 62
     7
370
   211
100
AcDbMText
 10
-280.5112432422726
 20
-1391.653651940434
 30
0.0
 40
57.15000000000001
 41
562.5
 46
0.0
 71
     7
 72
     1
  1
{\fＭＳ ゴシック|b0|i0|c128|p49;有効開口＝1,478}
 73
     1
 44
1.0
  0
MTEXT
  5
258
330
1F
100
AcDbEntity
  8
寸法
  6
Continuous
 62
     7
370
   211
100
AcDbMText
 10
199.4887567577274
 20
-1591.653651940434
 30
0.0
 40
57.14999999999999
 41
412.5
 46
0.0
 71
     7
 72
     1
  1
{\fＭＳ ゴシック|b0|i0|c128|p49;枠外＝2,348}
 73
     1
 44
1.0
  0
ENDSEC
  0
SECTION
  2
OBJECTS
  0
DICTIONARY
  5
C
330
0
100
AcDbDictionary
281
     1
  3
ACAD_GROUP
350
D
  3
ACAD_LAYOUT
350
1A
  3
ACAD_MATERIAL
350
3B
  3
ACAD_MLEADERSTYLE
350
25A
  3
ACAD_MLINESTYLE
350
17
  3
ACAD_PLOTSETTINGS
350
19
  3
ACAD_PLOTSTYLENAME
350
E
  3
ACAD_TABLESTYLE
350
259
  3
ACAD_VISUALSTYLE
350
2A
  0
DICTIONARY
  5
D
102
{ACAD_REACTORS
330
C
102
}
330
C
100
AcDbDictionary
281
     1
  0
DICTIONARY
  5
1A
102
{ACAD_REACTORS
330
C
102
}
330
C
100
AcDbDictionary
281
     1
  3
Layout1
350
1E
  3
Layout2
350
26
  3
Model
350
22
  0
DICTIONARY
  5
3B
102
{ACAD_REACTORS
330
C
102
}
330
C
100
AcDbDictionary
281
     1
  3
ByBlock
350
3D
  3
ByLayer
350
3C
  3
Global
350
3E
  0
DICTIONARY
  5
25A
102
{ACAD_REACTORS
330
C
102
}
330
C
100
AcDbDictionary
281
     1
  0
DICTIONARY
  5
17
102
{ACAD_REACTORS
330
C
102
}
330
C
100
AcDbDictionary
281
     1
  3
Standard
350
18
  0
DICTIONARY
  5
19
102
{ACAD_REACTORS
330
C
102
}
330
C
100
AcDbDictionary
281
     1
  0
ACDBDICTIONARYWDFLT
  5
E
102
{ACAD_REACTORS
330
C
102
}
330
C
100
AcDbDictionary
281
     1
  3
Normal
350
F
100
AcDbDictionaryWithDefault
340
F
  0
DICTIONARY
  5
259
102
{ACAD_REACTORS
330
C
102
}
330
C
100
AcDbDictionary
281
     1
  0
DICTIONARY
  5
2A
102
{ACAD_REACTORS
330
C
102
}
330
C
100
AcDbDictionary
281
     1
  3
2dWireframe
350
2F
  3
3D Hidden
350
31
  3
3dWireframe
350
30
  3
Basic
350
32
  3
Brighten
350
36
  3
ColorChange
350
3A
  3
Conceptual
350
34
  3
Dim
350
35
  3
Facepattern
350
39
  3
Flat
350
2B
  3
FlatWithEdges
350
2C
  3
Gouraud
350
2D
  3
GouraudWithEdges
350
2E
  3
Linepattern
350
38
  3
Realistic
350
33
  3
Thicken
350
37
  0
LAYOUT
  5
1E
102
{ACAD_REACTORS
330
1A
102
}
330
1A
100
AcDbPlotSettings
  1

  2
none_device
  4

  6

 40
0.0
 41
0.0
 42
0.0
 43
0.0
 44
0.0
 45
0.0
 46
0.0
 47
0.0
 48
0.0
 49
0.0
140
0.0
141
0.0
142
1.0
143
1.0
 70
   688
 72
     0
 73
     0
 74
     5
  7

 75
    16
 76
     0
 77
     5
 78
   300
147
1.0
148
0.0
149
0.0
100
AcDbLayout
  1
Layout1
 70
     1
 71
     1
 10
0.0
 20
0.0
 11
420.0
 21
297.0
 12
0.0
 22
0.0
 32
0.0
 14
1.000000000000000E+20
 24
1.000000000000000E+20
 34
1.000000000000000E+20
 15
-1.000000000000000E+20
 25
-1.000000000000000E+20
 35
-1.000000000000000E+20
146
0.0
 13
0.0
 23
0.0
 33
0.0
 16
1.0
 26
0.0
 36
0.0
 17
0.0
 27
1.0
 37
0.0
 76
     0
330
1B
  0
LAYOUT
  5
26
102
{ACAD_REACTORS
330
1A
102
}
330
1A
100
AcDbPlotSettings
  1

  2
none_device
  4

  6

 40
0.0
 41
0.0
 42
0.0
 43
0.0
 44
0.0
 45
0.0
 46
0.0
 47
0.0
 48
0.0
 49
0.0
140
0.0
141
0.0
142
1.0
143
1.0
 70
   688
 72
     0
 73
     0
 74
     5
  7

 75
    16
 76
     0
 77
     5
 78
   300
147
1.0
148
0.0
149
0.0
100
AcDbLayout
  1
Layout2
 70
     1
 71
     2
 10
0.0
 20
0.0
 11
0.0
 21
0.0
 12
0.0
 22
0.0
 32
0.0
 14
0.0
 24
0.0
 34
0.0
 15
0.0
 25
0.0
 35
0.0
146
0.0
 13
0.0
 23
0.0
 33
0.0
 16
1.0
 26
0.0
 36
0.0
 17
0.0
 27
1.0
 37
0.0
 76
     0
330
23
  0
LAYOUT
  5
22
102
{ACAD_REACTORS
330
1A
102
}
330
1A
100
AcDbPlotSettings
  1

  2
none_device
  4

  6

 40
0.0
 41
0.0
 42
0.0
 43
0.0
 44
0.0
 45
0.0
 46
0.0
 47
0.0
 48
0.0
 49
0.0
140
0.0
141
0.0
142
1.0
143
1.0
 70
  1712
 72
     0
 73
     0
 74
     0
  7

 75
     0
 76
     0
 77
     5
 78
   300
147
1.0
148
0.0
149
0.0
100
AcDbLayout
  1
Model
 70
     1
 71
     0
 10
-4455.0
 20
-3150.0
 11
4455.0
 21
3150.0
 12
0.0
 22
0.0
 32
0.0
 14
-4455.0
 24
-3150.0
 34
0.0
 15
4455.0
 25
3150.0
 35
0.0
146
0.0
 13
0.0
 23
0.0
 33
0.0
 16
1.0
 26
0.0
 36
0.0
 17
0.0
 27
1.0
 37
0.0
 76
     0
330
1F
331
29
  0
MATERIAL
  5
3D
102
{ACAD_REACTORS
330
3B
102
}
330
3B
100
AcDbMaterial
  1
ByBlock
 72
     1
 94
      127
  0
MATERIAL
  5
3C
102
{ACAD_REACTORS
330
3B
102
}
330
3B
100
AcDbMaterial
  1
ByLayer
 72
     1
 94
      127
  0
MATERIAL
  5
3E
102
{ACAD_REACTORS
330
3B
102
}
330
3B
100
AcDbMaterial
  1
Global
 72
     1
 94
      127
  0
MLINESTYLE
  5
18
102
{ACAD_REACTORS
330
17
102
}
330
17
100
AcDbMlineStyle
  2
Standard
 70
     0
  3

 62
   256
 51
90.0
 52
90.0
 71
     2
 49
0.5
 62
   256
  6
BYLAYER
 49
-0.5
 62
   256
  6
BYLAYER
  0
ACDBPLACEHOLDER
  5
F
102
{ACAD_REACTORS
330
E
102
}
330
E
  0
VISUALSTYLE
  5
2F
102
{ACAD_REACTORS
330
2A
102
}
330
2A
100
AcDbVisualStyle
  2
2dWireframe
 70
     4
177
     2
291
     0
 71
     0
176
     1
 72
     2
176
     1
 73
     0
176
     1
 90
        0
176
     1
 40
-0.6
176
     1
 41
-30.0
176
     1
 62
     5
 63
     7
421
 16777215
176
     1
 74
     1
176
     1
 91
        4
176
     1
 64
     7
176
     1
 65
   257
176
     1
 75
     1
176
     1
175
     1
176
     1
 42
1.0
176
     1
 92
        0
176
     1
 66
   257
176
     1
 43
1.0
176
     1
 76
     1
176
     1
 77
     6
176
     1
 78
     2
176
     1
 67
     7
176
     1
 79
     5
176
     1
170
     0
176
     1
171
     0
176
     1
290
     0
176
     1
 93
        1
176
     1
 44
0.0
176
     1
173
     0
176
     1
  0
VISUALSTYLE
  5
31
102
{ACAD_REACTORS
330
2A
102
}
330
2A
100
AcDbVisualStyle
  2
3D Hidden
 70
     6
177
     2
291
     0
 71
     1
176
     1
 72
     2
176
     1
 73
     2
176
     1
 90
        0
176
     1
 40
-0.6
176
     1
 41
-30.0
176
     1
 62
     5
 63
     7
421
 16777215
176
     1
 74
     2
176
     1
 91
        2
176
     1
 64
     7
176
     1
 65
   257
176
     1
 75
     2
176
     1
175
     1
176
     1
 42
40.0
176
     1
 92
        0
176
     1
 66
   257
176
     1
 43
1.0
176
     1
 76
     1
176
     1
 77
     6
176
     1
 78
     2
176
     1
 67
     7
176
     1
 79
     3
176
     1
170
     0
176
     1
171
     0
176
     1
290
     0
176
     1
 93
        1
176
     1
 44
0.0
176
     1
173
     0
176
     1
  0
VISUALSTYLE
  5
30
102
{ACAD_REACTORS
330
2A
102
}
330
2A
100
AcDbVisualStyle
  2
3dWireframe
 70
     5
177
     2
291
     0
 71
     0
176
     1
 72
     2
176
     1
 73
     0
176
     1
 90
        0
176
     1
 40
-0.6
176
     1
 41
-30.0
176
     1
 62
     5
 63
     7
421
 16777215
176
     1
 74
     1
176
     1
 91
        4
176
     1
 64
     7
176
     1
 65
   257
176
     1
 75
     1
176
     1
175
     1
176
     1
 42
1.0
176
     1
 92
        0
176
     1
 66
   257
176
     1
 43
1.0
176
     1
 76
     1
176
     1
 77
     6
176
     1
 78
     2
176
     1
 67
     7
176
     1
 79
     5
176
     1
170
     0
176
     1
171
     0
176
     1
290
     0
176
     1
 93
        1
176
     1
 44
0.0
176
     1
173
     0
176
     1
  0
VISUALSTYLE
  5
32
102
{ACAD_REACTORS
330
2A
102
}
330
2A
100
AcDbVisualStyle
  2
Basic
 70
     7
177
     2
291
     1
 71
     1
176
     1
 72
     0
176
     1
 73
     1
176
     1
 90
        0
176
     1
 40
-0.6
176
     1
 41
-30.0
176
     1
 62
     5
 63
     7
421
 16777215
176
     1
 74
     0
176
     1
 91
        4
176
     1
 64
     7
176
     1
 65
   257
176
     1
 75
     1
176
     1
175
     1
176
     1
 42
1.0
176
     1
 92
        8
176
     1
 66
     7
176
     1
 43
1.0
176
     1
 76
     1
176
     1
 77
     6
176
     1
 78
     2
176
     1
 67
     7
176
     1
 79
     5
176
     1
170
     0
176
     1
171
     0
176
     1
290
     0
176
     1
 93
        1
176
     1
 44
0.0
176
     1
173
     0
176
     1
  0
VISUALSTYLE
  5
36
102
{ACAD_REACTORS
330
2A
102
}
330
2A
100
AcDbVisualStyle
  2
Brighten
 70
    12
177
     2
291
     1
 71
     2
176
     1
 72
     2
176
     1
 73
     0
176
     1
 90
        0
176
     1
 40
-0.6
176
     1
 41
-30.0
176
     1
 62
     5
 63
     7
421
 16777215
176
     1
 74
     1
176
     1
 91
        4
176
     1
 64
     7
176
     1
 65
   257
176
     1
 75
     1
176
     1
175
     1
176
     1
 42
1.0
176
     1
 92
        8
176
     1
 66
     7
176
     1
 43
1.0
176
     1
 76
     1
176
     1
 77
     6
176
     1
 78
     2
176
     1
 67
     7
176
     1
 79
     5
176
     1
170
     0
176
     1
171
     0
176
     1
290
     0
176
     1
 93
        1
176
     1
 44
50.0
176
     1
173
     0
176
     1
  0
VISUALSTYLE
  5
3A
102
{ACAD_REACTORS
330
2A
102
}
330
2A
100
AcDbVisualStyle
  2
ColorChange
 70
    16
177
     2
291
     1
 71
     2
176
     1
 72
     2
176
     1
 73
     3
176
     1
 90
        0
176
     1
 40
-0.6
176
     1
 41
-30.0
176
     1
 62
     5
 63
     8
421
  8421504
176
     1
 74
     1
176
     1
 91
        4
176
     1
 64
     7
176
     1
 65
   257
176
     1
 75
     1
176
     1
175
     1
176
     1
 42
1.0
176
     1
 92
        8
176
     1
 66
     8
424
  8421504
176
     1
 43
1.0
176
     1
 76
     1
176
     1
 77
     6
176
     1
 78
     2
176
     1
 67
     7
176
     1
 79
     5
176
     1
170
     0
176
     1
171
     0
176
     1
290
     0
176
     1
 93
        1
176
     1
 44
0.0
176
     1
173
     0
176
     1
  0
VISUALSTYLE
  5
34
102
{ACAD_REACTORS
330
2A
102
}
330
2A
100
AcDbVisualStyle
  2
Conceptual
 70
     9
177
     2
291
     0
 71
     3
176
     1
 72
     2
176
     1
 73
     0
176
     1
 90
        0
176
     1
 40
-0.6
176
     1
 41
-30.0
176
     1
 62
     5
 63
     7
421
 16777215
176
     1
 74
     2
176
     1
 91
        2
176
     1
 64
     7
176
     1
 65
   257
176
     1
 75
     1
176
     1
175
     1
176
     1
 42
40.0
176
     1
 92
        8
176
     1
 66
     7
176
     1
 43
1.0
176
     1
 76
     1
176
     1
 77
     6
176
     1
 78
     2
176
     1
 67
     7
176
     1
 79
     3
176
     1
170
     0
176
     1
171
     0
176
     1
290
     0
176
     1
 93
        1
176
     1
 44
0.0
176
     1
173
     0
176
     1
  0
VISUALSTYLE
  5
35
102
{ACAD_REACTORS
330
2A
102
}
330
2A
100
AcDbVisualStyle
  2
Dim
 70
    11
177
     2
291
     1
 71
     2
176
     1
 72
     2
176
     1
 73
     0
176
     1
 90
        0
176
     1
 40
-0.6
176
     1
 41
-30.0
176
     1
 62
     5
 63
     7
421
 16777215
176
     1
 74
     1
176
     1
 91
        4
176
     1
 64
     7
176
     1
 65
   257
176
     1
 75
     1
176
     1
175
     1
176
     1
 42
1.0
176
     1
 92
        8
176
     1
 66
     7
176
     1
 43
1.0
176
     1
 76
     1
176
     1
 77
     6
176
     1
 78
     2
176
     1
 67
     7
176
     1
 79
     5
176
     1
170
     0
176
     1
171
     0
176
     1
290
     0
176
     1
 93
        1
176
     1
 44
-50.0
176
     1
173
     0
176
     1
  0
VISUALSTYLE
  5
39
102
{ACAD_REACTORS
330
2A
102
}
330
2A
100
AcDbVisualStyle
  2
Facepattern
 70
    15
177
     2
291
     1
 71
     2
176
     1
 72
     2
176
     1
 73
     0
176
     1
 90
        0
176
     1
 40
-0.6
176
     1
 41
-30.0
176
     1
 62
     5
 63
     7
421
 16777215
176
     1
 74
     1
176
     1
 91
        4
176
     1
 64
     7
176
     1
 65
   257
176
     1
 75
     1
176
     1
175
     1
176
     1
 42
1.0
176
     1
 92
        8
176
     1
 66
     7
176
     1
 43
1.0
176
     1
 76
     1
176
     1
 77
     6
176
     1
 78
     2
176
     1
 67
     7
176
     1
 79
     5
176
     1
170
     0
176
     1
171
     0
176
     1
290
     0
176
     1
 93
        1
176
     1
 44
0.0
176
     1
173
     0
176
     1
  0
VISUALSTYLE
  5
2B
102
{ACAD_REACTORS
330
2A
102
}
330
2A
100
AcDbVisualStyle
  2
Flat
 70
     0
177
     2
291
     1
 71
     2
176
     1
 72
     1
176
     1
 73
     1
176
     1
 90
        2
176
     1
 40
-0.6
176
     1
 41
30.0
176
     1
 62
     5
 63
     7
421
 16777215
176
     1
 74
     0
176
     1
 91
        4
176
     1
 64
     7
176
     1
 65
   257
176
     1
 75
     1
176
     1
175
     1
176
     1
 42
1.0
176
     1
 92
        8
176
     1
 66
     7
176
     1
 43
1.0
176
     1
 76
     1
176
     1
 77
     6
176
     1
 78
     2
176
     1
 67
     7
176
     1
 79
     5
176
     1
170
     0
176
     1
171
     0
176
     1
290
     0
176
     1
 93
       13
176
     1
 44
0.0
176
     1
173
     0
176
     1
  0
VISUALSTYLE
  5
2C
102
{ACAD_REACTORS
330
2A
102
}
330
2A
100
AcDbVisualStyle
  2
FlatWithEdges
 70
     1
177
     2
291
     1
 71
     2
176
     1
 72
     1
176
     1
 73
     1
176
     1
 90
        2
176
     1
 40
-0.6
176
     1
 41
30.0
176
     1
 62
     5
 63
     7
421
 16777215
176
     1
 74
     1
176
     1
 91
        4
176
     1
 64
     7
176
     1
 65
   257
176
     1
 75
     1
176
     1
175
     1
176
     1
 42
1.0
176
     1
 92
        0
176
     1
 66
   257
176
     1
 43
1.0
176
     1
 76
     1
176
     1
 77
     6
176
     1
 78
     2
176
     1
 67
     7
176
     1
 79
     5
176
     1
170
     0
176
     1
171
     0
176
     1
290
     0
176
     1
 93
       13
176
     1
 44
0.0
176
     1
173
     0
176
     1
  0
VISUALSTYLE
  5
2D
102
{ACAD_REACTORS
330
2A
102
}
330
2A
100
AcDbVisualStyle
  2
Gouraud
 70
     2
177
     2
291
     1
 71
     2
176
     1
 72
     2
176
     1
 73
     1
176
     1
 90
        2
176
     1
 40
-0.6
176
     1
 41
30.0
176
     1
 62
     5
 63
     7
421
 16777215
176
     1
 74
     0
176
     1
 91
        4
176
     1
 64
     7
176
     1
 65
   257
176
     1
 75
     1
176
     1
175
     1
176
     1
 42
1.0
176
     1
 92
        0
176
     1
 66
     7
176
     1
 43
1.0
176
     1
 76
     1
176
     1
 77
     6
176
     1
 78
     2
176
     1
 67
     7
176
     1
 79
     5
176
     1
170
     0
176
     1
171
     0
176
     1
290
     0
176
     1
 93
       13
176
     1
 44
0.0
176
     1
173
     0
176
     1
  0
VISUALSTYLE
  5
2E
102
{ACAD_REACTORS
330
2A
102
}
330
2A
100
AcDbVisualStyle
  2
GouraudWithEdges
 70
     3
177
     2
291
     1
 71
     2
176
     1
 72
     2
176
     1
 73
     1
176
     1
 90
        2
176
     1
 40
-0.6
176
     1
 41
30.0
176
     1
 62
     5
 63
     7
421
 16777215
176
     1
 74
     1
176
     1
 91
        4
176
     1
 64
     7
176
     1
 65
   257
176
     1
 75
     1
176
     1
175
     1
176
     1
 42
1.0
176
     1
 92
        0
176
     1
 66
   257
176
     1
 43
1.0
176
     1
 76
     1
176
     1
 77
     6
176
     1
 78
     2
176
     1
 67
     7
176
     1
 79
     5
176
     1
170
     0
176
     1
171
     0
176
     1
290
     0
176
     1
 93
       13
176
     1
 44
0.0
176
     1
173
     0
176
     1
  0
VISUALSTYLE
  5
38
102
{ACAD_REACTORS
330
2A
102
}
330
2A
100
AcDbVisualStyle
  2
Linepattern
 70
    14
177
     2
291
     1
 71
     2
176
     1
 72
     2
176
     1
 73
     0
176
     1
 90
        0
176
     1
 40
-0.6
176
     1
 41
-30.0
176
     1
 62
     5
 63
     7
421
 16777215
176
     1
 74
     1
176
     1
 91
        4
176
     1
 64
     7
176
     1
 65
   257
176
     1
 75
     7
176
     1
175
     7
176
     1
 42
1.0
176
     1
 92
        8
176
     1
 66
     7
176
     1
 43
1.0
176
     1
 76
     1
176
     1
 77
     6
176
     1
 78
     2
176
     1
 67
     7
176
     1
 79
     5
176
     1
170
     0
176
     1
171
     0
176
     1
290
     0
176
     1
 93
        1
176
     1
 44
0.0
176
     1
173
     0
176
     1
  0
VISUALSTYLE
  5
33
102
{ACAD_REACTORS
330
2A
102
}
330
2A
100
AcDbVisualStyle
  2
Realistic
 70
     8
177
     2
291
     0
 71
     2
176
     1
 72
     2
176
     1
 73
     0
176
     1
 90
        0
176
     1
 40
-0.6
176
     1
 41
-30.0
176
     1
 62
     5
 63
     7
421
 16777215
176
     1
 74
     1
176
     1
 91
        0
176
     1
 64
     7
176
     1
 65
   257
176
     1
 75
     1
176
     1
175
     1
176
     1
 42
1.0
176
     1
 92
        8
176
     1
 66
     8
424
  7895160
176
     1
 43
1.0
176
     1
 76
     1
176
     1
 77
     6
176
     1
 78
     2
176
     1
 67
     7
176
     1
 79
     5
176
     1
170
     0
176
     1
171
     0
176
     1
290
     0
176
     1
 93
       13
176
     1
 44
0.0
176
     1
173
     0
176
     1
  0
VISUALSTYLE
  5
37
102
{ACAD_REACTORS
330
2A
102
}
330
2A
100
AcDbVisualStyle
  2
Thicken
 70
    13
177
     2
291
     1
 71
     2
176
     1
 72
     2
176
     1
 73
     0
176
     1
 90
        0
176
     1
 40
-0.6
176
     1
 41
-30.0
176
     1
 62
     5
 63
     7
421
 16777215
176
     1
 74
     1
176
     1
 91
        4
176
     1
 64
     7
176
     1
 65
   257
176
     1
 75
     1
176
     1
175
     1
176
     1
 42
1.0
176
     1
 92
       12
176
     1
 66
     7
176
     1
 43
1.0
176
     1
 76
     1
176
     1
 77
     6
176
     1
 78
     2
176
     1
 67
     7
176
     1
 79
     5
176
     1
170
     0
176
     1
171
     0
176
     1
290
     0
176
     1
 93
        1
176
     1
 44
0.0
176
     1
173
     0
176
     1
  0
ENDSEC
  0
EOF
