  0
SECTION
  2
HEADER
  9
$ACADVER
  1
AC1024
  9
$ACADMAINTVER
 70
     6
  9
$DWGCODEPAGE
  3
ANSI_932
  9
$INSBASE
 10
0.0
 20
0.0
 30
0.0
  9
$EXTMIN
 10
-4455.0
 20
-3150.0
 30
0.0
  9
$EXTMAX
 10
4455.0
 20
3150.0
 30
0.0
  9
$LIMMIN
 10
-4455.0
 20
-3150.0
  9
$LIMMAX
 10
4455.0
 20
3150.0
  9
$ORTHOMODE
 70
     0
  9
$REGENMODE
 70
     1
  9
$FILLMODE
 70
     1
  9
$QTEXTMODE
 70
     0
  9
$MIRRTEXT
 70
     1
  9
$LTSCALE
 40
30.0
  9
$ATTMODE
 70
     1
  9
$TEXTSIZE
 40
2.5
  9
$TRACEWID
 40
1.0
  9
$TEXTSTYLE
  7
Standard
  9
$CLAYER
  8
0
  9
$CELTYPE
  6
ByLayer
  9
$CECOLOR
 62
   256
  9
$CELTSCALE
 40
1.0
  9
$DISPSILH
 70
     0
  9
$DIMSCALE
 40
1.0
  9
$DIMASZ
 40
2.5
  9
$DIMEXO
 40
0.625
  9
$DIMDLI
 40
3.75
  9
$DIMRND
 40
0.0
  9
$DIMDLE
 40
0.0
  9
$DIMEXE
 40
1.25
  9
$DIMTP
 40
0.0
  9
$DIMTM
 40
0.0
  9
$DIMTXT
 40
2.5
  9
$DIMCEN
 40
2.5
  9
$DIMTSZ
 40
0.0
  9
$DIMTOL
 70
     0
  9
$DIMLIM
 70
     0
  9
$DIMTIH
 70
     0
  9
$DIMTOH
 70
     0
  9
$DIMSE1
 70
     0
  9
$DIMSE2
 70
     0
  9
$DIMTAD
 70
     1
  9
$DIMZIN
 70
     8
  9
$DIMBLK
  1

  9
$DIMASO
 70
     1
  9
$DIMSHO
 70
     1
  9
$DIMPOST
  1

  9
$DIMAPOST
  1

  9
$DIMALT
 70
     0
  9
$DIMALTD
 70
     3
  9
$DIMALTF
 40
0.03937007874016
  9
$DIMLFAC
 40
1.0
  9
$DIMTOFL
 70
     1
  9
$DIMTVP
 40
0.0
  9
$DIMTIX
 70
     0
  9
$DIMSOXD
 70
     0
  9
$DIMSAH
 70
     0
  9
$DIMBLK1
  1

  9
$DIMBLK2
  1

  9
$DIMSTYLE
  2
ISO-25
  9
$DIMCLRD
 70
     0
  9
$DIMCLRE
 70
     0
  9
$DIMCLRT
 70
     0
  9
$DIMTFAC
 40
1.0
  9
$DIMGAP
 40
0.625
  9
$DIMJUST
 70
     0
  9
$DIMSD1
 70
     0
  9
$DIMSD2
 70
     0
  9
$DIMTOLJ
 70
     0
  9
$DIMTZIN
 70
     8
  9
$DIMALTZ
 70
     0
  9
$DIMALTTZ
 70
     0
  9
$DIMUPT
 70
     0
  9
$DIMDEC
 70
     2
  9
$DIMTDEC
 70
     2
  9
$DIMALTU
 70
     2
  9
$DIMALTTD
 70
     3
  9
$DIMTXSTY
  7
Standard
  9
$DIMAUNIT
 70
     0
  9
$DIMADEC
 70
     0
  9
$DIMALTRND
 40
0.0
  9
$DIMAZIN
 70
     0
  9
$DIMDSEP
 70
    44
  9
$DIMATFIT
 70
     3
  9
$DIMFRAC
 70
     0
  9
$DIMLDRBLK
  1

  9
$DIMLUNIT
 70
     2
  9
$DIMLWD
 70
    -2
  9
$DIMLWE
 70
    -2
  9
$DIMTMOVE
 70
     0
  9
$DIMFXL
 40
1.0
  9
$DIMFXLON
 70
     0
  9
$DIMJOGANG
 40
0.7853981633974483
  9
$DIMTFILL
 70
     0
  9
$DIMTFILLCLR
 70
     0
  9
$DIMARCSYM
 70
     0
  9
$DIMLTYPE
  6

  9
$DIMLTEX1
  6

  9
$DIMLTEX2
  6

  9
$DIMTXTDIRECTION
 70
     0
  9
$LUNITS
 70
     2
  9
$LUPREC
 70
     4
  9
$SKETCHINC
 40
1.0
  9
$FILLETRAD
 40
10.0
  9
$AUNITS
 70
     0
  9
$AUPREC
 70
     0
  9
$MENU
  1
.
  9
$ELEVATION
 40
0.0
  9
$PELEVATION
 40
0.0
  9
$THICKNESS
 40
0.0
  9
$LIMCHECK
 70
     0
  9
$CHAMFERA
 40
10.0
  9
$CHAMFERB
 40
10.0
  9
$CHAMFERC
 40
20.0
  9
$CHAMFERD
 40
0.0
  9
$SKPOLY
 70
     0
  9
$TDCREATE
 40
2457953.400406644
  9
$TDUCREATE
 40
2457953.025406644
  9
$TDUPDATE
 40
2457953.400406655
  9
$TDUUPDATE
 40
2457953.025406655
  9
$TDINDWG
 40
0.0000000116
  9
$TDUSRTIMER
 40
0.0000000116
  9
$USRTIMER
 70
     1
  9
$ANGBASE
 50
0.0
  9
$ANGDIR
 70
     0
  9
$PDMODE
 70
     0
  9
$PDSIZE
 40
0.0
  9
$PLINEWID
 40
0.0
  9
$SPLFRAME
 70
     0
  9
$SPLINETYPE
 70
     6
  9
$SPLINESEGS
 70
     8
  9
$HANDSEED
  5
4E3
  9
$SURFTAB1
 70
     6
  9
$SURFTAB2
 70
     6
  9
$SURFTYPE
 70
     6
  9
$SURFU
 70
     6
  9
$SURFV
 70
     6
  9
$UCSBASE
  2

  9
$UCSNAME
  2

  9
$UCSORG
 10
0.0
 20
0.0
 30
0.0
  9
$UCSXDIR
 10
1.0
 20
0.0
 30
0.0
  9
$UCSYDIR
 10
0.0
 20
1.0
 30
0.0
  9
$UCSORTHOREF
  2

  9
$UCSORTHOVIEW
 70
     0
  9
$UCSORGTOP
 10
0.0
 20
0.0
 30
0.0
  9
$UCSORGBOTTOM
 10
0.0
 20
0.0
 30
0.0
  9
$UCSORGLEFT
 10
0.0
 20
0.0
 30
0.0
  9
$UCSORGRIGHT
 10
0.0
 20
0.0
 30
0.0
  9
$UCSORGFRONT
 10
0.0
 20
0.0
 30
0.0
  9
$UCSORGBACK
 10
0.0
 20
0.0
 30
0.0
  9
$PUCSBASE
  2

  9
$PUCSNAME
  2

  9
$PUCSORG
 10
0.0
 20
0.0
 30
0.0
  9
$PUCSXDIR
 10
1.0
 20
0.0
 30
0.0
  9
$PUCSYDIR
 10
0.0
 20
1.0
 30
0.0
  9
$PUCSORTHOREF
  2

  9
$PUCSORTHOVIEW
 70
     0
  9
$PUCSORGTOP
 10
0.0
 20
0.0
 30
0.0
  9
$PUCSORGBOTTOM
 10
0.0
 20
0.0
 30
0.0
  9
$PUCSORGLEFT
 10
0.0
 20
0.0
 30
0.0
  9
$PUCSORGRIGHT
 10
0.0
 20
0.0
 30
0.0
  9
$PUCSORGFRONT
 10
0.0
 20
0.0
 30
0.0
  9
$PUCSORGBACK
 10
0.0
 20
0.0
 30
0.0
  9
$USERI1
 70
     0
  9
$USERI2
 70
     0
  9
$USERI3
 70
     0
  9
$USERI4
 70
     0
  9
$USERI5
 70
     0
  9
$USERR1
 40
0.0
  9
$USERR2
 40
0.0
  9
$USERR3
 40
0.0
  9
$USERR4
 40
0.0
  9
$USERR5
 40
0.0
  9
$WORLDVIEW
 70
     1
  9
$SHADEDGE
 70
     3
  9
$SHADEDIF
 70
    70
  9
$TILEMODE
 70
     1
  9
$MAXACTVP
 70
    64
  9
$PINSBASE
 10
0.0
 20
0.0
 30
0.0
  9
$PLIMCHECK
 70
     0
  9
$PEXTMIN
 10
1.000000000000000E+20
 20
1.000000000000000E+20
 30
1.000000000000000E+20
  9
$PEXTMAX
 10
-1.000000000000000E+20
 20
-1.000000000000000E+20
 30
-1.000000000000000E+20
  9
$PLIMMIN
 10
0.0
 20
0.0
  9
$PLIMMAX
 10
420.0
 20
297.0
  9
$UNITMODE
 70
     0
  9
$VISRETAIN
 70
     1
  9
$PLINEGEN
 70
     0
  9
$PSLTSCALE
 70
     1
  9
$TREEDEPTH
 70
  3020
  9
$CMLSTYLE
  2
Standard
  9
$CMLJUST
 70
     0
  9
$CMLSCALE
 40
20.0
  9
$PROXYGRAPHICS
 70
     1
  9
$MEASUREMENT
 70
     1
  9
$CELWEIGHT
370
    -1
  9
$ENDCAPS
280
     0
  9
$JOINSTYLE
280
     0
  9
$LWDISPLAY
290
     0
  9
$INSUNITS
 70
     4
  9
$HYPERLINKBASE
  1

  9
$STYLESHEET
  1

  9
$XEDIT
290
     1
  9
$CEPSNTYPE
380
     0
  9
$PSTYLEMODE
290
     1
  9
$FINGERPRINTGUID
  2
{182307C4-5197-4735-AC80-6D9D024D36A9}
  9
$VERSIONGUID
  2
{FAEB1C32-E019-11D5-929B-00C0DF256EC4}
  9
$EXTNAMES
290
     1
  9
$PSVPSCALE
 40
0.0
  9
$OLESTARTUP
290
     0
  9
$SORTENTS
280
   127
  9
$INDEXCTL
280
     0
  9
$HIDETEXT
280
     1
  9
$XCLIPFRAME
280
     2
  9
$HALOGAP
280
     0
  9
$OBSCOLOR
 70
   257
  9
$OBSLTYPE
280
     0
  9
$INTERSECTIONDISPLAY
280
     0
  9
$INTERSECTIONCOLOR
 70
   257
  9
$DIMASSOC
280
     2
  9
$PROJECTNAME
  1

  9
$CAMERADISPLAY
290
     0
  9
$LENSLENGTH
 40
50.0
  9
$CAMERAHEIGHT
 40
0.0
  9
$STEPSPERSEC
 40
2.0
  9
$STEPSIZE
 40
6.0
  9
$3DDWFPREC
 40
2.0
  9
$PSOLWIDTH
 40
5.0
  9
$PSOLHEIGHT
 40
80.0
  9
$LOFTANG1
 40
1.570796326794897
  9
$LOFTANG2
 40
1.570796326794897
  9
$LOFTMAG1
 40
0.0
  9
$LOFTMAG2
 40
0.0
  9
$LOFTPARAM
 70
     7
  9
$LOFTNORMALS
280
     1
  9
$LATITUDE
 40
37.795
  9
$LONGITUDE
 40
-122.394
  9
$NORTHDIRECTION
 40
0.0
  9
$TIMEZONE
 70
 -8000
  9
$LIGHTGLYPHDISPLAY
280
     1
  9
$TILEMODELIGHTSYNCH
280
     1
  9
$SOLIDHIST
280
     1
  9
$SHOWHIST
280
     1
  9
$DWFFRAME
280
     2
  9
$DGNFRAME
280
     2
  9
$REALWORLDSCALE
290
     1
  9
$INTERFERECOLOR
 62
   256
  9
$CSHADOW
280
     0
  9
$SHADOWPLANELOCATION
 40
0.0
  0
ENDSEC
  0
SECTION
  2
CLASSES
  0
CLASS
  1
ACDBDICTIONARYWDFLT
  2
AcDbDictionaryWithDefault
  3
ObjectDBX Classes
 90
        0
 91
        4
280
     0
281
     0
  0
CLASS
  1
VISUALSTYLE
  2
AcDbVisualStyle
  3
ObjectDBX Classes
 90
     4095
 91
        4
280
     0
281
     0
  0
CLASS
  1
MATERIAL
  2
AcDbMaterial
  3
ObjectDBX Classes
 90
     1153
 91
        4
280
     0
281
     0
  0
ENDSEC
  0
SECTION
  2
TABLES
  0
TABLE
  2
VPORT
  5
8
330
0
100
AcDbSymbolTable
 70
     1
  0
VPORT
  5
29
330
8
100
AcDbSymbolTableRecord
100
AcDbViewportTableRecord
  2
*Active
 70
     0
 10
0.0
 20
0.0
 11
1.0
 21
1.0
 12
0.0
 22
0.0
 13
0.0
 23
0.0
 14
10.0
 24
10.0
 15
10.0
 25
10.0
 16
0.0
 26
0.0
 36
1.0
 17
0.0
 27
0.0
 37
0.0
 40
6930.000000000001
 41
1.414285714285714
 42
50.0
 43
0.0
 44
0.0
 50
0.0
 51
0.0
 71
     0
 72
 10000
 73
     1
 74
     3
 75
     0
 76
     0
 77
     0
 78
     0
281
     0
 65
     1
110
0.0
120
0.0
130
0.0
111
1.0
121
0.0
131
0.0
112
0.0
122
1.0
132
0.0
 79
     0
146
0.0
 60
     3
 61
     5
292
     1
282
     1
141
0.0
142
0.0
 63
   250
  0
ENDTAB
  0
TABLE
  2
LTYPE
  5
5
330
0
100
AcDbSymbolTable
 70
     2
  0
LTYPE
  5
14
330
5
100
AcDbSymbolTableRecord
100
AcDbLinetypeTableRecord
  2
ByBlock
 70
     0
  3

 72
    65
 73
     0
 40
0.0
  0
LTYPE
  5
15
330
5
100
AcDbSymbolTableRecord
100
AcDbLinetypeTableRecord
  2
ByLayer
 70
     0
  3

 72
    65
 73
     0
 40
0.0
  0
LTYPE
  5
16
330
5
100
AcDbSymbolTableRecord
100
AcDbLinetypeTableRecord
  2
Continuous
 70
     0
  3
Solid line
 72
    65
 73
     0
 40
0.0
  0
LTYPE
  5
3F
330
5
100
AcDbSymbolTableRecord
100
AcDbLinetypeTableRecord
  2
JWW_DASHED1
 70
     0
  3
-  --  --  --  --  --  --  --  -
 72
    65
 73
     2
 40
1.693333333333333
 49
0.8466666666666667
 74
     0
 49
-0.8466666666666667
 74
     0
  0
ENDTAB
  0
TABLE
  2
LAYER
  5
2
330
0
100
AcDbSymbolTable
 70
     3
  0
LAYER
  5
10
330
2
100
AcDbSymbolTableRecord
100
AcDbLayerTableRecord
  2
0
 70
     0
 62
     7
  6
Continuous
370
    -3
390
F
347
3E
  0
LAYER
  5
40
330
2
100
AcDbSymbolTableRecord
100
AcDbLayerTableRecord
  2
0-0
 70
     0
 62
     7
  6
Continuous
370
    -3
390
F
347
3E
  0
LAYER
  5
41
330
2
100
AcDbSymbolTableRecord
100
AcDbLayerTableRecord
  2
寸法
 70
     0
 62
     7
  6
Continuous
370
    -3
390
F
347
3E
  0
ENDTAB
  0
TABLE
  2
STYLE
  5
3
330
0
100
AcDbSymbolTable
 70
     1
  0
STYLE
  5
11
330
3
100
AcDbSymbolTableRecord
100
AcDbTextStyleTableRecord
  2
Standard
 70
     0
 40
0.0
 41
1.0
 50
0.0
 71
     0
 42
2.5
  3
txt
  4

  0
ENDTAB
  0
TABLE
  2
VIEW
  5
6
330
0
100
AcDbSymbolTable
 70
     0
  0
ENDTAB
  0
TABLE
  2
UCS
  5
7
330
0
100
AcDbSymbolTable
 70
     0
  0
ENDTAB
  0
TABLE
  2
APPID
  5
9
330
0
100
AcDbSymbolTable
 70
     1
  0
APPID
  5
12
330
9
100
AcDbSymbolTableRecord
100
AcDbRegAppTableRecord
  2
ACAD
 70
     0
  0
ENDTAB
  0
TABLE
  2
DIMSTYLE
  5
A
330
0
100
AcDbSymbolTable
 70
     1
100
AcDbDimStyleTable
  0
DIMSTYLE
105
27
330
A
100
AcDbSymbolTableRecord
100
AcDbDimStyleTableRecord
  2
ISO-25
 70
     0
 41
2.5
 42
0.625
 43
3.75
 44
1.25
 73
     0
 74
     0
 77
     1
 78
     8
140
2.5
141
2.5
143
0.03937007874016
147
0.625
171
     3
172
     1
178
     0
271
     2
272
     2
274
     3
278
    44
283
     0
284
     8
340
11
  0
ENDTAB
  0
TABLE
  2
BLOCK_RECORD
  5
1
330
0
100
AcDbSymbolTable
 70
     1
  0
BLOCK_RECORD
  5
1F
330
1
100
AcDbSymbolTableRecord
100
AcDbBlockTableRecord
  2
*Model_Space
340
22
 70
     0
280
     1
281
     0
  0
BLOCK_RECORD
  5
1B
330
1
100
AcDbSymbolTableRecord
100
AcDbBlockTableRecord
  2
*Paper_Space
340
1E
 70
     0
280
     1
281
     0
  0
BLOCK_RECORD
  5
23
330
1
100
AcDbSymbolTableRecord
100
AcDbBlockTableRecord
  2
*Paper_Space0
340
26
 70
     0
280
     1
281
     0
  0
ENDTAB
  0
ENDSEC
  0
SECTION
  2
BLOCKS
  0
BLOCK
  5
20
330
1F
100
AcDbEntity
  8
0
100
AcDbBlockBegin
  2
*Model_Space
 70
     0
 10
0.0
 20
0.0
 30
0.0
  3
*Model_Space
  1

  0
ENDBLK
  5
21
330
1F
100
AcDbEntity
  8
0
100
AcDbBlockEnd
  0
BLOCK
  5
1C
330
1B
100
AcDbEntity
 67
     1
  8
0
100
AcDbBlockBegin
  2
*Paper_Space
 70
     0
 10
0.0
 20
0.0
 30
0.0
  3
*Paper_Space
  1

  0
ENDBLK
  5
1D
330
1B
100
AcDbEntity
 67
     1
  8
0
100
AcDbBlockEnd
  0
BLOCK
  5
24
330
23
100
AcDbEntity
  8
0
100
AcDbBlockBegin
  2
*Paper_Space0
 70
     0
 10
0.0
 20
0.0
 30
0.0
  3
*Paper_Space0
  1

  0
ENDBLK
  5
25
330
23
100
AcDbEntity
  8
0
100
AcDbBlockEnd
  0
ENDSEC
  0
SECTION
  2
ENTITIES
  0
LINE
  5
42
330
1F
100
AcDbEntity
  8
0-0
  6
Continuous
 62
    92
370
    13
100
AcDbLine
 10
-753.8308424837805
 20
-979.7383126629481
 30
0.0
 11
-783.8308424837805
 21
-979.7383126629481
 31
0.0
  0
LINE
  5
43
330
1F
100
AcDbEntity
  8
0-0
  6
Continuous
 62
    92
370
    13
100
AcDbLine
 10
-783.8308424837805
 20
-979.7383126629481
 30
0.0
 11
-783.8308424837805
 21
1055.26168733705
 31
0.0
  0
LINE
  5
44
330
1F
100
AcDbEntity
  8
0-0
  6
Continuous
 62
    92
370
    13
100
AcDbLine
 10
-753.8308424837805
 20
-979.7383126629481
 30
0.0
 11
-753.8308424837805
 21
1055.26168733705
 31
0.0
  0
LINE
  5
45
330
1F
100
AcDbEntity
  8
0-0
  6
Continuous
 62
    92
370
    13
100
AcDbLine
 10
724.169157516219
 20
-979.7383126629489
 30
0.0
 11
754.169157516219
 21
-979.7383126629489
 31
0.0
  0
LINE
  5
46
330
1F
100
AcDbEntity
  8
0-0
  6
Continuous
 62
    92
370
    13
100
AcDbLine
 10
1564.169157516219
 20
-979.7383126629481
 30
0.0
 11
1534.169157516219
 21
-979.7383126629481
 31
0.0
  0
LINE
  5
47
330
1F
100
AcDbEntity
  8
0-0
  6
Continuous
 62
    92
370
    13
100
AcDbLine
 10
-753.8308424837805
 20
1025.261687337052
 30
0.0
 11
1534.169157516219
 21
1025.261687337052
 31
0.0
  0
LINE
  5
48
330
1F
100
AcDbEntity
  8
0-0
  6
Continuous
 62
    92
370
    13
100
AcDbLine
 10
-783.8308424837805
 20
1055.26168733705
 30
0.0
 11
1564.169157516219
 21
1055.26168733705
 31
0.0
  0
LINE
  5
49
330
1F
100
AcDbEntity
  8
0-0
  6
Continuous
 62
    92
370
    13
100
AcDbLine
 10
1564.169157516219
 20
-979.7383126629481
 30
0.0
 11
1564.169157516219
 21
1055.26168733705
 31
0.0
  0
LINE
  5
4A
330
1F
100
AcDbEntity
  8
0-0
  6
Continuous
 62
    92
370
    13
100
AcDbLine
 10
1534.169157516219
 20
-979.7383126629481
 30
0.0
 11
1534.169157516219
 21
1055.26168733705
 31
0.0
  0
LINE
  5
4B
330
1F
100
AcDbEntity
  8
0-0
  6
JWW_DASHED1
 62
   120
370
     5
100
AcDbLine
 10
53.16915751621877
 20
-971.7383126629489
 30
0.0
 11
53.16915751621877
 21
1011.26168733705
 31
0.0
  0
LINE
  5
4C
330
1F
100
AcDbEntity
  8
0-0
  6
JWW_DASHED1
 62
   120
370
     5
100
AcDbLine
 10
-756.8308424837812
 20
1011.26168733705
 30
0.0
 11
-753.8308424837805
 21
1011.26168733705
 31
0.0
  0
LINE
  5
4D
330
1F
100
AcDbEntity
  8
0-0
  6
JWW_DASHED1
 62
   120
370
     5
100
AcDbLine
 10
-756.8308424837812
 20
-971.7383126629489
 30
0.0
 11
-756.8308424837812
 21
1011.26168733705
 31
0.0
  0
LINE
  5
4E
330
1F
100
AcDbEntity
  8
0-0
  6
JWW_DASHED1
 62
   120
370
     5
100
AcDbLine
 10
-753.8308424837805
 20
-971.7383126629489
 30
0.0
 11
-756.8308424837812
 21
-971.7383126629489
 31
0.0
  0
LINE
  5
4F
330
1F
100
AcDbEntity
  8
0-0
  6
Continuous
 62
     7
370
     9
100
AcDbLine
 10
-720.8308424837833
 20
15.36168733705111
 30
0.0
 11
-720.8308424837833
 21
-43.83831266294877
 31
0.0
  0
LINE
  5
50
330
1F
100
AcDbEntity
  8
0-0
  6
Continuous
 62
     7
370
     9
100
AcDbLine
 10
-690.8308424837833
 20
-43.83831266294877
 30
0.0
 11
-690.8308424837833
 21
15.36168733705111
 31
0.0
  0
ARC
  5
51
330
1F
100
AcDbEntity
  8
0-0
  6
Continuous
 62
     7
370
     9
100
AcDbCircle
 10
-705.8308424837833
 20
15.36168733705111
 30
0.0
 40
15.0
100
AcDbArc
 50
0.0
 51
180.0
  0
ARC
  5
52
330
1F
100
AcDbEntity
  8
0-0
  6
Continuous
 62
     7
370
     9
100
AcDbCircle
 10
-705.8308424837833
 20
-43.83831266294877
 30
0.0
 40
15.0
100
AcDbArc
 50
180.0
 51
0.0
  0
ARC
  5
53
330
1F
100
AcDbEntity
  8
0-0
  6
Continuous
 62
    92
370
    13
100
AcDbCircle
 10
-725.3308424837826
 20
-73.73831266294886
 30
0.0
 40
1.5
100
AcDbArc
 50
180.0
 51
270.0
  0
LINE
  5
54
330
1F
100
AcDbEntity
  8
0-0
  6
Continuous
 62
    92
370
    13
100
AcDbLine
 10
-726.8308424837812
 20
-73.73831266294886
 30
0.0
 11
-726.8308424837812
 21
45.2616873370512
 31
0.0
  0
LINE
  5
55
330
1F
100
AcDbEntity
  8
0-0
  6
Continuous
 62
    92
370
    13
100
AcDbLine
 10
-725.3308424837826
 20
-75.23831266294877
 30
0.0
 11
-686.330842483784
 21
-75.23831266294877
 31
0.0
  0
ARC
  5
56
330
1F
100
AcDbEntity
  8
0-0
  6
Continuous
 62
    92
370
    13
100
AcDbCircle
 10
-686.330842483784
 20
-73.73831266294886
 30
0.0
 40
1.5
100
AcDbArc
 50
270.0
 51
0.0
  0
LINE
  5
57
330
1F
100
AcDbEntity
  8
0-0
  6
Continuous
 62
    92
370
    13
100
AcDbLine
 10
-684.8308424837853
 20
-73.73831266294886
 30
0.0
 11
-684.8308424837853
 21
45.2616873370512
 31
0.0
  0
ARC
  5
58
330
1F
100
AcDbEntity
  8
0-0
  6
Continuous
 62
    92
370
    13
100
AcDbCircle
 10
-686.330842483784
 20
45.2616873370512
 30
0.0
 40
1.5
100
AcDbArc
 50
0.0
 51
90.00000000000001
  0
LINE
  5
59
330
1F
100
AcDbEntity
  8
0-0
  6
Continuous
 62
    92
370
    13
100
AcDbLine
 10
-686.330842483784
 20
46.76168733705111
 30
0.0
 11
-725.3308424837826
 21
46.76168733705111
 31
0.0
  0
ARC
  5
5A
330
1F
100
AcDbEntity
  8
0-0
  6
Continuous
 62
    92
370
    13
100
AcDbCircle
 10
-725.3308424837826
 20
45.2616873370512
 30
0.0
 40
1.5
100
AcDbArc
 50
90.0
 51
180.0
  0
LINE
  5
5B
330
1F
100
AcDbEntity
  8
0-0
  6
Continuous
 62
    92
370
    13
100
AcDbLine
 10
-24.8308424837802
 20
1011.26168733705
 30
0.0
 11
-24.8308424837802
 21
-971.7383126629489
 31
0.0
  0
LINE
  5
5C
330
1F
100
AcDbEntity
  8
0-0
  6
Continuous
 62
    92
370
    13
100
AcDbLine
 10
-753.8308424837805
 20
-971.7383126629489
 30
0.0
 11
785.169157516219
 21
-971.7383126629489
 31
0.0
  0
LINE
  5
5D
330
1F
100
AcDbEntity
  8
0-0
  6
Continuous
 62
    92
370
    13
100
AcDbLine
 10
785.169157516219
 20
-971.7383126629489
 30
0.0
 11
785.169157516219
 21
1011.26168733705
 31
0.0
  0
LINE
  5
5E
330
1F
100
AcDbEntity
  8
0-0
  6
Continuous
 62
    92
370
    13
100
AcDbLine
 10
-753.8308424837805
 20
1011.26168733705
 30
0.0
 11
785.169157516219
 21
1011.26168733705
 31
0.0
  0
LINE
  5
5F
330
1F
100
AcDbEntity
  8
0-0
  6
JWW_DASHED1
 62
   120
370
     5
100
AcDbLine
 10
754.169157516219
 20
-971.7383126629489
 30
0.0
 11
754.169157516219
 21
1025.261687337052
 31
0.0
  0
LINE
  5
60
330
1F
100
AcDbEntity
  8
0-0
  6
JWW_DASHED1
 62
   120
370
     5
100
AcDbLine
 10
724.169157516219
 20
-971.7383126629489
 30
0.0
 11
724.169157516219
 21
1025.261687337052
 31
0.0
  0
LINE
  5
61
330
1F
100
AcDbEntity
  8
0-0
  6
Continuous
 62
    92
370
    13
100
AcDbLine
 10
754.169157516219
 20
-971.7383126629489
 30
0.0
 11
754.169157516219
 21
-979.7383126629489
 31
0.0
  0
LINE
  5
62
330
1F
100
AcDbEntity
  8
0-0
  6
Continuous
 62
    92
370
    13
100
AcDbLine
 10
724.169157516219
 20
-971.7383126629489
 30
0.0
 11
724.169157516219
 21
-979.7383126629489
 31
0.0
  0
LINE
  5
63
330
1F
100
AcDbEntity
  8
0-0
  6
Continuous
 62
    92
370
    13
100
AcDbLine
 10
-56.83084248377838
 20
-830.7383126629485
 30
0.0
 11
-646.830842483779
 21
-830.7383126629485
 31
0.0
  0
LINE
  5
64
330
1F
100
AcDbEntity
  8
0-0
  6
Continuous
 62
    92
370
    13
100
AcDbLine
 10
-646.830842483779
 20
1011.261687337051
 30
0.0
 11
-646.830842483779
 21
-971.7383126629486
 31
0.0
  0
LINE
  5
65
330
1F
100
AcDbEntity
  8
0-0
  6
Continuous
 62
    92
370
    13
100
AcDbLine
 10
-56.83084248377838
 20
1011.261687337051
 30
0.0
 11
-56.83084248377838
 21
-971.7383126629486
 31
0.0
  0
LINE
  5
66
330
1F
100
AcDbEntity
  8
0-0
  6
Continuous
 62
    92
370
    13
100
AcDbLine
 10
-646.830842483779
 20
876.2616873370508
 30
0.0
 11
-56.83084248377838
 21
876.2616873370508
 31
0.0
  0
LINE
  5
67
330
1F
100
AcDbEntity
  8
0-0
  6
Continuous
 62
    92
370
    13
100
AcDbLine
 10
-396.8308424837778
 20
876.2616873370508
 30
0.0
 11
-396.8308424837778
 21
-830.7383126629485
 31
0.0
  0
LINE
  5
68
330
1F
100
AcDbEntity
  8
0-0
  6
Continuous
 62
    92
370
    13
100
AcDbLine
 10
-306.8308424837778
 20
876.2616873370508
 30
0.0
 11
-306.8308424837778
 21
-830.7383126629485
 31
0.0
  0
LINE
  5
69
330
1F
100
AcDbEntity
  8
0-0
  6
JWW_DASHED1
 62
   120
370
     5
100
AcDbLine
 10
-61.3214008336962
 20
-830.7383126629549
 30
0.0
 11
-56.83084248377156
 21
-826.2477543130315
 31
0.0
  0
LINE
  5
6A
330
1F
100
AcDbEntity
  8
0-0
  6
JWW_DASHED1
 62
   120
370
     5
100
AcDbLine
 10
-68.39246864697827
 20
-830.738312662951
 30
0.0
 11
-56.83084248377668
 21
-819.1766864997503
 31
0.0
  0
LINE
  5
6B
330
1F
100
AcDbEntity
  8
0-0
  6
JWW_DASHED1
 62
   120
370
     5
100
AcDbLine
 10
-75.46353646026034
 20
-830.7383126629472
 30
0.0
 11
-56.83084248378179
 21
-812.105618686469
 31
0.0
  0
LINE
  5
6C
330
1F
100
AcDbEntity
  8
0-0
  6
JWW_DASHED1
 62
   120
370
     5
100
AcDbLine
 10
-82.53460427354071
 20
-830.7383126629434
 30
0.0
 11
-56.8308424837852
 21
-805.0345508731874
 31
0.0
  0
LINE
  5
6D
330
1F
100
AcDbEntity
  8
0-0
  6
JWW_DASHED1
 62
   120
370
     5
100
AcDbLine
 10
-89.60567208682278
 20
-830.73831266294
 30
0.0
 11
-56.83084248378862
 21
-797.9634830599061
 31
0.0
  0
LINE
  5
6E
330
1F
100
AcDbEntity
  8
0-0
  6
JWW_DASHED1
 62
   120
370
     5
100
AcDbLine
 10
-96.67673990011679
 20
-830.7383126629493
 30
0.0
 11
-56.83084248377668
 21
-790.8924152466084
 31
0.0
  0
LINE
  5
6F
330
1F
100
AcDbEntity
  8
0-0
  6
JWW_DASHED1
 62
   120
370
     5
100
AcDbLine
 10
-103.7478077133989
 20
-830.7383126629451
 30
0.0
 11
-56.83084248378179
 21
-783.8213474333271
 31
0.0
  0
LINE
  5
70
330
1F
100
AcDbEntity
  8
0-0
  6
JWW_DASHED1
 62
   120
370
     5
100
AcDbLine
 10
-110.8188755266809
 20
-830.7383126629408
 30
0.0
 11
-56.8308424837852
 21
-776.7502796200455
 31
0.0
  0
LINE
  5
71
330
1F
100
AcDbEntity
  8
0-0
  6
JWW_DASHED1
 62
   120
370
     5
100
AcDbLine
 10
-117.8899433399221
 20
-830.7383126629519
 30
0.0
 11
-56.83084248377838
 21
-769.6792118068082
 31
0.0
  0
LINE
  5
72
330
1F
100
AcDbEntity
  8
0-0
  6
JWW_DASHED1
 62
   120
370
     5
100
AcDbLine
 10
-124.9610111532041
 20
-830.738312662948
 30
0.0
 11
-56.83084248378179
 21
-762.6081439935265
 31
0.0
  0
LINE
  5
73
330
1F
100
AcDbEntity
  8
0-0
  6
JWW_DASHED1
 62
   120
370
     5
100
AcDbLine
 10
-132.0320789664862
 20
-830.7383126629442
 30
0.0
 11
-56.8308424837852
 21
-755.5370761802449
 31
0.0
  0
LINE
  5
74
330
1F
100
AcDbEntity
  8
0-0
  6
JWW_DASHED1
 62
   120
370
     5
100
AcDbLine
 10
-139.1031467797683
 20
-830.7383126629408
 30
0.0
 11
-56.83084248379032
 21
-748.4660083669637
 31
0.0
  0
LINE
  5
75
330
1F
100
AcDbEntity
  8
0-0
  6
JWW_DASHED1
 62
   120
370
     5
100
AcDbLine
 10
-146.1742145930589
 20
-830.7383126629468
 30
0.0
 11
-56.83084248377838
 21
-741.3949405536654
 31
0.0
  0
LINE
  5
76
330
1F
100
AcDbEntity
  8
0-0
  6
JWW_DASHED1
 62
   120
370
     5
100
AcDbLine
 10
-153.2452824063409
 20
-830.7383126629425
 30
0.0
 11
-56.83084248378179
 21
-734.3238727403842
 31
0.0
  0
LINE
  5
77
330
1F
100
AcDbEntity
  8
0-0
  6
JWW_DASHED1
 62
   120
370
     5
100
AcDbLine
 10
-160.3163502196435
 20
-830.7383126629609
 30
0.0
 11
-56.83084248377156
 21
-727.252804927088
 31
0.0
  0
LINE
  5
78
330
1F
100
AcDbEntity
  8
0-0
  6
JWW_DASHED1
 62
   120
370
     5
100
AcDbLine
 10
-167.3874180329256
 20
-830.738312662957
 30
0.0
 11
-56.83084248377497
 21
-720.1817371138064
 31
0.0
  0
LINE
  5
79
330
1F
100
AcDbEntity
  8
0-0
  6
JWW_DASHED1
 62
   120
370
     5
100
AcDbLine
 10
-174.4584858462076
 20
-830.7383126629536
 30
0.0
 11
-56.83084248377838
 21
-713.1106693005252
 31
0.0
  0
LINE
  5
7A
330
1F
100
AcDbEntity
  8
0-0
  6
JWW_DASHED1
 62
   120
370
     5
100
AcDbLine
 10
-181.52955365943
 20
-830.7383126629451
 30
0.0
 11
-56.83084248378862
 21
-706.0396014873028
 31
0.0
  0
LINE
  5
7B
330
1F
100
AcDbEntity
  8
0-0
  6
JWW_DASHED1
 62
   120
370
     5
100
AcDbLine
 10
-188.6006214727189
 20
-830.7383126629488
 30
0.0
 11
-56.83084248377497
 21
-698.9685336740054
 31
0.0
  0
LINE
  5
7C
330
1F
100
AcDbEntity
  8
0-0
  6
JWW_DASHED1
 62
   120
370
     5
100
AcDbLine
 10
-195.671689286001
 20
-830.7383126629446
 30
0.0
 11
-56.83084248377838
 21
-691.8974658607228
 31
0.0
  0
LINE
  5
7D
330
1F
100
AcDbEntity
  8
0-0
  6
JWW_DASHED1
 62
   120
370
     5
100
AcDbLine
 10
-202.742757099283
 20
-830.7383126629404
 30
0.0
 11
-56.83084248378179
 21
-684.8263980474412
 31
0.0
  0
LINE
  5
7E
330
1F
100
AcDbEntity
  8
0-0
  6
JWW_DASHED1
 62
   120
370
     5
100
AcDbLine
 10
-209.813824912589
 20
-830.7383126629617
 30
0.0
 11
-56.83084248377156
 21
-677.7553302341455
 31
0.0
  0
LINE
  5
7F
330
1F
100
AcDbEntity
  8
0-0
  6
JWW_DASHED1
 62
   120
370
     5
100
AcDbLine
 10
-216.8848927258711
 20
-830.7383126629578
 30
0.0
 11
-56.83084248377668
 21
-670.6842624208643
 31
0.0
  0
LINE
  5
80
330
1F
100
AcDbEntity
  8
0-0
  6
JWW_DASHED1
 62
   120
370
     5
100
AcDbLine
 10
-223.9559605391531
 20
-830.7383126629541
 30
0.0
 11
-56.83084248378179
 21
-663.6131946075831
 31
0.0
  0
LINE
  5
81
330
1F
100
AcDbEntity
  8
0-0
  6
JWW_DASHED1
 62
   120
370
     5
100
AcDbLine
 10
-231.0270283524335
 20
-830.7383126629502
 30
0.0
 11
-56.8308424837852
 21
-656.5421267943015
 31
0.0
  0
LINE
  5
82
330
1F
100
AcDbEntity
  8
0-0
  6
JWW_DASHED1
 62
   120
370
     5
100
AcDbLine
 10
-238.0980961657156
 20
-830.7383126629468
 30
0.0
 11
-56.83084248378862
 21
-649.4710589810198
 31
0.0
  0
LINE
  5
83
330
1F
100
AcDbEntity
  8
0-0
  6
JWW_DASHED1
 62
   120
370
     5
100
AcDbLine
 10
-245.1691639789414
 20
-830.7383126629425
 30
0.0
 11
-56.83084248378009
 21
-642.39999116778
 31
0.0
  0
LINE
  5
84
330
1F
100
AcDbEntity
  8
0-0
  6
JWW_DASHED1
 62
   120
370
     5
100
AcDbLine
 10
-252.2402317922234
 20
-830.7383126629383
 30
0.0
 11
-56.8308424837835
 21
-635.3289233544988
 31
0.0
  0
LINE
  5
85
330
1F
100
AcDbEntity
  8
0-0
  6
JWW_DASHED1
 62
   120
370
     5
100
AcDbLine
 10
-259.3112996055328
 20
-830.7383126629625
 30
0.0
 11
-56.83084248377497
 21
-628.2578555412034
 31
0.0
  0
LINE
  5
86
330
1F
100
AcDbEntity
  8
0-0
  6
JWW_DASHED1
 62
   120
370
     5
100
AcDbLine
 10
-266.3823674188149
 20
-830.7383126629587
 30
0.0
 11
-56.83084248377838
 21
-621.1867877279218
 31
0.0
  0
LINE
  5
87
330
1F
100
AcDbEntity
  8
0-0
  6
JWW_DASHED1
 62
   120
370
     5
100
AcDbLine
 10
-273.4534352320969
 20
-830.7383126629549
 30
0.0
 11
-56.83084248378179
 21
-614.1157199146402
 31
0.0
  0
LINE
  5
88
330
1F
100
AcDbEntity
  8
0-0
  6
JWW_DASHED1
 62
   120
370
     5
100
AcDbLine
 10
-280.524503045379
 20
-830.738312662951
 30
0.0
 11
-56.83084248378691
 21
-607.0446521013589
 31
0.0
  0
LINE
  5
89
330
1F
100
AcDbEntity
  8
0-0
  6
JWW_DASHED1
 62
   120
370
     5
100
AcDbLine
 10
-287.5955708586611
 20
-830.7383126629476
 30
0.0
 11
-56.83084248379032
 21
-599.9735842880777
 31
0.0
  0
LINE
  5
8A
330
1F
100
AcDbEntity
  8
0-0
  6
JWW_DASHED1
 62
   120
370
     5
100
AcDbLine
 10
-294.6666386719431
 20
-830.7383126629446
 30
0.0
 11
-56.83084248377668
 21
-592.9025164747782
 31
0.0
  0
LINE
  5
8B
330
1F
100
AcDbEntity
  8
0-0
  6
JWW_DASHED1
 62
   120
370
     5
100
AcDbLine
 10
-301.7377064852235
 20
-830.73831266294
 30
0.0
 11
-56.83084248378009
 21
-585.831448661497
 31
0.0
  0
LINE
  5
8C
330
1F
100
AcDbEntity
  8
0-0
  6
JWW_DASHED1
 62
   120
370
     5
100
AcDbLine
 10
-306.8308424837625
 20
-828.7603808482484
 30
0.0
 11
-56.83084248377497
 21
-578.7603808482609
 31
0.0
  0
LINE
  5
8D
330
1F
100
AcDbEntity
  8
0-0
  6
JWW_DASHED1
 62
   120
370
     5
100
AcDbLine
 10
-306.8308424837676
 20
-821.6893130349667
 30
0.0
 11
-56.83084248377838
 21
-571.6893130349793
 31
0.0
  0
LINE
  5
8E
330
1F
100
AcDbEntity
  8
0-0
  6
JWW_DASHED1
 62
   120
370
     5
100
AcDbLine
 10
-306.830842483771
 20
-814.6182452216856
 30
0.0
 11
-56.8308424837835
 21
-564.6182452216981
 31
0.0
  0
LINE
  5
8F
330
1F
100
AcDbEntity
  8
0-0
  6
JWW_DASHED1
 62
   120
370
     5
100
AcDbLine
 10
-306.8308424837761
 20
-807.5471774084043
 30
0.0
 11
-56.83084248378862
 21
-557.5471774084168
 31
0.0
  0
LINE
  5
90
330
1F
100
AcDbEntity
  8
0-0
  6
JWW_DASHED1
 62
   120
370
     5
100
AcDbLine
 10
-306.8308424837795
 20
-800.4761095951231
 30
0.0
 11
-56.83084248379203
 21
-550.4761095951352
 31
0.0
  0
LINE
  5
91
330
1F
100
AcDbEntity
  8
0-0
  6
JWW_DASHED1
 62
   120
370
     5
100
AcDbLine
 10
-306.8308424837829
 20
-793.4050417818411
 30
0.0
 11
-56.83084248377838
 21
-543.4050417818356
 31
0.0
  0
LINE
  5
92
330
1F
100
AcDbEntity
  8
0-0
  6
JWW_DASHED1
 62
   120
370
     5
100
AcDbLine
 10
-306.8308424837863
 20
-786.3339739685598
 30
0.0
 11
-56.83084248378179
 21
-536.333973968554
 31
0.0
  0
LINE
  5
93
330
1F
100
AcDbEntity
  8
0-0
  6
JWW_DASHED1
 62
   120
370
     5
100
AcDbLine
 10
-306.8308424837761
 20
-779.2629061552624
 30
0.0
 11
-56.8308424837852
 21
-529.2629061552724
 31
0.0
  0
LINE
  5
94
330
1F
100
AcDbEntity
  8
0-0
  6
JWW_DASHED1
 62
   120
370
     5
100
AcDbLine
 10
-306.8308424837642
 20
-772.1918383419654
 30
0.0
 11
-56.83084248377668
 21
-522.1918383419784
 31
0.0
  0
LINE
  5
95
330
1F
100
AcDbEntity
  8
0-0
  6
JWW_DASHED1
 62
   120
370
     5
100
AcDbLine
 10
-306.8308424837727
 20
-765.120770528743
 30
0.0
 11
-56.8308424837852
 21
-515.120770528756
 31
0.0
  0
LINE
  5
96
330
1F
100
AcDbEntity
  8
0-0
  6
JWW_DASHED1
 62
   120
370
     5
100
AcDbLine
 10
-306.8308424837761
 20
-758.0497027154618
 30
0.0
 11
-56.83084248378862
 21
-508.0497027154743
 31
0.0
  0
LINE
  5
97
330
1F
100
AcDbEntity
  8
0-0
  6
JWW_DASHED1
 62
   120
370
     5
100
AcDbLine
 10
-306.8308424837812
 20
-750.9786349021806
 30
0.0
 11
-56.83084248377838
 21
-500.9786349021773
 31
0.0
  0
LINE
  5
98
330
1F
100
AcDbEntity
  8
0-0
  6
JWW_DASHED1
 62
   120
370
     5
100
AcDbLine
 10
-306.8308424837846
 20
-743.9075670888985
 30
0.0
 11
-56.83084248377838
 21
-493.9075670888927
 31
0.0
  0
LINE
  5
99
330
1F
100
AcDbEntity
  8
0-0
  6
JWW_DASHED1
 62
   120
370
     5
100
AcDbLine
 10
-400.7326558711179
 20
-830.7383126629468
 30
0.0
 11
-396.8308424837795
 21
-826.8364992756084
 31
0.0
  0
LINE
  5
9A
330
1F
100
AcDbEntity
  8
0-0
  6
JWW_DASHED1
 62
   120
370
     5
100
AcDbLine
 10
-306.830842483788
 20
-736.8364992756169
 30
0.0
 11
-56.83084248378179
 21
-486.8364992756115
 31
0.0
  0
LINE
  5
9B
330
1F
100
AcDbEntity
  8
0-0
  6
JWW_DASHED1
 62
   120
370
     5
100
AcDbLine
 10
-407.8037236844153
 20
-830.7383126629587
 30
0.0
 11
-396.8308424837676
 21
-819.765431462311
 31
0.0
  0
LINE
  5
9C
330
1F
100
AcDbEntity
  8
0-0
  6
JWW_DASHED1
 62
   120
370
     5
100
AcDbLine
 10
-306.8308424837625
 20
-729.765431462305
 30
0.0
 11
-56.83084248377497
 21
-479.7654314623175
 31
0.0
  0
LINE
  5
9D
330
1F
100
AcDbEntity
  8
0-0
  6
JWW_DASHED1
 62
   120
370
     5
100
AcDbLine
 10
-414.8747914976974
 20
-830.7383126629553
 30
0.0
 11
-396.8308424837727
 21
-812.6943636490297
 31
0.0
  0
LINE
  5
9E
330
1F
100
AcDbEntity
  8
0-0
  6
JWW_DASHED1
 62
   120
370
     5
100
AcDbLine
 10
-306.8308424837659
 20
-722.6943636490233
 30
0.0
 11
-56.83084248377838
 21
-472.6943636490358
 31
0.0
  0
LINE
  5
9F
330
1F
100
AcDbEntity
  8
0-0
  6
JWW_DASHED1
 62
   120
370
     5
100
AcDbLine
 10
-421.9458593109795
 20
-830.7383126629514
 30
0.0
 11
-396.8308424837761
 21
-805.6232958357485
 31
0.0
  0
LINE
  5
A0
330
1F
100
AcDbEntity
  8
0-0
  6
JWW_DASHED1
 62
   120
370
     5
100
AcDbLine
 10
-306.8308424837693
 20
-715.6232958357417
 30
0.0
 11
-56.83084248378179
 21
-465.6232958357542
 31
0.0
  0
LINE
  5
A1
330
1F
100
AcDbEntity
  8
0-0
  6
JWW_DASHED1
 62
   120
370
     5
100
AcDbLine
 10
-429.0169271242615
 20
-830.7383126629476
 30
0.0
 11
-396.8308424837795
 21
-798.5522280224673
 31
0.0
  0
LINE
  5
A2
330
1F
100
AcDbEntity
  8
0-0
  6
JWW_DASHED1
 62
   120
370
     5
100
AcDbLine
 10
-306.8308424837727
 20
-708.5522280224604
 30
0.0
 11
-56.8308424837852
 21
-458.5522280224729
 31
0.0
  0
LINE
  5
A3
330
1F
100
AcDbEntity
  8
0-0
  6
JWW_DASHED1
 62
   120
370
     5
100
AcDbLine
 10
-436.0879949374959
 20
-830.7383126629527
 30
0.0
 11
-396.8308424837727
 21
-791.4811602092283
 31
0.0
  0
LINE
  5
A4
330
1F
100
AcDbEntity
  8
0-0
  6
JWW_DASHED1
 62
   120
370
     5
100
AcDbLine
 10
-306.8308424837812
 20
-701.4811602092368
 30
0.0
 11
-56.83084248377497
 21
-451.481160209231
 31
0.0
  0
LINE
  5
A5
330
1F
100
AcDbEntity
  8
0-0
  6
JWW_DASHED1
 62
   120
370
     5
100
AcDbLine
 10
-443.1590627507779
 20
-830.7383126629485
 30
0.0
 11
-396.8308424837761
 21
-784.4100923959467
 31
0.0
  0
LINE
  5
A6
330
1F
100
AcDbEntity
  8
0-0
  6
JWW_DASHED1
 62
   120
370
     5
100
AcDbLine
 10
-306.8308424837846
 20
-694.4100923959556
 30
0.0
 11
-56.83084248378009
 21
-444.4100923959497
 31
0.0
  0
LINE
  5
A7
330
1F
100
AcDbEntity
  8
0-0
  6
JWW_DASHED1
 62
   120
370
     5
100
AcDbLine
 10
-450.2301305640634
 20
-830.738312662948
 30
0.0
 11
-396.8308424837795
 21
-777.3390245826654
 31
0.0
  0
LINE
  5
A8
330
1F
100
AcDbEntity
  8
0-0
  6
JWW_DASHED1
 62
   120
370
     5
100
AcDbLine
 10
-306.8308424837898
 20
-687.3390245826739
 30
0.0
 11
-56.8308424837835
 21
-437.3390245826681
 31
0.0
  0
LINE
  5
A9
330
1F
100
AcDbEntity
  8
0-0
  6
JWW_DASHED1
 62
   120
370
     5
100
AcDbLine
 10
-457.3011983773608
 20
-830.73831266296
 30
0.0
 11
-396.8308424837693
 21
-770.2679567693689
 31
0.0
  0
LINE
  5
AA
330
1F
100
AcDbEntity
  8
0-0
  6
JWW_DASHED1
 62
   120
370
     5
100
AcDbLine
 10
-306.8308424837625
 20
-680.2679567693624
 30
0.0
 11
-56.83084248377497
 21
-430.2679567693746
 31
0.0
  0
LINE
  5
AB
330
1F
100
AcDbEntity
  8
0-0
  6
JWW_DASHED1
 62
   120
370
     5
100
AcDbLine
 10
-464.3722661906412
 20
-830.7383126629561
 30
0.0
 11
-396.8308424837727
 21
-763.1968889560876
 31
0.0
  0
LINE
  5
AC
330
1F
100
AcDbEntity
  8
0-0
  6
JWW_DASHED1
 62
   120
370
     5
100
AcDbLine
 10
-306.8308424837676
 20
-673.1968889560808
 30
0.0
 11
-56.83084248378009
 21
-423.1968889560933
 31
0.0
  0
LINE
  5
AD
330
1F
100
AcDbEntity
  8
0-0
  6
JWW_DASHED1
 62
   120
370
     5
100
AcDbLine
 10
-471.4433340039233
 20
-830.7383126629527
 30
0.0
 11
-396.8308424837778
 21
-756.125821142806
 31
0.0
  0
LINE
  5
AE
330
1F
100
AcDbEntity
  8
0-0
  6
JWW_DASHED1
 62
   120
370
     5
100
AcDbLine
 10
-306.830842483771
 20
-666.1258211427996
 30
0.0
 11
-56.8308424837835
 21
-416.1258211428121
 31
0.0
  0
LINE
  5
AF
330
1F
100
AcDbEntity
  8
0-0
  6
JWW_DASHED1
 62
   120
370
     5
100
AcDbLine
 10
-478.5144018172053
 20
-830.7383126629485
 30
0.0
 11
-396.8308424837812
 21
-749.0547533295248
 31
0.0
  0
LINE
  5
B0
330
1F
100
AcDbEntity
  8
0-0
  6
JWW_DASHED1
 62
   120
370
     5
100
AcDbLine
 10
-306.8308424837761
 20
-659.0547533295183
 30
0.0
 11
-56.83084248378862
 21
-409.0547533295305
 31
0.0
  0
LINE
  5
B1
330
1F
100
AcDbEntity
  8
0-0
  6
JWW_DASHED1
 62
   120
370
     5
100
AcDbLine
 10
-485.5854696304976
 20
-830.7383126629553
 30
0.0
 11
-396.8308424837693
 21
-741.9836855162273
 31
0.0
  0
LINE
  5
B2
330
1F
100
AcDbEntity
  8
0-0
  6
JWW_DASHED1
 62
   120
370
     5
100
AcDbLine
 10
-306.8308424837795
 20
-651.9836855162367
 30
0.0
 11
-56.83084248379203
 21
-401.9836855162492
 31
0.0
  0
LINE
  5
B3
330
1F
100
AcDbEntity
  8
0-0
  6
JWW_DASHED1
 62
   120
370
     5
100
AcDbLine
 10
-492.6565374437797
 20
-830.738312662951
 30
0.0
 11
-396.8308424837727
 21
-734.9126177029449
 31
0.0
  0
LINE
  5
B4
330
1F
100
AcDbEntity
  8
0-0
  6
JWW_DASHED1
 62
   120
370
     5
100
AcDbLine
 10
-306.8308424837812
 20
-644.9126177029539
 30
0.0
 11
-56.83084248377497
 21
-394.912617702948
 31
0.0
  0
LINE
  5
B5
330
1F
100
AcDbEntity
  8
0-0
  6
JWW_DASHED1
 62
   120
370
     5
100
AcDbLine
 10
-499.7276052570379
 20
-830.738312662951
 30
0.0
 11
-396.8308424837795
 21
-727.841549889693
 31
0.0
  0
LINE
  5
B6
330
1F
100
AcDbEntity
  8
0-0
  6
JWW_DASHED1
 62
   120
370
     5
100
AcDbLine
 10
-306.830842483788
 20
-637.8415498897016
 30
0.0
 11
-56.83084248378179
 21
-387.8415498896962
 31
0.0
  0
LINE
  5
B7
330
1F
100
AcDbEntity
  8
0-0
  6
JWW_DASHED1
 62
   120
370
     5
100
AcDbLine
 10
-506.7986730703063
 20
-830.7383126629609
 30
0.0
 11
-396.830842483771
 21
-720.7704820764263
 31
0.0
  0
LINE
  5
B8
330
1F
100
AcDbEntity
  8
0-0
  6
JWW_DASHED1
 62
   120
370
     5
100
AcDbLine
 10
-306.8308424837642
 20
-630.77048207642
 30
0.0
 11
-56.83084248377668
 21
-380.7704820764325
 31
0.0
  0
LINE
  5
B9
330
1F
100
AcDbEntity
  8
0-0
  6
JWW_DASHED1
 62
   120
370
     5
100
AcDbLine
 10
-513.8697408835867
 20
-830.738312662957
 30
0.0
 11
-396.8308424837744
 21
-713.6994142631447
 31
0.0
  0
LINE
  5
BA
330
1F
100
AcDbEntity
  8
0-0
  6
JWW_DASHED1
 62
   120
370
     5
100
AcDbLine
 10
-306.8308424837693
 20
-623.6994142631387
 30
0.0
 11
-56.83084248378179
 21
-373.6994142631512
 31
0.0
  0
LINE
  5
BB
330
1F
100
AcDbEntity
  8
0-0
  6
JWW_DASHED1
 62
   120
370
     5
100
AcDbLine
 10
-520.9408086968688
 20
-830.7383126629536
 30
0.0
 11
-396.8308424837795
 21
-706.6283464498634
 31
0.0
  0
LINE
  5
BC
330
1F
100
AcDbEntity
  8
0-0
  6
JWW_DASHED1
 62
   120
370
     5
100
AcDbLine
 10
-306.8308424837727
 20
-616.6283464498571
 30
0.0
 11
-56.8308424837852
 21
-366.6283464498696
 31
0.0
  0
LINE
  5
BD
330
1F
100
AcDbEntity
  8
0-0
  6
JWW_DASHED1
 62
   120
370
     5
100
AcDbLine
 10
-528.0118765101508
 20
-830.7383126629497
 30
0.0
 11
-396.8308424837829
 21
-699.5572786365823
 31
0.0
  0
LINE
  5
BE
330
1F
100
AcDbEntity
  8
0-0
  6
JWW_DASHED1
 62
   120
370
     5
100
AcDbLine
 10
-306.8308424837761
 20
-609.5572786365758
 30
0.0
 11
-56.83084248378862
 21
-359.5572786365884
 31
0.0
  0
LINE
  5
BF
330
1F
100
AcDbEntity
  8
0-0
  6
JWW_DASHED1
 62
   120
370
     5
100
AcDbLine
 10
-535.0829443234397
 20
-830.7383126629527
 30
0.0
 11
-396.830842483771
 21
-692.4862108232849
 31
0.0
  0
LINE
  5
C0
330
1F
100
AcDbEntity
  8
0-0
  6
JWW_DASHED1
 62
   120
370
     5
100
AcDbLine
 10
-306.8308424837812
 20
-602.4862108232942
 30
0.0
 11
-56.83084248379203
 21
-352.4862108233067
 31
0.0
  0
LINE
  5
C1
330
1F
100
AcDbEntity
  8
0-0
  6
JWW_DASHED1
 62
   120
370
     5
100
AcDbLine
 10
-542.1540121367201
 20
-830.7383126629488
 30
0.0
 11
-396.8308424837744
 21
-685.4151430100023
 31
0.0
  0
LINE
  5
C2
330
1F
100
AcDbEntity
  8
0-0
  6
JWW_DASHED1
 62
   120
370
     5
100
AcDbLine
 10
-306.8308424837829
 20
-595.4151430100109
 30
0.0
 11
-56.83084248377668
 21
-345.4151430100051
 31
0.0
  0
LINE
  5
C3
330
1F
100
AcDbEntity
  8
0-0
  6
JWW_DASHED1
 62
   120
370
     5
100
AcDbLine
 10
-549.2250799500022
 20
-830.7383126629446
 30
0.0
 11
-396.8308424837778
 21
-678.3440751967207
 31
0.0
  0
LINE
  5
C4
330
1F
100
AcDbEntity
  8
0-0
  6
JWW_DASHED1
 62
   120
370
     5
100
AcDbLine
 10
-306.8308424837863
 20
-588.3440751967292
 30
0.0
 11
-56.83084248378179
 21
-338.3440751967238
 31
0.0
  0
LINE
  5
C5
330
1F
100
AcDbEntity
  8
0-0
  6
JWW_DASHED1
 62
   120
370
     5
100
AcDbLine
 10
-556.2961477632945
 20
-830.7383126629506
 30
0.0
 11
-396.8308424837829
 21
-671.2730073834394
 31
0.0
  0
LINE
  5
C6
330
1F
100
AcDbEntity
  8
0-0
  6
JWW_DASHED1
 62
   120
370
     5
100
AcDbLine
 10
-306.8308424837744
 20
-581.2730073834323
 30
0.0
 11
-56.8308424837852
 21
-331.2730073834422
 31
0.0
  0
LINE
  5
C7
330
1F
100
AcDbEntity
  8
0-0
  6
JWW_DASHED1
 62
   120
370
     5
100
AcDbLine
 10
-563.3672155765902
 20
-830.7383126629625
 30
0.0
 11
-396.8308424837727
 21
-664.2019395701437
 31
0.0
  0
LINE
  5
C8
330
1F
100
AcDbEntity
  8
0-0
  6
JWW_DASHED1
 62
   120
370
     5
100
AcDbLine
 10
-306.8308424837659
 20
-574.2019395701374
 30
0.0
 11
-56.83084248377838
 21
-324.2019395701499
 31
0.0
  0
LINE
  5
C9
330
1F
100
AcDbEntity
  8
0-0
  6
JWW_DASHED1
 62
   120
370
     5
100
AcDbLine
 10
-570.4382833898143
 20
-830.7383126629544
 30
0.0
 11
-396.8308424837795
 21
-657.1308717569214
 31
0.0
  0
LINE
  5
CA
330
1F
100
AcDbEntity
  8
0-0
  6
JWW_DASHED1
 62
   120
370
     5
100
AcDbLine
 10
-306.8308424837744
 20
-567.130871756915
 30
0.0
 11
-56.8308424837852
 21
-317.130871756927
 31
0.0
  0
LINE
  5
CB
330
1F
100
AcDbEntity
  8
0-0
  6
JWW_DASHED1
 62
   120
370
     5
100
AcDbLine
 10
-577.5093512030963
 20
-830.7383126629506
 30
0.0
 11
-396.8308424837846
 21
-650.0598039436402
 31
0.0
  0
LINE
  5
CC
330
1F
100
AcDbEntity
  8
0-0
  6
JWW_DASHED1
 62
   120
370
     5
100
AcDbLine
 10
-306.8308424837778
 20
-560.0598039436334
 30
0.0
 11
-56.83084248379032
 21
-310.0598039436459
 31
0.0
  0
LINE
  5
CD
330
1F
100
AcDbEntity
  8
0-0
  6
JWW_DASHED1
 62
   120
370
     5
100
AcDbLine
 10
-584.5804190163818
 20
-830.738312662951
 30
0.0
 11
-396.8308424837727
 21
-642.9887361303428
 31
0.0
  0
LINE
  5
CE
330
1F
100
AcDbEntity
  8
0-0
  6
JWW_DASHED1
 62
   120
370
     5
100
AcDbLine
 10
-306.8308424837829
 20
-552.9887361303521
 30
0.0
 11
-56.83084248379544
 21
-302.9887361303646
 31
0.0
  0
LINE
  5
CF
330
1F
100
AcDbEntity
  8
0-0
  6
JWW_DASHED1
 62
   120
370
     5
100
AcDbLine
 10
-591.6514868296622
 20
-830.7383126629468
 30
0.0
 11
-396.8308424837761
 21
-635.9176683170598
 31
0.0
  0
LINE
  5
D0
330
1F
100
AcDbEntity
  8
0-0
  6
JWW_DASHED1
 62
   120
370
     5
100
AcDbLine
 10
-306.8308424837829
 20
-545.9176683170683
 30
0.0
 11
-56.83084248377838
 21
-295.9176683170625
 31
0.0
  0
LINE
  5
D1
330
1F
100
AcDbEntity
  8
0-0
  6
JWW_DASHED1
 62
   120
370
     5
100
AcDbLine
 10
-598.7225546429562
 20
-830.7383126629553
 30
0.0
 11
-396.8308424837795
 21
-628.8466005037782
 31
0.0
  0
LINE
  5
D2
330
1F
100
AcDbEntity
  8
0-0
  6
JWW_DASHED1
 62
   120
370
     5
100
AcDbLine
 10
-306.830842483788
 20
-538.8466005037867
 30
0.0
 11
-56.83084248378179
 21
-288.8466005037809
 31
0.0
  0
LINE
  5
D3
330
1F
100
AcDbEntity
  8
0-0
  6
JWW_DASHED1
 62
   120
370
     5
100
AcDbLine
 10
-605.7936224562536
 20
-830.7383126629672
 30
0.0
 11
-396.8308424837693
 21
-621.7755326904829
 31
0.0
  0
LINE
  5
D4
330
1F
100
AcDbEntity
  8
0-0
  6
JWW_DASHED1
 62
   120
370
     5
100
AcDbLine
 10
-306.8308424837625
 20
-531.7755326904764
 30
0.0
 11
-56.83084248377497
 21
-281.7755326904886
 31
0.0
  0
LINE
  5
D5
330
1F
100
AcDbEntity
  8
0-0
  6
JWW_DASHED1
 62
   120
370
     5
100
AcDbLine
 10
-612.8646902695357
 20
-830.7383126629634
 30
0.0
 11
-396.8308424837727
 21
-614.7044648772012
 31
0.0
  0
LINE
  5
D6
330
1F
100
AcDbEntity
  8
0-0
  6
JWW_DASHED1
 62
   120
370
     5
100
AcDbLine
 10
-306.8308424837659
 20
-524.7044648771948
 30
0.0
 11
-56.83084248377838
 21
-274.7044648772073
 31
0.0
  0
LINE
  5
D7
330
1F
100
AcDbEntity
  8
0-0
  6
JWW_DASHED1
 62
   120
370
     5
100
AcDbLine
 10
-619.9357580828178
 20
-830.7383126629595
 30
0.0
 11
-396.8308424837778
 21
-607.63339706392
 31
0.0
  0
LINE
  5
D8
330
1F
100
AcDbEntity
  8
0-0
  6
JWW_DASHED1
 62
   120
370
     5
100
AcDbLine
 10
-306.830842483771
 20
-517.6333970639137
 30
0.0
 11
-56.8308424837835
 21
-267.6333970639262
 31
0.0
  0
LINE
  5
D9
330
1F
100
AcDbEntity
  8
0-0
  6
JWW_DASHED1
 62
   120
370
     5
100
AcDbLine
 10
-627.0068258960981
 20
-830.7383126629561
 30
0.0
 11
-396.8308424837812
 21
-600.5623292506389
 31
0.0
  0
LINE
  5
DA
330
1F
100
AcDbEntity
  8
0-0
  6
JWW_DASHED1
 62
   120
370
     5
100
AcDbLine
 10
-306.8308424837761
 20
-510.562329250632
 30
0.0
 11
-56.83084248378862
 21
-260.5623292506449
 31
0.0
  0
LINE
  5
DB
330
1F
100
AcDbEntity
  8
0-0
  6
JWW_DASHED1
 62
   120
370
     5
100
AcDbLine
 10
-634.0778937093222
 20
-830.7383126629488
 30
0.0
 11
-396.8308424837727
 21
-593.4912614373981
 31
0.0
  0
LINE
  5
DC
330
1F
100
AcDbEntity
  8
0-0
  6
JWW_DASHED1
 62
   120
370
     5
100
AcDbLine
 10
-306.8308424837795
 20
-503.4912614374066
 30
0.0
 11
-56.83084248377497
 21
-253.4912614374008
 31
0.0
  0
LINE
  5
DD
330
1F
100
AcDbEntity
  8
0-0
  6
JWW_DASHED1
 62
   120
370
     5
100
AcDbLine
 10
-641.1489615226043
 20
-830.7383126629446
 30
0.0
 11
-396.8308424837761
 21
-586.4201936241169
 31
0.0
  0
LINE
  5
DE
330
1F
100
AcDbEntity
  8
0-0
  6
JWW_DASHED1
 62
   120
370
     5
100
AcDbLine
 10
-306.8308424837846
 20
-496.4201936241254
 30
0.0
 11
-56.83084248377838
 21
-246.4201936241196
 31
0.0
  0
LINE
  5
DF
330
1F
100
AcDbEntity
  8
0-0
  6
JWW_DASHED1
 62
   120
370
     5
100
AcDbLine
 10
-646.8308424837704
 20
-829.3491258108261
 30
0.0
 11
-396.8308424837795
 21
-579.3491258108352
 31
0.0
  0
LINE
  5
E0
330
1F
100
AcDbEntity
  8
0-0
  6
JWW_DASHED1
 62
   120
370
     5
100
AcDbLine
 10
-306.8308424837898
 20
-489.3491258108438
 30
0.0
 11
-56.8308424837835
 21
-239.3491258108379
 31
0.0
  0
LINE
  5
E1
330
1F
100
AcDbEntity
  8
0-0
  6
JWW_DASHED1
 62
   120
370
     5
100
AcDbLine
 10
-646.8308424837602
 20
-822.2780579975288
 30
0.0
 11
-396.830842483771
 21
-572.2780579975404
 31
0.0
  0
LINE
  5
E2
330
1F
100
AcDbEntity
  8
0-0
  6
JWW_DASHED1
 62
   120
370
     5
100
AcDbLine
 10
-306.8308424837642
 20
-482.278057997534
 30
0.0
 11
-56.83084248377668
 21
-232.2780579975465
 31
0.0
  0
LINE
  5
E3
330
1F
100
AcDbEntity
  8
0-0
  6
JWW_DASHED1
 62
   120
370
     5
100
AcDbLine
 10
-646.8308424837636
 20
-815.206990184247
 30
0.0
 11
-396.8308424837744
 21
-565.2069901842588
 31
0.0
  0
LINE
  5
E4
330
1F
100
AcDbEntity
  8
0-0
  6
JWW_DASHED1
 62
   120
370
     5
100
AcDbLine
 10
-306.8308424837693
 20
-475.2069901842527
 30
0.0
 11
-56.83084248378179
 21
-225.2069901842648
 31
0.0
  0
LINE
  5
E5
330
1F
100
AcDbEntity
  8
0-0
  6
JWW_DASHED1
 62
   120
370
     5
100
AcDbLine
 10
-646.830842483767
 20
-808.1359223709659
 30
0.0
 11
-396.8308424837795
 21
-558.1359223709775
 31
0.0
  0
LINE
  5
E6
330
1F
100
AcDbEntity
  8
0-0
  6
JWW_DASHED1
 62
   120
370
     5
100
AcDbLine
 10
-306.8308424837727
 20
-468.1359223709711
 30
0.0
 11
-56.8308424837852
 21
-218.1359223709836
 31
0.0
  0
LINE
  5
E7
330
1F
100
AcDbEntity
  8
0-0
  6
JWW_DASHED1
 62
   120
370
     5
100
AcDbLine
 10
-646.8308424837704
 20
-801.0648545576846
 30
0.0
 11
-396.8308424837829
 21
-551.0648545576963
 31
0.0
  0
LINE
  5
E8
330
1F
100
AcDbEntity
  8
0-0
  6
JWW_DASHED1
 62
   120
370
     5
100
AcDbLine
 10
-306.8308424837761
 20
-461.0648545576899
 30
0.0
 11
-56.83084248378862
 21
-211.0648545577024
 31
0.0
  0
LINE
  5
E9
330
1F
100
AcDbEntity
  8
0-0
  6
JWW_DASHED1
 62
   120
370
     5
100
AcDbLine
 10
-646.8308424837755
 20
-793.9937867444035
 30
0.0
 11
-396.830842483771
 21
-543.9937867443989
 31
0.0
  0
LINE
  5
EA
330
1F
100
AcDbEntity
  8
0-0
  6
JWW_DASHED1
 62
   120
370
     5
100
AcDbLine
 10
-306.8308424837812
 20
-453.9937867444087
 30
0.0
 11
-56.83084248379373
 21
-203.9937867444208
 31
0.0
  0
LINE
  5
EB
330
1F
100
AcDbEntity
  8
0-0
  6
JWW_DASHED1
 62
   120
370
     5
100
AcDbLine
 10
-646.830842483779
 20
-786.9227189311214
 30
0.0
 11
-396.8308424837727
 21
-536.9227189311151
 31
0.0
  0
LINE
  5
EC
330
1F
100
AcDbEntity
  8
0-0
  6
JWW_DASHED1
 62
   120
370
     5
100
AcDbLine
 10
-306.8308424837812
 20
-446.9227189311237
 30
0.0
 11
-56.83084248377497
 21
-196.9227189311178
 31
0.0
  0
LINE
  5
ED
330
1F
100
AcDbEntity
  8
0-0
  6
JWW_DASHED1
 62
   120
370
     5
100
AcDbLine
 10
-646.8308424837721
 20
-779.8516511178832
 30
0.0
 11
-396.8308424837812
 21
-529.8516511178923
 31
0.0
  0
LINE
  5
EE
330
1F
100
AcDbEntity
  8
0-0
  6
JWW_DASHED1
 62
   120
370
     5
100
AcDbLine
 10
-306.8308424837898
 20
-439.8516511179008
 30
0.0
 11
-56.8308424837835
 21
-189.8516511178954
 31
0.0
  0
LINE
  5
EF
330
1F
100
AcDbEntity
  8
0-0
  6
JWW_DASHED1
 62
   120
370
     5
100
AcDbLine
 10
-646.8308424837602
 20
-772.7805833045862
 30
0.0
 11
-396.8308424837727
 21
-522.7805833045978
 31
0.0
  0
LINE
  5
F0
330
1F
100
AcDbEntity
  8
0-0
  6
JWW_DASHED1
 62
   120
370
     5
100
AcDbLine
 10
-306.8308424837659
 20
-432.7805833045919
 30
0.0
 11
-56.83084248377838
 21
-182.7805833046044
 31
0.0
  0
LINE
  5
F1
330
1F
100
AcDbEntity
  8
0-0
  6
JWW_DASHED1
 62
   120
370
     5
100
AcDbLine
 10
-646.8308424837636
 20
-765.709515491305
 30
0.0
 11
-396.8308424837761
 21
-515.7095154913167
 31
0.0
  0
LINE
  5
F2
330
1F
100
AcDbEntity
  8
0-0
  6
JWW_DASHED1
 62
   120
370
     5
100
AcDbLine
 10
-306.8308424837693
 20
-425.7095154913102
 30
0.0
 11
-56.83084248378179
 21
-175.7095154913227
 31
0.0
  0
LINE
  5
F3
330
1F
100
AcDbEntity
  8
0-0
  6
JWW_DASHED1
 62
   120
370
     5
100
AcDbLine
 10
-646.8308424837687
 20
-758.6384476780238
 30
0.0
 11
-396.8308424837795
 21
-508.6384476780354
 31
0.0
  0
LINE
  5
F4
330
1F
100
AcDbEntity
  8
0-0
  6
JWW_DASHED1
 62
   120
370
     5
100
AcDbLine
 10
-306.8308424837744
 20
-418.638447678029
 30
0.0
 11
-56.8308424837852
 21
-168.6384476780411
 31
0.0
  0
LINE
  5
F5
330
1F
100
AcDbEntity
  8
0-0
  6
JWW_DASHED1
 62
   120
370
     5
100
AcDbLine
 10
-646.8308424837738
 20
-751.5673798647422
 30
0.0
 11
-396.8308424837846
 21
-501.5673798647538
 31
0.0
  0
LINE
  5
F6
330
1F
100
AcDbEntity
  8
0-0
  6
JWW_DASHED1
 62
   120
370
     5
100
AcDbLine
 10
-306.8308424837778
 20
-411.5673798647474
 30
0.0
 11
-56.83084248379032
 21
-161.5673798647599
 31
0.0
  0
LINE
  5
F7
330
1F
100
AcDbEntity
  8
0-0
  6
JWW_DASHED1
 62
   120
370
     5
100
AcDbLine
 10
-646.8308424837772
 20
-744.4963120514609
 30
0.0
 11
-396.8308424837727
 21
-494.4963120514568
 31
0.0
  0
LINE
  5
F8
330
1F
100
AcDbEntity
  8
0-0
  6
JWW_DASHED1
 62
   120
370
     5
100
AcDbLine
 10
-306.8308424837829
 20
-404.4963120514661
 30
0.0
 11
-56.83084248379544
 21
-154.4963120514787
 31
0.0
  0
LINE
  5
F9
330
1F
100
AcDbEntity
  8
0-0
  6
JWW_DASHED1
 62
   120
370
     5
100
AcDbLine
 10
-646.8308424837807
 20
-737.4252442381784
 30
0.0
 11
-396.8308424837727
 21
-487.4252442381721
 31
0.0
  0
LINE
  5
FA
330
1F
100
AcDbEntity
  8
0-0
  6
JWW_DASHED1
 62
   120
370
     5
100
AcDbLine
 10
-306.8308424837829
 20
-397.4252442381807
 30
0.0
 11
-56.83084248377668
 21
-147.4252442381749
 31
0.0
  0
LINE
  5
FB
330
1F
100
AcDbEntity
  8
0-0
  6
JWW_DASHED1
 62
   120
370
     5
100
AcDbLine
 10
-646.8308424837841
 20
-730.3541764248972
 30
0.0
 11
-396.8308424837778
 21
-480.3541764248905
 31
0.0
  0
LINE
  5
FC
330
1F
100
AcDbEntity
  8
0-0
  6
JWW_DASHED1
 62
   120
370
     5
100
AcDbLine
 10
-306.8308424837863
 20
-390.3541764248995
 30
0.0
 11
-56.83084248378009
 21
-140.3541764248936
 31
0.0
  0
LINE
  5
FD
330
1F
100
AcDbEntity
  8
0-0
  6
JWW_DASHED1
 62
   120
370
     5
100
AcDbLine
 10
-646.8308424837721
 20
-723.2831086115998
 30
0.0
 11
-396.8308424837812
 21
-473.2831086116093
 31
0.0
  0
LINE
  5
FE
330
1F
100
AcDbEntity
  8
0-0
  6
JWW_DASHED1
 62
   120
370
     5
100
AcDbLine
 10
-306.8308424837898
 20
-383.2831086116178
 30
0.0
 11
-56.8308424837852
 21
-133.283108611612
 31
0.0
  0
LINE
  5
FF
330
1F
100
AcDbEntity
  8
0-0
  6
JWW_DASHED1
 62
   120
370
     5
100
AcDbLine
 10
-646.830842483767
 20
-716.2120407983625
 30
0.0
 11
-396.8308424837778
 21
-466.2120407983741
 31
0.0
  0
LINE
  5
100
330
1F
100
AcDbEntity
  8
0-0
  6
JWW_DASHED1
 62
   120
370
     5
100
AcDbLine
 10
-306.830842483771
 20
-376.2120407983678
 30
0.0
 11
-56.8308424837835
 21
-126.2120407983802
 31
0.0
  0
LINE
  5
101
330
1F
100
AcDbEntity
  8
0-0
  6
JWW_DASHED1
 62
   120
370
     5
100
AcDbLine
 10
-646.8308424837704
 20
-709.1409729850812
 30
0.0
 11
-396.8308424837812
 21
-459.1409729850929
 31
0.0
  0
LINE
  5
102
330
1F
100
AcDbEntity
  8
0-0
  6
JWW_DASHED1
 62
   120
370
     5
100
AcDbLine
 10
-306.8308424837761
 20
-369.1409729850865
 30
0.0
 11
-56.83084248378862
 21
-119.140972985099
 31
0.0
  0
LINE
  5
103
330
1F
100
AcDbEntity
  8
0-0
  6
JWW_DASHED1
 62
   120
370
     5
100
AcDbLine
 10
-646.8308424837738
 20
-702.0699051717996
 30
0.0
 11
-396.8308424837863
 21
-452.0699051718117
 31
0.0
  0
LINE
  5
104
330
1F
100
AcDbEntity
  8
0-0
  6
JWW_DASHED1
 62
   120
370
     5
100
AcDbLine
 10
-306.8308424837795
 20
-362.0699051718053
 30
0.0
 11
-56.83084248379203
 21
-112.0699051718174
 31
0.0
  0
LINE
  5
105
330
1F
100
AcDbEntity
  8
0-0
  6
JWW_DASHED1
 62
   120
370
     5
100
AcDbLine
 10
-646.8308424837772
 20
-694.9988373585184
 30
0.0
 11
-396.8308424837744
 21
-444.9988373585143
 31
0.0
  0
LINE
  5
106
330
1F
100
AcDbEntity
  8
0-0
  6
JWW_DASHED1
 62
   120
370
     5
100
AcDbLine
 10
-306.8308424837829
 20
-354.9988373585236
 30
0.0
 11
-56.83084248379544
 21
-104.9988373585366
 31
0.0
  0
LINE
  5
107
330
1F
100
AcDbEntity
  8
0-0
  6
JWW_DASHED1
 62
   120
370
     5
100
AcDbLine
 10
-646.8308424837807
 20
-687.9277695452358
 30
0.0
 11
-396.8308424837744
 21
-437.9277695452292
 31
0.0
  0
LINE
  5
108
330
1F
100
AcDbEntity
  8
0-0
  6
JWW_DASHED1
 62
   120
370
     5
100
AcDbLine
 10
-306.8308424837829
 20
-347.9277695452378
 30
0.0
 11
-56.83084248377838
 21
-97.92776954523234
 31
0.0
  0
LINE
  5
109
330
1F
100
AcDbEntity
  8
0-0
  6
JWW_DASHED1
 62
   120
370
     5
100
AcDbLine
 10
-646.8308424837704
 20
-680.8567017319385
 30
0.0
 11
-396.8308424837795
 21
-430.856701731948
 31
0.0
  0
LINE
  5
10A
330
1F
100
AcDbEntity
  8
0-0
  6
JWW_DASHED1
 62
   120
370
     5
100
AcDbLine
 10
-306.8308424837863
 20
-340.8567017319565
 30
0.0
 11
-56.83084248378179
 21
-90.85670173195112
 31
0.0
  0
LINE
  5
10B
330
1F
100
AcDbEntity
  8
0-0
  6
JWW_DASHED1
 62
   120
370
     5
100
AcDbLine
 10
-646.8308424837585
 20
-673.7856339186428
 30
0.0
 11
-396.830842483771
 21
-423.7856339186544
 31
0.0
  0
LINE
  5
10C
330
1F
100
AcDbEntity
  8
0-0
  6
JWW_DASHED1
 62
   120
370
     5
100
AcDbLine
 10
-306.8308424837642
 20
-333.785633918648
 30
0.0
 11
-56.83084248377668
 21
-83.78563391866052
 31
0.0
  0
LINE
  5
10D
330
1F
100
AcDbEntity
  8
0-0
  6
JWW_DASHED1
 62
   120
370
     5
100
AcDbLine
 10
-646.8308424837636
 20
-666.7145661053611
 30
0.0
 11
-396.8308424837744
 21
-416.7145661053732
 31
0.0
  0
LINE
  5
10E
330
1F
100
AcDbEntity
  8
0-0
  6
JWW_DASHED1
 62
   120
370
     5
100
AcDbLine
 10
-306.8308424837693
 20
-326.7145661053668
 30
0.0
 11
-56.83084248378179
 21
-76.7145661053793
 31
0.0
  0
LINE
  5
10F
330
1F
100
AcDbEntity
  8
0-0
  6
JWW_DASHED1
 62
   120
370
     5
100
AcDbLine
 10
-646.830842483767
 20
-659.6434982920799
 30
0.0
 11
-396.8308424837795
 21
-409.6434982920915
 31
0.0
  0
LINE
  5
110
330
1F
100
AcDbEntity
  8
0-0
  6
JWW_DASHED1
 62
   120
370
     5
100
AcDbLine
 10
-306.8308424837727
 20
-319.6434982920852
 30
0.0
 11
-56.8308424837852
 21
-69.64349829209766
 31
0.0
  0
LINE
  5
111
330
1F
100
AcDbEntity
  8
0-0
  6
JWW_DASHED1
 62
   120
370
     5
100
AcDbLine
 10
-646.8308424837755
 20
-652.5724304788575
 30
0.0
 11
-396.830842483771
 21
-402.5724304788534
 31
0.0
  0
LINE
  5
112
330
1F
100
AcDbEntity
  8
0-0
  6
JWW_DASHED1
 62
   120
370
     5
100
AcDbLine
 10
-306.8308424837812
 20
-312.5724304788628
 30
0.0
 11
-56.83084248379373
 21
-62.57243047887528
 31
0.0
  0
LINE
  5
113
330
1F
100
AcDbEntity
  8
0-0
  6
JWW_DASHED1
 62
   120
370
     5
100
AcDbLine
 10
-646.8308424837772
 20
-645.5013626655746
 30
0.0
 11
-396.830842483771
 21
-395.5013626655679
 31
0.0
  0
LINE
  5
114
330
1F
100
AcDbEntity
  8
0-0
  6
JWW_DASHED1
 62
   120
370
     5
100
AcDbLine
 10
-306.8308424837795
 20
-305.5013626655764
 30
0.0
 11
-56.83084248377497
 21
-55.50136266557061
 31
0.0
  0
LINE
  5
115
330
1F
100
AcDbEntity
  8
0-0
  6
JWW_DASHED1
 62
   120
370
     5
100
AcDbLine
 10
-646.8308424837824
 20
-638.430294852293
 30
0.0
 11
-396.8308424837761
 21
-388.4302948522862
 31
0.0
  0
LINE
  5
116
330
1F
100
AcDbEntity
  8
0-0
  6
JWW_DASHED1
 62
   120
370
     5
100
AcDbLine
 10
-306.8308424837846
 20
-298.4302948522952
 30
0.0
 11
-56.83084248377838
 21
-48.43029485228939
 31
0.0
  0
LINE
  5
117
330
1F
100
AcDbEntity
  8
0-0
  6
JWW_DASHED1
 62
   120
370
     5
100
AcDbLine
 10
-646.8308424837704
 20
-631.3592270389955
 30
0.0
 11
-396.8308424837795
 21
-381.3592270390051
 31
0.0
  0
LINE
  5
118
330
1F
100
AcDbEntity
  8
0-0
  6
JWW_DASHED1
 62
   120
370
     5
100
AcDbLine
 10
-306.830842483788
 20
-291.3592270390136
 30
0.0
 11
-56.83084248378179
 21
-41.35922703900818
 31
0.0
  0
LINE
  5
119
330
1F
100
AcDbEntity
  8
0-0
  6
JWW_DASHED1
 62
   120
370
     5
100
AcDbLine
 10
-646.8308424837602
 20
-624.2881592257003
 30
0.0
 11
-396.8308424837727
 21
-374.2881592257119
 31
0.0
  0
LINE
  5
11A
330
1F
100
AcDbEntity
  8
0-0
  6
JWW_DASHED1
 62
   120
370
     5
100
AcDbLine
 10
-306.8308424837659
 20
-284.2881592257055
 30
0.0
 11
-56.83084248377838
 21
-34.288159225718
 31
0.0
  0
LINE
  5
11B
330
1F
100
AcDbEntity
  8
0-0
  6
JWW_DASHED1
 62
   120
370
     5
100
AcDbLine
 10
-646.8308424837636
 20
-617.217091412419
 30
0.0
 11
-396.8308424837761
 21
-367.2170914124307
 31
0.0
  0
LINE
  5
11C
330
1F
100
AcDbEntity
  8
0-0
  6
JWW_DASHED1
 62
   120
370
     5
100
AcDbLine
 10
-306.8308424837693
 20
-277.2170914124243
 30
0.0
 11
-56.83084248378179
 21
-27.21709141243679
 31
0.0
  0
LINE
  5
11D
330
1F
100
AcDbEntity
  8
0-0
  6
JWW_DASHED1
 62
   120
370
     5
100
AcDbLine
 10
-646.8308424837687
 20
-610.1460235991378
 30
0.0
 11
-396.8308424837795
 21
-360.146023599149
 31
0.0
  0
LINE
  5
11E
330
1F
100
AcDbEntity
  8
0-0
  6
JWW_DASHED1
 62
   120
370
     5
100
AcDbLine
 10
-306.8308424837744
 20
-270.1460235991426
 30
0.0
 11
-56.83084248378691
 21
-20.14602359915514
 31
0.0
  0
LINE
  5
11F
330
1F
100
AcDbEntity
  8
0-0
  6
JWW_DASHED1
 62
   120
370
     5
100
AcDbLine
 10
-646.8308424837738
 20
-603.0749557858562
 30
0.0
 11
-396.8308424837846
 21
-353.0749557858678
 31
0.0
  0
LINE
  5
120
330
1F
100
AcDbEntity
  8
0-0
  6
JWW_DASHED1
 62
   120
370
     5
100
AcDbLine
 10
-306.8308424837778
 20
-263.0749557858614
 30
0.0
 11
-56.83084248379032
 21
-13.07495578587393
 31
0.0
  0
LINE
  5
121
330
1F
100
AcDbEntity
  8
0-0
  6
JWW_DASHED1
 62
   120
370
     5
100
AcDbLine
 10
-646.8308424837772
 20
-596.0038879725745
 30
0.0
 11
-396.8308424837727
 21
-346.0038879725709
 31
0.0
  0
LINE
  5
122
330
1F
100
AcDbEntity
  8
0-0
  6
JWW_DASHED1
 62
   120
370
     5
100
AcDbLine
 10
-306.8308424837829
 20
-256.0038879725802
 30
0.0
 11
-56.83084248379544
 21
-6.003887972592707
 31
0.0
  0
LINE
  5
123
330
1F
100
AcDbEntity
  8
0-0
  6
JWW_DASHED1
 62
   120
370
     5
100
AcDbLine
 10
-646.8308424837841
 20
-588.9328201593501
 30
0.0
 11
-396.8308424837761
 21
-338.9328201593437
 31
0.0
  0
LINE
  5
124
330
1F
100
AcDbEntity
  8
0-0
  6
JWW_DASHED1
 62
   120
370
     5
100
AcDbLine
 10
-306.8308424837846
 20
-248.9328201593523
 30
0.0
 11
-56.83084248378009
 21
1.067179840653125
 31
0.0
  0
LINE
  5
125
330
1F
100
AcDbEntity
  8
0-0
  6
JWW_DASHED1
 62
   120
370
     5
100
AcDbLine
 10
-646.8308424837704
 20
-581.861752346053
 30
0.0
 11
-396.8308424837795
 21
-331.8617523460621
 31
0.0
  0
LINE
  5
126
330
1F
100
AcDbEntity
  8
0-0
  6
JWW_DASHED1
 62
   120
370
     5
100
AcDbLine
 10
-306.8308424837898
 20
-241.8617523460706
 30
0.0
 11
-56.8308424837835
 21
8.13824765393477
 31
0.0
  0
LINE
  5
127
330
1F
100
AcDbEntity
  8
0-0
  6
JWW_DASHED1
 62
   120
370
     5
100
AcDbLine
 10
-646.8308424837619
 20
-574.7906845327582
 30
0.0
 11
-396.8308424837727
 21
-324.7906845327698
 31
0.0
  0
LINE
  5
128
330
1F
100
AcDbEntity
  8
0-0
  6
JWW_DASHED1
 62
   120
370
     5
100
AcDbLine
 10
-306.8308424837676
 20
-234.790684532763
 30
0.0
 11
-56.83084248377838
 21
15.20931546722451
 31
0.0
  0
LINE
  5
129
330
1F
100
AcDbEntity
  8
0-0
  6
JWW_DASHED1
 62
   120
370
     5
100
AcDbLine
 10
-646.830842483767
 20
-567.7196167194766
 30
0.0
 11
-396.8308424837778
 21
-317.7196167194882
 31
0.0
  0
LINE
  5
12A
330
1F
100
AcDbEntity
  8
0-0
  6
JWW_DASHED1
 62
   120
370
     5
100
AcDbLine
 10
-306.830842483771
 20
-227.7196167194818
 30
0.0
 11
-56.8308424837835
 21
22.28038328050573
 31
0.0
  0
LINE
  5
12B
330
1F
100
AcDbEntity
  8
0-0
  6
JWW_DASHED1
 62
   120
370
     5
100
AcDbLine
 10
-646.8308424837704
 20
-560.6485489061953
 30
0.0
 11
-396.8308424837812
 21
-310.6485489062069
 31
0.0
  0
LINE
  5
12C
330
1F
100
AcDbEntity
  8
0-0
  6
JWW_DASHED1
 62
   120
370
     5
100
AcDbLine
 10
-306.8308424837761
 20
-220.6485489062005
 30
0.0
 11
-56.83084248378862
 21
29.35145109378695
 31
0.0
  0
LINE
  5
12D
330
1F
100
AcDbEntity
  8
0-0
  6
JWW_DASHED1
 62
   120
370
     5
100
AcDbLine
 10
-646.8308424837738
 20
-553.5774810929137
 30
0.0
 11
-396.8308424837863
 21
-303.5774810929257
 31
0.0
  0
LINE
  5
12E
330
1F
100
AcDbEntity
  8
0-0
  6
JWW_DASHED1
 62
   120
370
     5
100
AcDbLine
 10
-306.8308424837795
 20
-213.5774810929189
 30
0.0
 11
-56.83084248379203
 21
36.42251890706817
 31
0.0
  0
LINE
  5
12F
330
1F
100
AcDbEntity
  8
0-0
  6
JWW_DASHED1
 62
   120
370
     5
100
AcDbLine
 10
-646.8308424837772
 20
-546.5064132796324
 30
0.0
 11
-396.8308424837744
 21
-296.5064132796283
 31
0.0
  0
LINE
  5
130
330
1F
100
AcDbEntity
  8
0-0
  6
JWW_DASHED1
 62
   120
370
     5
100
AcDbLine
 10
-306.8308424837829
 20
-206.5064132796377
 30
0.0
 11
-56.83084248379544
 21
43.49358672034981
 31
0.0
  0
LINE
  5
131
330
1F
100
AcDbEntity
  8
0-0
  6
JWW_DASHED1
 62
   120
370
     5
100
AcDbLine
 10
-646.830842483779
 20
-539.4353454663483
 30
0.0
 11
-396.8308424837727
 21
-289.435345466342
 31
0.0
  0
LINE
  5
132
330
1F
100
AcDbEntity
  8
0-0
  6
JWW_DASHED1
 62
   120
370
     5
100
AcDbLine
 10
-306.8308424837812
 20
-199.4353454663505
 30
0.0
 11
-56.83084248377497
 21
50.56465453365533
 31
0.0
  0
LINE
  5
133
330
1F
100
AcDbEntity
  8
0-0
  6
JWW_DASHED1
 62
   120
370
     5
100
AcDbLine
 10
-646.8308424837841
 20
-532.364277653067
 30
0.0
 11
-396.8308424837761
 21
-282.3642776530603
 31
0.0
  0
LINE
  5
134
330
1F
100
AcDbEntity
  8
0-0
  6
JWW_DASHED1
 62
   120
370
     5
100
AcDbLine
 10
-306.8308424837863
 20
-192.3642776530689
 30
0.0
 11
-56.83084248378009
 21
57.63572234693655
 31
0.0
  0
LINE
  5
135
330
1F
100
AcDbEntity
  8
0-0
  6
JWW_DASHED1
 62
   120
370
     5
100
AcDbLine
 10
-646.8308424837721
 20
-525.2932098397696
 30
0.0
 11
-396.8308424837812
 21
-275.2932098397791
 31
0.0
  0
LINE
  5
136
330
1F
100
AcDbEntity
  8
0-0
  6
JWW_DASHED1
 62
   120
370
     5
100
AcDbLine
 10
-306.8308424837898
 20
-185.2932098397876
 30
0.0
 11
-56.8308424837852
 21
64.70679016021776
 31
0.0
  0
LINE
  5
137
330
1F
100
AcDbEntity
  8
0-0
  6
JWW_DASHED1
 62
   120
370
     5
100
AcDbLine
 10
-646.830842483767
 20
-518.222142026534
 30
0.0
 11
-396.8308424837795
 21
-268.2221420265461
 31
0.0
  0
LINE
  5
138
330
1F
100
AcDbEntity
  8
0-0
  6
JWW_DASHED1
 62
   120
370
     5
100
AcDbLine
 10
-306.8308424837727
 20
-178.2221420265397
 30
0.0
 11
-56.8308424837852
 21
71.77785797344825
 31
0.0
  0
LINE
  5
139
330
1F
100
AcDbEntity
  8
0-0
  6
JWW_DASHED1
 62
   120
370
     5
100
AcDbLine
 10
-646.8308424837704
 20
-511.1510742132527
 30
0.0
 11
-396.8308424837829
 21
-261.1510742132645
 31
0.0
  0
LINE
  5
13A
330
1F
100
AcDbEntity
  8
0-0
  6
JWW_DASHED1
 62
   120
370
     5
100
AcDbLine
 10
-306.8308424837761
 20
-171.151074213258
 30
0.0
 11
-56.83084248378862
 21
78.84892578672947
 31
0.0
  0
LINE
  5
13B
330
1F
100
AcDbEntity
  8
0-0
  6
JWW_DASHED1
 62
   120
370
     5
100
AcDbLine
 10
-646.8308424837755
 20
-504.0800063999716
 30
0.0
 11
-396.8308424837863
 21
-254.0800063999832
 31
0.0
  0
LINE
  5
13C
330
1F
100
AcDbEntity
  8
0-0
  6
JWW_DASHED1
 62
   120
370
     5
100
AcDbLine
 10
-306.8308424837812
 20
-164.0800063999768
 30
0.0
 11
-56.83084248379203
 21
85.91999360001111
 31
0.0
  0
LINE
  5
13D
330
1F
100
AcDbEntity
  8
0-0
  6
JWW_DASHED1
 62
   120
370
     5
100
AcDbLine
 10
-646.8308424837807
 20
-497.0089385866899
 30
0.0
 11
-396.8308424837761
 21
-247.0089385866858
 31
0.0
  0
LINE
  5
13E
330
1F
100
AcDbEntity
  8
0-0
  6
JWW_DASHED1
 62
   120
370
     5
100
AcDbLine
 10
-306.8308424837846
 20
-157.0089385866952
 30
0.0
 11
-56.83084248379714
 21
92.99106141329233
 31
0.0
  0
LINE
  5
13F
330
1F
100
AcDbEntity
  8
0-0
  6
JWW_DASHED1
 62
   120
370
     5
100
AcDbLine
 10
-646.8308424837807
 20
-489.9378707734057
 30
0.0
 11
-396.8308424837744
 21
-239.937870773399
 31
0.0
  0
LINE
  5
140
330
1F
100
AcDbEntity
  8
0-0
  6
JWW_DASHED1
 62
   120
370
     5
100
AcDbLine
 10
-306.8308424837829
 20
-149.9378707734076
 30
0.0
 11
-56.83084248377668
 21
100.0621292265983
 31
0.0
  0
LINE
  5
141
330
1F
100
AcDbEntity
  8
0-0
  6
JWW_DASHED1
 62
   120
370
     5
100
AcDbLine
 10
-646.8308424837687
 20
-482.8668029601083
 30
0.0
 11
-396.8308424837778
 21
-232.8668029601178
 31
0.0
  0
LINE
  5
142
330
1F
100
AcDbEntity
  8
0-0
  6
JWW_DASHED1
 62
   120
370
     5
100
AcDbLine
 10
-306.8308424837863
 20
-142.8668029601263
 30
0.0
 11
-56.83084248378179
 21
107.1331970398795
 31
0.0
  0
LINE
  5
143
330
1F
100
AcDbEntity
  8
0-0
  6
JWW_DASHED1
 62
   120
370
     5
100
AcDbLine
 10
-646.8308424837602
 20
-475.7957351468143
 30
0.0
 11
-396.8308424837727
 21
-225.7957351468259
 31
0.0
  0
LINE
  5
144
330
1F
100
AcDbEntity
  8
0-0
  6
JWW_DASHED1
 62
   120
370
     5
100
AcDbLine
 10
-306.8308424837659
 20
-135.7957351468195
 30
0.0
 11
-56.83084248377838
 21
114.204264853168
 31
0.0
  0
LINE
  5
145
330
1F
100
AcDbEntity
  8
0-0
  6
JWW_DASHED1
 62
   120
370
     5
100
AcDbLine
 10
-646.8308424837636
 20
-468.724667333533
 30
0.0
 11
-396.8308424837761
 21
-218.7246673335447
 31
0.0
  0
LINE
  5
146
330
1F
100
AcDbEntity
  8
0-0
  6
JWW_DASHED1
 62
   120
370
     5
100
AcDbLine
 10
-306.8308424837693
 20
-128.7246673335383
 30
0.0
 11
-56.83084248378179
 21
121.2753326664496
 31
0.0
  0
LINE
  5
147
330
1F
100
AcDbEntity
  8
0-0
  6
JWW_DASHED1
 62
   120
370
     5
100
AcDbLine
 10
-646.8308424837687
 20
-461.6535995202514
 30
0.0
 11
-396.8308424837795
 21
-211.6535995202635
 31
0.0
  0
LINE
  5
148
330
1F
100
AcDbEntity
  8
0-0
  6
JWW_DASHED1
 62
   120
370
     5
100
AcDbLine
 10
-306.8308424837727
 20
-121.6535995202567
 30
0.0
 11
-56.83084248378691
 21
128.3464004797308
 31
0.0
  0
LINE
  5
149
330
1F
100
AcDbEntity
  8
0-0
  6
JWW_DASHED1
 62
   120
370
     5
100
AcDbLine
 10
-646.8308424837772
 20
-454.582531707029
 30
0.0
 11
-396.830842483788
 21
-204.5825317070407
 31
0.0
  0
LINE
  5
14A
330
1F
100
AcDbEntity
  8
0-0
  6
JWW_DASHED1
 62
   120
370
     5
100
AcDbLine
 10
-306.8308424837829
 20
-114.5825317070343
 30
0.0
 11
-56.83084248379544
 21
135.4174682929532
 31
0.0
  0
LINE
  5
14B
330
1F
100
AcDbEntity
  8
0-0
  6
JWW_DASHED1
 62
   120
370
     5
100
AcDbLine
 10
-646.8308424837807
 20
-447.5114638937474
 30
0.0
 11
-396.8308424837761
 21
-197.5114638937437
 31
0.0
  0
LINE
  5
14C
330
1F
100
AcDbEntity
  8
0-0
  6
JWW_DASHED1
 62
   120
370
     5
100
AcDbLine
 10
-306.8308424837863
 20
-107.5114638937531
 30
0.0
 11
-56.83084248378179
 21
142.4885361062506
 31
0.0
  0
LINE
  5
14D
330
1F
100
AcDbEntity
  8
0-0
  6
JWW_DASHED1
 62
   120
370
     5
100
AcDbLine
 10
-646.8308424837807
 20
-440.4403960804627
 30
0.0
 11
-396.8308424837761
 21
-190.4403960804561
 31
0.0
  0
LINE
  5
14E
330
1F
100
AcDbEntity
  8
0-0
  6
JWW_DASHED1
 62
   120
370
     5
100
AcDbLine
 10
-306.8308424837829
 20
-100.440396080465
 30
0.0
 11
-56.83084248377838
 21
149.5596039195408
 31
0.0
  0
LINE
  5
14F
330
1F
100
AcDbEntity
  8
0-0
  6
JWW_DASHED1
 62
   120
370
     5
100
AcDbLine
 10
-646.8308424837704
 20
-433.3693282671653
 30
0.0
 11
-396.8308424837795
 21
-183.3693282671749
 31
0.0
  0
LINE
  5
150
330
1F
100
AcDbEntity
  8
0-0
  6
JWW_DASHED1
 62
   120
370
     5
100
AcDbLine
 10
-306.830842483788
 20
-93.36932826718339
 30
0.0
 11
-56.83084248378179
 21
156.6306717328224
 31
0.0
  0
LINE
  5
151
330
1F
100
AcDbEntity
  8
0-0
  6
JWW_DASHED1
 62
   120
370
     5
100
AcDbLine
 10
-646.8308424837619
 20
-426.2982604538718
 30
0.0
 11
-396.8308424837727
 21
-176.2982604538834
 31
0.0
  0
LINE
  5
152
330
1F
100
AcDbEntity
  8
0-0
  6
JWW_DASHED1
 62
   120
370
     5
100
AcDbLine
 10
-306.8308424837676
 20
-86.29826045387702
 30
0.0
 11
-56.83084248377838
 21
163.7017395461105
 31
0.0
  0
LINE
  5
153
330
1F
100
AcDbEntity
  8
0-0
  6
JWW_DASHED1
 62
   120
370
     5
100
AcDbLine
 10
-646.830842483767
 20
-419.2271926405909
 30
0.0
 11
-396.8308424837778
 21
-169.2271926406022
 31
0.0
  0
LINE
  5
154
330
1F
100
AcDbEntity
  8
0-0
  6
JWW_DASHED1
 62
   120
370
     5
100
AcDbLine
 10
-306.830842483771
 20
-79.2271926405958
 30
0.0
 11
-56.8308424837835
 21
170.7728073593917
 31
0.0
  0
LINE
  5
155
330
1F
100
AcDbEntity
  8
0-0
  6
JWW_DASHED1
 62
   120
370
     5
100
AcDbLine
 10
-646.8308424837704
 20
-412.1561248273089
 30
0.0
 11
-396.8308424837812
 21
-162.156124827321
 31
0.0
  0
LINE
  5
156
330
1F
100
AcDbEntity
  8
0-0
  6
JWW_DASHED1
 62
   120
370
     5
100
AcDbLine
 10
-306.8308424837761
 20
-72.15612482731458
 30
0.0
 11
-56.83084248378862
 21
177.8438751726729
 31
0.0
  0
LINE
  5
157
330
1F
100
AcDbEntity
  8
0-0
  6
JWW_DASHED1
 62
   120
370
     5
100
AcDbLine
 10
-646.8308424837738
 20
-405.0850570140277
 30
0.0
 11
-396.8308424837863
 21
-155.0850570140393
 31
0.0
  0
LINE
  5
158
330
1F
100
AcDbEntity
  8
0-0
  6
JWW_DASHED1
 62
   120
370
     5
100
AcDbLine
 10
-306.8308424837795
 20
-65.08505701403337
 30
0.0
 11
-56.83084248379203
 21
184.9149429859546
 31
0.0
  0
LINE
  5
159
330
1F
100
AcDbEntity
  8
0-0
  6
JWW_DASHED1
 62
   120
370
     5
100
AcDbLine
 10
-646.8308424837772
 20
-398.0139892007464
 30
0.0
 11
-396.8308424837744
 21
-148.0139892007423
 31
0.0
  0
LINE
  5
15A
330
1F
100
AcDbEntity
  8
0-0
  6
JWW_DASHED1
 62
   120
370
     5
100
AcDbLine
 10
-306.8308424837829
 20
-58.01398920075172
 30
0.0
 11
-56.83084248379544
 21
191.9860107992358
 31
0.0
  0
LINE
  5
15B
330
1F
100
AcDbEntity
  8
0-0
  6
JWW_DASHED1
 62
   120
370
     5
100
AcDbLine
 10
-646.8308424837824
 20
-390.9429213875198
 30
0.0
 11
-396.8308424837761
 21
-140.9429213875136
 31
0.0
  0
LINE
  5
15C
330
1F
100
AcDbEntity
  8
0-0
  6
JWW_DASHED1
 62
   120
370
     5
100
AcDbLine
 10
-306.8308424837846
 20
-50.94292138752209
 30
0.0
 11
-56.83084248377838
 21
199.0570786124833
 31
0.0
  0
LINE
  5
15D
330
1F
100
AcDbEntity
  8
0-0
  6
JWW_DASHED1
 62
   120
370
     5
100
AcDbLine
 10
-646.8308424837704
 20
-383.8718535742224
 30
0.0
 11
-396.8308424837795
 21
-133.8718535742319
 31
0.0
  0
LINE
  5
15E
330
1F
100
AcDbEntity
  8
0-0
  6
JWW_DASHED1
 62
   120
370
     5
100
AcDbLine
 10
-306.8308424837898
 20
-43.87185357424087
 30
0.0
 11
-56.83084248378179
 21
206.1281464257654
 31
0.0
  0
LINE
  5
15F
330
1F
100
AcDbEntity
  8
0-0
  6
JWW_DASHED1
 62
   120
370
     5
100
AcDbLine
 10
-646.8308424837636
 20
-376.8007857609292
 30
0.0
 11
-396.8308424837744
 21
-126.8007857609413
 31
0.0
  0
LINE
  5
160
330
1F
100
AcDbEntity
  8
0-0
  6
JWW_DASHED1
 62
   120
370
     5
100
AcDbLine
 10
-306.8308424837693
 20
-36.80078576093493
 30
0.0
 11
-56.83084248378179
 21
213.1992142390526
 31
0.0
  0
LINE
  5
161
330
1F
100
AcDbEntity
  8
0-0
  6
JWW_DASHED1
 62
   120
370
     5
100
AcDbLine
 10
-646.830842483767
 20
-369.7297179476481
 30
0.0
 11
-396.8308424837795
 21
-119.7297179476597
 31
0.0
  0
LINE
  5
162
330
1F
100
AcDbEntity
  8
0-0
  6
JWW_DASHED1
 62
   120
370
     5
100
AcDbLine
 10
-306.8308424837727
 20
-29.72971794765371
 30
0.0
 11
-56.8308424837852
 21
220.2702820523338
 31
0.0
  0
LINE
  5
163
330
1F
100
AcDbEntity
  8
0-0
  6
JWW_DASHED1
 62
   120
370
     5
100
AcDbLine
 10
-646.8308424837704
 20
-362.6586501343668
 30
0.0
 11
-396.8308424837829
 21
-112.6586501343785
 31
0.0
  0
LINE
  5
164
330
1F
100
AcDbEntity
  8
0-0
  6
JWW_DASHED1
 62
   120
370
     5
100
AcDbLine
 10
-306.8308424837761
 20
-22.65865013437207
 30
0.0
 11
-56.83084248378862
 21
227.3413498656154
 31
0.0
  0
LINE
  5
165
330
1F
100
AcDbEntity
  8
0-0
  6
JWW_DASHED1
 62
   120
370
     5
100
AcDbLine
 10
-646.8308424837755
 20
-355.5875823210856
 30
0.0
 11
-396.8308424837863
 21
-105.5875823210972
 31
0.0
  0
LINE
  5
166
330
1F
100
AcDbEntity
  8
0-0
  6
JWW_DASHED1
 62
   120
370
     5
100
AcDbLine
 10
-306.8308424837812
 20
-15.58758232109085
 30
0.0
 11
-56.83084248379203
 21
234.4124176788971
 31
0.0
  0
LINE
  5
167
330
1F
100
AcDbEntity
  8
0-0
  6
JWW_DASHED1
 62
   120
370
     5
100
AcDbLine
 10
-646.8308424837807
 20
-348.5165145078039
 30
0.0
 11
-396.8308424837761
 21
-98.51651450779983
 31
0.0
  0
LINE
  5
168
330
1F
100
AcDbEntity
  8
0-0
  6
JWW_DASHED1
 62
   120
370
     5
100
AcDbLine
 10
-306.8308424837846
 20
-8.516514507809205
 30
0.0
 11
-56.83084248379714
 21
241.4834854921783
 31
0.0
  0
LINE
  5
169
330
1F
100
AcDbEntity
  8
0-0
  6
JWW_DASHED1
 62
   120
370
     5
100
AcDbLine
 10
-646.830842483779
 20
-341.4454466945181
 30
0.0
 11
-396.8308424837727
 21
-91.44544669451179
 31
0.0
  0
LINE
  5
16A
330
1F
100
AcDbEntity
  8
0-0
  6
JWW_DASHED1
 62
   120
370
     5
100
AcDbLine
 10
-306.8308424837812
 20
-1.445446694520314
 30
0.0
 11
-56.83084248377497
 21
248.5545533054855
 31
0.0
  0
LINE
  5
16B
330
1F
100
AcDbEntity
  8
0-0
  6
JWW_DASHED1
 62
   120
370
     5
100
AcDbLine
 10
-646.8308424837841
 20
-334.3743788812368
 30
0.0
 11
-396.8308424837761
 21
-84.37437888123014
 31
0.0
  0
LINE
  5
16C
330
1F
100
AcDbEntity
  8
0-0
  6
JWW_DASHED1
 62
   120
370
     5
100
AcDbLine
 10
-306.8308424837863
 20
5.62562111876133
 30
0.0
 11
-56.83084248378009
 21
255.6256211187667
 31
0.0
  0
LINE
  5
16D
330
1F
100
AcDbEntity
  8
0-0
  6
JWW_DASHED1
 62
   120
370
     5
100
AcDbLine
 10
-646.8308424837653
 20
-327.3033110679871
 30
0.0
 11
-396.8308424837761
 21
-77.3033110679988
 31
0.0
  0
LINE
  5
16E
330
1F
100
AcDbEntity
  8
0-0
  6
JWW_DASHED1
 62
   120
370
     5
100
AcDbLine
 10
-306.8308424837693
 20
12.69668893200759
 30
0.0
 11
-56.83084248378179
 21
262.6966889319951
 31
0.0
  0
LINE
  5
16F
330
1F
100
AcDbEntity
  8
0-0
  6
JWW_DASHED1
 62
   120
370
     5
100
AcDbLine
 10
-646.8308424837687
 20
-320.232243254706
 30
0.0
 11
-396.8308424837795
 21
-70.23224325471759
 31
0.0
  0
LINE
  5
170
330
1F
100
AcDbEntity
  8
0-0
  6
JWW_DASHED1
 62
   120
370
     5
100
AcDbLine
 10
-306.8308424837744
 20
19.76775674528881
 30
0.0
 11
-56.83084248378691
 21
269.7677567452768
 31
0.0
  0
LINE
  5
171
330
1F
100
AcDbEntity
  8
0-0
  6
JWW_DASHED1
 62
   120
370
     5
100
AcDbLine
 10
-646.8308424837738
 20
-313.1611754414243
 30
0.0
 11
-396.8308424837846
 21
-63.16117544143637
 31
0.0
  0
LINE
  5
172
330
1F
100
AcDbEntity
  8
0-0
  6
JWW_DASHED1
 62
   120
370
     5
100
AcDbLine
 10
-306.8308424837778
 20
26.83882455857045
 30
0.0
 11
-56.83084248379032
 21
276.8388245585579
 31
0.0
  0
LINE
  5
173
330
1F
100
AcDbEntity
  8
0-0
  6
JWW_DASHED1
 62
   120
370
     5
100
AcDbLine
 10
-646.8308424837772
 20
-306.0901076281431
 30
0.0
 11
-396.830842483788
 21
-56.09010762815473
 31
0.0
  0
LINE
  5
174
330
1F
100
AcDbEntity
  8
0-0
  6
JWW_DASHED1
 62
   120
370
     5
100
AcDbLine
 10
-306.8308424837829
 20
33.90989237185167
 30
0.0
 11
-56.83084248379544
 21
283.9098923718392
 31
0.0
  0
LINE
  5
175
330
1F
100
AcDbEntity
  8
0-0
  6
JWW_DASHED1
 62
   120
370
     5
100
AcDbLine
 10
-646.8308424837807
 20
-299.0190398148615
 30
0.0
 11
-396.8308424837761
 21
-49.01903981485773
 31
0.0
  0
LINE
  5
176
330
1F
100
AcDbEntity
  8
0-0
  6
JWW_DASHED1
 62
   120
370
     5
100
AcDbLine
 10
-306.8308424837863
 20
40.98096018513289
 30
0.0
 11
-56.83084248379885
 21
290.9809601851204
 31
0.0
  0
LINE
  5
177
330
1F
100
AcDbEntity
  8
0-0
  6
JWW_DASHED1
 62
   120
370
     5
100
AcDbLine
 10
-646.8308424837807
 20
-291.9479720015751
 30
0.0
 11
-396.8308424837727
 21
-41.94797200156884
 31
0.0
  0
LINE
  5
178
330
1F
100
AcDbEntity
  8
0-0
  6
JWW_DASHED1
 62
   120
370
     5
100
AcDbLine
 10
-306.8308424837829
 20
48.05202799842263
 30
0.0
 11
-56.83084248377668
 21
298.052027998428
 31
0.0
  0
LINE
  5
179
330
1F
100
AcDbEntity
  8
0-0
  6
JWW_DASHED1
 62
   120
370
     5
100
AcDbLine
 10
-646.8308424837841
 20
-284.8769041882939
 30
0.0
 11
-396.8308424837778
 21
-34.8769041882872
 31
0.0
  0
LINE
  5
17A
330
1F
100
AcDbEntity
  8
0-0
  6
JWW_DASHED1
 62
   120
370
     5
100
AcDbLine
 10
-306.8308424837863
 20
55.12309581170385
 30
0.0
 11
-56.83084248378179
 21
305.1230958117093
 31
0.0
  0
LINE
  5
17B
330
1F
100
AcDbEntity
  8
0-0
  6
JWW_DASHED1
 62
   120
370
     5
100
AcDbLine
 10
-646.8308424837721
 20
-277.8058363749965
 30
0.0
 11
-396.8308424837812
 21
-27.80583637500598
 31
0.0
  0
LINE
  5
17C
330
1F
100
AcDbEntity
  8
0-0
  6
JWW_DASHED1
 62
   120
370
     5
100
AcDbLine
 10
-306.8308424837744
 20
62.19416362500127
 30
0.0
 11
-56.8308424837852
 21
312.1941636249913
 31
0.0
  0
LINE
  5
17D
330
1F
100
AcDbEntity
  8
0-0
  6
JWW_DASHED1
 62
   120
370
     5
100
AcDbLine
 10
-646.8308424837653
 20
-270.7347685617046
 30
0.0
 11
-396.8308424837778
 21
-20.73476856171624
 31
0.0
  0
LINE
  5
17E
330
1F
100
AcDbEntity
  8
0-0
  6
JWW_DASHED1
 62
   120
370
     5
100
AcDbLine
 10
-306.830842483771
 20
69.26523143829016
 30
0.0
 11
-56.8308424837835
 21
319.2652314382776
 31
0.0
  0
LINE
  5
17F
330
1F
100
AcDbEntity
  8
0-0
  6
JWW_DASHED1
 62
   120
370
     5
100
AcDbLine
 10
-646.8308424837738
 20
-263.6637007484818
 30
0.0
 11
-396.8308424837863
 21
-13.66370074849385
 31
0.0
  0
LINE
  5
180
330
1F
100
AcDbEntity
  8
0-0
  6
JWW_DASHED1
 62
   120
370
     5
100
AcDbLine
 10
-306.8308424837795
 20
76.33629925151254
 30
0.0
 11
-56.83084248379203
 21
326.3362992515005
 31
0.0
  0
LINE
  5
181
330
1F
100
AcDbEntity
  8
0-0
  6
JWW_DASHED1
 62
   120
370
     5
100
AcDbLine
 10
-646.8308424837772
 20
-256.5926329352005
 30
0.0
 11
-396.8308424837898
 21
-6.592632935212208
 31
0.0
  0
LINE
  5
182
330
1F
100
AcDbEntity
  8
0-0
  6
JWW_DASHED1
 62
   120
370
     5
100
AcDbLine
 10
-306.8308424837829
 20
83.40736706479376
 30
0.0
 11
-56.83084248379544
 21
333.4073670647813
 31
0.0
  0
LINE
  5
183
330
1F
100
AcDbEntity
  8
0-0
  6
JWW_DASHED1
 62
   120
370
     5
100
AcDbLine
 10
-646.8308424837824
 20
-249.5215651219193
 30
0.0
 11
-396.8308424837778
 21
0.4784348780847836
 31
0.0
  0
LINE
  5
184
330
1F
100
AcDbEntity
  8
0-0
  6
JWW_DASHED1
 62
   120
370
     5
100
AcDbLine
 10
-306.830842483788
 20
90.4784348780754
 30
0.0
 11
-56.8308424837852
 21
340.4784348780787
 31
0.0
  0
LINE
  5
185
330
1F
100
AcDbEntity
  8
0-0
  6
JWW_DASHED1
 62
   120
370
     5
100
AcDbLine
 10
-646.8308424837807
 20
-242.4504973086326
 30
0.0
 11
-396.8308424837744
 21
7.549502691374101
 31
0.0
  0
LINE
  5
186
330
1F
100
AcDbEntity
  8
0-0
  6
JWW_DASHED1
 62
   120
370
     5
100
AcDbLine
 10
-306.8308424837829
 20
97.54950269136557
 30
0.0
 11
-56.83084248377838
 21
347.549502691371
 31
0.0
  0
LINE
  5
187
330
1F
100
AcDbEntity
  8
0-0
  6
JWW_DASHED1
 62
   120
370
     5
100
AcDbLine
 10
-646.8308424837704
 20
-235.3794294953356
 30
0.0
 11
-396.8308424837795
 21
14.62057050465532
 31
0.0
  0
LINE
  5
188
330
1F
100
AcDbEntity
  8
0-0
  6
JWW_DASHED1
 62
   120
370
     5
100
AcDbLine
 10
-306.8308424837863
 20
104.6205705046468
 30
0.0
 11
-56.83084248378179
 21
354.6205705046526
 31
0.0
  0
LINE
  5
189
330
1F
100
AcDbEntity
  8
0-0
  6
JWW_DASHED1
 62
   120
370
     5
100
AcDbLine
 10
-646.8308424837636
 20
-228.3083616820433
 30
0.0
 11
-396.8308424837744
 21
21.69163831794464
 31
0.0
  0
LINE
  5
18A
330
1F
100
AcDbEntity
  8
0-0
  6
JWW_DASHED1
 62
   120
370
     5
100
AcDbLine
 10
-306.8308424837693
 20
111.691638317951
 30
0.0
 11
-56.83084248378179
 21
361.6916383179386
 31
0.0
  0
LINE
  5
18B
330
1F
100
AcDbEntity
  8
0-0
  6
JWW_DASHED1
 62
   120
370
     5
100
AcDbLine
 10
-646.830842483767
 20
-221.2372938687621
 30
0.0
 11
-396.8308424837795
 21
28.76270613122628
 31
0.0
  0
LINE
  5
18C
330
1F
100
AcDbEntity
  8
0-0
  6
JWW_DASHED1
 62
   120
370
     5
100
AcDbLine
 10
-306.8308424837727
 20
118.7627061312322
 30
0.0
 11
-56.8308424837852
 21
368.7627061312202
 31
0.0
  0
LINE
  5
18D
330
1F
100
AcDbEntity
  8
0-0
  6
JWW_DASHED1
 62
   120
370
     5
100
AcDbLine
 10
-646.8308424837704
 20
-214.1662260554808
 30
0.0
 11
-396.8308424837829
 21
35.8337739445075
 31
0.0
  0
LINE
  5
18E
330
1F
100
AcDbEntity
  8
0-0
  6
JWW_DASHED1
 62
   120
370
     5
100
AcDbLine
 10
-306.8308424837761
 20
125.8337739445139
 30
0.0
 11
-56.83084248378862
 21
375.8337739445014
 31
0.0
  0
LINE
  5
18F
330
1F
100
AcDbEntity
  8
0-0
  6
JWW_DASHED1
 62
   120
370
     5
100
AcDbLine
 10
-646.8308424837755
 20
-207.0951582421992
 30
0.0
 11
-396.8308424837863
 21
42.90484175778872
 31
0.0
  0
LINE
  5
190
330
1F
100
AcDbEntity
  8
0-0
  6
JWW_DASHED1
 62
   120
370
     5
100
AcDbLine
 10
-306.8308424837795
 20
132.9048417577955
 30
0.0
 11
-56.83084248379373
 21
382.9048417577831
 31
0.0
  0
LINE
  5
191
330
1F
100
AcDbEntity
  8
0-0
  6
JWW_DASHED1
 62
   120
370
     5
100
AcDbLine
 10
-646.8308424837772
 20
-200.0240904289709
 30
0.0
 11
-396.830842483771
 21
49.9759095710354
 31
0.0
  0
LINE
  5
192
330
1F
100
AcDbEntity
  8
0-0
  6
JWW_DASHED1
 62
   120
370
     5
100
AcDbLine
 10
-306.8308424837795
 20
139.9759095710264
 30
0.0
 11
-56.83084248377497
 21
389.9759095710327
 31
0.0
  0
LINE
  5
193
330
1F
100
AcDbEntity
  8
0-0
  6
JWW_DASHED1
 62
   120
370
     5
100
AcDbLine
 10
-646.8308424837824
 20
-192.9530226156901
 30
0.0
 11
-396.8308424837761
 21
57.04697738431705
 31
0.0
  0
LINE
  5
194
330
1F
100
AcDbEntity
  8
0-0
  6
JWW_DASHED1
 62
   120
370
     5
100
AcDbLine
 10
-306.8308424837846
 20
147.0469773843081
 30
0.0
 11
-56.83084248377838
 21
397.0469773843139
 31
0.0
  0
LINE
  5
195
330
1F
100
AcDbEntity
  8
0-0
  6
JWW_DASHED1
 62
   120
370
     5
100
AcDbLine
 10
-646.8308424837704
 20
-185.8819548023926
 30
0.0
 11
-396.8308424837795
 21
64.11804519759826
 31
0.0
  0
LINE
  5
196
330
1F
100
AcDbEntity
  8
0-0
  6
JWW_DASHED1
 62
   120
370
     5
100
AcDbLine
 10
-306.830842483788
 20
154.1180451975897
 30
0.0
 11
-56.83084248378179
 21
404.1180451975956
 31
0.0
  0
LINE
  5
197
330
1F
100
AcDbEntity
  8
0-0
  6
JWW_DASHED1
 62
   120
370
     5
100
AcDbLine
 10
-646.8308424837636
 20
-178.8108869891012
 30
0.0
 11
-396.8308424837761
 21
71.18911301088716
 31
0.0
  0
LINE
  5
198
330
1F
100
AcDbEntity
  8
0-0
  6
JWW_DASHED1
 62
   120
370
     5
100
AcDbLine
 10
-306.8308424837693
 20
161.1891130108935
 30
0.0
 11
-56.83084248378179
 21
411.189113010881
 31
0.0
  0
LINE
  5
199
330
1F
100
AcDbEntity
  8
0-0
  6
JWW_DASHED1
 62
   120
370
     5
100
AcDbLine
 10
-646.8308424837687
 20
-171.73981917582
 30
0.0
 11
-396.8308424837795
 21
78.26018082416837
 31
0.0
  0
LINE
  5
19A
330
1F
100
AcDbEntity
  8
0-0
  6
JWW_DASHED1
 62
   120
370
     5
100
AcDbLine
 10
-306.8308424837744
 20
168.2601808241748
 30
0.0
 11
-56.8308424837852
 21
418.2601808241623
 31
0.0
  0
LINE
  5
19B
330
1F
100
AcDbEntity
  8
0-0
  6
JWW_DASHED1
 62
   120
370
     5
100
AcDbLine
 10
-646.8308424837738
 20
-164.6687513625388
 30
0.0
 11
-396.8308424837846
 21
85.33124863745002
 31
0.0
  0
LINE
  5
19C
330
1F
100
AcDbEntity
  8
0-0
  6
JWW_DASHED1
 62
   120
370
     5
100
AcDbLine
 10
-306.8308424837778
 20
175.3312486374564
 30
0.0
 11
-56.83084248379032
 21
425.3312486374439
 31
0.0
  0
LINE
  5
19D
330
1F
100
AcDbEntity
  8
0-0
  6
JWW_DASHED1
 62
   120
370
     5
100
AcDbLine
 10
-646.8308424837772
 20
-157.5976835492571
 30
0.0
 11
-396.830842483788
 21
92.40231645073123
 31
0.0
  0
LINE
  5
19E
330
1F
100
AcDbEntity
  8
0-0
  6
JWW_DASHED1
 62
   120
370
     5
100
AcDbLine
 10
-306.8308424837829
 20
182.4023164507376
 30
0.0
 11
-56.83084248379544
 21
432.4023164507252
 31
0.0
  0
LINE
  5
19F
330
1F
100
AcDbEntity
  8
0-0
  6
JWW_DASHED1
 62
   120
370
     5
100
AcDbLine
 10
-646.8308424837807
 20
-150.5266157359755
 30
0.0
 11
-396.8308424837761
 21
99.47338426402823
 31
0.0
  0
LINE
  5
1A0
330
1F
100
AcDbEntity
  8
0-0
  6
JWW_DASHED1
 62
   120
370
     5
100
AcDbLine
 10
-306.8308424837863
 20
189.4733842640193
 30
0.0
 11
-56.83084248379885
 21
439.4733842640063
 31
0.0
  0
LINE
  5
1A1
330
1F
100
AcDbEntity
  8
0-0
  6
JWW_DASHED1
 62
   120
370
     5
100
AcDbLine
 10
-646.830842483779
 20
-143.4555479226879
 30
0.0
 11
-396.8308424837727
 21
106.5444520773184
 31
0.0
  0
LINE
  5
1A2
330
1F
100
AcDbEntity
  8
0-0
  6
JWW_DASHED1
 62
   120
370
     5
100
AcDbLine
 10
-306.8308424837812
 20
196.5444520773099
 30
0.0
 11
-56.83084248377497
 21
446.5444520773153
 31
0.0
  0
LINE
  5
1A3
330
1F
100
AcDbEntity
  8
0-0
  6
JWW_DASHED1
 62
   120
370
     5
100
AcDbLine
 10
-646.8308424837687
 20
-136.3844801094199
 30
0.0
 11
-396.8308424837795
 21
113.6155198905702
 31
0.0
  0
LINE
  5
1A4
330
1F
100
AcDbEntity
  8
0-0
  6
JWW_DASHED1
 62
   120
370
     5
100
AcDbLine
 10
-306.8308424837863
 20
203.6155198905617
 30
0.0
 11
-56.83084248378179
 21
453.6155198905675
 31
0.0
  0
LINE
  5
1A5
330
1F
100
AcDbEntity
  8
0-0
  6
JWW_DASHED1
 62
   120
370
     5
100
AcDbLine
 10
-646.830842483767
 20
-129.3134122961587
 30
0.0
 11
-396.8308424837778
 21
120.6865877038297
 31
0.0
  0
LINE
  5
1A6
330
1F
100
AcDbEntity
  8
0-0
  6
JWW_DASHED1
 62
   120
370
     5
100
AcDbLine
 10
-306.830842483771
 20
210.6865877038361
 30
0.0
 11
-56.8308424837835
 21
460.6865877038231
 31
0.0
  0
LINE
  5
1A7
330
1F
100
AcDbEntity
  8
0-0
  6
JWW_DASHED1
 62
   120
370
     5
100
AcDbLine
 10
-646.8308424837704
 20
-122.2423444828775
 30
0.0
 11
-396.8308424837812
 21
127.7576555171109
 31
0.0
  0
LINE
  5
1A8
330
1F
100
AcDbEntity
  8
0-0
  6
JWW_DASHED1
 62
   120
370
     5
100
AcDbLine
 10
-306.8308424837761
 20
217.7576555171173
 30
0.0
 11
-56.83084248378862
 21
467.7576555171048
 31
0.0
  0
LINE
  5
1A9
330
1F
100
AcDbEntity
  8
0-0
  6
JWW_DASHED1
 62
   120
370
     5
100
AcDbLine
 10
-646.8308424837738
 20
-115.1712766695958
 30
0.0
 11
-396.8308424837863
 21
134.8287233303921
 31
0.0
  0
LINE
  5
1AA
330
1F
100
AcDbEntity
  8
0-0
  6
JWW_DASHED1
 62
   120
370
     5
100
AcDbLine
 10
-306.8308424837795
 20
224.8287233303989
 30
0.0
 11
-56.83084248379203
 21
474.828723330386
 31
0.0
  0
LINE
  5
1AB
330
1F
100
AcDbEntity
  8
0-0
  6
JWW_DASHED1
 62
   120
370
     5
100
AcDbLine
 10
-646.830842483779
 20
-108.1002088563146
 30
0.0
 11
-396.8308424837898
 21
141.8997911436738
 31
0.0
  0
LINE
  5
1AC
330
1F
100
AcDbEntity
  8
0-0
  6
JWW_DASHED1
 62
   120
370
     5
100
AcDbLine
 10
-306.8308424837829
 20
231.8997911436801
 30
0.0
 11
-56.83084248379544
 21
481.8997911436672
 31
0.0
  0
LINE
  5
1AD
330
1F
100
AcDbEntity
  8
0-0
  6
JWW_DASHED1
 62
   120
370
     5
100
AcDbLine
 10
-646.8308424837824
 20
-101.0291410430334
 30
0.0
 11
-396.8308424837778
 21
148.9708589569707
 31
0.0
  0
LINE
  5
1AE
330
1F
100
AcDbEntity
  8
0-0
  6
JWW_DASHED1
 62
   120
370
     5
100
AcDbLine
 10
-306.830842483788
 20
238.9708589569614
 30
0.0
 11
-56.83084248380055
 21
488.9708589569489
 31
0.0
  0
LINE
  5
1AF
330
1F
100
AcDbEntity
  8
0-0
  6
JWW_DASHED1
 62
   120
370
     5
100
AcDbLine
 10
-646.8308424837807
 20
-93.95807322974534
 30
0.0
 11
-396.8308424837727
 21
156.0419267702613
 31
0.0
  0
LINE
  5
1B0
330
1F
100
AcDbEntity
  8
0-0
  6
JWW_DASHED1
 62
   120
370
     5
100
AcDbLine
 10
-306.8308424837812
 20
246.0419267702528
 30
0.0
 11
-56.83084248377497
 21
496.0419267702587
 31
0.0
  0
LINE
  5
1B1
330
1F
100
AcDbEntity
  8
0-0
  6
JWW_DASHED1
 62
   120
370
     5
100
AcDbLine
 10
-646.8308424837841
 20
-86.8870054164637
 30
0.0
 11
-396.8308424837778
 21
163.112994583543
 31
0.0
  0
LINE
  5
1B2
330
1F
100
AcDbEntity
  8
0-0
  6
JWW_DASHED1
 62
   120
370
     5
100
AcDbLine
 10
-306.8308424837863
 20
253.1129945835345
 30
0.0
 11
-56.83084248378009
 21
503.1129945835398
 31
0.0
  0
LINE
  5
1B3
330
1F
100
AcDbEntity
  8
0-0
  6
JWW_DASHED1
 62
   120
370
     5
100
AcDbLine
 10
-646.8308424837721
 20
-79.81593760316628
 30
0.0
 11
-396.8308424837812
 21
170.1840623968242
 31
0.0
  0
LINE
  5
1B4
330
1F
100
AcDbEntity
  8
0-0
  6
JWW_DASHED1
 62
   120
370
     5
100
AcDbLine
 10
-306.8308424837744
 20
260.1840623968315
 30
0.0
 11
-56.8308424837852
 21
510.1840623968211
 31
0.0
  0
LINE
  5
1B5
330
1F
100
AcDbEntity
  8
0-0
  6
JWW_DASHED1
 62
   120
370
     5
100
AcDbLine
 10
-646.8308424837704
 20
-72.74486978990595
 30
0.0
 11
-396.8308424837812
 21
177.2551302100828
 31
0.0
  0
LINE
  5
1B6
330
1F
100
AcDbEntity
  8
0-0
  6
JWW_DASHED1
 62
   120
370
     5
100
AcDbLine
 10
-306.8308424837744
 20
267.2551302100892
 30
0.0
 11
-56.83084248378691
 21
517.2551302100762
 31
0.0
  0
LINE
  5
1B7
330
1F
100
AcDbEntity
  8
0-0
  6
JWW_DASHED1
 62
   120
370
     5
100
AcDbLine
 10
-646.8308424837755
 20
-65.67380197665372
 30
0.0
 11
-396.8308424837863
 21
184.3261980233346
 31
0.0
  0
LINE
  5
1B8
330
1F
100
AcDbEntity
  8
0-0
  6
JWW_DASHED1
 62
   120
370
     5
100
AcDbLine
 10
-306.8308424837812
 20
274.326198023341
 30
0.0
 11
-56.83084248379373
 21
524.3261980233285
 31
0.0
  0
LINE
  5
1B9
330
1F
100
AcDbEntity
  8
0-0
  6
JWW_DASHED1
 62
   120
370
     5
100
AcDbLine
 10
-646.8308424837807
 20
-58.6027341633725
 30
0.0
 11
-396.8308424837915
 21
191.3972658366163
 31
0.0
  0
LINE
  5
1BA
330
1F
100
AcDbEntity
  8
0-0
  6
JWW_DASHED1
 62
   120
370
     5
100
AcDbLine
 10
-306.8308424837846
 20
281.3972658366226
 30
0.0
 11
-56.83084248379714
 21
531.3972658366097
 31
0.0
  0
LINE
  5
1BB
330
1F
100
AcDbEntity
  8
0-0
  6
JWW_DASHED1
 62
   120
370
     5
100
AcDbLine
 10
-646.8308424837841
 20
-51.53166635009086
 30
0.0
 11
-396.8308424837795
 21
198.4683336499133
 31
0.0
  0
LINE
  5
1BC
330
1F
100
AcDbEntity
  8
0-0
  6
JWW_DASHED1
 62
   120
370
     5
100
AcDbLine
 10
-306.8308424837898
 20
288.4683336499039
 30
0.0
 11
-56.83084248380226
 21
538.468333649891
 31
0.0
  0
LINE
  5
1BD
330
1F
100
AcDbEntity
  8
0-0
  6
JWW_DASHED1
 62
   120
370
     5
100
AcDbLine
 10
-646.8308424837807
 20
-44.46059853680239
 30
0.0
 11
-396.8308424837744
 21
205.5394014632039
 31
0.0
  0
LINE
  5
1BE
330
1F
100
AcDbEntity
  8
0-0
  6
JWW_DASHED1
 62
   120
370
     5
100
AcDbLine
 10
-306.8308424837829
 20
295.5394014631953
 30
0.0
 11
-56.83084248377668
 21
545.5394014632011
 31
0.0
  0
LINE
  5
1BF
330
1F
100
AcDbEntity
  8
0-0
  6
JWW_DASHED1
 62
   120
370
     5
100
AcDbLine
 10
-646.8308424837687
 20
-37.38953072350498
 30
0.0
 11
-396.8308424837778
 21
212.6104692764855
 31
0.0
  0
LINE
  5
1C0
330
1F
100
AcDbEntity
  8
0-0
  6
JWW_DASHED1
 62
   120
370
     5
100
AcDbLine
 10
-306.8308424837863
 20
302.610469276477
 30
0.0
 11
-56.83084248378179
 21
552.6104692764824
 31
0.0
  0
LINE
  5
1C1
330
1F
100
AcDbEntity
  8
0-0
  6
JWW_DASHED1
 62
   120
370
     5
100
AcDbLine
 10
-646.8308424837636
 20
-30.31846291021523
 30
0.0
 11
-396.8308424837761
 21
219.6815370897731
 31
0.0
  0
LINE
  5
1C2
330
1F
100
AcDbEntity
  8
0-0
  6
JWW_DASHED1
 62
   120
370
     5
100
AcDbLine
 10
-306.8308424837693
 20
309.6815370897795
 30
0.0
 11
-56.83084248378179
 21
559.6815370897671
 31
0.0
  0
LINE
  5
1C3
330
1F
100
AcDbEntity
  8
0-0
  6
JWW_DASHED1
 62
   120
370
     5
100
AcDbLine
 10
-646.8308424837687
 20
-23.24739509693359
 30
0.0
 11
-396.8308424837795
 21
226.7526049030548
 31
0.0
  0
LINE
  5
1C4
330
1F
100
AcDbEntity
  8
0-0
  6
JWW_DASHED1
 62
   120
370
     5
100
AcDbLine
 10
-306.8308424837744
 20
316.7526049030612
 30
0.0
 11
-56.8308424837852
 21
566.7526049030482
 31
0.0
  0
LINE
  5
1C5
330
1F
100
AcDbEntity
  8
0-0
  6
JWW_DASHED1
 62
   120
370
     5
100
AcDbLine
 10
-646.8308424837738
 20
-16.17632728365237
 30
0.0
 11
-396.8308424837846
 21
233.823672716336
 31
0.0
  0
LINE
  5
1C6
330
1F
100
AcDbEntity
  8
0-0
  6
JWW_DASHED1
 62
   120
370
     5
100
AcDbLine
 10
-306.8308424837778
 20
323.8236727163423
 30
0.0
 11
-56.83084248379032
 21
573.8236727163298
 31
0.0
  0
LINE
  5
1C7
330
1F
100
AcDbEntity
  8
0-0
  6
JWW_DASHED1
 62
   120
370
     5
100
AcDbLine
 10
-646.8308424837772
 20
-9.105259470371152
 30
0.0
 11
-396.830842483788
 21
240.8947405296172
 31
0.0
  0
LINE
  5
1C8
330
1F
100
AcDbEntity
  8
0-0
  6
JWW_DASHED1
 62
   120
370
     5
100
AcDbLine
 10
-306.8308424837829
 20
330.8947405296236
 30
0.0
 11
-56.83084248379544
 21
580.8947405296111
 31
0.0
  0
LINE
  5
1C9
330
1F
100
AcDbEntity
  8
0-0
  6
JWW_DASHED1
 62
   120
370
     5
100
AcDbLine
 10
-646.8308424837772
 20
-2.034191657140667
 30
0.0
 11
-396.830842483771
 21
247.9658083428656
 31
0.0
  0
LINE
  5
1CA
330
1F
100
AcDbEntity
  8
0-0
  6
JWW_DASHED1
 62
   120
370
     5
100
AcDbLine
 10
-306.8308424837795
 20
337.965808342857
 30
0.0
 11
-56.83084248377327
 21
587.9658083428625
 31
0.0
  0
LINE
  5
1CB
330
1F
100
AcDbEntity
  8
0-0
  6
JWW_DASHED1
 62
   120
370
     5
100
AcDbLine
 10
-646.8308424837807
 20
5.036876156140551
 30
0.0
 11
-396.8308424837761
 21
255.0368761561468
 31
0.0
  0
LINE
  5
1CC
330
1F
100
AcDbEntity
  8
0-0
  6
JWW_DASHED1
 62
   120
370
     5
100
AcDbLine
 10
-306.8308424837829
 20
345.0368761561387
 30
0.0
 11
-56.83084248377838
 21
595.0368761561441
 31
0.0
  0
LINE
  5
1CD
330
1F
100
AcDbEntity
  8
0-0
  6
JWW_DASHED1
 62
   120
370
     5
100
AcDbLine
 10
-646.8308424837704
 20
12.10794396943797
 30
0.0
 11
-396.8308424837795
 21
262.1079439694284
 31
0.0
  0
LINE
  5
1CE
330
1F
100
AcDbEntity
  8
0-0
  6
JWW_DASHED1
 62
   120
370
     5
100
AcDbLine
 10
-306.830842483788
 20
352.1079439694199
 30
0.0
 11
-56.83084248378179
 21
602.1079439694254
 31
0.0
  0
LINE
  5
1CF
330
1F
100
AcDbEntity
  8
0-0
  6
JWW_DASHED1
 62
   120
370
     5
100
AcDbLine
 10
-646.830842483767
 20
19.17901178272729
 30
0.0
 11
-396.8308424837778
 21
269.1790117827156
 31
0.0
  0
LINE
  5
1D0
330
1F
100
AcDbEntity
  8
0-0
  6
JWW_DASHED1
 62
   120
370
     5
100
AcDbLine
 10
-306.830842483771
 20
359.179011782722
 30
0.0
 11
-56.8308424837835
 21
609.179011782709
 31
0.0
  0
LINE
  5
1D1
330
1F
100
AcDbEntity
  8
0-0
  6
JWW_DASHED1
 62
   120
370
     5
100
AcDbLine
 10
-646.8308424837704
 20
26.2500795960085
 30
0.0
 11
-396.8308424837812
 21
276.2500795959969
 31
0.0
  0
LINE
  5
1D2
330
1F
100
AcDbEntity
  8
0-0
  6
JWW_DASHED1
 62
   120
370
     5
100
AcDbLine
 10
-306.8308424837761
 20
366.2500795960033
 30
0.0
 11
-56.83084248378862
 21
616.2500795959908
 31
0.0
  0
LINE
  5
1D3
330
1F
100
AcDbEntity
  8
0-0
  6
JWW_DASHED1
 62
   120
370
     5
100
AcDbLine
 10
-646.8308424837738
 20
33.32114740929015
 30
0.0
 11
-396.8308424837863
 21
283.3211474092785
 31
0.0
  0
LINE
  5
1D4
330
1F
100
AcDbEntity
  8
0-0
  6
JWW_DASHED1
 62
   120
370
     5
100
AcDbLine
 10
-306.8308424837795
 20
373.3211474092849
 30
0.0
 11
-56.83084248379203
 21
623.3211474092719
 31
0.0
  0
LINE
  5
1D5
330
1F
100
AcDbEntity
  8
0-0
  6
JWW_DASHED1
 62
   120
370
     5
100
AcDbLine
 10
-646.8308424837772
 20
40.39221522257137
 30
0.0
 11
-396.8308424837898
 21
290.3922152225597
 31
0.0
  0
LINE
  5
1D6
330
1F
100
AcDbEntity
  8
0-0
  6
JWW_DASHED1
 62
   120
370
     5
100
AcDbLine
 10
-306.8308424837829
 20
380.3922152225661
 30
0.0
 11
-56.83084248379544
 21
630.3922152225537
 31
0.0
  0
LINE
  5
1D7
330
1F
100
AcDbEntity
  8
0-0
  6
JWW_DASHED1
 62
   120
370
     5
100
AcDbLine
 10
-646.8308424837824
 20
47.46328303585258
 30
0.0
 11
-396.8308424837778
 21
297.4632830358567
 31
0.0
  0
LINE
  5
1D8
330
1F
100
AcDbEntity
  8
0-0
  6
JWW_DASHED1
 62
   120
370
     5
100
AcDbLine
 10
-306.830842483788
 20
387.4632830358473
 30
0.0
 11
-56.83084248380055
 21
637.4632830358348
 31
0.0
  0
LINE
  5
1D9
330
1F
100
AcDbEntity
  8
0-0
  6
JWW_DASHED1
 62
   120
370
     5
100
AcDbLine
 10
-646.830842483779
 20
54.53435084914233
 30
0.0
 11
-396.8308424837727
 21
304.5343508491486
 31
0.0
  0
LINE
  5
1DA
330
1F
100
AcDbEntity
  8
0-0
  6
JWW_DASHED1
 62
   120
370
     5
100
AcDbLine
 10
-306.8308424837795
 20
394.5343508491401
 30
0.0
 11
-56.83084248377497
 21
644.5343508491454
 31
0.0
  0
LINE
  5
1DB
330
1F
100
AcDbEntity
  8
0-0
  6
JWW_DASHED1
 62
   120
370
     5
100
AcDbLine
 10
-646.8308424837704
 20
61.60541866238091
 30
0.0
 11
-396.8308424837795
 21
311.6054186623714
 31
0.0
  0
LINE
  5
1DC
330
1F
100
AcDbEntity
  8
0-0
  6
JWW_DASHED1
 62
   120
370
     5
100
AcDbLine
 10
-306.8308424837898
 20
401.6054186623625
 30
0.0
 11
-56.8308424837835
 21
651.6054186623683
 31
0.0
  0
LINE
  5
1DD
330
1F
100
AcDbEntity
  8
0-0
  6
JWW_DASHED1
 62
   120
370
     5
100
AcDbLine
 10
-646.830842483767
 20
68.6764864756698
 30
0.0
 11
-396.8308424837795
 21
318.6764864756582
 31
0.0
  0
LINE
  5
1DE
330
1F
100
AcDbEntity
  8
0-0
  6
JWW_DASHED1
 62
   120
370
     5
100
AcDbLine
 10
-306.8308424837727
 20
408.6764864756641
 30
0.0
 11
-56.8308424837852
 21
658.6764864756516
 31
0.0
  0
LINE
  5
1DF
330
1F
100
AcDbEntity
  8
0-0
  6
JWW_DASHED1
 62
   120
370
     5
100
AcDbLine
 10
-646.8308424837721
 20
75.74755428895102
 30
0.0
 11
-396.8308424837829
 21
325.7475542889393
 31
0.0
  0
LINE
  5
1E0
330
1F
100
AcDbEntity
  8
0-0
  6
JWW_DASHED1
 62
   120
370
     5
100
AcDbLine
 10
-306.8308424837761
 20
415.7475542889458
 30
0.0
 11
-56.83084248378862
 21
665.7475542889329
 31
0.0
  0
LINE
  5
1E1
330
1F
100
AcDbEntity
  8
0-0
  6
JWW_DASHED1
 62
   120
370
     5
100
AcDbLine
 10
-646.8308424837755
 20
82.81862210223224
 30
0.0
 11
-396.8308424837863
 21
332.8186221022206
 31
0.0
  0
LINE
  5
1E2
330
1F
100
AcDbEntity
  8
0-0
  6
JWW_DASHED1
 62
   120
370
     5
100
AcDbLine
 10
-306.8308424837812
 20
422.818622102227
 30
0.0
 11
-56.83084248379373
 21
672.8186221022145
 31
0.0
  0
LINE
  5
1E3
330
1F
100
AcDbEntity
  8
0-0
  6
JWW_DASHED1
 62
   120
370
     5
100
AcDbLine
 10
-646.8308424837807
 20
89.88968991551388
 30
0.0
 11
-396.8308424837915
 21
339.8896899155022
 31
0.0
  0
LINE
  5
1E4
330
1F
100
AcDbEntity
  8
0-0
  6
JWW_DASHED1
 62
   120
370
     5
100
AcDbLine
 10
-306.8308424837846
 20
429.8896899155086
 30
0.0
 11
-56.83084248379714
 21
679.8896899154961
 31
0.0
  0
LINE
  5
1E5
330
1F
100
AcDbEntity
  8
0-0
  6
JWW_DASHED1
 62
   120
370
     5
100
AcDbLine
 10
-646.8308424837841
 20
96.9607577287951
 30
0.0
 11
-396.8308424837795
 21
346.9607577287992
 31
0.0
  0
LINE
  5
1E6
330
1F
100
AcDbEntity
  8
0-0
  6
JWW_DASHED1
 62
   120
370
     5
100
AcDbLine
 10
-306.8308424837898
 20
436.9607577287899
 30
0.0
 11
-56.83084248380226
 21
686.9607577287774
 31
0.0
  0
LINE
  5
1E7
330
1F
100
AcDbEntity
  8
0-0
  6
JWW_DASHED1
 62
   120
370
     5
100
AcDbLine
 10
-646.830842483779
 20
104.0318255420853
 30
0.0
 11
-396.8308424837727
 21
354.0318255420915
 31
0.0
  0
LINE
  5
1E8
330
1F
100
AcDbEntity
  8
0-0
  6
JWW_DASHED1
 62
   120
370
     5
100
AcDbLine
 10
-306.8308424837812
 20
444.031825542083
 30
0.0
 11
-56.83084248377497
 21
694.0318255420884
 31
0.0
  0
LINE
  5
1E9
330
1F
100
AcDbEntity
  8
0-0
  6
JWW_DASHED1
 62
   120
370
     5
100
AcDbLine
 10
-646.8308424837841
 20
111.1028933553665
 30
0.0
 11
-396.8308424837761
 21
361.1028933553728
 31
0.0
  0
LINE
  5
1EA
330
1F
100
AcDbEntity
  8
0-0
  6
JWW_DASHED1
 62
   120
370
     5
100
AcDbLine
 10
-306.8308424837863
 20
451.1028933553642
 30
0.0
 11
-56.83084248378009
 21
701.10289335537
 31
0.0
  0
LINE
  5
1EB
330
1F
100
AcDbEntity
  8
0-0
  6
JWW_DASHED1
 62
   120
370
     5
100
AcDbLine
 10
-646.8308424837704
 20
118.1739611686639
 30
0.0
 11
-396.8308424837812
 21
368.1739611686544
 31
0.0
  0
LINE
  5
1EC
330
1F
100
AcDbEntity
  8
0-0
  6
JWW_DASHED1
 62
   120
370
     5
100
AcDbLine
 10
-306.8308424837898
 20
458.1739611686459
 30
0.0
 11
-56.8308424837835
 21
708.1739611686512
 31
0.0
  0
LINE
  5
1ED
330
1F
100
AcDbEntity
  8
0-0
  6
JWW_DASHED1
 62
   120
370
     5
100
AcDbLine
 10
-646.8308424837738
 20
125.2450289818931
 30
0.0
 11
-396.8308424837846
 21
375.2450289818814
 31
0.0
  0
LINE
  5
1EE
330
1F
100
AcDbEntity
  8
0-0
  6
JWW_DASHED1
 62
   120
370
     5
100
AcDbLine
 10
-306.8308424837778
 20
465.2450289818883
 30
0.0
 11
-56.83084248379032
 21
715.2450289818753
 31
0.0
  0
LINE
  5
1EF
330
1F
100
AcDbEntity
  8
0-0
  6
JWW_DASHED1
 62
   120
370
     5
100
AcDbLine
 10
-646.8308424837772
 20
132.3160967951748
 30
0.0
 11
-396.8308424837898
 21
382.3160967951631
 31
0.0
  0
LINE
  5
1F0
330
1F
100
AcDbEntity
  8
0-0
  6
JWW_DASHED1
 62
   120
370
     5
100
AcDbLine
 10
-306.8308424837829
 20
472.3160967951695
 30
0.0
 11
-56.83084248379544
 21
722.316096795157
 31
0.0
  0
LINE
  5
1F1
330
1F
100
AcDbEntity
  8
0-0
  6
JWW_DASHED1
 62
   120
370
     5
100
AcDbLine
 10
-646.8308424837807
 20
139.387164608456
 30
0.0
 11
-396.8308424837932
 21
389.3871646084443
 31
0.0
  0
LINE
  5
1F2
330
1F
100
AcDbEntity
  8
0-0
  6
JWW_DASHED1
 62
   120
370
     5
100
AcDbLine
 10
-306.8308424837863
 20
479.3871646084507
 30
0.0
 11
-56.83084248379885
 21
729.3871646084382
 31
0.0
  0
LINE
  5
1F3
330
1F
100
AcDbEntity
  8
0-0
  6
JWW_DASHED1
 62
   120
370
     5
100
AcDbLine
 10
-646.8308424837858
 20
146.4582324217376
 30
0.0
 11
-396.8308424837812
 21
396.4582324217417
 31
0.0
  0
LINE
  5
1F4
330
1F
100
AcDbEntity
  8
0-0
  6
JWW_DASHED1
 62
   120
370
     5
100
AcDbLine
 10
-306.8308424837898
 20
486.458232421732
 30
0.0
 11
-56.83084248380226
 21
736.4582324217195
 31
0.0
  0
LINE
  5
1F5
330
1F
100
AcDbEntity
  8
0-0
  6
JWW_DASHED1
 62
   120
370
     5
100
AcDbLine
 10
-646.8308424837807
 20
153.5293002350282
 30
0.0
 11
-396.8308424837727
 21
403.5293002350345
 31
0.0
  0
LINE
  5
1F6
330
1F
100
AcDbEntity
  8
0-0
  6
JWW_DASHED1
 62
   120
370
     5
100
AcDbLine
 10
-306.8308424837829
 20
493.529300235026
 30
0.0
 11
-56.83084248377668
 21
743.5293002350313
 31
0.0
  0
LINE
  5
1F7
330
1F
100
AcDbEntity
  8
0-0
  6
JWW_DASHED1
 62
   120
370
     5
100
AcDbLine
 10
-646.8308424837687
 20
160.6003680483252
 30
0.0
 11
-396.8308424837778
 21
410.6003680483157
 31
0.0
  0
LINE
  5
1F8
330
1F
100
AcDbEntity
  8
0-0
  6
JWW_DASHED1
 62
   120
370
     5
100
AcDbLine
 10
-306.8308424837863
 20
500.6003680483071
 30
0.0
 11
-56.83084248378009
 21
750.6003680483126
 31
0.0
  0
LINE
  5
1F9
330
1F
100
AcDbEntity
  8
0-0
  6
JWW_DASHED1
 62
   120
370
     5
100
AcDbLine
 10
-646.830842483767
 20
167.6714358616128
 30
0.0
 11
-396.8308424837778
 21
417.6714358616016
 31
0.0
  0
LINE
  5
1FA
330
1F
100
AcDbEntity
  8
0-0
  6
JWW_DASHED1
 62
   120
370
     5
100
AcDbLine
 10
-306.830842483771
 20
507.671435861608
 30
0.0
 11
-56.8308424837835
 21
757.6714358615955
 31
0.0
  0
LINE
  5
1FB
330
1F
100
AcDbEntity
  8
0-0
  6
JWW_DASHED1
 62
   120
370
     5
100
AcDbLine
 10
-646.8308424837704
 20
174.7425036748945
 30
0.0
 11
-396.8308424837812
 21
424.7425036748828
 31
0.0
  0
LINE
  5
1FC
330
1F
100
AcDbEntity
  8
0-0
  6
JWW_DASHED1
 62
   120
370
     5
100
AcDbLine
 10
-306.8308424837761
 20
514.7425036748892
 30
0.0
 11
-56.83084248378862
 21
764.7425036748767
 31
0.0
  0
LINE
  5
1FD
330
1F
100
AcDbEntity
  8
0-0
  6
JWW_DASHED1
 62
   120
370
     5
100
AcDbLine
 10
-646.8308424837738
 20
181.8135714881761
 30
0.0
 11
-396.8308424837863
 21
431.8135714881645
 31
0.0
  0
LINE
  5
1FE
330
1F
100
AcDbEntity
  8
0-0
  6
JWW_DASHED1
 62
   120
370
     5
100
AcDbLine
 10
-306.8308424837795
 20
521.8135714881709
 30
0.0
 11
-56.83084248379203
 21
771.8135714881579
 31
0.0
  0
LINE
  5
1FF
330
1F
100
AcDbEntity
  8
0-0
  6
JWW_DASHED1
 62
   120
370
     5
100
AcDbLine
 10
-646.8308424837824
 20
188.8846393013985
 30
0.0
 11
-396.8308424837778
 21
438.8846393014026
 31
0.0
  0
LINE
  5
200
330
1F
100
AcDbEntity
  8
0-0
  6
JWW_DASHED1
 62
   120
370
     5
100
AcDbLine
 10
-306.830842483788
 20
528.8846393013932
 30
0.0
 11
-56.83084248380055
 21
778.8846393013807
 31
0.0
  0
LINE
  5
201
330
1F
100
AcDbEntity
  8
0-0
  6
JWW_DASHED1
 62
   120
370
     5
100
AcDbLine
 10
-646.8308424837772
 20
195.9557071146895
 30
0.0
 11
-396.830842483771
 21
445.9557071146958
 31
0.0
  0
LINE
  5
202
330
1F
100
AcDbEntity
  8
0-0
  6
JWW_DASHED1
 62
   120
370
     5
100
AcDbLine
 10
-306.8308424837795
 20
535.9557071146872
 30
0.0
 11
-56.83084248377327
 21
785.9557071146926
 31
0.0
  0
LINE
  5
203
330
1F
100
AcDbEntity
  8
0-0
  6
JWW_DASHED1
 62
   120
370
     5
100
AcDbLine
 10
-646.8308424837807
 20
203.0267749279707
 30
0.0
 11
-396.8308424837744
 21
453.0267749279774
 31
0.0
  0
LINE
  5
204
330
1F
100
AcDbEntity
  8
0-0
  6
JWW_DASHED1
 62
   120
370
     5
100
AcDbLine
 10
-306.8308424837829
 20
543.0267749279689
 30
0.0
 11
-56.83084248377838
 21
793.0267749279743
 31
0.0
  0
LINE
  5
205
330
1F
100
AcDbEntity
  8
0-0
  6
JWW_DASHED1
 62
   120
370
     5
100
AcDbLine
 10
-646.8308424837704
 20
210.0978427412682
 30
0.0
 11
-396.8308424837795
 21
460.0978427412587
 31
0.0
  0
LINE
  5
206
330
1F
100
AcDbEntity
  8
0-0
  6
JWW_DASHED1
 62
   120
370
     5
100
AcDbLine
 10
-306.8308424837863
 20
550.0978427412501
 30
0.0
 11
-56.83084248378179
 21
800.0978427412555
 31
0.0
  0
LINE
  5
207
330
1F
100
AcDbEntity
  8
0-0
  6
JWW_DASHED1
 62
   120
370
     5
100
AcDbLine
 10
-646.830842483767
 20
217.1689105545558
 30
0.0
 11
-396.8308424837795
 21
467.1689105545441
 31
0.0
  0
LINE
  5
208
330
1F
100
AcDbEntity
  8
0-0
  6
JWW_DASHED1
 62
   120
370
     5
100
AcDbLine
 10
-306.8308424837727
 20
557.1689105545505
 30
0.0
 11
-56.8308424837852
 21
807.1689105545375
 31
0.0
  0
LINE
  5
209
330
1F
100
AcDbEntity
  8
0-0
  6
JWW_DASHED1
 62
   120
370
     5
100
AcDbLine
 10
-646.8308424837704
 20
224.239978367837
 30
0.0
 11
-396.8308424837829
 21
474.2399783678253
 31
0.0
  0
LINE
  5
20A
330
1F
100
AcDbEntity
  8
0-0
  6
JWW_DASHED1
 62
   120
370
     5
100
AcDbLine
 10
-306.8308424837761
 20
564.2399783678318
 30
0.0
 11
-56.83084248378862
 21
814.2399783678193
 31
0.0
  0
LINE
  5
20B
330
1F
100
AcDbEntity
  8
0-0
  6
JWW_DASHED1
 62
   120
370
     5
100
AcDbLine
 10
-646.8308424837755
 20
231.3110461811182
 30
0.0
 11
-396.8308424837863
 21
481.3110461811066
 31
0.0
  0
LINE
  5
20C
330
1F
100
AcDbEntity
  8
0-0
  6
JWW_DASHED1
 62
   120
370
     5
100
AcDbLine
 10
-306.8308424837812
 20
571.3110461811129
 30
0.0
 11
-56.83084248379203
 21
821.3110461811009
 31
0.0
  0
LINE
  5
20D
330
1F
100
AcDbEntity
  8
0-0
  6
JWW_DASHED1
 62
   120
370
     5
100
AcDbLine
 10
-646.8308424837807
 20
238.3821139943998
 30
0.0
 11
-396.8308424837915
 21
488.3821139943877
 31
0.0
  0
LINE
  5
20E
330
1F
100
AcDbEntity
  8
0-0
  6
JWW_DASHED1
 62
   120
370
     5
100
AcDbLine
 10
-306.8308424837846
 20
578.3821139943946
 30
0.0
 11
-56.83084248379714
 21
828.382113994382
 31
0.0
  0
LINE
  5
20F
330
1F
100
AcDbEntity
  8
0-0
  6
JWW_DASHED1
 62
   120
370
     5
100
AcDbLine
 10
-646.8308424837841
 20
245.4531818076811
 30
0.0
 11
-396.8308424837795
 21
495.4531818076852
 31
0.0
  0
LINE
  5
210
330
1F
100
AcDbEntity
  8
0-0
  6
JWW_DASHED1
 62
   120
370
     5
100
AcDbLine
 10
-306.8308424837898
 20
585.4531818076758
 30
0.0
 11
-56.83084248380226
 21
835.4531818076633
 31
0.0
  0
LINE
  5
211
330
1F
100
AcDbEntity
  8
0-0
  6
JWW_DASHED1
 62
   120
370
     5
100
AcDbLine
 10
-646.8308424837824
 20
252.5242496209133
 30
0.0
 11
-396.8308424837761
 21
502.5242496209199
 31
0.0
  0
LINE
  5
212
330
1F
100
AcDbEntity
  8
0-0
  6
JWW_DASHED1
 62
   120
370
     5
100
AcDbLine
 10
-306.8308424837846
 20
592.5242496209114
 30
0.0
 11
-56.83084248377838
 21
842.5242496209172
 31
0.0
  0
LINE
  5
213
330
1F
100
AcDbEntity
  8
0-0
  6
JWW_DASHED1
 62
   120
370
     5
100
AcDbLine
 10
-646.8308424837704
 20
259.5953174342106
 30
0.0
 11
-396.8308424837795
 21
509.5953174342015
 31
0.0
  0
LINE
  5
214
330
1F
100
AcDbEntity
  8
0-0
  6
JWW_DASHED1
 62
   120
370
     5
100
AcDbLine
 10
-306.830842483788
 20
599.595317434193
 30
0.0
 11
-56.83084248378179
 21
849.5953174341985
 31
0.0
  0
LINE
  5
215
330
1F
100
AcDbEntity
  8
0-0
  6
JWW_DASHED1
 62
   120
370
     5
100
AcDbLine
 10
-646.8308424837687
 20
266.6663852474978
 30
0.0
 11
-396.8308424837795
 21
516.6663852474862
 31
0.0
  0
LINE
  5
216
330
1F
100
AcDbEntity
  8
0-0
  6
JWW_DASHED1
 62
   120
370
     5
100
AcDbLine
 10
-306.8308424837744
 20
606.6663852474926
 30
0.0
 11
-56.83084248378691
 21
856.6663852474801
 31
0.0
  0
LINE
  5
217
330
1F
100
AcDbEntity
  8
0-0
  6
JWW_DASHED1
 62
   120
370
     5
100
AcDbLine
 10
-646.8308424837738
 20
273.7374530607795
 30
0.0
 11
-396.8308424837846
 21
523.7374530607674
 31
0.0
  0
LINE
  5
218
330
1F
100
AcDbEntity
  8
0-0
  6
JWW_DASHED1
 62
   120
370
     5
100
AcDbLine
 10
-306.8308424837778
 20
613.7374530607742
 30
0.0
 11
-56.83084248379032
 21
863.7374530607613
 31
0.0
  0
LINE
  5
219
330
1F
100
AcDbEntity
  8
0-0
  6
JWW_DASHED1
 62
   120
370
     5
100
AcDbLine
 10
-646.8308424837772
 20
280.8085208740607
 30
0.0
 11
-396.830842483788
 21
530.808520874049
 31
0.0
  0
LINE
  5
21A
330
1F
100
AcDbEntity
  8
0-0
  6
JWW_DASHED1
 62
   120
370
     5
100
AcDbLine
 10
-306.8308424837829
 20
620.8085208740555
 30
0.0
 11
-56.83084248379544
 21
870.808520874043
 31
0.0
  0
LINE
  5
21B
330
1F
100
AcDbEntity
  8
0-0
  6
JWW_DASHED1
 62
   120
370
     5
100
AcDbLine
 10
-646.8308424837807
 20
287.8795886873423
 30
0.0
 11
-396.8308424837932
 21
537.8795886873303
 31
0.0
  0
LINE
  5
21C
330
1F
100
AcDbEntity
  8
0-0
  6
JWW_DASHED1
 62
   120
370
     5
100
AcDbLine
 10
-306.8308424837863
 20
627.8795886873371
 30
0.0
 11
-58.4487438340517
 21
876.2616873370705
 31
0.0
  0
LINE
  5
21D
330
1F
100
AcDbEntity
  8
0-0
  6
JWW_DASHED1
 62
   120
370
     5
100
AcDbLine
 10
-646.8308424837858
 20
294.9506565006236
 30
0.0
 11
-396.8308424837812
 21
544.9506565006272
 31
0.0
  0
LINE
  5
21E
330
1F
100
AcDbEntity
  8
0-0
  6
JWW_DASHED1
 62
   120
370
     5
100
AcDbLine
 10
-306.8308424837898
 20
634.9506565006184
 30
0.0
 11
-65.51981164733377
 21
876.2616873370747
 31
0.0
  0
LINE
  5
21F
330
1F
100
AcDbEntity
  8
0-0
  6
JWW_DASHED1
 62
   120
370
     5
100
AcDbLine
 10
-646.830842483779
 20
302.0217243139155
 30
0.0
 11
-396.8308424837727
 21
552.0217243139217
 31
0.0
  0
LINE
  5
220
330
1F
100
AcDbEntity
  8
0-0
  6
JWW_DASHED1
 62
   120
370
     5
100
AcDbLine
 10
-306.8308424837812
 20
642.0217243139132
 30
0.0
 11
-72.59087946064653
 21
876.2616873370474
 31
0.0
  0
LINE
  5
221
330
1F
100
AcDbEntity
  8
0-0
  6
JWW_DASHED1
 62
   120
370
     5
100
AcDbLine
 10
-646.8308424837824
 20
309.0927921271967
 30
0.0
 11
-396.8308424837761
 21
559.0927921272033
 31
0.0
  0
LINE
  5
222
330
1F
100
AcDbEntity
  8
0-0
  6
JWW_DASHED1
 62
   120
370
     5
100
AcDbLine
 10
-306.8308424837846
 20
649.0927921271948
 30
0.0
 11
-79.6619472739269
 21
876.2616873370517
 31
0.0
  0
LINE
  5
223
330
1F
100
AcDbEntity
  8
0-0
  6
JWW_DASHED1
 62
   120
370
     5
100
AcDbLine
 10
-646.8308424837704
 20
316.1638599404404
 30
0.0
 11
-396.8308424837812
 21
566.1638599404287
 31
0.0
  0
LINE
  5
224
330
1F
100
AcDbEntity
  8
0-0
  6
JWW_DASHED1
 62
   120
370
     5
100
AcDbLine
 10
-306.8308424837761
 20
656.1638599404351
 30
0.0
 11
-86.7330150871527
 21
876.2616873370586
 31
0.0
  0
LINE
  5
225
330
1F
100
AcDbEntity
  8
0-0
  6
JWW_DASHED1
 62
   120
370
     5
100
AcDbLine
 10
-646.8308424837738
 20
323.2349277537216
 30
0.0
 11
-396.8308424837863
 21
573.2349277537099
 31
0.0
  0
LINE
  5
226
330
1F
100
AcDbEntity
  8
0-0
  6
JWW_DASHED1
 62
   120
370
     5
100
AcDbLine
 10
-306.8308424837795
 20
663.2349277537163
 30
0.0
 11
-93.80408290043306
 21
876.2616873370623
 31
0.0
  0
LINE
  5
227
330
1F
100
AcDbEntity
  8
0-0
  6
JWW_DASHED1
 62
   120
370
     5
100
AcDbLine
 10
-646.8308424837772
 20
330.3059955670033
 30
0.0
 11
-396.8308424837898
 21
580.3059955669916
 31
0.0
  0
LINE
  5
228
330
1F
100
AcDbEntity
  8
0-0
  6
JWW_DASHED1
 62
   120
370
     5
100
AcDbLine
 10
-306.8308424837829
 20
670.3059955669976
 30
0.0
 11
-100.8751507137151
 21
876.2616873370662
 31
0.0
  0
LINE
  5
229
330
1F
100
AcDbEntity
  8
0-0
  6
JWW_DASHED1
 62
   120
370
     5
100
AcDbLine
 10
-646.8308424837824
 20
337.3770633802844
 30
0.0
 11
-396.8308424837932
 21
587.3770633802728
 31
0.0
  0
LINE
  5
22A
330
1F
100
AcDbEntity
  8
0-0
  6
JWW_DASHED1
 62
   120
370
     5
100
AcDbLine
 10
-306.830842483788
 20
677.3770633802792
 30
0.0
 11
-107.9462185269972
 21
876.2616873370696
 31
0.0
  0
LINE
  5
22B
330
1F
100
AcDbEntity
  8
0-0
  6
JWW_DASHED1
 62
   120
370
     5
100
AcDbLine
 10
-646.8308424837875
 20
344.4481311935661
 30
0.0
 11
-396.8308424837829
 21
594.4481311935702
 31
0.0
  0
LINE
  5
22C
330
1F
100
AcDbEntity
  8
0-0
  6
JWW_DASHED1
 62
   120
370
     5
100
AcDbLine
 10
-306.8308424837915
 20
684.4481311935608
 30
0.0
 11
-115.0172863402776
 21
876.2616873370735
 31
0.0
  0
LINE
  5
22D
330
1F
100
AcDbEntity
  8
0-0
  6
JWW_DASHED1
 62
   120
370
     5
100
AcDbLine
 10
-646.8308424837807
 20
351.5191990068584
 30
0.0
 11
-396.8308424837727
 21
601.5191990068647
 31
0.0
  0
LINE
  5
22E
330
1F
100
AcDbEntity
  8
0-0
  6
JWW_DASHED1
 62
   120
370
     5
100
AcDbLine
 10
-306.8308424837812
 20
691.5191990068561
 30
0.0
 11
-122.0883541535869
 21
876.26168733705
 31
0.0
  0
LINE
  5
22F
330
1F
100
AcDbEntity
  8
0-0
  6
JWW_DASHED1
 62
   120
370
     5
100
AcDbLine
 10
-646.830842483767
 20
358.5902668201554
 30
0.0
 11
-396.8308424837778
 21
608.5902668201463
 31
0.0
  0
LINE
  5
230
330
1F
100
AcDbEntity
  8
0-0
  6
JWW_DASHED1
 62
   120
370
     5
100
AcDbLine
 10
-306.8308424837863
 20
698.5902668201378
 30
0.0
 11
-129.159421966869
 21
876.2616873370539
 31
0.0
  0
LINE
  5
231
330
1F
100
AcDbEntity
  8
0-0
  6
JWW_DASHED1
 62
   120
370
     5
100
AcDbLine
 10
-646.830842483767
 20
365.6613346334417
 30
0.0
 11
-396.8308424837795
 21
615.6613346334301
 31
0.0
  0
LINE
  5
232
330
1F
100
AcDbEntity
  8
0-0
  6
JWW_DASHED1
 62
   120
370
     5
100
AcDbLine
 10
-306.8308424837727
 20
705.661334633436
 30
0.0
 11
-136.2304897801545
 21
876.2616873370534
 31
0.0
  0
LINE
  5
233
330
1F
100
AcDbEntity
  8
0-0
  6
JWW_DASHED1
 62
   120
370
     5
100
AcDbLine
 10
-646.8308424837704
 20
372.732402446723
 30
0.0
 11
-396.8308424837829
 21
622.7324024467113
 31
0.0
  0
LINE
  5
234
330
1F
100
AcDbEntity
  8
0-0
  6
JWW_DASHED1
 62
   120
370
     5
100
AcDbLine
 10
-306.8308424837761
 20
712.7324024467177
 30
0.0
 11
-143.3015575934365
 21
876.2616873370569
 31
0.0
  0
LINE
  5
235
330
1F
100
AcDbEntity
  8
0-0
  6
JWW_DASHED1
 62
   120
370
     5
100
AcDbLine
 10
-646.8308424837755
 20
379.8034702600046
 30
0.0
 11
-396.8308424837863
 21
629.803470259993
 31
0.0
  0
LINE
  5
236
330
1F
100
AcDbEntity
  8
0-0
  6
JWW_DASHED1
 62
   120
370
     5
100
AcDbLine
 10
-306.8308424837795
 20
719.8034702599994
 30
0.0
 11
-150.3726254067186
 21
876.2616873370611
 31
0.0
  0
LINE
  5
237
330
1F
100
AcDbEntity
  8
0-0
  6
JWW_DASHED1
 62
   120
370
     5
100
AcDbLine
 10
-646.8308424837841
 20
386.8745380732265
 30
0.0
 11
-396.8308424837966
 21
636.8745380732153
 31
0.0
  0
LINE
  5
238
330
1F
100
AcDbEntity
  8
0-0
  6
JWW_DASHED1
 62
   120
370
     5
100
AcDbLine
 10
-306.8308424837898
 20
726.8745380732213
 30
0.0
 11
-157.443693219941
 21
876.2616873370688
 31
0.0
  0
LINE
  5
239
330
1F
100
AcDbEntity
  8
0-0
  6
JWW_DASHED1
 62
   120
370
     5
100
AcDbLine
 10
-646.8308424837875
 20
393.9456058865082
 30
0.0
 11
-396.8308424837829
 21
643.9456058865123
 31
0.0
  0
LINE
  5
23A
330
1F
100
AcDbEntity
  8
0-0
  6
JWW_DASHED1
 62
   120
370
     5
100
AcDbLine
 10
-306.8308424837932
 20
733.9456058865029
 30
0.0
 11
-164.5147610332316
 21
876.2616873370637
 31
0.0
  0
LINE
  5
23B
330
1F
100
AcDbEntity
  8
0-0
  6
JWW_DASHED1
 62
   120
370
     5
100
AcDbLine
 10
-646.8308424837807
 20
401.0166736998009
 30
0.0
 11
-396.8308424837744
 21
651.0166736998076
 31
0.0
  0
LINE
  5
23C
330
1F
100
AcDbEntity
  8
0-0
  6
JWW_DASHED1
 62
   120
370
     5
100
AcDbLine
 10
-306.8308424837829
 20
741.0166736997986
 30
0.0
 11
-171.585828846529
 21
876.2616873370521
 31
0.0
  0
LINE
  5
23D
330
1F
100
AcDbEntity
  8
0-0
  6
JWW_DASHED1
 62
   120
370
     5
100
AcDbLine
 10
-646.8308424837687
 20
408.0877415130983
 30
0.0
 11
-396.8308424837778
 21
658.0877415130888
 31
0.0
  0
LINE
  5
23E
330
1F
100
AcDbEntity
  8
0-0
  6
JWW_DASHED1
 62
   120
370
     5
100
AcDbLine
 10
-306.8308424837863
 20
748.0877415130803
 30
0.0
 11
-178.6568966598111
 21
876.2616873370564
 31
0.0
  0
LINE
  5
23F
330
1F
100
AcDbEntity
  8
0-0
  6
JWW_DASHED1
 62
   120
370
     5
100
AcDbLine
 10
-646.8308424837687
 20
415.1588093263838
 30
0.0
 11
-396.8308424837795
 21
665.1588093263722
 31
0.0
  0
LINE
  5
240
330
1F
100
AcDbEntity
  8
0-0
  6
JWW_DASHED1
 62
   120
370
     5
100
AcDbLine
 10
-306.8308424837727
 20
755.158809326379
 30
0.0
 11
-185.7279644731
 21
876.2616873370525
 31
0.0
  0
LINE
  5
241
330
1F
100
AcDbEntity
  8
0-0
  6
JWW_DASHED1
 62
   120
370
     5
100
AcDbLine
 10
-646.8308424837738
 20
422.2298771396651
 30
0.0
 11
-396.8308424837846
 21
672.2298771396538
 31
0.0
  0
LINE
  5
242
330
1F
100
AcDbEntity
  8
0-0
  6
JWW_DASHED1
 62
   120
370
     5
100
AcDbLine
 10
-306.8308424837778
 20
762.2298771396597
 30
0.0
 11
-192.799032286382
 21
876.261687337056
 31
0.0
  0
LINE
  5
243
330
1F
100
AcDbEntity
  8
0-0
  6
JWW_DASHED1
 62
   120
370
     5
100
AcDbLine
 10
-646.8308424837772
 20
429.3009449529467
 30
0.0
 11
-396.830842483788
 21
679.300944952935
 31
0.0
  0
LINE
  5
244
330
1F
100
AcDbEntity
  8
0-0
  6
JWW_DASHED1
 62
   120
370
     5
100
AcDbLine
 10
-306.8308424837829
 20
769.3009449529414
 30
0.0
 11
-199.8701000996624
 21
876.2616873370603
 31
0.0
  0
LINE
  5
245
330
1F
100
AcDbEntity
  8
0-0
  6
JWW_DASHED1
 62
   120
370
     5
100
AcDbLine
 10
-646.8308424837807
 20
436.3720127662283
 30
0.0
 11
-396.8308424837932
 21
686.3720127662167
 31
0.0
  0
LINE
  5
246
330
1F
100
AcDbEntity
  8
0-0
  6
JWW_DASHED1
 62
   120
370
     5
100
AcDbLine
 10
-306.8308424837863
 20
776.3720127662226
 30
0.0
 11
-206.9411679129445
 21
876.2616873370637
 31
0.0
  0
LINE
  5
247
330
1F
100
AcDbEntity
  8
0-0
  6
JWW_DASHED1
 62
   120
370
     5
100
AcDbLine
 10
-646.8308424837841
 20
443.4430805795096
 30
0.0
 11
-396.8308424837812
 21
693.4430805795137
 31
0.0
  0
LINE
  5
248
330
1F
100
AcDbEntity
  8
0-0
  6
JWW_DASHED1
 62
   120
370
     5
100
AcDbLine
 10
-306.8308424837898
 20
783.4430805795043
 30
0.0
 11
-214.0122357262265
 21
876.2616873370675
 31
0.0
  0
LINE
  5
249
330
1F
100
AcDbEntity
  8
0-0
  6
JWW_DASHED1
 62
   120
370
     5
100
AcDbLine
 10
-646.8308424837807
 20
450.5141483927439
 30
0.0
 11
-396.8308424837761
 21
700.5141483927501
 31
0.0
  0
LINE
  5
24A
330
1F
100
AcDbEntity
  8
0-0
  6
JWW_DASHED1
 62
   120
370
     5
100
AcDbLine
 10
-306.8308424837829
 20
790.5141483927416
 30
0.0
 11
-221.0833035394711
 21
876.2616873370542
 31
0.0
  0
LINE
  5
24B
330
1F
100
AcDbEntity
  8
0-0
  6
JWW_DASHED1
 62
   120
370
     5
100
AcDbLine
 10
-646.8308424837704
 20
457.5852162060413
 30
0.0
 11
-396.8308424837795
 21
707.5852162060318
 31
0.0
  0
LINE
  5
24C
330
1F
100
AcDbEntity
  8
0-0
  6
JWW_DASHED1
 62
   120
370
     5
100
AcDbLine
 10
-306.830842483788
 20
797.5852162060232
 30
0.0
 11
-228.1543713527532
 21
876.2616873370586
 31
0.0
  0
LINE
  5
24D
330
1F
100
AcDbEntity
  8
0-0
  6
JWW_DASHED1
 62
   120
370
     5
100
AcDbLine
 10
-646.8308424837704
 20
464.6562840193263
 30
0.0
 11
-396.8308424837812
 21
714.6562840193146
 31
0.0
  0
LINE
  5
24E
330
1F
100
AcDbEntity
  8
0-0
  6
JWW_DASHED1
 62
   120
370
     5
100
AcDbLine
 10
-306.8308424837761
 20
804.6562840193211
 30
0.0
 11
-235.2254391660455
 21
876.2616873370517
 31
0.0
  0
LINE
  5
24F
330
1F
100
AcDbEntity
  8
0-0
  6
JWW_DASHED1
 62
   120
370
     5
100
AcDbLine
 10
-646.8308424837738
 20
471.7273518326076
 30
0.0
 11
-396.8308424837863
 21
721.7273518325959
 31
0.0
  0
LINE
  5
250
330
1F
100
AcDbEntity
  8
0-0
  6
JWW_DASHED1
 62
   120
370
     5
100
AcDbLine
 10
-306.8308424837795
 20
811.7273518326023
 30
0.0
 11
-242.2965069793275
 21
876.2616873370552
 31
0.0
  0
LINE
  5
251
330
1F
100
AcDbEntity
  8
0-0
  6
JWW_DASHED1
 62
   120
370
     5
100
AcDbLine
 10
-646.8308424837772
 20
478.7984196458892
 30
0.0
 11
-396.8308424837898
 21
728.7984196458775
 31
0.0
  0
LINE
  5
252
330
1F
100
AcDbEntity
  8
0-0
  6
JWW_DASHED1
 62
   120
370
     5
100
AcDbLine
 10
-306.8308424837829
 20
818.7984196458835
 30
0.0
 11
-249.3675747926079
 21
876.2616873370594
 31
0.0
  0
LINE
  5
253
330
1F
100
AcDbEntity
  8
0-0
  6
JWW_DASHED1
 62
   120
370
     5
100
AcDbLine
 10
-646.8308424837824
 20
485.8694874591704
 30
0.0
 11
-396.8308424837932
 21
735.8694874591588
 31
0.0
  0
LINE
  5
254
330
1F
100
AcDbEntity
  8
0-0
  6
JWW_DASHED1
 62
   120
370
     5
100
AcDbLine
 10
-306.830842483788
 20
825.8694874591652
 30
0.0
 11
-256.43864260589
 21
876.2616873370628
 31
0.0
  0
LINE
  5
255
330
1F
100
AcDbEntity
  8
0-0
  6
JWW_DASHED1
 62
   120
370
     5
100
AcDbLine
 10
-646.8308424837875
 20
492.9405552724517
 30
0.0
 11
-396.8308424837829
 21
742.9405552724562
 31
0.0
  0
LINE
  5
256
330
1F
100
AcDbEntity
  8
0-0
  6
JWW_DASHED1
 62
   120
370
     5
100
AcDbLine
 10
-306.8308424837915
 20
832.9405552724463
 30
0.0
 11
-263.5097104191721
 21
876.2616873370666
 31
0.0
  0
LINE
  5
257
330
1F
100
AcDbEntity
  8
0-0
  6
JWW_DASHED1
 62
   120
370
     5
100
AcDbLine
 10
-646.830842483779
 20
500.0116230857457
 30
0.0
 11
-396.8308424837727
 21
750.0116230857519
 31
0.0
  0
LINE
  5
258
330
1F
100
AcDbEntity
  8
0-0
  6
JWW_DASHED1
 62
   120
370
     5
100
AcDbLine
 10
-306.8308424837795
 20
840.0116230857434
 30
0.0
 11
-270.5807782324712
 21
876.2616873370521
 31
0.0
  0
LINE
  5
259
330
1F
100
AcDbEntity
  8
0-0
  6
JWW_DASHED1
 62
   120
370
     5
100
AcDbLine
 10
-646.8308424837824
 20
507.0826908990268
 30
0.0
 11
-396.8308424837761
 21
757.0826908990331
 31
0.0
  0
LINE
  5
25A
330
1F
100
AcDbEntity
  8
0-0
  6
JWW_DASHED1
 62
   120
370
     5
100
AcDbLine
 10
-306.8308424837846
 20
847.0826908990246
 30
0.0
 11
-277.6518460457515
 21
876.2616873370564
 31
0.0
  0
LINE
  5
25B
330
1F
100
AcDbEntity
  8
0-0
  6
JWW_DASHED1
 62
   120
370
     5
100
AcDbLine
 10
-646.8308424837704
 20
514.1537587122689
 30
0.0
 11
-396.8308424837829
 21
764.1537587122568
 31
0.0
  0
LINE
  5
25C
330
1F
100
AcDbEntity
  8
0-0
  6
JWW_DASHED1
 62
   120
370
     5
100
AcDbLine
 10
-306.8308424837761
 20
854.1537587122632
 30
0.0
 11
-284.7229138589893
 21
876.2616873370508
 31
0.0
  0
LINE
  5
25D
330
1F
100
AcDbEntity
  8
0-0
  6
JWW_DASHED1
 62
   120
370
     5
100
AcDbLine
 10
-646.8308424837755
 20
521.22482652555
 30
0.0
 11
-396.8308424837863
 21
771.2248265255384
 31
0.0
  0
LINE
  5
25E
330
1F
100
AcDbEntity
  8
0-0
  6
JWW_DASHED1
 62
   120
370
     5
100
AcDbLine
 10
-306.8308424837812
 20
861.2248265255448
 30
0.0
 11
-291.7939816722713
 21
876.2616873370542
 31
0.0
  0
LINE
  5
25F
330
1F
100
AcDbEntity
  8
0-0
  6
JWW_DASHED1
 62
   120
370
     5
100
AcDbLine
 10
-646.8308424837807
 20
528.2958943388317
 30
0.0
 11
-396.8308424837915
 21
778.2958943388196
 31
0.0
  0
LINE
  5
260
330
1F
100
AcDbEntity
  8
0-0
  6
JWW_DASHED1
 62
   120
370
     5
100
AcDbLine
 10
-306.8308424837846
 20
868.295894338826
 30
0.0
 11
-298.8650494855534
 21
876.2616873370581
 31
0.0
  0
LINE
  5
261
330
1F
100
AcDbEntity
  8
0-0
  6
JWW_DASHED1
 62
   120
370
     5
100
AcDbLine
 10
-646.8308424837841
 20
535.3669621521129
 30
0.0
 11
-396.8308424837966
 21
785.3669621521009
 31
0.0
  0
LINE
  5
262
330
1F
100
AcDbEntity
  8
0-0
  6
JWW_DASHED1
 62
   120
370
     5
100
AcDbLine
 10
-306.8308424837898
 20
875.3669621521072
 30
0.0
 11
-305.9361172988355
 21
876.261687337062
 31
0.0
  0
LINE
  5
263
330
1F
100
AcDbEntity
  8
0-0
  6
JWW_DASHED1
 62
   120
370
     5
100
AcDbLine
 10
-646.8308424837875
 20
542.4380299653942
 30
0.0
 11
-396.8308424837829
 21
792.4380299653983
 31
0.0
  0
LINE
  5
264
330
1F
100
AcDbEntity
  8
0-0
  6
JWW_DASHED1
 62
   120
370
     5
100
AcDbLine
 10
-646.830842483779
 20
549.5090977786886
 30
0.0
 11
-396.8308424837727
 21
799.5090977786948
 31
0.0
  0
LINE
  5
265
330
1F
100
AcDbEntity
  8
0-0
  6
JWW_DASHED1
 62
   120
370
     5
100
AcDbLine
 10
-646.8308424837841
 20
556.5801655919698
 30
0.0
 11
-396.8308424837761
 21
806.5801655919761
 31
0.0
  0
LINE
  5
266
330
1F
100
AcDbEntity
  8
0-0
  6
JWW_DASHED1
 62
   120
370
     5
100
AcDbLine
 10
-646.8308424837704
 20
563.6512334052672
 30
0.0
 11
-396.8308424837812
 21
813.6512334052577
 31
0.0
  0
LINE
  5
267
330
1F
100
AcDbEntity
  8
0-0
  6
JWW_DASHED1
 62
   120
370
     5
100
AcDbLine
 10
-646.8308424837738
 20
570.722301218551
 30
0.0
 11
-396.8308424837846
 21
820.7223012185393
 31
0.0
  0
LINE
  5
268
330
1F
100
AcDbEntity
  8
0-0
  6
JWW_DASHED1
 62
   120
370
     5
100
AcDbLine
 10
-646.8308424837807
 20
577.7933690317739
 30
0.0
 11
-396.8308424837932
 21
827.7933690317622
 31
0.0
  0
LINE
  5
269
330
1F
100
AcDbEntity
  8
0-0
  6
JWW_DASHED1
 62
   120
370
     5
100
AcDbLine
 10
-646.8308424837841
 20
584.8644368450555
 30
0.0
 11
-396.8308424837966
 21
834.8644368450438
 31
0.0
  0
LINE
  5
26A
330
1F
100
AcDbEntity
  8
0-0
  6
JWW_DASHED1
 62
   120
370
     5
100
AcDbLine
 10
-646.8308424837892
 20
591.9355046583366
 30
0.0
 11
-396.8308424837846
 21
841.9355046583407
 31
0.0
  0
LINE
  5
26B
330
1F
100
AcDbEntity
  8
0-0
  6
JWW_DASHED1
 62
   120
370
     5
100
AcDbLine
 10
-646.8308424837807
 20
599.0065724716311
 30
0.0
 11
-396.8308424837744
 21
849.0065724716374
 31
0.0
  0
LINE
  5
26C
330
1F
100
AcDbEntity
  8
0-0
  6
JWW_DASHED1
 62
   120
370
     5
100
AcDbLine
 10
-646.8308424837687
 20
606.0776402849281
 30
0.0
 11
-396.8308424837778
 21
856.077640284919
 31
0.0
  0
LINE
  5
26D
330
1F
100
AcDbEntity
  8
0-0
  6
JWW_DASHED1
 62
   120
370
     5
100
AcDbLine
 10
-646.8308424837704
 20
613.1487080982123
 30
0.0
 11
-396.8308424837812
 21
863.1487080982006
 31
0.0
  0
LINE
  5
26E
330
1F
100
AcDbEntity
  8
0-0
  6
JWW_DASHED1
 62
   120
370
     5
100
AcDbLine
 10
-646.8308424837738
 20
620.2197759114939
 30
0.0
 11
-396.8308424837863
 21
870.2197759114823
 31
0.0
  0
LINE
  5
26F
330
1F
100
AcDbEntity
  8
0-0
  6
JWW_DASHED1
 62
   120
370
     5
100
AcDbLine
 10
-646.8308424837772
 20
627.2908437247752
 30
0.0
 11
-397.8599988714905
 21
876.2616873370628
 31
0.0
  0
LINE
  5
270
330
1F
100
AcDbEntity
  8
0-0
  6
JWW_DASHED1
 62
   120
370
     5
100
AcDbLine
 10
-646.8308424837824
 20
634.3619115380563
 30
0.0
 11
-404.9310666847725
 21
876.2616873370666
 31
0.0
  0
LINE
  5
271
330
1F
100
AcDbEntity
  8
0-0
  6
JWW_DASHED1
 62
   120
370
     5
100
AcDbLine
 10
-646.8308424837772
 20
641.4329793512928
 30
0.0
 11
-412.0021344980256
 21
876.261687337044
 31
0.0
  0
LINE
  5
272
330
1F
100
AcDbEntity
  8
0-0
  6
JWW_DASHED1
 62
   120
370
     5
100
AcDbLine
 10
-646.8308424837807
 20
648.5040471645741
 30
0.0
 11
-419.0732023113077
 21
876.2616873370483
 31
0.0
  0
LINE
  5
273
330
1F
100
AcDbEntity
  8
0-0
  6
JWW_DASHED1
 62
   120
370
     5
100
AcDbLine
 10
-646.8308424837704
 20
655.5751149778714
 30
0.0
 11
-426.1442701245898
 21
876.2616873370505
 31
0.0
  0
LINE
  5
274
330
1F
100
AcDbEntity
  8
0-0
  6
JWW_DASHED1
 62
   120
370
     5
100
AcDbLine
 10
-646.8308424837704
 20
662.6461827911548
 30
0.0
 11
-433.2153379378718
 21
876.2616873370542
 31
0.0
  0
LINE
  5
275
330
1F
100
AcDbEntity
  8
0-0
  6
JWW_DASHED1
 62
   120
370
     5
100
AcDbLine
 10
-646.8308424837755
 20
669.717250604436
 30
0.0
 11
-440.2864057511539
 21
876.2616873370581
 31
0.0
  0
LINE
  5
276
330
1F
100
AcDbEntity
  8
0-0
  6
JWW_DASHED1
 62
   120
370
     5
100
AcDbLine
 10
-646.8308424837807
 20
676.7883184177176
 30
0.0
 11
-447.357473564436
 21
876.261687337062
 31
0.0
  0
LINE
  5
277
330
1F
100
AcDbEntity
  8
0-0
  6
JWW_DASHED1
 62
   120
370
     5
100
AcDbLine
 10
-646.8308424837841
 20
683.8593862309989
 30
0.0
 11
-454.428541377718
 21
876.2616873370654
 31
0.0
  0
LINE
  5
278
330
1F
100
AcDbEntity
  8
0-0
  6
JWW_DASHED1
 62
   120
370
     5
100
AcDbLine
 10
-646.8308424837875
 20
690.9304540442802
 30
0.0
 11
-461.4996091910103
 21
876.2616873370577
 31
0.0
  0
LINE
  5
279
330
1F
100
AcDbEntity
  8
0-0
  6
JWW_DASHED1
 62
   120
370
     5
100
AcDbLine
 10
-646.8308424837772
 20
698.0015218575759
 30
0.0
 11
-468.5706770043078
 21
876.2616873370457
 31
0.0
  0
LINE
  5
27A
330
1F
100
AcDbEntity
  8
0-0
  6
JWW_DASHED1
 62
   120
370
     5
100
AcDbLine
 10
-646.830842483767
 20
705.0725896708439
 30
0.0
 11
-475.6417448175642
 21
876.2616873370474
 31
0.0
  0
LINE
  5
27B
330
1F
100
AcDbEntity
  8
0-0
  6
JWW_DASHED1
 62
   120
370
     5
100
AcDbLine
 10
-646.8308424837738
 20
712.1436574840973
 30
0.0
 11
-482.7128126308156
 21
876.2616873370534
 31
0.0
  0
LINE
  5
27C
330
1F
100
AcDbEntity
  8
0-0
  6
JWW_DASHED1
 62
   120
370
     5
100
AcDbLine
 10
-646.8308424837772
 20
719.2147252973785
 30
0.0
 11
-489.7838804440977
 21
876.2616873370569
 31
0.0
  0
LINE
  5
27D
330
1F
100
AcDbEntity
  8
0-0
  6
JWW_DASHED1
 62
   120
370
     5
100
AcDbLine
 10
-646.8308424837807
 20
726.2857931106598
 30
0.0
 11
-496.8549482573798
 21
876.2616873370607
 31
0.0
  0
LINE
  5
27E
330
1F
100
AcDbEntity
  8
0-0
  6
JWW_DASHED1
 62
   120
370
     5
100
AcDbLine
 10
-646.8308424837858
 20
733.3568609239414
 30
0.0
 11
-503.9260160706618
 21
876.2616873370645
 31
0.0
  0
LINE
  5
27F
330
1F
100
AcDbEntity
  8
0-0
  6
JWW_DASHED1
 62
   120
370
     5
100
AcDbLine
 10
-646.8308424837892
 20
740.4279287372226
 30
0.0
 11
-510.9970838839524
 21
876.2616873370598
 31
0.0
  0
LINE
  5
280
330
1F
100
AcDbEntity
  8
0-0
  6
JWW_DASHED1
 62
   120
370
     5
100
AcDbLine
 10
-646.830842483779
 20
747.4989965505183
 30
0.0
 11
-518.0681516972498
 21
876.2616873370483
 31
0.0
  0
LINE
  5
281
330
1F
100
AcDbEntity
  8
0-0
  6
JWW_DASHED1
 62
   120
370
     5
100
AcDbLine
 10
-646.8308424837824
 20
754.5700643637999
 30
0.0
 11
-525.1392195105302
 21
876.2616873370525
 31
0.0
  0
LINE
  5
282
330
1F
100
AcDbEntity
  8
0-0
  6
JWW_DASHED1
 62
   120
370
     5
100
AcDbLine
 10
-646.8308424837704
 20
761.641132177097
 30
0.0
 11
-532.2102873238208
 21
876.2616873370479
 31
0.0
  0
LINE
  5
283
330
1F
100
AcDbEntity
  8
0-0
  6
JWW_DASHED1
 62
   120
370
     5
100
AcDbLine
 10
-646.8308424837772
 20
768.7121999903501
 30
0.0
 11
-539.2813551370722
 21
876.2616873370539
 31
0.0
  0
LINE
  5
284
330
1F
100
AcDbEntity
  8
0-0
  6
JWW_DASHED1
 62
   120
370
     5
100
AcDbLine
 10
-646.8308424837824
 20
775.7832678036023
 30
0.0
 11
-546.3524229503253
 21
876.2616873370598
 31
0.0
  0
LINE
  5
285
330
1F
100
AcDbEntity
  8
0-0
  6
JWW_DASHED1
 62
   120
370
     5
100
AcDbLine
 10
-646.8308424837875
 20
782.8543356168835
 30
0.0
 11
-553.4234907636056
 21
876.2616873370637
 31
0.0
  0
LINE
  5
286
330
1F
100
AcDbEntity
  8
0-0
  6
JWW_DASHED1
 62
   120
370
     5
100
AcDbLine
 10
-646.8308424837909
 20
789.9254034301651
 30
0.0
 11
-560.4945585768945
 21
876.261687337062
 31
0.0
  0
LINE
  5
287
330
1F
100
AcDbEntity
  8
0-0
  6
JWW_DASHED1
 62
   120
370
     5
100
AcDbLine
 10
-646.8308424837807
 20
796.9964712434613
 30
0.0
 11
-567.5656263901902
 21
876.26168733705
 31
0.0
  0
LINE
  5
288
330
1F
100
AcDbEntity
  8
0-0
  6
JWW_DASHED1
 62
   120
370
     5
100
AcDbLine
 10
-646.830842483767
 20
804.0675390567587
 30
0.0
 11
-574.6366942034825
 21
876.2616873370432
 31
0.0
  0
LINE
  5
289
330
1F
100
AcDbEntity
  8
0-0
  6
JWW_DASHED1
 62
   120
370
     5
100
AcDbLine
 10
-646.8308424837704
 20
811.1386068700408
 30
0.0
 11
-581.7077620167646
 21
876.2616873370471
 31
0.0
  0
LINE
  5
28A
330
1F
100
AcDbEntity
  8
0-0
  6
JWW_DASHED1
 62
   120
370
     5
100
AcDbLine
 10
-646.8308424837755
 20
818.209674683322
 30
0.0
 11
-588.7788298300467
 21
876.2616873370508
 31
0.0
  0
LINE
  5
28B
330
1F
100
AcDbEntity
  8
0-0
  6
JWW_DASHED1
 62
   120
370
     5
100
AcDbLine
 10
-646.8308424837807
 20
825.2807424966032
 30
0.0
 11
-595.8498976433287
 21
876.2616873370547
 31
0.0
  0
LINE
  5
28C
330
1F
100
AcDbEntity
  8
0-0
  6
JWW_DASHED1
 62
   120
370
     5
100
AcDbLine
 10
-646.8308424837858
 20
832.3518103098554
 30
0.0
 11
-602.9209654565835
 21
876.2616873370577
 31
0.0
  0
LINE
  5
28D
330
1F
100
AcDbEntity
  8
0-0
  6
JWW_DASHED1
 62
   120
370
     5
100
AcDbLine
 10
-646.8308424837772
 20
839.422878123123
 30
0.0
 11
-609.992033269852
 21
876.2616873370483
 31
0.0
  0
LINE
  5
28E
330
1F
100
AcDbEntity
  8
0-0
  6
JWW_DASHED1
 62
   120
370
     5
100
AcDbLine
 10
-646.8308424837807
 20
846.4939459364042
 30
0.0
 11
-617.0631010831323
 21
876.2616873370525
 31
0.0
  0
LINE
  5
28F
330
1F
100
AcDbEntity
  8
0-0
  6
JWW_DASHED1
 62
   120
370
     5
100
AcDbLine
 10
-646.8308424837687
 20
853.5650137497016
 30
0.0
 11
-624.134168896428
 21
876.2616873370423
 31
0.0
  0
LINE
  5
290
330
1F
100
AcDbEntity
  8
0-0
  6
JWW_DASHED1
 62
   120
370
     5
100
AcDbLine
 10
-646.8308424837738
 20
860.6360815629832
 30
0.0
 11
-631.2052367097101
 21
876.2616873370462
 31
0.0
  0
LINE
  5
291
330
1F
100
AcDbEntity
  8
0-0
  6
JWW_DASHED1
 62
   120
370
     5
100
AcDbLine
 10
-646.8308424837772
 20
867.7071493762645
 30
0.0
 11
-638.2763045229922
 21
876.2616873370496
 31
0.0
  0
LINE
  5
292
330
1F
100
AcDbEntity
  8
0-0
  6
JWW_DASHED1
 62
   120
370
     5
100
AcDbLine
 10
-646.8308424837807
 20
874.7782171895458
 30
0.0
 11
-645.3473723362725
 21
876.2616873370534
 31
0.0
  0
LINE
  5
293
330
1F
100
AcDbEntity
  8
0-0
  6
Continuous
 62
    92
370
    13
100
AcDbLine
 10
675.1691575162209
 20
-830.7383126629485
 30
0.0
 11
85.16915751622207
 21
-830.7383126629485
 31
0.0
  0
LINE
  5
294
330
1F
100
AcDbEntity
  8
0-0
  6
Continuous
 62
    92
370
    13
100
AcDbLine
 10
85.16915751622207
 20
1011.261687337051
 30
0.0
 11
85.16915751622207
 21
-971.7383126629486
 31
0.0
  0
LINE
  5
295
330
1F
100
AcDbEntity
  8
0-0
  6
Continuous
 62
    92
370
    13
100
AcDbLine
 10
675.1691575162209
 20
1011.261687337051
 30
0.0
 11
675.1691575162209
 21
-971.7383126629486
 31
0.0
  0
LINE
  5
296
330
1F
100
AcDbEntity
  8
0-0
  6
Continuous
 62
    92
370
    13
100
AcDbLine
 10
85.16915751622207
 20
876.2616873370508
 30
0.0
 11
675.1691575162209
 21
876.2616873370508
 31
0.0
  0
LINE
  5
297
330
1F
100
AcDbEntity
  8
0-0
  6
Continuous
 62
    92
370
    13
100
AcDbLine
 10
335.1691575162232
 20
876.2616873370508
 30
0.0
 11
335.1691575162232
 21
-830.7383126629485
 31
0.0
  0
LINE
  5
298
330
1F
100
AcDbEntity
  8
0-0
  6
Continuous
 62
    92
370
    13
100
AcDbLine
 10
425.1691575162232
 20
876.2616873370508
 30
0.0
 11
425.1691575162232
 21
-830.7383126629485
 31
0.0
  0
LINE
  5
299
330
1F
100
AcDbEntity
  8
0-0
  6
JWW_DASHED1
 62
   120
370
     5
100
AcDbLine
 10
670.6785991663048
 20
-830.7383126629549
 30
0.0
 11
675.1691575162278
 21
-826.2477543130315
 31
0.0
  0
LINE
  5
29A
330
1F
100
AcDbEntity
  8
0-0
  6
JWW_DASHED1
 62
   120
370
     5
100
AcDbLine
 10
663.6075313530228
 20
-830.738312662951
 30
0.0
 11
675.1691575162243
 21
-819.1766864997503
 31
0.0
  0
LINE
  5
29B
330
1F
100
AcDbEntity
  8
0-0
  6
JWW_DASHED1
 62
   120
370
     5
100
AcDbLine
 10
656.5364635397407
 20
-830.7383126629472
 30
0.0
 11
675.1691575162192
 21
-812.105618686469
 31
0.0
  0
LINE
  5
29C
330
1F
100
AcDbEntity
  8
0-0
  6
JWW_DASHED1
 62
   120
370
     5
100
AcDbLine
 10
649.4653957264603
 20
-830.7383126629434
 30
0.0
 11
675.1691575162158
 21
-805.0345508731874
 31
0.0
  0
LINE
  5
29D
330
1F
100
AcDbEntity
  8
0-0
  6
JWW_DASHED1
 62
   120
370
     5
100
AcDbLine
 10
642.3943279131782
 20
-830.73831266294
 30
0.0
 11
675.1691575162107
 21
-797.9634830599061
 31
0.0
  0
LINE
  5
29E
330
1F
100
AcDbEntity
  8
0-0
  6
JWW_DASHED1
 62
   120
370
     5
100
AcDbLine
 10
635.3232600998825
 20
-830.7383126629493
 30
0.0
 11
675.1691575162243
 21
-790.8924152466084
 31
0.0
  0
LINE
  5
29F
330
1F
100
AcDbEntity
  8
0-0
  6
JWW_DASHED1
 62
   120
370
     5
100
AcDbLine
 10
628.2521922866005
 20
-830.7383126629451
 30
0.0
 11
675.1691575162192
 21
-783.8213474333271
 31
0.0
  0
LINE
  5
2A0
330
1F
100
AcDbEntity
  8
0-0
  6
JWW_DASHED1
 62
   120
370
     5
100
AcDbLine
 10
621.1811244733201
 20
-830.7383126629408
 30
0.0
 11
675.1691575162141
 21
-776.7502796200455
 31
0.0
  0
LINE
  5
2A1
330
1F
100
AcDbEntity
  8
0-0
  6
JWW_DASHED1
 62
   120
370
     5
100
AcDbLine
 10
614.1100566600772
 20
-830.7383126629519
 30
0.0
 11
675.1691575162209
 21
-769.6792118068082
 31
0.0
  0
LINE
  5
2A2
330
1F
100
AcDbEntity
  8
0-0
  6
JWW_DASHED1
 62
   120
370
     5
100
AcDbLine
 10
607.0389888467952
 20
-830.738312662948
 30
0.0
 11
675.1691575162175
 21
-762.6081439935265
 31
0.0
  0
LINE
  5
2A3
330
1F
100
AcDbEntity
  8
0-0
  6
JWW_DASHED1
 62
   120
370
     5
100
AcDbLine
 10
599.9679210335148
 20
-830.7383126629442
 30
0.0
 11
675.1691575162141
 21
-755.5370761802449
 31
0.0
  0
LINE
  5
2A4
330
1F
100
AcDbEntity
  8
0-0
  6
JWW_DASHED1
 62
   120
370
     5
100
AcDbLine
 10
592.8968532202327
 20
-830.7383126629408
 30
0.0
 11
675.1691575162107
 21
-748.4660083669637
 31
0.0
  0
LINE
  5
2A5
330
1F
100
AcDbEntity
  8
0-0
  6
JWW_DASHED1
 62
   120
370
     5
100
AcDbLine
 10
585.8257854069421
 20
-830.7383126629468
 30
0.0
 11
675.1691575162226
 21
-741.3949405536654
 31
0.0
  0
LINE
  5
2A6
330
1F
100
AcDbEntity
  8
0-0
  6
JWW_DASHED1
 62
   120
370
     5
100
AcDbLine
 10
578.7547175936601
 20
-830.7383126629425
 30
0.0
 11
675.1691575162175
 21
-734.3238727403842
 31
0.0
  0
LINE
  5
2A7
330
1F
100
AcDbEntity
  8
0-0
  6
JWW_DASHED1
 62
   120
370
     5
100
AcDbLine
 10
571.6836497803558
 20
-830.7383126629609
 30
0.0
 11
675.1691575162295
 21
-727.252804927088
 31
0.0
  0
LINE
  5
2A8
330
1F
100
AcDbEntity
  8
0-0
  6
JWW_DASHED1
 62
   120
370
     5
100
AcDbLine
 10
564.6125819670755
 20
-830.738312662957
 30
0.0
 11
675.1691575162243
 21
-720.1817371138064
 31
0.0
  0
LINE
  5
2A9
330
1F
100
AcDbEntity
  8
0-0
  6
JWW_DASHED1
 62
   120
370
     5
100
AcDbLine
 10
557.5415141537934
 20
-830.7383126629536
 30
0.0
 11
675.1691575162209
 21
-713.1106693005252
 31
0.0
  0
LINE
  5
2AA
330
1F
100
AcDbEntity
  8
0-0
  6
JWW_DASHED1
 62
   120
370
     5
100
AcDbLine
 10
550.4704463405693
 20
-830.7383126629451
 30
0.0
 11
675.1691575162124
 21
-706.0396014873028
 31
0.0
  0
LINE
  5
2AB
330
1F
100
AcDbEntity
  8
0-0
  6
JWW_DASHED1
 62
   120
370
     5
100
AcDbLine
 10
543.3993785272804
 20
-830.7383126629488
 30
0.0
 11
675.1691575162243
 21
-698.9685336740054
 31
0.0
  0
LINE
  5
2AC
330
1F
100
AcDbEntity
  8
0-0
  6
JWW_DASHED1
 62
   120
370
     5
100
AcDbLine
 10
536.328310714
 20
-830.7383126629446
 30
0.0
 11
675.1691575162209
 21
-691.8974658607228
 31
0.0
  0
LINE
  5
2AD
330
1F
100
AcDbEntity
  8
0-0
  6
JWW_DASHED1
 62
   120
370
     5
100
AcDbLine
 10
529.257242900718
 20
-830.7383126629404
 30
0.0
 11
675.1691575162175
 21
-684.8263980474412
 31
0.0
  0
LINE
  5
2AE
330
1F
100
AcDbEntity
  8
0-0
  6
JWW_DASHED1
 62
   120
370
     5
100
AcDbLine
 10
522.186175087412
 20
-830.7383126629617
 30
0.0
 11
675.1691575162278
 21
-677.7553302341455
 31
0.0
  0
LINE
  5
2AF
330
1F
100
AcDbEntity
  8
0-0
  6
JWW_DASHED1
 62
   120
370
     5
100
AcDbLine
 10
515.11510727413
 20
-830.7383126629578
 30
0.0
 11
675.1691575162243
 21
-670.6842624208643
 31
0.0
  0
LINE
  5
2B0
330
1F
100
AcDbEntity
  8
0-0
  6
JWW_DASHED1
 62
   120
370
     5
100
AcDbLine
 10
508.0440394608479
 20
-830.7383126629541
 30
0.0
 11
675.1691575162192
 21
-663.6131946075831
 31
0.0
  0
LINE
  5
2B1
330
1F
100
AcDbEntity
  8
0-0
  6
JWW_DASHED1
 62
   120
370
     5
100
AcDbLine
 10
500.9729716475675
 20
-830.7383126629502
 30
0.0
 11
675.1691575162158
 21
-656.5421267943015
 31
0.0
  0
LINE
  5
2B2
330
1F
100
AcDbEntity
  8
0-0
  6
JWW_DASHED1
 62
   120
370
     5
100
AcDbLine
 10
493.9019038342855
 20
-830.7383126629468
 30
0.0
 11
675.1691575162107
 21
-649.4710589810198
 31
0.0
  0
LINE
  5
2B3
330
1F
100
AcDbEntity
  8
0-0
  6
JWW_DASHED1
 62
   120
370
     5
100
AcDbLine
 10
486.830836021058
 20
-830.7383126629425
 30
0.0
 11
675.1691575162209
 21
-642.39999116778
 31
0.0
  0
LINE
  5
2B4
330
1F
100
AcDbEntity
  8
0-0
  6
JWW_DASHED1
 62
   120
370
     5
100
AcDbLine
 10
479.7597682077759
 20
-830.7383126629383
 30
0.0
 11
675.1691575162158
 21
-635.3289233544988
 31
0.0
  0
LINE
  5
2B5
330
1F
100
AcDbEntity
  8
0-0
  6
JWW_DASHED1
 62
   120
370
     5
100
AcDbLine
 10
472.6887003944665
 20
-830.7383126629625
 30
0.0
 11
675.169157516226
 21
-628.2578555412034
 31
0.0
  0
LINE
  5
2B6
330
1F
100
AcDbEntity
  8
0-0
  6
JWW_DASHED1
 62
   120
370
     5
100
AcDbLine
 10
465.6176325811845
 20
-830.7383126629587
 30
0.0
 11
675.1691575162226
 21
-621.1867877279218
 31
0.0
  0
LINE
  5
2B7
330
1F
100
AcDbEntity
  8
0-0
  6
JWW_DASHED1
 62
   120
370
     5
100
AcDbLine
 10
458.5465647679024
 20
-830.7383126629549
 30
0.0
 11
675.1691575162175
 21
-614.1157199146402
 31
0.0
  0
LINE
  5
2B8
330
1F
100
AcDbEntity
  8
0-0
  6
JWW_DASHED1
 62
   120
370
     5
100
AcDbLine
 10
451.475496954622
 20
-830.738312662951
 30
0.0
 11
675.1691575162141
 21
-607.0446521013589
 31
0.0
  0
LINE
  5
2B9
330
1F
100
AcDbEntity
  8
0-0
  6
JWW_DASHED1
 62
   120
370
     5
100
AcDbLine
 10
444.40442914134
 20
-830.7383126629476
 30
0.0
 11
675.1691575162107
 21
-599.9735842880777
 31
0.0
  0
LINE
  5
2BA
330
1F
100
AcDbEntity
  8
0-0
  6
JWW_DASHED1
 62
   120
370
     5
100
AcDbLine
 10
437.3333613280579
 20
-830.7383126629446
 30
0.0
 11
675.1691575162243
 21
-592.9025164747782
 31
0.0
  0
LINE
  5
2BB
330
1F
100
AcDbEntity
  8
0-0
  6
JWW_DASHED1
 62
   120
370
     5
100
AcDbLine
 10
430.2622935147758
 20
-830.73831266294
 30
0.0
 11
675.1691575162192
 21
-585.831448661497
 31
0.0
  0
LINE
  5
2BC
330
1F
100
AcDbEntity
  8
0-0
  6
JWW_DASHED1
 62
   120
370
     5
100
AcDbLine
 10
425.1691575162369
 20
-828.7603808482484
 30
0.0
 11
675.1691575162243
 21
-578.7603808482609
 31
0.0
  0
LINE
  5
2BD
330
1F
100
AcDbEntity
  8
0-0
  6
JWW_DASHED1
 62
   120
370
     5
100
AcDbLine
 10
425.1691575162334
 20
-821.6893130349667
 30
0.0
 11
675.1691575162209
 21
-571.6893130349793
 31
0.0
  0
LINE
  5
2BE
330
1F
100
AcDbEntity
  8
0-0
  6
JWW_DASHED1
 62
   120
370
     5
100
AcDbLine
 10
425.16915751623
 20
-814.6182452216856
 30
0.0
 11
675.1691575162175
 21
-564.6182452216981
 31
0.0
  0
LINE
  5
2BF
330
1F
100
AcDbEntity
  8
0-0
  6
JWW_DASHED1
 62
   120
370
     5
100
AcDbLine
 10
425.1691575162249
 20
-807.5471774084043
 30
0.0
 11
675.1691575162124
 21
-557.5471774084168
 31
0.0
  0
LINE
  5
2C0
330
1F
100
AcDbEntity
  8
0-0
  6
JWW_DASHED1
 62
   120
370
     5
100
AcDbLine
 10
425.1691575162198
 20
-800.4761095951231
 30
0.0
 11
675.1691575162073
 21
-550.4761095951352
 31
0.0
  0
LINE
  5
2C1
330
1F
100
AcDbEntity
  8
0-0
  6
JWW_DASHED1
 62
   120
370
     5
100
AcDbLine
 10
425.1691575162164
 20
-793.4050417818411
 30
0.0
 11
675.1691575162226
 21
-543.4050417818356
 31
0.0
  0
LINE
  5
2C2
330
1F
100
AcDbEntity
  8
0-0
  6
JWW_DASHED1
 62
   120
370
     5
100
AcDbLine
 10
425.169157516213
 20
-786.3339739685598
 30
0.0
 11
675.1691575162192
 21
-536.333973968554
 31
0.0
  0
LINE
  5
2C3
330
1F
100
AcDbEntity
  8
0-0
  6
JWW_DASHED1
 62
   120
370
     5
100
AcDbLine
 10
425.1691575162249
 20
-779.2629061552624
 30
0.0
 11
675.1691575162141
 21
-529.2629061552724
 31
0.0
  0
LINE
  5
2C4
330
1F
100
AcDbEntity
  8
0-0
  6
JWW_DASHED1
 62
   120
370
     5
100
AcDbLine
 10
425.1691575162369
 20
-772.1918383419654
 30
0.0
 11
675.1691575162243
 21
-522.1918383419784
 31
0.0
  0
LINE
  5
2C5
330
1F
100
AcDbEntity
  8
0-0
  6
JWW_DASHED1
 62
   120
370
     5
100
AcDbLine
 10
425.1691575162266
 20
-765.120770528743
 30
0.0
 11
675.1691575162141
 21
-515.120770528756
 31
0.0
  0
LINE
  5
2C6
330
1F
100
AcDbEntity
  8
0-0
  6
JWW_DASHED1
 62
   120
370
     5
100
AcDbLine
 10
425.1691575162232
 20
-758.0497027154618
 30
0.0
 11
675.1691575162107
 21
-508.0497027154743
 31
0.0
  0
LINE
  5
2C7
330
1F
100
AcDbEntity
  8
0-0
  6
JWW_DASHED1
 62
   120
370
     5
100
AcDbLine
 10
425.1691575162198
 20
-750.9786349021806
 30
0.0
 11
675.1691575162226
 21
-500.9786349021773
 31
0.0
  0
LINE
  5
2C8
330
1F
100
AcDbEntity
  8
0-0
  6
JWW_DASHED1
 62
   120
370
     5
100
AcDbLine
 10
425.1691575162164
 20
-743.9075670888985
 30
0.0
 11
675.1691575162209
 21
-493.9075670888927
 31
0.0
  0
LINE
  5
2C9
330
1F
100
AcDbEntity
  8
0-0
  6
JWW_DASHED1
 62
   120
370
     5
100
AcDbLine
 10
331.2673441288814
 20
-830.7383126629468
 30
0.0
 11
335.1691575162198
 21
-826.8364992756084
 31
0.0
  0
LINE
  5
2CA
330
1F
100
AcDbEntity
  8
0-0
  6
JWW_DASHED1
 62
   120
370
     5
100
AcDbLine
 10
425.169157516213
 20
-736.8364992756169
 30
0.0
 11
675.1691575162175
 21
-486.8364992756115
 31
0.0
  0
LINE
  5
2CB
330
1F
100
AcDbEntity
  8
0-0
  6
JWW_DASHED1
 62
   120
370
     5
100
AcDbLine
 10
324.196276315584
 20
-830.7383126629587
 30
0.0
 11
335.1691575162334
 21
-819.765431462311
 31
0.0
  0
LINE
  5
2CC
330
1F
100
AcDbEntity
  8
0-0
  6
JWW_DASHED1
 62
   120
370
     5
100
AcDbLine
 10
425.1691575162386
 20
-729.765431462305
 30
0.0
 11
675.169157516226
 21
-479.7654314623175
 31
0.0
  0
LINE
  5
2CD
330
1F
100
AcDbEntity
  8
0-0
  6
JWW_DASHED1
 62
   120
370
     5
100
AcDbLine
 10
317.1252085023019
 20
-830.7383126629553
 30
0.0
 11
335.1691575162283
 21
-812.6943636490297
 31
0.0
  0
LINE
  5
2CE
330
1F
100
AcDbEntity
  8
0-0
  6
JWW_DASHED1
 62
   120
370
     5
100
AcDbLine
 10
425.1691575162351
 20
-722.6943636490233
 30
0.0
 11
675.1691575162226
 21
-472.6943636490358
 31
0.0
  0
LINE
  5
2CF
330
1F
100
AcDbEntity
  8
0-0
  6
JWW_DASHED1
 62
   120
370
     5
100
AcDbLine
 10
310.0541406890216
 20
-830.7383126629514
 30
0.0
 11
335.1691575162232
 21
-805.6232958357485
 31
0.0
  0
LINE
  5
2D0
330
1F
100
AcDbEntity
  8
0-0
  6
JWW_DASHED1
 62
   120
370
     5
100
AcDbLine
 10
425.16915751623
 20
-715.6232958357417
 30
0.0
 11
675.1691575162175
 21
-465.6232958357542
 31
0.0
  0
LINE
  5
2D1
330
1F
100
AcDbEntity
  8
0-0
  6
JWW_DASHED1
 62
   120
370
     5
100
AcDbLine
 10
302.9830728757395
 20
-830.7383126629476
 30
0.0
 11
335.1691575162198
 21
-798.5522280224673
 31
0.0
  0
LINE
  5
2D2
330
1F
100
AcDbEntity
  8
0-0
  6
JWW_DASHED1
 62
   120
370
     5
100
AcDbLine
 10
425.1691575162266
 20
-708.5522280224604
 30
0.0
 11
675.1691575162141
 21
-458.5522280224729
 31
0.0
  0
LINE
  5
2D3
330
1F
100
AcDbEntity
  8
0-0
  6
JWW_DASHED1
 62
   120
370
     5
100
AcDbLine
 10
295.9120050625035
 20
-830.7383126629527
 30
0.0
 11
335.1691575162266
 21
-791.4811602092283
 31
0.0
  0
LINE
  5
2D4
330
1F
100
AcDbEntity
  8
0-0
  6
JWW_DASHED1
 62
   120
370
     5
100
AcDbLine
 10
425.1691575162198
 20
-701.4811602092368
 30
0.0
 11
675.1691575162243
 21
-451.481160209231
 31
0.0
  0
LINE
  5
2D5
330
1F
100
AcDbEntity
  8
0-0
  6
JWW_DASHED1
 62
   120
370
     5
100
AcDbLine
 10
288.8409372492214
 20
-830.7383126629485
 30
0.0
 11
335.1691575162232
 21
-784.4100923959467
 31
0.0
  0
LINE
  5
2D6
330
1F
100
AcDbEntity
  8
0-0
  6
JWW_DASHED1
 62
   120
370
     5
100
AcDbLine
 10
425.1691575162147
 20
-694.4100923959556
 30
0.0
 11
675.1691575162209
 21
-444.4100923959497
 31
0.0
  0
LINE
  5
2D7
330
1F
100
AcDbEntity
  8
0-0
  6
JWW_DASHED1
 62
   120
370
     5
100
AcDbLine
 10
281.7698694359376
 20
-830.738312662948
 30
0.0
 11
335.1691575162198
 21
-777.3390245826654
 31
0.0
  0
LINE
  5
2D8
330
1F
100
AcDbEntity
  8
0-0
  6
JWW_DASHED1
 62
   120
370
     5
100
AcDbLine
 10
425.1691575162113
 20
-687.3390245826739
 30
0.0
 11
675.1691575162175
 21
-437.3390245826681
 31
0.0
  0
LINE
  5
2D9
330
1F
100
AcDbEntity
  8
0-0
  6
JWW_DASHED1
 62
   120
370
     5
100
AcDbLine
 10
274.6988016226402
 20
-830.73831266296
 30
0.0
 11
335.16915751623
 21
-770.2679567693689
 31
0.0
  0
LINE
  5
2DA
330
1F
100
AcDbEntity
  8
0-0
  6
JWW_DASHED1
 62
   120
370
     5
100
AcDbLine
 10
425.1691575162369
 20
-680.2679567693624
 30
0.0
 11
675.1691575162243
 21
-430.2679567693746
 31
0.0
  0
LINE
  5
2DB
330
1F
100
AcDbEntity
  8
0-0
  6
JWW_DASHED1
 62
   120
370
     5
100
AcDbLine
 10
267.6277338093581
 20
-830.7383126629561
 30
0.0
 11
335.1691575162266
 21
-763.1968889560876
 31
0.0
  0
LINE
  5
2DC
330
1F
100
AcDbEntity
  8
0-0
  6
JWW_DASHED1
 62
   120
370
     5
100
AcDbLine
 10
425.1691575162334
 20
-673.1968889560808
 30
0.0
 11
675.1691575162209
 21
-423.1968889560933
 31
0.0
  0
LINE
  5
2DD
330
1F
100
AcDbEntity
  8
0-0
  6
JWW_DASHED1
 62
   120
370
     5
100
AcDbLine
 10
260.556665996076
 20
-830.7383126629527
 30
0.0
 11
335.1691575162232
 21
-756.125821142806
 31
0.0
  0
LINE
  5
2DE
330
1F
100
AcDbEntity
  8
0-0
  6
JWW_DASHED1
 62
   120
370
     5
100
AcDbLine
 10
425.16915751623
 20
-666.1258211427996
 30
0.0
 11
675.1691575162175
 21
-416.1258211428121
 31
0.0
  0
LINE
  5
2DF
330
1F
100
AcDbEntity
  8
0-0
  6
JWW_DASHED1
 62
   120
370
     5
100
AcDbLine
 10
253.485598182794
 20
-830.7383126629485
 30
0.0
 11
335.1691575162181
 21
-749.0547533295248
 31
0.0
  0
LINE
  5
2E0
330
1F
100
AcDbEntity
  8
0-0
  6
JWW_DASHED1
 62
   120
370
     5
100
AcDbLine
 10
425.1691575162249
 20
-659.0547533295183
 30
0.0
 11
675.1691575162124
 21
-409.0547533295305
 31
0.0
  0
LINE
  5
2E1
330
1F
100
AcDbEntity
  8
0-0
  6
JWW_DASHED1
 62
   120
370
     5
100
AcDbLine
 10
246.4145303695017
 20
-830.7383126629553
 30
0.0
 11
335.16915751623
 21
-741.9836855162273
 31
0.0
  0
LINE
  5
2E2
330
1F
100
AcDbEntity
  8
0-0
  6
JWW_DASHED1
 62
   120
370
     5
100
AcDbLine
 10
425.1691575162198
 20
-651.9836855162367
 30
0.0
 11
675.1691575162073
 21
-401.9836855162492
 31
0.0
  0
LINE
  5
2E3
330
1F
100
AcDbEntity
  8
0-0
  6
JWW_DASHED1
 62
   120
370
     5
100
AcDbLine
 10
239.3434625562213
 20
-830.738312662951
 30
0.0
 11
335.1691575162266
 21
-734.9126177029449
 31
0.0
  0
LINE
  5
2E4
330
1F
100
AcDbEntity
  8
0-0
  6
JWW_DASHED1
 62
   120
370
     5
100
AcDbLine
 10
425.1691575162181
 20
-644.9126177029539
 30
0.0
 11
675.1691575162243
 21
-394.912617702948
 31
0.0
  0
LINE
  5
2E5
330
1F
100
AcDbEntity
  8
0-0
  6
JWW_DASHED1
 62
   120
370
     5
100
AcDbLine
 10
232.2723947429631
 20
-830.738312662951
 30
0.0
 11
335.1691575162198
 21
-727.841549889693
 31
0.0
  0
LINE
  5
2E6
330
1F
100
AcDbEntity
  8
0-0
  6
JWW_DASHED1
 62
   120
370
     5
100
AcDbLine
 10
425.169157516213
 20
-637.8415498897016
 30
0.0
 11
675.1691575162175
 21
-387.8415498896962
 31
0.0
  0
LINE
  5
2E7
330
1F
100
AcDbEntity
  8
0-0
  6
JWW_DASHED1
 62
   120
370
     5
100
AcDbLine
 10
225.2013269296947
 20
-830.7383126629609
 30
0.0
 11
335.16915751623
 21
-720.7704820764263
 31
0.0
  0
LINE
  5
2E8
330
1F
100
AcDbEntity
  8
0-0
  6
JWW_DASHED1
 62
   120
370
     5
100
AcDbLine
 10
425.1691575162369
 20
-630.77048207642
 30
0.0
 11
675.1691575162243
 21
-380.7704820764325
 31
0.0
  0
LINE
  5
2E9
330
1F
100
AcDbEntity
  8
0-0
  6
JWW_DASHED1
 62
   120
370
     5
100
AcDbLine
 10
218.1302591164143
 20
-830.738312662957
 30
0.0
 11
335.1691575162249
 21
-713.6994142631447
 31
0.0
  0
LINE
  5
2EA
330
1F
100
AcDbEntity
  8
0-0
  6
JWW_DASHED1
 62
   120
370
     5
100
AcDbLine
 10
425.1691575162317
 20
-623.6994142631387
 30
0.0
 11
675.1691575162192
 21
-373.6994142631512
 31
0.0
  0
LINE
  5
2EB
330
1F
100
AcDbEntity
  8
0-0
  6
JWW_DASHED1
 62
   120
370
     5
100
AcDbLine
 10
211.0591913031323
 20
-830.7383126629536
 30
0.0
 11
335.1691575162215
 21
-706.6283464498634
 31
0.0
  0
LINE
  5
2EC
330
1F
100
AcDbEntity
  8
0-0
  6
JWW_DASHED1
 62
   120
370
     5
100
AcDbLine
 10
425.1691575162266
 20
-616.6283464498571
 30
0.0
 11
675.1691575162158
 21
-366.6283464498696
 31
0.0
  0
LINE
  5
2ED
330
1F
100
AcDbEntity
  8
0-0
  6
JWW_DASHED1
 62
   120
370
     5
100
AcDbLine
 10
203.9881234898502
 20
-830.7383126629497
 30
0.0
 11
335.1691575162164
 21
-699.5572786365823
 31
0.0
  0
LINE
  5
2EE
330
1F
100
AcDbEntity
  8
0-0
  6
JWW_DASHED1
 62
   120
370
     5
100
AcDbLine
 10
425.1691575162232
 20
-609.5572786365758
 30
0.0
 11
675.1691575162107
 21
-359.5572786365884
 31
0.0
  0
LINE
  5
2EF
330
1F
100
AcDbEntity
  8
0-0
  6
JWW_DASHED1
 62
   120
370
     5
100
AcDbLine
 10
196.9170556765613
 20
-830.7383126629527
 30
0.0
 11
335.1691575162283
 21
-692.4862108232849
 31
0.0
  0
LINE
  5
2F0
330
1F
100
AcDbEntity
  8
0-0
  6
JWW_DASHED1
 62
   120
370
     5
100
AcDbLine
 10
425.1691575162198
 20
-602.4862108232942
 30
0.0
 11
675.1691575162073
 21
-352.4862108233067
 31
0.0
  0
LINE
  5
2F1
330
1F
100
AcDbEntity
  8
0-0
  6
JWW_DASHED1
 62
   120
370
     5
100
AcDbLine
 10
189.8459878632792
 20
-830.7383126629488
 30
0.0
 11
335.1691575162266
 21
-685.4151430100023
 31
0.0
  0
LINE
  5
2F2
330
1F
100
AcDbEntity
  8
0-0
  6
JWW_DASHED1
 62
   120
370
     5
100
AcDbLine
 10
425.1691575162181
 20
-595.4151430100109
 30
0.0
 11
675.1691575162243
 21
-345.4151430100051
 31
0.0
  0
LINE
  5
2F3
330
1F
100
AcDbEntity
  8
0-0
  6
JWW_DASHED1
 62
   120
370
     5
100
AcDbLine
 10
182.7749200499989
 20
-830.7383126629446
 30
0.0
 11
335.1691575162232
 21
-678.3440751967207
 31
0.0
  0
LINE
  5
2F4
330
1F
100
AcDbEntity
  8
0-0
  6
JWW_DASHED1
 62
   120
370
     5
100
AcDbLine
 10
425.169157516213
 20
-588.3440751967292
 30
0.0
 11
675.1691575162192
 21
-338.3440751967238
 31
0.0
  0
LINE
  5
2F5
330
1F
100
AcDbEntity
  8
0-0
  6
JWW_DASHED1
 62
   120
370
     5
100
AcDbLine
 10
175.7038522367066
 20
-830.7383126629506
 30
0.0
 11
335.1691575162181
 21
-671.2730073834394
 31
0.0
  0
LINE
  5
2F6
330
1F
100
AcDbEntity
  8
0-0
  6
JWW_DASHED1
 62
   120
370
     5
100
AcDbLine
 10
425.1691575162249
 20
-581.2730073834323
 30
0.0
 11
675.1691575162158
 21
-331.2730073834422
 31
0.0
  0
LINE
  5
2F7
330
1F
100
AcDbEntity
  8
0-0
  6
JWW_DASHED1
 62
   120
370
     5
100
AcDbLine
 10
168.6327844234091
 20
-830.7383126629625
 30
0.0
 11
335.1691575162283
 21
-664.2019395701437
 31
0.0
  0
LINE
  5
2F8
330
1F
100
AcDbEntity
  8
0-0
  6
JWW_DASHED1
 62
   120
370
     5
100
AcDbLine
 10
425.1691575162351
 20
-574.2019395701374
 30
0.0
 11
675.1691575162226
 21
-324.2019395701499
 31
0.0
  0
LINE
  5
2F9
330
1F
100
AcDbEntity
  8
0-0
  6
JWW_DASHED1
 62
   120
370
     5
100
AcDbLine
 10
161.5617166101867
 20
-830.7383126629544
 30
0.0
 11
335.1691575162198
 21
-657.1308717569214
 31
0.0
  0
LINE
  5
2FA
330
1F
100
AcDbEntity
  8
0-0
  6
JWW_DASHED1
 62
   120
370
     5
100
AcDbLine
 10
425.1691575162266
 20
-567.130871756915
 30
0.0
 11
675.1691575162141
 21
-317.130871756927
 31
0.0
  0
LINE
  5
2FB
330
1F
100
AcDbEntity
  8
0-0
  6
JWW_DASHED1
 62
   120
370
     5
100
AcDbLine
 10
154.4906487969047
 20
-830.7383126629506
 30
0.0
 11
335.1691575162164
 21
-650.0598039436402
 31
0.0
  0
LINE
  5
2FC
330
1F
100
AcDbEntity
  8
0-0
  6
JWW_DASHED1
 62
   120
370
     5
100
AcDbLine
 10
425.1691575162215
 20
-560.0598039436334
 30
0.0
 11
675.169157516209
 21
-310.0598039436459
 31
0.0
  0
LINE
  5
2FD
330
1F
100
AcDbEntity
  8
0-0
  6
JWW_DASHED1
 62
   120
370
     5
100
AcDbLine
 10
147.4195809836192
 20
-830.738312662951
 30
0.0
 11
335.1691575162266
 21
-642.9887361303428
 31
0.0
  0
LINE
  5
2FE
330
1F
100
AcDbEntity
  8
0-0
  6
JWW_DASHED1
 62
   120
370
     5
100
AcDbLine
 10
425.1691575162181
 20
-552.9887361303521
 30
0.0
 11
675.1691575162056
 21
-302.9887361303646
 31
0.0
  0
LINE
  5
2FF
330
1F
100
AcDbEntity
  8
0-0
  6
JWW_DASHED1
 62
   120
370
     5
100
AcDbLine
 10
140.3485131703388
 20
-830.7383126629468
 30
0.0
 11
335.1691575162249
 21
-635.9176683170598
 31
0.0
  0
LINE
  5
300
330
1F
100
AcDbEntity
  8
0-0
  6
JWW_DASHED1
 62
   120
370
     5
100
AcDbLine
 10
425.1691575162164
 20
-545.9176683170683
 30
0.0
 11
675.1691575162226
 21
-295.9176683170625
 31
0.0
  0
LINE
  5
301
330
1F
100
AcDbEntity
  8
0-0
  6
JWW_DASHED1
 62
   120
370
     5
100
AcDbLine
 10
133.2774453570431
 20
-830.7383126629553
 30
0.0
 11
335.1691575162215
 21
-628.8466005037782
 31
0.0
  0
LINE
  5
302
330
1F
100
AcDbEntity
  8
0-0
  6
JWW_DASHED1
 62
   120
370
     5
100
AcDbLine
 10
425.169157516213
 20
-538.8466005037867
 30
0.0
 11
675.1691575162175
 21
-288.8466005037809
 31
0.0
  0
LINE
  5
303
330
1F
100
AcDbEntity
  8
0-0
  6
JWW_DASHED1
 62
   120
370
     5
100
AcDbLine
 10
126.2063775437474
 20
-830.7383126629672
 30
0.0
 11
335.16915751623
 21
-621.7755326904829
 31
0.0
  0
LINE
  5
304
330
1F
100
AcDbEntity
  8
0-0
  6
JWW_DASHED1
 62
   120
370
     5
100
AcDbLine
 10
425.1691575162369
 20
-531.7755326904764
 30
0.0
 11
675.1691575162243
 21
-281.7755326904886
 31
0.0
  0
LINE
  5
305
330
1F
100
AcDbEntity
  8
0-0
  6
JWW_DASHED1
 62
   120
370
     5
100
AcDbLine
 10
119.1353097304653
 20
-830.7383126629634
 30
0.0
 11
335.1691575162266
 21
-614.7044648772012
 31
0.0
  0
LINE
  5
306
330
1F
100
AcDbEntity
  8
0-0
  6
JWW_DASHED1
 62
   120
370
     5
100
AcDbLine
 10
425.1691575162334
 20
-524.7044648771948
 30
0.0
 11
675.1691575162209
 21
-274.7044648772073
 31
0.0
  0
LINE
  5
307
330
1F
100
AcDbEntity
  8
0-0
  6
JWW_DASHED1
 62
   120
370
     5
100
AcDbLine
 10
112.0642419171833
 20
-830.7383126629595
 30
0.0
 11
335.1691575162232
 21
-607.63339706392
 31
0.0
  0
LINE
  5
308
330
1F
100
AcDbEntity
  8
0-0
  6
JWW_DASHED1
 62
   120
370
     5
100
AcDbLine
 10
425.16915751623
 20
-517.6333970639137
 30
0.0
 11
675.1691575162175
 21
-267.6333970639262
 31
0.0
  0
LINE
  5
309
330
1F
100
AcDbEntity
  8
0-0
  6
JWW_DASHED1
 62
   120
370
     5
100
AcDbLine
 10
104.9931741039012
 20
-830.7383126629561
 30
0.0
 11
335.1691575162181
 21
-600.5623292506389
 31
0.0
  0
LINE
  5
30A
330
1F
100
AcDbEntity
  8
0-0
  6
JWW_DASHED1
 62
   120
370
     5
100
AcDbLine
 10
425.1691575162249
 20
-510.562329250632
 30
0.0
 11
675.1691575162124
 21
-260.5623292506449
 31
0.0
  0
LINE
  5
30B
330
1F
100
AcDbEntity
  8
0-0
  6
JWW_DASHED1
 62
   120
370
     5
100
AcDbLine
 10
97.9221062906771
 20
-830.7383126629488
 30
0.0
 11
335.1691575162283
 21
-593.4912614373981
 31
0.0
  0
LINE
  5
30C
330
1F
100
AcDbEntity
  8
0-0
  6
JWW_DASHED1
 62
   120
370
     5
100
AcDbLine
 10
425.1691575162198
 20
-503.4912614374066
 30
0.0
 11
675.1691575162243
 21
-253.4912614374008
 31
0.0
  0
LINE
  5
30D
330
1F
100
AcDbEntity
  8
0-0
  6
JWW_DASHED1
 62
   120
370
     5
100
AcDbLine
 10
90.85103847739674
 20
-830.7383126629446
 30
0.0
 11
335.1691575162232
 21
-586.4201936241169
 31
0.0
  0
LINE
  5
30E
330
1F
100
AcDbEntity
  8
0-0
  6
JWW_DASHED1
 62
   120
370
     5
100
AcDbLine
 10
425.1691575162164
 20
-496.4201936241254
 30
0.0
 11
675.1691575162209
 21
-246.4201936241196
 31
0.0
  0
LINE
  5
30F
330
1F
100
AcDbEntity
  8
0-0
  6
JWW_DASHED1
 62
   120
370
     5
100
AcDbLine
 10
85.16915751622889
 20
-829.3491258108261
 30
0.0
 11
335.1691575162198
 21
-579.3491258108352
 31
0.0
  0
LINE
  5
310
330
1F
100
AcDbEntity
  8
0-0
  6
JWW_DASHED1
 62
   120
370
     5
100
AcDbLine
 10
425.1691575162113
 20
-489.3491258108438
 30
0.0
 11
675.1691575162175
 21
-239.3491258108379
 31
0.0
  0
LINE
  5
311
330
1F
100
AcDbEntity
  8
0-0
  6
JWW_DASHED1
 62
   120
370
     5
100
AcDbLine
 10
85.16915751624083
 20
-822.2780579975288
 30
0.0
 11
335.16915751623
 21
-572.2780579975404
 31
0.0
  0
LINE
  5
312
330
1F
100
AcDbEntity
  8
0-0
  6
JWW_DASHED1
 62
   120
370
     5
100
AcDbLine
 10
425.1691575162369
 20
-482.278057997534
 30
0.0
 11
675.1691575162243
 21
-232.2780579975465
 31
0.0
  0
LINE
  5
313
330
1F
100
AcDbEntity
  8
0-0
  6
JWW_DASHED1
 62
   120
370
     5
100
AcDbLine
 10
85.16915751623742
 20
-815.206990184247
 30
0.0
 11
335.1691575162249
 21
-565.2069901842588
 31
0.0
  0
LINE
  5
314
330
1F
100
AcDbEntity
  8
0-0
  6
JWW_DASHED1
 62
   120
370
     5
100
AcDbLine
 10
425.1691575162317
 20
-475.2069901842527
 30
0.0
 11
675.1691575162192
 21
-225.2069901842648
 31
0.0
  0
LINE
  5
315
330
1F
100
AcDbEntity
  8
0-0
  6
JWW_DASHED1
 62
   120
370
     5
100
AcDbLine
 10
85.1691575162323
 20
-808.1359223709659
 30
0.0
 11
335.1691575162215
 21
-558.1359223709775
 31
0.0
  0
LINE
  5
316
330
1F
100
AcDbEntity
  8
0-0
  6
JWW_DASHED1
 62
   120
370
     5
100
AcDbLine
 10
425.1691575162283
 20
-468.1359223709711
 30
0.0
 11
675.1691575162141
 21
-218.1359223709836
 31
0.0
  0
LINE
  5
317
330
1F
100
AcDbEntity
  8
0-0
  6
JWW_DASHED1
 62
   120
370
     5
100
AcDbLine
 10
85.16915751622889
 20
-801.0648545576846
 30
0.0
 11
335.1691575162164
 21
-551.0648545576963
 31
0.0
  0
LINE
  5
318
330
1F
100
AcDbEntity
  8
0-0
  6
JWW_DASHED1
 62
   120
370
     5
100
AcDbLine
 10
425.1691575162232
 20
-461.0648545576899
 30
0.0
 11
675.1691575162107
 21
-211.0648545577024
 31
0.0
  0
LINE
  5
319
330
1F
100
AcDbEntity
  8
0-0
  6
JWW_DASHED1
 62
   120
370
     5
100
AcDbLine
 10
85.16915751622548
 20
-793.9937867444035
 30
0.0
 11
335.1691575162283
 21
-543.9937867443989
 31
0.0
  0
LINE
  5
31A
330
1F
100
AcDbEntity
  8
0-0
  6
JWW_DASHED1
 62
   120
370
     5
100
AcDbLine
 10
425.1691575162198
 20
-453.9937867444087
 30
0.0
 11
675.1691575162073
 21
-203.9937867444208
 31
0.0
  0
LINE
  5
31B
330
1F
100
AcDbEntity
  8
0-0
  6
JWW_DASHED1
 62
   120
370
     5
100
AcDbLine
 10
85.16915751622207
 20
-786.9227189311214
 30
0.0
 11
335.1691575162266
 21
-536.9227189311151
 31
0.0
  0
LINE
  5
31C
330
1F
100
AcDbEntity
  8
0-0
  6
JWW_DASHED1
 62
   120
370
     5
100
AcDbLine
 10
425.1691575162198
 20
-446.9227189311237
 30
0.0
 11
675.1691575162243
 21
-196.9227189311178
 31
0.0
  0
LINE
  5
31D
330
1F
100
AcDbEntity
  8
0-0
  6
JWW_DASHED1
 62
   120
370
     5
100
AcDbLine
 10
85.16915751622889
 20
-779.8516511178832
 30
0.0
 11
335.1691575162198
 21
-529.8516511178923
 31
0.0
  0
LINE
  5
31E
330
1F
100
AcDbEntity
  8
0-0
  6
JWW_DASHED1
 62
   120
370
     5
100
AcDbLine
 10
425.1691575162113
 20
-439.8516511179008
 30
0.0
 11
675.1691575162158
 21
-189.8516511178954
 31
0.0
  0
LINE
  5
31F
330
1F
100
AcDbEntity
  8
0-0
  6
JWW_DASHED1
 62
   120
370
     5
100
AcDbLine
 10
85.16915751623912
 20
-772.7805833045862
 30
0.0
 11
335.1691575162283
 21
-522.7805833045978
 31
0.0
  0
LINE
  5
320
330
1F
100
AcDbEntity
  8
0-0
  6
JWW_DASHED1
 62
   120
370
     5
100
AcDbLine
 10
425.1691575162334
 20
-432.7805833045919
 30
0.0
 11
675.1691575162209
 21
-182.7805833046044
 31
0.0
  0
LINE
  5
321
330
1F
100
AcDbEntity
  8
0-0
  6
JWW_DASHED1
 62
   120
370
     5
100
AcDbLine
 10
85.16915751623571
 20
-765.709515491305
 30
0.0
 11
335.1691575162232
 21
-515.7095154913167
 31
0.0
  0
LINE
  5
322
330
1F
100
AcDbEntity
  8
0-0
  6
JWW_DASHED1
 62
   120
370
     5
100
AcDbLine
 10
425.16915751623
 20
-425.7095154913102
 30
0.0
 11
675.1691575162175
 21
-175.7095154913227
 31
0.0
  0
LINE
  5
323
330
1F
100
AcDbEntity
  8
0-0
  6
JWW_DASHED1
 62
   120
370
     5
100
AcDbLine
 10
85.1691575162323
 20
-758.6384476780238
 30
0.0
 11
335.1691575162198
 21
-508.6384476780354
 31
0.0
  0
LINE
  5
324
330
1F
100
AcDbEntity
  8
0-0
  6
JWW_DASHED1
 62
   120
370
     5
100
AcDbLine
 10
425.1691575162266
 20
-418.638447678029
 30
0.0
 11
675.1691575162141
 21
-168.6384476780411
 31
0.0
  0
LINE
  5
325
330
1F
100
AcDbEntity
  8
0-0
  6
JWW_DASHED1
 62
   120
370
     5
100
AcDbLine
 10
85.16915751622719
 20
-751.5673798647422
 30
0.0
 11
335.1691575162164
 21
-501.5673798647538
 31
0.0
  0
LINE
  5
326
330
1F
100
AcDbEntity
  8
0-0
  6
JWW_DASHED1
 62
   120
370
     5
100
AcDbLine
 10
425.1691575162232
 20
-411.5673798647474
 30
0.0
 11
675.1691575162107
 21
-161.5673798647599
 31
0.0
  0
LINE
  5
327
330
1F
100
AcDbEntity
  8
0-0
  6
JWW_DASHED1
 62
   120
370
     5
100
AcDbLine
 10
85.16915751622378
 20
-744.4963120514609
 30
0.0
 11
335.1691575162266
 21
-494.4963120514568
 31
0.0
  0
LINE
  5
328
330
1F
100
AcDbEntity
  8
0-0
  6
JWW_DASHED1
 62
   120
370
     5
100
AcDbLine
 10
425.1691575162181
 20
-404.4963120514661
 30
0.0
 11
675.1691575162056
 21
-154.4963120514787
 31
0.0
  0
LINE
  5
329
330
1F
100
AcDbEntity
  8
0-0
  6
JWW_DASHED1
 62
   120
370
     5
100
AcDbLine
 10
85.16915751622037
 20
-737.4252442381784
 30
0.0
 11
335.1691575162266
 21
-487.4252442381721
 31
0.0
  0
LINE
  5
32A
330
1F
100
AcDbEntity
  8
0-0
  6
JWW_DASHED1
 62
   120
370
     5
100
AcDbLine
 10
425.1691575162181
 20
-397.4252442381807
 30
0.0
 11
675.1691575162243
 21
-147.4252442381749
 31
0.0
  0
LINE
  5
32B
330
1F
100
AcDbEntity
  8
0-0
  6
JWW_DASHED1
 62
   120
370
     5
100
AcDbLine
 10
85.16915751621525
 20
-730.3541764248972
 30
0.0
 11
335.1691575162232
 21
-480.3541764248905
 31
0.0
  0
LINE
  5
32C
330
1F
100
AcDbEntity
  8
0-0
  6
JWW_DASHED1
 62
   120
370
     5
100
AcDbLine
 10
425.169157516213
 20
-390.3541764248995
 30
0.0
 11
675.1691575162192
 21
-140.3541764248936
 31
0.0
  0
LINE
  5
32D
330
1F
100
AcDbEntity
  8
0-0
  6
JWW_DASHED1
 62
   120
370
     5
100
AcDbLine
 10
85.16915751622889
 20
-723.2831086115998
 30
0.0
 11
335.1691575162181
 21
-473.2831086116093
 31
0.0
  0
LINE
  5
32E
330
1F
100
AcDbEntity
  8
0-0
  6
JWW_DASHED1
 62
   120
370
     5
100
AcDbLine
 10
425.1691575162096
 20
-383.2831086116178
 30
0.0
 11
675.1691575162158
 21
-133.283108611612
 31
0.0
  0
LINE
  5
32F
330
1F
100
AcDbEntity
  8
0-0
  6
JWW_DASHED1
 62
   120
370
     5
100
AcDbLine
 10
85.16915751623401
 20
-716.2120407983625
 30
0.0
 11
335.1691575162232
 21
-466.2120407983741
 31
0.0
  0
LINE
  5
330
330
1F
100
AcDbEntity
  8
0-0
  6
JWW_DASHED1
 62
   120
370
     5
100
AcDbLine
 10
425.16915751623
 20
-376.2120407983678
 30
0.0
 11
675.1691575162158
 21
-126.2120407983802
 31
0.0
  0
LINE
  5
331
330
1F
100
AcDbEntity
  8
0-0
  6
JWW_DASHED1
 62
   120
370
     5
100
AcDbLine
 10
85.1691575162306
 20
-709.1409729850812
 30
0.0
 11
335.1691575162181
 21
-459.1409729850929
 31
0.0
  0
LINE
  5
332
330
1F
100
AcDbEntity
  8
0-0
  6
JWW_DASHED1
 62
   120
370
     5
100
AcDbLine
 10
425.1691575162249
 20
-369.1409729850865
 30
0.0
 11
675.1691575162124
 21
-119.140972985099
 31
0.0
  0
LINE
  5
333
330
1F
100
AcDbEntity
  8
0-0
  6
JWW_DASHED1
 62
   120
370
     5
100
AcDbLine
 10
85.16915751622548
 20
-702.0699051717996
 30
0.0
 11
335.1691575162147
 21
-452.0699051718117
 31
0.0
  0
LINE
  5
334
330
1F
100
AcDbEntity
  8
0-0
  6
JWW_DASHED1
 62
   120
370
     5
100
AcDbLine
 10
425.1691575162198
 20
-362.0699051718053
 30
0.0
 11
675.1691575162073
 21
-112.0699051718174
 31
0.0
  0
LINE
  5
335
330
1F
100
AcDbEntity
  8
0-0
  6
JWW_DASHED1
 62
   120
370
     5
100
AcDbLine
 10
85.16915751622207
 20
-694.9988373585184
 30
0.0
 11
335.1691575162266
 21
-444.9988373585143
 31
0.0
  0
LINE
  5
336
330
1F
100
AcDbEntity
  8
0-0
  6
JWW_DASHED1
 62
   120
370
     5
100
AcDbLine
 10
425.1691575162164
 20
-354.9988373585236
 30
0.0
 11
675.1691575162039
 21
-104.9988373585366
 31
0.0
  0
LINE
  5
337
330
1F
100
AcDbEntity
  8
0-0
  6
JWW_DASHED1
 62
   120
370
     5
100
AcDbLine
 10
85.16915751621866
 20
-687.9277695452358
 30
0.0
 11
335.1691575162266
 21
-437.9277695452292
 31
0.0
  0
LINE
  5
338
330
1F
100
AcDbEntity
  8
0-0
  6
JWW_DASHED1
 62
   120
370
     5
100
AcDbLine
 10
425.1691575162164
 20
-347.9277695452378
 30
0.0
 11
675.1691575162226
 21
-97.92776954523234
 31
0.0
  0
LINE
  5
339
330
1F
100
AcDbEntity
  8
0-0
  6
JWW_DASHED1
 62
   120
370
     5
100
AcDbLine
 10
85.1691575162306
 20
-680.8567017319385
 30
0.0
 11
335.1691575162215
 21
-430.856701731948
 31
0.0
  0
LINE
  5
33A
330
1F
100
AcDbEntity
  8
0-0
  6
JWW_DASHED1
 62
   120
370
     5
100
AcDbLine
 10
425.169157516213
 20
-340.8567017319565
 30
0.0
 11
675.1691575162175
 21
-90.85670173195112
 31
0.0
  0
LINE
  5
33B
330
1F
100
AcDbEntity
  8
0-0
  6
JWW_DASHED1
 62
   120
370
     5
100
AcDbLine
 10
85.16915751624083
 20
-673.7856339186428
 30
0.0
 11
335.16915751623
 21
-423.7856339186544
 31
0.0
  0
LINE
  5
33C
330
1F
100
AcDbEntity
  8
0-0
  6
JWW_DASHED1
 62
   120
370
     5
100
AcDbLine
 10
425.1691575162369
 20
-333.785633918648
 30
0.0
 11
675.1691575162243
 21
-83.78563391866052
 31
0.0
  0
LINE
  5
33D
330
1F
100
AcDbEntity
  8
0-0
  6
JWW_DASHED1
 62
   120
370
     5
100
AcDbLine
 10
85.16915751623742
 20
-666.7145661053611
 30
0.0
 11
335.1691575162249
 21
-416.7145661053732
 31
0.0
  0
LINE
  5
33E
330
1F
100
AcDbEntity
  8
0-0
  6
JWW_DASHED1
 62
   120
370
     5
100
AcDbLine
 10
425.1691575162317
 20
-326.7145661053668
 30
0.0
 11
675.1691575162192
 21
-76.7145661053793
 31
0.0
  0
LINE
  5
33F
330
1F
100
AcDbEntity
  8
0-0
  6
JWW_DASHED1
 62
   120
370
     5
100
AcDbLine
 10
85.1691575162323
 20
-659.6434982920799
 30
0.0
 11
335.1691575162215
 21
-409.6434982920915
 31
0.0
  0
LINE
  5
340
330
1F
100
AcDbEntity
  8
0-0
  6
JWW_DASHED1
 62
   120
370
     5
100
AcDbLine
 10
425.1691575162283
 20
-319.6434982920852
 30
0.0
 11
675.1691575162141
 21
-69.64349829209766
 31
0.0
  0
LINE
  5
341
330
1F
100
AcDbEntity
  8
0-0
  6
JWW_DASHED1
 62
   120
370
     5
100
AcDbLine
 10
85.16915751622548
 20
-652.5724304788575
 30
0.0
 11
335.1691575162283
 21
-402.5724304788534
 31
0.0
  0
LINE
  5
342
330
1F
100
AcDbEntity
  8
0-0
  6
JWW_DASHED1
 62
   120
370
     5
100
AcDbLine
 10
425.1691575162198
 20
-312.5724304788628
 30
0.0
 11
675.1691575162073
 21
-62.57243047887528
 31
0.0
  0
LINE
  5
343
330
1F
100
AcDbEntity
  8
0-0
  6
JWW_DASHED1
 62
   120
370
     5
100
AcDbLine
 10
85.16915751622207
 20
-645.5013626655746
 30
0.0
 11
335.1691575162283
 21
-395.5013626655679
 31
0.0
  0
LINE
  5
344
330
1F
100
AcDbEntity
  8
0-0
  6
JWW_DASHED1
 62
   120
370
     5
100
AcDbLine
 10
425.1691575162198
 20
-305.5013626655764
 30
0.0
 11
675.169157516226
 21
-55.50136266557061
 31
0.0
  0
LINE
  5
345
330
1F
100
AcDbEntity
  8
0-0
  6
JWW_DASHED1
 62
   120
370
     5
100
AcDbLine
 10
85.16915751621866
 20
-638.430294852293
 30
0.0
 11
335.1691575162249
 21
-388.4302948522862
 31
0.0
  0
LINE
  5
346
330
1F
100
AcDbEntity
  8
0-0
  6
JWW_DASHED1
 62
   120
370
     5
100
AcDbLine
 10
425.1691575162164
 20
-298.4302948522952
 30
0.0
 11
675.1691575162209
 21
-48.43029485228939
 31
0.0
  0
LINE
  5
347
330
1F
100
AcDbEntity
  8
0-0
  6
JWW_DASHED1
 62
   120
370
     5
100
AcDbLine
 10
85.1691575162306
 20
-631.3592270389955
 30
0.0
 11
335.1691575162198
 21
-381.3592270390051
 31
0.0
  0
LINE
  5
348
330
1F
100
AcDbEntity
  8
0-0
  6
JWW_DASHED1
 62
   120
370
     5
100
AcDbLine
 10
425.169157516213
 20
-291.3592270390136
 30
0.0
 11
675.1691575162175
 21
-41.35922703900818
 31
0.0
  0
LINE
  5
349
330
1F
100
AcDbEntity
  8
0-0
  6
JWW_DASHED1
 62
   120
370
     5
100
AcDbLine
 10
85.16915751623912
 20
-624.2881592257003
 30
0.0
 11
335.1691575162283
 21
-374.2881592257119
 31
0.0
  0
LINE
  5
34A
330
1F
100
AcDbEntity
  8
0-0
  6
JWW_DASHED1
 62
   120
370
     5
100
AcDbLine
 10
425.1691575162351
 20
-284.2881592257055
 30
0.0
 11
675.1691575162209
 21
-34.288159225718
 31
0.0
  0
LINE
  5
34B
330
1F
100
AcDbEntity
  8
0-0
  6
JWW_DASHED1
 62
   120
370
     5
100
AcDbLine
 10
85.16915751623571
 20
-617.217091412419
 30
0.0
 11
335.1691575162232
 21
-367.2170914124307
 31
0.0
  0
LINE
  5
34C
330
1F
100
AcDbEntity
  8
0-0
  6
JWW_DASHED1
 62
   120
370
     5
100
AcDbLine
 10
425.16915751623
 20
-277.2170914124243
 30
0.0
 11
675.1691575162175
 21
-27.21709141243679
 31
0.0
  0
LINE
  5
34D
330
1F
100
AcDbEntity
  8
0-0
  6
JWW_DASHED1
 62
   120
370
     5
100
AcDbLine
 10
85.1691575162323
 20
-610.1460235991378
 30
0.0
 11
335.1691575162198
 21
-360.146023599149
 31
0.0
  0
LINE
  5
34E
330
1F
100
AcDbEntity
  8
0-0
  6
JWW_DASHED1
 62
   120
370
     5
100
AcDbLine
 10
425.1691575162266
 20
-270.1460235991426
 30
0.0
 11
675.1691575162141
 21
-20.14602359915514
 31
0.0
  0
LINE
  5
34F
330
1F
100
AcDbEntity
  8
0-0
  6
JWW_DASHED1
 62
   120
370
     5
100
AcDbLine
 10
85.16915751622719
 20
-603.0749557858562
 30
0.0
 11
335.1691575162164
 21
-353.0749557858678
 31
0.0
  0
LINE
  5
350
330
1F
100
AcDbEntity
  8
0-0
  6
JWW_DASHED1
 62
   120
370
     5
100
AcDbLine
 10
425.1691575162232
 20
-263.0749557858614
 30
0.0
 11
675.1691575162107
 21
-13.07495578587393
 31
0.0
  0
LINE
  5
351
330
1F
100
AcDbEntity
  8
0-0
  6
JWW_DASHED1
 62
   120
370
     5
100
AcDbLine
 10
85.16915751622378
 20
-596.0038879725745
 30
0.0
 11
335.1691575162266
 21
-346.0038879725709
 31
0.0
  0
LINE
  5
352
330
1F
100
AcDbEntity
  8
0-0
  6
JWW_DASHED1
 62
   120
370
     5
100
AcDbLine
 10
425.1691575162181
 20
-256.0038879725802
 30
0.0
 11
675.1691575162056
 21
-6.003887972592707
 31
0.0
  0
LINE
  5
353
330
1F
100
AcDbEntity
  8
0-0
  6
JWW_DASHED1
 62
   120
370
     5
100
AcDbLine
 10
85.16915751621696
 20
-588.9328201593501
 30
0.0
 11
335.1691575162232
 21
-338.9328201593437
 31
0.0
  0
LINE
  5
354
330
1F
100
AcDbEntity
  8
0-0
  6
JWW_DASHED1
 62
   120
370
     5
100
AcDbLine
 10
425.1691575162147
 20
-248.9328201593523
 30
0.0
 11
675.1691575162209
 21
1.067179840653125
 31
0.0
  0
LINE
  5
355
330
1F
100
AcDbEntity
  8
0-0
  6
JWW_DASHED1
 62
   120
370
     5
100
AcDbLine
 10
85.16915751622889
 20
-581.861752346053
 30
0.0
 11
335.1691575162198
 21
-331.8617523460621
 31
0.0
  0
LINE
  5
356
330
1F
100
AcDbEntity
  8
0-0
  6
JWW_DASHED1
 62
   120
370
     5
100
AcDbLine
 10
425.1691575162113
 20
-241.8617523460706
 30
0.0
 11
675.1691575162175
 21
8.13824765393477
 31
0.0
  0
LINE
  5
357
330
1F
100
AcDbEntity
  8
0-0
  6
JWW_DASHED1
 62
   120
370
     5
100
AcDbLine
 10
85.16915751623912
 20
-574.7906845327582
 30
0.0
 11
335.1691575162266
 21
-324.7906845327698
 31
0.0
  0
LINE
  5
358
330
1F
100
AcDbEntity
  8
0-0
  6
JWW_DASHED1
 62
   120
370
     5
100
AcDbLine
 10
425.1691575162334
 20
-234.790684532763
 30
0.0
 11
675.1691575162209
 21
15.20931546722451
 31
0.0
  0
LINE
  5
359
330
1F
100
AcDbEntity
  8
0-0
  6
JWW_DASHED1
 62
   120
370
     5
100
AcDbLine
 10
85.16915751623401
 20
-567.7196167194766
 30
0.0
 11
335.1691575162232
 21
-317.7196167194882
 31
0.0
  0
LINE
  5
35A
330
1F
100
AcDbEntity
  8
0-0
  6
JWW_DASHED1
 62
   120
370
     5
100
AcDbLine
 10
425.16915751623
 20
-227.7196167194818
 30
0.0
 11
675.1691575162175
 21
22.28038328050573
 31
0.0
  0
LINE
  5
35B
330
1F
100
AcDbEntity
  8
0-0
  6
JWW_DASHED1
 62
   120
370
     5
100
AcDbLine
 10
85.1691575162306
 20
-560.6485489061953
 30
0.0
 11
335.1691575162181
 21
-310.6485489062069
 31
0.0
  0
LINE
  5
35C
330
1F
100
AcDbEntity
  8
0-0
  6
JWW_DASHED1
 62
   120
370
     5
100
AcDbLine
 10
425.1691575162249
 20
-220.6485489062005
 30
0.0
 11
675.1691575162124
 21
29.35145109378695
 31
0.0
  0
LINE
  5
35D
330
1F
100
AcDbEntity
  8
0-0
  6
JWW_DASHED1
 62
   120
370
     5
100
AcDbLine
 10
85.16915751622548
 20
-553.5774810929137
 30
0.0
 11
335.1691575162147
 21
-303.5774810929257
 31
0.0
  0
LINE
  5
35E
330
1F
100
AcDbEntity
  8
0-0
  6
JWW_DASHED1
 62
   120
370
     5
100
AcDbLine
 10
425.1691575162198
 20
-213.5774810929189
 30
0.0
 11
675.1691575162073
 21
36.42251890706817
 31
0.0
  0
LINE
  5
35F
330
1F
100
AcDbEntity
  8
0-0
  6
JWW_DASHED1
 62
   120
370
     5
100
AcDbLine
 10
85.16915751622207
 20
-546.5064132796324
 30
0.0
 11
335.1691575162266
 21
-296.5064132796283
 31
0.0
  0
LINE
  5
360
330
1F
100
AcDbEntity
  8
0-0
  6
JWW_DASHED1
 62
   120
370
     5
100
AcDbLine
 10
425.1691575162164
 20
-206.5064132796377
 30
0.0
 11
675.1691575162039
 21
43.49358672034981
 31
0.0
  0
LINE
  5
361
330
1F
100
AcDbEntity
  8
0-0
  6
JWW_DASHED1
 62
   120
370
     5
100
AcDbLine
 10
85.16915751622037
 20
-539.4353454663483
 30
0.0
 11
335.1691575162266
 21
-289.435345466342
 31
0.0
  0
LINE
  5
362
330
1F
100
AcDbEntity
  8
0-0
  6
JWW_DASHED1
 62
   120
370
     5
100
AcDbLine
 10
425.1691575162181
 20
-199.4353454663505
 30
0.0
 11
675.1691575162243
 21
50.56465453365533
 31
0.0
  0
LINE
  5
363
330
1F
100
AcDbEntity
  8
0-0
  6
JWW_DASHED1
 62
   120
370
     5
100
AcDbLine
 10
85.16915751621696
 20
-532.364277653067
 30
0.0
 11
335.1691575162232
 21
-282.3642776530603
 31
0.0
  0
LINE
  5
364
330
1F
100
AcDbEntity
  8
0-0
  6
JWW_DASHED1
 62
   120
370
     5
100
AcDbLine
 10
425.1691575162147
 20
-192.3642776530689
 30
0.0
 11
675.1691575162209
 21
57.63572234693655
 31
0.0
  0
LINE
  5
365
330
1F
100
AcDbEntity
  8
0-0
  6
JWW_DASHED1
 62
   120
370
     5
100
AcDbLine
 10
85.16915751622889
 20
-525.2932098397696
 30
0.0
 11
335.1691575162198
 21
-275.2932098397791
 31
0.0
  0
LINE
  5
366
330
1F
100
AcDbEntity
  8
0-0
  6
JWW_DASHED1
 62
   120
370
     5
100
AcDbLine
 10
425.1691575162096
 20
-185.2932098397876
 30
0.0
 11
675.1691575162158
 21
64.70679016021776
 31
0.0
  0
LINE
  5
367
330
1F
100
AcDbEntity
  8
0-0
  6
JWW_DASHED1
 62
   120
370
     5
100
AcDbLine
 10
85.1691575162323
 20
-518.222142026534
 30
0.0
 11
335.1691575162215
 21
-268.2221420265461
 31
0.0
  0
LINE
  5
368
330
1F
100
AcDbEntity
  8
0-0
  6
JWW_DASHED1
 62
   120
370
     5
100
AcDbLine
 10
425.1691575162266
 20
-178.2221420265397
 30
0.0
 11
675.1691575162141
 21
71.77785797344825
 31
0.0
  0
LINE
  5
369
330
1F
100
AcDbEntity
  8
0-0
  6
JWW_DASHED1
 62
   120
370
     5
100
AcDbLine
 10
85.16915751622889
 20
-511.1510742132527
 30
0.0
 11
335.1691575162164
 21
-261.1510742132645
 31
0.0
  0
LINE
  5
36A
330
1F
100
AcDbEntity
  8
0-0
  6
JWW_DASHED1
 62
   120
370
     5
100
AcDbLine
 10
425.1691575162232
 20
-171.151074213258
 30
0.0
 11
675.1691575162107
 21
78.84892578672947
 31
0.0
  0
LINE
  5
36B
330
1F
100
AcDbEntity
  8
0-0
  6
JWW_DASHED1
 62
   120
370
     5
100
AcDbLine
 10
85.16915751622548
 20
-504.0800063999716
 30
0.0
 11
335.169157516213
 21
-254.0800063999832
 31
0.0
  0
LINE
  5
36C
330
1F
100
AcDbEntity
  8
0-0
  6
JWW_DASHED1
 62
   120
370
     5
100
AcDbLine
 10
425.1691575162198
 20
-164.0800063999768
 30
0.0
 11
675.1691575162073
 21
85.91999360001111
 31
0.0
  0
LINE
  5
36D
330
1F
100
AcDbEntity
  8
0-0
  6
JWW_DASHED1
 62
   120
370
     5
100
AcDbLine
 10
85.16915751622037
 20
-497.0089385866899
 30
0.0
 11
335.1691575162249
 21
-247.0089385866858
 31
0.0
  0
LINE
  5
36E
330
1F
100
AcDbEntity
  8
0-0
  6
JWW_DASHED1
 62
   120
370
     5
100
AcDbLine
 10
425.1691575162164
 20
-157.0089385866952
 30
0.0
 11
675.1691575162039
 21
92.99106141329233
 31
0.0
  0
LINE
  5
36F
330
1F
100
AcDbEntity
  8
0-0
  6
JWW_DASHED1
 62
   120
370
     5
100
AcDbLine
 10
85.16915751621866
 20
-489.9378707734057
 30
0.0
 11
335.1691575162266
 21
-239.937870773399
 31
0.0
  0
LINE
  5
370
330
1F
100
AcDbEntity
  8
0-0
  6
JWW_DASHED1
 62
   120
370
     5
100
AcDbLine
 10
425.1691575162181
 20
-149.9378707734076
 30
0.0
 11
675.1691575162226
 21
100.0621292265983
 31
0.0
  0
LINE
  5
371
330
1F
100
AcDbEntity
  8
0-0
  6
JWW_DASHED1
 62
   120
370
     5
100
AcDbLine
 10
85.1691575162323
 20
-482.8668029601083
 30
0.0
 11
335.1691575162215
 21
-232.8668029601178
 31
0.0
  0
LINE
  5
372
330
1F
100
AcDbEntity
  8
0-0
  6
JWW_DASHED1
 62
   120
370
     5
100
AcDbLine
 10
425.169157516213
 20
-142.8668029601263
 30
0.0
 11
675.1691575162192
 21
107.1331970398795
 31
0.0
  0
LINE
  5
373
330
1F
100
AcDbEntity
  8
0-0
  6
JWW_DASHED1
 62
   120
370
     5
100
AcDbLine
 10
85.16915751623912
 20
-475.7957351468143
 30
0.0
 11
335.1691575162283
 21
-225.7957351468259
 31
0.0
  0
LINE
  5
374
330
1F
100
AcDbEntity
  8
0-0
  6
JWW_DASHED1
 62
   120
370
     5
100
AcDbLine
 10
425.1691575162351
 20
-135.7957351468195
 30
0.0
 11
675.1691575162226
 21
114.204264853168
 31
0.0
  0
LINE
  5
375
330
1F
100
AcDbEntity
  8
0-0
  6
JWW_DASHED1
 62
   120
370
     5
100
AcDbLine
 10
85.16915751623571
 20
-468.724667333533
 30
0.0
 11
335.1691575162232
 21
-218.7246673335447
 31
0.0
  0
LINE
  5
376
330
1F
100
AcDbEntity
  8
0-0
  6
JWW_DASHED1
 62
   120
370
     5
100
AcDbLine
 10
425.16915751623
 20
-128.7246673335383
 30
0.0
 11
675.1691575162175
 21
121.2753326664496
 31
0.0
  0
LINE
  5
377
330
1F
100
AcDbEntity
  8
0-0
  6
JWW_DASHED1
 62
   120
370
     5
100
AcDbLine
 10
85.1691575162323
 20
-461.6535995202514
 30
0.0
 11
335.1691575162198
 21
-211.6535995202635
 31
0.0
  0
LINE
  5
378
330
1F
100
AcDbEntity
  8
0-0
  6
JWW_DASHED1
 62
   120
370
     5
100
AcDbLine
 10
425.1691575162266
 20
-121.6535995202567
 30
0.0
 11
675.1691575162141
 21
128.3464004797308
 31
0.0
  0
LINE
  5
379
330
1F
100
AcDbEntity
  8
0-0
  6
JWW_DASHED1
 62
   120
370
     5
100
AcDbLine
 10
85.16915751622207
 20
-454.582531707029
 30
0.0
 11
335.1691575162113
 21
-204.5825317070407
 31
0.0
  0
LINE
  5
37A
330
1F
100
AcDbEntity
  8
0-0
  6
JWW_DASHED1
 62
   120
370
     5
100
AcDbLine
 10
425.1691575162181
 20
-114.5825317070343
 30
0.0
 11
675.1691575162056
 21
135.4174682929532
 31
0.0
  0
LINE
  5
37B
330
1F
100
AcDbEntity
  8
0-0
  6
JWW_DASHED1
 62
   120
370
     5
100
AcDbLine
 10
85.16915751621866
 20
-447.5114638937474
 30
0.0
 11
335.1691575162232
 21
-197.5114638937437
 31
0.0
  0
LINE
  5
37C
330
1F
100
AcDbEntity
  8
0-0
  6
JWW_DASHED1
 62
   120
370
     5
100
AcDbLine
 10
425.169157516213
 20
-107.5114638937531
 30
0.0
 11
675.1691575162175
 21
142.4885361062506
 31
0.0
  0
LINE
  5
37D
330
1F
100
AcDbEntity
  8
0-0
  6
JWW_DASHED1
 62
   120
370
     5
100
AcDbLine
 10
85.16915751621866
 20
-440.4403960804627
 30
0.0
 11
335.1691575162249
 21
-190.4403960804561
 31
0.0
  0
LINE
  5
37E
330
1F
100
AcDbEntity
  8
0-0
  6
JWW_DASHED1
 62
   120
370
     5
100
AcDbLine
 10
425.1691575162164
 20
-100.440396080465
 30
0.0
 11
675.1691575162226
 21
149.5596039195408
 31
0.0
  0
LINE
  5
37F
330
1F
100
AcDbEntity
  8
0-0
  6
JWW_DASHED1
 62
   120
370
     5
100
AcDbLine
 10
85.1691575162306
 20
-433.3693282671653
 30
0.0
 11
335.1691575162215
 21
-183.3693282671749
 31
0.0
  0
LINE
  5
380
330
1F
100
AcDbEntity
  8
0-0
  6
JWW_DASHED1
 62
   120
370
     5
100
AcDbLine
 10
425.169157516213
 20
-93.36932826718339
 30
0.0
 11
675.1691575162175
 21
156.6306717328224
 31
0.0
  0
LINE
  5
381
330
1F
100
AcDbEntity
  8
0-0
  6
JWW_DASHED1
 62
   120
370
     5
100
AcDbLine
 10
85.16915751623912
 20
-426.2982604538718
 30
0.0
 11
335.1691575162266
 21
-176.2982604538834
 31
0.0
  0
LINE
  5
382
330
1F
100
AcDbEntity
  8
0-0
  6
JWW_DASHED1
 62
   120
370
     5
100
AcDbLine
 10
425.1691575162334
 20
-86.29826045387702
 30
0.0
 11
675.1691575162209
 21
163.7017395461105
 31
0.0
  0
LINE
  5
383
330
1F
100
AcDbEntity
  8
0-0
  6
JWW_DASHED1
 62
   120
370
     5
100
AcDbLine
 10
85.16915751623401
 20
-419.2271926405909
 30
0.0
 11
335.1691575162232
 21
-169.2271926406022
 31
0.0
  0
LINE
  5
384
330
1F
100
AcDbEntity
  8
0-0
  6
JWW_DASHED1
 62
   120
370
     5
100
AcDbLine
 10
425.16915751623
 20
-79.2271926405958
 30
0.0
 11
675.1691575162175
 21
170.7728073593917
 31
0.0
  0
LINE
  5
385
330
1F
100
AcDbEntity
  8
0-0
  6
JWW_DASHED1
 62
   120
370
     5
100
AcDbLine
 10
85.1691575162306
 20
-412.1561248273089
 30
0.0
 11
335.1691575162181
 21
-162.156124827321
 31
0.0
  0
LINE
  5
386
330
1F
100
AcDbEntity
  8
0-0
  6
JWW_DASHED1
 62
   120
370
     5
100
AcDbLine
 10
425.1691575162249
 20
-72.15612482731458
 30
0.0
 11
675.1691575162124
 21
177.8438751726729
 31
0.0
  0
LINE
  5
387
330
1F
100
AcDbEntity
  8
0-0
  6
JWW_DASHED1
 62
   120
370
     5
100
AcDbLine
 10
85.16915751622548
 20
-405.0850570140277
 30
0.0
 11
335.1691575162147
 21
-155.0850570140393
 31
0.0
  0
LINE
  5
388
330
1F
100
AcDbEntity
  8
0-0
  6
JWW_DASHED1
 62
   120
370
     5
100
AcDbLine
 10
425.1691575162198
 20
-65.08505701403337
 30
0.0
 11
675.1691575162073
 21
184.9149429859546
 31
0.0
  0
LINE
  5
389
330
1F
100
AcDbEntity
  8
0-0
  6
JWW_DASHED1
 62
   120
370
     5
100
AcDbLine
 10
85.16915751622207
 20
-398.0139892007464
 30
0.0
 11
335.1691575162266
 21
-148.0139892007423
 31
0.0
  0
LINE
  5
38A
330
1F
100
AcDbEntity
  8
0-0
  6
JWW_DASHED1
 62
   120
370
     5
100
AcDbLine
 10
425.1691575162164
 20
-58.01398920075172
 30
0.0
 11
675.1691575162039
 21
191.9860107992358
 31
0.0
  0
LINE
  5
38B
330
1F
100
AcDbEntity
  8
0-0
  6
JWW_DASHED1
 62
   120
370
     5
100
AcDbLine
 10
85.16915751621696
 20
-390.9429213875198
 30
0.0
 11
335.1691575162232
 21
-140.9429213875136
 31
0.0
  0
LINE
  5
38C
330
1F
100
AcDbEntity
  8
0-0
  6
JWW_DASHED1
 62
   120
370
     5
100
AcDbLine
 10
425.1691575162164
 20
-50.94292138752209
 30
0.0
 11
675.1691575162209
 21
199.0570786124833
 31
0.0
  0
LINE
  5
38D
330
1F
100
AcDbEntity
  8
0-0
  6
JWW_DASHED1
 62
   120
370
     5
100
AcDbLine
 10
85.16915751622889
 20
-383.8718535742224
 30
0.0
 11
335.1691575162198
 21
-133.8718535742319
 31
0.0
  0
LINE
  5
38E
330
1F
100
AcDbEntity
  8
0-0
  6
JWW_DASHED1
 62
   120
370
     5
100
AcDbLine
 10
425.1691575162113
 20
-43.87185357424087
 30
0.0
 11
675.1691575162175
 21
206.1281464257654
 31
0.0
  0
LINE
  5
38F
330
1F
100
AcDbEntity
  8
0-0
  6
JWW_DASHED1
 62
   120
370
     5
100
AcDbLine
 10
85.16915751623742
 20
-376.8007857609292
 30
0.0
 11
335.1691575162249
 21
-126.8007857609413
 31
0.0
  0
LINE
  5
390
330
1F
100
AcDbEntity
  8
0-0
  6
JWW_DASHED1
 62
   120
370
     5
100
AcDbLine
 10
425.1691575162317
 20
-36.80078576093493
 30
0.0
 11
675.1691575162192
 21
213.1992142390526
 31
0.0
  0
LINE
  5
391
330
1F
100
AcDbEntity
  8
0-0
  6
JWW_DASHED1
 62
   120
370
     5
100
AcDbLine
 10
85.1691575162323
 20
-369.7297179476481
 30
0.0
 11
335.1691575162215
 21
-119.7297179476597
 31
0.0
  0
LINE
  5
392
330
1F
100
AcDbEntity
  8
0-0
  6
JWW_DASHED1
 62
   120
370
     5
100
AcDbLine
 10
425.1691575162266
 20
-29.72971794765371
 30
0.0
 11
675.1691575162141
 21
220.2702820523338
 31
0.0
  0
LINE
  5
393
330
1F
100
AcDbEntity
  8
0-0
  6
JWW_DASHED1
 62
   120
370
     5
100
AcDbLine
 10
85.16915751622889
 20
-362.6586501343668
 30
0.0
 11
335.1691575162164
 21
-112.6586501343785
 31
0.0
  0
LINE
  5
394
330
1F
100
AcDbEntity
  8
0-0
  6
JWW_DASHED1
 62
   120
370
     5
100
AcDbLine
 10
425.1691575162232
 20
-22.65865013437207
 30
0.0
 11
675.1691575162107
 21
227.3413498656154
 31
0.0
  0
LINE
  5
395
330
1F
100
AcDbEntity
  8
0-0
  6
JWW_DASHED1
 62
   120
370
     5
100
AcDbLine
 10
85.16915751622548
 20
-355.5875823210856
 30
0.0
 11
335.169157516213
 21
-105.5875823210972
 31
0.0
  0
LINE
  5
396
330
1F
100
AcDbEntity
  8
0-0
  6
JWW_DASHED1
 62
   120
370
     5
100
AcDbLine
 10
425.1691575162198
 20
-15.58758232109085
 30
0.0
 11
675.1691575162073
 21
234.4124176788971
 31
0.0
  0
LINE
  5
397
330
1F
100
AcDbEntity
  8
0-0
  6
JWW_DASHED1
 62
   120
370
     5
100
AcDbLine
 10
85.16915751622037
 20
-348.5165145078039
 30
0.0
 11
335.1691575162249
 21
-98.51651450779983
 31
0.0
  0
LINE
  5
398
330
1F
100
AcDbEntity
  8
0-0
  6
JWW_DASHED1
 62
   120
370
     5
100
AcDbLine
 10
425.1691575162164
 20
-8.516514507809205
 30
0.0
 11
675.1691575162022
 21
241.4834854921783
 31
0.0
  0
LINE
  5
399
330
1F
100
AcDbEntity
  8
0-0
  6
JWW_DASHED1
 62
   120
370
     5
100
AcDbLine
 10
85.16915751622207
 20
-341.4454466945181
 30
0.0
 11
335.1691575162266
 21
-91.44544669451179
 31
0.0
  0
LINE
  5
39A
330
1F
100
AcDbEntity
  8
0-0
  6
JWW_DASHED1
 62
   120
370
     5
100
AcDbLine
 10
425.1691575162198
 20
-1.445446694520314
 30
0.0
 11
675.1691575162243
 21
248.5545533054855
 31
0.0
  0
LINE
  5
39B
330
1F
100
AcDbEntity
  8
0-0
  6
JWW_DASHED1
 62
   120
370
     5
100
AcDbLine
 10
85.16915751621696
 20
-334.3743788812368
 30
0.0
 11
335.1691575162232
 21
-84.37437888123014
 31
0.0
  0
LINE
  5
39C
330
1F
100
AcDbEntity
  8
0-0
  6
JWW_DASHED1
 62
   120
370
     5
100
AcDbLine
 10
425.1691575162147
 20
5.62562111876133
 30
0.0
 11
675.1691575162209
 21
255.6256211187667
 31
0.0
  0
LINE
  5
39D
330
1F
100
AcDbEntity
  8
0-0
  6
JWW_DASHED1
 62
   120
370
     5
100
AcDbLine
 10
85.16915751623571
 20
-327.3033110679871
 30
0.0
 11
335.1691575162232
 21
-77.3033110679988
 31
0.0
  0
LINE
  5
39E
330
1F
100
AcDbEntity
  8
0-0
  6
JWW_DASHED1
 62
   120
370
     5
100
AcDbLine
 10
425.16915751623
 20
12.69668893200759
 30
0.0
 11
675.1691575162175
 21
262.6966889319951
 31
0.0
  0
LINE
  5
39F
330
1F
100
AcDbEntity
  8
0-0
  6
JWW_DASHED1
 62
   120
370
     5
100
AcDbLine
 10
85.1691575162323
 20
-320.232243254706
 30
0.0
 11
335.1691575162198
 21
-70.23224325471759
 31
0.0
  0
LINE
  5
3A0
330
1F
100
AcDbEntity
  8
0-0
  6
JWW_DASHED1
 62
   120
370
     5
100
AcDbLine
 10
425.1691575162266
 20
19.76775674528881
 30
0.0
 11
675.1691575162141
 21
269.7677567452768
 31
0.0
  0
LINE
  5
3A1
330
1F
100
AcDbEntity
  8
0-0
  6
JWW_DASHED1
 62
   120
370
     5
100
AcDbLine
 10
85.16915751622719
 20
-313.1611754414243
 30
0.0
 11
335.1691575162164
 21
-63.16117544143637
 31
0.0
  0
LINE
  5
3A2
330
1F
100
AcDbEntity
  8
0-0
  6
JWW_DASHED1
 62
   120
370
     5
100
AcDbLine
 10
425.1691575162232
 20
26.83882455857045
 30
0.0
 11
675.1691575162107
 21
276.8388245585579
 31
0.0
  0
LINE
  5
3A3
330
1F
100
AcDbEntity
  8
0-0
  6
JWW_DASHED1
 62
   120
370
     5
100
AcDbLine
 10
85.16915751622378
 20
-306.0901076281431
 30
0.0
 11
335.1691575162113
 21
-56.09010762815473
 31
0.0
  0
LINE
  5
3A4
330
1F
100
AcDbEntity
  8
0-0
  6
JWW_DASHED1
 62
   120
370
     5
100
AcDbLine
 10
425.1691575162181
 20
33.90989237185167
 30
0.0
 11
675.1691575162056
 21
283.9098923718392
 31
0.0
  0
LINE
  5
3A5
330
1F
100
AcDbEntity
  8
0-0
  6
JWW_DASHED1
 62
   120
370
     5
100
AcDbLine
 10
85.16915751621866
 20
-299.0190398148615
 30
0.0
 11
335.1691575162232
 21
-49.01903981485773
 31
0.0
  0
LINE
  5
3A6
330
1F
100
AcDbEntity
  8
0-0
  6
JWW_DASHED1
 62
   120
370
     5
100
AcDbLine
 10
425.169157516213
 20
40.98096018513289
 30
0.0
 11
675.1691575162005
 21
290.9809601851204
 31
0.0
  0
LINE
  5
3A7
330
1F
100
AcDbEntity
  8
0-0
  6
JWW_DASHED1
 62
   120
370
     5
100
AcDbLine
 10
85.16915751622037
 20
-291.9479720015751
 30
0.0
 11
335.1691575162266
 21
-41.94797200156884
 31
0.0
  0
LINE
  5
3A8
330
1F
100
AcDbEntity
  8
0-0
  6
JWW_DASHED1
 62
   120
370
     5
100
AcDbLine
 10
425.1691575162181
 20
48.05202799842263
 30
0.0
 11
675.1691575162243
 21
298.052027998428
 31
0.0
  0
LINE
  5
3A9
330
1F
100
AcDbEntity
  8
0-0
  6
JWW_DASHED1
 62
   120
370
     5
100
AcDbLine
 10
85.16915751621525
 20
-284.8769041882939
 30
0.0
 11
335.1691575162232
 21
-34.8769041882872
 31
0.0
  0
LINE
  5
3AA
330
1F
100
AcDbEntity
  8
0-0
  6
JWW_DASHED1
 62
   120
370
     5
100
AcDbLine
 10
425.169157516213
 20
55.12309581170385
 30
0.0
 11
675.1691575162192
 21
305.1230958117093
 31
0.0
  0
LINE
  5
3AB
330
1F
100
AcDbEntity
  8
0-0
  6
JWW_DASHED1
 62
   120
370
     5
100
AcDbLine
 10
85.16915751622889
 20
-277.8058363749965
 30
0.0
 11
335.1691575162181
 21
-27.80583637500598
 31
0.0
  0
LINE
  5
3AC
330
1F
100
AcDbEntity
  8
0-0
  6
JWW_DASHED1
 62
   120
370
     5
100
AcDbLine
 10
425.1691575162266
 20
62.19416362500127
 30
0.0
 11
675.1691575162158
 21
312.1941636249913
 31
0.0
  0
LINE
  5
3AD
330
1F
100
AcDbEntity
  8
0-0
  6
JWW_DASHED1
 62
   120
370
     5
100
AcDbLine
 10
85.16915751623401
 20
-270.7347685617046
 30
0.0
 11
335.1691575162232
 21
-20.73476856171624
 31
0.0
  0
LINE
  5
3AE
330
1F
100
AcDbEntity
  8
0-0
  6
JWW_DASHED1
 62
   120
370
     5
100
AcDbLine
 10
425.16915751623
 20
69.26523143829016
 30
0.0
 11
675.1691575162175
 21
319.2652314382776
 31
0.0
  0
LINE
  5
3AF
330
1F
100
AcDbEntity
  8
0-0
  6
JWW_DASHED1
 62
   120
370
     5
100
AcDbLine
 10
85.16915751622548
 20
-263.6637007484818
 30
0.0
 11
335.1691575162147
 21
-13.66370074849385
 31
0.0
  0
LINE
  5
3B0
330
1F
100
AcDbEntity
  8
0-0
  6
JWW_DASHED1
 62
   120
370
     5
100
AcDbLine
 10
425.1691575162198
 20
76.33629925151254
 30
0.0
 11
675.1691575162073
 21
326.3362992515005
 31
0.0
  0
LINE
  5
3B1
330
1F
100
AcDbEntity
  8
0-0
  6
JWW_DASHED1
 62
   120
370
     5
100
AcDbLine
 10
85.16915751622207
 20
-256.5926329352005
 30
0.0
 11
335.1691575162096
 21
-6.592632935212208
 31
0.0
  0
LINE
  5
3B2
330
1F
100
AcDbEntity
  8
0-0
  6
JWW_DASHED1
 62
   120
370
     5
100
AcDbLine
 10
425.1691575162164
 20
83.40736706479376
 30
0.0
 11
675.1691575162039
 21
333.4073670647813
 31
0.0
  0
LINE
  5
3B3
330
1F
100
AcDbEntity
  8
0-0
  6
JWW_DASHED1
 62
   120
370
     5
100
AcDbLine
 10
85.16915751621866
 20
-249.5215651219193
 30
0.0
 11
335.1691575162215
 21
0.4784348780847836
 31
0.0
  0
LINE
  5
3B4
330
1F
100
AcDbEntity
  8
0-0
  6
JWW_DASHED1
 62
   120
370
     5
100
AcDbLine
 10
425.169157516213
 20
90.4784348780754
 30
0.0
 11
675.1691575162158
 21
340.4784348780787
 31
0.0
  0
LINE
  5
3B5
330
1F
100
AcDbEntity
  8
0-0
  6
JWW_DASHED1
 62
   120
370
     5
100
AcDbLine
 10
85.16915751621866
 20
-242.4504973086326
 30
0.0
 11
335.1691575162249
 21
7.549502691374101
 31
0.0
  0
LINE
  5
3B6
330
1F
100
AcDbEntity
  8
0-0
  6
JWW_DASHED1
 62
   120
370
     5
100
AcDbLine
 10
425.1691575162164
 20
97.54950269136557
 30
0.0
 11
675.1691575162226
 21
347.549502691371
 31
0.0
  0
LINE
  5
3B7
330
1F
100
AcDbEntity
  8
0-0
  6
JWW_DASHED1
 62
   120
370
     5
100
AcDbLine
 10
85.1691575162306
 20
-235.3794294953356
 30
0.0
 11
335.1691575162215
 21
14.62057050465532
 31
0.0
  0
LINE
  5
3B8
330
1F
100
AcDbEntity
  8
0-0
  6
JWW_DASHED1
 62
   120
370
     5
100
AcDbLine
 10
425.169157516213
 20
104.6205705046468
 30
0.0
 11
675.1691575162175
 21
354.6205705046526
 31
0.0
  0
LINE
  5
3B9
330
1F
100
AcDbEntity
  8
0-0
  6
JWW_DASHED1
 62
   120
370
     5
100
AcDbLine
 10
85.16915751623742
 20
-228.3083616820433
 30
0.0
 11
335.1691575162249
 21
21.69163831794464
 31
0.0
  0
LINE
  5
3BA
330
1F
100
AcDbEntity
  8
0-0
  6
JWW_DASHED1
 62
   120
370
     5
100
AcDbLine
 10
425.1691575162317
 20
111.691638317951
 30
0.0
 11
675.1691575162192
 21
361.6916383179386
 31
0.0
  0
LINE
  5
3BB
330
1F
100
AcDbEntity
  8
0-0
  6
JWW_DASHED1
 62
   120
370
     5
100
AcDbLine
 10
85.1691575162323
 20
-221.2372938687621
 30
0.0
 11
335.1691575162215
 21
28.76270613122628
 31
0.0
  0
LINE
  5
3BC
330
1F
100
AcDbEntity
  8
0-0
  6
JWW_DASHED1
 62
   120
370
     5
100
AcDbLine
 10
425.1691575162266
 20
118.7627061312322
 30
0.0
 11
675.1691575162141
 21
368.7627061312202
 31
0.0
  0
LINE
  5
3BD
330
1F
100
AcDbEntity
  8
0-0
  6
JWW_DASHED1
 62
   120
370
     5
100
AcDbLine
 10
85.16915751622889
 20
-214.1662260554808
 30
0.0
 11
335.1691575162164
 21
35.8337739445075
 31
0.0
  0
LINE
  5
3BE
330
1F
100
AcDbEntity
  8
0-0
  6
JWW_DASHED1
 62
   120
370
     5
100
AcDbLine
 10
425.1691575162232
 20
125.8337739445139
 30
0.0
 11
675.1691575162107
 21
375.8337739445014
 31
0.0
  0
LINE
  5
3BF
330
1F
100
AcDbEntity
  8
0-0
  6
JWW_DASHED1
 62
   120
370
     5
100
AcDbLine
 10
85.16915751622548
 20
-207.0951582421992
 30
0.0
 11
335.169157516213
 21
42.90484175778872
 31
0.0
  0
LINE
  5
3C0
330
1F
100
AcDbEntity
  8
0-0
  6
JWW_DASHED1
 62
   120
370
     5
100
AcDbLine
 10
425.1691575162198
 20
132.9048417577955
 30
0.0
 11
675.1691575162073
 21
382.9048417577831
 31
0.0
  0
LINE
  5
3C1
330
1F
100
AcDbEntity
  8
0-0
  6
JWW_DASHED1
 62
   120
370
     5
100
AcDbLine
 10
85.16915751622207
 20
-200.0240904289709
 30
0.0
 11
335.1691575162283
 21
49.9759095710354
 31
0.0
  0
LINE
  5
3C2
330
1F
100
AcDbEntity
  8
0-0
  6
JWW_DASHED1
 62
   120
370
     5
100
AcDbLine
 10
425.1691575162198
 20
139.9759095710264
 30
0.0
 11
675.169157516226
 21
389.9759095710327
 31
0.0
  0
LINE
  5
3C3
330
1F
100
AcDbEntity
  8
0-0
  6
JWW_DASHED1
 62
   120
370
     5
100
AcDbLine
 10
85.16915751621866
 20
-192.9530226156901
 30
0.0
 11
335.1691575162249
 21
57.04697738431705
 31
0.0
  0
LINE
  5
3C4
330
1F
100
AcDbEntity
  8
0-0
  6
JWW_DASHED1
 62
   120
370
     5
100
AcDbLine
 10
425.1691575162164
 20
147.0469773843081
 30
0.0
 11
675.1691575162209
 21
397.0469773843139
 31
0.0
  0
LINE
  5
3C5
330
1F
100
AcDbEntity
  8
0-0
  6
JWW_DASHED1
 62
   120
370
     5
100
AcDbLine
 10
85.16915751622889
 20
-185.8819548023926
 30
0.0
 11
335.1691575162198
 21
64.11804519759826
 31
0.0
  0
LINE
  5
3C6
330
1F
100
AcDbEntity
  8
0-0
  6
JWW_DASHED1
 62
   120
370
     5
100
AcDbLine
 10
425.169157516213
 20
154.1180451975897
 30
0.0
 11
675.1691575162175
 21
404.1180451975956
 31
0.0
  0
LINE
  5
3C7
330
1F
100
AcDbEntity
  8
0-0
  6
JWW_DASHED1
 62
   120
370
     5
100
AcDbLine
 10
85.16915751623571
 20
-178.8108869891012
 30
0.0
 11
335.1691575162232
 21
71.18911301088716
 31
0.0
  0
LINE
  5
3C8
330
1F
100
AcDbEntity
  8
0-0
  6
JWW_DASHED1
 62
   120
370
     5
100
AcDbLine
 10
425.16915751623
 20
161.1891130108935
 30
0.0
 11
675.1691575162175
 21
411.189113010881
 31
0.0
  0
LINE
  5
3C9
330
1F
100
AcDbEntity
  8
0-0
  6
JWW_DASHED1
 62
   120
370
     5
100
AcDbLine
 10
85.1691575162323
 20
-171.73981917582
 30
0.0
 11
335.1691575162198
 21
78.26018082416837
 31
0.0
  0
LINE
  5
3CA
330
1F
100
AcDbEntity
  8
0-0
  6
JWW_DASHED1
 62
   120
370
     5
100
AcDbLine
 10
425.1691575162266
 20
168.2601808241748
 30
0.0
 11
675.1691575162141
 21
418.2601808241623
 31
0.0
  0
LINE
  5
3CB
330
1F
100
AcDbEntity
  8
0-0
  6
JWW_DASHED1
 62
   120
370
     5
100
AcDbLine
 10
85.16915751622719
 20
-164.6687513625388
 30
0.0
 11
335.1691575162164
 21
85.33124863745002
 31
0.0
  0
LINE
  5
3CC
330
1F
100
AcDbEntity
  8
0-0
  6
JWW_DASHED1
 62
   120
370
     5
100
AcDbLine
 10
425.1691575162232
 20
175.3312486374564
 30
0.0
 11
675.1691575162107
 21
425.3312486374439
 31
0.0
  0
LINE
  5
3CD
330
1F
100
AcDbEntity
  8
0-0
  6
JWW_DASHED1
 62
   120
370
     5
100
AcDbLine
 10
85.16915751622378
 20
-157.5976835492571
 30
0.0
 11
335.1691575162113
 21
92.40231645073123
 31
0.0
  0
LINE
  5
3CE
330
1F
100
AcDbEntity
  8
0-0
  6
JWW_DASHED1
 62
   120
370
     5
100
AcDbLine
 10
425.1691575162181
 20
182.4023164507376
 30
0.0
 11
675.1691575162056
 21
432.4023164507252
 31
0.0
  0
LINE
  5
3CF
330
1F
100
AcDbEntity
  8
0-0
  6
JWW_DASHED1
 62
   120
370
     5
100
AcDbLine
 10
85.16915751621866
 20
-150.5266157359755
 30
0.0
 11
335.1691575162232
 21
99.47338426402823
 31
0.0
  0
LINE
  5
3D0
330
1F
100
AcDbEntity
  8
0-0
  6
JWW_DASHED1
 62
   120
370
     5
100
AcDbLine
 10
425.169157516213
 20
189.4733842640193
 30
0.0
 11
675.1691575162005
 21
439.4733842640063
 31
0.0
  0
LINE
  5
3D1
330
1F
100
AcDbEntity
  8
0-0
  6
JWW_DASHED1
 62
   120
370
     5
100
AcDbLine
 10
85.16915751622207
 20
-143.4555479226879
 30
0.0
 11
335.1691575162283
 21
106.5444520773184
 31
0.0
  0
LINE
  5
3D2
330
1F
100
AcDbEntity
  8
0-0
  6
JWW_DASHED1
 62
   120
370
     5
100
AcDbLine
 10
425.1691575162198
 20
196.5444520773099
 30
0.0
 11
675.1691575162243
 21
446.5444520773153
 31
0.0
  0
LINE
  5
3D3
330
1F
100
AcDbEntity
  8
0-0
  6
JWW_DASHED1
 62
   120
370
     5
100
AcDbLine
 10
85.1691575162306
 20
-136.3844801094199
 30
0.0
 11
335.1691575162215
 21
113.6155198905702
 31
0.0
  0
LINE
  5
3D4
330
1F
100
AcDbEntity
  8
0-0
  6
JWW_DASHED1
 62
   120
370
     5
100
AcDbLine
 10
425.169157516213
 20
203.6155198905617
 30
0.0
 11
675.1691575162192
 21
453.6155198905675
 31
0.0
  0
LINE
  5
3D5
330
1F
100
AcDbEntity
  8
0-0
  6
JWW_DASHED1
 62
   120
370
     5
100
AcDbLine
 10
85.16915751623401
 20
-129.3134122961587
 30
0.0
 11
335.1691575162232
 21
120.6865877038297
 31
0.0
  0
LINE
  5
3D6
330
1F
100
AcDbEntity
  8
0-0
  6
JWW_DASHED1
 62
   120
370
     5
100
AcDbLine
 10
425.1691575162283
 20
210.6865877038361
 30
0.0
 11
675.1691575162175
 21
460.6865877038231
 31
0.0
  0
LINE
  5
3D7
330
1F
100
AcDbEntity
  8
0-0
  6
JWW_DASHED1
 62
   120
370
     5
100
AcDbLine
 10
85.1691575162306
 20
-122.2423444828775
 30
0.0
 11
335.1691575162181
 21
127.7576555171109
 31
0.0
  0
LINE
  5
3D8
330
1F
100
AcDbEntity
  8
0-0
  6
JWW_DASHED1
 62
   120
370
     5
100
AcDbLine
 10
425.1691575162249
 20
217.7576555171173
 30
0.0
 11
675.1691575162124
 21
467.7576555171048
 31
0.0
  0
LINE
  5
3D9
330
1F
100
AcDbEntity
  8
0-0
  6
JWW_DASHED1
 62
   120
370
     5
100
AcDbLine
 10
85.16915751622548
 20
-115.1712766695958
 30
0.0
 11
335.1691575162147
 21
134.8287233303921
 31
0.0
  0
LINE
  5
3DA
330
1F
100
AcDbEntity
  8
0-0
  6
JWW_DASHED1
 62
   120
370
     5
100
AcDbLine
 10
425.1691575162198
 20
224.8287233303989
 30
0.0
 11
675.169157516209
 21
474.828723330386
 31
0.0
  0
LINE
  5
3DB
330
1F
100
AcDbEntity
  8
0-0
  6
JWW_DASHED1
 62
   120
370
     5
100
AcDbLine
 10
85.16915751622207
 20
-108.1002088563146
 30
0.0
 11
335.1691575162096
 21
141.8997911436738
 31
0.0
  0
LINE
  5
3DC
330
1F
100
AcDbEntity
  8
0-0
  6
JWW_DASHED1
 62
   120
370
     5
100
AcDbLine
 10
425.1691575162164
 20
231.8997911436801
 30
0.0
 11
675.1691575162039
 21
481.8997911436672
 31
0.0
  0
LINE
  5
3DD
330
1F
100
AcDbEntity
  8
0-0
  6
JWW_DASHED1
 62
   120
370
     5
100
AcDbLine
 10
85.16915751621866
 20
-101.0291410430334
 30
0.0
 11
335.1691575162215
 21
148.9708589569707
 31
0.0
  0
LINE
  5
3DE
330
1F
100
AcDbEntity
  8
0-0
  6
JWW_DASHED1
 62
   120
370
     5
100
AcDbLine
 10
425.169157516213
 20
238.9708589569614
 30
0.0
 11
675.1691575162005
 21
488.9708589569489
 31
0.0
  0
LINE
  5
3DF
330
1F
100
AcDbEntity
  8
0-0
  6
JWW_DASHED1
 62
   120
370
     5
100
AcDbLine
 10
85.16915751622037
 20
-93.95807322974534
 30
0.0
 11
335.1691575162266
 21
156.0419267702613
 31
0.0
  0
LINE
  5
3E0
330
1F
100
AcDbEntity
  8
0-0
  6
JWW_DASHED1
 62
   120
370
     5
100
AcDbLine
 10
425.1691575162181
 20
246.0419267702528
 30
0.0
 11
675.1691575162243
 21
496.0419267702587
 31
0.0
  0
LINE
  5
3E1
330
1F
100
AcDbEntity
  8
0-0
  6
JWW_DASHED1
 62
   120
370
     5
100
AcDbLine
 10
85.16915751621696
 20
-86.8870054164637
 30
0.0
 11
335.1691575162232
 21
163.112994583543
 31
0.0
  0
LINE
  5
3E2
330
1F
100
AcDbEntity
  8
0-0
  6
JWW_DASHED1
 62
   120
370
     5
100
AcDbLine
 10
425.1691575162147
 20
253.1129945835345
 30
0.0
 11
675.1691575162209
 21
503.1129945835398
 31
0.0
  0
LINE
  5
3E3
330
1F
100
AcDbEntity
  8
0-0
  6
JWW_DASHED1
 62
   120
370
     5
100
AcDbLine
 10
85.16915751622889
 20
-79.81593760316628
 30
0.0
 11
335.1691575162198
 21
170.1840623968242
 31
0.0
  0
LINE
  5
3E4
330
1F
100
AcDbEntity
  8
0-0
  6
JWW_DASHED1
 62
   120
370
     5
100
AcDbLine
 10
425.1691575162266
 20
260.1840623968315
 30
0.0
 11
675.1691575162158
 21
510.1840623968211
 31
0.0
  0
LINE
  5
3E5
330
1F
100
AcDbEntity
  8
0-0
  6
JWW_DASHED1
 62
   120
370
     5
100
AcDbLine
 10
85.1691575162306
 20
-72.74486978990595
 30
0.0
 11
335.1691575162198
 21
177.2551302100828
 31
0.0
  0
LINE
  5
3E6
330
1F
100
AcDbEntity
  8
0-0
  6
JWW_DASHED1
 62
   120
370
     5
100
AcDbLine
 10
425.1691575162266
 20
267.2551302100892
 30
0.0
 11
675.1691575162141
 21
517.2551302100762
 31
0.0
  0
LINE
  5
3E7
330
1F
100
AcDbEntity
  8
0-0
  6
JWW_DASHED1
 62
   120
370
     5
100
AcDbLine
 10
85.16915751622548
 20
-65.67380197665372
 30
0.0
 11
335.169157516213
 21
184.3261980233346
 31
0.0
  0
LINE
  5
3E8
330
1F
100
AcDbEntity
  8
0-0
  6
JWW_DASHED1
 62
   120
370
     5
100
AcDbLine
 10
425.1691575162198
 20
274.326198023341
 30
0.0
 11
675.1691575162073
 21
524.3261980233285
 31
0.0
  0
LINE
  5
3E9
330
1F
100
AcDbEntity
  8
0-0
  6
JWW_DASHED1
 62
   120
370
     5
100
AcDbLine
 10
85.16915751622037
 20
-58.6027341633725
 30
0.0
 11
335.1691575162096
 21
191.3972658366163
 31
0.0
  0
LINE
  5
3EA
330
1F
100
AcDbEntity
  8
0-0
  6
JWW_DASHED1
 62
   120
370
     5
100
AcDbLine
 10
425.1691575162147
 20
281.3972658366226
 30
0.0
 11
675.1691575162039
 21
531.3972658366097
 31
0.0
  0
LINE
  5
3EB
330
1F
100
AcDbEntity
  8
0-0
  6
JWW_DASHED1
 62
   120
370
     5
100
AcDbLine
 10
85.16915751621525
 20
-51.53166635009086
 30
0.0
 11
335.1691575162198
 21
198.4683336499133
 31
0.0
  0
LINE
  5
3EC
330
1F
100
AcDbEntity
  8
0-0
  6
JWW_DASHED1
 62
   120
370
     5
100
AcDbLine
 10
425.1691575162113
 20
288.4683336499039
 30
0.0
 11
675.1691575161988
 21
538.468333649891
 31
0.0
  0
LINE
  5
3ED
330
1F
100
AcDbEntity
  8
0-0
  6
JWW_DASHED1
 62
   120
370
     5
100
AcDbLine
 10
85.16915751621866
 20
-44.46059853680239
 30
0.0
 11
335.1691575162266
 21
205.5394014632039
 31
0.0
  0
LINE
  5
3EE
330
1F
100
AcDbEntity
  8
0-0
  6
JWW_DASHED1
 62
   120
370
     5
100
AcDbLine
 10
425.1691575162164
 20
295.5394014631953
 30
0.0
 11
675.1691575162226
 21
545.5394014632011
 31
0.0
  0
LINE
  5
3EF
330
1F
100
AcDbEntity
  8
0-0
  6
JWW_DASHED1
 62
   120
370
     5
100
AcDbLine
 10
85.1691575162323
 20
-37.38953072350498
 30
0.0
 11
335.1691575162215
 21
212.6104692764855
 31
0.0
  0
LINE
  5
3F0
330
1F
100
AcDbEntity
  8
0-0
  6
JWW_DASHED1
 62
   120
370
     5
100
AcDbLine
 10
425.169157516213
 20
302.610469276477
 30
0.0
 11
675.1691575162192
 21
552.6104692764824
 31
0.0
  0
LINE
  5
3F1
330
1F
100
AcDbEntity
  8
0-0
  6
JWW_DASHED1
 62
   120
370
     5
100
AcDbLine
 10
85.16915751623571
 20
-30.31846291021523
 30
0.0
 11
335.1691575162232
 21
219.6815370897731
 31
0.0
  0
LINE
  5
3F2
330
1F
100
AcDbEntity
  8
0-0
  6
JWW_DASHED1
 62
   120
370
     5
100
AcDbLine
 10
425.16915751623
 20
309.6815370897795
 30
0.0
 11
675.1691575162175
 21
559.6815370897671
 31
0.0
  0
LINE
  5
3F3
330
1F
100
AcDbEntity
  8
0-0
  6
JWW_DASHED1
 62
   120
370
     5
100
AcDbLine
 10
85.1691575162323
 20
-23.24739509693359
 30
0.0
 11
335.1691575162198
 21
226.7526049030548
 31
0.0
  0
LINE
  5
3F4
330
1F
100
AcDbEntity
  8
0-0
  6
JWW_DASHED1
 62
   120
370
     5
100
AcDbLine
 10
425.1691575162266
 20
316.7526049030612
 30
0.0
 11
675.1691575162141
 21
566.7526049030482
 31
0.0
  0
LINE
  5
3F5
330
1F
100
AcDbEntity
  8
0-0
  6
JWW_DASHED1
 62
   120
370
     5
100
AcDbLine
 10
85.16915751622719
 20
-16.17632728365237
 30
0.0
 11
335.1691575162164
 21
233.823672716336
 31
0.0
  0
LINE
  5
3F6
330
1F
100
AcDbEntity
  8
0-0
  6
JWW_DASHED1
 62
   120
370
     5
100
AcDbLine
 10
425.1691575162232
 20
323.8236727163423
 30
0.0
 11
675.1691575162107
 21
573.8236727163298
 31
0.0
  0
LINE
  5
3F7
330
1F
100
AcDbEntity
  8
0-0
  6
JWW_DASHED1
 62
   120
370
     5
100
AcDbLine
 10
85.16915751622378
 20
-9.105259470371152
 30
0.0
 11
335.1691575162113
 21
240.8947405296172
 31
0.0
  0
LINE
  5
3F8
330
1F
100
AcDbEntity
  8
0-0
  6
JWW_DASHED1
 62
   120
370
     5
100
AcDbLine
 10
425.1691575162181
 20
330.8947405296236
 30
0.0
 11
675.1691575162056
 21
580.8947405296111
 31
0.0
  0
LINE
  5
3F9
330
1F
100
AcDbEntity
  8
0-0
  6
JWW_DASHED1
 62
   120
370
     5
100
AcDbLine
 10
85.16915751622207
 20
-2.034191657140667
 30
0.0
 11
335.16915751623
 21
247.9658083428656
 31
0.0
  0
LINE
  5
3FA
330
1F
100
AcDbEntity
  8
0-0
  6
JWW_DASHED1
 62
   120
370
     5
100
AcDbLine
 10
425.1691575162198
 20
337.965808342857
 30
0.0
 11
675.169157516226
 21
587.9658083428625
 31
0.0
  0
LINE
  5
3FB
330
1F
100
AcDbEntity
  8
0-0
  6
JWW_DASHED1
 62
   120
370
     5
100
AcDbLine
 10
85.16915751621866
 20
5.036876156140551
 30
0.0
 11
335.1691575162249
 21
255.0368761561468
 31
0.0
  0
LINE
  5
3FC
330
1F
100
AcDbEntity
  8
0-0
  6
JWW_DASHED1
 62
   120
370
     5
100
AcDbLine
 10
425.1691575162164
 20
345.0368761561387
 30
0.0
 11
675.1691575162226
 21
595.0368761561441
 31
0.0
  0
LINE
  5
3FD
330
1F
100
AcDbEntity
  8
0-0
  6
JWW_DASHED1
 62
   120
370
     5
100
AcDbLine
 10
85.1691575162306
 20
12.10794396943797
 30
0.0
 11
335.1691575162215
 21
262.1079439694284
 31
0.0
  0
LINE
  5
3FE
330
1F
100
AcDbEntity
  8
0-0
  6
JWW_DASHED1
 62
   120
370
     5
100
AcDbLine
 10
425.169157516213
 20
352.1079439694199
 30
0.0
 11
675.1691575162175
 21
602.1079439694254
 31
0.0
  0
LINE
  5
3FF
330
1F
100
AcDbEntity
  8
0-0
  6
JWW_DASHED1
 62
   120
370
     5
100
AcDbLine
 10
85.16915751623401
 20
19.17901178272729
 30
0.0
 11
335.1691575162232
 21
269.1790117827156
 31
0.0
  0
LINE
  5
400
330
1F
100
AcDbEntity
  8
0-0
  6
JWW_DASHED1
 62
   120
370
     5
100
AcDbLine
 10
425.16915751623
 20
359.179011782722
 30
0.0
 11
675.1691575162175
 21
609.179011782709
 31
0.0
  0
LINE
  5
401
330
1F
100
AcDbEntity
  8
0-0
  6
JWW_DASHED1
 62
   120
370
     5
100
AcDbLine
 10
85.1691575162306
 20
26.2500795960085
 30
0.0
 11
335.1691575162181
 21
276.2500795959969
 31
0.0
  0
LINE
  5
402
330
1F
100
AcDbEntity
  8
0-0
  6
JWW_DASHED1
 62
   120
370
     5
100
AcDbLine
 10
425.1691575162249
 20
366.2500795960033
 30
0.0
 11
675.1691575162124
 21
616.2500795959908
 31
0.0
  0
LINE
  5
403
330
1F
100
AcDbEntity
  8
0-0
  6
JWW_DASHED1
 62
   120
370
     5
100
AcDbLine
 10
85.16915751622548
 20
33.32114740929015
 30
0.0
 11
335.1691575162147
 21
283.3211474092785
 31
0.0
  0
LINE
  5
404
330
1F
100
AcDbEntity
  8
0-0
  6
JWW_DASHED1
 62
   120
370
     5
100
AcDbLine
 10
425.1691575162198
 20
373.3211474092849
 30
0.0
 11
675.169157516209
 21
623.3211474092719
 31
0.0
  0
LINE
  5
405
330
1F
100
AcDbEntity
  8
0-0
  6
JWW_DASHED1
 62
   120
370
     5
100
AcDbLine
 10
85.16915751622207
 20
40.39221522257137
 30
0.0
 11
335.1691575162096
 21
290.3922152225597
 31
0.0
  0
LINE
  5
406
330
1F
100
AcDbEntity
  8
0-0
  6
JWW_DASHED1
 62
   120
370
     5
100
AcDbLine
 10
425.1691575162164
 20
380.3922152225661
 30
0.0
 11
675.1691575162039
 21
630.3922152225537
 31
0.0
  0
LINE
  5
407
330
1F
100
AcDbEntity
  8
0-0
  6
JWW_DASHED1
 62
   120
370
     5
100
AcDbLine
 10
85.16915751621866
 20
47.46328303585258
 30
0.0
 11
335.1691575162215
 21
297.4632830358567
 31
0.0
  0
LINE
  5
408
330
1F
100
AcDbEntity
  8
0-0
  6
JWW_DASHED1
 62
   120
370
     5
100
AcDbLine
 10
425.169157516213
 20
387.4632830358473
 30
0.0
 11
675.1691575162005
 21
637.4632830358348
 31
0.0
  0
LINE
  5
409
330
1F
100
AcDbEntity
  8
0-0
  6
JWW_DASHED1
 62
   120
370
     5
100
AcDbLine
 10
85.16915751622207
 20
54.53435084914233
 30
0.0
 11
335.1691575162283
 21
304.5343508491486
 31
0.0
  0
LINE
  5
40A
330
1F
100
AcDbEntity
  8
0-0
  6
JWW_DASHED1
 62
   120
370
     5
100
AcDbLine
 10
425.1691575162198
 20
394.5343508491401
 30
0.0
 11
675.169157516226
 21
644.5343508491454
 31
0.0
  0
LINE
  5
40B
330
1F
100
AcDbEntity
  8
0-0
  6
JWW_DASHED1
 62
   120
370
     5
100
AcDbLine
 10
85.16915751622889
 20
61.60541866238091
 30
0.0
 11
335.1691575162198
 21
311.6054186623714
 31
0.0
  0
LINE
  5
40C
330
1F
100
AcDbEntity
  8
0-0
  6
JWW_DASHED1
 62
   120
370
     5
100
AcDbLine
 10
425.1691575162113
 20
401.6054186623625
 30
0.0
 11
675.1691575162175
 21
651.6054186623683
 31
0.0
  0
LINE
  5
40D
330
1F
100
AcDbEntity
  8
0-0
  6
JWW_DASHED1
 62
   120
370
     5
100
AcDbLine
 10
85.1691575162323
 20
68.6764864756698
 30
0.0
 11
335.1691575162215
 21
318.6764864756582
 31
0.0
  0
LINE
  5
40E
330
1F
100
AcDbEntity
  8
0-0
  6
JWW_DASHED1
 62
   120
370
     5
100
AcDbLine
 10
425.1691575162266
 20
408.6764864756641
 30
0.0
 11
675.1691575162141
 21
658.6764864756516
 31
0.0
  0
LINE
  5
40F
330
1F
100
AcDbEntity
  8
0-0
  6
JWW_DASHED1
 62
   120
370
     5
100
AcDbLine
 10
85.16915751622889
 20
75.74755428895102
 30
0.0
 11
335.1691575162164
 21
325.7475542889393
 31
0.0
  0
LINE
  5
410
330
1F
100
AcDbEntity
  8
0-0
  6
JWW_DASHED1
 62
   120
370
     5
100
AcDbLine
 10
425.1691575162232
 20
415.7475542889458
 30
0.0
 11
675.1691575162107
 21
665.7475542889329
 31
0.0
  0
LINE
  5
411
330
1F
100
AcDbEntity
  8
0-0
  6
JWW_DASHED1
 62
   120
370
     5
100
AcDbLine
 10
85.16915751622548
 20
82.81862210223224
 30
0.0
 11
335.169157516213
 21
332.8186221022206
 31
0.0
  0
LINE
  5
412
330
1F
100
AcDbEntity
  8
0-0
  6
JWW_DASHED1
 62
   120
370
     5
100
AcDbLine
 10
425.1691575162198
 20
422.818622102227
 30
0.0
 11
675.1691575162073
 21
672.8186221022145
 31
0.0
  0
LINE
  5
413
330
1F
100
AcDbEntity
  8
0-0
  6
JWW_DASHED1
 62
   120
370
     5
100
AcDbLine
 10
85.16915751622037
 20
89.88968991551388
 30
0.0
 11
335.1691575162096
 21
339.8896899155022
 31
0.0
  0
LINE
  5
414
330
1F
100
AcDbEntity
  8
0-0
  6
JWW_DASHED1
 62
   120
370
     5
100
AcDbLine
 10
425.1691575162164
 20
429.8896899155086
 30
0.0
 11
675.1691575162039
 21
679.8896899154961
 31
0.0
  0
LINE
  5
415
330
1F
100
AcDbEntity
  8
0-0
  6
JWW_DASHED1
 62
   120
370
     5
100
AcDbLine
 10
85.16915751621525
 20
96.9607577287951
 30
0.0
 11
335.1691575162198
 21
346.9607577287992
 31
0.0
  0
LINE
  5
416
330
1F
100
AcDbEntity
  8
0-0
  6
JWW_DASHED1
 62
   120
370
     5
100
AcDbLine
 10
425.1691575162113
 20
436.9607577287899
 30
0.0
 11
675.1691575161988
 21
686.9607577287774
 31
0.0
  0
LINE
  5
417
330
1F
100
AcDbEntity
  8
0-0
  6
JWW_DASHED1
 62
   120
370
     5
100
AcDbLine
 10
85.16915751622207
 20
104.0318255420853
 30
0.0
 11
335.1691575162266
 21
354.0318255420915
 31
0.0
  0
LINE
  5
418
330
1F
100
AcDbEntity
  8
0-0
  6
JWW_DASHED1
 62
   120
370
     5
100
AcDbLine
 10
425.1691575162198
 20
444.031825542083
 30
0.0
 11
675.1691575162243
 21
694.0318255420884
 31
0.0
  0
LINE
  5
419
330
1F
100
AcDbEntity
  8
0-0
  6
JWW_DASHED1
 62
   120
370
     5
100
AcDbLine
 10
85.16915751621696
 20
111.1028933553665
 30
0.0
 11
335.1691575162232
 21
361.1028933553728
 31
0.0
  0
LINE
  5
41A
330
1F
100
AcDbEntity
  8
0-0
  6
JWW_DASHED1
 62
   120
370
     5
100
AcDbLine
 10
425.1691575162147
 20
451.1028933553642
 30
0.0
 11
675.1691575162209
 21
701.10289335537
 31
0.0
  0
LINE
  5
41B
330
1F
100
AcDbEntity
  8
0-0
  6
JWW_DASHED1
 62
   120
370
     5
100
AcDbLine
 10
85.16915751622889
 20
118.1739611686639
 30
0.0
 11
335.1691575162198
 21
368.1739611686544
 31
0.0
  0
LINE
  5
41C
330
1F
100
AcDbEntity
  8
0-0
  6
JWW_DASHED1
 62
   120
370
     5
100
AcDbLine
 10
425.1691575162113
 20
458.1739611686459
 30
0.0
 11
675.1691575162175
 21
708.1739611686512
 31
0.0
  0
LINE
  5
41D
330
1F
100
AcDbEntity
  8
0-0
  6
JWW_DASHED1
 62
   120
370
     5
100
AcDbLine
 10
85.16915751622719
 20
125.2450289818931
 30
0.0
 11
335.1691575162164
 21
375.2450289818814
 31
0.0
  0
LINE
  5
41E
330
1F
100
AcDbEntity
  8
0-0
  6
JWW_DASHED1
 62
   120
370
     5
100
AcDbLine
 10
425.1691575162232
 20
465.2450289818883
 30
0.0
 11
675.1691575162107
 21
715.2450289818753
 31
0.0
  0
LINE
  5
41F
330
1F
100
AcDbEntity
  8
0-0
  6
JWW_DASHED1
 62
   120
370
     5
100
AcDbLine
 10
85.16915751622207
 20
132.3160967951748
 30
0.0
 11
335.1691575162113
 21
382.3160967951631
 31
0.0
  0
LINE
  5
420
330
1F
100
AcDbEntity
  8
0-0
  6
JWW_DASHED1
 62
   120
370
     5
100
AcDbLine
 10
425.1691575162181
 20
472.3160967951695
 30
0.0
 11
675.1691575162056
 21
722.316096795157
 31
0.0
  0
LINE
  5
421
330
1F
100
AcDbEntity
  8
0-0
  6
JWW_DASHED1
 62
   120
370
     5
100
AcDbLine
 10
85.16915751621866
 20
139.387164608456
 30
0.0
 11
335.1691575162079
 21
389.3871646084443
 31
0.0
  0
LINE
  5
422
330
1F
100
AcDbEntity
  8
0-0
  6
JWW_DASHED1
 62
   120
370
     5
100
AcDbLine
 10
425.169157516213
 20
479.3871646084507
 30
0.0
 11
675.1691575162005
 21
729.3871646084382
 31
0.0
  0
LINE
  5
423
330
1F
100
AcDbEntity
  8
0-0
  6
JWW_DASHED1
 62
   120
370
     5
100
AcDbLine
 10
85.16915751621525
 20
146.4582324217376
 30
0.0
 11
335.1691575162198
 21
396.4582324217417
 31
0.0
  0
LINE
  5
424
330
1F
100
AcDbEntity
  8
0-0
  6
JWW_DASHED1
 62
   120
370
     5
100
AcDbLine
 10
425.1691575162096
 20
486.458232421732
 30
0.0
 11
675.1691575161971
 21
736.4582324217195
 31
0.0
  0
LINE
  5
425
330
1F
100
AcDbEntity
  8
0-0
  6
JWW_DASHED1
 62
   120
370
     5
100
AcDbLine
 10
85.16915751622037
 20
153.5293002350282
 30
0.0
 11
335.1691575162266
 21
403.5293002350345
 31
0.0
  0
LINE
  5
426
330
1F
100
AcDbEntity
  8
0-0
  6
JWW_DASHED1
 62
   120
370
     5
100
AcDbLine
 10
425.1691575162181
 20
493.529300235026
 30
0.0
 11
675.1691575162243
 21
743.5293002350313
 31
0.0
  0
LINE
  5
427
330
1F
100
AcDbEntity
  8
0-0
  6
JWW_DASHED1
 62
   120
370
     5
100
AcDbLine
 10
85.1691575162323
 20
160.6003680483252
 30
0.0
 11
335.1691575162232
 21
410.6003680483157
 31
0.0
  0
LINE
  5
428
330
1F
100
AcDbEntity
  8
0-0
  6
JWW_DASHED1
 62
   120
370
     5
100
AcDbLine
 10
425.169157516213
 20
500.6003680483071
 30
0.0
 11
675.1691575162192
 21
750.6003680483126
 31
0.0
  0
LINE
  5
429
330
1F
100
AcDbEntity
  8
0-0
  6
JWW_DASHED1
 62
   120
370
     5
100
AcDbLine
 10
85.16915751623401
 20
167.6714358616128
 30
0.0
 11
335.1691575162232
 21
417.6714358616016
 31
0.0
  0
LINE
  5
42A
330
1F
100
AcDbEntity
  8
0-0
  6
JWW_DASHED1
 62
   120
370
     5
100
AcDbLine
 10
425.16915751623
 20
507.671435861608
 30
0.0
 11
675.1691575162175
 21
757.6714358615955
 31
0.0
  0
LINE
  5
42B
330
1F
100
AcDbEntity
  8
0-0
  6
JWW_DASHED1
 62
   120
370
     5
100
AcDbLine
 10
85.1691575162306
 20
174.7425036748945
 30
0.0
 11
335.1691575162181
 21
424.7425036748828
 31
0.0
  0
LINE
  5
42C
330
1F
100
AcDbEntity
  8
0-0
  6
JWW_DASHED1
 62
   120
370
     5
100
AcDbLine
 10
425.1691575162249
 20
514.7425036748892
 30
0.0
 11
675.1691575162124
 21
764.7425036748767
 31
0.0
  0
LINE
  5
42D
330
1F
100
AcDbEntity
  8
0-0
  6
JWW_DASHED1
 62
   120
370
     5
100
AcDbLine
 10
85.16915751622548
 20
181.8135714881761
 30
0.0
 11
335.1691575162147
 21
431.8135714881645
 31
0.0
  0
LINE
  5
42E
330
1F
100
AcDbEntity
  8
0-0
  6
JWW_DASHED1
 62
   120
370
     5
100
AcDbLine
 10
425.1691575162198
 20
521.8135714881709
 30
0.0
 11
675.169157516209
 21
771.8135714881579
 31
0.0
  0
LINE
  5
42F
330
1F
100
AcDbEntity
  8
0-0
  6
JWW_DASHED1
 62
   120
370
     5
100
AcDbLine
 10
85.16915751621696
 20
188.8846393013985
 30
0.0
 11
335.1691575162215
 21
438.8846393014026
 31
0.0
  0
LINE
  5
430
330
1F
100
AcDbEntity
  8
0-0
  6
JWW_DASHED1
 62
   120
370
     5
100
AcDbLine
 10
425.169157516213
 20
528.8846393013932
 30
0.0
 11
675.1691575162005
 21
778.8846393013807
 31
0.0
  0
LINE
  5
431
330
1F
100
AcDbEntity
  8
0-0
  6
JWW_DASHED1
 62
   120
370
     5
100
AcDbLine
 10
85.16915751622207
 20
195.9557071146895
 30
0.0
 11
335.16915751623
 21
445.9557071146958
 31
0.0
  0
LINE
  5
432
330
1F
100
AcDbEntity
  8
0-0
  6
JWW_DASHED1
 62
   120
370
     5
100
AcDbLine
 10
425.1691575162215
 20
535.9557071146872
 30
0.0
 11
675.1691575162278
 21
785.9557071146926
 31
0.0
  0
LINE
  5
433
330
1F
100
AcDbEntity
  8
0-0
  6
JWW_DASHED1
 62
   120
370
     5
100
AcDbLine
 10
85.16915751621866
 20
203.0267749279707
 30
0.0
 11
335.1691575162266
 21
453.0267749279774
 31
0.0
  0
LINE
  5
434
330
1F
100
AcDbEntity
  8
0-0
  6
JWW_DASHED1
 62
   120
370
     5
100
AcDbLine
 10
425.1691575162164
 20
543.0267749279689
 30
0.0
 11
675.1691575162226
 21
793.0267749279743
 31
0.0
  0
LINE
  5
435
330
1F
100
AcDbEntity
  8
0-0
  6
JWW_DASHED1
 62
   120
370
     5
100
AcDbLine
 10
85.1691575162306
 20
210.0978427412682
 30
0.0
 11
335.1691575162215
 21
460.0978427412587
 31
0.0
  0
LINE
  5
436
330
1F
100
AcDbEntity
  8
0-0
  6
JWW_DASHED1
 62
   120
370
     5
100
AcDbLine
 10
425.169157516213
 20
550.0978427412501
 30
0.0
 11
675.1691575162175
 21
800.0978427412555
 31
0.0
  0
LINE
  5
437
330
1F
100
AcDbEntity
  8
0-0
  6
JWW_DASHED1
 62
   120
370
     5
100
AcDbLine
 10
85.1691575162323
 20
217.1689105545558
 30
0.0
 11
335.1691575162215
 21
467.1689105545441
 31
0.0
  0
LINE
  5
438
330
1F
100
AcDbEntity
  8
0-0
  6
JWW_DASHED1
 62
   120
370
     5
100
AcDbLine
 10
425.1691575162266
 20
557.1689105545505
 30
0.0
 11
675.1691575162141
 21
807.1689105545375
 31
0.0
  0
LINE
  5
439
330
1F
100
AcDbEntity
  8
0-0
  6
JWW_DASHED1
 62
   120
370
     5
100
AcDbLine
 10
85.16915751622889
 20
224.239978367837
 30
0.0
 11
335.1691575162164
 21
474.2399783678253
 31
0.0
  0
LINE
  5
43A
330
1F
100
AcDbEntity
  8
0-0
  6
JWW_DASHED1
 62
   120
370
     5
100
AcDbLine
 10
425.1691575162232
 20
564.2399783678318
 30
0.0
 11
675.1691575162107
 21
814.2399783678193
 31
0.0
  0
LINE
  5
43B
330
1F
100
AcDbEntity
  8
0-0
  6
JWW_DASHED1
 62
   120
370
     5
100
AcDbLine
 10
85.16915751622548
 20
231.3110461811182
 30
0.0
 11
335.169157516213
 21
481.3110461811066
 31
0.0
  0
LINE
  5
43C
330
1F
100
AcDbEntity
  8
0-0
  6
JWW_DASHED1
 62
   120
370
     5
100
AcDbLine
 10
425.1691575162198
 20
571.3110461811129
 30
0.0
 11
675.1691575162073
 21
821.3110461811009
 31
0.0
  0
LINE
  5
43D
330
1F
100
AcDbEntity
  8
0-0
  6
JWW_DASHED1
 62
   120
370
     5
100
AcDbLine
 10
85.16915751622037
 20
238.3821139943998
 30
0.0
 11
335.1691575162096
 21
488.3821139943877
 31
0.0
  0
LINE
  5
43E
330
1F
100
AcDbEntity
  8
0-0
  6
JWW_DASHED1
 62
   120
370
     5
100
AcDbLine
 10
425.1691575162164
 20
578.3821139943946
 30
0.0
 11
675.1691575162039
 21
828.382113994382
 31
0.0
  0
LINE
  5
43F
330
1F
100
AcDbEntity
  8
0-0
  6
JWW_DASHED1
 62
   120
370
     5
100
AcDbLine
 10
85.16915751621696
 20
245.4531818076811
 30
0.0
 11
335.1691575162198
 21
495.4531818076852
 31
0.0
  0
LINE
  5
440
330
1F
100
AcDbEntity
  8
0-0
  6
JWW_DASHED1
 62
   120
370
     5
100
AcDbLine
 10
425.1691575162113
 20
585.4531818076758
 30
0.0
 11
675.1691575161988
 21
835.4531818076633
 31
0.0
  0
LINE
  5
441
330
1F
100
AcDbEntity
  8
0-0
  6
JWW_DASHED1
 62
   120
370
     5
100
AcDbLine
 10
85.16915751621866
 20
252.5242496209133
 30
0.0
 11
335.1691575162249
 21
502.5242496209199
 31
0.0
  0
LINE
  5
442
330
1F
100
AcDbEntity
  8
0-0
  6
JWW_DASHED1
 62
   120
370
     5
100
AcDbLine
 10
425.1691575162164
 20
592.5242496209114
 30
0.0
 11
675.1691575162209
 21
842.5242496209172
 31
0.0
  0
LINE
  5
443
330
1F
100
AcDbEntity
  8
0-0
  6
JWW_DASHED1
 62
   120
370
     5
100
AcDbLine
 10
85.16915751622889
 20
259.5953174342106
 30
0.0
 11
335.1691575162198
 21
509.5953174342015
 31
0.0
  0
LINE
  5
444
330
1F
100
AcDbEntity
  8
0-0
  6
JWW_DASHED1
 62
   120
370
     5
100
AcDbLine
 10
425.169157516213
 20
599.595317434193
 30
0.0
 11
675.1691575162175
 21
849.5953174341985
 31
0.0
  0
LINE
  5
445
330
1F
100
AcDbEntity
  8
0-0
  6
JWW_DASHED1
 62
   120
370
     5
100
AcDbLine
 10
85.1691575162323
 20
266.6663852474978
 30
0.0
 11
335.1691575162198
 21
516.6663852474862
 31
0.0
  0
LINE
  5
446
330
1F
100
AcDbEntity
  8
0-0
  6
JWW_DASHED1
 62
   120
370
     5
100
AcDbLine
 10
425.1691575162266
 20
606.6663852474926
 30
0.0
 11
675.1691575162141
 21
856.6663852474801
 31
0.0
  0
LINE
  5
447
330
1F
100
AcDbEntity
  8
0-0
  6
JWW_DASHED1
 62
   120
370
     5
100
AcDbLine
 10
85.16915751622719
 20
273.7374530607795
 30
0.0
 11
335.1691575162164
 21
523.7374530607674
 31
0.0
  0
LINE
  5
448
330
1F
100
AcDbEntity
  8
0-0
  6
JWW_DASHED1
 62
   120
370
     5
100
AcDbLine
 10
425.1691575162232
 20
613.7374530607742
 30
0.0
 11
675.1691575162107
 21
863.7374530607613
 31
0.0
  0
LINE
  5
449
330
1F
100
AcDbEntity
  8
0-0
  6
JWW_DASHED1
 62
   120
370
     5
100
AcDbLine
 10
85.16915751622207
 20
280.8085208740607
 30
0.0
 11
335.1691575162113
 21
530.808520874049
 31
0.0
  0
LINE
  5
44A
330
1F
100
AcDbEntity
  8
0-0
  6
JWW_DASHED1
 62
   120
370
     5
100
AcDbLine
 10
425.1691575162181
 20
620.8085208740555
 30
0.0
 11
675.1691575162056
 21
870.808520874043
 31
0.0
  0
LINE
  5
44B
330
1F
100
AcDbEntity
  8
0-0
  6
JWW_DASHED1
 62
   120
370
     5
100
AcDbLine
 10
85.16915751621866
 20
287.8795886873423
 30
0.0
 11
335.1691575162079
 21
537.8795886873303
 31
0.0
  0
LINE
  5
44C
330
1F
100
AcDbEntity
  8
0-0
  6
JWW_DASHED1
 62
   120
370
     5
100
AcDbLine
 10
425.169157516213
 20
627.8795886873371
 30
0.0
 11
673.5512561659476
 21
876.2616873370705
 31
0.0
  0
LINE
  5
44D
330
1F
100
AcDbEntity
  8
0-0
  6
JWW_DASHED1
 62
   120
370
     5
100
AcDbLine
 10
85.16915751621525
 20
294.9506565006236
 30
0.0
 11
335.1691575162198
 21
544.9506565006272
 31
0.0
  0
LINE
  5
44E
330
1F
100
AcDbEntity
  8
0-0
  6
JWW_DASHED1
 62
   120
370
     5
100
AcDbLine
 10
425.1691575162096
 20
634.9506565006184
 30
0.0
 11
666.4801883526656
 21
876.2616873370747
 31
0.0
  0
LINE
  5
44F
330
1F
100
AcDbEntity
  8
0-0
  6
JWW_DASHED1
 62
   120
370
     5
100
AcDbLine
 10
85.16915751622207
 20
302.0217243139155
 30
0.0
 11
335.1691575162283
 21
552.0217243139217
 31
0.0
  0
LINE
  5
450
330
1F
100
AcDbEntity
  8
0-0
  6
JWW_DASHED1
 62
   120
370
     5
100
AcDbLine
 10
425.1691575162198
 20
642.0217243139132
 30
0.0
 11
659.4091205393545
 21
876.2616873370474
 31
0.0
  0
LINE
  5
451
330
1F
100
AcDbEntity
  8
0-0
  6
JWW_DASHED1
 62
   120
370
     5
100
AcDbLine
 10
85.16915751621696
 20
309.0927921271967
 30
0.0
 11
335.1691575162232
 21
559.0927921272033
 31
0.0
  0
LINE
  5
452
330
1F
100
AcDbEntity
  8
0-0
  6
JWW_DASHED1
 62
   120
370
     5
100
AcDbLine
 10
425.1691575162147
 20
649.0927921271948
 30
0.0
 11
652.3380527260724
 21
876.2616873370517
 31
0.0
  0
LINE
  5
453
330
1F
100
AcDbEntity
  8
0-0
  6
JWW_DASHED1
 62
   120
370
     5
100
AcDbLine
 10
85.1691575162306
 20
316.1638599404404
 30
0.0
 11
335.1691575162181
 21
566.1638599404287
 31
0.0
  0
LINE
  5
454
330
1F
100
AcDbEntity
  8
0-0
  6
JWW_DASHED1
 62
   120
370
     5
100
AcDbLine
 10
425.1691575162249
 20
656.1638599404351
 30
0.0
 11
645.2669849128483
 21
876.2616873370586
 31
0.0
  0
LINE
  5
455
330
1F
100
AcDbEntity
  8
0-0
  6
JWW_DASHED1
 62
   120
370
     5
100
AcDbLine
 10
85.16915751622548
 20
323.2349277537216
 30
0.0
 11
335.1691575162147
 21
573.2349277537099
 31
0.0
  0
LINE
  5
456
330
1F
100
AcDbEntity
  8
0-0
  6
JWW_DASHED1
 62
   120
370
     5
100
AcDbLine
 10
425.1691575162198
 20
663.2349277537163
 30
0.0
 11
638.1959170995663
 21
876.2616873370623
 31
0.0
  0
LINE
  5
457
330
1F
100
AcDbEntity
  8
0-0
  6
JWW_DASHED1
 62
   120
370
     5
100
AcDbLine
 10
85.16915751622207
 20
330.3059955670033
 30
0.0
 11
335.1691575162096
 21
580.3059955669916
 31
0.0
  0
LINE
  5
458
330
1F
100
AcDbEntity
  8
0-0
  6
JWW_DASHED1
 62
   120
370
     5
100
AcDbLine
 10
425.1691575162164
 20
670.3059955669976
 30
0.0
 11
631.1248492862859
 21
876.2616873370662
 31
0.0
  0
LINE
  5
459
330
1F
100
AcDbEntity
  8
0-0
  6
JWW_DASHED1
 62
   120
370
     5
100
AcDbLine
 10
85.16915751621866
 20
337.3770633802844
 30
0.0
 11
335.1691575162062
 21
587.3770633802728
 31
0.0
  0
LINE
  5
45A
330
1F
100
AcDbEntity
  8
0-0
  6
JWW_DASHED1
 62
   120
370
     5
100
AcDbLine
 10
425.169157516213
 20
677.3770633802792
 30
0.0
 11
624.0537814730038
 21
876.2616873370696
 31
0.0
  0
LINE
  5
45B
330
1F
100
AcDbEntity
  8
0-0
  6
JWW_DASHED1
 62
   120
370
     5
100
AcDbLine
 10
85.16915751621355
 20
344.4481311935661
 30
0.0
 11
335.1691575162181
 21
594.4481311935702
 31
0.0
  0
LINE
  5
45C
330
1F
100
AcDbEntity
  8
0-0
  6
JWW_DASHED1
 62
   120
370
     5
100
AcDbLine
 10
425.1691575162096
 20
684.4481311935608
 30
0.0
 11
616.9827136597218
 21
876.2616873370735
 31
0.0
  0
LINE
  5
45D
330
1F
100
AcDbEntity
  8
0-0
  6
JWW_DASHED1
 62
   120
370
     5
100
AcDbLine
 10
85.16915751622037
 20
351.5191990068584
 30
0.0
 11
335.1691575162266
 21
601.5191990068647
 31
0.0
  0
LINE
  5
45E
330
1F
100
AcDbEntity
  8
0-0
  6
JWW_DASHED1
 62
   120
370
     5
100
AcDbLine
 10
425.1691575162181
 20
691.5191990068561
 30
0.0
 11
609.9116458464124
 21
876.26168733705
 31
0.0
  0
LINE
  5
45F
330
1F
100
AcDbEntity
  8
0-0
  6
JWW_DASHED1
 62
   120
370
     5
100
AcDbLine
 10
85.1691575162323
 20
358.5902668201554
 30
0.0
 11
335.1691575162232
 21
608.5902668201463
 31
0.0
  0
LINE
  5
460
330
1F
100
AcDbEntity
  8
0-0
  6
JWW_DASHED1
 62
   120
370
     5
100
AcDbLine
 10
425.1691575162147
 20
698.5902668201378
 30
0.0
 11
602.8405780331303
 21
876.2616873370539
 31
0.0
  0
LINE
  5
461
330
1F
100
AcDbEntity
  8
0-0
  6
JWW_DASHED1
 62
   120
370
     5
100
AcDbLine
 10
85.1691575162323
 20
365.6613346334417
 30
0.0
 11
335.1691575162215
 21
615.6613346334301
 31
0.0
  0
LINE
  5
462
330
1F
100
AcDbEntity
  8
0-0
  6
JWW_DASHED1
 62
   120
370
     5
100
AcDbLine
 10
425.1691575162266
 20
705.661334633436
 30
0.0
 11
595.7695102198448
 21
876.2616873370534
 31
0.0
  0
LINE
  5
463
330
1F
100
AcDbEntity
  8
0-0
  6
JWW_DASHED1
 62
   120
370
     5
100
AcDbLine
 10
85.16915751622889
 20
372.732402446723
 30
0.0
 11
335.1691575162164
 21
622.7324024467113
 31
0.0
  0
LINE
  5
464
330
1F
100
AcDbEntity
  8
0-0
  6
JWW_DASHED1
 62
   120
370
     5
100
AcDbLine
 10
425.1691575162232
 20
712.7324024467177
 30
0.0
 11
588.6984424065628
 21
876.2616873370569
 31
0.0
  0
LINE
  5
465
330
1F
100
AcDbEntity
  8
0-0
  6
JWW_DASHED1
 62
   120
370
     5
100
AcDbLine
 10
85.16915751622548
 20
379.8034702600046
 30
0.0
 11
335.169157516213
 21
629.803470259993
 31
0.0
  0
LINE
  5
466
330
1F
100
AcDbEntity
  8
0-0
  6
JWW_DASHED1
 62
   120
370
     5
100
AcDbLine
 10
425.1691575162198
 20
719.8034702599994
 30
0.0
 11
581.6273745932807
 21
876.2616873370611
 31
0.0
  0
LINE
  5
467
330
1F
100
AcDbEntity
  8
0-0
  6
JWW_DASHED1
 62
   120
370
     5
100
AcDbLine
 10
85.16915751621525
 20
386.8745380732265
 30
0.0
 11
335.1691575162045
 21
636.8745380732153
 31
0.0
  0
LINE
  5
468
330
1F
100
AcDbEntity
  8
0-0
  6
JWW_DASHED1
 62
   120
370
     5
100
AcDbLine
 10
425.1691575162113
 20
726.8745380732213
 30
0.0
 11
574.5563067800583
 21
876.2616873370688
 31
0.0
  0
LINE
  5
469
330
1F
100
AcDbEntity
  8
0-0
  6
JWW_DASHED1
 62
   120
370
     5
100
AcDbLine
 10
85.16915751621184
 20
393.9456058865082
 30
0.0
 11
335.1691575162164
 21
643.9456058865123
 31
0.0
  0
LINE
  5
46A
330
1F
100
AcDbEntity
  8
0-0
  6
JWW_DASHED1
 62
   120
370
     5
100
AcDbLine
 10
425.1691575162062
 20
733.9456058865029
 30
0.0
 11
567.4852389667677
 21
876.2616873370637
 31
0.0
  0
LINE
  5
46B
330
1F
100
AcDbEntity
  8
0-0
  6
JWW_DASHED1
 62
   120
370
     5
100
AcDbLine
 10
85.16915751621866
 20
401.0166736998009
 30
0.0
 11
335.1691575162266
 21
651.0166736998076
 31
0.0
  0
LINE
  5
46C
330
1F
100
AcDbEntity
  8
0-0
  6
JWW_DASHED1
 62
   120
370
     5
100
AcDbLine
 10
425.1691575162164
 20
741.0166736997986
 30
0.0
 11
560.4141711534703
 21
876.2616873370521
 31
0.0
  0
LINE
  5
46D
330
1F
100
AcDbEntity
  8
0-0
  6
JWW_DASHED1
 62
   120
370
     5
100
AcDbLine
 10
85.1691575162323
 20
408.0877415130983
 30
0.0
 11
335.1691575162215
 21
658.0877415130888
 31
0.0
  0
LINE
  5
46E
330
1F
100
AcDbEntity
  8
0-0
  6
JWW_DASHED1
 62
   120
370
     5
100
AcDbLine
 10
425.169157516213
 20
748.0877415130803
 30
0.0
 11
553.3431033401899
 21
876.2616873370564
 31
0.0
  0
LINE
  5
46F
330
1F
100
AcDbEntity
  8
0-0
  6
JWW_DASHED1
 62
   120
370
     5
100
AcDbLine
 10
85.1691575162323
 20
415.1588093263838
 30
0.0
 11
335.1691575162198
 21
665.1588093263722
 31
0.0
  0
LINE
  5
470
330
1F
100
AcDbEntity
  8
0-0
  6
JWW_DASHED1
 62
   120
370
     5
100
AcDbLine
 10
425.1691575162266
 20
755.158809326379
 30
0.0
 11
546.272035526901
 21
876.2616873370525
 31
0.0
  0
LINE
  5
471
330
1F
100
AcDbEntity
  8
0-0
  6
JWW_DASHED1
 62
   120
370
     5
100
AcDbLine
 10
85.16915751622719
 20
422.2298771396651
 30
0.0
 11
335.1691575162164
 21
672.2298771396538
 31
0.0
  0
LINE
  5
472
330
1F
100
AcDbEntity
  8
0-0
  6
JWW_DASHED1
 62
   120
370
     5
100
AcDbLine
 10
425.1691575162232
 20
762.2298771396597
 30
0.0
 11
539.200967713619
 21
876.261687337056
 31
0.0
  0
LINE
  5
473
330
1F
100
AcDbEntity
  8
0-0
  6
JWW_DASHED1
 62
   120
370
     5
100
AcDbLine
 10
85.16915751622378
 20
429.3009449529467
 30
0.0
 11
335.1691575162113
 21
679.300944952935
 31
0.0
  0
LINE
  5
474
330
1F
100
AcDbEntity
  8
0-0
  6
JWW_DASHED1
 62
   120
370
     5
100
AcDbLine
 10
425.1691575162181
 20
769.3009449529414
 30
0.0
 11
532.1298999003369
 21
876.2616873370603
 31
0.0
  0
LINE
  5
475
330
1F
100
AcDbEntity
  8
0-0
  6
JWW_DASHED1
 62
   120
370
     5
100
AcDbLine
 10
85.16915751621866
 20
436.3720127662283
 30
0.0
 11
335.1691575162079
 21
686.3720127662167
 31
0.0
  0
LINE
  5
476
330
1F
100
AcDbEntity
  8
0-0
  6
JWW_DASHED1
 62
   120
370
     5
100
AcDbLine
 10
425.169157516213
 20
776.3720127662226
 30
0.0
 11
525.0588320870548
 21
876.2616873370637
 31
0.0
  0
LINE
  5
477
330
1F
100
AcDbEntity
  8
0-0
  6
JWW_DASHED1
 62
   120
370
     5
100
AcDbLine
 10
85.16915751621525
 20
443.4430805795096
 30
0.0
 11
335.1691575162198
 21
693.4430805795137
 31
0.0
  0
LINE
  5
478
330
1F
100
AcDbEntity
  8
0-0
  6
JWW_DASHED1
 62
   120
370
     5
100
AcDbLine
 10
425.1691575162096
 20
783.4430805795043
 30
0.0
 11
517.9877642737728
 21
876.2616873370675
 31
0.0
  0
LINE
  5
479
330
1F
100
AcDbEntity
  8
0-0
  6
JWW_DASHED1
 62
   120
370
     5
100
AcDbLine
 10
85.16915751621866
 20
450.5141483927439
 30
0.0
 11
335.1691575162249
 21
700.5141483927501
 31
0.0
  0
LINE
  5
47A
330
1F
100
AcDbEntity
  8
0-0
  6
JWW_DASHED1
 62
   120
370
     5
100
AcDbLine
 10
425.1691575162164
 20
790.5141483927416
 30
0.0
 11
510.9166964605282
 21
876.2616873370542
 31
0.0
  0
LINE
  5
47B
330
1F
100
AcDbEntity
  8
0-0
  6
JWW_DASHED1
 62
   120
370
     5
100
AcDbLine
 10
85.1691575162306
 20
457.5852162060413
 30
0.0
 11
335.1691575162215
 21
707.5852162060318
 31
0.0
  0
LINE
  5
47C
330
1F
100
AcDbEntity
  8
0-0
  6
JWW_DASHED1
 62
   120
370
     5
100
AcDbLine
 10
425.169157516213
 20
797.5852162060232
 30
0.0
 11
503.8456286472478
 21
876.2616873370586
 31
0.0
  0
LINE
  5
47D
330
1F
100
AcDbEntity
  8
0-0
  6
JWW_DASHED1
 62
   120
370
     5
100
AcDbLine
 10
85.1691575162306
 20
464.6562840193263
 30
0.0
 11
335.1691575162181
 21
714.6562840193146
 31
0.0
  0
LINE
  5
47E
330
1F
100
AcDbEntity
  8
0-0
  6
JWW_DASHED1
 62
   120
370
     5
100
AcDbLine
 10
425.1691575162249
 20
804.6562840193211
 30
0.0
 11
496.7745608339555
 21
876.2616873370517
 31
0.0
  0
LINE
  5
47F
330
1F
100
AcDbEntity
  8
0-0
  6
JWW_DASHED1
 62
   120
370
     5
100
AcDbLine
 10
85.16915751622548
 20
471.7273518326076
 30
0.0
 11
335.1691575162147
 21
721.7273518325959
 31
0.0
  0
LINE
  5
480
330
1F
100
AcDbEntity
  8
0-0
  6
JWW_DASHED1
 62
   120
370
     5
100
AcDbLine
 10
425.1691575162198
 20
811.7273518326023
 30
0.0
 11
489.7034930206735
 21
876.2616873370552
 31
0.0
  0
LINE
  5
481
330
1F
100
AcDbEntity
  8
0-0
  6
JWW_DASHED1
 62
   120
370
     5
100
AcDbLine
 10
85.16915751622207
 20
478.7984196458892
 30
0.0
 11
335.1691575162096
 21
728.7984196458775
 31
0.0
  0
LINE
  5
482
330
1F
100
AcDbEntity
  8
0-0
  6
JWW_DASHED1
 62
   120
370
     5
100
AcDbLine
 10
425.1691575162164
 20
818.7984196458835
 30
0.0
 11
482.6324252073931
 21
876.2616873370594
 31
0.0
  0
LINE
  5
483
330
1F
100
AcDbEntity
  8
0-0
  6
JWW_DASHED1
 62
   120
370
     5
100
AcDbLine
 10
85.16915751621866
 20
485.8694874591704
 30
0.0
 11
335.1691575162062
 21
735.8694874591588
 31
0.0
  0
LINE
  5
484
330
1F
100
AcDbEntity
  8
0-0
  6
JWW_DASHED1
 62
   120
370
     5
100
AcDbLine
 10
425.169157516213
 20
825.8694874591652
 30
0.0
 11
475.561357394111
 21
876.2616873370628
 31
0.0
  0
LINE
  5
485
330
1F
100
AcDbEntity
  8
0-0
  6
JWW_DASHED1
 62
   120
370
     5
100
AcDbLine
 10
85.16915751621355
 20
492.9405552724517
 30
0.0
 11
335.1691575162181
 21
742.9405552724562
 31
0.0
  0
LINE
  5
486
330
1F
100
AcDbEntity
  8
0-0
  6
JWW_DASHED1
 62
   120
370
     5
100
AcDbLine
 10
425.1691575162096
 20
832.9405552724463
 30
0.0
 11
468.490289580829
 21
876.2616873370666
 31
0.0
  0
LINE
  5
487
330
1F
100
AcDbEntity
  8
0-0
  6
JWW_DASHED1
 62
   120
370
     5
100
AcDbLine
 10
85.16915751622207
 20
500.0116230857457
 30
0.0
 11
335.1691575162283
 21
750.0116230857519
 31
0.0
  0
LINE
  5
488
330
1F
100
AcDbEntity
  8
0-0
  6
JWW_DASHED1
 62
   120
370
     5
100
AcDbLine
 10
425.1691575162198
 20
840.0116230857434
 30
0.0
 11
461.4192217675298
 21
876.2616873370521
 31
0.0
  0
LINE
  5
489
330
1F
100
AcDbEntity
  8
0-0
  6
JWW_DASHED1
 62
   120
370
     5
100
AcDbLine
 10
85.16915751621866
 20
507.0826908990268
 30
0.0
 11
335.1691575162232
 21
757.0826908990331
 31
0.0
  0
LINE
  5
48A
330
1F
100
AcDbEntity
  8
0-0
  6
JWW_DASHED1
 62
   120
370
     5
100
AcDbLine
 10
425.1691575162164
 20
847.0826908990246
 30
0.0
 11
454.3481539542478
 21
876.2616873370564
 31
0.0
  0
LINE
  5
48B
330
1F
100
AcDbEntity
  8
0-0
  6
JWW_DASHED1
 62
   120
370
     5
100
AcDbLine
 10
85.16915751622889
 20
514.1537587122689
 30
0.0
 11
335.1691575162164
 21
764.1537587122568
 31
0.0
  0
LINE
  5
48C
330
1F
100
AcDbEntity
  8
0-0
  6
JWW_DASHED1
 62
   120
370
     5
100
AcDbLine
 10
425.1691575162232
 20
854.1537587122632
 30
0.0
 11
447.27708614101
 21
876.2616873370508
 31
0.0
  0
LINE
  5
48D
330
1F
100
AcDbEntity
  8
0-0
  6
JWW_DASHED1
 62
   120
370
     5
100
AcDbLine
 10
85.16915751622548
 20
521.22482652555
 30
0.0
 11
335.169157516213
 21
771.2248265255384
 31
0.0
  0
LINE
  5
48E
330
1F
100
AcDbEntity
  8
0-0
  6
JWW_DASHED1
 62
   120
370
     5
100
AcDbLine
 10
425.1691575162198
 20
861.2248265255448
 30
0.0
 11
440.2060183277297
 21
876.2616873370542
 31
0.0
  0
LINE
  5
48F
330
1F
100
AcDbEntity
  8
0-0
  6
JWW_DASHED1
 62
   120
370
     5
100
AcDbLine
 10
85.16915751622037
 20
528.2958943388317
 30
0.0
 11
335.1691575162096
 21
778.2958943388196
 31
0.0
  0
LINE
  5
490
330
1F
100
AcDbEntity
  8
0-0
  6
JWW_DASHED1
 62
   120
370
     5
100
AcDbLine
 10
425.1691575162164
 20
868.295894338826
 30
0.0
 11
433.1349505144476
 21
876.2616873370581
 31
0.0
  0
LINE
  5
491
330
1F
100
AcDbEntity
  8
0-0
  6
JWW_DASHED1
 62
   120
370
     5
100
AcDbLine
 10
85.16915751621525
 20
535.3669621521129
 30
0.0
 11
335.1691575162045
 21
785.3669621521009
 31
0.0
  0
LINE
  5
492
330
1F
100
AcDbEntity
  8
0-0
  6
JWW_DASHED1
 62
   120
370
     5
100
AcDbLine
 10
425.1691575162113
 20
875.3669621521072
 30
0.0
 11
426.0638827011655
 21
876.261687337062
 31
0.0
  0
LINE
  5
493
330
1F
100
AcDbEntity
  8
0-0
  6
JWW_DASHED1
 62
   120
370
     5
100
AcDbLine
 10
85.16915751621184
 20
542.4380299653942
 30
0.0
 11
335.1691575162164
 21
792.4380299653983
 31
0.0
  0
LINE
  5
494
330
1F
100
AcDbEntity
  8
0-0
  6
JWW_DASHED1
 62
   120
370
     5
100
AcDbLine
 10
85.16915751622207
 20
549.5090977786886
 30
0.0
 11
335.1691575162266
 21
799.5090977786948
 31
0.0
  0
LINE
  5
495
330
1F
100
AcDbEntity
  8
0-0
  6
JWW_DASHED1
 62
   120
370
     5
100
AcDbLine
 10
85.16915751621696
 20
556.5801655919698
 30
0.0
 11
335.1691575162232
 21
806.5801655919761
 31
0.0
  0
LINE
  5
496
330
1F
100
AcDbEntity
  8
0-0
  6
JWW_DASHED1
 62
   120
370
     5
100
AcDbLine
 10
85.16915751622889
 20
563.6512334052672
 30
0.0
 11
335.1691575162198
 21
813.6512334052577
 31
0.0
  0
LINE
  5
497
330
1F
100
AcDbEntity
  8
0-0
  6
JWW_DASHED1
 62
   120
370
     5
100
AcDbLine
 10
85.16915751622719
 20
570.722301218551
 30
0.0
 11
335.1691575162164
 21
820.7223012185393
 31
0.0
  0
LINE
  5
498
330
1F
100
AcDbEntity
  8
0-0
  6
JWW_DASHED1
 62
   120
370
     5
100
AcDbLine
 10
85.16915751621866
 20
577.7933690317739
 30
0.0
 11
335.1691575162079
 21
827.7933690317622
 31
0.0
  0
LINE
  5
499
330
1F
100
AcDbEntity
  8
0-0
  6
JWW_DASHED1
 62
   120
370
     5
100
AcDbLine
 10
85.16915751621525
 20
584.8644368450555
 30
0.0
 11
335.1691575162027
 21
834.8644368450438
 31
0.0
  0
LINE
  5
49A
330
1F
100
AcDbEntity
  8
0-0
  6
JWW_DASHED1
 62
   120
370
     5
100
AcDbLine
 10
85.16915751621184
 20
591.9355046583366
 30
0.0
 11
335.1691575162147
 21
841.9355046583407
 31
0.0
  0
LINE
  5
49B
330
1F
100
AcDbEntity
  8
0-0
  6
JWW_DASHED1
 62
   120
370
     5
100
AcDbLine
 10
85.16915751622037
 20
599.0065724716311
 30
0.0
 11
335.1691575162266
 21
849.0065724716374
 31
0.0
  0
LINE
  5
49C
330
1F
100
AcDbEntity
  8
0-0
  6
JWW_DASHED1
 62
   120
370
     5
100
AcDbLine
 10
85.1691575162323
 20
606.0776402849281
 30
0.0
 11
335.1691575162232
 21
856.077640284919
 31
0.0
  0
LINE
  5
49D
330
1F
100
AcDbEntity
  8
0-0
  6
JWW_DASHED1
 62
   120
370
     5
100
AcDbLine
 10
85.1691575162306
 20
613.1487080982123
 30
0.0
 11
335.1691575162181
 21
863.1487080982006
 31
0.0
  0
LINE
  5
49E
330
1F
100
AcDbEntity
  8
0-0
  6
JWW_DASHED1
 62
   120
370
     5
100
AcDbLine
 10
85.16915751622548
 20
620.2197759114939
 30
0.0
 11
335.1691575162147
 21
870.2197759114823
 31
0.0
  0
LINE
  5
49F
330
1F
100
AcDbEntity
  8
0-0
  6
JWW_DASHED1
 62
   120
370
     5
100
AcDbLine
 10
85.16915751622207
 20
627.2908437247752
 30
0.0
 11
334.1400011285106
 21
876.2616873370628
 31
0.0
  0
LINE
  5
4A0
330
1F
100
AcDbEntity
  8
0-0
  6
JWW_DASHED1
 62
   120
370
     5
100
AcDbLine
 10
85.16915751621866
 20
634.3619115380563
 30
0.0
 11
327.0689333152285
 21
876.2616873370666
 31
0.0
  0
LINE
  5
4A1
330
1F
100
AcDbEntity
  8
0-0
  6
JWW_DASHED1
 62
   120
370
     5
100
AcDbLine
 10
85.16915751622207
 20
641.4329793512928
 30
0.0
 11
319.9978655019737
 21
876.261687337044
 31
0.0
  0
LINE
  5
4A2
330
1F
100
AcDbEntity
  8
0-0
  6
JWW_DASHED1
 62
   120
370
     5
100
AcDbLine
 10
85.16915751621866
 20
648.5040471645741
 30
0.0
 11
312.9267976886933
 21
876.2616873370483
 31
0.0
  0
LINE
  5
4A3
330
1F
100
AcDbEntity
  8
0-0
  6
JWW_DASHED1
 62
   120
370
     5
100
AcDbLine
 10
85.1691575162306
 20
655.5751149778714
 30
0.0
 11
305.8557298754096
 21
876.2616873370505
 31
0.0
  0
LINE
  5
4A4
330
1F
100
AcDbEntity
  8
0-0
  6
JWW_DASHED1
 62
   120
370
     5
100
AcDbLine
 10
85.16915751622889
 20
662.6461827911548
 30
0.0
 11
298.7846620621275
 21
876.2616873370542
 31
0.0
  0
LINE
  5
4A5
330
1F
100
AcDbEntity
  8
0-0
  6
JWW_DASHED1
 62
   120
370
     5
100
AcDbLine
 10
85.16915751622548
 20
669.717250604436
 30
0.0
 11
291.7135942488471
 21
876.2616873370581
 31
0.0
  0
LINE
  5
4A6
330
1F
100
AcDbEntity
  8
0-0
  6
JWW_DASHED1
 62
   120
370
     5
100
AcDbLine
 10
85.16915751622037
 20
676.7883184177176
 30
0.0
 11
284.6425264355651
 21
876.261687337062
 31
0.0
  0
LINE
  5
4A7
330
1F
100
AcDbEntity
  8
0-0
  6
JWW_DASHED1
 62
   120
370
     5
100
AcDbLine
 10
85.16915751621696
 20
683.8593862309989
 30
0.0
 11
277.571458622283
 21
876.2616873370654
 31
0.0
  0
LINE
  5
4A8
330
1F
100
AcDbEntity
  8
0-0
  6
JWW_DASHED1
 62
   120
370
     5
100
AcDbLine
 10
85.16915751621184
 20
690.9304540442802
 30
0.0
 11
270.500390808989
 21
876.2616873370577
 31
0.0
  0
LINE
  5
4A9
330
1F
100
AcDbEntity
  8
0-0
  6
JWW_DASHED1
 62
   120
370
     5
100
AcDbLine
 10
85.16915751622207
 20
698.0015218575759
 30
0.0
 11
263.4293229956933
 21
876.2616873370457
 31
0.0
  0
LINE
  5
4AA
330
1F
100
AcDbEntity
  8
0-0
  6
JWW_DASHED1
 62
   120
370
     5
100
AcDbLine
 10
85.1691575162323
 20
705.0725896708439
 30
0.0
 11
256.3582551824351
 21
876.2616873370474
 31
0.0
  0
LINE
  5
4AB
330
1F
100
AcDbEntity
  8
0-0
  6
JWW_DASHED1
 62
   120
370
     5
100
AcDbLine
 10
85.16915751622719
 20
712.1436574840973
 30
0.0
 11
249.2871873691837
 21
876.2616873370534
 31
0.0
  0
LINE
  5
4AC
330
1F
100
AcDbEntity
  8
0-0
  6
JWW_DASHED1
 62
   120
370
     5
100
AcDbLine
 10
85.16915751622207
 20
719.2147252973785
 30
0.0
 11
242.2161195559016
 21
876.2616873370569
 31
0.0
  0
LINE
  5
4AD
330
1F
100
AcDbEntity
  8
0-0
  6
JWW_DASHED1
 62
   120
370
     5
100
AcDbLine
 10
85.16915751621866
 20
726.2857931106598
 30
0.0
 11
235.1450517426196
 21
876.2616873370607
 31
0.0
  0
LINE
  5
4AE
330
1F
100
AcDbEntity
  8
0-0
  6
JWW_DASHED1
 62
   120
370
     5
100
AcDbLine
 10
85.16915751621525
 20
733.3568609239414
 30
0.0
 11
228.0739839293375
 21
876.2616873370645
 31
0.0
  0
LINE
  5
4AF
330
1F
100
AcDbEntity
  8
0-0
  6
JWW_DASHED1
 62
   120
370
     5
100
AcDbLine
 10
85.16915751621184
 20
740.4279287372226
 30
0.0
 11
221.0029161160486
 21
876.2616873370598
 31
0.0
  0
LINE
  5
4B0
330
1F
100
AcDbEntity
  8
0-0
  6
JWW_DASHED1
 62
   120
370
     5
100
AcDbLine
 10
85.16915751622207
 20
747.4989965505183
 30
0.0
 11
213.9318483027512
 21
876.2616873370483
 31
0.0
  0
LINE
  5
4B1
330
1F
100
AcDbEntity
  8
0-0
  6
JWW_DASHED1
 62
   120
370
     5
100
AcDbLine
 10
85.16915751621696
 20
754.5700643637999
 30
0.0
 11
206.8607804894708
 21
876.2616873370525
 31
0.0
  0
LINE
  5
4B2
330
1F
100
AcDbEntity
  8
0-0
  6
JWW_DASHED1
 62
   120
370
     5
100
AcDbLine
 10
85.16915751622889
 20
761.641132177097
 30
0.0
 11
199.7897126761802
 21
876.2616873370479
 31
0.0
  0
LINE
  5
4B3
330
1F
100
AcDbEntity
  8
0-0
  6
JWW_DASHED1
 62
   120
370
     5
100
AcDbLine
 10
85.16915751622378
 20
768.7121999903501
 30
0.0
 11
192.7186448629271
 21
876.2616873370539
 31
0.0
  0
LINE
  5
4B4
330
1F
100
AcDbEntity
  8
0-0
  6
JWW_DASHED1
 62
   120
370
     5
100
AcDbLine
 10
85.16915751621696
 20
775.7832678036023
 30
0.0
 11
185.6475770496758
 21
876.2616873370598
 31
0.0
  0
LINE
  5
4B5
330
1F
100
AcDbEntity
  8
0-0
  6
JWW_DASHED1
 62
   120
370
     5
100
AcDbLine
 10
85.16915751621355
 20
782.8543356168835
 30
0.0
 11
178.5765092363937
 21
876.2616873370637
 31
0.0
  0
LINE
  5
4B6
330
1F
100
AcDbEntity
  8
0-0
  6
JWW_DASHED1
 62
   120
370
     5
100
AcDbLine
 10
85.16915751621013
 20
789.9254034301651
 30
0.0
 11
171.5054414231065
 21
876.261687337062
 31
0.0
  0
LINE
  5
4B7
330
1F
100
AcDbEntity
  8
0-0
  6
JWW_DASHED1
 62
   120
370
     5
100
AcDbLine
 10
85.16915751622037
 20
796.9964712434613
 30
0.0
 11
164.4343736098091
 21
876.26168733705
 31
0.0
  0
LINE
  5
4B8
330
1F
100
AcDbEntity
  8
0-0
  6
JWW_DASHED1
 62
   120
370
     5
100
AcDbLine
 10
85.1691575162323
 20
804.0675390567587
 30
0.0
 11
157.3633057965168
 21
876.2616873370432
 31
0.0
  0
LINE
  5
4B9
330
1F
100
AcDbEntity
  8
0-0
  6
JWW_DASHED1
 62
   120
370
     5
100
AcDbLine
 10
85.16915751622889
 20
811.1386068700408
 30
0.0
 11
150.2922379832347
 21
876.2616873370471
 31
0.0
  0
LINE
  5
4BA
330
1F
100
AcDbEntity
  8
0-0
  6
JWW_DASHED1
 62
   120
370
     5
100
AcDbLine
 10
85.16915751622548
 20
818.209674683322
 30
0.0
 11
143.2211701699526
 21
876.2616873370508
 31
0.0
  0
LINE
  5
4BB
330
1F
100
AcDbEntity
  8
0-0
  6
JWW_DASHED1
 62
   120
370
     5
100
AcDbLine
 10
85.16915751622037
 20
825.2807424966032
 30
0.0
 11
136.1501023566706
 21
876.2616873370547
 31
0.0
  0
LINE
  5
4BC
330
1F
100
AcDbEntity
  8
0-0
  6
JWW_DASHED1
 62
   120
370
     5
100
AcDbLine
 10
85.16915751621525
 20
832.3518103098554
 30
0.0
 11
129.0790345434158
 21
876.2616873370577
 31
0.0
  0
LINE
  5
4BD
330
1F
100
AcDbEntity
  8
0-0
  6
JWW_DASHED1
 62
   120
370
     5
100
AcDbLine
 10
85.16915751622378
 20
839.422878123123
 30
0.0
 11
122.0079667301491
 21
876.2616873370483
 31
0.0
  0
LINE
  5
4BE
330
1F
100
AcDbEntity
  8
0-0
  6
JWW_DASHED1
 62
   120
370
     5
100
AcDbLine
 10
85.16915751621866
 20
846.4939459364042
 30
0.0
 11
114.936898916867
 21
876.2616873370525
 31
0.0
  0
LINE
  5
4BF
330
1F
100
AcDbEntity
  8
0-0
  6
JWW_DASHED1
 62
   120
370
     5
100
AcDbLine
 10
85.1691575162306
 20
853.5650137497016
 30
0.0
 11
107.865831103573
 21
876.2616873370423
 31
0.0
  0
LINE
  5
4C0
330
1F
100
AcDbEntity
  8
0-0
  6
JWW_DASHED1
 62
   120
370
     5
100
AcDbLine
 10
85.16915751622719
 20
860.6360815629832
 30
0.0
 11
100.7947632902909
 21
876.2616873370462
 31
0.0
  0
LINE
  5
4C1
330
1F
100
AcDbEntity
  8
0-0
  6
JWW_DASHED1
 62
   120
370
     5
100
AcDbLine
 10
85.16915751622378
 20
867.7071493762645
 30
0.0
 11
93.72369547700885
 21
876.2616873370496
 31
0.0
  0
LINE
  5
4C2
330
1F
100
AcDbEntity
  8
0-0
  6
JWW_DASHED1
 62
   120
370
     5
100
AcDbLine
 10
85.16915751621866
 20
874.7782171895458
 30
0.0
 11
86.65262766372678
 21
876.2616873370534
 31
0.0
  0
LWPOLYLINE
  5
4C3
330
1F
100
AcDbEntity
  8
寸法
  6
Continuous
 62
     7
370
     9
100
AcDbPolyline
 90
        4
 70
     1
 43
3.0
 10
-1232.330842483784
 20
-979.7383126629489
 42
0.4142135623731
 10
-1233.830842483784
 20
-978.238312662949
 42
0.4142135623731
 10
-1235.330842483784
 20
-979.7383126629489
 42
0.4142135623731
 10
-1233.830842483784
 20
-981.2383126629488
 42
0.4142135623731
  0
LINE
  5
4C4
330
1F
100
AcDbEntity
  8
寸法
  6
Continuous
 62
   120
370
     5
100
AcDbLine
 10
-1233.830842483784
 20
-979.7383126629489
 30
0.0
 11
-833.8308424837828
 21
-979.7383126629489
 31
0.0
  0
LWPOLYLINE
  5
4C5
330
1F
100
AcDbEntity
  8
寸法
  6
Continuous
 62
     7
370
     9
100
AcDbPolyline
 90
        4
 70
     1
 43
3.0
 10
-752.3308424837805
 20
-1429.738312662948
 42
0.4142135623731
 10
-753.8308424837805
 20
-1428.238312662948
 42
0.4142135623731
 10
-755.3308424837805
 20
-1429.738312662948
 42
0.4142135623731
 10
-753.8308424837805
 20
-1431.238312662948
 42
0.4142135623731
  0
LWPOLYLINE
  5
4C6
330
1F
100
AcDbEntity
  8
寸法
  6
Continuous
 62
     7
370
     9
100
AcDbPolyline
 90
        4
 70
     1
 43
3.0
 10
-782.3308424837805
 20
-1629.738312662948
 42
0.4142135623731
 10
-783.8308424837805
 20
-1628.238312662948
 42
0.4142135623731
 10
-785.3308424837805
 20
-1629.738312662948
 42
0.4142135623731
 10
-783.8308424837805
 20
-1631.238312662948
 42
0.4142135623731
  0
LWPOLYLINE
  5
4C7
330
1F
100
AcDbEntity
  8
寸法
  6
Continuous
 62
     7
370
     9
100
AcDbPolyline
 90
        4
 70
     1
 43
3.0
 10
-755.3308424837812
 20
-1229.738312662949
 42
0.4142135623731
 10
-756.8308424837812
 20
-1228.238312662949
 42
0.4142135623731
 10
-758.3308424837812
 20
-1229.738312662949
 42
0.4142135623731
 10
-756.8308424837812
 20
-1231.238312662949
 42
0.4142135623731
  0
LWPOLYLINE
  5
4C8
330
1F
100
AcDbEntity
  8
寸法
  6
Continuous
 62
     7
370
     9
100
AcDbPolyline
 90
        4
 70
     1
 43
3.0
 10
54.66915751621877
 20
-1229.738312662949
 42
0.4142135623731
 10
53.16915751621877
 20
-1228.238312662949
 42
0.4142135623731
 10
51.66915751621877
 20
-1229.738312662949
 42
0.4142135623731
 10
53.16915751621877
 20
-1231.238312662949
 42
0.4142135623731
  0
LINE
  5
4C9
330
1F
100
AcDbEntity
  8
寸法
  6
Continuous
 62
   120
370
     5
100
AcDbLine
 10
-753.8308424837805
 20
-1429.738312662948
 30
0.0
 11
-753.8308424837805
 21
-1029.73831266295
 31
0.0
  0
LINE
  5
4CA
330
1F
100
AcDbEntity
  8
寸法
  6
Continuous
 62
   120
370
     5
100
AcDbLine
 10
-783.8308424837805
 20
-1629.738312662948
 30
0.0
 11
-783.8308424837805
 21
-1029.73831266295
 31
0.0
  0
LINE
  5
4CB
330
1F
100
AcDbEntity
  8
寸法
  6
Continuous
 62
   120
370
     5
100
AcDbLine
 10
-756.8308424837812
 20
-1229.738312662949
 30
0.0
 11
-756.8308424837812
 21
-1029.73831266295
 31
0.0
  0
LINE
  5
4CC
330
1F
100
AcDbEntity
  8
寸法
  6
Continuous
 62
   120
370
     5
100
AcDbLine
 10
53.16915751621877
 20
-1229.738312662949
 30
0.0
 11
53.16915751621877
 21
-1029.73831266295
 31
0.0
  0
LINE
  5
4CD
330
1F
100
AcDbEntity
  8
寸法
  6
Continuous
 62
   120
370
     5
100
AcDbLine
 10
53.16915751621877
 20
-1229.738312662949
 30
0.0
 11
-756.8308424837812
 21
-1229.738312662949
 31
0.0
  0
LWPOLYLINE
  5
4CE
330
1F
100
AcDbEntity
  8
寸法
  6
Continuous
 62
     7
370
     9
100
AcDbPolyline
 90
        4
 70
     1
 43
3.0
 10
-1232.330842483784
 20
1055.26168733705
 42
0.4142135623731
 10
-1233.830842483784
 20
1056.76168733705
 42
0.4142135623731
 10
-1235.330842483784
 20
1055.26168733705
 42
0.4142135623731
 10
-1233.830842483784
 20
1053.76168733705
 42
0.4142135623731
  0
LINE
  5
4CF
330
1F
100
AcDbEntity
  8
寸法
  6
Continuous
 62
   120
370
     5
100
AcDbLine
 10
-1233.830842483784
 20
1055.26168733705
 30
0.0
 11
-833.8308424837828
 21
1055.26168733705
 31
0.0
  0
LINE
  5
4D0
330
1F
100
AcDbEntity
  8
寸法
  6
Continuous
 62
   120
370
     5
100
AcDbLine
 10
-1233.830842483784
 20
1055.26168733705
 30
0.0
 11
-1233.830842483784
 21
-979.7383126629489
 31
0.0
  0
LWPOLYLINE
  5
4D1
330
1F
100
AcDbEntity
  8
寸法
  6
Continuous
 62
     7
370
     9
100
AcDbPolyline
 90
        4
 70
     1
 43
3.0
 10
725.669157516219
 20
-1429.738312662948
 42
0.4142135623731
 10
724.169157516219
 20
-1428.238312662948
 42
0.4142135623731
 10
722.669157516219
 20
-1429.738312662948
 42
0.4142135623731
 10
724.169157516219
 20
-1431.238312662948
 42
0.4142135623731
  0
LINE
  5
4D2
330
1F
100
AcDbEntity
  8
寸法
  6
Continuous
 62
   120
370
     5
100
AcDbLine
 10
724.169157516219
 20
-1429.738312662948
 30
0.0
 11
724.169157516219
 21
-1029.73831266295
 31
0.0
  0
LINE
  5
4D3
330
1F
100
AcDbEntity
  8
寸法
  6
Continuous
 62
   120
370
     5
100
AcDbLine
 10
-753.8308424837805
 20
-1429.738312662948
 30
0.0
 11
724.169157516219
 21
-1429.738312662948
 31
0.0
  0
LWPOLYLINE
  5
4D4
330
1F
100
AcDbEntity
  8
寸法
  6
Continuous
 62
     7
370
     9
100
AcDbPolyline
 90
        4
 70
     1
 43
3.0
 10
1565.669157516219
 20
-1629.738312662947
 42
0.4142135623731
 10
1564.169157516219
 20
-1628.238312662947
 42
0.4142135623731
 10
1562.669157516219
 20
-1629.738312662947
 42
0.4142135623731
 10
1564.169157516219
 20
-1631.238312662947
 42
0.4142135623731
  0
LINE
  5
4D5
330
1F
100
AcDbEntity
  8
寸法
  6
Continuous
 62
   120
370
     5
100
AcDbLine
 10
1564.169157516219
 20
-1629.738312662947
 30
0.0
 11
1564.169157516219
 21
-1029.738312662949
 31
0.0
  0
LINE
  5
4D6
330
1F
100
AcDbEntity
  8
寸法
  6
Continuous
 62
   120
370
     5
100
AcDbLine
 10
-783.8308424837805
 20
-1629.738312662948
 30
0.0
 11
1564.169157516219
 21
-1629.738312662947
 31
0.0
  0
LWPOLYLINE
  5
4D7
330
1F
100
AcDbEntity
  8
寸法
  6
Continuous
 62
     7
370
     9
100
AcDbPolyline
 90
        4
 70
     1
 43
3.0
 10
-1032.330842483782
 20
1011.26168733705
 42
0.4142135623731
 10
-1033.830842483782
 20
1012.76168733705
 42
0.4142135623731
 10
-1035.330842483782
 20
1011.26168733705
 42
0.4142135623731
 10
-1033.830842483782
 20
1009.76168733705
 42
0.4142135623731
  0
LINE
  5
4D8
330
1F
100
AcDbEntity
  8
寸法
  6
Continuous
 62
   120
370
     5
100
AcDbLine
 10
-1033.830842483782
 20
1011.26168733705
 30
0.0
 11
-1033.830842483782
 21
-971.7383126629494
 31
0.0
  0
LINE
  5
4D9
330
1F
100
AcDbEntity
  8
寸法
  6
Continuous
 62
   120
370
     5
100
AcDbLine
 10
-1033.830842483782
 20
1011.26168733705
 30
0.0
 11
-833.8308424837828
 21
1011.26168733705
 31
0.0
  0
LWPOLYLINE
  5
4DA
330
1F
100
AcDbEntity
  8
寸法
  6
Continuous
 62
     7
370
     9
100
AcDbPolyline
 90
        4
 70
     1
 43
3.0
 10
-1032.330842483782
 20
-971.7383126629494
 42
0.4142135623731
 10
-1033.830842483782
 20
-970.2383126629495
 42
0.4142135623731
 10
-1035.330842483782
 20
-971.7383126629494
 42
0.4142135623731
 10
-1033.830842483782
 20
-973.2383126629493
 42
0.4142135623731
  0
LINE
  5
4DB
330
1F
100
AcDbEntity
  8
寸法
  6
Continuous
 62
   120
370
     5
100
AcDbLine
 10
-1033.830842483782
 20
-971.7383126629494
 30
0.0
 11
-833.8308424837828
 21
-971.7383126629494
 31
0.0
  0
MTEXT
  5
4DC
330
1F
100
AcDbEntity
  8
寸法
  6
Continuous
 62
     7
370
    70
100
AcDbMText
 10
-1248.830842483784
 20
-182.9133126629485
 30
0.0
 40
57.14999999999999
 41
412.5
 46
0.0
 71
     7
 72
     1
  1
{\fＭＳ ゴシック|b0|i0|c128|p49;枠外＝2,035}
 11
6.123031769111886E-17
 21
1.0
 31
0.0
 73
     1
 44
1.0
  0
MTEXT
  5
4DD
330
1F
100
AcDbEntity
  8
寸法
  6
Continuous
 62
     7
370
    70
100
AcDbMText
 10
-1048.830842483782
 20
-189.4133126629498
 30
0.0
 40
57.14999999999999
 41
412.5
 46
0.0
 71
     7
 72
     1
  1
{\fＭＳ ゴシック|b0|i0|c128|p49;ＤＨ＝1,983}
 11
6.123031769111886E-17
 21
1.0
 31
0.0
 73
     1
 44
1.0
  0
MTEXT
  5
4DE
330
1F
100
AcDbEntity
  8
寸法
  6
Continuous
 62
     7
370
   211
100
AcDbMText
 10
-520.5808424837812
 20
-1223.663312662949
 30
0.0
 40
57.15
 41
337.5
 46
0.0
 71
     7
 72
     1
  1
{\fＭＳ ゴシック|b0|i0|c128|p49;ＤＷ＝810}
 73
     1
 44
1.0
  0
MTEXT
  5
4DF
330
1F
100
AcDbEntity
  8
寸法
  6
Continuous
 62
     7
370
   211
100
AcDbMText
 10
-296.0808424837808
 20
-1423.663312662948
 30
0.0
 40
57.15000000000001
 41
562.5
 46
0.0
 71
     7
 72
     1
  1
{\fＭＳ ゴシック|b0|i0|c128|p49;有効開口＝1,478}
 73
     1
 44
1.0
  0
MTEXT
  5
4E0
330
1F
100
AcDbEntity
  8
寸法
  6
Continuous
 62
     7
370
   211
100
AcDbMText
 10
183.9191575162192
 20
-1623.663312662948
 30
0.0
 40
57.14999999999999
 41
412.5
 46
0.0
 71
     7
 72
     1
  1
{\fＭＳ ゴシック|b0|i0|c128|p49;枠外＝2,348}
 73
     1
 44
1.0
  0
ENDSEC
  0
SECTION
  2
OBJECTS
  0
DICTIONARY
  5
C
330
0
100
AcDbDictionary
281
     1
  3
ACAD_GROUP
350
D
  3
ACAD_LAYOUT
350
1A
  3
ACAD_MATERIAL
350
3B
  3
ACAD_MLEADERSTYLE
350
4E2
  3
ACAD_MLINESTYLE
350
17
  3
ACAD_PLOTSETTINGS
350
19
  3
ACAD_PLOTSTYLENAME
350
E
  3
ACAD_TABLESTYLE
350
4E1
  3
ACAD_VISUALSTYLE
350
2A
  0
DICTIONARY
  5
D
102
{ACAD_REACTORS
330
C
102
}
330
C
100
AcDbDictionary
281
     1
  0
DICTIONARY
  5
1A
102
{ACAD_REACTORS
330
C
102
}
330
C
100
AcDbDictionary
281
     1
  3
Layout1
350
1E
  3
Layout2
350
26
  3
Model
350
22
  0
DICTIONARY
  5
3B
102
{ACAD_REACTORS
330
C
102
}
330
C
100
AcDbDictionary
281
     1
  3
ByBlock
350
3D
  3
ByLayer
350
3C
  3
Global
350
3E
  0
DICTIONARY
  5
4E2
102
{ACAD_REACTORS
330
C
102
}
330
C
100
AcDbDictionary
281
     1
  0
DICTIONARY
  5
17
102
{ACAD_REACTORS
330
C
102
}
330
C
100
AcDbDictionary
281
     1
  3
Standard
350
18
  0
DICTIONARY
  5
19
102
{ACAD_REACTORS
330
C
102
}
330
C
100
AcDbDictionary
281
     1
  0
ACDBDICTIONARYWDFLT
  5
E
102
{ACAD_REACTORS
330
C
102
}
330
C
100
AcDbDictionary
281
     1
  3
Normal
350
F
100
AcDbDictionaryWithDefault
340
F
  0
DICTIONARY
  5
4E1
102
{ACAD_REACTORS
330
C
102
}
330
C
100
AcDbDictionary
281
     1
  0
DICTIONARY
  5
2A
102
{ACAD_REACTORS
330
C
102
}
330
C
100
AcDbDictionary
281
     1
  3
2dWireframe
350
2F
  3
3D Hidden
350
31
  3
3dWireframe
350
30
  3
Basic
350
32
  3
Brighten
350
36
  3
ColorChange
350
3A
  3
Conceptual
350
34
  3
Dim
350
35
  3
Facepattern
350
39
  3
Flat
350
2B
  3
FlatWithEdges
350
2C
  3
Gouraud
350
2D
  3
GouraudWithEdges
350
2E
  3
Linepattern
350
38
  3
Realistic
350
33
  3
Thicken
350
37
  0
LAYOUT
  5
1E
102
{ACAD_REACTORS
330
1A
102
}
330
1A
100
AcDbPlotSettings
  1

  2
none_device
  4

  6

 40
0.0
 41
0.0
 42
0.0
 43
0.0
 44
0.0
 45
0.0
 46
0.0
 47
0.0
 48
0.0
 49
0.0
140
0.0
141
0.0
142
1.0
143
1.0
 70
   688
 72
     0
 73
     0
 74
     5
  7

 75
    16
 76
     0
 77
     5
 78
   300
147
1.0
148
0.0
149
0.0
100
AcDbLayout
  1
Layout1
 70
     1
 71
     1
 10
0.0
 20
0.0
 11
420.0
 21
297.0
 12
0.0
 22
0.0
 32
0.0
 14
1.000000000000000E+20
 24
1.000000000000000E+20
 34
1.000000000000000E+20
 15
-1.000000000000000E+20
 25
-1.000000000000000E+20
 35
-1.000000000000000E+20
146
0.0
 13
0.0
 23
0.0
 33
0.0
 16
1.0
 26
0.0
 36
0.0
 17
0.0
 27
1.0
 37
0.0
 76
     0
330
1B
  0
LAYOUT
  5
26
102
{ACAD_REACTORS
330
1A
102
}
330
1A
100
AcDbPlotSettings
  1

  2
none_device
  4

  6

 40
0.0
 41
0.0
 42
0.0
 43
0.0
 44
0.0
 45
0.0
 46
0.0
 47
0.0
 48
0.0
 49
0.0
140
0.0
141
0.0
142
1.0
143
1.0
 70
   688
 72
     0
 73
     0
 74
     5
  7

 75
    16
 76
     0
 77
     5
 78
   300
147
1.0
148
0.0
149
0.0
100
AcDbLayout
  1
Layout2
 70
     1
 71
     2
 10
0.0
 20
0.0
 11
0.0
 21
0.0
 12
0.0
 22
0.0
 32
0.0
 14
0.0
 24
0.0
 34
0.0
 15
0.0
 25
0.0
 35
0.0
146
0.0
 13
0.0
 23
0.0
 33
0.0
 16
1.0
 26
0.0
 36
0.0
 17
0.0
 27
1.0
 37
0.0
 76
     0
330
23
  0
LAYOUT
  5
22
102
{ACAD_REACTORS
330
1A
102
}
330
1A
100
AcDbPlotSettings
  1

  2
none_device
  4

  6

 40
0.0
 41
0.0
 42
0.0
 43
0.0
 44
0.0
 45
0.0
 46
0.0
 47
0.0
 48
0.0
 49
0.0
140
0.0
141
0.0
142
1.0
143
1.0
 70
  1712
 72
     0
 73
     0
 74
     0
  7

 75
     0
 76
     0
 77
     5
 78
   300
147
1.0
148
0.0
149
0.0
100
AcDbLayout
  1
Model
 70
     1
 71
     0
 10
-4455.0
 20
-3150.0
 11
4455.0
 21
3150.0
 12
0.0
 22
0.0
 32
0.0
 14
-4455.0
 24
-3150.0
 34
0.0
 15
4455.0
 25
3150.0
 35
0.0
146
0.0
 13
0.0
 23
0.0
 33
0.0
 16
1.0
 26
0.0
 36
0.0
 17
0.0
 27
1.0
 37
0.0
 76
     0
330
1F
331
29
  0
MATERIAL
  5
3D
102
{ACAD_REACTORS
330
3B
102
}
330
3B
100
AcDbMaterial
  1
ByBlock
 72
     1
 94
      127
  0
MATERIAL
  5
3C
102
{ACAD_REACTORS
330
3B
102
}
330
3B
100
AcDbMaterial
  1
ByLayer
 72
     1
 94
      127
  0
MATERIAL
  5
3E
102
{ACAD_REACTORS
330
3B
102
}
330
3B
100
AcDbMaterial
  1
Global
 72
     1
 94
      127
  0
MLINESTYLE
  5
18
102
{ACAD_REACTORS
330
17
102
}
330
17
100
AcDbMlineStyle
  2
Standard
 70
     0
  3

 62
   256
 51
90.0
 52
90.0
 71
     2
 49
0.5
 62
   256
  6
BYLAYER
 49
-0.5
 62
   256
  6
BYLAYER
  0
ACDBPLACEHOLDER
  5
F
102
{ACAD_REACTORS
330
E
102
}
330
E
  0
VISUALSTYLE
  5
2F
102
{ACAD_REACTORS
330
2A
102
}
330
2A
100
AcDbVisualStyle
  2
2dWireframe
 70
     4
177
     2
291
     0
 71
     0
176
     1
 72
     2
176
     1
 73
     0
176
     1
 90
        0
176
     1
 40
-0.6
176
     1
 41
-30.0
176
     1
 62
     5
 63
     7
421
 16777215
176
     1
 74
     1
176
     1
 91
        4
176
     1
 64
     7
176
     1
 65
   257
176
     1
 75
     1
176
     1
175
     1
176
     1
 42
1.0
176
     1
 92
        0
176
     1
 66
   257
176
     1
 43
1.0
176
     1
 76
     1
176
     1
 77
     6
176
     1
 78
     2
176
     1
 67
     7
176
     1
 79
     5
176
     1
170
     0
176
     1
171
     0
176
     1
290
     0
176
     1
 93
        1
176
     1
 44
0.0
176
     1
173
     0
176
     1
  0
VISUALSTYLE
  5
31
102
{ACAD_REACTORS
330
2A
102
}
330
2A
100
AcDbVisualStyle
  2
3D Hidden
 70
     6
177
     2
291
     0
 71
     1
176
     1
 72
     2
176
     1
 73
     2
176
     1
 90
        0
176
     1
 40
-0.6
176
     1
 41
-30.0
176
     1
 62
     5
 63
     7
421
 16777215
176
     1
 74
     2
176
     1
 91
        2
176
     1
 64
     7
176
     1
 65
   257
176
     1
 75
     2
176
     1
175
     1
176
     1
 42
40.0
176
     1
 92
        0
176
     1
 66
   257
176
     1
 43
1.0
176
     1
 76
     1
176
     1
 77
     6
176
     1
 78
     2
176
     1
 67
     7
176
     1
 79
     3
176
     1
170
     0
176
     1
171
     0
176
     1
290
     0
176
     1
 93
        1
176
     1
 44
0.0
176
     1
173
     0
176
     1
  0
VISUALSTYLE
  5
30
102
{ACAD_REACTORS
330
2A
102
}
330
2A
100
AcDbVisualStyle
  2
3dWireframe
 70
     5
177
     2
291
     0
 71
     0
176
     1
 72
     2
176
     1
 73
     0
176
     1
 90
        0
176
     1
 40
-0.6
176
     1
 41
-30.0
176
     1
 62
     5
 63
     7
421
 16777215
176
     1
 74
     1
176
     1
 91
        4
176
     1
 64
     7
176
     1
 65
   257
176
     1
 75
     1
176
     1
175
     1
176
     1
 42
1.0
176
     1
 92
        0
176
     1
 66
   257
176
     1
 43
1.0
176
     1
 76
     1
176
     1
 77
     6
176
     1
 78
     2
176
     1
 67
     7
176
     1
 79
     5
176
     1
170
     0
176
     1
171
     0
176
     1
290
     0
176
     1
 93
        1
176
     1
 44
0.0
176
     1
173
     0
176
     1
  0
VISUALSTYLE
  5
32
102
{ACAD_REACTORS
330
2A
102
}
330
2A
100
AcDbVisualStyle
  2
Basic
 70
     7
177
     2
291
     1
 71
     1
176
     1
 72
     0
176
     1
 73
     1
176
     1
 90
        0
176
     1
 40
-0.6
176
     1
 41
-30.0
176
     1
 62
     5
 63
     7
421
 16777215
176
     1
 74
     0
176
     1
 91
        4
176
     1
 64
     7
176
     1
 65
   257
176
     1
 75
     1
176
     1
175
     1
176
     1
 42
1.0
176
     1
 92
        8
176
     1
 66
     7
176
     1
 43
1.0
176
     1
 76
     1
176
     1
 77
     6
176
     1
 78
     2
176
     1
 67
     7
176
     1
 79
     5
176
     1
170
     0
176
     1
171
     0
176
     1
290
     0
176
     1
 93
        1
176
     1
 44
0.0
176
     1
173
     0
176
     1
  0
VISUALSTYLE
  5
36
102
{ACAD_REACTORS
330
2A
102
}
330
2A
100
AcDbVisualStyle
  2
Brighten
 70
    12
177
     2
291
     1
 71
     2
176
     1
 72
     2
176
     1
 73
     0
176
     1
 90
        0
176
     1
 40
-0.6
176
     1
 41
-30.0
176
     1
 62
     5
 63
     7
421
 16777215
176
     1
 74
     1
176
     1
 91
        4
176
     1
 64
     7
176
     1
 65
   257
176
     1
 75
     1
176
     1
175
     1
176
     1
 42
1.0
176
     1
 92
        8
176
     1
 66
     7
176
     1
 43
1.0
176
     1
 76
     1
176
     1
 77
     6
176
     1
 78
     2
176
     1
 67
     7
176
     1
 79
     5
176
     1
170
     0
176
     1
171
     0
176
     1
290
     0
176
     1
 93
        1
176
     1
 44
50.0
176
     1
173
     0
176
     1
  0
VISUALSTYLE
  5
3A
102
{ACAD_REACTORS
330
2A
102
}
330
2A
100
AcDbVisualStyle
  2
ColorChange
 70
    16
177
     2
291
     1
 71
     2
176
     1
 72
     2
176
     1
 73
     3
176
     1
 90
        0
176
     1
 40
-0.6
176
     1
 41
-30.0
176
     1
 62
     5
 63
     8
421
  8421504
176
     1
 74
     1
176
     1
 91
        4
176
     1
 64
     7
176
     1
 65
   257
176
     1
 75
     1
176
     1
175
     1
176
     1
 42
1.0
176
     1
 92
        8
176
     1
 66
     8
424
  8421504
176
     1
 43
1.0
176
     1
 76
     1
176
     1
 77
     6
176
     1
 78
     2
176
     1
 67
     7
176
     1
 79
     5
176
     1
170
     0
176
     1
171
     0
176
     1
290
     0
176
     1
 93
        1
176
     1
 44
0.0
176
     1
173
     0
176
     1
  0
VISUALSTYLE
  5
34
102
{ACAD_REACTORS
330
2A
102
}
330
2A
100
AcDbVisualStyle
  2
Conceptual
 70
     9
177
     2
291
     0
 71
     3
176
     1
 72
     2
176
     1
 73
     0
176
     1
 90
        0
176
     1
 40
-0.6
176
     1
 41
-30.0
176
     1
 62
     5
 63
     7
421
 16777215
176
     1
 74
     2
176
     1
 91
        2
176
     1
 64
     7
176
     1
 65
   257
176
     1
 75
     1
176
     1
175
     1
176
     1
 42
40.0
176
     1
 92
        8
176
     1
 66
     7
176
     1
 43
1.0
176
     1
 76
     1
176
     1
 77
     6
176
     1
 78
     2
176
     1
 67
     7
176
     1
 79
     3
176
     1
170
     0
176
     1
171
     0
176
     1
290
     0
176
     1
 93
        1
176
     1
 44
0.0
176
     1
173
     0
176
     1
  0
VISUALSTYLE
  5
35
102
{ACAD_REACTORS
330
2A
102
}
330
2A
100
AcDbVisualStyle
  2
Dim
 70
    11
177
     2
291
     1
 71
     2
176
     1
 72
     2
176
     1
 73
     0
176
     1
 90
        0
176
     1
 40
-0.6
176
     1
 41
-30.0
176
     1
 62
     5
 63
     7
421
 16777215
176
     1
 74
     1
176
     1
 91
        4
176
     1
 64
     7
176
     1
 65
   257
176
     1
 75
     1
176
     1
175
     1
176
     1
 42
1.0
176
     1
 92
        8
176
     1
 66
     7
176
     1
 43
1.0
176
     1
 76
     1
176
     1
 77
     6
176
     1
 78
     2
176
     1
 67
     7
176
     1
 79
     5
176
     1
170
     0
176
     1
171
     0
176
     1
290
     0
176
     1
 93
        1
176
     1
 44
-50.0
176
     1
173
     0
176
     1
  0
VISUALSTYLE
  5
39
102
{ACAD_REACTORS
330
2A
102
}
330
2A
100
AcDbVisualStyle
  2
Facepattern
 70
    15
177
     2
291
     1
 71
     2
176
     1
 72
     2
176
     1
 73
     0
176
     1
 90
        0
176
     1
 40
-0.6
176
     1
 41
-30.0
176
     1
 62
     5
 63
     7
421
 16777215
176
     1
 74
     1
176
     1
 91
        4
176
     1
 64
     7
176
     1
 65
   257
176
     1
 75
     1
176
     1
175
     1
176
     1
 42
1.0
176
     1
 92
        8
176
     1
 66
     7
176
     1
 43
1.0
176
     1
 76
     1
176
     1
 77
     6
176
     1
 78
     2
176
     1
 67
     7
176
     1
 79
     5
176
     1
170
     0
176
     1
171
     0
176
     1
290
     0
176
     1
 93
        1
176
     1
 44
0.0
176
     1
173
     0
176
     1
  0
VISUALSTYLE
  5
2B
102
{ACAD_REACTORS
330
2A
102
}
330
2A
100
AcDbVisualStyle
  2
Flat
 70
     0
177
     2
291
     1
 71
     2
176
     1
 72
     1
176
     1
 73
     1
176
     1
 90
        2
176
     1
 40
-0.6
176
     1
 41
30.0
176
     1
 62
     5
 63
     7
421
 16777215
176
     1
 74
     0
176
     1
 91
        4
176
     1
 64
     7
176
     1
 65
   257
176
     1
 75
     1
176
     1
175
     1
176
     1
 42
1.0
176
     1
 92
        8
176
     1
 66
     7
176
     1
 43
1.0
176
     1
 76
     1
176
     1
 77
     6
176
     1
 78
     2
176
     1
 67
     7
176
     1
 79
     5
176
     1
170
     0
176
     1
171
     0
176
     1
290
     0
176
     1
 93
       13
176
     1
 44
0.0
176
     1
173
     0
176
     1
  0
VISUALSTYLE
  5
2C
102
{ACAD_REACTORS
330
2A
102
}
330
2A
100
AcDbVisualStyle
  2
FlatWithEdges
 70
     1
177
     2
291
     1
 71
     2
176
     1
 72
     1
176
     1
 73
     1
176
     1
 90
        2
176
     1
 40
-0.6
176
     1
 41
30.0
176
     1
 62
     5
 63
     7
421
 16777215
176
     1
 74
     1
176
     1
 91
        4
176
     1
 64
     7
176
     1
 65
   257
176
     1
 75
     1
176
     1
175
     1
176
     1
 42
1.0
176
     1
 92
        0
176
     1
 66
   257
176
     1
 43
1.0
176
     1
 76
     1
176
     1
 77
     6
176
     1
 78
     2
176
     1
 67
     7
176
     1
 79
     5
176
     1
170
     0
176
     1
171
     0
176
     1
290
     0
176
     1
 93
       13
176
     1
 44
0.0
176
     1
173
     0
176
     1
  0
VISUALSTYLE
  5
2D
102
{ACAD_REACTORS
330
2A
102
}
330
2A
100
AcDbVisualStyle
  2
Gouraud
 70
     2
177
     2
291
     1
 71
     2
176
     1
 72
     2
176
     1
 73
     1
176
     1
 90
        2
176
     1
 40
-0.6
176
     1
 41
30.0
176
     1
 62
     5
 63
     7
421
 16777215
176
     1
 74
     0
176
     1
 91
        4
176
     1
 64
     7
176
     1
 65
   257
176
     1
 75
     1
176
     1
175
     1
176
     1
 42
1.0
176
     1
 92
        0
176
     1
 66
     7
176
     1
 43
1.0
176
     1
 76
     1
176
     1
 77
     6
176
     1
 78
     2
176
     1
 67
     7
176
     1
 79
     5
176
     1
170
     0
176
     1
171
     0
176
     1
290
     0
176
     1
 93
       13
176
     1
 44
0.0
176
     1
173
     0
176
     1
  0
VISUALSTYLE
  5
2E
102
{ACAD_REACTORS
330
2A
102
}
330
2A
100
AcDbVisualStyle
  2
GouraudWithEdges
 70
     3
177
     2
291
     1
 71
     2
176
     1
 72
     2
176
     1
 73
     1
176
     1
 90
        2
176
     1
 40
-0.6
176
     1
 41
30.0
176
     1
 62
     5
 63
     7
421
 16777215
176
     1
 74
     1
176
     1
 91
        4
176
     1
 64
     7
176
     1
 65
   257
176
     1
 75
     1
176
     1
175
     1
176
     1
 42
1.0
176
     1
 92
        0
176
     1
 66
   257
176
     1
 43
1.0
176
     1
 76
     1
176
     1
 77
     6
176
     1
 78
     2
176
     1
 67
     7
176
     1
 79
     5
176
     1
170
     0
176
     1
171
     0
176
     1
290
     0
176
     1
 93
       13
176
     1
 44
0.0
176
     1
173
     0
176
     1
  0
VISUALSTYLE
  5
38
102
{ACAD_REACTORS
330
2A
102
}
330
2A
100
AcDbVisualStyle
  2
Linepattern
 70
    14
177
     2
291
     1
 71
     2
176
     1
 72
     2
176
     1
 73
     0
176
     1
 90
        0
176
     1
 40
-0.6
176
     1
 41
-30.0
176
     1
 62
     5
 63
     7
421
 16777215
176
     1
 74
     1
176
     1
 91
        4
176
     1
 64
     7
176
     1
 65
   257
176
     1
 75
     7
176
     1
175
     7
176
     1
 42
1.0
176
     1
 92
        8
176
     1
 66
     7
176
     1
 43
1.0
176
     1
 76
     1
176
     1
 77
     6
176
     1
 78
     2
176
     1
 67
     7
176
     1
 79
     5
176
     1
170
     0
176
     1
171
     0
176
     1
290
     0
176
     1
 93
        1
176
     1
 44
0.0
176
     1
173
     0
176
     1
  0
VISUALSTYLE
  5
33
102
{ACAD_REACTORS
330
2A
102
}
330
2A
100
AcDbVisualStyle
  2
Realistic
 70
     8
177
     2
291
     0
 71
     2
176
     1
 72
     2
176
     1
 73
     0
176
     1
 90
        0
176
     1
 40
-0.6
176
     1
 41
-30.0
176
     1
 62
     5
 63
     7
421
 16777215
176
     1
 74
     1
176
     1
 91
        0
176
     1
 64
     7
176
     1
 65
   257
176
     1
 75
     1
176
     1
175
     1
176
     1
 42
1.0
176
     1
 92
        8
176
     1
 66
     8
424
  7895160
176
     1
 43
1.0
176
     1
 76
     1
176
     1
 77
     6
176
     1
 78
     2
176
     1
 67
     7
176
     1
 79
     5
176
     1
170
     0
176
     1
171
     0
176
     1
290
     0
176
     1
 93
       13
176
     1
 44
0.0
176
     1
173
     0
176
     1
  0
VISUALSTYLE
  5
37
102
{ACAD_REACTORS
330
2A
102
}
330
2A
100
AcDbVisualStyle
  2
Thicken
 70
    13
177
     2
291
     1
 71
     2
176
     1
 72
     2
176
     1
 73
     0
176
     1
 90
        0
176
     1
 40
-0.6
176
     1
 41
-30.0
176
     1
 62
     5
 63
     7
421
 16777215
176
     1
 74
     1
176
     1
 91
        4
176
     1
 64
     7
176
     1
 65
   257
176
     1
 75
     1
176
     1
175
     1
176
     1
 42
1.0
176
     1
 92
       12
176
     1
 66
     7
176
     1
 43
1.0
176
     1
 76
     1
176
     1
 77
     6
176
     1
 78
     2
176
     1
 67
     7
176
     1
 79
     5
176
     1
170
     0
176
     1
171
     0
176
     1
290
     0
176
     1
 93
        1
176
     1
 44
0.0
176
     1
173
     0
176
     1
  0
ENDSEC
  0
EOF
