  0
SECTION
  2
HEADER
  9
$ACADVER
  1
AC1024
  9
$ACADMAINTVER
 70
     6
  9
$DWGCODEPAGE
  3
ANSI_932
  9
$INSBASE
 10
0.0
 20
0.0
 30
0.0
  9
$EXTMIN
 10
-4455.0
 20
-3150.0
 30
0.0
  9
$EXTMAX
 10
4455.0
 20
3150.0
 30
0.0
  9
$LIMMIN
 10
-4455.0
 20
-3150.0
  9
$LIMMAX
 10
4455.0
 20
3150.0
  9
$ORTHOMODE
 70
     0
  9
$REGENMODE
 70
     1
  9
$FILLMODE
 70
     1
  9
$QTEXTMODE
 70
     0
  9
$MIRRTEXT
 70
     1
  9
$LTSCALE
 40
30.0
  9
$ATTMODE
 70
     1
  9
$TEXTSIZE
 40
2.5
  9
$TRACEWID
 40
1.0
  9
$TEXTSTYLE
  7
Standard
  9
$CLAYER
  8
0
  9
$CELTYPE
  6
ByLayer
  9
$CECOLOR
 62
   256
  9
$CELTSCALE
 40
1.0
  9
$DISPSILH
 70
     0
  9
$DIMSCALE
 40
1.0
  9
$DIMASZ
 40
2.5
  9
$DIMEXO
 40
0.625
  9
$DIMDLI
 40
3.75
  9
$DIMRND
 40
0.0
  9
$DIMDLE
 40
0.0
  9
$DIMEXE
 40
1.25
  9
$DIMTP
 40
0.0
  9
$DIMTM
 40
0.0
  9
$DIMTXT
 40
2.5
  9
$DIMCEN
 40
2.5
  9
$DIMTSZ
 40
0.0
  9
$DIMTOL
 70
     0
  9
$DIMLIM
 70
     0
  9
$DIMTIH
 70
     0
  9
$DIMTOH
 70
     0
  9
$DIMSE1
 70
     0
  9
$DIMSE2
 70
     0
  9
$DIMTAD
 70
     1
  9
$DIMZIN
 70
     8
  9
$DIMBLK
  1

  9
$DIMASO
 70
     1
  9
$DIMSHO
 70
     1
  9
$DIMPOST
  1

  9
$DIMAPOST
  1

  9
$DIMALT
 70
     0
  9
$DIMALTD
 70
     3
  9
$DIMALTF
 40
0.03937007874016
  9
$DIMLFAC
 40
1.0
  9
$DIMTOFL
 70
     1
  9
$DIMTVP
 40
0.0
  9
$DIMTIX
 70
     0
  9
$DIMSOXD
 70
     0
  9
$DIMSAH
 70
     0
  9
$DIMBLK1
  1

  9
$DIMBLK2
  1

  9
$DIMSTYLE
  2
ISO-25
  9
$DIMCLRD
 70
     0
  9
$DIMCLRE
 70
     0
  9
$DIMCLRT
 70
     0
  9
$DIMTFAC
 40
1.0
  9
$DIMGAP
 40
0.625
  9
$DIMJUST
 70
     0
  9
$DIMSD1
 70
     0
  9
$DIMSD2
 70
     0
  9
$DIMTOLJ
 70
     0
  9
$DIMTZIN
 70
     8
  9
$DIMALTZ
 70
     0
  9
$DIMALTTZ
 70
     0
  9
$DIMUPT
 70
     0
  9
$DIMDEC
 70
     2
  9
$DIMTDEC
 70
     2
  9
$DIMALTU
 70
     2
  9
$DIMALTTD
 70
     3
  9
$DIMTXSTY
  7
Standard
  9
$DIMAUNIT
 70
     0
  9
$DIMADEC
 70
     0
  9
$DIMALTRND
 40
0.0
  9
$DIMAZIN
 70
     0
  9
$DIMDSEP
 70
    44
  9
$DIMATFIT
 70
     3
  9
$DIMFRAC
 70
     0
  9
$DIMLDRBLK
  1

  9
$DIMLUNIT
 70
     2
  9
$DIMLWD
 70
    -2
  9
$DIMLWE
 70
    -2
  9
$DIMTMOVE
 70
     0
  9
$DIMFXL
 40
1.0
  9
$DIMFXLON
 70
     0
  9
$DIMJOGANG
 40
0.7853981633974483
  9
$DIMTFILL
 70
     0
  9
$DIMTFILLCLR
 70
     0
  9
$DIMARCSYM
 70
     0
  9
$DIMLTYPE
  6

  9
$DIMLTEX1
  6

  9
$DIMLTEX2
  6

  9
$DIMTXTDIRECTION
 70
     0
  9
$LUNITS
 70
     2
  9
$LUPREC
 70
     4
  9
$SKETCHINC
 40
1.0
  9
$FILLETRAD
 40
10.0
  9
$AUNITS
 70
     0
  9
$AUPREC
 70
     0
  9
$MENU
  1
.
  9
$ELEVATION
 40
0.0
  9
$PELEVATION
 40
0.0
  9
$THICKNESS
 40
0.0
  9
$LIMCHECK
 70
     0
  9
$CHAMFERA
 40
10.0
  9
$CHAMFERB
 40
10.0
  9
$CHAMFERC
 40
20.0
  9
$CHAMFERD
 40
0.0
  9
$SKPOLY
 70
     0
  9
$TDCREATE
 40
2457953.400391991
  9
$TDUCREATE
 40
2457953.025391991
  9
$TDUPDATE
 40
2457953.400392002
  9
$TDUUPDATE
 40
2457953.025392002
  9
$TDINDWG
 40
0.0000000116
  9
$TDUSRTIMER
 40
0.0000000116
  9
$USRTIMER
 70
     1
  9
$ANGBASE
 50
0.0
  9
$ANGDIR
 70
     0
  9
$PDMODE
 70
     0
  9
$PDSIZE
 40
0.0
  9
$PLINEWID
 40
0.0
  9
$SPLFRAME
 70
     0
  9
$SPLINETYPE
 70
     6
  9
$SPLINESEGS
 70
     8
  9
$HANDSEED
  5
3CA
  9
$SURFTAB1
 70
     6
  9
$SURFTAB2
 70
     6
  9
$SURFTYPE
 70
     6
  9
$SURFU
 70
     6
  9
$SURFV
 70
     6
  9
$UCSBASE
  2

  9
$UCSNAME
  2

  9
$UCSORG
 10
0.0
 20
0.0
 30
0.0
  9
$UCSXDIR
 10
1.0
 20
0.0
 30
0.0
  9
$UCSYDIR
 10
0.0
 20
1.0
 30
0.0
  9
$UCSORTHOREF
  2

  9
$UCSORTHOVIEW
 70
     0
  9
$UCSORGTOP
 10
0.0
 20
0.0
 30
0.0
  9
$UCSORGBOTTOM
 10
0.0
 20
0.0
 30
0.0
  9
$UCSORGLEFT
 10
0.0
 20
0.0
 30
0.0
  9
$UCSORGRIGHT
 10
0.0
 20
0.0
 30
0.0
  9
$UCSORGFRONT
 10
0.0
 20
0.0
 30
0.0
  9
$UCSORGBACK
 10
0.0
 20
0.0
 30
0.0
  9
$PUCSBASE
  2

  9
$PUCSNAME
  2

  9
$PUCSORG
 10
0.0
 20
0.0
 30
0.0
  9
$PUCSXDIR
 10
1.0
 20
0.0
 30
0.0
  9
$PUCSYDIR
 10
0.0
 20
1.0
 30
0.0
  9
$PUCSORTHOREF
  2

  9
$PUCSORTHOVIEW
 70
     0
  9
$PUCSORGTOP
 10
0.0
 20
0.0
 30
0.0
  9
$PUCSORGBOTTOM
 10
0.0
 20
0.0
 30
0.0
  9
$PUCSORGLEFT
 10
0.0
 20
0.0
 30
0.0
  9
$PUCSORGRIGHT
 10
0.0
 20
0.0
 30
0.0
  9
$PUCSORGFRONT
 10
0.0
 20
0.0
 30
0.0
  9
$PUCSORGBACK
 10
0.0
 20
0.0
 30
0.0
  9
$USERI1
 70
     0
  9
$USERI2
 70
     0
  9
$USERI3
 70
     0
  9
$USERI4
 70
     0
  9
$USERI5
 70
     0
  9
$USERR1
 40
0.0
  9
$USERR2
 40
0.0
  9
$USERR3
 40
0.0
  9
$USERR4
 40
0.0
  9
$USERR5
 40
0.0
  9
$WORLDVIEW
 70
     1
  9
$SHADEDGE
 70
     3
  9
$SHADEDIF
 70
    70
  9
$TILEMODE
 70
     1
  9
$MAXACTVP
 70
    64
  9
$PINSBASE
 10
0.0
 20
0.0
 30
0.0
  9
$PLIMCHECK
 70
     0
  9
$PEXTMIN
 10
1.000000000000000E+20
 20
1.000000000000000E+20
 30
1.000000000000000E+20
  9
$PEXTMAX
 10
-1.000000000000000E+20
 20
-1.000000000000000E+20
 30
-1.000000000000000E+20
  9
$PLIMMIN
 10
0.0
 20
0.0
  9
$PLIMMAX
 10
420.0
 20
297.0
  9
$UNITMODE
 70
     0
  9
$VISRETAIN
 70
     1
  9
$PLINEGEN
 70
     0
  9
$PSLTSCALE
 70
     1
  9
$TREEDEPTH
 70
  3020
  9
$CMLSTYLE
  2
Standard
  9
$CMLJUST
 70
     0
  9
$CMLSCALE
 40
20.0
  9
$PROXYGRAPHICS
 70
     1
  9
$MEASUREMENT
 70
     1
  9
$CELWEIGHT
370
    -1
  9
$ENDCAPS
280
     0
  9
$JOINSTYLE
280
     0
  9
$LWDISPLAY
290
     0
  9
$INSUNITS
 70
     4
  9
$HYPERLINKBASE
  1

  9
$STYLESHEET
  1

  9
$XEDIT
290
     1
  9
$CEPSNTYPE
380
     0
  9
$PSTYLEMODE
290
     1
  9
$FINGERPRINTGUID
  2
{33395E13-D661-4339-A90B-2440826A5EDF}
  9
$VERSIONGUID
  2
{FAEB1C32-E019-11D5-929B-00C0DF256EC4}
  9
$EXTNAMES
290
     1
  9
$PSVPSCALE
 40
0.0
  9
$OLESTARTUP
290
     0
  9
$SORTENTS
280
   127
  9
$INDEXCTL
280
     0
  9
$HIDETEXT
280
     1
  9
$XCLIPFRAME
280
     2
  9
$HALOGAP
280
     0
  9
$OBSCOLOR
 70
   257
  9
$OBSLTYPE
280
     0
  9
$INTERSECTIONDISPLAY
280
     0
  9
$INTERSECTIONCOLOR
 70
   257
  9
$DIMASSOC
280
     2
  9
$PROJECTNAME
  1

  9
$CAMERADISPLAY
290
     0
  9
$LENSLENGTH
 40
50.0
  9
$CAMERAHEIGHT
 40
0.0
  9
$STEPSPERSEC
 40
2.0
  9
$STEPSIZE
 40
6.0
  9
$3DDWFPREC
 40
2.0
  9
$PSOLWIDTH
 40
5.0
  9
$PSOLHEIGHT
 40
80.0
  9
$LOFTANG1
 40
1.570796326794897
  9
$LOFTANG2
 40
1.570796326794897
  9
$LOFTMAG1
 40
0.0
  9
$LOFTMAG2
 40
0.0
  9
$LOFTPARAM
 70
     7
  9
$LOFTNORMALS
280
     1
  9
$LATITUDE
 40
37.795
  9
$LONGITUDE
 40
-122.394
  9
$NORTHDIRECTION
 40
0.0
  9
$TIMEZONE
 70
 -8000
  9
$LIGHTGLYPHDISPLAY
280
     1
  9
$TILEMODELIGHTSYNCH
280
     1
  9
$SOLIDHIST
280
     1
  9
$SHOWHIST
280
     1
  9
$DWFFRAME
280
     2
  9
$DGNFRAME
280
     2
  9
$REALWORLDSCALE
290
     1
  9
$INTERFERECOLOR
 62
   256
  9
$CSHADOW
280
     0
  9
$SHADOWPLANELOCATION
 40
0.0
  0
ENDSEC
  0
SECTION
  2
CLASSES
  0
CLASS
  1
ACDBDICTIONARYWDFLT
  2
AcDbDictionaryWithDefault
  3
ObjectDBX Classes
 90
        0
 91
        4
280
     0
281
     0
  0
CLASS
  1
VISUALSTYLE
  2
AcDbVisualStyle
  3
ObjectDBX Classes
 90
     4095
 91
        4
280
     0
281
     0
  0
CLASS
  1
MATERIAL
  2
AcDbMaterial
  3
ObjectDBX Classes
 90
     1153
 91
        4
280
     0
281
     0
  0
ENDSEC
  0
SECTION
  2
TABLES
  0
TABLE
  2
VPORT
  5
8
330
0
100
AcDbSymbolTable
 70
     1
  0
VPORT
  5
29
330
8
100
AcDbSymbolTableRecord
100
AcDbViewportTableRecord
  2
*Active
 70
     0
 10
0.0
 20
0.0
 11
1.0
 21
1.0
 12
0.0
 22
0.0
 13
0.0
 23
0.0
 14
10.0
 24
10.0
 15
10.0
 25
10.0
 16
0.0
 26
0.0
 36
1.0
 17
0.0
 27
0.0
 37
0.0
 40
6930.000000000001
 41
1.414285714285714
 42
50.0
 43
0.0
 44
0.0
 50
0.0
 51
0.0
 71
     0
 72
 10000
 73
     1
 74
     3
 75
     0
 76
     0
 77
     0
 78
     0
281
     0
 65
     1
110
0.0
120
0.0
130
0.0
111
1.0
121
0.0
131
0.0
112
0.0
122
1.0
132
0.0
 79
     0
146
0.0
 60
     3
 61
     5
292
     1
282
     1
141
0.0
142
0.0
 63
   250
  0
ENDTAB
  0
TABLE
  2
LTYPE
  5
5
330
0
100
AcDbSymbolTable
 70
     2
  0
LTYPE
  5
14
330
5
100
AcDbSymbolTableRecord
100
AcDbLinetypeTableRecord
  2
ByBlock
 70
     0
  3

 72
    65
 73
     0
 40
0.0
  0
LTYPE
  5
15
330
5
100
AcDbSymbolTableRecord
100
AcDbLinetypeTableRecord
  2
ByLayer
 70
     0
  3

 72
    65
 73
     0
 40
0.0
  0
LTYPE
  5
16
330
5
100
AcDbSymbolTableRecord
100
AcDbLinetypeTableRecord
  2
Continuous
 70
     0
  3
Solid line
 72
    65
 73
     0
 40
0.0
  0
LTYPE
  5
3F
330
5
100
AcDbSymbolTableRecord
100
AcDbLinetypeTableRecord
  2
JWW_DASHED1
 70
     0
  3
-  --  --  --  --  --  --  --  -
 72
    65
 73
     2
 40
1.693333333333333
 49
0.8466666666666667
 74
     0
 49
-0.8466666666666667
 74
     0
  0
ENDTAB
  0
TABLE
  2
LAYER
  5
2
330
0
100
AcDbSymbolTable
 70
     3
  0
LAYER
  5
10
330
2
100
AcDbSymbolTableRecord
100
AcDbLayerTableRecord
  2
0
 70
     0
 62
     7
  6
Continuous
370
    -3
390
F
347
3E
  0
LAYER
  5
40
330
2
100
AcDbSymbolTableRecord
100
AcDbLayerTableRecord
  2
寸法
 70
     0
 62
     7
  6
Continuous
370
    -3
390
F
347
3E
  0
LAYER
  5
41
330
2
100
AcDbSymbolTableRecord
100
AcDbLayerTableRecord
  2
0-0
 70
     0
 62
     7
  6
Continuous
370
    -3
390
F
347
3E
  0
ENDTAB
  0
TABLE
  2
STYLE
  5
3
330
0
100
AcDbSymbolTable
 70
     1
  0
STYLE
  5
11
330
3
100
AcDbSymbolTableRecord
100
AcDbTextStyleTableRecord
  2
Standard
 70
     0
 40
0.0
 41
1.0
 50
0.0
 71
     0
 42
2.5
  3
txt
  4

  0
ENDTAB
  0
TABLE
  2
VIEW
  5
6
330
0
100
AcDbSymbolTable
 70
     0
  0
ENDTAB
  0
TABLE
  2
UCS
  5
7
330
0
100
AcDbSymbolTable
 70
     0
  0
ENDTAB
  0
TABLE
  2
APPID
  5
9
330
0
100
AcDbSymbolTable
 70
     1
  0
APPID
  5
12
330
9
100
AcDbSymbolTableRecord
100
AcDbRegAppTableRecord
  2
ACAD
 70
     0
  0
ENDTAB
  0
TABLE
  2
DIMSTYLE
  5
A
330
0
100
AcDbSymbolTable
 70
     1
100
AcDbDimStyleTable
  0
DIMSTYLE
105
27
330
A
100
AcDbSymbolTableRecord
100
AcDbDimStyleTableRecord
  2
ISO-25
 70
     0
 41
2.5
 42
0.625
 43
3.75
 44
1.25
 73
     0
 74
     0
 77
     1
 78
     8
140
2.5
141
2.5
143
0.03937007874016
147
0.625
171
     3
172
     1
178
     0
271
     2
272
     2
274
     3
278
    44
283
     0
284
     8
340
11
  0
ENDTAB
  0
TABLE
  2
BLOCK_RECORD
  5
1
330
0
100
AcDbSymbolTable
 70
     1
  0
BLOCK_RECORD
  5
1F
330
1
100
AcDbSymbolTableRecord
100
AcDbBlockTableRecord
  2
*Model_Space
340
22
 70
     0
280
     1
281
     0
  0
BLOCK_RECORD
  5
1B
330
1
100
AcDbSymbolTableRecord
100
AcDbBlockTableRecord
  2
*Paper_Space
340
1E
 70
     0
280
     1
281
     0
  0
BLOCK_RECORD
  5
23
330
1
100
AcDbSymbolTableRecord
100
AcDbBlockTableRecord
  2
*Paper_Space0
340
26
 70
     0
280
     1
281
     0
  0
ENDTAB
  0
ENDSEC
  0
SECTION
  2
BLOCKS
  0
BLOCK
  5
20
330
1F
100
AcDbEntity
  8
0
100
AcDbBlockBegin
  2
*Model_Space
 70
     0
 10
0.0
 20
0.0
 30
0.0
  3
*Model_Space
  1

  0
ENDBLK
  5
21
330
1F
100
AcDbEntity
  8
0
100
AcDbBlockEnd
  0
BLOCK
  5
1C
330
1B
100
AcDbEntity
 67
     1
  8
0
100
AcDbBlockBegin
  2
*Paper_Space
 70
     0
 10
0.0
 20
0.0
 30
0.0
  3
*Paper_Space
  1

  0
ENDBLK
  5
1D
330
1B
100
AcDbEntity
 67
     1
  8
0
100
AcDbBlockEnd
  0
BLOCK
  5
24
330
23
100
AcDbEntity
  8
0
100
AcDbBlockBegin
  2
*Paper_Space0
 70
     0
 10
0.0
 20
0.0
 30
0.0
  3
*Paper_Space0
  1

  0
ENDBLK
  5
25
330
23
100
AcDbEntity
  8
0
100
AcDbBlockEnd
  0
ENDSEC
  0
SECTION
  2
ENTITIES
  0
LWPOLYLINE
  5
42
330
1F
100
AcDbEntity
  8
寸法
  6
Continuous
 62
     7
370
     9
100
AcDbPolyline
 90
        4
 70
     1
 43
3.0
 10
-197.1711687383681
 20
-1066.669811320757
 42
0.4142135623731
 10
-198.6711687383681
 20
-1065.169811320757
 42
0.4142135623731
 10
-200.1711687383681
 20
-1066.669811320757
 42
0.4142135623731
 10
-198.6711687383681
 20
-1068.169811320757
 42
0.4142135623731
  0
LWPOLYLINE
  5
43
330
1F
100
AcDbEntity
  8
寸法
  6
Continuous
 62
     7
370
     9
100
AcDbPolyline
 90
        4
 70
     1
 43
3.0
 10
-1007.171168738368
 20
-1066.669811320757
 42
0.4142135623731
 10
-1008.671168738368
 20
-1065.169811320757
 42
0.4142135623731
 10
-1010.171168738368
 20
-1066.669811320757
 42
0.4142135623731
 10
-1008.671168738368
 20
-1068.169811320757
 42
0.4142135623731
  0
LWPOLYLINE
  5
44
330
1F
100
AcDbEntity
  8
寸法
  6
Continuous
 62
     7
370
     9
100
AcDbPolyline
 90
        4
 70
     1
 43
3.0
 10
-1034.171168738367
 20
-1466.669811320757
 42
0.4142135623731
 10
-1035.671168738367
 20
-1465.169811320757
 42
0.4142135623731
 10
-1037.171168738367
 20
-1466.669811320757
 42
0.4142135623731
 10
-1035.671168738367
 20
-1468.169811320757
 42
0.4142135623731
  0
LWPOLYLINE
  5
45
330
1F
100
AcDbEntity
  8
寸法
  6
Continuous
 62
     7
370
     9
100
AcDbPolyline
 90
        4
 70
     1
 43
3.0
 10
-1004.171168738367
 20
-1266.669811320757
 42
0.4142135623731
 10
-1005.671168738367
 20
-1265.169811320757
 42
0.4142135623731
 10
-1007.171168738367
 20
-1266.669811320757
 42
0.4142135623731
 10
-1005.671168738367
 20
-1268.169811320757
 42
0.4142135623731
  0
LINE
  5
46
330
1F
100
AcDbEntity
  8
寸法
  6
Continuous
 62
   120
370
     5
100
AcDbLine
 10
-198.6711687383681
 20
-1066.669811320757
 30
0.0
 11
-198.6711687383681
 21
-866.6698113207578
 31
0.0
  0
LINE
  5
47
330
1F
100
AcDbEntity
  8
寸法
  6
Continuous
 62
   120
370
     5
100
AcDbLine
 10
-1008.671168738368
 20
-1066.669811320757
 30
0.0
 11
-198.6711687383681
 21
-1066.669811320757
 31
0.0
  0
LINE
  5
48
330
1F
100
AcDbEntity
  8
寸法
  6
Continuous
 62
   120
370
     5
100
AcDbLine
 10
-1008.671168738368
 20
-1066.669811320757
 30
0.0
 11
-1008.671168738368
 21
-866.6698113207578
 31
0.0
  0
LINE
  5
49
330
1F
100
AcDbEntity
  8
寸法
  6
Continuous
 62
   120
370
     5
100
AcDbLine
 10
-1035.671168738367
 20
-1466.669811320757
 30
0.0
 11
-1035.671168738367
 21
-866.6698113207578
 31
0.0
  0
LINE
  5
4A
330
1F
100
AcDbEntity
  8
寸法
  6
Continuous
 62
   120
370
     5
100
AcDbLine
 10
-1005.671168738367
 20
-1266.669811320757
 30
0.0
 11
-1005.671168738367
 21
-866.6698113207578
 31
0.0
  0
LWPOLYLINE
  5
4B
330
1F
100
AcDbEntity
  8
寸法
  6
Continuous
 62
     7
370
     9
100
AcDbPolyline
 90
        4
 70
     1
 43
3.0
 10
-1484.171168738367
 20
-816.6698113207573
 42
0.4142135623731
 10
-1485.671168738367
 20
-815.1698113207573
 42
0.4142135623731
 10
-1487.171168738367
 20
-816.6698113207573
 42
0.4142135623731
 10
-1485.671168738367
 20
-818.1698113207573
 42
0.4142135623731
  0
LINE
  5
4C
330
1F
100
AcDbEntity
  8
寸法
  6
Continuous
 62
   120
370
     5
100
AcDbLine
 10
-1485.671168738367
 20
-816.6698113207573
 30
0.0
 11
-1085.671168738366
 21
-816.6698113207573
 31
0.0
  0
LWPOLYLINE
  5
4D
330
1F
100
AcDbEntity
  8
寸法
  6
Continuous
 62
     7
370
     9
100
AcDbPolyline
 90
        4
 70
     1
 43
3.0
 10
-1484.171168738367
 20
1218.330188679242
 42
0.4142135623731
 10
-1485.671168738367
 20
1219.830188679242
 42
0.4142135623731
 10
-1487.171168738367
 20
1218.330188679242
 42
0.4142135623731
 10
-1485.671168738367
 20
1216.830188679242
 42
0.4142135623731
  0
LINE
  5
4E
330
1F
100
AcDbEntity
  8
寸法
  6
Continuous
 62
   120
370
     5
100
AcDbLine
 10
-1485.671168738367
 20
1218.330188679242
 30
0.0
 11
-1085.671168738366
 21
1218.330188679242
 31
0.0
  0
LINE
  5
4F
330
1F
100
AcDbEntity
  8
寸法
  6
Continuous
 62
   120
370
     5
100
AcDbLine
 10
-1485.671168738367
 20
1218.330188679242
 30
0.0
 11
-1485.671168738367
 21
-816.6698113207573
 31
0.0
  0
LWPOLYLINE
  5
50
330
1F
100
AcDbEntity
  8
寸法
  6
Continuous
 62
     7
370
     9
100
AcDbPolyline
 90
        4
 70
     1
 43
3.0
 10
2045.828831261633
 20
-1466.669811320756
 42
0.4142135623731
 10
2044.328831261633
 20
-1465.169811320757
 42
0.4142135623731
 10
2042.828831261633
 20
-1466.669811320756
 42
0.4142135623731
 10
2044.328831261633
 20
-1468.169811320756
 42
0.4142135623731
  0
LINE
  5
51
330
1F
100
AcDbEntity
  8
寸法
  6
Continuous
 62
   120
370
     5
100
AcDbLine
 10
2044.328831261633
 20
-1466.669811320756
 30
0.0
 11
2044.328831261633
 21
-866.6698113207568
 31
0.0
  0
LINE
  5
52
330
1F
100
AcDbEntity
  8
寸法
  6
Continuous
 62
   120
370
     5
100
AcDbLine
 10
-1035.671168738367
 20
-1466.669811320757
 30
0.0
 11
2044.328831261633
 21
-1466.669811320756
 31
0.0
  0
LWPOLYLINE
  5
53
330
1F
100
AcDbEntity
  8
寸法
  6
Continuous
 62
     7
370
     9
100
AcDbPolyline
 90
        4
 70
     1
 43
3.0
 10
1205.828831261633
 20
-1266.669811320757
 42
0.4142135623731
 10
1204.328831261633
 20
-1265.169811320757
 42
0.4142135623731
 10
1202.828831261633
 20
-1266.669811320757
 42
0.4142135623731
 10
1204.328831261633
 20
-1268.169811320757
 42
0.4142135623731
  0
LINE
  5
54
330
1F
100
AcDbEntity
  8
寸法
  6
Continuous
 62
   120
370
     5
100
AcDbLine
 10
1204.328831261633
 20
-1266.669811320757
 30
0.0
 11
1204.328831261633
 21
-866.6698113207568
 31
0.0
  0
LINE
  5
55
330
1F
100
AcDbEntity
  8
寸法
  6
Continuous
 62
   120
370
     5
100
AcDbLine
 10
-1005.671168738367
 20
-1266.669811320757
 30
0.0
 11
1204.328831261633
 21
-1266.669811320757
 31
0.0
  0
LWPOLYLINE
  5
56
330
1F
100
AcDbEntity
  8
寸法
  6
Continuous
 62
     7
370
     9
100
AcDbPolyline
 90
        4
 70
     1
 43
3.0
 10
-1284.171168738369
 20
1174.330188679242
 42
0.4142135623731
 10
-1285.671168738369
 20
1175.830188679242
 42
0.4142135623731
 10
-1287.171168738368
 20
1174.330188679242
 42
0.4142135623731
 10
-1285.671168738369
 20
1172.830188679242
 42
0.4142135623731
  0
LINE
  5
57
330
1F
100
AcDbEntity
  8
寸法
  6
Continuous
 62
   120
370
     5
100
AcDbLine
 10
-1285.671168738369
 20
1174.330188679242
 30
0.0
 11
-1285.671168738369
 21
-808.6698113207582
 31
0.0
  0
LINE
  5
58
330
1F
100
AcDbEntity
  8
寸法
  6
Continuous
 62
   120
370
     5
100
AcDbLine
 10
-1285.671168738369
 20
1174.330188679242
 30
0.0
 11
-1085.671168738366
 21
1174.330188679242
 31
0.0
  0
LWPOLYLINE
  5
59
330
1F
100
AcDbEntity
  8
寸法
  6
Continuous
 62
     7
370
     9
100
AcDbPolyline
 90
        4
 70
     1
 43
3.0
 10
-1284.171168738369
 20
-808.6698113207582
 42
0.4142135623731
 10
-1285.671168738369
 20
-807.1698113207581
 42
0.4142135623731
 10
-1287.171168738368
 20
-808.6698113207582
 42
0.4142135623731
 10
-1285.671168738369
 20
-810.1698113207582
 42
0.4142135623731
  0
LINE
  5
5A
330
1F
100
AcDbEntity
  8
寸法
  6
Continuous
 62
   120
370
     5
100
AcDbLine
 10
-1285.671168738369
 20
-808.6698113207582
 30
0.0
 11
-1085.671168738366
 21
-808.6698113207582
 31
0.0
  0
MTEXT
  5
5B
330
1F
100
AcDbEntity
  8
寸法
  6
Continuous
 62
     7
370
    70
100
AcDbMText
 10
-1500.671168738367
 20
-19.84481132075684
 30
0.0
 40
57.14999999999999
 41
412.5
 46
0.0
 71
     7
 72
     1
  1
{\fＭＳ ゴシック|b0|i0|c128|p49;枠外＝2,035}
 11
6.123031769111886E-17
 21
1.0
 31
0.0
 73
     1
 44
1.0
  0
MTEXT
  5
5C
330
1F
100
AcDbEntity
  8
寸法
  6
Continuous
 62
     7
370
    70
100
AcDbMText
 10
-1300.671168738369
 20
-26.34481132075815
 30
0.0
 40
57.14999999999999
 41
412.5
 46
0.0
 71
     7
 72
     1
  1
{\fＭＳ ゴシック|b0|i0|c128|p49;ＤＨ＝1,983}
 11
6.123031769111886E-17
 21
1.0
 31
0.0
 73
     1
 44
1.0
  0
MTEXT
  5
5D
330
1F
100
AcDbEntity
  8
寸法
  6
Continuous
 62
     7
370
   211
100
AcDbMText
 10
-772.4211687383681
 20
-1060.594811320757
 30
0.0
 40
57.15
 41
337.5
 46
0.0
 71
     7
 72
     1
  1
{\fＭＳ ゴシック|b0|i0|c128|p49;ＤＷ＝810}
 73
     1
 44
1.0
  0
MTEXT
  5
5E
330
1F
100
AcDbEntity
  8
寸法
  6
Continuous
 62
     7
370
   211
100
AcDbMText
 10
-181.921168738368
 20
-1260.594811320757
 30
0.0
 40
57.15000000000001
 41
562.5
 46
0.0
 71
     7
 72
     1
  1
{\fＭＳ ゴシック|b0|i0|c128|p49;有効開口＝2,210}
 73
     1
 44
1.0
  0
MTEXT
  5
5F
330
1F
100
AcDbEntity
  8
寸法
  6
Continuous
 62
     7
370
   211
100
AcDbMText
 10
298.0788312616321
 20
-1460.594811320757
 30
0.0
 40
57.14999999999998
 41
412.4999999999999
 46
0.0
 71
     7
 72
     1
  1
{\fＭＳ ゴシック|b0|i0|c128|p49;枠外＝3,080}
 73
     1
 44
1.0
  0
LINE
  5
60
330
1F
100
AcDbEntity
  8
0-0
  6
Continuous
 62
    92
370
    13
100
AcDbLine
 10
-1005.671168738367
 20
-816.6698113207564
 30
0.0
 11
-1035.671168738367
 21
-816.6698113207564
 31
0.0
  0
LINE
  5
61
330
1F
100
AcDbEntity
  8
0-0
  6
Continuous
 62
    92
370
    13
100
AcDbLine
 10
-1035.671168738367
 20
-816.6698113207564
 30
0.0
 11
-1035.671168738367
 21
1218.330188679242
 31
0.0
  0
LINE
  5
62
330
1F
100
AcDbEntity
  8
0-0
  6
Continuous
 62
    92
370
    13
100
AcDbLine
 10
-1005.671168738367
 20
-816.6698113207564
 30
0.0
 11
-1005.671168738367
 21
1218.330188679242
 31
0.0
  0
LINE
  5
63
330
1F
100
AcDbEntity
  8
0-0
  6
Continuous
 62
    92
370
    13
100
AcDbLine
 10
2044.328831261633
 20
-816.6698113207564
 30
0.0
 11
2014.328831261633
 21
-816.6698113207564
 31
0.0
  0
LINE
  5
64
330
1F
100
AcDbEntity
  8
0-0
  6
Continuous
 62
    92
370
    13
100
AcDbLine
 10
-1005.671168738367
 20
1188.330188679244
 30
0.0
 11
2014.328831261633
 21
1188.330188679244
 31
0.0
  0
LINE
  5
65
330
1F
100
AcDbEntity
  8
0-0
  6
Continuous
 62
    92
370
    13
100
AcDbLine
 10
-1035.671168738367
 20
1218.330188679242
 30
0.0
 11
2044.328831261633
 21
1218.330188679242
 31
0.0
  0
LINE
  5
66
330
1F
100
AcDbEntity
  8
0-0
  6
Continuous
 62
    92
370
    13
100
AcDbLine
 10
2044.328831261633
 20
1218.330188679242
 30
0.0
 11
2044.328831261633
 21
-816.6698113207564
 31
0.0
  0
LINE
  5
67
330
1F
100
AcDbEntity
  8
0-0
  6
Continuous
 62
    92
370
    13
100
AcDbLine
 10
2014.328831261633
 20
-816.6698113207564
 30
0.0
 11
2014.328831261633
 21
1218.330188679242
 31
0.0
  0
LINE
  5
68
330
1F
100
AcDbEntity
  8
0-0
  6
Continuous
 62
    92
370
    13
100
AcDbLine
 10
1204.328831261633
 20
-816.6698113207573
 30
0.0
 11
1234.328831261633
 21
-816.6698113207573
 31
0.0
  0
LINE
  5
69
330
1F
100
AcDbEntity
  8
0-0
  6
JWW_DASHED1
 62
   120
370
     5
100
AcDbLine
 10
-198.6711687383681
 20
-808.6698113207573
 30
0.0
 11
-198.6711687383681
 21
1174.330188679242
 31
0.0
  0
LINE
  5
6A
330
1F
100
AcDbEntity
  8
0-0
  6
JWW_DASHED1
 62
   120
370
     5
100
AcDbLine
 10
-1008.671168738368
 20
1174.330188679242
 30
0.0
 11
-1005.671168738367
 21
1174.330188679242
 31
0.0
  0
LINE
  5
6B
330
1F
100
AcDbEntity
  8
0-0
  6
JWW_DASHED1
 62
   120
370
     5
100
AcDbLine
 10
-1008.671168738368
 20
-808.6698113207573
 30
0.0
 11
-1008.671168738368
 21
1174.330188679242
 31
0.0
  0
LINE
  5
6C
330
1F
100
AcDbEntity
  8
0-0
  6
JWW_DASHED1
 62
   120
370
     5
100
AcDbLine
 10
-1005.671168738367
 20
-808.6698113207573
 30
0.0
 11
-1008.671168738368
 21
-808.6698113207573
 31
0.0
  0
LINE
  5
6D
330
1F
100
AcDbEntity
  8
0-0
  6
Continuous
 62
     7
370
     9
100
AcDbLine
 10
-972.6711687383668
 20
178.4301886792423
 30
0.0
 11
-972.6711687383668
 21
119.2301886792425
 31
0.0
  0
LINE
  5
6E
330
1F
100
AcDbEntity
  8
0-0
  6
Continuous
 62
     7
370
     9
100
AcDbLine
 10
-942.6711687383668
 20
119.2301886792425
 30
0.0
 11
-942.6711687383668
 21
178.4301886792423
 31
0.0
  0
ARC
  5
6F
330
1F
100
AcDbEntity
  8
0-0
  6
Continuous
 62
     7
370
     9
100
AcDbCircle
 10
-957.6711687383668
 20
178.4301886792423
 30
0.0
 40
15.0
100
AcDbArc
 50
0.0
 51
180.0
  0
ARC
  5
70
330
1F
100
AcDbEntity
  8
0-0
  6
Continuous
 62
     7
370
     9
100
AcDbCircle
 10
-957.6711687383668
 20
119.2301886792425
 30
0.0
 40
15.0
100
AcDbArc
 50
180.0
 51
0.0
  0
ARC
  5
71
330
1F
100
AcDbEntity
  8
0-0
  6
Continuous
 62
    92
370
    13
100
AcDbCircle
 10
-977.1711687383661
 20
89.3301886792424
 30
0.0
 40
1.5
100
AcDbArc
 50
180.0
 51
270.0
  0
LINE
  5
72
330
1F
100
AcDbEntity
  8
0-0
  6
Continuous
 62
    92
370
    13
100
AcDbLine
 10
-978.6711687383663
 20
89.3301886792424
 30
0.0
 11
-978.6711687383663
 21
208.3301886792424
 31
0.0
  0
LINE
  5
73
330
1F
100
AcDbEntity
  8
0-0
  6
Continuous
 62
    92
370
    13
100
AcDbLine
 10
-977.1711687383661
 20
87.83018867924206
 30
0.0
 11
-938.1711687383674
 21
87.83018867924206
 31
0.0
  0
ARC
  5
74
330
1F
100
AcDbEntity
  8
0-0
  6
Continuous
 62
    92
370
    13
100
AcDbCircle
 10
-938.1711687383674
 20
89.3301886792424
 30
0.0
 40
1.5
100
AcDbArc
 50
270.0
 51
0.0
  0
LINE
  5
75
330
1F
100
AcDbEntity
  8
0-0
  6
Continuous
 62
    92
370
    13
100
AcDbLine
 10
-936.671168738367
 20
89.3301886792424
 30
0.0
 11
-936.671168738367
 21
208.3301886792424
 31
0.0
  0
ARC
  5
76
330
1F
100
AcDbEntity
  8
0-0
  6
Continuous
 62
    92
370
    13
100
AcDbCircle
 10
-938.1711687383674
 20
208.3301886792424
 30
0.0
 40
1.5
100
AcDbArc
 50
0.0
 51
90.00000000000001
  0
LINE
  5
77
330
1F
100
AcDbEntity
  8
0-0
  6
Continuous
 62
    92
370
    13
100
AcDbLine
 10
-938.1711687383674
 20
209.8301886792424
 30
0.0
 11
-977.1711687383661
 21
209.8301886792424
 31
0.0
  0
ARC
  5
78
330
1F
100
AcDbEntity
  8
0-0
  6
Continuous
 62
    92
370
    13
100
AcDbCircle
 10
-977.1711687383661
 20
208.3301886792424
 30
0.0
 40
1.5
100
AcDbArc
 50
90.0
 51
180.0
  0
LINE
  5
79
330
1F
100
AcDbEntity
  8
0-0
  6
JWW_DASHED1
 62
   120
370
     5
100
AcDbLine
 10
533.328831261633
 20
-808.6698113207573
 30
0.0
 11
533.328831261633
 21
1174.330188679242
 31
0.0
  0
LINE
  5
7A
330
1F
100
AcDbEntity
  8
0-0
  6
Continuous
 62
    92
370
    13
100
AcDbLine
 10
-276.671168738367
 20
1174.330188679242
 30
0.0
 11
-276.671168738367
 21
-808.6698113207573
 31
0.0
  0
LINE
  5
7B
330
1F
100
AcDbEntity
  8
0-0
  6
Continuous
 62
    92
370
    13
100
AcDbLine
 10
455.328831261632
 20
1174.330188679242
 30
0.0
 11
455.328831261632
 21
-808.6698113207573
 31
0.0
  0
LINE
  5
7C
330
1F
100
AcDbEntity
  8
0-0
  6
Continuous
 62
    92
370
    13
100
AcDbLine
 10
-1005.671168738367
 20
1174.330188679242
 30
0.0
 11
1265.328831261632
 21
1174.330188679242
 31
0.0
  0
LINE
  5
7D
330
1F
100
AcDbEntity
  8
0-0
  6
Continuous
 62
    92
370
    13
100
AcDbLine
 10
1265.328831261632
 20
1174.330188679242
 30
0.0
 11
1265.328831261632
 21
-808.6698113207573
 31
0.0
  0
LINE
  5
7E
330
1F
100
AcDbEntity
  8
0-0
  6
Continuous
 62
    92
370
    13
100
AcDbLine
 10
-1005.671168738367
 20
-808.6698113207573
 30
0.0
 11
1265.328831261632
 21
-808.6698113207573
 31
0.0
  0
LINE
  5
7F
330
1F
100
AcDbEntity
  8
0-0
  6
JWW_DASHED1
 62
   120
370
     5
100
AcDbLine
 10
1234.328831261633
 20
-808.6698113207573
 30
0.0
 11
1234.328831261633
 21
1188.330188679244
 31
0.0
  0
LINE
  5
80
330
1F
100
AcDbEntity
  8
0-0
  6
JWW_DASHED1
 62
   120
370
     5
100
AcDbLine
 10
1204.328831261633
 20
-808.6698113207573
 30
0.0
 11
1204.328831261633
 21
1188.330188679244
 31
0.0
  0
LINE
  5
81
330
1F
100
AcDbEntity
  8
0-0
  6
Continuous
 62
    92
370
    13
100
AcDbLine
 10
1234.328831261633
 20
-808.6698113207573
 30
0.0
 11
1234.328831261633
 21
-816.6698113207573
 31
0.0
  0
LINE
  5
82
330
1F
100
AcDbEntity
  8
0-0
  6
Continuous
 62
    92
370
    13
100
AcDbLine
 10
1204.328831261633
 20
-808.6698113207573
 30
0.0
 11
1204.328831261633
 21
-816.6698113207573
 31
0.0
  0
LINE
  5
83
330
1F
100
AcDbEntity
  8
0-0
  6
Continuous
 62
     7
370
     9
100
AcDbLine
 10
-890.1711687383676
 20
-658.6698113207573
 30
0.0
 11
-905.1711687383676
 21
-673.6698113207573
 31
0.0
  0
LINE
  5
84
330
1F
100
AcDbEntity
  8
0-0
  6
Continuous
 62
     7
370
     9
100
AcDbLine
 10
-905.1711687383676
 20
1054.330188679243
 30
0.0
 11
-890.1711687383676
 21
1039.330188679243
 31
0.0
  0
LINE
  5
85
330
1F
100
AcDbEntity
  8
0-0
  6
Continuous
 62
     7
370
     9
100
AcDbLine
 10
-905.1711687383676
 20
-808.6698113207573
 30
0.0
 11
-905.1711687383676
 21
1174.330188679243
 31
0.0
  0
LINE
  5
86
330
1F
100
AcDbEntity
  8
0-0
  6
Continuous
 62
     7
370
     9
100
AcDbLine
 10
-317.171168738369
 20
-658.6698113207573
 30
0.0
 11
-302.171168738369
 21
-673.6698113207573
 31
0.0
  0
LINE
  5
87
330
1F
100
AcDbEntity
  8
0-0
  6
Continuous
 62
     7
370
     9
100
AcDbLine
 10
-302.171168738369
 20
1054.330188679243
 30
0.0
 11
-317.171168738369
 21
1039.330188679243
 31
0.0
  0
LINE
  5
88
330
1F
100
AcDbEntity
  8
0-0
  6
Continuous
 62
     7
370
     9
100
AcDbLine
 10
-302.171168738369
 20
-808.6698113207573
 30
0.0
 11
-302.171168738369
 21
1174.330188679243
 31
0.0
  0
LINE
  5
89
330
1F
100
AcDbEntity
  8
0-0
  6
Continuous
 62
     7
370
     9
100
AcDbLine
 10
-905.1711687383676
 20
1054.330188679243
 30
0.0
 11
-302.171168738369
 21
1054.330188679243
 31
0.0
  0
LINE
  5
8A
330
1F
100
AcDbEntity
  8
0-0
  6
Continuous
 62
     7
370
     9
100
AcDbLine
 10
-905.1711687383676
 20
-673.6698113207573
 30
0.0
 11
-302.171168738369
 21
-673.6698113207573
 31
0.0
  0
LINE
  5
8B
330
1F
100
AcDbEntity
  8
0-0
  6
Continuous
 62
     7
370
     9
100
AcDbLine
 10
-890.1711687383676
 20
-135.6698113207572
 30
0.0
 11
-905.1711687383676
 21
-150.6698113207572
 31
0.0
  0
LINE
  5
8C
330
1F
100
AcDbEntity
  8
0-0
  6
Continuous
 62
     7
370
     9
100
AcDbLine
 10
-905.1711687383676
 20
-225.6698113207572
 30
0.0
 11
-890.1711687383676
 21
-240.6698113207572
 31
0.0
  0
LINE
  5
8D
330
1F
100
AcDbEntity
  8
0-0
  6
Continuous
 62
     7
370
     9
100
AcDbLine
 10
-317.171168738369
 20
-135.6698113207572
 30
0.0
 11
-302.171168738369
 21
-150.6698113207572
 31
0.0
  0
LINE
  5
8E
330
1F
100
AcDbEntity
  8
0-0
  6
Continuous
 62
     7
370
     9
100
AcDbLine
 10
-302.171168738369
 20
-225.6698113207572
 30
0.0
 11
-317.171168738369
 21
-240.6698113207572
 31
0.0
  0
LINE
  5
8F
330
1F
100
AcDbEntity
  8
0-0
  6
Continuous
 62
     7
370
     9
100
AcDbLine
 10
-905.1711687383676
 20
-150.6698113207572
 30
0.0
 11
-302.171168738369
 21
-150.6698113207572
 31
0.0
  0
LINE
  5
90
330
1F
100
AcDbEntity
  8
0-0
  6
Continuous
 62
     7
370
     9
100
AcDbLine
 10
-905.1711687383676
 20
-225.6698113207572
 30
0.0
 11
-302.171168738369
 21
-225.6698113207572
 31
0.0
  0
LINE
  5
91
330
1F
100
AcDbEntity
  8
0-0
  6
Continuous
 62
     7
370
     9
100
AcDbLine
 10
-860.1711687383676
 20
-628.6698113207573
 30
0.0
 11
-860.1711687383676
 21
-270.6698113207572
 31
0.0
  0
LINE
  5
92
330
1F
100
AcDbEntity
  8
0-0
  6
Continuous
 62
     7
370
     9
100
AcDbLine
 10
-860.1711687383676
 20
-628.6698113207573
 30
0.0
 11
-875.1711687383676
 21
-643.6698113207573
 31
0.0
  0
LINE
  5
93
330
1F
100
AcDbEntity
  8
0-0
  6
Continuous
 62
     7
370
     9
100
AcDbLine
 10
-875.1711687383676
 20
-255.6698113207572
 30
0.0
 11
-860.1711687383676
 21
-270.6698113207572
 31
0.0
  0
LINE
  5
94
330
1F
100
AcDbEntity
  8
0-0
  6
Continuous
 62
     7
370
     9
100
AcDbLine
 10
-347.171168738369
 20
-628.6698113207573
 30
0.0
 11
-332.171168738369
 21
-643.6698113207573
 31
0.0
  0
LINE
  5
95
330
1F
100
AcDbEntity
  8
0-0
  6
Continuous
 62
     7
370
     9
100
AcDbLine
 10
-332.171168738369
 20
-255.6698113207572
 30
0.0
 11
-347.171168738369
 21
-270.6698113207572
 31
0.0
  0
LINE
  5
96
330
1F
100
AcDbEntity
  8
0-0
  6
Continuous
 62
     7
370
     9
100
AcDbLine
 10
-860.1711687383676
 20
-270.6698113207572
 30
0.0
 11
-347.171168738369
 21
-270.6698113207572
 31
0.0
  0
LINE
  5
97
330
1F
100
AcDbEntity
  8
0-0
  6
Continuous
 62
     7
370
     9
100
AcDbLine
 10
-347.171168738369
 20
-628.6698113207573
 30
0.0
 11
-347.171168738369
 21
-270.6698113207572
 31
0.0
  0
LINE
  5
98
330
1F
100
AcDbEntity
  8
0-0
  6
Continuous
 62
     7
370
     9
100
AcDbLine
 10
-860.1711687383676
 20
-628.6698113207573
 30
0.0
 11
-347.171168738369
 21
-628.6698113207573
 31
0.0
  0
LINE
  5
99
330
1F
100
AcDbEntity
  8
0-0
  6
Continuous
 62
    92
370
    13
100
AcDbLine
 10
-890.1711687383676
 20
1039.330188679243
 30
0.0
 11
-317.171168738369
 21
1039.330188679243
 31
0.0
  0
LINE
  5
9A
330
1F
100
AcDbEntity
  8
0-0
  6
Continuous
 62
    92
370
    13
100
AcDbLine
 10
-890.1711687383676
 20
-658.6698113207573
 30
0.0
 11
-317.171168738369
 21
-658.6698113207573
 31
0.0
  0
LINE
  5
9B
330
1F
100
AcDbEntity
  8
0-0
  6
Continuous
 62
    92
370
    13
100
AcDbLine
 10
-890.1711687383676
 20
-135.6698113207572
 30
0.0
 11
-317.171168738369
 21
-135.6698113207572
 31
0.0
  0
LINE
  5
9C
330
1F
100
AcDbEntity
  8
0-0
  6
Continuous
 62
    92
370
    13
100
AcDbLine
 10
-890.1711687383676
 20
-240.6698113207572
 30
0.0
 11
-317.171168738369
 21
-240.6698113207572
 31
0.0
  0
LINE
  5
9D
330
1F
100
AcDbEntity
  8
0-0
  6
Continuous
 62
    92
370
    13
100
AcDbLine
 10
-890.1711687383676
 20
-135.6698113207572
 30
0.0
 11
-890.1711687383676
 21
1039.330188679243
 31
0.0
  0
LINE
  5
9E
330
1F
100
AcDbEntity
  8
0-0
  6
Continuous
 62
    92
370
    13
100
AcDbLine
 10
-890.1711687383676
 20
-658.6698113207573
 30
0.0
 11
-890.1711687383676
 21
-240.6698113207572
 31
0.0
  0
LINE
  5
9F
330
1F
100
AcDbEntity
  8
0-0
  6
Continuous
 62
    92
370
    13
100
AcDbLine
 10
-317.171168738369
 20
-135.6698113207572
 30
0.0
 11
-317.171168738369
 21
1039.330188679243
 31
0.0
  0
LINE
  5
A0
330
1F
100
AcDbEntity
  8
0-0
  6
Continuous
 62
    92
370
    13
100
AcDbLine
 10
-317.171168738369
 20
-658.6698113207573
 30
0.0
 11
-317.171168738369
 21
-240.6698113207572
 31
0.0
  0
LINE
  5
A1
330
1F
100
AcDbEntity
  8
0-0
  6
Continuous
 62
     7
370
     9
100
AcDbLine
 10
-158.1711687383665
 20
-658.6698113207573
 30
0.0
 11
-173.1711687383665
 21
-673.6698113207573
 31
0.0
  0
LINE
  5
A2
330
1F
100
AcDbEntity
  8
0-0
  6
Continuous
 62
     7
370
     9
100
AcDbLine
 10
-173.1711687383665
 20
1054.330188679243
 30
0.0
 11
-158.1711687383665
 21
1039.330188679243
 31
0.0
  0
LINE
  5
A3
330
1F
100
AcDbEntity
  8
0-0
  6
Continuous
 62
     7
370
     9
100
AcDbLine
 10
-173.1711687383665
 20
-808.6698113207573
 30
0.0
 11
-173.1711687383665
 21
1174.330188679243
 31
0.0
  0
LINE
  5
A4
330
1F
100
AcDbEntity
  8
0-0
  6
Continuous
 62
     7
370
     9
100
AcDbLine
 10
414.828831261632
 20
-658.6698113207573
 30
0.0
 11
429.828831261632
 21
-673.6698113207573
 31
0.0
  0
LINE
  5
A5
330
1F
100
AcDbEntity
  8
0-0
  6
Continuous
 62
     7
370
     9
100
AcDbLine
 10
429.828831261632
 20
1054.330188679243
 30
0.0
 11
414.828831261632
 21
1039.330188679243
 31
0.0
  0
LINE
  5
A6
330
1F
100
AcDbEntity
  8
0-0
  6
Continuous
 62
     7
370
     9
100
AcDbLine
 10
429.828831261632
 20
-808.6698113207573
 30
0.0
 11
429.828831261632
 21
1174.330188679243
 31
0.0
  0
LINE
  5
A7
330
1F
100
AcDbEntity
  8
0-0
  6
Continuous
 62
     7
370
     9
100
AcDbLine
 10
-173.1711687383665
 20
1054.330188679243
 30
0.0
 11
429.828831261632
 21
1054.330188679243
 31
0.0
  0
LINE
  5
A8
330
1F
100
AcDbEntity
  8
0-0
  6
Continuous
 62
     7
370
     9
100
AcDbLine
 10
-173.1711687383665
 20
-673.6698113207573
 30
0.0
 11
429.828831261632
 21
-673.6698113207573
 31
0.0
  0
LINE
  5
A9
330
1F
100
AcDbEntity
  8
0-0
  6
Continuous
 62
     7
370
     9
100
AcDbLine
 10
-158.1711687383665
 20
-135.6698113207572
 30
0.0
 11
-173.1711687383665
 21
-150.6698113207572
 31
0.0
  0
LINE
  5
AA
330
1F
100
AcDbEntity
  8
0-0
  6
Continuous
 62
     7
370
     9
100
AcDbLine
 10
-173.1711687383665
 20
-225.6698113207572
 30
0.0
 11
-158.1711687383665
 21
-240.6698113207572
 31
0.0
  0
LINE
  5
AB
330
1F
100
AcDbEntity
  8
0-0
  6
Continuous
 62
     7
370
     9
100
AcDbLine
 10
414.828831261632
 20
-135.6698113207572
 30
0.0
 11
429.828831261632
 21
-150.6698113207572
 31
0.0
  0
LINE
  5
AC
330
1F
100
AcDbEntity
  8
0-0
  6
Continuous
 62
     7
370
     9
100
AcDbLine
 10
429.828831261632
 20
-225.6698113207572
 30
0.0
 11
414.828831261632
 21
-240.6698113207572
 31
0.0
  0
LINE
  5
AD
330
1F
100
AcDbEntity
  8
0-0
  6
Continuous
 62
     7
370
     9
100
AcDbLine
 10
-173.1711687383665
 20
-150.6698113207572
 30
0.0
 11
429.828831261632
 21
-150.6698113207572
 31
0.0
  0
LINE
  5
AE
330
1F
100
AcDbEntity
  8
0-0
  6
Continuous
 62
     7
370
     9
100
AcDbLine
 10
-173.1711687383665
 20
-225.6698113207572
 30
0.0
 11
429.828831261632
 21
-225.6698113207572
 31
0.0
  0
LINE
  5
AF
330
1F
100
AcDbEntity
  8
0-0
  6
Continuous
 62
     7
370
     9
100
AcDbLine
 10
-128.1711687383665
 20
-628.6698113207573
 30
0.0
 11
-128.1711687383665
 21
-270.6698113207572
 31
0.0
  0
LINE
  5
B0
330
1F
100
AcDbEntity
  8
0-0
  6
Continuous
 62
     7
370
     9
100
AcDbLine
 10
-128.1711687383665
 20
-628.6698113207573
 30
0.0
 11
-143.1711687383665
 21
-643.6698113207573
 31
0.0
  0
LINE
  5
B1
330
1F
100
AcDbEntity
  8
0-0
  6
Continuous
 62
     7
370
     9
100
AcDbLine
 10
-143.1711687383665
 20
-255.6698113207572
 30
0.0
 11
-128.1711687383665
 21
-270.6698113207572
 31
0.0
  0
LINE
  5
B2
330
1F
100
AcDbEntity
  8
0-0
  6
Continuous
 62
     7
370
     9
100
AcDbLine
 10
384.828831261632
 20
-628.6698113207573
 30
0.0
 11
399.828831261632
 21
-643.6698113207573
 31
0.0
  0
LINE
  5
B3
330
1F
100
AcDbEntity
  8
0-0
  6
Continuous
 62
     7
370
     9
100
AcDbLine
 10
399.828831261632
 20
-255.6698113207572
 30
0.0
 11
384.828831261632
 21
-270.6698113207572
 31
0.0
  0
LINE
  5
B4
330
1F
100
AcDbEntity
  8
0-0
  6
Continuous
 62
     7
370
     9
100
AcDbLine
 10
-128.1711687383665
 20
-270.6698113207572
 30
0.0
 11
384.828831261632
 21
-270.6698113207572
 31
0.0
  0
LINE
  5
B5
330
1F
100
AcDbEntity
  8
0-0
  6
Continuous
 62
     7
370
     9
100
AcDbLine
 10
384.828831261632
 20
-628.6698113207573
 30
0.0
 11
384.828831261632
 21
-270.6698113207572
 31
0.0
  0
LINE
  5
B6
330
1F
100
AcDbEntity
  8
0-0
  6
Continuous
 62
     7
370
     9
100
AcDbLine
 10
-128.1711687383665
 20
-628.6698113207573
 30
0.0
 11
384.828831261632
 21
-628.6698113207573
 31
0.0
  0
LINE
  5
B7
330
1F
100
AcDbEntity
  8
0-0
  6
Continuous
 62
    92
370
    13
100
AcDbLine
 10
-158.1711687383665
 20
1039.330188679243
 30
0.0
 11
414.828831261632
 21
1039.330188679243
 31
0.0
  0
LINE
  5
B8
330
1F
100
AcDbEntity
  8
0-0
  6
Continuous
 62
    92
370
    13
100
AcDbLine
 10
-158.1711687383665
 20
-658.6698113207573
 30
0.0
 11
414.828831261632
 21
-658.6698113207573
 31
0.0
  0
LINE
  5
B9
330
1F
100
AcDbEntity
  8
0-0
  6
Continuous
 62
    92
370
    13
100
AcDbLine
 10
-158.1711687383665
 20
-135.6698113207572
 30
0.0
 11
414.828831261632
 21
-135.6698113207572
 31
0.0
  0
LINE
  5
BA
330
1F
100
AcDbEntity
  8
0-0
  6
Continuous
 62
    92
370
    13
100
AcDbLine
 10
-158.1711687383665
 20
-240.6698113207572
 30
0.0
 11
414.828831261632
 21
-240.6698113207572
 31
0.0
  0
LINE
  5
BB
330
1F
100
AcDbEntity
  8
0-0
  6
Continuous
 62
    92
370
    13
100
AcDbLine
 10
-158.1711687383665
 20
-135.6698113207572
 30
0.0
 11
-158.1711687383665
 21
1039.330188679243
 31
0.0
  0
LINE
  5
BC
330
1F
100
AcDbEntity
  8
0-0
  6
Continuous
 62
    92
370
    13
100
AcDbLine
 10
-158.1711687383665
 20
-658.6698113207573
 30
0.0
 11
-158.1711687383665
 21
-240.6698113207572
 31
0.0
  0
LINE
  5
BD
330
1F
100
AcDbEntity
  8
0-0
  6
Continuous
 62
    92
370
    13
100
AcDbLine
 10
414.828831261632
 20
-135.6698113207572
 30
0.0
 11
414.828831261632
 21
1039.330188679243
 31
0.0
  0
LINE
  5
BE
330
1F
100
AcDbEntity
  8
0-0
  6
Continuous
 62
    92
370
    13
100
AcDbLine
 10
414.828831261632
 20
-658.6698113207573
 30
0.0
 11
414.828831261632
 21
-240.6698113207572
 31
0.0
  0
LINE
  5
BF
330
1F
100
AcDbEntity
  8
0-0
  6
Continuous
 62
     7
370
     9
100
AcDbLine
 10
573.8288312616328
 20
-658.6698113207573
 30
0.0
 11
558.8288312616328
 21
-673.6698113207573
 31
0.0
  0
LINE
  5
C0
330
1F
100
AcDbEntity
  8
0-0
  6
Continuous
 62
     7
370
     9
100
AcDbLine
 10
558.8288312616328
 20
1054.330188679243
 30
0.0
 11
573.8288312616328
 21
1039.330188679243
 31
0.0
  0
LINE
  5
C1
330
1F
100
AcDbEntity
  8
0-0
  6
Continuous
 62
     7
370
     9
100
AcDbLine
 10
558.8288312616328
 20
-808.6698113207573
 30
0.0
 11
558.8288312616328
 21
1174.330188679243
 31
0.0
  0
LINE
  5
C2
330
1F
100
AcDbEntity
  8
0-0
  6
Continuous
 62
     7
370
     9
100
AcDbLine
 10
1146.828831261631
 20
-658.6698113207573
 30
0.0
 11
1161.828831261631
 21
-673.6698113207573
 31
0.0
  0
LINE
  5
C3
330
1F
100
AcDbEntity
  8
0-0
  6
Continuous
 62
     7
370
     9
100
AcDbLine
 10
1161.828831261631
 20
1054.330188679243
 30
0.0
 11
1146.828831261631
 21
1039.330188679243
 31
0.0
  0
LINE
  5
C4
330
1F
100
AcDbEntity
  8
0-0
  6
Continuous
 62
     7
370
     9
100
AcDbLine
 10
1161.828831261631
 20
-808.6698113207573
 30
0.0
 11
1161.828831261631
 21
1174.330188679243
 31
0.0
  0
LINE
  5
C5
330
1F
100
AcDbEntity
  8
0-0
  6
Continuous
 62
     7
370
     9
100
AcDbLine
 10
558.8288312616328
 20
1054.330188679243
 30
0.0
 11
1161.828831261631
 21
1054.330188679243
 31
0.0
  0
LINE
  5
C6
330
1F
100
AcDbEntity
  8
0-0
  6
Continuous
 62
     7
370
     9
100
AcDbLine
 10
558.8288312616328
 20
-673.6698113207573
 30
0.0
 11
1161.828831261631
 21
-673.6698113207573
 31
0.0
  0
LINE
  5
C7
330
1F
100
AcDbEntity
  8
0-0
  6
Continuous
 62
     7
370
     9
100
AcDbLine
 10
573.8288312616328
 20
-135.6698113207572
 30
0.0
 11
558.8288312616328
 21
-150.6698113207572
 31
0.0
  0
LINE
  5
C8
330
1F
100
AcDbEntity
  8
0-0
  6
Continuous
 62
     7
370
     9
100
AcDbLine
 10
558.8288312616328
 20
-225.6698113207572
 30
0.0
 11
573.8288312616328
 21
-240.6698113207572
 31
0.0
  0
LINE
  5
C9
330
1F
100
AcDbEntity
  8
0-0
  6
Continuous
 62
     7
370
     9
100
AcDbLine
 10
1146.828831261631
 20
-135.6698113207572
 30
0.0
 11
1161.828831261631
 21
-150.6698113207572
 31
0.0
  0
LINE
  5
CA
330
1F
100
AcDbEntity
  8
0-0
  6
Continuous
 62
     7
370
     9
100
AcDbLine
 10
1161.828831261631
 20
-225.6698113207572
 30
0.0
 11
1146.828831261631
 21
-240.6698113207572
 31
0.0
  0
LINE
  5
CB
330
1F
100
AcDbEntity
  8
0-0
  6
Continuous
 62
     7
370
     9
100
AcDbLine
 10
558.8288312616328
 20
-150.6698113207572
 30
0.0
 11
1161.828831261631
 21
-150.6698113207572
 31
0.0
  0
LINE
  5
CC
330
1F
100
AcDbEntity
  8
0-0
  6
Continuous
 62
     7
370
     9
100
AcDbLine
 10
558.8288312616328
 20
-225.6698113207572
 30
0.0
 11
1161.828831261631
 21
-225.6698113207572
 31
0.0
  0
LINE
  5
CD
330
1F
100
AcDbEntity
  8
0-0
  6
Continuous
 62
     7
370
     9
100
AcDbLine
 10
603.8288312616328
 20
-628.6698113207573
 30
0.0
 11
603.8288312616328
 21
-270.6698113207572
 31
0.0
  0
LINE
  5
CE
330
1F
100
AcDbEntity
  8
0-0
  6
Continuous
 62
     7
370
     9
100
AcDbLine
 10
603.8288312616328
 20
-628.6698113207573
 30
0.0
 11
588.8288312616328
 21
-643.6698113207573
 31
0.0
  0
LINE
  5
CF
330
1F
100
AcDbEntity
  8
0-0
  6
Continuous
 62
     7
370
     9
100
AcDbLine
 10
588.8288312616328
 20
-255.6698113207572
 30
0.0
 11
603.8288312616328
 21
-270.6698113207572
 31
0.0
  0
LINE
  5
D0
330
1F
100
AcDbEntity
  8
0-0
  6
Continuous
 62
     7
370
     9
100
AcDbLine
 10
1116.828831261631
 20
-628.6698113207573
 30
0.0
 11
1131.828831261631
 21
-643.6698113207573
 31
0.0
  0
LINE
  5
D1
330
1F
100
AcDbEntity
  8
0-0
  6
Continuous
 62
     7
370
     9
100
AcDbLine
 10
1131.828831261631
 20
-255.6698113207572
 30
0.0
 11
1116.828831261631
 21
-270.6698113207572
 31
0.0
  0
LINE
  5
D2
330
1F
100
AcDbEntity
  8
0-0
  6
Continuous
 62
     7
370
     9
100
AcDbLine
 10
603.8288312616328
 20
-270.6698113207572
 30
0.0
 11
1116.828831261631
 21
-270.6698113207572
 31
0.0
  0
LINE
  5
D3
330
1F
100
AcDbEntity
  8
0-0
  6
Continuous
 62
     7
370
     9
100
AcDbLine
 10
1116.828831261631
 20
-628.6698113207573
 30
0.0
 11
1116.828831261631
 21
-270.6698113207572
 31
0.0
  0
LINE
  5
D4
330
1F
100
AcDbEntity
  8
0-0
  6
Continuous
 62
     7
370
     9
100
AcDbLine
 10
603.8288312616328
 20
-628.6698113207573
 30
0.0
 11
1116.828831261631
 21
-628.6698113207573
 31
0.0
  0
LINE
  5
D5
330
1F
100
AcDbEntity
  8
0-0
  6
Continuous
 62
    92
370
    13
100
AcDbLine
 10
573.8288312616328
 20
1039.330188679243
 30
0.0
 11
1146.828831261631
 21
1039.330188679243
 31
0.0
  0
LINE
  5
D6
330
1F
100
AcDbEntity
  8
0-0
  6
Continuous
 62
    92
370
    13
100
AcDbLine
 10
573.8288312616328
 20
-658.6698113207573
 30
0.0
 11
1146.828831261631
 21
-658.6698113207573
 31
0.0
  0
LINE
  5
D7
330
1F
100
AcDbEntity
  8
0-0
  6
Continuous
 62
    92
370
    13
100
AcDbLine
 10
573.8288312616328
 20
-135.6698113207572
 30
0.0
 11
1146.828831261631
 21
-135.6698113207572
 31
0.0
  0
LINE
  5
D8
330
1F
100
AcDbEntity
  8
0-0
  6
Continuous
 62
    92
370
    13
100
AcDbLine
 10
573.8288312616328
 20
-240.6698113207572
 30
0.0
 11
1146.828831261631
 21
-240.6698113207572
 31
0.0
  0
LINE
  5
D9
330
1F
100
AcDbEntity
  8
0-0
  6
Continuous
 62
    92
370
    13
100
AcDbLine
 10
573.8288312616328
 20
-135.6698113207572
 30
0.0
 11
573.8288312616328
 21
1039.330188679243
 31
0.0
  0
LINE
  5
DA
330
1F
100
AcDbEntity
  8
0-0
  6
Continuous
 62
    92
370
    13
100
AcDbLine
 10
573.8288312616328
 20
-658.6698113207573
 30
0.0
 11
573.8288312616328
 21
-240.6698113207572
 31
0.0
  0
LINE
  5
DB
330
1F
100
AcDbEntity
  8
0-0
  6
Continuous
 62
    92
370
    13
100
AcDbLine
 10
1146.828831261631
 20
-135.6698113207572
 30
0.0
 11
1146.828831261631
 21
1039.330188679243
 31
0.0
  0
LINE
  5
DC
330
1F
100
AcDbEntity
  8
0-0
  6
Continuous
 62
    92
370
    13
100
AcDbLine
 10
1146.828831261631
 20
-658.6698113207573
 30
0.0
 11
1146.828831261631
 21
-240.6698113207572
 31
0.0
  0
LINE
  5
DD
330
1F
100
AcDbEntity
  8
0-0
  6
JWW_DASHED1
 62
   120
370
     5
100
AcDbLine
 10
-890.1711687383684
 20
-134.6699596347009
 30
0.0
 11
-317.1711687383677
 21
-134.6699596347009
 31
0.0
  0
LINE
  5
DE
330
1F
100
AcDbEntity
  8
0-0
  6
JWW_DASHED1
 62
   120
370
     5
100
AcDbLine
 10
-890.1711687383684
 20
-121.6699596336012
 30
0.0
 11
-317.1711687383677
 21
-121.6699596336012
 31
0.0
  0
LINE
  5
DF
330
1F
100
AcDbEntity
  8
0-0
  6
JWW_DASHED1
 62
   120
370
     5
100
AcDbLine
 10
-890.1711687383684
 20
-120.669959633701
 30
0.0
 11
-317.1711687383677
 21
-120.669959633701
 31
0.0
  0
LINE
  5
E0
330
1F
100
AcDbEntity
  8
0-0
  6
JWW_DASHED1
 62
   120
370
     5
100
AcDbLine
 10
-890.1711687383684
 20
-107.6699596326014
 30
0.0
 11
-317.1711687383677
 21
-107.6699596326014
 31
0.0
  0
LINE
  5
E1
330
1F
100
AcDbEntity
  8
0-0
  6
JWW_DASHED1
 62
   120
370
     5
100
AcDbLine
 10
-890.1711687383684
 20
-106.6699596327012
 30
0.0
 11
-317.1711687383677
 21
-106.6699596327012
 31
0.0
  0
LINE
  5
E2
330
1F
100
AcDbEntity
  8
0-0
  6
JWW_DASHED1
 62
   120
370
     5
100
AcDbLine
 10
-890.1711687383684
 20
-93.66995963160157
 30
0.0
 11
-317.1711687383677
 21
-93.66995963160157
 31
0.0
  0
LINE
  5
E3
330
1F
100
AcDbEntity
  8
0-0
  6
JWW_DASHED1
 62
   120
370
     5
100
AcDbLine
 10
-890.1711687383684
 20
-92.66995963170139
 30
0.0
 11
-317.1711687383677
 21
-92.66995963170139
 31
0.0
  0
LINE
  5
E4
330
1F
100
AcDbEntity
  8
0-0
  6
JWW_DASHED1
 62
   120
370
     5
100
AcDbLine
 10
-890.1711687383684
 20
-79.66995963060178
 30
0.0
 11
-317.1711687383677
 21
-79.66995963060178
 31
0.0
  0
LINE
  5
E5
330
1F
100
AcDbEntity
  8
0-0
  6
JWW_DASHED1
 62
   120
370
     5
100
AcDbLine
 10
-890.1711687383684
 20
-78.6699596307016
 30
0.0
 11
-317.1711687383677
 21
-78.6699596307016
 31
0.0
  0
LINE
  5
E6
330
1F
100
AcDbEntity
  8
0-0
  6
JWW_DASHED1
 62
   120
370
     5
100
AcDbLine
 10
-890.1711687383684
 20
-65.66995962960199
 30
0.0
 11
-317.1711687383677
 21
-65.66995962960199
 31
0.0
  0
LINE
  5
E7
330
1F
100
AcDbEntity
  8
0-0
  6
JWW_DASHED1
 62
   120
370
     5
100
AcDbLine
 10
-890.1711687383684
 20
-64.66995962970181
 30
0.0
 11
-317.1711687383677
 21
-64.66995962970181
 31
0.0
  0
LINE
  5
E8
330
1F
100
AcDbEntity
  8
0-0
  6
JWW_DASHED1
 62
   120
370
     5
100
AcDbLine
 10
-890.1711687383684
 20
-51.6699596286022
 30
0.0
 11
-317.1711687383677
 21
-51.6699596286022
 31
0.0
  0
LINE
  5
E9
330
1F
100
AcDbEntity
  8
0-0
  6
JWW_DASHED1
 62
   120
370
     5
100
AcDbLine
 10
-890.1711687383684
 20
-50.66995962870202
 30
0.0
 11
-317.1711687383677
 21
-50.66995962870202
 31
0.0
  0
LINE
  5
EA
330
1F
100
AcDbEntity
  8
0-0
  6
JWW_DASHED1
 62
   120
370
     5
100
AcDbLine
 10
-890.1711687383684
 20
-37.66995962760241
 30
0.0
 11
-317.1711687383677
 21
-37.66995962760241
 31
0.0
  0
LINE
  5
EB
330
1F
100
AcDbEntity
  8
0-0
  6
JWW_DASHED1
 62
   120
370
     5
100
AcDbLine
 10
-890.1711687383684
 20
-36.66995962770223
 30
0.0
 11
-317.1711687383677
 21
-36.66995962770223
 31
0.0
  0
LINE
  5
EC
330
1F
100
AcDbEntity
  8
0-0
  6
JWW_DASHED1
 62
   120
370
     5
100
AcDbLine
 10
-890.1711687383684
 20
-23.66995962660273
 30
0.0
 11
-317.1711687383677
 21
-23.66995962660273
 31
0.0
  0
LINE
  5
ED
330
1F
100
AcDbEntity
  8
0-0
  6
JWW_DASHED1
 62
   120
370
     5
100
AcDbLine
 10
-890.1711687383684
 20
-22.66995962670254
 30
0.0
 11
-317.1711687383677
 21
-22.66995962670254
 31
0.0
  0
LINE
  5
EE
330
1F
100
AcDbEntity
  8
0-0
  6
JWW_DASHED1
 62
   120
370
     5
100
AcDbLine
 10
-890.1711687383684
 20
-9.669959625602829
 30
0.0
 11
-317.1711687383677
 21
-9.669959625602829
 31
0.0
  0
LINE
  5
EF
330
1F
100
AcDbEntity
  8
0-0
  6
JWW_DASHED1
 62
   120
370
     5
100
AcDbLine
 10
-890.1711687383684
 20
-8.669959625702646
 30
0.0
 11
-317.1711687383677
 21
-8.669959625702646
 31
0.0
  0
LINE
  5
F0
330
1F
100
AcDbEntity
  8
0-0
  6
JWW_DASHED1
 62
   120
370
     5
100
AcDbLine
 10
-890.1711687383684
 20
4.330040375396962
 30
0.0
 11
-317.1711687383677
 21
4.330040375396962
 31
0.0
  0
LINE
  5
F1
330
1F
100
AcDbEntity
  8
0-0
  6
JWW_DASHED1
 62
   120
370
     5
100
AcDbLine
 10
-890.1711687383684
 20
5.330040375297145
 30
0.0
 11
-317.1711687383677
 21
5.330040375297145
 31
0.0
  0
LINE
  5
F2
330
1F
100
AcDbEntity
  8
0-0
  6
JWW_DASHED1
 62
   120
370
     5
100
AcDbLine
 10
-890.1711687383684
 20
18.33004037639675
 30
0.0
 11
-317.1711687383677
 21
18.33004037639675
 31
0.0
  0
LINE
  5
F3
330
1F
100
AcDbEntity
  8
0-0
  6
JWW_DASHED1
 62
   120
370
     5
100
AcDbLine
 10
-890.1711687383684
 20
19.33004037629694
 30
0.0
 11
-317.1711687383677
 21
19.33004037629694
 31
0.0
  0
LINE
  5
F4
330
1F
100
AcDbEntity
  8
0-0
  6
JWW_DASHED1
 62
   120
370
     5
100
AcDbLine
 10
-890.1711687383684
 20
32.33004037739654
 30
0.0
 11
-317.1711687383677
 21
32.33004037739654
 31
0.0
  0
LINE
  5
F5
330
1F
100
AcDbEntity
  8
0-0
  6
JWW_DASHED1
 62
   120
370
     5
100
AcDbLine
 10
-890.1711687383684
 20
33.33004037729673
 30
0.0
 11
-317.1711687383677
 21
33.33004037729673
 31
0.0
  0
LINE
  5
F6
330
1F
100
AcDbEntity
  8
0-0
  6
JWW_DASHED1
 62
   120
370
     5
100
AcDbLine
 10
-890.1711687383684
 20
46.33004037839633
 30
0.0
 11
-317.1711687383677
 21
46.33004037839633
 31
0.0
  0
LINE
  5
F7
330
1F
100
AcDbEntity
  8
0-0
  6
JWW_DASHED1
 62
   120
370
     5
100
AcDbLine
 10
-890.1711687383684
 20
47.33004037829652
 30
0.0
 11
-317.1711687383677
 21
47.33004037829652
 31
0.0
  0
LINE
  5
F8
330
1F
100
AcDbEntity
  8
0-0
  6
JWW_DASHED1
 62
   120
370
     5
100
AcDbLine
 10
-890.1711687383684
 20
60.33004037939612
 30
0.0
 11
-317.1711687383677
 21
60.33004037939612
 31
0.0
  0
LINE
  5
F9
330
1F
100
AcDbEntity
  8
0-0
  6
JWW_DASHED1
 62
   120
370
     5
100
AcDbLine
 10
-890.1711687383684
 20
61.33004037929631
 30
0.0
 11
-317.1711687383677
 21
61.33004037929631
 31
0.0
  0
LINE
  5
FA
330
1F
100
AcDbEntity
  8
0-0
  6
JWW_DASHED1
 62
   120
370
     5
100
AcDbLine
 10
-890.1711687383684
 20
74.33004038039591
 30
0.0
 11
-317.1711687383677
 21
74.33004038039591
 31
0.0
  0
LINE
  5
FB
330
1F
100
AcDbEntity
  8
0-0
  6
JWW_DASHED1
 62
   120
370
     5
100
AcDbLine
 10
-890.1711687383684
 20
75.3300403802961
 30
0.0
 11
-317.1711687383677
 21
75.3300403802961
 31
0.0
  0
LINE
  5
FC
330
1F
100
AcDbEntity
  8
0-0
  6
JWW_DASHED1
 62
   120
370
     5
100
AcDbLine
 10
-890.1711687383684
 20
88.3300403813956
 30
0.0
 11
-317.1711687383677
 21
88.3300403813956
 31
0.0
  0
LINE
  5
FD
330
1F
100
AcDbEntity
  8
0-0
  6
JWW_DASHED1
 62
   120
370
     5
100
AcDbLine
 10
-890.1711687383684
 20
89.33004038129579
 30
0.0
 11
-317.1711687383677
 21
89.33004038129579
 31
0.0
  0
LINE
  5
FE
330
1F
100
AcDbEntity
  8
0-0
  6
JWW_DASHED1
 62
   120
370
     5
100
AcDbLine
 10
-890.1711687383684
 20
102.3300403823955
 30
0.0
 11
-317.1711687383677
 21
102.3300403823955
 31
0.0
  0
LINE
  5
FF
330
1F
100
AcDbEntity
  8
0-0
  6
JWW_DASHED1
 62
   120
370
     5
100
AcDbLine
 10
-890.1711687383684
 20
103.3300403822957
 30
0.0
 11
-317.1711687383677
 21
103.3300403822957
 31
0.0
  0
LINE
  5
100
330
1F
100
AcDbEntity
  8
0-0
  6
JWW_DASHED1
 62
   120
370
     5
100
AcDbLine
 10
-890.1711687383684
 20
116.3300403833953
 30
0.0
 11
-317.1711687383677
 21
116.3300403833953
 31
0.0
  0
LINE
  5
101
330
1F
100
AcDbEntity
  8
0-0
  6
JWW_DASHED1
 62
   120
370
     5
100
AcDbLine
 10
-890.1711687383684
 20
117.3300403832955
 30
0.0
 11
-317.1711687383677
 21
117.3300403832955
 31
0.0
  0
LINE
  5
102
330
1F
100
AcDbEntity
  8
0-0
  6
JWW_DASHED1
 62
   120
370
     5
100
AcDbLine
 10
-890.1711687383684
 20
130.3300403843951
 30
0.0
 11
-317.1711687383677
 21
130.3300403843951
 31
0.0
  0
LINE
  5
103
330
1F
100
AcDbEntity
  8
0-0
  6
JWW_DASHED1
 62
   120
370
     5
100
AcDbLine
 10
-890.1711687383684
 20
131.3300403842953
 30
0.0
 11
-317.1711687383677
 21
131.3300403842953
 31
0.0
  0
LINE
  5
104
330
1F
100
AcDbEntity
  8
0-0
  6
JWW_DASHED1
 62
   120
370
     5
100
AcDbLine
 10
-890.1711687383684
 20
144.3300403853949
 30
0.0
 11
-317.1711687383677
 21
144.3300403853949
 31
0.0
  0
LINE
  5
105
330
1F
100
AcDbEntity
  8
0-0
  6
JWW_DASHED1
 62
   120
370
     5
100
AcDbLine
 10
-890.1711687383684
 20
145.330040385295
 30
0.0
 11
-317.1711687383677
 21
145.330040385295
 31
0.0
  0
LINE
  5
106
330
1F
100
AcDbEntity
  8
0-0
  6
JWW_DASHED1
 62
   120
370
     5
100
AcDbLine
 10
-890.1711687383684
 20
158.3300403863947
 30
0.0
 11
-317.1711687383677
 21
158.3300403863947
 31
0.0
  0
LINE
  5
107
330
1F
100
AcDbEntity
  8
0-0
  6
JWW_DASHED1
 62
   120
370
     5
100
AcDbLine
 10
-890.1711687383684
 20
159.3300403862949
 30
0.0
 11
-317.1711687383677
 21
159.3300403862949
 31
0.0
  0
LINE
  5
108
330
1F
100
AcDbEntity
  8
0-0
  6
JWW_DASHED1
 62
   120
370
     5
100
AcDbLine
 10
-890.1711687383684
 20
172.3300403873944
 30
0.0
 11
-317.1711687383677
 21
172.3300403873944
 31
0.0
  0
LINE
  5
109
330
1F
100
AcDbEntity
  8
0-0
  6
JWW_DASHED1
 62
   120
370
     5
100
AcDbLine
 10
-890.1711687383684
 20
173.3300403872946
 30
0.0
 11
-317.1711687383677
 21
173.3300403872946
 31
0.0
  0
LINE
  5
10A
330
1F
100
AcDbEntity
  8
0-0
  6
JWW_DASHED1
 62
   120
370
     5
100
AcDbLine
 10
-890.1711687383684
 20
186.3300403883943
 30
0.0
 11
-317.1711687383677
 21
186.3300403883943
 31
0.0
  0
LINE
  5
10B
330
1F
100
AcDbEntity
  8
0-0
  6
JWW_DASHED1
 62
   120
370
     5
100
AcDbLine
 10
-890.1711687383684
 20
187.3300403882944
 30
0.0
 11
-317.1711687383677
 21
187.3300403882944
 31
0.0
  0
LINE
  5
10C
330
1F
100
AcDbEntity
  8
0-0
  6
JWW_DASHED1
 62
   120
370
     5
100
AcDbLine
 10
-890.1711687383684
 20
200.330040389394
 30
0.0
 11
-317.1711687383677
 21
200.330040389394
 31
0.0
  0
LINE
  5
10D
330
1F
100
AcDbEntity
  8
0-0
  6
JWW_DASHED1
 62
   120
370
     5
100
AcDbLine
 10
-890.1711687383684
 20
201.3300403892942
 30
0.0
 11
-317.1711687383677
 21
201.3300403892942
 31
0.0
  0
LINE
  5
10E
330
1F
100
AcDbEntity
  8
0-0
  6
JWW_DASHED1
 62
   120
370
     5
100
AcDbLine
 10
-890.1711687383684
 20
214.3300403903938
 30
0.0
 11
-317.1711687383677
 21
214.3300403903938
 31
0.0
  0
LINE
  5
10F
330
1F
100
AcDbEntity
  8
0-0
  6
JWW_DASHED1
 62
   120
370
     5
100
AcDbLine
 10
-890.1711687383684
 20
215.330040390294
 30
0.0
 11
-317.1711687383677
 21
215.330040390294
 31
0.0
  0
LINE
  5
110
330
1F
100
AcDbEntity
  8
0-0
  6
JWW_DASHED1
 62
   120
370
     5
100
AcDbLine
 10
-890.1711687383684
 20
228.3300403913934
 30
0.0
 11
-317.1711687383677
 21
228.3300403913934
 31
0.0
  0
LINE
  5
111
330
1F
100
AcDbEntity
  8
0-0
  6
JWW_DASHED1
 62
   120
370
     5
100
AcDbLine
 10
-890.1711687383684
 20
229.3300403912938
 30
0.0
 11
-317.1711687383677
 21
229.3300403912938
 31
0.0
  0
LINE
  5
112
330
1F
100
AcDbEntity
  8
0-0
  6
JWW_DASHED1
 62
   120
370
     5
100
AcDbLine
 10
-890.1711687383684
 20
242.3300403923934
 30
0.0
 11
-317.1711687383677
 21
242.3300403923934
 31
0.0
  0
LINE
  5
113
330
1F
100
AcDbEntity
  8
0-0
  6
JWW_DASHED1
 62
   120
370
     5
100
AcDbLine
 10
-890.1711687383684
 20
243.3300403922936
 30
0.0
 11
-317.1711687383677
 21
243.3300403922936
 31
0.0
  0
LINE
  5
114
330
1F
100
AcDbEntity
  8
0-0
  6
JWW_DASHED1
 62
   120
370
     5
100
AcDbLine
 10
-890.1711687383684
 20
256.3300403933932
 30
0.0
 11
-317.1711687383677
 21
256.3300403933932
 31
0.0
  0
LINE
  5
115
330
1F
100
AcDbEntity
  8
0-0
  6
JWW_DASHED1
 62
   120
370
     5
100
AcDbLine
 10
-890.1711687383684
 20
257.3300403932934
 30
0.0
 11
-317.1711687383677
 21
257.3300403932934
 31
0.0
  0
LINE
  5
116
330
1F
100
AcDbEntity
  8
0-0
  6
JWW_DASHED1
 62
   120
370
     5
100
AcDbLine
 10
-890.1711687383684
 20
270.330040394393
 30
0.0
 11
-317.1711687383677
 21
270.330040394393
 31
0.0
  0
LINE
  5
117
330
1F
100
AcDbEntity
  8
0-0
  6
JWW_DASHED1
 62
   120
370
     5
100
AcDbLine
 10
-890.1711687383684
 20
271.3300403942932
 30
0.0
 11
-317.1711687383677
 21
271.3300403942932
 31
0.0
  0
LINE
  5
118
330
1F
100
AcDbEntity
  8
0-0
  6
JWW_DASHED1
 62
   120
370
     5
100
AcDbLine
 10
-890.1711687383684
 20
284.3300403953928
 30
0.0
 11
-317.1711687383677
 21
284.3300403953928
 31
0.0
  0
LINE
  5
119
330
1F
100
AcDbEntity
  8
0-0
  6
JWW_DASHED1
 62
   120
370
     5
100
AcDbLine
 10
-890.1711687383684
 20
285.3300403952929
 30
0.0
 11
-317.1711687383677
 21
285.3300403952929
 31
0.0
  0
LINE
  5
11A
330
1F
100
AcDbEntity
  8
0-0
  6
JWW_DASHED1
 62
   120
370
     5
100
AcDbLine
 10
-890.1711687383684
 20
298.3300403963926
 30
0.0
 11
-317.1711687383677
 21
298.3300403963926
 31
0.0
  0
LINE
  5
11B
330
1F
100
AcDbEntity
  8
0-0
  6
JWW_DASHED1
 62
   120
370
     5
100
AcDbLine
 10
-890.1711687383684
 20
299.3300403962928
 30
0.0
 11
-317.1711687383677
 21
299.3300403962928
 31
0.0
  0
LINE
  5
11C
330
1F
100
AcDbEntity
  8
0-0
  6
JWW_DASHED1
 62
   120
370
     5
100
AcDbLine
 10
-890.1711687383684
 20
312.3300403973923
 30
0.0
 11
-317.1711687383677
 21
312.3300403973923
 31
0.0
  0
LINE
  5
11D
330
1F
100
AcDbEntity
  8
0-0
  6
JWW_DASHED1
 62
   120
370
     5
100
AcDbLine
 10
-890.1711687383684
 20
313.3300403972925
 30
0.0
 11
-317.1711687383677
 21
313.3300403972925
 31
0.0
  0
LINE
  5
11E
330
1F
100
AcDbEntity
  8
0-0
  6
JWW_DASHED1
 62
   120
370
     5
100
AcDbLine
 10
-890.1711687383684
 20
326.3300403983922
 30
0.0
 11
-317.1711687383677
 21
326.3300403983922
 31
0.0
  0
LINE
  5
11F
330
1F
100
AcDbEntity
  8
0-0
  6
JWW_DASHED1
 62
   120
370
     5
100
AcDbLine
 10
-890.1711687383684
 20
327.3300403982923
 30
0.0
 11
-317.1711687383677
 21
327.3300403982923
 31
0.0
  0
LINE
  5
120
330
1F
100
AcDbEntity
  8
0-0
  6
JWW_DASHED1
 62
   120
370
     5
100
AcDbLine
 10
-890.1711687383684
 20
340.3300403993919
 30
0.0
 11
-317.1711687383677
 21
340.3300403993919
 31
0.0
  0
LINE
  5
121
330
1F
100
AcDbEntity
  8
0-0
  6
JWW_DASHED1
 62
   120
370
     5
100
AcDbLine
 10
-890.1711687383684
 20
341.3300403992919
 30
0.0
 11
-317.1711687383677
 21
341.3300403992919
 31
0.0
  0
LINE
  5
122
330
1F
100
AcDbEntity
  8
0-0
  6
JWW_DASHED1
 62
   120
370
     5
100
AcDbLine
 10
-890.1711687383684
 20
354.3300404003917
 30
0.0
 11
-317.1711687383677
 21
354.3300404003917
 31
0.0
  0
LINE
  5
123
330
1F
100
AcDbEntity
  8
0-0
  6
JWW_DASHED1
 62
   120
370
     5
100
AcDbLine
 10
-890.1711687383684
 20
355.3300404002919
 30
0.0
 11
-317.1711687383677
 21
355.3300404002919
 31
0.0
  0
LINE
  5
124
330
1F
100
AcDbEntity
  8
0-0
  6
JWW_DASHED1
 62
   120
370
     5
100
AcDbLine
 10
-890.1711687383684
 20
368.3300404013915
 30
0.0
 11
-317.1711687383677
 21
368.3300404013915
 31
0.0
  0
LINE
  5
125
330
1F
100
AcDbEntity
  8
0-0
  6
JWW_DASHED1
 62
   120
370
     5
100
AcDbLine
 10
-890.1711687383684
 20
369.3300404012917
 30
0.0
 11
-317.1711687383677
 21
369.3300404012917
 31
0.0
  0
LINE
  5
126
330
1F
100
AcDbEntity
  8
0-0
  6
JWW_DASHED1
 62
   120
370
     5
100
AcDbLine
 10
-890.1711687383684
 20
382.3300404023913
 30
0.0
 11
-317.1711687383677
 21
382.3300404023913
 31
0.0
  0
LINE
  5
127
330
1F
100
AcDbEntity
  8
0-0
  6
JWW_DASHED1
 62
   120
370
     5
100
AcDbLine
 10
-890.1711687383684
 20
383.3300404022915
 30
0.0
 11
-317.1711687383677
 21
383.3300404022915
 31
0.0
  0
LINE
  5
128
330
1F
100
AcDbEntity
  8
0-0
  6
JWW_DASHED1
 62
   120
370
     5
100
AcDbLine
 10
-890.1711687383684
 20
396.3300404033911
 30
0.0
 11
-317.1711687383677
 21
396.3300404033911
 31
0.0
  0
LINE
  5
129
330
1F
100
AcDbEntity
  8
0-0
  6
JWW_DASHED1
 62
   120
370
     5
100
AcDbLine
 10
-890.1711687383684
 20
397.3300404032913
 30
0.0
 11
-317.1711687383677
 21
397.3300404032913
 31
0.0
  0
LINE
  5
12A
330
1F
100
AcDbEntity
  8
0-0
  6
JWW_DASHED1
 62
   120
370
     5
100
AcDbLine
 10
-890.1711687383684
 20
410.3300404043909
 30
0.0
 11
-317.1711687383677
 21
410.3300404043909
 31
0.0
  0
LINE
  5
12B
330
1F
100
AcDbEntity
  8
0-0
  6
JWW_DASHED1
 62
   120
370
     5
100
AcDbLine
 10
-890.1711687383684
 20
411.3300404042911
 30
0.0
 11
-317.1711687383677
 21
411.3300404042911
 31
0.0
  0
LINE
  5
12C
330
1F
100
AcDbEntity
  8
0-0
  6
JWW_DASHED1
 62
   120
370
     5
100
AcDbLine
 10
-890.1711687383684
 20
424.3300404053907
 30
0.0
 11
-317.1711687383677
 21
424.3300404053907
 31
0.0
  0
LINE
  5
12D
330
1F
100
AcDbEntity
  8
0-0
  6
JWW_DASHED1
 62
   120
370
     5
100
AcDbLine
 10
-890.1711687383684
 20
425.3300404052908
 30
0.0
 11
-317.1711687383677
 21
425.3300404052908
 31
0.0
  0
LINE
  5
12E
330
1F
100
AcDbEntity
  8
0-0
  6
JWW_DASHED1
 62
   120
370
     5
100
AcDbLine
 10
-890.1711687383684
 20
438.3300404063905
 30
0.0
 11
-317.1711687383677
 21
438.3300404063905
 31
0.0
  0
LINE
  5
12F
330
1F
100
AcDbEntity
  8
0-0
  6
JWW_DASHED1
 62
   120
370
     5
100
AcDbLine
 10
-890.1711687383684
 20
439.3300404062907
 30
0.0
 11
-317.1711687383677
 21
439.3300404062907
 31
0.0
  0
LINE
  5
130
330
1F
100
AcDbEntity
  8
0-0
  6
JWW_DASHED1
 62
   120
370
     5
100
AcDbLine
 10
-890.1711687383684
 20
452.33004040739
 30
0.0
 11
-317.1711687383677
 21
452.33004040739
 31
0.0
  0
LINE
  5
131
330
1F
100
AcDbEntity
  8
0-0
  6
JWW_DASHED1
 62
   120
370
     5
100
AcDbLine
 10
-890.1711687383684
 20
453.3300404072904
 30
0.0
 11
-317.1711687383677
 21
453.3300404072904
 31
0.0
  0
LINE
  5
132
330
1F
100
AcDbEntity
  8
0-0
  6
JWW_DASHED1
 62
   120
370
     5
100
AcDbLine
 10
-890.1711687383684
 20
466.3300404083901
 30
0.0
 11
-317.1711687383677
 21
466.3300404083901
 31
0.0
  0
LINE
  5
133
330
1F
100
AcDbEntity
  8
0-0
  6
JWW_DASHED1
 62
   120
370
     5
100
AcDbLine
 10
-890.1711687383684
 20
467.3300404082902
 30
0.0
 11
-317.1711687383677
 21
467.3300404082902
 31
0.0
  0
LINE
  5
134
330
1F
100
AcDbEntity
  8
0-0
  6
JWW_DASHED1
 62
   120
370
     5
100
AcDbLine
 10
-890.1711687383684
 20
480.3300404093898
 30
0.0
 11
-317.1711687383677
 21
480.3300404093898
 31
0.0
  0
LINE
  5
135
330
1F
100
AcDbEntity
  8
0-0
  6
JWW_DASHED1
 62
   120
370
     5
100
AcDbLine
 10
-890.1711687383684
 20
481.33004040929
 30
0.0
 11
-317.1711687383677
 21
481.33004040929
 31
0.0
  0
LINE
  5
136
330
1F
100
AcDbEntity
  8
0-0
  6
JWW_DASHED1
 62
   120
370
     5
100
AcDbLine
 10
-890.1711687383684
 20
494.3300404103896
 30
0.0
 11
-317.1711687383677
 21
494.3300404103896
 31
0.0
  0
LINE
  5
137
330
1F
100
AcDbEntity
  8
0-0
  6
JWW_DASHED1
 62
   120
370
     5
100
AcDbLine
 10
-890.1711687383684
 20
495.3300404102898
 30
0.0
 11
-317.1711687383677
 21
495.3300404102898
 31
0.0
  0
LINE
  5
138
330
1F
100
AcDbEntity
  8
0-0
  6
JWW_DASHED1
 62
   120
370
     5
100
AcDbLine
 10
-890.1711687383684
 20
508.3300404113894
 30
0.0
 11
-317.1711687383677
 21
508.3300404113894
 31
0.0
  0
LINE
  5
139
330
1F
100
AcDbEntity
  8
0-0
  6
JWW_DASHED1
 62
   120
370
     5
100
AcDbLine
 10
-890.1711687383684
 20
509.3300404112896
 30
0.0
 11
-317.1711687383677
 21
509.3300404112896
 31
0.0
  0
LINE
  5
13A
330
1F
100
AcDbEntity
  8
0-0
  6
JWW_DASHED1
 62
   120
370
     5
100
AcDbLine
 10
-890.1711687383684
 20
522.3300404123892
 30
0.0
 11
-317.1711687383677
 21
522.3300404123892
 31
0.0
  0
LINE
  5
13B
330
1F
100
AcDbEntity
  8
0-0
  6
JWW_DASHED1
 62
   120
370
     5
100
AcDbLine
 10
-890.1711687383684
 20
523.3300404122893
 30
0.0
 11
-317.1711687383677
 21
523.3300404122893
 31
0.0
  0
LINE
  5
13C
330
1F
100
AcDbEntity
  8
0-0
  6
JWW_DASHED1
 62
   120
370
     5
100
AcDbLine
 10
-890.1711687383684
 20
536.330040413389
 30
0.0
 11
-317.1711687383677
 21
536.330040413389
 31
0.0
  0
LINE
  5
13D
330
1F
100
AcDbEntity
  8
0-0
  6
JWW_DASHED1
 62
   120
370
     5
100
AcDbLine
 10
-890.1711687383684
 20
537.3300404132892
 30
0.0
 11
-317.1711687383677
 21
537.3300404132892
 31
0.0
  0
LINE
  5
13E
330
1F
100
AcDbEntity
  8
0-0
  6
JWW_DASHED1
 62
   120
370
     5
100
AcDbLine
 10
-890.1711687383684
 20
550.3300404143888
 30
0.0
 11
-317.1711687383677
 21
550.3300404143888
 31
0.0
  0
LINE
  5
13F
330
1F
100
AcDbEntity
  8
0-0
  6
JWW_DASHED1
 62
   120
370
     5
100
AcDbLine
 10
-890.1711687383684
 20
551.330040414289
 30
0.0
 11
-317.1711687383677
 21
551.330040414289
 31
0.0
  0
LINE
  5
140
330
1F
100
AcDbEntity
  8
0-0
  6
JWW_DASHED1
 62
   120
370
     5
100
AcDbLine
 10
-890.1711687383684
 20
564.3300404153886
 30
0.0
 11
-317.1711687383677
 21
564.3300404153886
 31
0.0
  0
LINE
  5
141
330
1F
100
AcDbEntity
  8
0-0
  6
JWW_DASHED1
 62
   120
370
     5
100
AcDbLine
 10
-890.1711687383684
 20
565.3300404152885
 30
0.0
 11
-317.1711687383677
 21
565.3300404152885
 31
0.0
  0
LINE
  5
142
330
1F
100
AcDbEntity
  8
0-0
  6
JWW_DASHED1
 62
   120
370
     5
100
AcDbLine
 10
-890.1711687383684
 20
578.3300404163883
 30
0.0
 11
-317.1711687383677
 21
578.3300404163883
 31
0.0
  0
LINE
  5
143
330
1F
100
AcDbEntity
  8
0-0
  6
JWW_DASHED1
 62
   120
370
     5
100
AcDbLine
 10
-890.1711687383684
 20
579.3300404162885
 30
0.0
 11
-317.1711687383677
 21
579.3300404162885
 31
0.0
  0
LINE
  5
144
330
1F
100
AcDbEntity
  8
0-0
  6
JWW_DASHED1
 62
   120
370
     5
100
AcDbLine
 10
-890.1711687383684
 20
592.3300404173882
 30
0.0
 11
-317.1711687383677
 21
592.3300404173882
 31
0.0
  0
LINE
  5
145
330
1F
100
AcDbEntity
  8
0-0
  6
JWW_DASHED1
 62
   120
370
     5
100
AcDbLine
 10
-890.1711687383684
 20
593.3300404172884
 30
0.0
 11
-317.1711687383677
 21
593.3300404172884
 31
0.0
  0
LINE
  5
146
330
1F
100
AcDbEntity
  8
0-0
  6
JWW_DASHED1
 62
   120
370
     5
100
AcDbLine
 10
-890.1711687383684
 20
606.330040418388
 30
0.0
 11
-317.1711687383677
 21
606.330040418388
 31
0.0
  0
LINE
  5
147
330
1F
100
AcDbEntity
  8
0-0
  6
JWW_DASHED1
 62
   120
370
     5
100
AcDbLine
 10
-890.1711687383684
 20
607.3300404182881
 30
0.0
 11
-317.1711687383677
 21
607.3300404182881
 31
0.0
  0
LINE
  5
148
330
1F
100
AcDbEntity
  8
0-0
  6
JWW_DASHED1
 62
   120
370
     5
100
AcDbLine
 10
-890.1711687383684
 20
620.3300404193877
 30
0.0
 11
-317.1711687383677
 21
620.3300404193877
 31
0.0
  0
LINE
  5
149
330
1F
100
AcDbEntity
  8
0-0
  6
JWW_DASHED1
 62
   120
370
     5
100
AcDbLine
 10
-890.1711687383684
 20
621.3300404192879
 30
0.0
 11
-317.1711687383677
 21
621.3300404192879
 31
0.0
  0
LINE
  5
14A
330
1F
100
AcDbEntity
  8
0-0
  6
JWW_DASHED1
 62
   120
370
     5
100
AcDbLine
 10
-890.1711687383684
 20
634.3300404203875
 30
0.0
 11
-317.1711687383677
 21
634.3300404203875
 31
0.0
  0
LINE
  5
14B
330
1F
100
AcDbEntity
  8
0-0
  6
JWW_DASHED1
 62
   120
370
     5
100
AcDbLine
 10
-890.1711687383684
 20
635.3300404202877
 30
0.0
 11
-317.1711687383677
 21
635.3300404202877
 31
0.0
  0
LINE
  5
14C
330
1F
100
AcDbEntity
  8
0-0
  6
JWW_DASHED1
 62
   120
370
     5
100
AcDbLine
 10
-890.1711687383684
 20
648.3300404213874
 30
0.0
 11
-317.1711687383677
 21
648.3300404213874
 31
0.0
  0
LINE
  5
14D
330
1F
100
AcDbEntity
  8
0-0
  6
JWW_DASHED1
 62
   120
370
     5
100
AcDbLine
 10
-890.1711687383684
 20
649.3300404212875
 30
0.0
 11
-317.1711687383677
 21
649.3300404212875
 31
0.0
  0
LINE
  5
14E
330
1F
100
AcDbEntity
  8
0-0
  6
JWW_DASHED1
 62
   120
370
     5
100
AcDbLine
 10
-890.1711687383684
 20
662.3300404223871
 30
0.0
 11
-317.1711687383677
 21
662.3300404223871
 31
0.0
  0
LINE
  5
14F
330
1F
100
AcDbEntity
  8
0-0
  6
JWW_DASHED1
 62
   120
370
     5
100
AcDbLine
 10
-890.1711687383684
 20
663.3300404222873
 30
0.0
 11
-317.1711687383677
 21
663.3300404222873
 31
0.0
  0
LINE
  5
150
330
1F
100
AcDbEntity
  8
0-0
  6
JWW_DASHED1
 62
   120
370
     5
100
AcDbLine
 10
-890.1711687383684
 20
676.3300404233867
 30
0.0
 11
-317.1711687383677
 21
676.3300404233867
 31
0.0
  0
LINE
  5
151
330
1F
100
AcDbEntity
  8
0-0
  6
JWW_DASHED1
 62
   120
370
     5
100
AcDbLine
 10
-890.1711687383684
 20
677.3300404232871
 30
0.0
 11
-317.1711687383677
 21
677.3300404232871
 31
0.0
  0
LINE
  5
152
330
1F
100
AcDbEntity
  8
0-0
  6
JWW_DASHED1
 62
   120
370
     5
100
AcDbLine
 10
-890.1711687383684
 20
690.3300404243867
 30
0.0
 11
-317.1711687383677
 21
690.3300404243867
 31
0.0
  0
LINE
  5
153
330
1F
100
AcDbEntity
  8
0-0
  6
JWW_DASHED1
 62
   120
370
     5
100
AcDbLine
 10
-890.1711687383684
 20
691.3300404242868
 30
0.0
 11
-317.1711687383677
 21
691.3300404242868
 31
0.0
  0
LINE
  5
154
330
1F
100
AcDbEntity
  8
0-0
  6
JWW_DASHED1
 62
   120
370
     5
100
AcDbLine
 10
-890.1711687383684
 20
704.3300404253865
 30
0.0
 11
-317.1711687383677
 21
704.3300404253865
 31
0.0
  0
LINE
  5
155
330
1F
100
AcDbEntity
  8
0-0
  6
JWW_DASHED1
 62
   120
370
     5
100
AcDbLine
 10
-890.1711687383684
 20
705.3300404252867
 30
0.0
 11
-317.1711687383677
 21
705.3300404252867
 31
0.0
  0
LINE
  5
156
330
1F
100
AcDbEntity
  8
0-0
  6
JWW_DASHED1
 62
   120
370
     5
100
AcDbLine
 10
-890.1711687383684
 20
718.3300404263863
 30
0.0
 11
-317.1711687383677
 21
718.3300404263863
 31
0.0
  0
LINE
  5
157
330
1F
100
AcDbEntity
  8
0-0
  6
JWW_DASHED1
 62
   120
370
     5
100
AcDbLine
 10
-890.1711687383684
 20
719.3300404262865
 30
0.0
 11
-317.1711687383677
 21
719.3300404262865
 31
0.0
  0
LINE
  5
158
330
1F
100
AcDbEntity
  8
0-0
  6
JWW_DASHED1
 62
   120
370
     5
100
AcDbLine
 10
-890.1711687383684
 20
732.330040427386
 30
0.0
 11
-317.1711687383677
 21
732.330040427386
 31
0.0
  0
LINE
  5
159
330
1F
100
AcDbEntity
  8
0-0
  6
JWW_DASHED1
 62
   120
370
     5
100
AcDbLine
 10
-890.1711687383684
 20
733.3300404272862
 30
0.0
 11
-317.1711687383677
 21
733.3300404272862
 31
0.0
  0
LINE
  5
15A
330
1F
100
AcDbEntity
  8
0-0
  6
JWW_DASHED1
 62
   120
370
     5
100
AcDbLine
 10
-890.1711687383684
 20
746.3300404283858
 30
0.0
 11
-317.1711687383677
 21
746.3300404283858
 31
0.0
  0
LINE
  5
15B
330
1F
100
AcDbEntity
  8
0-0
  6
JWW_DASHED1
 62
   120
370
     5
100
AcDbLine
 10
-890.1711687383684
 20
747.330040428286
 30
0.0
 11
-317.1711687383677
 21
747.330040428286
 31
0.0
  0
LINE
  5
15C
330
1F
100
AcDbEntity
  8
0-0
  6
JWW_DASHED1
 62
   120
370
     5
100
AcDbLine
 10
-890.1711687383684
 20
760.3300404293857
 30
0.0
 11
-317.1711687383677
 21
760.3300404293857
 31
0.0
  0
LINE
  5
15D
330
1F
100
AcDbEntity
  8
0-0
  6
JWW_DASHED1
 62
   120
370
     5
100
AcDbLine
 10
-890.1711687383684
 20
761.3300404292859
 30
0.0
 11
-317.1711687383677
 21
761.3300404292859
 31
0.0
  0
LINE
  5
15E
330
1F
100
AcDbEntity
  8
0-0
  6
JWW_DASHED1
 62
   120
370
     5
100
AcDbLine
 10
-890.1711687383684
 20
774.3300404303852
 30
0.0
 11
-317.1711687383677
 21
774.3300404303852
 31
0.0
  0
LINE
  5
15F
330
1F
100
AcDbEntity
  8
0-0
  6
JWW_DASHED1
 62
   120
370
     5
100
AcDbLine
 10
-890.1711687383684
 20
775.3300404302854
 30
0.0
 11
-317.1711687383677
 21
775.3300404302854
 31
0.0
  0
LINE
  5
160
330
1F
100
AcDbEntity
  8
0-0
  6
JWW_DASHED1
 62
   120
370
     5
100
AcDbLine
 10
-890.1711687383684
 20
788.3300404313852
 30
0.0
 11
-317.1711687383677
 21
788.3300404313852
 31
0.0
  0
LINE
  5
161
330
1F
100
AcDbEntity
  8
0-0
  6
JWW_DASHED1
 62
   120
370
     5
100
AcDbLine
 10
-890.1711687383684
 20
789.3300404312852
 30
0.0
 11
-317.1711687383677
 21
789.3300404312852
 31
0.0
  0
LINE
  5
162
330
1F
100
AcDbEntity
  8
0-0
  6
JWW_DASHED1
 62
   120
370
     5
100
AcDbLine
 10
-890.1711687383684
 20
802.330040432385
 30
0.0
 11
-317.1711687383677
 21
802.330040432385
 31
0.0
  0
LINE
  5
163
330
1F
100
AcDbEntity
  8
0-0
  6
JWW_DASHED1
 62
   120
370
     5
100
AcDbLine
 10
-890.1711687383684
 20
803.3300404322852
 30
0.0
 11
-317.1711687383677
 21
803.3300404322852
 31
0.0
  0
LINE
  5
164
330
1F
100
AcDbEntity
  8
0-0
  6
JWW_DASHED1
 62
   120
370
     5
100
AcDbLine
 10
-890.1711687383684
 20
816.3300404333849
 30
0.0
 11
-317.1711687383677
 21
816.3300404333849
 31
0.0
  0
LINE
  5
165
330
1F
100
AcDbEntity
  8
0-0
  6
JWW_DASHED1
 62
   120
370
     5
100
AcDbLine
 10
-890.1711687383684
 20
817.330040433285
 30
0.0
 11
-317.1711687383677
 21
817.330040433285
 31
0.0
  0
LINE
  5
166
330
1F
100
AcDbEntity
  8
0-0
  6
JWW_DASHED1
 62
   120
370
     5
100
AcDbLine
 10
-890.1711687383684
 20
830.3300404343846
 30
0.0
 11
-317.1711687383677
 21
830.3300404343846
 31
0.0
  0
LINE
  5
167
330
1F
100
AcDbEntity
  8
0-0
  6
JWW_DASHED1
 62
   120
370
     5
100
AcDbLine
 10
-890.1711687383684
 20
831.3300404342848
 30
0.0
 11
-317.1711687383677
 21
831.3300404342848
 31
0.0
  0
LINE
  5
168
330
1F
100
AcDbEntity
  8
0-0
  6
JWW_DASHED1
 62
   120
370
     5
100
AcDbLine
 10
-890.1711687383684
 20
844.3300404353844
 30
0.0
 11
-317.1711687383677
 21
844.3300404353844
 31
0.0
  0
LINE
  5
169
330
1F
100
AcDbEntity
  8
0-0
  6
JWW_DASHED1
 62
   120
370
     5
100
AcDbLine
 10
-890.1711687383684
 20
845.3300404352846
 30
0.0
 11
-317.1711687383677
 21
845.3300404352846
 31
0.0
  0
LINE
  5
16A
330
1F
100
AcDbEntity
  8
0-0
  6
JWW_DASHED1
 62
   120
370
     5
100
AcDbLine
 10
-890.1711687383684
 20
858.3300404363841
 30
0.0
 11
-317.1711687383677
 21
858.3300404363841
 31
0.0
  0
LINE
  5
16B
330
1F
100
AcDbEntity
  8
0-0
  6
JWW_DASHED1
 62
   120
370
     5
100
AcDbLine
 10
-890.1711687383684
 20
859.3300404362843
 30
0.0
 11
-317.1711687383677
 21
859.3300404362843
 31
0.0
  0
LINE
  5
16C
330
1F
100
AcDbEntity
  8
0-0
  6
JWW_DASHED1
 62
   120
370
     5
100
AcDbLine
 10
-890.1711687383684
 20
872.330040437384
 30
0.0
 11
-317.1711687383677
 21
872.330040437384
 31
0.0
  0
LINE
  5
16D
330
1F
100
AcDbEntity
  8
0-0
  6
JWW_DASHED1
 62
   120
370
     5
100
AcDbLine
 10
-890.1711687383684
 20
873.3300404372842
 30
0.0
 11
-317.1711687383677
 21
873.3300404372842
 31
0.0
  0
LINE
  5
16E
330
1F
100
AcDbEntity
  8
0-0
  6
JWW_DASHED1
 62
   120
370
     5
100
AcDbLine
 10
-890.1711687383684
 20
886.3300404383835
 30
0.0
 11
-317.1711687383677
 21
886.3300404383835
 31
0.0
  0
LINE
  5
16F
330
1F
100
AcDbEntity
  8
0-0
  6
JWW_DASHED1
 62
   120
370
     5
100
AcDbLine
 10
-890.1711687383684
 20
887.3300404382837
 30
0.0
 11
-317.1711687383677
 21
887.3300404382837
 31
0.0
  0
LINE
  5
170
330
1F
100
AcDbEntity
  8
0-0
  6
JWW_DASHED1
 62
   120
370
     5
100
AcDbLine
 10
-890.1711687383684
 20
900.3300404393833
 30
0.0
 11
-317.1711687383677
 21
900.3300404393833
 31
0.0
  0
LINE
  5
171
330
1F
100
AcDbEntity
  8
0-0
  6
JWW_DASHED1
 62
   120
370
     5
100
AcDbLine
 10
-890.1711687383684
 20
901.3300404392837
 30
0.0
 11
-317.1711687383677
 21
901.3300404392837
 31
0.0
  0
LINE
  5
172
330
1F
100
AcDbEntity
  8
0-0
  6
JWW_DASHED1
 62
   120
370
     5
100
AcDbLine
 10
-890.1711687383684
 20
914.3300404403833
 30
0.0
 11
-317.1711687383677
 21
914.3300404403833
 31
0.0
  0
LINE
  5
173
330
1F
100
AcDbEntity
  8
0-0
  6
JWW_DASHED1
 62
   120
370
     5
100
AcDbLine
 10
-890.1711687383684
 20
915.3300404402835
 30
0.0
 11
-317.1711687383677
 21
915.3300404402835
 31
0.0
  0
LINE
  5
174
330
1F
100
AcDbEntity
  8
0-0
  6
JWW_DASHED1
 62
   120
370
     5
100
AcDbLine
 10
-890.1711687383684
 20
928.3300404413832
 30
0.0
 11
-317.1711687383677
 21
928.3300404413832
 31
0.0
  0
LINE
  5
175
330
1F
100
AcDbEntity
  8
0-0
  6
JWW_DASHED1
 62
   120
370
     5
100
AcDbLine
 10
-890.1711687383684
 20
929.3300404412834
 30
0.0
 11
-317.1711687383677
 21
929.3300404412834
 31
0.0
  0
LINE
  5
176
330
1F
100
AcDbEntity
  8
0-0
  6
JWW_DASHED1
 62
   120
370
     5
100
AcDbLine
 10
-890.1711687383684
 20
942.3300404423829
 30
0.0
 11
-317.1711687383677
 21
942.3300404423829
 31
0.0
  0
LINE
  5
177
330
1F
100
AcDbEntity
  8
0-0
  6
JWW_DASHED1
 62
   120
370
     5
100
AcDbLine
 10
-890.1711687383684
 20
943.3300404422829
 30
0.0
 11
-317.1711687383677
 21
943.3300404422829
 31
0.0
  0
LINE
  5
178
330
1F
100
AcDbEntity
  8
0-0
  6
JWW_DASHED1
 62
   120
370
     5
100
AcDbLine
 10
-890.1711687383684
 20
956.3300404433827
 30
0.0
 11
-317.1711687383677
 21
956.3300404433827
 31
0.0
  0
LINE
  5
179
330
1F
100
AcDbEntity
  8
0-0
  6
JWW_DASHED1
 62
   120
370
     5
100
AcDbLine
 10
-890.1711687383684
 20
957.3300404432829
 30
0.0
 11
-317.1711687383677
 21
957.3300404432829
 31
0.0
  0
LINE
  5
17A
330
1F
100
AcDbEntity
  8
0-0
  6
JWW_DASHED1
 62
   120
370
     5
100
AcDbLine
 10
-890.1711687383684
 20
970.3300404443825
 30
0.0
 11
-317.1711687383677
 21
970.3300404443825
 31
0.0
  0
LINE
  5
17B
330
1F
100
AcDbEntity
  8
0-0
  6
JWW_DASHED1
 62
   120
370
     5
100
AcDbLine
 10
-890.1711687383684
 20
971.3300404442826
 30
0.0
 11
-317.1711687383677
 21
971.3300404442826
 31
0.0
  0
LINE
  5
17C
330
1F
100
AcDbEntity
  8
0-0
  6
JWW_DASHED1
 62
   120
370
     5
100
AcDbLine
 10
-884.1711502803366
 20
-135.6698113207572
 30
0.0
 11
-884.1711502803366
 21
1039.330188679243
 31
0.0
  0
LINE
  5
17D
330
1F
100
AcDbEntity
  8
0-0
  6
JWW_DASHED1
 62
   120
370
     5
100
AcDbLine
 10
-351.1711502424363
 20
-135.6698113207572
 30
0.0
 11
-351.1711502424363
 21
1039.330188679243
 31
0.0
  0
LINE
  5
17E
330
1F
100
AcDbEntity
  8
0-0
  6
JWW_DASHED1
 62
   120
370
     5
100
AcDbLine
 10
-352.1711502423365
 20
-135.6698113207572
 30
0.0
 11
-352.1711502423361
 21
1039.330188679243
 31
0.0
  0
LINE
  5
17F
330
1F
100
AcDbEntity
  8
0-0
  6
JWW_DASHED1
 62
   120
370
     5
100
AcDbLine
 10
-365.1711502434365
 20
-135.6698113207572
 30
0.0
 11
-365.1711502434361
 21
1039.330188679243
 31
0.0
  0
LINE
  5
180
330
1F
100
AcDbEntity
  8
0-0
  6
JWW_DASHED1
 62
   120
370
     5
100
AcDbLine
 10
-366.1711502433363
 20
-135.6698113207572
 30
0.0
 11
-366.1711502433363
 21
1039.330188679243
 31
0.0
  0
LINE
  5
181
330
1F
100
AcDbEntity
  8
0-0
  6
JWW_DASHED1
 62
   120
370
     5
100
AcDbLine
 10
-379.1711502444367
 20
-135.6698113207572
 30
0.0
 11
-379.1711502444367
 21
1039.330188679243
 31
0.0
  0
LINE
  5
182
330
1F
100
AcDbEntity
  8
0-0
  6
JWW_DASHED1
 62
   120
370
     5
100
AcDbLine
 10
-380.1711502443365
 20
-135.6698113207572
 30
0.0
 11
-380.1711502443365
 21
1039.330188679243
 31
0.0
  0
LINE
  5
183
330
1F
100
AcDbEntity
  8
0-0
  6
JWW_DASHED1
 62
   120
370
     5
100
AcDbLine
 10
-393.1711502454365
 20
-135.6698113207572
 30
0.0
 11
-393.1711502454365
 21
1039.330188679243
 31
0.0
  0
LINE
  5
184
330
1F
100
AcDbEntity
  8
0-0
  6
JWW_DASHED1
 62
   120
370
     5
100
AcDbLine
 10
-394.1711502453367
 20
-135.6698113207572
 30
0.0
 11
-394.1711502453367
 21
1039.330188679243
 31
0.0
  0
LINE
  5
185
330
1F
100
AcDbEntity
  8
0-0
  6
JWW_DASHED1
 62
   120
370
     5
100
AcDbLine
 10
-407.1711502464368
 20
-135.6698113207572
 30
0.0
 11
-407.1711502464368
 21
1039.330188679243
 31
0.0
  0
LINE
  5
186
330
1F
100
AcDbEntity
  8
0-0
  6
JWW_DASHED1
 62
   120
370
     5
100
AcDbLine
 10
-408.1711502463365
 20
-135.6698113207572
 30
0.0
 11
-408.1711502463361
 21
1039.330188679243
 31
0.0
  0
LINE
  5
187
330
1F
100
AcDbEntity
  8
0-0
  6
JWW_DASHED1
 62
   120
370
     5
100
AcDbLine
 10
-421.1711502474366
 20
-135.6698113207572
 30
0.0
 11
-421.1711502474361
 21
1039.330188679243
 31
0.0
  0
LINE
  5
188
330
1F
100
AcDbEntity
  8
0-0
  6
JWW_DASHED1
 62
   120
370
     5
100
AcDbLine
 10
-422.1711502473363
 20
-135.6698113207572
 30
0.0
 11
-422.1711502473363
 21
1039.330188679243
 31
0.0
  0
LINE
  5
189
330
1F
100
AcDbEntity
  8
0-0
  6
JWW_DASHED1
 62
   120
370
     5
100
AcDbLine
 10
-435.1711502484363
 20
-135.6698113207572
 30
0.0
 11
-435.1711502484363
 21
1039.330188679243
 31
0.0
  0
LINE
  5
18A
330
1F
100
AcDbEntity
  8
0-0
  6
JWW_DASHED1
 62
   120
370
     5
100
AcDbLine
 10
-436.1711502483365
 20
-135.6698113207572
 30
0.0
 11
-436.1711502483365
 21
1039.330188679243
 31
0.0
  0
LINE
  5
18B
330
1F
100
AcDbEntity
  8
0-0
  6
JWW_DASHED1
 62
   120
370
     5
100
AcDbLine
 10
-449.1711502494361
 20
-135.6698113207572
 30
0.0
 11
-449.1711502494361
 21
1039.330188679243
 31
0.0
  0
LINE
  5
18C
330
1F
100
AcDbEntity
  8
0-0
  6
JWW_DASHED1
 62
   120
370
     5
100
AcDbLine
 10
-450.1711502493363
 20
-135.6698113207572
 30
0.0
 11
-450.1711502493363
 21
1039.330188679243
 31
0.0
  0
LINE
  5
18D
330
1F
100
AcDbEntity
  8
0-0
  6
JWW_DASHED1
 62
   120
370
     5
100
AcDbLine
 10
-463.1711502504359
 20
-135.6698113207572
 30
0.0
 11
-463.1711502504359
 21
1039.330188679243
 31
0.0
  0
LINE
  5
18E
330
1F
100
AcDbEntity
  8
0-0
  6
JWW_DASHED1
 62
   120
370
     5
100
AcDbLine
 10
-464.1711502503361
 20
-135.6698113207572
 30
0.0
 11
-464.1711502503361
 21
1039.330188679243
 31
0.0
  0
LINE
  5
18F
330
1F
100
AcDbEntity
  8
0-0
  6
JWW_DASHED1
 62
   120
370
     5
100
AcDbLine
 10
-477.1711502514361
 20
-135.6698113207572
 30
0.0
 11
-477.1711502514361
 21
1039.330188679243
 31
0.0
  0
LINE
  5
190
330
1F
100
AcDbEntity
  8
0-0
  6
JWW_DASHED1
 62
   120
370
     5
100
AcDbLine
 10
-478.1711502513363
 20
-135.6698113207572
 30
0.0
 11
-478.1711502513363
 21
1039.330188679243
 31
0.0
  0
LINE
  5
191
330
1F
100
AcDbEntity
  8
0-0
  6
JWW_DASHED1
 62
   120
370
     5
100
AcDbLine
 10
-491.1711502524363
 20
-135.6698113207572
 30
0.0
 11
-491.1711502524363
 21
1039.330188679243
 31
0.0
  0
LINE
  5
192
330
1F
100
AcDbEntity
  8
0-0
  6
JWW_DASHED1
 62
   120
370
     5
100
AcDbLine
 10
-492.1711502523365
 20
-135.6698113207572
 30
0.0
 11
-492.1711502523365
 21
1039.330188679243
 31
0.0
  0
LINE
  5
193
330
1F
100
AcDbEntity
  8
0-0
  6
JWW_DASHED1
 62
   120
370
     5
100
AcDbLine
 10
-505.1711502534362
 20
-135.6698113207572
 30
0.0
 11
-505.1711502534362
 21
1039.330188679243
 31
0.0
  0
LINE
  5
194
330
1F
100
AcDbEntity
  8
0-0
  6
JWW_DASHED1
 62
   120
370
     5
100
AcDbLine
 10
-506.1711502533364
 20
-135.6698113207572
 30
0.0
 11
-506.1711502533364
 21
1039.330188679243
 31
0.0
  0
LINE
  5
195
330
1F
100
AcDbEntity
  8
0-0
  6
JWW_DASHED1
 62
   120
370
     5
100
AcDbLine
 10
-519.171150254436
 20
-135.6698113207572
 30
0.0
 11
-519.171150254436
 21
1039.330188679243
 31
0.0
  0
LINE
  5
196
330
1F
100
AcDbEntity
  8
0-0
  6
JWW_DASHED1
 62
   120
370
     5
100
AcDbLine
 10
-520.1711502543362
 20
-135.6698113207572
 30
0.0
 11
-520.1711502543362
 21
1039.330188679243
 31
0.0
  0
LINE
  5
197
330
1F
100
AcDbEntity
  8
0-0
  6
JWW_DASHED1
 62
   120
370
     5
100
AcDbLine
 10
-533.1711502554361
 20
-135.6698113207572
 30
0.0
 11
-533.1711502554361
 21
1039.330188679243
 31
0.0
  0
LINE
  5
198
330
1F
100
AcDbEntity
  8
0-0
  6
JWW_DASHED1
 62
   120
370
     5
100
AcDbLine
 10
-534.1711502553363
 20
-135.6698113207572
 30
0.0
 11
-534.1711502553363
 21
1039.330188679243
 31
0.0
  0
LINE
  5
199
330
1F
100
AcDbEntity
  8
0-0
  6
JWW_DASHED1
 62
   120
370
     5
100
AcDbLine
 10
-547.1711502564364
 20
-135.6698113207572
 30
0.0
 11
-547.1711502564364
 21
1039.330188679243
 31
0.0
  0
LINE
  5
19A
330
1F
100
AcDbEntity
  8
0-0
  6
JWW_DASHED1
 62
   120
370
     5
100
AcDbLine
 10
-548.1711502563365
 20
-135.6698113207572
 30
0.0
 11
-548.1711502563365
 21
1039.330188679243
 31
0.0
  0
LINE
  5
19B
330
1F
100
AcDbEntity
  8
0-0
  6
JWW_DASHED1
 62
   120
370
     5
100
AcDbLine
 10
-561.1711502574361
 20
-135.6698113207572
 30
0.0
 11
-561.1711502574361
 21
1039.330188679243
 31
0.0
  0
LINE
  5
19C
330
1F
100
AcDbEntity
  8
0-0
  6
JWW_DASHED1
 62
   120
370
     5
100
AcDbLine
 10
-562.1711502573363
 20
-135.6698113207572
 30
0.0
 11
-562.1711502573363
 21
1039.330188679243
 31
0.0
  0
LINE
  5
19D
330
1F
100
AcDbEntity
  8
0-0
  6
JWW_DASHED1
 62
   120
370
     5
100
AcDbLine
 10
-575.171150258436
 20
-135.6698113207572
 30
0.0
 11
-575.171150258436
 21
1039.330188679243
 31
0.0
  0
LINE
  5
19E
330
1F
100
AcDbEntity
  8
0-0
  6
JWW_DASHED1
 62
   120
370
     5
100
AcDbLine
 10
-576.1711502583362
 20
-135.6698113207572
 30
0.0
 11
-576.1711502583362
 21
1039.330188679243
 31
0.0
  0
LINE
  5
19F
330
1F
100
AcDbEntity
  8
0-0
  6
JWW_DASHED1
 62
   120
370
     5
100
AcDbLine
 10
-589.1711502594362
 20
-135.6698113207572
 30
0.0
 11
-589.1711502594362
 21
1039.330188679243
 31
0.0
  0
LINE
  5
1A0
330
1F
100
AcDbEntity
  8
0-0
  6
JWW_DASHED1
 62
   120
370
     5
100
AcDbLine
 10
-590.1711502593364
 20
-135.6698113207572
 30
0.0
 11
-590.1711502593364
 21
1039.330188679243
 31
0.0
  0
LINE
  5
1A1
330
1F
100
AcDbEntity
  8
0-0
  6
JWW_DASHED1
 62
   120
370
     5
100
AcDbLine
 10
-603.1711502604364
 20
-135.6698113207572
 30
0.0
 11
-603.1711502604364
 21
1039.330188679243
 31
0.0
  0
LINE
  5
1A2
330
1F
100
AcDbEntity
  8
0-0
  6
JWW_DASHED1
 62
   120
370
     5
100
AcDbLine
 10
-604.1711502603366
 20
-135.6698113207572
 30
0.0
 11
-604.1711502603366
 21
1039.330188679243
 31
0.0
  0
LINE
  5
1A3
330
1F
100
AcDbEntity
  8
0-0
  6
JWW_DASHED1
 62
   120
370
     5
100
AcDbLine
 10
-617.1711502614367
 20
-135.6698113207572
 30
0.0
 11
-617.1711502614367
 21
1039.330188679243
 31
0.0
  0
LINE
  5
1A4
330
1F
100
AcDbEntity
  8
0-0
  6
JWW_DASHED1
 62
   120
370
     5
100
AcDbLine
 10
-618.1711502613368
 20
-135.6698113207572
 30
0.0
 11
-618.1711502613368
 21
1039.330188679243
 31
0.0
  0
LINE
  5
1A5
330
1F
100
AcDbEntity
  8
0-0
  6
JWW_DASHED1
 62
   120
370
     5
100
AcDbLine
 10
-631.171150262436
 20
-135.6698113207572
 30
0.0
 11
-631.171150262436
 21
1039.330188679243
 31
0.0
  0
LINE
  5
1A6
330
1F
100
AcDbEntity
  8
0-0
  6
JWW_DASHED1
 62
   120
370
     5
100
AcDbLine
 10
-632.1711502623361
 20
-135.6698113207572
 30
0.0
 11
-632.1711502623361
 21
1039.330188679243
 31
0.0
  0
LINE
  5
1A7
330
1F
100
AcDbEntity
  8
0-0
  6
JWW_DASHED1
 62
   120
370
     5
100
AcDbLine
 10
-645.1711502634362
 20
-135.6698113207572
 30
0.0
 11
-645.1711502634362
 21
1039.330188679243
 31
0.0
  0
LINE
  5
1A8
330
1F
100
AcDbEntity
  8
0-0
  6
JWW_DASHED1
 62
   120
370
     5
100
AcDbLine
 10
-646.1711502633364
 20
-135.6698113207572
 30
0.0
 11
-646.1711502633364
 21
1039.330188679243
 31
0.0
  0
LINE
  5
1A9
330
1F
100
AcDbEntity
  8
0-0
  6
JWW_DASHED1
 62
   120
370
     5
100
AcDbLine
 10
-659.1711502644364
 20
-135.6698113207572
 30
0.0
 11
-659.1711502644364
 21
1039.330188679243
 31
0.0
  0
LINE
  5
1AA
330
1F
100
AcDbEntity
  8
0-0
  6
JWW_DASHED1
 62
   120
370
     5
100
AcDbLine
 10
-660.1711502643366
 20
-135.6698113207572
 30
0.0
 11
-660.1711502643366
 21
1039.330188679243
 31
0.0
  0
LINE
  5
1AB
330
1F
100
AcDbEntity
  8
0-0
  6
JWW_DASHED1
 62
   120
370
     5
100
AcDbLine
 10
-673.1711502654357
 20
-135.6698113207572
 30
0.0
 11
-673.1711502654357
 21
1039.330188679243
 31
0.0
  0
LINE
  5
1AC
330
1F
100
AcDbEntity
  8
0-0
  6
JWW_DASHED1
 62
   120
370
     5
100
AcDbLine
 10
-674.1711502653359
 20
-135.6698113207572
 30
0.0
 11
-674.1711502653359
 21
1039.330188679243
 31
0.0
  0
LINE
  5
1AD
330
1F
100
AcDbEntity
  8
0-0
  6
JWW_DASHED1
 62
   120
370
     5
100
AcDbLine
 10
-687.1711502664359
 20
-135.6698113207572
 30
0.0
 11
-687.1711502664359
 21
1039.330188679243
 31
0.0
  0
LINE
  5
1AE
330
1F
100
AcDbEntity
  8
0-0
  6
JWW_DASHED1
 62
   120
370
     5
100
AcDbLine
 10
-688.1711502663361
 20
-135.6698113207572
 30
0.0
 11
-688.1711502663361
 21
1039.330188679243
 31
0.0
  0
LINE
  5
1AF
330
1F
100
AcDbEntity
  8
0-0
  6
JWW_DASHED1
 62
   120
370
     5
100
AcDbLine
 10
-701.1711502674361
 20
-135.6698113207572
 30
0.0
 11
-701.1711502674361
 21
1039.330188679243
 31
0.0
  0
LINE
  5
1B0
330
1F
100
AcDbEntity
  8
0-0
  6
JWW_DASHED1
 62
   120
370
     5
100
AcDbLine
 10
-702.1711502673363
 20
-135.6698113207572
 30
0.0
 11
-702.1711502673363
 21
1039.330188679243
 31
0.0
  0
LINE
  5
1B1
330
1F
100
AcDbEntity
  8
0-0
  6
JWW_DASHED1
 62
   120
370
     5
100
AcDbLine
 10
-715.1711502684363
 20
-135.6698113207572
 30
0.0
 11
-715.1711502684363
 21
1039.330188679243
 31
0.0
  0
LINE
  5
1B2
330
1F
100
AcDbEntity
  8
0-0
  6
JWW_DASHED1
 62
   120
370
     5
100
AcDbLine
 10
-716.1711502683365
 20
-135.6698113207572
 30
0.0
 11
-716.1711502683365
 21
1039.330188679243
 31
0.0
  0
LINE
  5
1B3
330
1F
100
AcDbEntity
  8
0-0
  6
JWW_DASHED1
 62
   120
370
     5
100
AcDbLine
 10
-729.1711502694366
 20
-135.6698113207572
 30
0.0
 11
-729.1711502694366
 21
1039.330188679243
 31
0.0
  0
LINE
  5
1B4
330
1F
100
AcDbEntity
  8
0-0
  6
JWW_DASHED1
 62
   120
370
     5
100
AcDbLine
 10
-730.1711502693367
 20
-135.6698113207572
 30
0.0
 11
-730.1711502693367
 21
1039.330188679243
 31
0.0
  0
LINE
  5
1B5
330
1F
100
AcDbEntity
  8
0-0
  6
JWW_DASHED1
 62
   120
370
     5
100
AcDbLine
 10
-743.171150270436
 20
-135.6698113207572
 30
0.0
 11
-743.171150270436
 21
1039.330188679243
 31
0.0
  0
LINE
  5
1B6
330
1F
100
AcDbEntity
  8
0-0
  6
JWW_DASHED1
 62
   120
370
     5
100
AcDbLine
 10
-744.1711502703362
 20
-135.6698113207572
 30
0.0
 11
-744.1711502703362
 21
1039.330188679243
 31
0.0
  0
LINE
  5
1B7
330
1F
100
AcDbEntity
  8
0-0
  6
JWW_DASHED1
 62
   120
370
     5
100
AcDbLine
 10
-757.1711502714362
 20
-135.6698113207572
 30
0.0
 11
-757.1711502714362
 21
1039.330188679243
 31
0.0
  0
LINE
  5
1B8
330
1F
100
AcDbEntity
  8
0-0
  6
JWW_DASHED1
 62
   120
370
     5
100
AcDbLine
 10
-758.1711502713364
 20
-135.6698113207572
 30
0.0
 11
-758.1711502713364
 21
1039.330188679243
 31
0.0
  0
LINE
  5
1B9
330
1F
100
AcDbEntity
  8
0-0
  6
JWW_DASHED1
 62
   120
370
     5
100
AcDbLine
 10
-771.1711502724364
 20
-135.6698113207572
 30
0.0
 11
-771.1711502724364
 21
1039.330188679243
 31
0.0
  0
LINE
  5
1BA
330
1F
100
AcDbEntity
  8
0-0
  6
JWW_DASHED1
 62
   120
370
     5
100
AcDbLine
 10
-772.1711502723366
 20
-135.6698113207572
 30
0.0
 11
-772.1711502723366
 21
1039.330188679243
 31
0.0
  0
LINE
  5
1BB
330
1F
100
AcDbEntity
  8
0-0
  6
JWW_DASHED1
 62
   120
370
     5
100
AcDbLine
 10
-785.1711502734358
 20
-135.6698113207572
 30
0.0
 11
-785.1711502734358
 21
1039.330188679243
 31
0.0
  0
LINE
  5
1BC
330
1F
100
AcDbEntity
  8
0-0
  6
JWW_DASHED1
 62
   120
370
     5
100
AcDbLine
 10
-786.171150273336
 20
-135.6698113207572
 30
0.0
 11
-786.171150273336
 21
1039.330188679243
 31
0.0
  0
LINE
  5
1BD
330
1F
100
AcDbEntity
  8
0-0
  6
JWW_DASHED1
 62
   120
370
     5
100
AcDbLine
 10
-799.1711502744361
 20
-135.6698113207572
 30
0.0
 11
-799.1711502744361
 21
1039.330188679243
 31
0.0
  0
LINE
  5
1BE
330
1F
100
AcDbEntity
  8
0-0
  6
JWW_DASHED1
 62
   120
370
     5
100
AcDbLine
 10
-800.1711502743362
 20
-135.6698113207572
 30
0.0
 11
-800.1711502743362
 21
1039.330188679243
 31
0.0
  0
LINE
  5
1BF
330
1F
100
AcDbEntity
  8
0-0
  6
JWW_DASHED1
 62
   120
370
     5
100
AcDbLine
 10
-813.1711502754363
 20
-135.6698113207572
 30
0.0
 11
-813.1711502754363
 21
1039.330188679243
 31
0.0
  0
LINE
  5
1C0
330
1F
100
AcDbEntity
  8
0-0
  6
JWW_DASHED1
 62
   120
370
     5
100
AcDbLine
 10
-814.1711502753365
 20
-135.6698113207572
 30
0.0
 11
-814.1711502753365
 21
1039.330188679243
 31
0.0
  0
LINE
  5
1C1
330
1F
100
AcDbEntity
  8
0-0
  6
JWW_DASHED1
 62
   120
370
     5
100
AcDbLine
 10
-827.1711502764365
 20
-135.6698113207572
 30
0.0
 11
-827.1711502764365
 21
1039.330188679243
 31
0.0
  0
LINE
  5
1C2
330
1F
100
AcDbEntity
  8
0-0
  6
JWW_DASHED1
 62
   120
370
     5
100
AcDbLine
 10
-828.1711502763367
 20
-135.6698113207572
 30
0.0
 11
-828.1711502763367
 21
1039.330188679243
 31
0.0
  0
LINE
  5
1C3
330
1F
100
AcDbEntity
  8
0-0
  6
JWW_DASHED1
 62
   120
370
     5
100
AcDbLine
 10
-841.1711502774367
 20
-135.6698113207572
 30
0.0
 11
-841.1711502774367
 21
1039.330188679243
 31
0.0
  0
LINE
  5
1C4
330
1F
100
AcDbEntity
  8
0-0
  6
JWW_DASHED1
 62
   120
370
     5
100
AcDbLine
 10
-842.1711502773369
 20
-135.6698113207572
 30
0.0
 11
-842.1711502773369
 21
1039.330188679243
 31
0.0
  0
LINE
  5
1C5
330
1F
100
AcDbEntity
  8
0-0
  6
JWW_DASHED1
 62
   120
370
     5
100
AcDbLine
 10
-855.171150278436
 20
-135.6698113207572
 30
0.0
 11
-855.171150278436
 21
1039.330188679243
 31
0.0
  0
LINE
  5
1C6
330
1F
100
AcDbEntity
  8
0-0
  6
JWW_DASHED1
 62
   120
370
     5
100
AcDbLine
 10
-856.1711502783362
 20
-135.6698113207572
 30
0.0
 11
-856.1711502783362
 21
1039.330188679243
 31
0.0
  0
LINE
  5
1C7
330
1F
100
AcDbEntity
  8
0-0
  6
JWW_DASHED1
 62
   120
370
     5
100
AcDbLine
 10
-869.1711502794362
 20
-135.6698113207572
 30
0.0
 11
-869.1711502794362
 21
1039.330188679243
 31
0.0
  0
LINE
  5
1C8
330
1F
100
AcDbEntity
  8
0-0
  6
JWW_DASHED1
 62
   120
370
     5
100
AcDbLine
 10
-870.1711502793364
 20
-135.6698113207572
 30
0.0
 11
-870.1711502793364
 21
1039.330188679243
 31
0.0
  0
LINE
  5
1C9
330
1F
100
AcDbEntity
  8
0-0
  6
JWW_DASHED1
 62
   120
370
     5
100
AcDbLine
 10
-883.1711502804364
 20
-135.6698113207572
 30
0.0
 11
-883.1711502804364
 21
1039.330188679243
 31
0.0
  0
LINE
  5
1CA
330
1F
100
AcDbEntity
  8
0-0
  6
JWW_DASHED1
 62
   120
370
     5
100
AcDbLine
 10
-323.1711502404364
 20
-135.6698113207572
 30
0.0
 11
-323.1711502404364
 21
1039.330188679243
 31
0.0
  0
LINE
  5
1CB
330
1F
100
AcDbEntity
  8
0-0
  6
JWW_DASHED1
 62
   120
370
     5
100
AcDbLine
 10
-338.1711502413362
 20
-135.6698113207572
 30
0.0
 11
-338.1711502413362
 21
1039.330188679243
 31
0.0
  0
LINE
  5
1CC
330
1F
100
AcDbEntity
  8
0-0
  6
JWW_DASHED1
 62
   120
370
     5
100
AcDbLine
 10
-324.1711502403366
 20
-135.6698113207572
 30
0.0
 11
-324.1711502403366
 21
1039.330188679243
 31
0.0
  0
LINE
  5
1CD
330
1F
100
AcDbEntity
  8
0-0
  6
JWW_DASHED1
 62
   120
370
     5
100
AcDbLine
 10
-337.1711502414366
 20
-135.6698113207572
 30
0.0
 11
-337.1711502414366
 21
1039.330188679243
 31
0.0
  0
LINE
  5
1CE
330
1F
100
AcDbEntity
  8
0-0
  6
JWW_DASHED1
 62
   120
370
     5
100
AcDbLine
 10
-890.1711687383676
 20
1027.330040448282
 30
0.0
 11
-317.1711687383686
 21
1027.330040448282
 31
0.0
  0
LINE
  5
1CF
330
1F
100
AcDbEntity
  8
0-0
  6
JWW_DASHED1
 62
   120
370
     5
100
AcDbLine
 10
-890.1711687383676
 20
984.3300404453823
 30
0.0
 11
-317.1711687383686
 21
984.3300404453823
 31
0.0
  0
LINE
  5
1D0
330
1F
100
AcDbEntity
  8
0-0
  6
JWW_DASHED1
 62
   120
370
     5
100
AcDbLine
 10
-890.1711687383676
 20
985.3300404452825
 30
0.0
 11
-317.1711687383686
 21
985.3300404452825
 31
0.0
  0
LINE
  5
1D1
330
1F
100
AcDbEntity
  8
0-0
  6
JWW_DASHED1
 62
   120
370
     5
100
AcDbLine
 10
-890.1711687383676
 20
998.3300404463819
 30
0.0
 11
-317.1711687383686
 21
998.3300404463819
 31
0.0
  0
LINE
  5
1D2
330
1F
100
AcDbEntity
  8
0-0
  6
JWW_DASHED1
 62
   120
370
     5
100
AcDbLine
 10
-890.1711687383676
 20
999.330040446282
 30
0.0
 11
-317.1711687383686
 21
999.330040446282
 31
0.0
  0
LINE
  5
1D3
330
1F
100
AcDbEntity
  8
0-0
  6
JWW_DASHED1
 62
   120
370
     5
100
AcDbLine
 10
-890.1711687383676
 20
1012.330040447382
 30
0.0
 11
-317.1711687383686
 21
1012.330040447382
 31
0.0
  0
LINE
  5
1D4
330
1F
100
AcDbEntity
  8
0-0
  6
JWW_DASHED1
 62
   120
370
     5
100
AcDbLine
 10
-890.1711687383676
 20
1013.330040447282
 30
0.0
 11
-317.1711687383686
 21
1013.330040447282
 31
0.0
  0
LINE
  5
1D5
330
1F
100
AcDbEntity
  8
0-0
  6
JWW_DASHED1
 62
   120
370
     5
100
AcDbLine
 10
-890.1711687383676
 20
1026.330040448382
 30
0.0
 11
-317.1711687383686
 21
1026.330040448382
 31
0.0
  0
LINE
  5
1D6
330
1F
100
AcDbEntity
  8
0-0
  6
JWW_DASHED1
 62
   120
370
     5
100
AcDbLine
 10
-158.1711687383674
 20
-134.6699596347009
 30
0.0
 11
414.8288312616333
 21
-134.6699596347009
 31
0.0
  0
LINE
  5
1D7
330
1F
100
AcDbEntity
  8
0-0
  6
JWW_DASHED1
 62
   120
370
     5
100
AcDbLine
 10
-158.1711687383674
 20
-121.6699596336012
 30
0.0
 11
414.8288312616333
 21
-121.6699596336012
 31
0.0
  0
LINE
  5
1D8
330
1F
100
AcDbEntity
  8
0-0
  6
JWW_DASHED1
 62
   120
370
     5
100
AcDbLine
 10
-158.1711687383674
 20
-120.669959633701
 30
0.0
 11
414.8288312616333
 21
-120.669959633701
 31
0.0
  0
LINE
  5
1D9
330
1F
100
AcDbEntity
  8
0-0
  6
JWW_DASHED1
 62
   120
370
     5
100
AcDbLine
 10
-158.1711687383674
 20
-107.6699596326014
 30
0.0
 11
414.8288312616333
 21
-107.6699596326014
 31
0.0
  0
LINE
  5
1DA
330
1F
100
AcDbEntity
  8
0-0
  6
JWW_DASHED1
 62
   120
370
     5
100
AcDbLine
 10
-158.1711687383674
 20
-106.6699596327012
 30
0.0
 11
414.8288312616333
 21
-106.6699596327012
 31
0.0
  0
LINE
  5
1DB
330
1F
100
AcDbEntity
  8
0-0
  6
JWW_DASHED1
 62
   120
370
     5
100
AcDbLine
 10
-158.1711687383674
 20
-93.66995963160157
 30
0.0
 11
414.8288312616333
 21
-93.66995963160157
 31
0.0
  0
LINE
  5
1DC
330
1F
100
AcDbEntity
  8
0-0
  6
JWW_DASHED1
 62
   120
370
     5
100
AcDbLine
 10
-158.1711687383674
 20
-92.66995963170139
 30
0.0
 11
414.8288312616333
 21
-92.66995963170139
 31
0.0
  0
LINE
  5
1DD
330
1F
100
AcDbEntity
  8
0-0
  6
JWW_DASHED1
 62
   120
370
     5
100
AcDbLine
 10
-158.1711687383674
 20
-79.66995963060178
 30
0.0
 11
414.8288312616333
 21
-79.66995963060178
 31
0.0
  0
LINE
  5
1DE
330
1F
100
AcDbEntity
  8
0-0
  6
JWW_DASHED1
 62
   120
370
     5
100
AcDbLine
 10
-158.1711687383674
 20
-78.6699596307016
 30
0.0
 11
414.8288312616333
 21
-78.6699596307016
 31
0.0
  0
LINE
  5
1DF
330
1F
100
AcDbEntity
  8
0-0
  6
JWW_DASHED1
 62
   120
370
     5
100
AcDbLine
 10
-158.1711687383674
 20
-65.66995962960199
 30
0.0
 11
414.8288312616333
 21
-65.66995962960199
 31
0.0
  0
LINE
  5
1E0
330
1F
100
AcDbEntity
  8
0-0
  6
JWW_DASHED1
 62
   120
370
     5
100
AcDbLine
 10
-158.1711687383674
 20
-64.66995962970181
 30
0.0
 11
414.8288312616333
 21
-64.66995962970181
 31
0.0
  0
LINE
  5
1E1
330
1F
100
AcDbEntity
  8
0-0
  6
JWW_DASHED1
 62
   120
370
     5
100
AcDbLine
 10
-158.1711687383674
 20
-51.6699596286022
 30
0.0
 11
414.8288312616333
 21
-51.6699596286022
 31
0.0
  0
LINE
  5
1E2
330
1F
100
AcDbEntity
  8
0-0
  6
JWW_DASHED1
 62
   120
370
     5
100
AcDbLine
 10
-158.1711687383674
 20
-50.66995962870202
 30
0.0
 11
414.8288312616333
 21
-50.66995962870202
 31
0.0
  0
LINE
  5
1E3
330
1F
100
AcDbEntity
  8
0-0
  6
JWW_DASHED1
 62
   120
370
     5
100
AcDbLine
 10
-158.1711687383674
 20
-37.66995962760241
 30
0.0
 11
414.8288312616333
 21
-37.66995962760241
 31
0.0
  0
LINE
  5
1E4
330
1F
100
AcDbEntity
  8
0-0
  6
JWW_DASHED1
 62
   120
370
     5
100
AcDbLine
 10
-158.1711687383674
 20
-36.66995962770223
 30
0.0
 11
414.8288312616333
 21
-36.66995962770223
 31
0.0
  0
LINE
  5
1E5
330
1F
100
AcDbEntity
  8
0-0
  6
JWW_DASHED1
 62
   120
370
     5
100
AcDbLine
 10
-158.1711687383674
 20
-23.66995962660273
 30
0.0
 11
414.8288312616333
 21
-23.66995962660273
 31
0.0
  0
LINE
  5
1E6
330
1F
100
AcDbEntity
  8
0-0
  6
JWW_DASHED1
 62
   120
370
     5
100
AcDbLine
 10
-158.1711687383674
 20
-22.66995962670254
 30
0.0
 11
414.8288312616333
 21
-22.66995962670254
 31
0.0
  0
LINE
  5
1E7
330
1F
100
AcDbEntity
  8
0-0
  6
JWW_DASHED1
 62
   120
370
     5
100
AcDbLine
 10
-158.1711687383674
 20
-9.669959625602829
 30
0.0
 11
414.8288312616333
 21
-9.669959625602829
 31
0.0
  0
LINE
  5
1E8
330
1F
100
AcDbEntity
  8
0-0
  6
JWW_DASHED1
 62
   120
370
     5
100
AcDbLine
 10
-158.1711687383674
 20
-8.669959625702646
 30
0.0
 11
414.8288312616333
 21
-8.669959625702646
 31
0.0
  0
LINE
  5
1E9
330
1F
100
AcDbEntity
  8
0-0
  6
JWW_DASHED1
 62
   120
370
     5
100
AcDbLine
 10
-158.1711687383674
 20
4.330040375396962
 30
0.0
 11
414.8288312616333
 21
4.330040375396962
 31
0.0
  0
LINE
  5
1EA
330
1F
100
AcDbEntity
  8
0-0
  6
JWW_DASHED1
 62
   120
370
     5
100
AcDbLine
 10
-158.1711687383674
 20
5.330040375297145
 30
0.0
 11
414.8288312616333
 21
5.330040375297145
 31
0.0
  0
LINE
  5
1EB
330
1F
100
AcDbEntity
  8
0-0
  6
JWW_DASHED1
 62
   120
370
     5
100
AcDbLine
 10
-158.1711687383674
 20
18.33004037639675
 30
0.0
 11
414.8288312616333
 21
18.33004037639675
 31
0.0
  0
LINE
  5
1EC
330
1F
100
AcDbEntity
  8
0-0
  6
JWW_DASHED1
 62
   120
370
     5
100
AcDbLine
 10
-158.1711687383674
 20
19.33004037629694
 30
0.0
 11
414.8288312616333
 21
19.33004037629694
 31
0.0
  0
LINE
  5
1ED
330
1F
100
AcDbEntity
  8
0-0
  6
JWW_DASHED1
 62
   120
370
     5
100
AcDbLine
 10
-158.1711687383674
 20
32.33004037739654
 30
0.0
 11
414.8288312616333
 21
32.33004037739654
 31
0.0
  0
LINE
  5
1EE
330
1F
100
AcDbEntity
  8
0-0
  6
JWW_DASHED1
 62
   120
370
     5
100
AcDbLine
 10
-158.1711687383674
 20
33.33004037729673
 30
0.0
 11
414.8288312616333
 21
33.33004037729673
 31
0.0
  0
LINE
  5
1EF
330
1F
100
AcDbEntity
  8
0-0
  6
JWW_DASHED1
 62
   120
370
     5
100
AcDbLine
 10
-158.1711687383674
 20
46.33004037839633
 30
0.0
 11
414.8288312616333
 21
46.33004037839633
 31
0.0
  0
LINE
  5
1F0
330
1F
100
AcDbEntity
  8
0-0
  6
JWW_DASHED1
 62
   120
370
     5
100
AcDbLine
 10
-158.1711687383674
 20
47.33004037829652
 30
0.0
 11
414.8288312616333
 21
47.33004037829652
 31
0.0
  0
LINE
  5
1F1
330
1F
100
AcDbEntity
  8
0-0
  6
JWW_DASHED1
 62
   120
370
     5
100
AcDbLine
 10
-158.1711687383674
 20
60.33004037939612
 30
0.0
 11
414.8288312616333
 21
60.33004037939612
 31
0.0
  0
LINE
  5
1F2
330
1F
100
AcDbEntity
  8
0-0
  6
JWW_DASHED1
 62
   120
370
     5
100
AcDbLine
 10
-158.1711687383674
 20
61.33004037929631
 30
0.0
 11
414.8288312616333
 21
61.33004037929631
 31
0.0
  0
LINE
  5
1F3
330
1F
100
AcDbEntity
  8
0-0
  6
JWW_DASHED1
 62
   120
370
     5
100
AcDbLine
 10
-158.1711687383674
 20
74.33004038039591
 30
0.0
 11
414.8288312616333
 21
74.33004038039591
 31
0.0
  0
LINE
  5
1F4
330
1F
100
AcDbEntity
  8
0-0
  6
JWW_DASHED1
 62
   120
370
     5
100
AcDbLine
 10
-158.1711687383674
 20
75.3300403802961
 30
0.0
 11
414.8288312616333
 21
75.3300403802961
 31
0.0
  0
LINE
  5
1F5
330
1F
100
AcDbEntity
  8
0-0
  6
JWW_DASHED1
 62
   120
370
     5
100
AcDbLine
 10
-158.1711687383674
 20
88.3300403813956
 30
0.0
 11
414.8288312616333
 21
88.3300403813956
 31
0.0
  0
LINE
  5
1F6
330
1F
100
AcDbEntity
  8
0-0
  6
JWW_DASHED1
 62
   120
370
     5
100
AcDbLine
 10
-158.1711687383674
 20
89.33004038129579
 30
0.0
 11
414.8288312616333
 21
89.33004038129579
 31
0.0
  0
LINE
  5
1F7
330
1F
100
AcDbEntity
  8
0-0
  6
JWW_DASHED1
 62
   120
370
     5
100
AcDbLine
 10
-158.1711687383674
 20
102.3300403823955
 30
0.0
 11
414.8288312616333
 21
102.3300403823955
 31
0.0
  0
LINE
  5
1F8
330
1F
100
AcDbEntity
  8
0-0
  6
JWW_DASHED1
 62
   120
370
     5
100
AcDbLine
 10
-158.1711687383674
 20
103.3300403822957
 30
0.0
 11
414.8288312616333
 21
103.3300403822957
 31
0.0
  0
LINE
  5
1F9
330
1F
100
AcDbEntity
  8
0-0
  6
JWW_DASHED1
 62
   120
370
     5
100
AcDbLine
 10
-158.1711687383674
 20
116.3300403833953
 30
0.0
 11
414.8288312616333
 21
116.3300403833953
 31
0.0
  0
LINE
  5
1FA
330
1F
100
AcDbEntity
  8
0-0
  6
JWW_DASHED1
 62
   120
370
     5
100
AcDbLine
 10
-158.1711687383674
 20
117.3300403832955
 30
0.0
 11
414.8288312616333
 21
117.3300403832955
 31
0.0
  0
LINE
  5
1FB
330
1F
100
AcDbEntity
  8
0-0
  6
JWW_DASHED1
 62
   120
370
     5
100
AcDbLine
 10
-158.1711687383674
 20
130.3300403843951
 30
0.0
 11
414.8288312616333
 21
130.3300403843951
 31
0.0
  0
LINE
  5
1FC
330
1F
100
AcDbEntity
  8
0-0
  6
JWW_DASHED1
 62
   120
370
     5
100
AcDbLine
 10
-158.1711687383674
 20
131.3300403842953
 30
0.0
 11
414.8288312616333
 21
131.3300403842953
 31
0.0
  0
LINE
  5
1FD
330
1F
100
AcDbEntity
  8
0-0
  6
JWW_DASHED1
 62
   120
370
     5
100
AcDbLine
 10
-158.1711687383674
 20
144.3300403853949
 30
0.0
 11
414.8288312616333
 21
144.3300403853949
 31
0.0
  0
LINE
  5
1FE
330
1F
100
AcDbEntity
  8
0-0
  6
JWW_DASHED1
 62
   120
370
     5
100
AcDbLine
 10
-158.1711687383674
 20
145.330040385295
 30
0.0
 11
414.8288312616333
 21
145.330040385295
 31
0.0
  0
LINE
  5
1FF
330
1F
100
AcDbEntity
  8
0-0
  6
JWW_DASHED1
 62
   120
370
     5
100
AcDbLine
 10
-158.1711687383674
 20
158.3300403863947
 30
0.0
 11
414.8288312616333
 21
158.3300403863947
 31
0.0
  0
LINE
  5
200
330
1F
100
AcDbEntity
  8
0-0
  6
JWW_DASHED1
 62
   120
370
     5
100
AcDbLine
 10
-158.1711687383674
 20
159.3300403862949
 30
0.0
 11
414.8288312616333
 21
159.3300403862949
 31
0.0
  0
LINE
  5
201
330
1F
100
AcDbEntity
  8
0-0
  6
JWW_DASHED1
 62
   120
370
     5
100
AcDbLine
 10
-158.1711687383674
 20
172.3300403873944
 30
0.0
 11
414.8288312616333
 21
172.3300403873944
 31
0.0
  0
LINE
  5
202
330
1F
100
AcDbEntity
  8
0-0
  6
JWW_DASHED1
 62
   120
370
     5
100
AcDbLine
 10
-158.1711687383674
 20
173.3300403872946
 30
0.0
 11
414.8288312616333
 21
173.3300403872946
 31
0.0
  0
LINE
  5
203
330
1F
100
AcDbEntity
  8
0-0
  6
JWW_DASHED1
 62
   120
370
     5
100
AcDbLine
 10
-158.1711687383674
 20
186.3300403883943
 30
0.0
 11
414.8288312616333
 21
186.3300403883943
 31
0.0
  0
LINE
  5
204
330
1F
100
AcDbEntity
  8
0-0
  6
JWW_DASHED1
 62
   120
370
     5
100
AcDbLine
 10
-158.1711687383674
 20
187.3300403882944
 30
0.0
 11
414.8288312616333
 21
187.3300403882944
 31
0.0
  0
LINE
  5
205
330
1F
100
AcDbEntity
  8
0-0
  6
JWW_DASHED1
 62
   120
370
     5
100
AcDbLine
 10
-158.1711687383674
 20
200.330040389394
 30
0.0
 11
414.8288312616333
 21
200.330040389394
 31
0.0
  0
LINE
  5
206
330
1F
100
AcDbEntity
  8
0-0
  6
JWW_DASHED1
 62
   120
370
     5
100
AcDbLine
 10
-158.1711687383674
 20
201.3300403892942
 30
0.0
 11
414.8288312616333
 21
201.3300403892942
 31
0.0
  0
LINE
  5
207
330
1F
100
AcDbEntity
  8
0-0
  6
JWW_DASHED1
 62
   120
370
     5
100
AcDbLine
 10
-158.1711687383674
 20
214.3300403903938
 30
0.0
 11
414.8288312616333
 21
214.3300403903938
 31
0.0
  0
LINE
  5
208
330
1F
100
AcDbEntity
  8
0-0
  6
JWW_DASHED1
 62
   120
370
     5
100
AcDbLine
 10
-158.1711687383674
 20
215.330040390294
 30
0.0
 11
414.8288312616333
 21
215.330040390294
 31
0.0
  0
LINE
  5
209
330
1F
100
AcDbEntity
  8
0-0
  6
JWW_DASHED1
 62
   120
370
     5
100
AcDbLine
 10
-158.1711687383674
 20
228.3300403913934
 30
0.0
 11
414.8288312616333
 21
228.3300403913934
 31
0.0
  0
LINE
  5
20A
330
1F
100
AcDbEntity
  8
0-0
  6
JWW_DASHED1
 62
   120
370
     5
100
AcDbLine
 10
-158.1711687383674
 20
229.3300403912938
 30
0.0
 11
414.8288312616333
 21
229.3300403912938
 31
0.0
  0
LINE
  5
20B
330
1F
100
AcDbEntity
  8
0-0
  6
JWW_DASHED1
 62
   120
370
     5
100
AcDbLine
 10
-158.1711687383674
 20
242.3300403923934
 30
0.0
 11
414.8288312616333
 21
242.3300403923934
 31
0.0
  0
LINE
  5
20C
330
1F
100
AcDbEntity
  8
0-0
  6
JWW_DASHED1
 62
   120
370
     5
100
AcDbLine
 10
-158.1711687383674
 20
243.3300403922936
 30
0.0
 11
414.8288312616333
 21
243.3300403922936
 31
0.0
  0
LINE
  5
20D
330
1F
100
AcDbEntity
  8
0-0
  6
JWW_DASHED1
 62
   120
370
     5
100
AcDbLine
 10
-158.1711687383674
 20
256.3300403933932
 30
0.0
 11
414.8288312616333
 21
256.3300403933932
 31
0.0
  0
LINE
  5
20E
330
1F
100
AcDbEntity
  8
0-0
  6
JWW_DASHED1
 62
   120
370
     5
100
AcDbLine
 10
-158.1711687383674
 20
257.3300403932934
 30
0.0
 11
414.8288312616333
 21
257.3300403932934
 31
0.0
  0
LINE
  5
20F
330
1F
100
AcDbEntity
  8
0-0
  6
JWW_DASHED1
 62
   120
370
     5
100
AcDbLine
 10
-158.1711687383674
 20
270.330040394393
 30
0.0
 11
414.8288312616333
 21
270.330040394393
 31
0.0
  0
LINE
  5
210
330
1F
100
AcDbEntity
  8
0-0
  6
JWW_DASHED1
 62
   120
370
     5
100
AcDbLine
 10
-158.1711687383674
 20
271.3300403942932
 30
0.0
 11
414.8288312616333
 21
271.3300403942932
 31
0.0
  0
LINE
  5
211
330
1F
100
AcDbEntity
  8
0-0
  6
JWW_DASHED1
 62
   120
370
     5
100
AcDbLine
 10
-158.1711687383674
 20
284.3300403953928
 30
0.0
 11
414.8288312616333
 21
284.3300403953928
 31
0.0
  0
LINE
  5
212
330
1F
100
AcDbEntity
  8
0-0
  6
JWW_DASHED1
 62
   120
370
     5
100
AcDbLine
 10
-158.1711687383674
 20
285.3300403952929
 30
0.0
 11
414.8288312616333
 21
285.3300403952929
 31
0.0
  0
LINE
  5
213
330
1F
100
AcDbEntity
  8
0-0
  6
JWW_DASHED1
 62
   120
370
     5
100
AcDbLine
 10
-158.1711687383674
 20
298.3300403963926
 30
0.0
 11
414.8288312616333
 21
298.3300403963926
 31
0.0
  0
LINE
  5
214
330
1F
100
AcDbEntity
  8
0-0
  6
JWW_DASHED1
 62
   120
370
     5
100
AcDbLine
 10
-158.1711687383674
 20
299.3300403962928
 30
0.0
 11
414.8288312616333
 21
299.3300403962928
 31
0.0
  0
LINE
  5
215
330
1F
100
AcDbEntity
  8
0-0
  6
JWW_DASHED1
 62
   120
370
     5
100
AcDbLine
 10
-158.1711687383674
 20
312.3300403973923
 30
0.0
 11
414.8288312616333
 21
312.3300403973923
 31
0.0
  0
LINE
  5
216
330
1F
100
AcDbEntity
  8
0-0
  6
JWW_DASHED1
 62
   120
370
     5
100
AcDbLine
 10
-158.1711687383674
 20
313.3300403972925
 30
0.0
 11
414.8288312616333
 21
313.3300403972925
 31
0.0
  0
LINE
  5
217
330
1F
100
AcDbEntity
  8
0-0
  6
JWW_DASHED1
 62
   120
370
     5
100
AcDbLine
 10
-158.1711687383674
 20
326.3300403983922
 30
0.0
 11
414.8288312616333
 21
326.3300403983922
 31
0.0
  0
LINE
  5
218
330
1F
100
AcDbEntity
  8
0-0
  6
JWW_DASHED1
 62
   120
370
     5
100
AcDbLine
 10
-158.1711687383674
 20
327.3300403982923
 30
0.0
 11
414.8288312616333
 21
327.3300403982923
 31
0.0
  0
LINE
  5
219
330
1F
100
AcDbEntity
  8
0-0
  6
JWW_DASHED1
 62
   120
370
     5
100
AcDbLine
 10
-158.1711687383674
 20
340.3300403993919
 30
0.0
 11
414.8288312616333
 21
340.3300403993919
 31
0.0
  0
LINE
  5
21A
330
1F
100
AcDbEntity
  8
0-0
  6
JWW_DASHED1
 62
   120
370
     5
100
AcDbLine
 10
-158.1711687383674
 20
341.3300403992919
 30
0.0
 11
414.8288312616333
 21
341.3300403992919
 31
0.0
  0
LINE
  5
21B
330
1F
100
AcDbEntity
  8
0-0
  6
JWW_DASHED1
 62
   120
370
     5
100
AcDbLine
 10
-158.1711687383674
 20
354.3300404003917
 30
0.0
 11
414.8288312616333
 21
354.3300404003917
 31
0.0
  0
LINE
  5
21C
330
1F
100
AcDbEntity
  8
0-0
  6
JWW_DASHED1
 62
   120
370
     5
100
AcDbLine
 10
-158.1711687383674
 20
355.3300404002919
 30
0.0
 11
414.8288312616333
 21
355.3300404002919
 31
0.0
  0
LINE
  5
21D
330
1F
100
AcDbEntity
  8
0-0
  6
JWW_DASHED1
 62
   120
370
     5
100
AcDbLine
 10
-158.1711687383674
 20
368.3300404013915
 30
0.0
 11
414.8288312616333
 21
368.3300404013915
 31
0.0
  0
LINE
  5
21E
330
1F
100
AcDbEntity
  8
0-0
  6
JWW_DASHED1
 62
   120
370
     5
100
AcDbLine
 10
-158.1711687383674
 20
369.3300404012917
 30
0.0
 11
414.8288312616333
 21
369.3300404012917
 31
0.0
  0
LINE
  5
21F
330
1F
100
AcDbEntity
  8
0-0
  6
JWW_DASHED1
 62
   120
370
     5
100
AcDbLine
 10
-158.1711687383674
 20
382.3300404023913
 30
0.0
 11
414.8288312616333
 21
382.3300404023913
 31
0.0
  0
LINE
  5
220
330
1F
100
AcDbEntity
  8
0-0
  6
JWW_DASHED1
 62
   120
370
     5
100
AcDbLine
 10
-158.1711687383674
 20
383.3300404022915
 30
0.0
 11
414.8288312616333
 21
383.3300404022915
 31
0.0
  0
LINE
  5
221
330
1F
100
AcDbEntity
  8
0-0
  6
JWW_DASHED1
 62
   120
370
     5
100
AcDbLine
 10
-158.1711687383674
 20
396.3300404033911
 30
0.0
 11
414.8288312616333
 21
396.3300404033911
 31
0.0
  0
LINE
  5
222
330
1F
100
AcDbEntity
  8
0-0
  6
JWW_DASHED1
 62
   120
370
     5
100
AcDbLine
 10
-158.1711687383674
 20
397.3300404032913
 30
0.0
 11
414.8288312616333
 21
397.3300404032913
 31
0.0
  0
LINE
  5
223
330
1F
100
AcDbEntity
  8
0-0
  6
JWW_DASHED1
 62
   120
370
     5
100
AcDbLine
 10
-158.1711687383674
 20
410.3300404043909
 30
0.0
 11
414.8288312616333
 21
410.3300404043909
 31
0.0
  0
LINE
  5
224
330
1F
100
AcDbEntity
  8
0-0
  6
JWW_DASHED1
 62
   120
370
     5
100
AcDbLine
 10
-158.1711687383674
 20
411.3300404042911
 30
0.0
 11
414.8288312616333
 21
411.3300404042911
 31
0.0
  0
LINE
  5
225
330
1F
100
AcDbEntity
  8
0-0
  6
JWW_DASHED1
 62
   120
370
     5
100
AcDbLine
 10
-158.1711687383674
 20
424.3300404053907
 30
0.0
 11
414.8288312616333
 21
424.3300404053907
 31
0.0
  0
LINE
  5
226
330
1F
100
AcDbEntity
  8
0-0
  6
JWW_DASHED1
 62
   120
370
     5
100
AcDbLine
 10
-158.1711687383674
 20
425.3300404052908
 30
0.0
 11
414.8288312616333
 21
425.3300404052908
 31
0.0
  0
LINE
  5
227
330
1F
100
AcDbEntity
  8
0-0
  6
JWW_DASHED1
 62
   120
370
     5
100
AcDbLine
 10
-158.1711687383674
 20
438.3300404063905
 30
0.0
 11
414.8288312616333
 21
438.3300404063905
 31
0.0
  0
LINE
  5
228
330
1F
100
AcDbEntity
  8
0-0
  6
JWW_DASHED1
 62
   120
370
     5
100
AcDbLine
 10
-158.1711687383674
 20
439.3300404062907
 30
0.0
 11
414.8288312616333
 21
439.3300404062907
 31
0.0
  0
LINE
  5
229
330
1F
100
AcDbEntity
  8
0-0
  6
JWW_DASHED1
 62
   120
370
     5
100
AcDbLine
 10
-158.1711687383674
 20
452.33004040739
 30
0.0
 11
414.8288312616333
 21
452.33004040739
 31
0.0
  0
LINE
  5
22A
330
1F
100
AcDbEntity
  8
0-0
  6
JWW_DASHED1
 62
   120
370
     5
100
AcDbLine
 10
-158.1711687383674
 20
453.3300404072904
 30
0.0
 11
414.8288312616333
 21
453.3300404072904
 31
0.0
  0
LINE
  5
22B
330
1F
100
AcDbEntity
  8
0-0
  6
JWW_DASHED1
 62
   120
370
     5
100
AcDbLine
 10
-158.1711687383674
 20
466.3300404083901
 30
0.0
 11
414.8288312616333
 21
466.3300404083901
 31
0.0
  0
LINE
  5
22C
330
1F
100
AcDbEntity
  8
0-0
  6
JWW_DASHED1
 62
   120
370
     5
100
AcDbLine
 10
-158.1711687383674
 20
467.3300404082902
 30
0.0
 11
414.8288312616333
 21
467.3300404082902
 31
0.0
  0
LINE
  5
22D
330
1F
100
AcDbEntity
  8
0-0
  6
JWW_DASHED1
 62
   120
370
     5
100
AcDbLine
 10
-158.1711687383674
 20
480.3300404093898
 30
0.0
 11
414.8288312616333
 21
480.3300404093898
 31
0.0
  0
LINE
  5
22E
330
1F
100
AcDbEntity
  8
0-0
  6
JWW_DASHED1
 62
   120
370
     5
100
AcDbLine
 10
-158.1711687383674
 20
481.33004040929
 30
0.0
 11
414.8288312616333
 21
481.33004040929
 31
0.0
  0
LINE
  5
22F
330
1F
100
AcDbEntity
  8
0-0
  6
JWW_DASHED1
 62
   120
370
     5
100
AcDbLine
 10
-158.1711687383674
 20
494.3300404103896
 30
0.0
 11
414.8288312616333
 21
494.3300404103896
 31
0.0
  0
LINE
  5
230
330
1F
100
AcDbEntity
  8
0-0
  6
JWW_DASHED1
 62
   120
370
     5
100
AcDbLine
 10
-158.1711687383674
 20
495.3300404102898
 30
0.0
 11
414.8288312616333
 21
495.3300404102898
 31
0.0
  0
LINE
  5
231
330
1F
100
AcDbEntity
  8
0-0
  6
JWW_DASHED1
 62
   120
370
     5
100
AcDbLine
 10
-158.1711687383674
 20
508.3300404113894
 30
0.0
 11
414.8288312616333
 21
508.3300404113894
 31
0.0
  0
LINE
  5
232
330
1F
100
AcDbEntity
  8
0-0
  6
JWW_DASHED1
 62
   120
370
     5
100
AcDbLine
 10
-158.1711687383674
 20
509.3300404112896
 30
0.0
 11
414.8288312616333
 21
509.3300404112896
 31
0.0
  0
LINE
  5
233
330
1F
100
AcDbEntity
  8
0-0
  6
JWW_DASHED1
 62
   120
370
     5
100
AcDbLine
 10
-158.1711687383674
 20
522.3300404123892
 30
0.0
 11
414.8288312616333
 21
522.3300404123892
 31
0.0
  0
LINE
  5
234
330
1F
100
AcDbEntity
  8
0-0
  6
JWW_DASHED1
 62
   120
370
     5
100
AcDbLine
 10
-158.1711687383674
 20
523.3300404122893
 30
0.0
 11
414.8288312616333
 21
523.3300404122893
 31
0.0
  0
LINE
  5
235
330
1F
100
AcDbEntity
  8
0-0
  6
JWW_DASHED1
 62
   120
370
     5
100
AcDbLine
 10
-158.1711687383674
 20
536.330040413389
 30
0.0
 11
414.8288312616333
 21
536.330040413389
 31
0.0
  0
LINE
  5
236
330
1F
100
AcDbEntity
  8
0-0
  6
JWW_DASHED1
 62
   120
370
     5
100
AcDbLine
 10
-158.1711687383674
 20
537.3300404132892
 30
0.0
 11
414.8288312616333
 21
537.3300404132892
 31
0.0
  0
LINE
  5
237
330
1F
100
AcDbEntity
  8
0-0
  6
JWW_DASHED1
 62
   120
370
     5
100
AcDbLine
 10
-158.1711687383674
 20
550.3300404143888
 30
0.0
 11
414.8288312616333
 21
550.3300404143888
 31
0.0
  0
LINE
  5
238
330
1F
100
AcDbEntity
  8
0-0
  6
JWW_DASHED1
 62
   120
370
     5
100
AcDbLine
 10
-158.1711687383674
 20
551.330040414289
 30
0.0
 11
414.8288312616333
 21
551.330040414289
 31
0.0
  0
LINE
  5
239
330
1F
100
AcDbEntity
  8
0-0
  6
JWW_DASHED1
 62
   120
370
     5
100
AcDbLine
 10
-158.1711687383674
 20
564.3300404153886
 30
0.0
 11
414.8288312616333
 21
564.3300404153886
 31
0.0
  0
LINE
  5
23A
330
1F
100
AcDbEntity
  8
0-0
  6
JWW_DASHED1
 62
   120
370
     5
100
AcDbLine
 10
-158.1711687383674
 20
565.3300404152885
 30
0.0
 11
414.8288312616333
 21
565.3300404152885
 31
0.0
  0
LINE
  5
23B
330
1F
100
AcDbEntity
  8
0-0
  6
JWW_DASHED1
 62
   120
370
     5
100
AcDbLine
 10
-158.1711687383674
 20
578.3300404163883
 30
0.0
 11
414.8288312616333
 21
578.3300404163883
 31
0.0
  0
LINE
  5
23C
330
1F
100
AcDbEntity
  8
0-0
  6
JWW_DASHED1
 62
   120
370
     5
100
AcDbLine
 10
-158.1711687383674
 20
579.3300404162885
 30
0.0
 11
414.8288312616333
 21
579.3300404162885
 31
0.0
  0
LINE
  5
23D
330
1F
100
AcDbEntity
  8
0-0
  6
JWW_DASHED1
 62
   120
370
     5
100
AcDbLine
 10
-158.1711687383674
 20
592.3300404173882
 30
0.0
 11
414.8288312616333
 21
592.3300404173882
 31
0.0
  0
LINE
  5
23E
330
1F
100
AcDbEntity
  8
0-0
  6
JWW_DASHED1
 62
   120
370
     5
100
AcDbLine
 10
-158.1711687383674
 20
593.3300404172884
 30
0.0
 11
414.8288312616333
 21
593.3300404172884
 31
0.0
  0
LINE
  5
23F
330
1F
100
AcDbEntity
  8
0-0
  6
JWW_DASHED1
 62
   120
370
     5
100
AcDbLine
 10
-158.1711687383674
 20
606.330040418388
 30
0.0
 11
414.8288312616333
 21
606.330040418388
 31
0.0
  0
LINE
  5
240
330
1F
100
AcDbEntity
  8
0-0
  6
JWW_DASHED1
 62
   120
370
     5
100
AcDbLine
 10
-158.1711687383674
 20
607.3300404182881
 30
0.0
 11
414.8288312616333
 21
607.3300404182881
 31
0.0
  0
LINE
  5
241
330
1F
100
AcDbEntity
  8
0-0
  6
JWW_DASHED1
 62
   120
370
     5
100
AcDbLine
 10
-158.1711687383674
 20
620.3300404193877
 30
0.0
 11
414.8288312616333
 21
620.3300404193877
 31
0.0
  0
LINE
  5
242
330
1F
100
AcDbEntity
  8
0-0
  6
JWW_DASHED1
 62
   120
370
     5
100
AcDbLine
 10
-158.1711687383674
 20
621.3300404192879
 30
0.0
 11
414.8288312616333
 21
621.3300404192879
 31
0.0
  0
LINE
  5
243
330
1F
100
AcDbEntity
  8
0-0
  6
JWW_DASHED1
 62
   120
370
     5
100
AcDbLine
 10
-158.1711687383674
 20
634.3300404203875
 30
0.0
 11
414.8288312616333
 21
634.3300404203875
 31
0.0
  0
LINE
  5
244
330
1F
100
AcDbEntity
  8
0-0
  6
JWW_DASHED1
 62
   120
370
     5
100
AcDbLine
 10
-158.1711687383674
 20
635.3300404202877
 30
0.0
 11
414.8288312616333
 21
635.3300404202877
 31
0.0
  0
LINE
  5
245
330
1F
100
AcDbEntity
  8
0-0
  6
JWW_DASHED1
 62
   120
370
     5
100
AcDbLine
 10
-158.1711687383674
 20
648.3300404213874
 30
0.0
 11
414.8288312616333
 21
648.3300404213874
 31
0.0
  0
LINE
  5
246
330
1F
100
AcDbEntity
  8
0-0
  6
JWW_DASHED1
 62
   120
370
     5
100
AcDbLine
 10
-158.1711687383674
 20
649.3300404212875
 30
0.0
 11
414.8288312616333
 21
649.3300404212875
 31
0.0
  0
LINE
  5
247
330
1F
100
AcDbEntity
  8
0-0
  6
JWW_DASHED1
 62
   120
370
     5
100
AcDbLine
 10
-158.1711687383674
 20
662.3300404223871
 30
0.0
 11
414.8288312616333
 21
662.3300404223871
 31
0.0
  0
LINE
  5
248
330
1F
100
AcDbEntity
  8
0-0
  6
JWW_DASHED1
 62
   120
370
     5
100
AcDbLine
 10
-158.1711687383674
 20
663.3300404222873
 30
0.0
 11
414.8288312616333
 21
663.3300404222873
 31
0.0
  0
LINE
  5
249
330
1F
100
AcDbEntity
  8
0-0
  6
JWW_DASHED1
 62
   120
370
     5
100
AcDbLine
 10
-158.1711687383674
 20
676.3300404233867
 30
0.0
 11
414.8288312616333
 21
676.3300404233867
 31
0.0
  0
LINE
  5
24A
330
1F
100
AcDbEntity
  8
0-0
  6
JWW_DASHED1
 62
   120
370
     5
100
AcDbLine
 10
-158.1711687383674
 20
677.3300404232871
 30
0.0
 11
414.8288312616333
 21
677.3300404232871
 31
0.0
  0
LINE
  5
24B
330
1F
100
AcDbEntity
  8
0-0
  6
JWW_DASHED1
 62
   120
370
     5
100
AcDbLine
 10
-158.1711687383674
 20
690.3300404243867
 30
0.0
 11
414.8288312616333
 21
690.3300404243867
 31
0.0
  0
LINE
  5
24C
330
1F
100
AcDbEntity
  8
0-0
  6
JWW_DASHED1
 62
   120
370
     5
100
AcDbLine
 10
-158.1711687383674
 20
691.3300404242868
 30
0.0
 11
414.8288312616333
 21
691.3300404242868
 31
0.0
  0
LINE
  5
24D
330
1F
100
AcDbEntity
  8
0-0
  6
JWW_DASHED1
 62
   120
370
     5
100
AcDbLine
 10
-158.1711687383674
 20
704.3300404253865
 30
0.0
 11
414.8288312616333
 21
704.3300404253865
 31
0.0
  0
LINE
  5
24E
330
1F
100
AcDbEntity
  8
0-0
  6
JWW_DASHED1
 62
   120
370
     5
100
AcDbLine
 10
-158.1711687383674
 20
705.3300404252867
 30
0.0
 11
414.8288312616333
 21
705.3300404252867
 31
0.0
  0
LINE
  5
24F
330
1F
100
AcDbEntity
  8
0-0
  6
JWW_DASHED1
 62
   120
370
     5
100
AcDbLine
 10
-158.1711687383674
 20
718.3300404263863
 30
0.0
 11
414.8288312616333
 21
718.3300404263863
 31
0.0
  0
LINE
  5
250
330
1F
100
AcDbEntity
  8
0-0
  6
JWW_DASHED1
 62
   120
370
     5
100
AcDbLine
 10
-158.1711687383674
 20
719.3300404262865
 30
0.0
 11
414.8288312616333
 21
719.3300404262865
 31
0.0
  0
LINE
  5
251
330
1F
100
AcDbEntity
  8
0-0
  6
JWW_DASHED1
 62
   120
370
     5
100
AcDbLine
 10
-158.1711687383674
 20
732.330040427386
 30
0.0
 11
414.8288312616333
 21
732.330040427386
 31
0.0
  0
LINE
  5
252
330
1F
100
AcDbEntity
  8
0-0
  6
JWW_DASHED1
 62
   120
370
     5
100
AcDbLine
 10
-158.1711687383674
 20
733.3300404272862
 30
0.0
 11
414.8288312616333
 21
733.3300404272862
 31
0.0
  0
LINE
  5
253
330
1F
100
AcDbEntity
  8
0-0
  6
JWW_DASHED1
 62
   120
370
     5
100
AcDbLine
 10
-158.1711687383674
 20
746.3300404283858
 30
0.0
 11
414.8288312616333
 21
746.3300404283858
 31
0.0
  0
LINE
  5
254
330
1F
100
AcDbEntity
  8
0-0
  6
JWW_DASHED1
 62
   120
370
     5
100
AcDbLine
 10
-158.1711687383674
 20
747.330040428286
 30
0.0
 11
414.8288312616333
 21
747.330040428286
 31
0.0
  0
LINE
  5
255
330
1F
100
AcDbEntity
  8
0-0
  6
JWW_DASHED1
 62
   120
370
     5
100
AcDbLine
 10
-158.1711687383674
 20
760.3300404293857
 30
0.0
 11
414.8288312616333
 21
760.3300404293857
 31
0.0
  0
LINE
  5
256
330
1F
100
AcDbEntity
  8
0-0
  6
JWW_DASHED1
 62
   120
370
     5
100
AcDbLine
 10
-158.1711687383674
 20
761.3300404292859
 30
0.0
 11
414.8288312616333
 21
761.3300404292859
 31
0.0
  0
LINE
  5
257
330
1F
100
AcDbEntity
  8
0-0
  6
JWW_DASHED1
 62
   120
370
     5
100
AcDbLine
 10
-158.1711687383674
 20
774.3300404303852
 30
0.0
 11
414.8288312616333
 21
774.3300404303852
 31
0.0
  0
LINE
  5
258
330
1F
100
AcDbEntity
  8
0-0
  6
JWW_DASHED1
 62
   120
370
     5
100
AcDbLine
 10
-158.1711687383674
 20
775.3300404302854
 30
0.0
 11
414.8288312616333
 21
775.3300404302854
 31
0.0
  0
LINE
  5
259
330
1F
100
AcDbEntity
  8
0-0
  6
JWW_DASHED1
 62
   120
370
     5
100
AcDbLine
 10
-158.1711687383674
 20
788.3300404313852
 30
0.0
 11
414.8288312616333
 21
788.3300404313852
 31
0.0
  0
LINE
  5
25A
330
1F
100
AcDbEntity
  8
0-0
  6
JWW_DASHED1
 62
   120
370
     5
100
AcDbLine
 10
-158.1711687383674
 20
789.3300404312852
 30
0.0
 11
414.8288312616333
 21
789.3300404312852
 31
0.0
  0
LINE
  5
25B
330
1F
100
AcDbEntity
  8
0-0
  6
JWW_DASHED1
 62
   120
370
     5
100
AcDbLine
 10
-158.1711687383674
 20
802.330040432385
 30
0.0
 11
414.8288312616333
 21
802.330040432385
 31
0.0
  0
LINE
  5
25C
330
1F
100
AcDbEntity
  8
0-0
  6
JWW_DASHED1
 62
   120
370
     5
100
AcDbLine
 10
-158.1711687383674
 20
803.3300404322852
 30
0.0
 11
414.8288312616333
 21
803.3300404322852
 31
0.0
  0
LINE
  5
25D
330
1F
100
AcDbEntity
  8
0-0
  6
JWW_DASHED1
 62
   120
370
     5
100
AcDbLine
 10
-158.1711687383674
 20
816.3300404333849
 30
0.0
 11
414.8288312616333
 21
816.3300404333849
 31
0.0
  0
LINE
  5
25E
330
1F
100
AcDbEntity
  8
0-0
  6
JWW_DASHED1
 62
   120
370
     5
100
AcDbLine
 10
-158.1711687383674
 20
817.330040433285
 30
0.0
 11
414.8288312616333
 21
817.330040433285
 31
0.0
  0
LINE
  5
25F
330
1F
100
AcDbEntity
  8
0-0
  6
JWW_DASHED1
 62
   120
370
     5
100
AcDbLine
 10
-158.1711687383674
 20
830.3300404343846
 30
0.0
 11
414.8288312616333
 21
830.3300404343846
 31
0.0
  0
LINE
  5
260
330
1F
100
AcDbEntity
  8
0-0
  6
JWW_DASHED1
 62
   120
370
     5
100
AcDbLine
 10
-158.1711687383674
 20
831.3300404342848
 30
0.0
 11
414.8288312616333
 21
831.3300404342848
 31
0.0
  0
LINE
  5
261
330
1F
100
AcDbEntity
  8
0-0
  6
JWW_DASHED1
 62
   120
370
     5
100
AcDbLine
 10
-158.1711687383674
 20
844.3300404353844
 30
0.0
 11
414.8288312616333
 21
844.3300404353844
 31
0.0
  0
LINE
  5
262
330
1F
100
AcDbEntity
  8
0-0
  6
JWW_DASHED1
 62
   120
370
     5
100
AcDbLine
 10
-158.1711687383674
 20
845.3300404352846
 30
0.0
 11
414.8288312616333
 21
845.3300404352846
 31
0.0
  0
LINE
  5
263
330
1F
100
AcDbEntity
  8
0-0
  6
JWW_DASHED1
 62
   120
370
     5
100
AcDbLine
 10
-158.1711687383674
 20
858.3300404363841
 30
0.0
 11
414.8288312616333
 21
858.3300404363841
 31
0.0
  0
LINE
  5
264
330
1F
100
AcDbEntity
  8
0-0
  6
JWW_DASHED1
 62
   120
370
     5
100
AcDbLine
 10
-158.1711687383674
 20
859.3300404362843
 30
0.0
 11
414.8288312616333
 21
859.3300404362843
 31
0.0
  0
LINE
  5
265
330
1F
100
AcDbEntity
  8
0-0
  6
JWW_DASHED1
 62
   120
370
     5
100
AcDbLine
 10
-158.1711687383674
 20
872.330040437384
 30
0.0
 11
414.8288312616333
 21
872.330040437384
 31
0.0
  0
LINE
  5
266
330
1F
100
AcDbEntity
  8
0-0
  6
JWW_DASHED1
 62
   120
370
     5
100
AcDbLine
 10
-158.1711687383674
 20
873.3300404372842
 30
0.0
 11
414.8288312616333
 21
873.3300404372842
 31
0.0
  0
LINE
  5
267
330
1F
100
AcDbEntity
  8
0-0
  6
JWW_DASHED1
 62
   120
370
     5
100
AcDbLine
 10
-158.1711687383674
 20
886.3300404383835
 30
0.0
 11
414.8288312616333
 21
886.3300404383835
 31
0.0
  0
LINE
  5
268
330
1F
100
AcDbEntity
  8
0-0
  6
JWW_DASHED1
 62
   120
370
     5
100
AcDbLine
 10
-158.1711687383674
 20
887.3300404382837
 30
0.0
 11
414.8288312616333
 21
887.3300404382837
 31
0.0
  0
LINE
  5
269
330
1F
100
AcDbEntity
  8
0-0
  6
JWW_DASHED1
 62
   120
370
     5
100
AcDbLine
 10
-158.1711687383674
 20
900.3300404393833
 30
0.0
 11
414.8288312616333
 21
900.3300404393833
 31
0.0
  0
LINE
  5
26A
330
1F
100
AcDbEntity
  8
0-0
  6
JWW_DASHED1
 62
   120
370
     5
100
AcDbLine
 10
-158.1711687383674
 20
901.3300404392837
 30
0.0
 11
414.8288312616333
 21
901.3300404392837
 31
0.0
  0
LINE
  5
26B
330
1F
100
AcDbEntity
  8
0-0
  6
JWW_DASHED1
 62
   120
370
     5
100
AcDbLine
 10
-158.1711687383674
 20
914.3300404403833
 30
0.0
 11
414.8288312616333
 21
914.3300404403833
 31
0.0
  0
LINE
  5
26C
330
1F
100
AcDbEntity
  8
0-0
  6
JWW_DASHED1
 62
   120
370
     5
100
AcDbLine
 10
-158.1711687383674
 20
915.3300404402835
 30
0.0
 11
414.8288312616333
 21
915.3300404402835
 31
0.0
  0
LINE
  5
26D
330
1F
100
AcDbEntity
  8
0-0
  6
JWW_DASHED1
 62
   120
370
     5
100
AcDbLine
 10
-158.1711687383674
 20
928.3300404413832
 30
0.0
 11
414.8288312616333
 21
928.3300404413832
 31
0.0
  0
LINE
  5
26E
330
1F
100
AcDbEntity
  8
0-0
  6
JWW_DASHED1
 62
   120
370
     5
100
AcDbLine
 10
-158.1711687383674
 20
929.3300404412834
 30
0.0
 11
414.8288312616333
 21
929.3300404412834
 31
0.0
  0
LINE
  5
26F
330
1F
100
AcDbEntity
  8
0-0
  6
JWW_DASHED1
 62
   120
370
     5
100
AcDbLine
 10
-158.1711687383674
 20
942.3300404423829
 30
0.0
 11
414.8288312616333
 21
942.3300404423829
 31
0.0
  0
LINE
  5
270
330
1F
100
AcDbEntity
  8
0-0
  6
JWW_DASHED1
 62
   120
370
     5
100
AcDbLine
 10
-158.1711687383674
 20
943.3300404422829
 30
0.0
 11
414.8288312616333
 21
943.3300404422829
 31
0.0
  0
LINE
  5
271
330
1F
100
AcDbEntity
  8
0-0
  6
JWW_DASHED1
 62
   120
370
     5
100
AcDbLine
 10
-158.1711687383674
 20
956.3300404433827
 30
0.0
 11
414.8288312616333
 21
956.3300404433827
 31
0.0
  0
LINE
  5
272
330
1F
100
AcDbEntity
  8
0-0
  6
JWW_DASHED1
 62
   120
370
     5
100
AcDbLine
 10
-158.1711687383674
 20
957.3300404432829
 30
0.0
 11
414.8288312616333
 21
957.3300404432829
 31
0.0
  0
LINE
  5
273
330
1F
100
AcDbEntity
  8
0-0
  6
JWW_DASHED1
 62
   120
370
     5
100
AcDbLine
 10
-158.1711687383674
 20
970.3300404443825
 30
0.0
 11
414.8288312616333
 21
970.3300404443825
 31
0.0
  0
LINE
  5
274
330
1F
100
AcDbEntity
  8
0-0
  6
JWW_DASHED1
 62
   120
370
     5
100
AcDbLine
 10
-158.1711687383674
 20
971.3300404442826
 30
0.0
 11
414.8288312616333
 21
971.3300404442826
 31
0.0
  0
LINE
  5
275
330
1F
100
AcDbEntity
  8
0-0
  6
JWW_DASHED1
 62
   120
370
     5
100
AcDbLine
 10
-152.1711502803357
 20
-135.6698113207572
 30
0.0
 11
-152.1711502803357
 21
1039.330188679243
 31
0.0
  0
LINE
  5
276
330
1F
100
AcDbEntity
  8
0-0
  6
JWW_DASHED1
 62
   120
370
     5
100
AcDbLine
 10
380.8288497575647
 20
-135.6698113207572
 30
0.0
 11
380.8288497575647
 21
1039.330188679243
 31
0.0
  0
LINE
  5
277
330
1F
100
AcDbEntity
  8
0-0
  6
JWW_DASHED1
 62
   120
370
     5
100
AcDbLine
 10
379.8288497576646
 20
-135.6698113207572
 30
0.0
 11
379.8288497576647
 21
1039.330188679243
 31
0.0
  0
LINE
  5
278
330
1F
100
AcDbEntity
  8
0-0
  6
JWW_DASHED1
 62
   120
370
     5
100
AcDbLine
 10
366.8288497565645
 20
-135.6698113207572
 30
0.0
 11
366.8288497565647
 21
1039.330188679243
 31
0.0
  0
LINE
  5
279
330
1F
100
AcDbEntity
  8
0-0
  6
JWW_DASHED1
 62
   120
370
     5
100
AcDbLine
 10
365.8288497566647
 20
-135.6698113207572
 30
0.0
 11
365.8288497566647
 21
1039.330188679243
 31
0.0
  0
LINE
  5
27A
330
1F
100
AcDbEntity
  8
0-0
  6
JWW_DASHED1
 62
   120
370
     5
100
AcDbLine
 10
352.8288497555643
 20
-135.6698113207572
 30
0.0
 11
352.8288497555643
 21
1039.330188679243
 31
0.0
  0
LINE
  5
27B
330
1F
100
AcDbEntity
  8
0-0
  6
JWW_DASHED1
 62
   120
370
     5
100
AcDbLine
 10
351.8288497556643
 20
-135.6698113207572
 30
0.0
 11
351.8288497556643
 21
1039.330188679243
 31
0.0
  0
LINE
  5
27C
330
1F
100
AcDbEntity
  8
0-0
  6
JWW_DASHED1
 62
   120
370
     5
100
AcDbLine
 10
338.8288497545643
 20
-135.6698113207572
 30
0.0
 11
338.8288497545643
 21
1039.330188679243
 31
0.0
  0
LINE
  5
27D
330
1F
100
AcDbEntity
  8
0-0
  6
JWW_DASHED1
 62
   120
370
     5
100
AcDbLine
 10
337.8288497546643
 20
-135.6698113207572
 30
0.0
 11
337.8288497546643
 21
1039.330188679243
 31
0.0
  0
LINE
  5
27E
330
1F
100
AcDbEntity
  8
0-0
  6
JWW_DASHED1
 62
   120
370
     5
100
AcDbLine
 10
324.8288497535643
 20
-135.6698113207572
 30
0.0
 11
324.8288497535643
 21
1039.330188679243
 31
0.0
  0
LINE
  5
27F
330
1F
100
AcDbEntity
  8
0-0
  6
JWW_DASHED1
 62
   120
370
     5
100
AcDbLine
 10
323.8288497536645
 20
-135.6698113207572
 30
0.0
 11
323.8288497536649
 21
1039.330188679243
 31
0.0
  0
LINE
  5
280
330
1F
100
AcDbEntity
  8
0-0
  6
JWW_DASHED1
 62
   120
370
     5
100
AcDbLine
 10
310.8288497525645
 20
-135.6698113207572
 30
0.0
 11
310.8288497525649
 21
1039.330188679243
 31
0.0
  0
LINE
  5
281
330
1F
100
AcDbEntity
  8
0-0
  6
JWW_DASHED1
 62
   120
370
     5
100
AcDbLine
 10
309.8288497526647
 20
-135.6698113207572
 30
0.0
 11
309.8288497526647
 21
1039.330188679243
 31
0.0
  0
LINE
  5
282
330
1F
100
AcDbEntity
  8
0-0
  6
JWW_DASHED1
 62
   120
370
     5
100
AcDbLine
 10
296.8288497515647
 20
-135.6698113207572
 30
0.0
 11
296.8288497515647
 21
1039.330188679243
 31
0.0
  0
LINE
  5
283
330
1F
100
AcDbEntity
  8
0-0
  6
JWW_DASHED1
 62
   120
370
     5
100
AcDbLine
 10
295.8288497516645
 20
-135.6698113207572
 30
0.0
 11
295.8288497516645
 21
1039.330188679243
 31
0.0
  0
LINE
  5
284
330
1F
100
AcDbEntity
  8
0-0
  6
JWW_DASHED1
 62
   120
370
     5
100
AcDbLine
 10
282.8288497505649
 20
-135.6698113207572
 30
0.0
 11
282.8288497505649
 21
1039.330188679243
 31
0.0
  0
LINE
  5
285
330
1F
100
AcDbEntity
  8
0-0
  6
JWW_DASHED1
 62
   120
370
     5
100
AcDbLine
 10
281.8288497506647
 20
-135.6698113207572
 30
0.0
 11
281.8288497506647
 21
1039.330188679243
 31
0.0
  0
LINE
  5
286
330
1F
100
AcDbEntity
  8
0-0
  6
JWW_DASHED1
 62
   120
370
     5
100
AcDbLine
 10
268.8288497495651
 20
-135.6698113207572
 30
0.0
 11
268.8288497495651
 21
1039.330188679243
 31
0.0
  0
LINE
  5
287
330
1F
100
AcDbEntity
  8
0-0
  6
JWW_DASHED1
 62
   120
370
     5
100
AcDbLine
 10
267.8288497496649
 20
-135.6698113207572
 30
0.0
 11
267.8288497496649
 21
1039.330188679243
 31
0.0
  0
LINE
  5
288
330
1F
100
AcDbEntity
  8
0-0
  6
JWW_DASHED1
 62
   120
370
     5
100
AcDbLine
 10
254.8288497485649
 20
-135.6698113207572
 30
0.0
 11
254.8288497485649
 21
1039.330188679243
 31
0.0
  0
LINE
  5
289
330
1F
100
AcDbEntity
  8
0-0
  6
JWW_DASHED1
 62
   120
370
     5
100
AcDbLine
 10
253.8288497486647
 20
-135.6698113207572
 30
0.0
 11
253.8288497486647
 21
1039.330188679243
 31
0.0
  0
LINE
  5
28A
330
1F
100
AcDbEntity
  8
0-0
  6
JWW_DASHED1
 62
   120
370
     5
100
AcDbLine
 10
240.8288497475647
 20
-135.6698113207572
 30
0.0
 11
240.8288497475647
 21
1039.330188679243
 31
0.0
  0
LINE
  5
28B
330
1F
100
AcDbEntity
  8
0-0
  6
JWW_DASHED1
 62
   120
370
     5
100
AcDbLine
 10
239.8288497476645
 20
-135.6698113207572
 30
0.0
 11
239.8288497476645
 21
1039.330188679243
 31
0.0
  0
LINE
  5
28C
330
1F
100
AcDbEntity
  8
0-0
  6
JWW_DASHED1
 62
   120
370
     5
100
AcDbLine
 10
226.8288497465649
 20
-135.6698113207572
 30
0.0
 11
226.8288497465649
 21
1039.330188679243
 31
0.0
  0
LINE
  5
28D
330
1F
100
AcDbEntity
  8
0-0
  6
JWW_DASHED1
 62
   120
370
     5
100
AcDbLine
 10
225.8288497466647
 20
-135.6698113207572
 30
0.0
 11
225.8288497466647
 21
1039.330188679243
 31
0.0
  0
LINE
  5
28E
330
1F
100
AcDbEntity
  8
0-0
  6
JWW_DASHED1
 62
   120
370
     5
100
AcDbLine
 10
212.8288497455651
 20
-135.6698113207572
 30
0.0
 11
212.8288497455651
 21
1039.330188679243
 31
0.0
  0
LINE
  5
28F
330
1F
100
AcDbEntity
  8
0-0
  6
JWW_DASHED1
 62
   120
370
     5
100
AcDbLine
 10
211.8288497456649
 20
-135.6698113207572
 30
0.0
 11
211.8288497456649
 21
1039.330188679243
 31
0.0
  0
LINE
  5
290
330
1F
100
AcDbEntity
  8
0-0
  6
JWW_DASHED1
 62
   120
370
     5
100
AcDbLine
 10
198.8288497445649
 20
-135.6698113207572
 30
0.0
 11
198.8288497445649
 21
1039.330188679243
 31
0.0
  0
LINE
  5
291
330
1F
100
AcDbEntity
  8
0-0
  6
JWW_DASHED1
 62
   120
370
     5
100
AcDbLine
 10
197.8288497446647
 20
-135.6698113207572
 30
0.0
 11
197.8288497446647
 21
1039.330188679243
 31
0.0
  0
LINE
  5
292
330
1F
100
AcDbEntity
  8
0-0
  6
JWW_DASHED1
 62
   120
370
     5
100
AcDbLine
 10
184.8288497435647
 20
-135.6698113207572
 30
0.0
 11
184.8288497435647
 21
1039.330188679243
 31
0.0
  0
LINE
  5
293
330
1F
100
AcDbEntity
  8
0-0
  6
JWW_DASHED1
 62
   120
370
     5
100
AcDbLine
 10
183.8288497436645
 20
-135.6698113207572
 30
0.0
 11
183.8288497436645
 21
1039.330188679243
 31
0.0
  0
LINE
  5
294
330
1F
100
AcDbEntity
  8
0-0
  6
JWW_DASHED1
 62
   120
370
     5
100
AcDbLine
 10
170.8288497425649
 20
-135.6698113207572
 30
0.0
 11
170.8288497425649
 21
1039.330188679243
 31
0.0
  0
LINE
  5
295
330
1F
100
AcDbEntity
  8
0-0
  6
JWW_DASHED1
 62
   120
370
     5
100
AcDbLine
 10
169.8288497426647
 20
-135.6698113207572
 30
0.0
 11
169.8288497426647
 21
1039.330188679243
 31
0.0
  0
LINE
  5
296
330
1F
100
AcDbEntity
  8
0-0
  6
JWW_DASHED1
 62
   120
370
     5
100
AcDbLine
 10
156.8288497415649
 20
-135.6698113207572
 30
0.0
 11
156.8288497415649
 21
1039.330188679243
 31
0.0
  0
LINE
  5
297
330
1F
100
AcDbEntity
  8
0-0
  6
JWW_DASHED1
 62
   120
370
     5
100
AcDbLine
 10
155.8288497416645
 20
-135.6698113207572
 30
0.0
 11
155.8288497416645
 21
1039.330188679243
 31
0.0
  0
LINE
  5
298
330
1F
100
AcDbEntity
  8
0-0
  6
JWW_DASHED1
 62
   120
370
     5
100
AcDbLine
 10
142.8288497405649
 20
-135.6698113207572
 30
0.0
 11
142.8288497405649
 21
1039.330188679243
 31
0.0
  0
LINE
  5
299
330
1F
100
AcDbEntity
  8
0-0
  6
JWW_DASHED1
 62
   120
370
     5
100
AcDbLine
 10
141.8288497406645
 20
-135.6698113207572
 30
0.0
 11
141.8288497406645
 21
1039.330188679243
 31
0.0
  0
LINE
  5
29A
330
1F
100
AcDbEntity
  8
0-0
  6
JWW_DASHED1
 62
   120
370
     5
100
AcDbLine
 10
128.8288497395644
 20
-135.6698113207572
 30
0.0
 11
128.8288497395644
 21
1039.330188679243
 31
0.0
  0
LINE
  5
29B
330
1F
100
AcDbEntity
  8
0-0
  6
JWW_DASHED1
 62
   120
370
     5
100
AcDbLine
 10
127.8288497396645
 20
-135.6698113207572
 30
0.0
 11
127.8288497396645
 21
1039.330188679243
 31
0.0
  0
LINE
  5
29C
330
1F
100
AcDbEntity
  8
0-0
  6
JWW_DASHED1
 62
   120
370
     5
100
AcDbLine
 10
114.8288497385644
 20
-135.6698113207572
 30
0.0
 11
114.8288497385644
 21
1039.330188679243
 31
0.0
  0
LINE
  5
29D
330
1F
100
AcDbEntity
  8
0-0
  6
JWW_DASHED1
 62
   120
370
     5
100
AcDbLine
 10
113.8288497386647
 20
-135.6698113207572
 30
0.0
 11
113.8288497386647
 21
1039.330188679243
 31
0.0
  0
LINE
  5
29E
330
1F
100
AcDbEntity
  8
0-0
  6
JWW_DASHED1
 62
   120
370
     5
100
AcDbLine
 10
100.8288497375651
 20
-135.6698113207572
 30
0.0
 11
100.8288497375651
 21
1039.330188679243
 31
0.0
  0
LINE
  5
29F
330
1F
100
AcDbEntity
  8
0-0
  6
JWW_DASHED1
 62
   120
370
     5
100
AcDbLine
 10
99.82884973766488
 20
-135.6698113207572
 30
0.0
 11
99.82884973766488
 21
1039.330188679243
 31
0.0
  0
LINE
  5
2A0
330
1F
100
AcDbEntity
  8
0-0
  6
JWW_DASHED1
 62
   120
370
     5
100
AcDbLine
 10
86.82884973656485
 20
-135.6698113207572
 30
0.0
 11
86.82884973656485
 21
1039.330188679243
 31
0.0
  0
LINE
  5
2A1
330
1F
100
AcDbEntity
  8
0-0
  6
JWW_DASHED1
 62
   120
370
     5
100
AcDbLine
 10
85.82884973666467
 20
-135.6698113207572
 30
0.0
 11
85.82884973666467
 21
1039.330188679243
 31
0.0
  0
LINE
  5
2A2
330
1F
100
AcDbEntity
  8
0-0
  6
JWW_DASHED1
 62
   120
370
     5
100
AcDbLine
 10
72.82884973556463
 20
-135.6698113207572
 30
0.0
 11
72.82884973556463
 21
1039.330188679243
 31
0.0
  0
LINE
  5
2A3
330
1F
100
AcDbEntity
  8
0-0
  6
JWW_DASHED1
 62
   120
370
     5
100
AcDbLine
 10
71.82884973566445
 20
-135.6698113207572
 30
0.0
 11
71.82884973566445
 21
1039.330188679243
 31
0.0
  0
LINE
  5
2A4
330
1F
100
AcDbEntity
  8
0-0
  6
JWW_DASHED1
 62
   120
370
     5
100
AcDbLine
 10
58.82884973456484
 20
-135.6698113207572
 30
0.0
 11
58.82884973456484
 21
1039.330188679243
 31
0.0
  0
LINE
  5
2A5
330
1F
100
AcDbEntity
  8
0-0
  6
JWW_DASHED1
 62
   120
370
     5
100
AcDbLine
 10
57.82884973466466
 20
-135.6698113207572
 30
0.0
 11
57.82884973466466
 21
1039.330188679243
 31
0.0
  0
LINE
  5
2A6
330
1F
100
AcDbEntity
  8
0-0
  6
JWW_DASHED1
 62
   120
370
     5
100
AcDbLine
 10
44.82884973356505
 20
-135.6698113207572
 30
0.0
 11
44.82884973356505
 21
1039.330188679243
 31
0.0
  0
LINE
  5
2A7
330
1F
100
AcDbEntity
  8
0-0
  6
JWW_DASHED1
 62
   120
370
     5
100
AcDbLine
 10
43.82884973366487
 20
-135.6698113207572
 30
0.0
 11
43.82884973366487
 21
1039.330188679243
 31
0.0
  0
LINE
  5
2A8
330
1F
100
AcDbEntity
  8
0-0
  6
JWW_DASHED1
 62
   120
370
     5
100
AcDbLine
 10
30.82884973256483
 20
-135.6698113207572
 30
0.0
 11
30.82884973256483
 21
1039.330188679243
 31
0.0
  0
LINE
  5
2A9
330
1F
100
AcDbEntity
  8
0-0
  6
JWW_DASHED1
 62
   120
370
     5
100
AcDbLine
 10
29.82884973266465
 20
-135.6698113207572
 30
0.0
 11
29.82884973266465
 21
1039.330188679243
 31
0.0
  0
LINE
  5
2AA
330
1F
100
AcDbEntity
  8
0-0
  6
JWW_DASHED1
 62
   120
370
     5
100
AcDbLine
 10
16.82884973156462
 20
-135.6698113207572
 30
0.0
 11
16.82884973156462
 21
1039.330188679243
 31
0.0
  0
LINE
  5
2AB
330
1F
100
AcDbEntity
  8
0-0
  6
JWW_DASHED1
 62
   120
370
     5
100
AcDbLine
 10
15.82884973166443
 20
-135.6698113207572
 30
0.0
 11
15.82884973166443
 21
1039.330188679243
 31
0.0
  0
LINE
  5
2AC
330
1F
100
AcDbEntity
  8
0-0
  6
JWW_DASHED1
 62
   120
370
     5
100
AcDbLine
 10
2.828849730564826
 20
-135.6698113207572
 30
0.0
 11
2.828849730564826
 21
1039.330188679243
 31
0.0
  0
LINE
  5
2AD
330
1F
100
AcDbEntity
  8
0-0
  6
JWW_DASHED1
 62
   120
370
     5
100
AcDbLine
 10
1.828849730664643
 20
-135.6698113207572
 30
0.0
 11
1.828849730664643
 21
1039.330188679243
 31
0.0
  0
LINE
  5
2AE
330
1F
100
AcDbEntity
  8
0-0
  6
JWW_DASHED1
 62
   120
370
     5
100
AcDbLine
 10
-11.17115027043496
 20
-135.6698113207572
 30
0.0
 11
-11.17115027043496
 21
1039.330188679243
 31
0.0
  0
LINE
  5
2AF
330
1F
100
AcDbEntity
  8
0-0
  6
JWW_DASHED1
 62
   120
370
     5
100
AcDbLine
 10
-12.17115027033515
 20
-135.6698113207572
 30
0.0
 11
-12.17115027033515
 21
1039.330188679243
 31
0.0
  0
LINE
  5
2B0
330
1F
100
AcDbEntity
  8
0-0
  6
JWW_DASHED1
 62
   120
370
     5
100
AcDbLine
 10
-25.17115027143518
 20
-135.6698113207572
 30
0.0
 11
-25.17115027143518
 21
1039.330188679243
 31
0.0
  0
LINE
  5
2B1
330
1F
100
AcDbEntity
  8
0-0
  6
JWW_DASHED1
 62
   120
370
     5
100
AcDbLine
 10
-26.17115027133536
 20
-135.6698113207572
 30
0.0
 11
-26.17115027133536
 21
1039.330188679243
 31
0.0
  0
LINE
  5
2B2
330
1F
100
AcDbEntity
  8
0-0
  6
JWW_DASHED1
 62
   120
370
     5
100
AcDbLine
 10
-39.1711502724354
 20
-135.6698113207572
 30
0.0
 11
-39.1711502724354
 21
1039.330188679243
 31
0.0
  0
LINE
  5
2B3
330
1F
100
AcDbEntity
  8
0-0
  6
JWW_DASHED1
 62
   120
370
     5
100
AcDbLine
 10
-40.17115027233558
 20
-135.6698113207572
 30
0.0
 11
-40.17115027233558
 21
1039.330188679243
 31
0.0
  0
LINE
  5
2B4
330
1F
100
AcDbEntity
  8
0-0
  6
JWW_DASHED1
 62
   120
370
     5
100
AcDbLine
 10
-53.17115027343519
 20
-135.6698113207572
 30
0.0
 11
-53.17115027343519
 21
1039.330188679243
 31
0.0
  0
LINE
  5
2B5
330
1F
100
AcDbEntity
  8
0-0
  6
JWW_DASHED1
 62
   120
370
     5
100
AcDbLine
 10
-54.17115027333537
 20
-135.6698113207572
 30
0.0
 11
-54.17115027333537
 21
1039.330188679243
 31
0.0
  0
LINE
  5
2B6
330
1F
100
AcDbEntity
  8
0-0
  6
JWW_DASHED1
 62
   120
370
     5
100
AcDbLine
 10
-67.1711502744354
 20
-135.6698113207572
 30
0.0
 11
-67.1711502744354
 21
1039.330188679243
 31
0.0
  0
LINE
  5
2B7
330
1F
100
AcDbEntity
  8
0-0
  6
JWW_DASHED1
 62
   120
370
     5
100
AcDbLine
 10
-68.17115027433516
 20
-135.6698113207572
 30
0.0
 11
-68.17115027433516
 21
1039.330188679243
 31
0.0
  0
LINE
  5
2B8
330
1F
100
AcDbEntity
  8
0-0
  6
JWW_DASHED1
 62
   120
370
     5
100
AcDbLine
 10
-81.1711502754352
 20
-135.6698113207572
 30
0.0
 11
-81.1711502754352
 21
1039.330188679243
 31
0.0
  0
LINE
  5
2B9
330
1F
100
AcDbEntity
  8
0-0
  6
JWW_DASHED1
 62
   120
370
     5
100
AcDbLine
 10
-82.1711502753358
 20
-135.6698113207572
 30
0.0
 11
-82.1711502753358
 21
1039.330188679243
 31
0.0
  0
LINE
  5
2BA
330
1F
100
AcDbEntity
  8
0-0
  6
JWW_DASHED1
 62
   120
370
     5
100
AcDbLine
 10
-95.17115027643541
 20
-135.6698113207572
 30
0.0
 11
-95.17115027643541
 21
1039.330188679243
 31
0.0
  0
LINE
  5
2BB
330
1F
100
AcDbEntity
  8
0-0
  6
JWW_DASHED1
 62
   120
370
     5
100
AcDbLine
 10
-96.1711502763356
 20
-135.6698113207572
 30
0.0
 11
-96.1711502763356
 21
1039.330188679243
 31
0.0
  0
LINE
  5
2BC
330
1F
100
AcDbEntity
  8
0-0
  6
JWW_DASHED1
 62
   120
370
     5
100
AcDbLine
 10
-109.1711502774352
 20
-135.6698113207572
 30
0.0
 11
-109.1711502774352
 21
1039.330188679243
 31
0.0
  0
LINE
  5
2BD
330
1F
100
AcDbEntity
  8
0-0
  6
JWW_DASHED1
 62
   120
370
     5
100
AcDbLine
 10
-110.1711502773358
 20
-135.6698113207572
 30
0.0
 11
-110.1711502773358
 21
1039.330188679243
 31
0.0
  0
LINE
  5
2BE
330
1F
100
AcDbEntity
  8
0-0
  6
JWW_DASHED1
 62
   120
370
     5
100
AcDbLine
 10
-123.1711502784351
 20
-135.6698113207572
 30
0.0
 11
-123.1711502784351
 21
1039.330188679243
 31
0.0
  0
LINE
  5
2BF
330
1F
100
AcDbEntity
  8
0-0
  6
JWW_DASHED1
 62
   120
370
     5
100
AcDbLine
 10
-124.1711502783353
 20
-135.6698113207572
 30
0.0
 11
-124.1711502783353
 21
1039.330188679243
 31
0.0
  0
LINE
  5
2C0
330
1F
100
AcDbEntity
  8
0-0
  6
JWW_DASHED1
 62
   120
370
     5
100
AcDbLine
 10
-137.1711502794353
 20
-135.6698113207572
 30
0.0
 11
-137.1711502794353
 21
1039.330188679243
 31
0.0
  0
LINE
  5
2C1
330
1F
100
AcDbEntity
  8
0-0
  6
JWW_DASHED1
 62
   120
370
     5
100
AcDbLine
 10
-138.1711502793355
 20
-135.6698113207572
 30
0.0
 11
-138.1711502793355
 21
1039.330188679243
 31
0.0
  0
LINE
  5
2C2
330
1F
100
AcDbEntity
  8
0-0
  6
JWW_DASHED1
 62
   120
370
     5
100
AcDbLine
 10
-151.1711502804355
 20
-135.6698113207572
 30
0.0
 11
-151.1711502804355
 21
1039.330188679243
 31
0.0
  0
LINE
  5
2C3
330
1F
100
AcDbEntity
  8
0-0
  6
JWW_DASHED1
 62
   120
370
     5
100
AcDbLine
 10
408.8288497595647
 20
-135.6698113207572
 30
0.0
 11
408.8288497595647
 21
1039.330188679243
 31
0.0
  0
LINE
  5
2C4
330
1F
100
AcDbEntity
  8
0-0
  6
JWW_DASHED1
 62
   120
370
     5
100
AcDbLine
 10
393.8288497586648
 20
-135.6698113207572
 30
0.0
 11
393.8288497586648
 21
1039.330188679243
 31
0.0
  0
LINE
  5
2C5
330
1F
100
AcDbEntity
  8
0-0
  6
JWW_DASHED1
 62
   120
370
     5
100
AcDbLine
 10
407.8288497596645
 20
-135.6698113207572
 30
0.0
 11
407.8288497596645
 21
1039.330188679243
 31
0.0
  0
LINE
  5
2C6
330
1F
100
AcDbEntity
  8
0-0
  6
JWW_DASHED1
 62
   120
370
     5
100
AcDbLine
 10
394.8288497585645
 20
-135.6698113207572
 30
0.0
 11
394.8288497585645
 21
1039.330188679243
 31
0.0
  0
LINE
  5
2C7
330
1F
100
AcDbEntity
  8
0-0
  6
JWW_DASHED1
 62
   120
370
     5
100
AcDbLine
 10
-158.1711687383665
 20
1027.330040448282
 30
0.0
 11
414.8288312616324
 21
1027.330040448282
 31
0.0
  0
LINE
  5
2C8
330
1F
100
AcDbEntity
  8
0-0
  6
JWW_DASHED1
 62
   120
370
     5
100
AcDbLine
 10
-158.1711687383665
 20
984.3300404453823
 30
0.0
 11
414.8288312616324
 21
984.3300404453823
 31
0.0
  0
LINE
  5
2C9
330
1F
100
AcDbEntity
  8
0-0
  6
JWW_DASHED1
 62
   120
370
     5
100
AcDbLine
 10
-158.1711687383665
 20
985.3300404452825
 30
0.0
 11
414.8288312616324
 21
985.3300404452825
 31
0.0
  0
LINE
  5
2CA
330
1F
100
AcDbEntity
  8
0-0
  6
JWW_DASHED1
 62
   120
370
     5
100
AcDbLine
 10
-158.1711687383665
 20
998.3300404463819
 30
0.0
 11
414.8288312616324
 21
998.3300404463819
 31
0.0
  0
LINE
  5
2CB
330
1F
100
AcDbEntity
  8
0-0
  6
JWW_DASHED1
 62
   120
370
     5
100
AcDbLine
 10
-158.1711687383665
 20
999.330040446282
 30
0.0
 11
414.8288312616324
 21
999.330040446282
 31
0.0
  0
LINE
  5
2CC
330
1F
100
AcDbEntity
  8
0-0
  6
JWW_DASHED1
 62
   120
370
     5
100
AcDbLine
 10
-158.1711687383665
 20
1012.330040447382
 30
0.0
 11
414.8288312616324
 21
1012.330040447382
 31
0.0
  0
LINE
  5
2CD
330
1F
100
AcDbEntity
  8
0-0
  6
JWW_DASHED1
 62
   120
370
     5
100
AcDbLine
 10
-158.1711687383665
 20
1013.330040447282
 30
0.0
 11
414.8288312616324
 21
1013.330040447282
 31
0.0
  0
LINE
  5
2CE
330
1F
100
AcDbEntity
  8
0-0
  6
JWW_DASHED1
 62
   120
370
     5
100
AcDbLine
 10
-158.1711687383665
 20
1026.330040448382
 30
0.0
 11
414.8288312616324
 21
1026.330040448382
 31
0.0
  0
LINE
  5
2CF
330
1F
100
AcDbEntity
  8
0-0
  6
JWW_DASHED1
 62
   120
370
     5
100
AcDbLine
 10
573.8288312616319
 20
-134.6699596347009
 30
0.0
 11
1146.828831261633
 21
-134.6699596347009
 31
0.0
  0
LINE
  5
2D0
330
1F
100
AcDbEntity
  8
0-0
  6
JWW_DASHED1
 62
   120
370
     5
100
AcDbLine
 10
573.8288312616319
 20
-121.6699596336012
 30
0.0
 11
1146.828831261633
 21
-121.6699596336012
 31
0.0
  0
LINE
  5
2D1
330
1F
100
AcDbEntity
  8
0-0
  6
JWW_DASHED1
 62
   120
370
     5
100
AcDbLine
 10
573.8288312616319
 20
-120.669959633701
 30
0.0
 11
1146.828831261633
 21
-120.669959633701
 31
0.0
  0
LINE
  5
2D2
330
1F
100
AcDbEntity
  8
0-0
  6
JWW_DASHED1
 62
   120
370
     5
100
AcDbLine
 10
573.8288312616319
 20
-107.6699596326014
 30
0.0
 11
1146.828831261633
 21
-107.6699596326014
 31
0.0
  0
LINE
  5
2D3
330
1F
100
AcDbEntity
  8
0-0
  6
JWW_DASHED1
 62
   120
370
     5
100
AcDbLine
 10
573.8288312616319
 20
-106.6699596327012
 30
0.0
 11
1146.828831261633
 21
-106.6699596327012
 31
0.0
  0
LINE
  5
2D4
330
1F
100
AcDbEntity
  8
0-0
  6
JWW_DASHED1
 62
   120
370
     5
100
AcDbLine
 10
573.8288312616319
 20
-93.66995963160157
 30
0.0
 11
1146.828831261633
 21
-93.66995963160157
 31
0.0
  0
LINE
  5
2D5
330
1F
100
AcDbEntity
  8
0-0
  6
JWW_DASHED1
 62
   120
370
     5
100
AcDbLine
 10
573.8288312616319
 20
-92.66995963170139
 30
0.0
 11
1146.828831261633
 21
-92.66995963170139
 31
0.0
  0
LINE
  5
2D6
330
1F
100
AcDbEntity
  8
0-0
  6
JWW_DASHED1
 62
   120
370
     5
100
AcDbLine
 10
573.8288312616319
 20
-79.66995963060178
 30
0.0
 11
1146.828831261633
 21
-79.66995963060178
 31
0.0
  0
LINE
  5
2D7
330
1F
100
AcDbEntity
  8
0-0
  6
JWW_DASHED1
 62
   120
370
     5
100
AcDbLine
 10
573.8288312616319
 20
-78.6699596307016
 30
0.0
 11
1146.828831261633
 21
-78.6699596307016
 31
0.0
  0
LINE
  5
2D8
330
1F
100
AcDbEntity
  8
0-0
  6
JWW_DASHED1
 62
   120
370
     5
100
AcDbLine
 10
573.8288312616319
 20
-65.66995962960199
 30
0.0
 11
1146.828831261633
 21
-65.66995962960199
 31
0.0
  0
LINE
  5
2D9
330
1F
100
AcDbEntity
  8
0-0
  6
JWW_DASHED1
 62
   120
370
     5
100
AcDbLine
 10
573.8288312616319
 20
-64.66995962970181
 30
0.0
 11
1146.828831261633
 21
-64.66995962970181
 31
0.0
  0
LINE
  5
2DA
330
1F
100
AcDbEntity
  8
0-0
  6
JWW_DASHED1
 62
   120
370
     5
100
AcDbLine
 10
573.8288312616319
 20
-51.6699596286022
 30
0.0
 11
1146.828831261633
 21
-51.6699596286022
 31
0.0
  0
LINE
  5
2DB
330
1F
100
AcDbEntity
  8
0-0
  6
JWW_DASHED1
 62
   120
370
     5
100
AcDbLine
 10
573.8288312616319
 20
-50.66995962870202
 30
0.0
 11
1146.828831261633
 21
-50.66995962870202
 31
0.0
  0
LINE
  5
2DC
330
1F
100
AcDbEntity
  8
0-0
  6
JWW_DASHED1
 62
   120
370
     5
100
AcDbLine
 10
573.8288312616319
 20
-37.66995962760241
 30
0.0
 11
1146.828831261633
 21
-37.66995962760241
 31
0.0
  0
LINE
  5
2DD
330
1F
100
AcDbEntity
  8
0-0
  6
JWW_DASHED1
 62
   120
370
     5
100
AcDbLine
 10
573.8288312616319
 20
-36.66995962770223
 30
0.0
 11
1146.828831261633
 21
-36.66995962770223
 31
0.0
  0
LINE
  5
2DE
330
1F
100
AcDbEntity
  8
0-0
  6
JWW_DASHED1
 62
   120
370
     5
100
AcDbLine
 10
573.8288312616319
 20
-23.66995962660273
 30
0.0
 11
1146.828831261633
 21
-23.66995962660273
 31
0.0
  0
LINE
  5
2DF
330
1F
100
AcDbEntity
  8
0-0
  6
JWW_DASHED1
 62
   120
370
     5
100
AcDbLine
 10
573.8288312616319
 20
-22.66995962670254
 30
0.0
 11
1146.828831261633
 21
-22.66995962670254
 31
0.0
  0
LINE
  5
2E0
330
1F
100
AcDbEntity
  8
0-0
  6
JWW_DASHED1
 62
   120
370
     5
100
AcDbLine
 10
573.8288312616319
 20
-9.669959625602829
 30
0.0
 11
1146.828831261633
 21
-9.669959625602829
 31
0.0
  0
LINE
  5
2E1
330
1F
100
AcDbEntity
  8
0-0
  6
JWW_DASHED1
 62
   120
370
     5
100
AcDbLine
 10
573.8288312616319
 20
-8.669959625702646
 30
0.0
 11
1146.828831261633
 21
-8.669959625702646
 31
0.0
  0
LINE
  5
2E2
330
1F
100
AcDbEntity
  8
0-0
  6
JWW_DASHED1
 62
   120
370
     5
100
AcDbLine
 10
573.8288312616319
 20
4.330040375396962
 30
0.0
 11
1146.828831261633
 21
4.330040375396962
 31
0.0
  0
LINE
  5
2E3
330
1F
100
AcDbEntity
  8
0-0
  6
JWW_DASHED1
 62
   120
370
     5
100
AcDbLine
 10
573.8288312616319
 20
5.330040375297145
 30
0.0
 11
1146.828831261633
 21
5.330040375297145
 31
0.0
  0
LINE
  5
2E4
330
1F
100
AcDbEntity
  8
0-0
  6
JWW_DASHED1
 62
   120
370
     5
100
AcDbLine
 10
573.8288312616319
 20
18.33004037639675
 30
0.0
 11
1146.828831261633
 21
18.33004037639675
 31
0.0
  0
LINE
  5
2E5
330
1F
100
AcDbEntity
  8
0-0
  6
JWW_DASHED1
 62
   120
370
     5
100
AcDbLine
 10
573.8288312616319
 20
19.33004037629694
 30
0.0
 11
1146.828831261633
 21
19.33004037629694
 31
0.0
  0
LINE
  5
2E6
330
1F
100
AcDbEntity
  8
0-0
  6
JWW_DASHED1
 62
   120
370
     5
100
AcDbLine
 10
573.8288312616319
 20
32.33004037739654
 30
0.0
 11
1146.828831261633
 21
32.33004037739654
 31
0.0
  0
LINE
  5
2E7
330
1F
100
AcDbEntity
  8
0-0
  6
JWW_DASHED1
 62
   120
370
     5
100
AcDbLine
 10
573.8288312616319
 20
33.33004037729673
 30
0.0
 11
1146.828831261633
 21
33.33004037729673
 31
0.0
  0
LINE
  5
2E8
330
1F
100
AcDbEntity
  8
0-0
  6
JWW_DASHED1
 62
   120
370
     5
100
AcDbLine
 10
573.8288312616319
 20
46.33004037839633
 30
0.0
 11
1146.828831261633
 21
46.33004037839633
 31
0.0
  0
LINE
  5
2E9
330
1F
100
AcDbEntity
  8
0-0
  6
JWW_DASHED1
 62
   120
370
     5
100
AcDbLine
 10
573.8288312616319
 20
47.33004037829652
 30
0.0
 11
1146.828831261633
 21
47.33004037829652
 31
0.0
  0
LINE
  5
2EA
330
1F
100
AcDbEntity
  8
0-0
  6
JWW_DASHED1
 62
   120
370
     5
100
AcDbLine
 10
573.8288312616319
 20
60.33004037939612
 30
0.0
 11
1146.828831261633
 21
60.33004037939612
 31
0.0
  0
LINE
  5
2EB
330
1F
100
AcDbEntity
  8
0-0
  6
JWW_DASHED1
 62
   120
370
     5
100
AcDbLine
 10
573.8288312616319
 20
61.33004037929631
 30
0.0
 11
1146.828831261633
 21
61.33004037929631
 31
0.0
  0
LINE
  5
2EC
330
1F
100
AcDbEntity
  8
0-0
  6
JWW_DASHED1
 62
   120
370
     5
100
AcDbLine
 10
573.8288312616319
 20
74.33004038039591
 30
0.0
 11
1146.828831261633
 21
74.33004038039591
 31
0.0
  0
LINE
  5
2ED
330
1F
100
AcDbEntity
  8
0-0
  6
JWW_DASHED1
 62
   120
370
     5
100
AcDbLine
 10
573.8288312616319
 20
75.3300403802961
 30
0.0
 11
1146.828831261633
 21
75.3300403802961
 31
0.0
  0
LINE
  5
2EE
330
1F
100
AcDbEntity
  8
0-0
  6
JWW_DASHED1
 62
   120
370
     5
100
AcDbLine
 10
573.8288312616319
 20
88.3300403813956
 30
0.0
 11
1146.828831261633
 21
88.3300403813956
 31
0.0
  0
LINE
  5
2EF
330
1F
100
AcDbEntity
  8
0-0
  6
JWW_DASHED1
 62
   120
370
     5
100
AcDbLine
 10
573.8288312616319
 20
89.33004038129579
 30
0.0
 11
1146.828831261633
 21
89.33004038129579
 31
0.0
  0
LINE
  5
2F0
330
1F
100
AcDbEntity
  8
0-0
  6
JWW_DASHED1
 62
   120
370
     5
100
AcDbLine
 10
573.8288312616319
 20
102.3300403823955
 30
0.0
 11
1146.828831261633
 21
102.3300403823955
 31
0.0
  0
LINE
  5
2F1
330
1F
100
AcDbEntity
  8
0-0
  6
JWW_DASHED1
 62
   120
370
     5
100
AcDbLine
 10
573.8288312616319
 20
103.3300403822957
 30
0.0
 11
1146.828831261633
 21
103.3300403822957
 31
0.0
  0
LINE
  5
2F2
330
1F
100
AcDbEntity
  8
0-0
  6
JWW_DASHED1
 62
   120
370
     5
100
AcDbLine
 10
573.8288312616319
 20
116.3300403833953
 30
0.0
 11
1146.828831261633
 21
116.3300403833953
 31
0.0
  0
LINE
  5
2F3
330
1F
100
AcDbEntity
  8
0-0
  6
JWW_DASHED1
 62
   120
370
     5
100
AcDbLine
 10
573.8288312616319
 20
117.3300403832955
 30
0.0
 11
1146.828831261633
 21
117.3300403832955
 31
0.0
  0
LINE
  5
2F4
330
1F
100
AcDbEntity
  8
0-0
  6
JWW_DASHED1
 62
   120
370
     5
100
AcDbLine
 10
573.8288312616319
 20
130.3300403843951
 30
0.0
 11
1146.828831261633
 21
130.3300403843951
 31
0.0
  0
LINE
  5
2F5
330
1F
100
AcDbEntity
  8
0-0
  6
JWW_DASHED1
 62
   120
370
     5
100
AcDbLine
 10
573.8288312616319
 20
131.3300403842953
 30
0.0
 11
1146.828831261633
 21
131.3300403842953
 31
0.0
  0
LINE
  5
2F6
330
1F
100
AcDbEntity
  8
0-0
  6
JWW_DASHED1
 62
   120
370
     5
100
AcDbLine
 10
573.8288312616319
 20
144.3300403853949
 30
0.0
 11
1146.828831261633
 21
144.3300403853949
 31
0.0
  0
LINE
  5
2F7
330
1F
100
AcDbEntity
  8
0-0
  6
JWW_DASHED1
 62
   120
370
     5
100
AcDbLine
 10
573.8288312616319
 20
145.330040385295
 30
0.0
 11
1146.828831261633
 21
145.330040385295
 31
0.0
  0
LINE
  5
2F8
330
1F
100
AcDbEntity
  8
0-0
  6
JWW_DASHED1
 62
   120
370
     5
100
AcDbLine
 10
573.8288312616319
 20
158.3300403863947
 30
0.0
 11
1146.828831261633
 21
158.3300403863947
 31
0.0
  0
LINE
  5
2F9
330
1F
100
AcDbEntity
  8
0-0
  6
JWW_DASHED1
 62
   120
370
     5
100
AcDbLine
 10
573.8288312616319
 20
159.3300403862949
 30
0.0
 11
1146.828831261633
 21
159.3300403862949
 31
0.0
  0
LINE
  5
2FA
330
1F
100
AcDbEntity
  8
0-0
  6
JWW_DASHED1
 62
   120
370
     5
100
AcDbLine
 10
573.8288312616319
 20
172.3300403873944
 30
0.0
 11
1146.828831261633
 21
172.3300403873944
 31
0.0
  0
LINE
  5
2FB
330
1F
100
AcDbEntity
  8
0-0
  6
JWW_DASHED1
 62
   120
370
     5
100
AcDbLine
 10
573.8288312616319
 20
173.3300403872946
 30
0.0
 11
1146.828831261633
 21
173.3300403872946
 31
0.0
  0
LINE
  5
2FC
330
1F
100
AcDbEntity
  8
0-0
  6
JWW_DASHED1
 62
   120
370
     5
100
AcDbLine
 10
573.8288312616319
 20
186.3300403883943
 30
0.0
 11
1146.828831261633
 21
186.3300403883943
 31
0.0
  0
LINE
  5
2FD
330
1F
100
AcDbEntity
  8
0-0
  6
JWW_DASHED1
 62
   120
370
     5
100
AcDbLine
 10
573.8288312616319
 20
187.3300403882944
 30
0.0
 11
1146.828831261633
 21
187.3300403882944
 31
0.0
  0
LINE
  5
2FE
330
1F
100
AcDbEntity
  8
0-0
  6
JWW_DASHED1
 62
   120
370
     5
100
AcDbLine
 10
573.8288312616319
 20
200.330040389394
 30
0.0
 11
1146.828831261633
 21
200.330040389394
 31
0.0
  0
LINE
  5
2FF
330
1F
100
AcDbEntity
  8
0-0
  6
JWW_DASHED1
 62
   120
370
     5
100
AcDbLine
 10
573.8288312616319
 20
201.3300403892942
 30
0.0
 11
1146.828831261633
 21
201.3300403892942
 31
0.0
  0
LINE
  5
300
330
1F
100
AcDbEntity
  8
0-0
  6
JWW_DASHED1
 62
   120
370
     5
100
AcDbLine
 10
573.8288312616319
 20
214.3300403903938
 30
0.0
 11
1146.828831261633
 21
214.3300403903938
 31
0.0
  0
LINE
  5
301
330
1F
100
AcDbEntity
  8
0-0
  6
JWW_DASHED1
 62
   120
370
     5
100
AcDbLine
 10
573.8288312616319
 20
215.330040390294
 30
0.0
 11
1146.828831261633
 21
215.330040390294
 31
0.0
  0
LINE
  5
302
330
1F
100
AcDbEntity
  8
0-0
  6
JWW_DASHED1
 62
   120
370
     5
100
AcDbLine
 10
573.8288312616319
 20
228.3300403913934
 30
0.0
 11
1146.828831261633
 21
228.3300403913934
 31
0.0
  0
LINE
  5
303
330
1F
100
AcDbEntity
  8
0-0
  6
JWW_DASHED1
 62
   120
370
     5
100
AcDbLine
 10
573.8288312616319
 20
229.3300403912938
 30
0.0
 11
1146.828831261633
 21
229.3300403912938
 31
0.0
  0
LINE
  5
304
330
1F
100
AcDbEntity
  8
0-0
  6
JWW_DASHED1
 62
   120
370
     5
100
AcDbLine
 10
573.8288312616319
 20
242.3300403923934
 30
0.0
 11
1146.828831261633
 21
242.3300403923934
 31
0.0
  0
LINE
  5
305
330
1F
100
AcDbEntity
  8
0-0
  6
JWW_DASHED1
 62
   120
370
     5
100
AcDbLine
 10
573.8288312616319
 20
243.3300403922936
 30
0.0
 11
1146.828831261633
 21
243.3300403922936
 31
0.0
  0
LINE
  5
306
330
1F
100
AcDbEntity
  8
0-0
  6
JWW_DASHED1
 62
   120
370
     5
100
AcDbLine
 10
573.8288312616319
 20
256.3300403933932
 30
0.0
 11
1146.828831261633
 21
256.3300403933932
 31
0.0
  0
LINE
  5
307
330
1F
100
AcDbEntity
  8
0-0
  6
JWW_DASHED1
 62
   120
370
     5
100
AcDbLine
 10
573.8288312616319
 20
257.3300403932934
 30
0.0
 11
1146.828831261633
 21
257.3300403932934
 31
0.0
  0
LINE
  5
308
330
1F
100
AcDbEntity
  8
0-0
  6
JWW_DASHED1
 62
   120
370
     5
100
AcDbLine
 10
573.8288312616319
 20
270.330040394393
 30
0.0
 11
1146.828831261633
 21
270.330040394393
 31
0.0
  0
LINE
  5
309
330
1F
100
AcDbEntity
  8
0-0
  6
JWW_DASHED1
 62
   120
370
     5
100
AcDbLine
 10
573.8288312616319
 20
271.3300403942932
 30
0.0
 11
1146.828831261633
 21
271.3300403942932
 31
0.0
  0
LINE
  5
30A
330
1F
100
AcDbEntity
  8
0-0
  6
JWW_DASHED1
 62
   120
370
     5
100
AcDbLine
 10
573.8288312616319
 20
284.3300403953928
 30
0.0
 11
1146.828831261633
 21
284.3300403953928
 31
0.0
  0
LINE
  5
30B
330
1F
100
AcDbEntity
  8
0-0
  6
JWW_DASHED1
 62
   120
370
     5
100
AcDbLine
 10
573.8288312616319
 20
285.3300403952929
 30
0.0
 11
1146.828831261633
 21
285.3300403952929
 31
0.0
  0
LINE
  5
30C
330
1F
100
AcDbEntity
  8
0-0
  6
JWW_DASHED1
 62
   120
370
     5
100
AcDbLine
 10
573.8288312616319
 20
298.3300403963926
 30
0.0
 11
1146.828831261633
 21
298.3300403963926
 31
0.0
  0
LINE
  5
30D
330
1F
100
AcDbEntity
  8
0-0
  6
JWW_DASHED1
 62
   120
370
     5
100
AcDbLine
 10
573.8288312616319
 20
299.3300403962928
 30
0.0
 11
1146.828831261633
 21
299.3300403962928
 31
0.0
  0
LINE
  5
30E
330
1F
100
AcDbEntity
  8
0-0
  6
JWW_DASHED1
 62
   120
370
     5
100
AcDbLine
 10
573.8288312616319
 20
312.3300403973923
 30
0.0
 11
1146.828831261633
 21
312.3300403973923
 31
0.0
  0
LINE
  5
30F
330
1F
100
AcDbEntity
  8
0-0
  6
JWW_DASHED1
 62
   120
370
     5
100
AcDbLine
 10
573.8288312616319
 20
313.3300403972925
 30
0.0
 11
1146.828831261633
 21
313.3300403972925
 31
0.0
  0
LINE
  5
310
330
1F
100
AcDbEntity
  8
0-0
  6
JWW_DASHED1
 62
   120
370
     5
100
AcDbLine
 10
573.8288312616319
 20
326.3300403983922
 30
0.0
 11
1146.828831261633
 21
326.3300403983922
 31
0.0
  0
LINE
  5
311
330
1F
100
AcDbEntity
  8
0-0
  6
JWW_DASHED1
 62
   120
370
     5
100
AcDbLine
 10
573.8288312616319
 20
327.3300403982923
 30
0.0
 11
1146.828831261633
 21
327.3300403982923
 31
0.0
  0
LINE
  5
312
330
1F
100
AcDbEntity
  8
0-0
  6
JWW_DASHED1
 62
   120
370
     5
100
AcDbLine
 10
573.8288312616319
 20
340.3300403993919
 30
0.0
 11
1146.828831261633
 21
340.3300403993919
 31
0.0
  0
LINE
  5
313
330
1F
100
AcDbEntity
  8
0-0
  6
JWW_DASHED1
 62
   120
370
     5
100
AcDbLine
 10
573.8288312616319
 20
341.3300403992919
 30
0.0
 11
1146.828831261633
 21
341.3300403992919
 31
0.0
  0
LINE
  5
314
330
1F
100
AcDbEntity
  8
0-0
  6
JWW_DASHED1
 62
   120
370
     5
100
AcDbLine
 10
573.8288312616319
 20
354.3300404003917
 30
0.0
 11
1146.828831261633
 21
354.3300404003917
 31
0.0
  0
LINE
  5
315
330
1F
100
AcDbEntity
  8
0-0
  6
JWW_DASHED1
 62
   120
370
     5
100
AcDbLine
 10
573.8288312616319
 20
355.3300404002919
 30
0.0
 11
1146.828831261633
 21
355.3300404002919
 31
0.0
  0
LINE
  5
316
330
1F
100
AcDbEntity
  8
0-0
  6
JWW_DASHED1
 62
   120
370
     5
100
AcDbLine
 10
573.8288312616319
 20
368.3300404013915
 30
0.0
 11
1146.828831261633
 21
368.3300404013915
 31
0.0
  0
LINE
  5
317
330
1F
100
AcDbEntity
  8
0-0
  6
JWW_DASHED1
 62
   120
370
     5
100
AcDbLine
 10
573.8288312616319
 20
369.3300404012917
 30
0.0
 11
1146.828831261633
 21
369.3300404012917
 31
0.0
  0
LINE
  5
318
330
1F
100
AcDbEntity
  8
0-0
  6
JWW_DASHED1
 62
   120
370
     5
100
AcDbLine
 10
573.8288312616319
 20
382.3300404023913
 30
0.0
 11
1146.828831261633
 21
382.3300404023913
 31
0.0
  0
LINE
  5
319
330
1F
100
AcDbEntity
  8
0-0
  6
JWW_DASHED1
 62
   120
370
     5
100
AcDbLine
 10
573.8288312616319
 20
383.3300404022915
 30
0.0
 11
1146.828831261633
 21
383.3300404022915
 31
0.0
  0
LINE
  5
31A
330
1F
100
AcDbEntity
  8
0-0
  6
JWW_DASHED1
 62
   120
370
     5
100
AcDbLine
 10
573.8288312616319
 20
396.3300404033911
 30
0.0
 11
1146.828831261633
 21
396.3300404033911
 31
0.0
  0
LINE
  5
31B
330
1F
100
AcDbEntity
  8
0-0
  6
JWW_DASHED1
 62
   120
370
     5
100
AcDbLine
 10
573.8288312616319
 20
397.3300404032913
 30
0.0
 11
1146.828831261633
 21
397.3300404032913
 31
0.0
  0
LINE
  5
31C
330
1F
100
AcDbEntity
  8
0-0
  6
JWW_DASHED1
 62
   120
370
     5
100
AcDbLine
 10
573.8288312616319
 20
410.3300404043909
 30
0.0
 11
1146.828831261633
 21
410.3300404043909
 31
0.0
  0
LINE
  5
31D
330
1F
100
AcDbEntity
  8
0-0
  6
JWW_DASHED1
 62
   120
370
     5
100
AcDbLine
 10
573.8288312616319
 20
411.3300404042911
 30
0.0
 11
1146.828831261633
 21
411.3300404042911
 31
0.0
  0
LINE
  5
31E
330
1F
100
AcDbEntity
  8
0-0
  6
JWW_DASHED1
 62
   120
370
     5
100
AcDbLine
 10
573.8288312616319
 20
424.3300404053907
 30
0.0
 11
1146.828831261633
 21
424.3300404053907
 31
0.0
  0
LINE
  5
31F
330
1F
100
AcDbEntity
  8
0-0
  6
JWW_DASHED1
 62
   120
370
     5
100
AcDbLine
 10
573.8288312616319
 20
425.3300404052908
 30
0.0
 11
1146.828831261633
 21
425.3300404052908
 31
0.0
  0
LINE
  5
320
330
1F
100
AcDbEntity
  8
0-0
  6
JWW_DASHED1
 62
   120
370
     5
100
AcDbLine
 10
573.8288312616319
 20
438.3300404063905
 30
0.0
 11
1146.828831261633
 21
438.3300404063905
 31
0.0
  0
LINE
  5
321
330
1F
100
AcDbEntity
  8
0-0
  6
JWW_DASHED1
 62
   120
370
     5
100
AcDbLine
 10
573.8288312616319
 20
439.3300404062907
 30
0.0
 11
1146.828831261633
 21
439.3300404062907
 31
0.0
  0
LINE
  5
322
330
1F
100
AcDbEntity
  8
0-0
  6
JWW_DASHED1
 62
   120
370
     5
100
AcDbLine
 10
573.8288312616319
 20
452.33004040739
 30
0.0
 11
1146.828831261633
 21
452.33004040739
 31
0.0
  0
LINE
  5
323
330
1F
100
AcDbEntity
  8
0-0
  6
JWW_DASHED1
 62
   120
370
     5
100
AcDbLine
 10
573.8288312616319
 20
453.3300404072904
 30
0.0
 11
1146.828831261633
 21
453.3300404072904
 31
0.0
  0
LINE
  5
324
330
1F
100
AcDbEntity
  8
0-0
  6
JWW_DASHED1
 62
   120
370
     5
100
AcDbLine
 10
573.8288312616319
 20
466.3300404083901
 30
0.0
 11
1146.828831261633
 21
466.3300404083901
 31
0.0
  0
LINE
  5
325
330
1F
100
AcDbEntity
  8
0-0
  6
JWW_DASHED1
 62
   120
370
     5
100
AcDbLine
 10
573.8288312616319
 20
467.3300404082902
 30
0.0
 11
1146.828831261633
 21
467.3300404082902
 31
0.0
  0
LINE
  5
326
330
1F
100
AcDbEntity
  8
0-0
  6
JWW_DASHED1
 62
   120
370
     5
100
AcDbLine
 10
573.8288312616319
 20
480.3300404093898
 30
0.0
 11
1146.828831261633
 21
480.3300404093898
 31
0.0
  0
LINE
  5
327
330
1F
100
AcDbEntity
  8
0-0
  6
JWW_DASHED1
 62
   120
370
     5
100
AcDbLine
 10
573.8288312616319
 20
481.33004040929
 30
0.0
 11
1146.828831261633
 21
481.33004040929
 31
0.0
  0
LINE
  5
328
330
1F
100
AcDbEntity
  8
0-0
  6
JWW_DASHED1
 62
   120
370
     5
100
AcDbLine
 10
573.8288312616319
 20
494.3300404103896
 30
0.0
 11
1146.828831261633
 21
494.3300404103896
 31
0.0
  0
LINE
  5
329
330
1F
100
AcDbEntity
  8
0-0
  6
JWW_DASHED1
 62
   120
370
     5
100
AcDbLine
 10
573.8288312616319
 20
495.3300404102898
 30
0.0
 11
1146.828831261633
 21
495.3300404102898
 31
0.0
  0
LINE
  5
32A
330
1F
100
AcDbEntity
  8
0-0
  6
JWW_DASHED1
 62
   120
370
     5
100
AcDbLine
 10
573.8288312616319
 20
508.3300404113894
 30
0.0
 11
1146.828831261633
 21
508.3300404113894
 31
0.0
  0
LINE
  5
32B
330
1F
100
AcDbEntity
  8
0-0
  6
JWW_DASHED1
 62
   120
370
     5
100
AcDbLine
 10
573.8288312616319
 20
509.3300404112896
 30
0.0
 11
1146.828831261633
 21
509.3300404112896
 31
0.0
  0
LINE
  5
32C
330
1F
100
AcDbEntity
  8
0-0
  6
JWW_DASHED1
 62
   120
370
     5
100
AcDbLine
 10
573.8288312616319
 20
522.3300404123892
 30
0.0
 11
1146.828831261633
 21
522.3300404123892
 31
0.0
  0
LINE
  5
32D
330
1F
100
AcDbEntity
  8
0-0
  6
JWW_DASHED1
 62
   120
370
     5
100
AcDbLine
 10
573.8288312616319
 20
523.3300404122893
 30
0.0
 11
1146.828831261633
 21
523.3300404122893
 31
0.0
  0
LINE
  5
32E
330
1F
100
AcDbEntity
  8
0-0
  6
JWW_DASHED1
 62
   120
370
     5
100
AcDbLine
 10
573.8288312616319
 20
536.330040413389
 30
0.0
 11
1146.828831261633
 21
536.330040413389
 31
0.0
  0
LINE
  5
32F
330
1F
100
AcDbEntity
  8
0-0
  6
JWW_DASHED1
 62
   120
370
     5
100
AcDbLine
 10
573.8288312616319
 20
537.3300404132892
 30
0.0
 11
1146.828831261633
 21
537.3300404132892
 31
0.0
  0
LINE
  5
330
330
1F
100
AcDbEntity
  8
0-0
  6
JWW_DASHED1
 62
   120
370
     5
100
AcDbLine
 10
573.8288312616319
 20
550.3300404143888
 30
0.0
 11
1146.828831261633
 21
550.3300404143888
 31
0.0
  0
LINE
  5
331
330
1F
100
AcDbEntity
  8
0-0
  6
JWW_DASHED1
 62
   120
370
     5
100
AcDbLine
 10
573.8288312616319
 20
551.330040414289
 30
0.0
 11
1146.828831261633
 21
551.330040414289
 31
0.0
  0
LINE
  5
332
330
1F
100
AcDbEntity
  8
0-0
  6
JWW_DASHED1
 62
   120
370
     5
100
AcDbLine
 10
573.8288312616319
 20
564.3300404153886
 30
0.0
 11
1146.828831261633
 21
564.3300404153886
 31
0.0
  0
LINE
  5
333
330
1F
100
AcDbEntity
  8
0-0
  6
JWW_DASHED1
 62
   120
370
     5
100
AcDbLine
 10
573.8288312616319
 20
565.3300404152885
 30
0.0
 11
1146.828831261633
 21
565.3300404152885
 31
0.0
  0
LINE
  5
334
330
1F
100
AcDbEntity
  8
0-0
  6
JWW_DASHED1
 62
   120
370
     5
100
AcDbLine
 10
573.8288312616319
 20
578.3300404163883
 30
0.0
 11
1146.828831261633
 21
578.3300404163883
 31
0.0
  0
LINE
  5
335
330
1F
100
AcDbEntity
  8
0-0
  6
JWW_DASHED1
 62
   120
370
     5
100
AcDbLine
 10
573.8288312616319
 20
579.3300404162885
 30
0.0
 11
1146.828831261633
 21
579.3300404162885
 31
0.0
  0
LINE
  5
336
330
1F
100
AcDbEntity
  8
0-0
  6
JWW_DASHED1
 62
   120
370
     5
100
AcDbLine
 10
573.8288312616319
 20
592.3300404173882
 30
0.0
 11
1146.828831261633
 21
592.3300404173882
 31
0.0
  0
LINE
  5
337
330
1F
100
AcDbEntity
  8
0-0
  6
JWW_DASHED1
 62
   120
370
     5
100
AcDbLine
 10
573.8288312616319
 20
593.3300404172884
 30
0.0
 11
1146.828831261633
 21
593.3300404172884
 31
0.0
  0
LINE
  5
338
330
1F
100
AcDbEntity
  8
0-0
  6
JWW_DASHED1
 62
   120
370
     5
100
AcDbLine
 10
573.8288312616319
 20
606.330040418388
 30
0.0
 11
1146.828831261633
 21
606.330040418388
 31
0.0
  0
LINE
  5
339
330
1F
100
AcDbEntity
  8
0-0
  6
JWW_DASHED1
 62
   120
370
     5
100
AcDbLine
 10
573.8288312616319
 20
607.3300404182881
 30
0.0
 11
1146.828831261633
 21
607.3300404182881
 31
0.0
  0
LINE
  5
33A
330
1F
100
AcDbEntity
  8
0-0
  6
JWW_DASHED1
 62
   120
370
     5
100
AcDbLine
 10
573.8288312616319
 20
620.3300404193877
 30
0.0
 11
1146.828831261633
 21
620.3300404193877
 31
0.0
  0
LINE
  5
33B
330
1F
100
AcDbEntity
  8
0-0
  6
JWW_DASHED1
 62
   120
370
     5
100
AcDbLine
 10
573.8288312616319
 20
621.3300404192879
 30
0.0
 11
1146.828831261633
 21
621.3300404192879
 31
0.0
  0
LINE
  5
33C
330
1F
100
AcDbEntity
  8
0-0
  6
JWW_DASHED1
 62
   120
370
     5
100
AcDbLine
 10
573.8288312616319
 20
634.3300404203875
 30
0.0
 11
1146.828831261633
 21
634.3300404203875
 31
0.0
  0
LINE
  5
33D
330
1F
100
AcDbEntity
  8
0-0
  6
JWW_DASHED1
 62
   120
370
     5
100
AcDbLine
 10
573.8288312616319
 20
635.3300404202877
 30
0.0
 11
1146.828831261633
 21
635.3300404202877
 31
0.0
  0
LINE
  5
33E
330
1F
100
AcDbEntity
  8
0-0
  6
JWW_DASHED1
 62
   120
370
     5
100
AcDbLine
 10
573.8288312616319
 20
648.3300404213874
 30
0.0
 11
1146.828831261633
 21
648.3300404213874
 31
0.0
  0
LINE
  5
33F
330
1F
100
AcDbEntity
  8
0-0
  6
JWW_DASHED1
 62
   120
370
     5
100
AcDbLine
 10
573.8288312616319
 20
649.3300404212875
 30
0.0
 11
1146.828831261633
 21
649.3300404212875
 31
0.0
  0
LINE
  5
340
330
1F
100
AcDbEntity
  8
0-0
  6
JWW_DASHED1
 62
   120
370
     5
100
AcDbLine
 10
573.8288312616319
 20
662.3300404223871
 30
0.0
 11
1146.828831261633
 21
662.3300404223871
 31
0.0
  0
LINE
  5
341
330
1F
100
AcDbEntity
  8
0-0
  6
JWW_DASHED1
 62
   120
370
     5
100
AcDbLine
 10
573.8288312616319
 20
663.3300404222873
 30
0.0
 11
1146.828831261633
 21
663.3300404222873
 31
0.0
  0
LINE
  5
342
330
1F
100
AcDbEntity
  8
0-0
  6
JWW_DASHED1
 62
   120
370
     5
100
AcDbLine
 10
573.8288312616319
 20
676.3300404233867
 30
0.0
 11
1146.828831261633
 21
676.3300404233867
 31
0.0
  0
LINE
  5
343
330
1F
100
AcDbEntity
  8
0-0
  6
JWW_DASHED1
 62
   120
370
     5
100
AcDbLine
 10
573.8288312616319
 20
677.3300404232871
 30
0.0
 11
1146.828831261633
 21
677.3300404232871
 31
0.0
  0
LINE
  5
344
330
1F
100
AcDbEntity
  8
0-0
  6
JWW_DASHED1
 62
   120
370
     5
100
AcDbLine
 10
573.8288312616319
 20
690.3300404243867
 30
0.0
 11
1146.828831261633
 21
690.3300404243867
 31
0.0
  0
LINE
  5
345
330
1F
100
AcDbEntity
  8
0-0
  6
JWW_DASHED1
 62
   120
370
     5
100
AcDbLine
 10
573.8288312616319
 20
691.3300404242868
 30
0.0
 11
1146.828831261633
 21
691.3300404242868
 31
0.0
  0
LINE
  5
346
330
1F
100
AcDbEntity
  8
0-0
  6
JWW_DASHED1
 62
   120
370
     5
100
AcDbLine
 10
573.8288312616319
 20
704.3300404253865
 30
0.0
 11
1146.828831261633
 21
704.3300404253865
 31
0.0
  0
LINE
  5
347
330
1F
100
AcDbEntity
  8
0-0
  6
JWW_DASHED1
 62
   120
370
     5
100
AcDbLine
 10
573.8288312616319
 20
705.3300404252867
 30
0.0
 11
1146.828831261633
 21
705.3300404252867
 31
0.0
  0
LINE
  5
348
330
1F
100
AcDbEntity
  8
0-0
  6
JWW_DASHED1
 62
   120
370
     5
100
AcDbLine
 10
573.8288312616319
 20
718.3300404263863
 30
0.0
 11
1146.828831261633
 21
718.3300404263863
 31
0.0
  0
LINE
  5
349
330
1F
100
AcDbEntity
  8
0-0
  6
JWW_DASHED1
 62
   120
370
     5
100
AcDbLine
 10
573.8288312616319
 20
719.3300404262865
 30
0.0
 11
1146.828831261633
 21
719.3300404262865
 31
0.0
  0
LINE
  5
34A
330
1F
100
AcDbEntity
  8
0-0
  6
JWW_DASHED1
 62
   120
370
     5
100
AcDbLine
 10
573.8288312616319
 20
732.330040427386
 30
0.0
 11
1146.828831261633
 21
732.330040427386
 31
0.0
  0
LINE
  5
34B
330
1F
100
AcDbEntity
  8
0-0
  6
JWW_DASHED1
 62
   120
370
     5
100
AcDbLine
 10
573.8288312616319
 20
733.3300404272862
 30
0.0
 11
1146.828831261633
 21
733.3300404272862
 31
0.0
  0
LINE
  5
34C
330
1F
100
AcDbEntity
  8
0-0
  6
JWW_DASHED1
 62
   120
370
     5
100
AcDbLine
 10
573.8288312616319
 20
746.3300404283858
 30
0.0
 11
1146.828831261633
 21
746.3300404283858
 31
0.0
  0
LINE
  5
34D
330
1F
100
AcDbEntity
  8
0-0
  6
JWW_DASHED1
 62
   120
370
     5
100
AcDbLine
 10
573.8288312616319
 20
747.330040428286
 30
0.0
 11
1146.828831261633
 21
747.330040428286
 31
0.0
  0
LINE
  5
34E
330
1F
100
AcDbEntity
  8
0-0
  6
JWW_DASHED1
 62
   120
370
     5
100
AcDbLine
 10
573.8288312616319
 20
760.3300404293857
 30
0.0
 11
1146.828831261633
 21
760.3300404293857
 31
0.0
  0
LINE
  5
34F
330
1F
100
AcDbEntity
  8
0-0
  6
JWW_DASHED1
 62
   120
370
     5
100
AcDbLine
 10
573.8288312616319
 20
761.3300404292859
 30
0.0
 11
1146.828831261633
 21
761.3300404292859
 31
0.0
  0
LINE
  5
350
330
1F
100
AcDbEntity
  8
0-0
  6
JWW_DASHED1
 62
   120
370
     5
100
AcDbLine
 10
573.8288312616319
 20
774.3300404303852
 30
0.0
 11
1146.828831261633
 21
774.3300404303852
 31
0.0
  0
LINE
  5
351
330
1F
100
AcDbEntity
  8
0-0
  6
JWW_DASHED1
 62
   120
370
     5
100
AcDbLine
 10
573.8288312616319
 20
775.3300404302854
 30
0.0
 11
1146.828831261633
 21
775.3300404302854
 31
0.0
  0
LINE
  5
352
330
1F
100
AcDbEntity
  8
0-0
  6
JWW_DASHED1
 62
   120
370
     5
100
AcDbLine
 10
573.8288312616319
 20
788.3300404313852
 30
0.0
 11
1146.828831261633
 21
788.3300404313852
 31
0.0
  0
LINE
  5
353
330
1F
100
AcDbEntity
  8
0-0
  6
JWW_DASHED1
 62
   120
370
     5
100
AcDbLine
 10
573.8288312616319
 20
789.3300404312852
 30
0.0
 11
1146.828831261633
 21
789.3300404312852
 31
0.0
  0
LINE
  5
354
330
1F
100
AcDbEntity
  8
0-0
  6
JWW_DASHED1
 62
   120
370
     5
100
AcDbLine
 10
573.8288312616319
 20
802.330040432385
 30
0.0
 11
1146.828831261633
 21
802.330040432385
 31
0.0
  0
LINE
  5
355
330
1F
100
AcDbEntity
  8
0-0
  6
JWW_DASHED1
 62
   120
370
     5
100
AcDbLine
 10
573.8288312616319
 20
803.3300404322852
 30
0.0
 11
1146.828831261633
 21
803.3300404322852
 31
0.0
  0
LINE
  5
356
330
1F
100
AcDbEntity
  8
0-0
  6
JWW_DASHED1
 62
   120
370
     5
100
AcDbLine
 10
573.8288312616319
 20
816.3300404333849
 30
0.0
 11
1146.828831261633
 21
816.3300404333849
 31
0.0
  0
LINE
  5
357
330
1F
100
AcDbEntity
  8
0-0
  6
JWW_DASHED1
 62
   120
370
     5
100
AcDbLine
 10
573.8288312616319
 20
817.330040433285
 30
0.0
 11
1146.828831261633
 21
817.330040433285
 31
0.0
  0
LINE
  5
358
330
1F
100
AcDbEntity
  8
0-0
  6
JWW_DASHED1
 62
   120
370
     5
100
AcDbLine
 10
573.8288312616319
 20
830.3300404343846
 30
0.0
 11
1146.828831261633
 21
830.3300404343846
 31
0.0
  0
LINE
  5
359
330
1F
100
AcDbEntity
  8
0-0
  6
JWW_DASHED1
 62
   120
370
     5
100
AcDbLine
 10
573.8288312616319
 20
831.3300404342848
 30
0.0
 11
1146.828831261633
 21
831.3300404342848
 31
0.0
  0
LINE
  5
35A
330
1F
100
AcDbEntity
  8
0-0
  6
JWW_DASHED1
 62
   120
370
     5
100
AcDbLine
 10
573.8288312616319
 20
844.3300404353844
 30
0.0
 11
1146.828831261633
 21
844.3300404353844
 31
0.0
  0
LINE
  5
35B
330
1F
100
AcDbEntity
  8
0-0
  6
JWW_DASHED1
 62
   120
370
     5
100
AcDbLine
 10
573.8288312616319
 20
845.3300404352846
 30
0.0
 11
1146.828831261633
 21
845.3300404352846
 31
0.0
  0
LINE
  5
35C
330
1F
100
AcDbEntity
  8
0-0
  6
JWW_DASHED1
 62
   120
370
     5
100
AcDbLine
 10
573.8288312616319
 20
858.3300404363841
 30
0.0
 11
1146.828831261633
 21
858.3300404363841
 31
0.0
  0
LINE
  5
35D
330
1F
100
AcDbEntity
  8
0-0
  6
JWW_DASHED1
 62
   120
370
     5
100
AcDbLine
 10
573.8288312616319
 20
859.3300404362843
 30
0.0
 11
1146.828831261633
 21
859.3300404362843
 31
0.0
  0
LINE
  5
35E
330
1F
100
AcDbEntity
  8
0-0
  6
JWW_DASHED1
 62
   120
370
     5
100
AcDbLine
 10
573.8288312616319
 20
872.330040437384
 30
0.0
 11
1146.828831261633
 21
872.330040437384
 31
0.0
  0
LINE
  5
35F
330
1F
100
AcDbEntity
  8
0-0
  6
JWW_DASHED1
 62
   120
370
     5
100
AcDbLine
 10
573.8288312616319
 20
873.3300404372842
 30
0.0
 11
1146.828831261633
 21
873.3300404372842
 31
0.0
  0
LINE
  5
360
330
1F
100
AcDbEntity
  8
0-0
  6
JWW_DASHED1
 62
   120
370
     5
100
AcDbLine
 10
573.8288312616319
 20
886.3300404383835
 30
0.0
 11
1146.828831261633
 21
886.3300404383835
 31
0.0
  0
LINE
  5
361
330
1F
100
AcDbEntity
  8
0-0
  6
JWW_DASHED1
 62
   120
370
     5
100
AcDbLine
 10
573.8288312616319
 20
887.3300404382837
 30
0.0
 11
1146.828831261633
 21
887.3300404382837
 31
0.0
  0
LINE
  5
362
330
1F
100
AcDbEntity
  8
0-0
  6
JWW_DASHED1
 62
   120
370
     5
100
AcDbLine
 10
573.8288312616319
 20
900.3300404393833
 30
0.0
 11
1146.828831261633
 21
900.3300404393833
 31
0.0
  0
LINE
  5
363
330
1F
100
AcDbEntity
  8
0-0
  6
JWW_DASHED1
 62
   120
370
     5
100
AcDbLine
 10
573.8288312616319
 20
901.3300404392837
 30
0.0
 11
1146.828831261633
 21
901.3300404392837
 31
0.0
  0
LINE
  5
364
330
1F
100
AcDbEntity
  8
0-0
  6
JWW_DASHED1
 62
   120
370
     5
100
AcDbLine
 10
573.8288312616319
 20
914.3300404403833
 30
0.0
 11
1146.828831261633
 21
914.3300404403833
 31
0.0
  0
LINE
  5
365
330
1F
100
AcDbEntity
  8
0-0
  6
JWW_DASHED1
 62
   120
370
     5
100
AcDbLine
 10
573.8288312616319
 20
915.3300404402835
 30
0.0
 11
1146.828831261633
 21
915.3300404402835
 31
0.0
  0
LINE
  5
366
330
1F
100
AcDbEntity
  8
0-0
  6
JWW_DASHED1
 62
   120
370
     5
100
AcDbLine
 10
573.8288312616319
 20
928.3300404413832
 30
0.0
 11
1146.828831261633
 21
928.3300404413832
 31
0.0
  0
LINE
  5
367
330
1F
100
AcDbEntity
  8
0-0
  6
JWW_DASHED1
 62
   120
370
     5
100
AcDbLine
 10
573.8288312616319
 20
929.3300404412834
 30
0.0
 11
1146.828831261633
 21
929.3300404412834
 31
0.0
  0
LINE
  5
368
330
1F
100
AcDbEntity
  8
0-0
  6
JWW_DASHED1
 62
   120
370
     5
100
AcDbLine
 10
573.8288312616319
 20
942.3300404423829
 30
0.0
 11
1146.828831261633
 21
942.3300404423829
 31
0.0
  0
LINE
  5
369
330
1F
100
AcDbEntity
  8
0-0
  6
JWW_DASHED1
 62
   120
370
     5
100
AcDbLine
 10
573.8288312616319
 20
943.3300404422829
 30
0.0
 11
1146.828831261633
 21
943.3300404422829
 31
0.0
  0
LINE
  5
36A
330
1F
100
AcDbEntity
  8
0-0
  6
JWW_DASHED1
 62
   120
370
     5
100
AcDbLine
 10
573.8288312616319
 20
956.3300404433827
 30
0.0
 11
1146.828831261633
 21
956.3300404433827
 31
0.0
  0
LINE
  5
36B
330
1F
100
AcDbEntity
  8
0-0
  6
JWW_DASHED1
 62
   120
370
     5
100
AcDbLine
 10
573.8288312616319
 20
957.3300404432829
 30
0.0
 11
1146.828831261633
 21
957.3300404432829
 31
0.0
  0
LINE
  5
36C
330
1F
100
AcDbEntity
  8
0-0
  6
JWW_DASHED1
 62
   120
370
     5
100
AcDbLine
 10
573.8288312616319
 20
970.3300404443825
 30
0.0
 11
1146.828831261633
 21
970.3300404443825
 31
0.0
  0
LINE
  5
36D
330
1F
100
AcDbEntity
  8
0-0
  6
JWW_DASHED1
 62
   120
370
     5
100
AcDbLine
 10
573.8288312616319
 20
971.3300404442826
 30
0.0
 11
1146.828831261633
 21
971.3300404442826
 31
0.0
  0
LINE
  5
36E
330
1F
100
AcDbEntity
  8
0-0
  6
JWW_DASHED1
 62
   120
370
     5
100
AcDbLine
 10
579.8288497196637
 20
-135.6698113207572
 30
0.0
 11
579.8288497196637
 21
1039.330188679243
 31
0.0
  0
LINE
  5
36F
330
1F
100
AcDbEntity
  8
0-0
  6
JWW_DASHED1
 62
   120
370
     5
100
AcDbLine
 10
1112.828849757564
 20
-135.6698113207572
 30
0.0
 11
1112.828849757564
 21
1039.330188679243
 31
0.0
  0
LINE
  5
370
330
1F
100
AcDbEntity
  8
0-0
  6
JWW_DASHED1
 62
   120
370
     5
100
AcDbLine
 10
1111.828849757664
 20
-135.6698113207572
 30
0.0
 11
1111.828849757664
 21
1039.330188679243
 31
0.0
  0
LINE
  5
371
330
1F
100
AcDbEntity
  8
0-0
  6
JWW_DASHED1
 62
   120
370
     5
100
AcDbLine
 10
1098.828849756564
 20
-135.6698113207572
 30
0.0
 11
1098.828849756564
 21
1039.330188679243
 31
0.0
  0
LINE
  5
372
330
1F
100
AcDbEntity
  8
0-0
  6
JWW_DASHED1
 62
   120
370
     5
100
AcDbLine
 10
1097.828849756664
 20
-135.6698113207572
 30
0.0
 11
1097.828849756664
 21
1039.330188679243
 31
0.0
  0
LINE
  5
373
330
1F
100
AcDbEntity
  8
0-0
  6
JWW_DASHED1
 62
   120
370
     5
100
AcDbLine
 10
1084.828849755564
 20
-135.6698113207572
 30
0.0
 11
1084.828849755564
 21
1039.330188679243
 31
0.0
  0
LINE
  5
374
330
1F
100
AcDbEntity
  8
0-0
  6
JWW_DASHED1
 62
   120
370
     5
100
AcDbLine
 10
1083.828849755664
 20
-135.6698113207572
 30
0.0
 11
1083.828849755664
 21
1039.330188679243
 31
0.0
  0
LINE
  5
375
330
1F
100
AcDbEntity
  8
0-0
  6
JWW_DASHED1
 62
   120
370
     5
100
AcDbLine
 10
1070.828849754564
 20
-135.6698113207572
 30
0.0
 11
1070.828849754564
 21
1039.330188679243
 31
0.0
  0
LINE
  5
376
330
1F
100
AcDbEntity
  8
0-0
  6
JWW_DASHED1
 62
   120
370
     5
100
AcDbLine
 10
1069.828849754664
 20
-135.6698113207572
 30
0.0
 11
1069.828849754664
 21
1039.330188679243
 31
0.0
  0
LINE
  5
377
330
1F
100
AcDbEntity
  8
0-0
  6
JWW_DASHED1
 62
   120
370
     5
100
AcDbLine
 10
1056.828849753564
 20
-135.6698113207572
 30
0.0
 11
1056.828849753564
 21
1039.330188679243
 31
0.0
  0
LINE
  5
378
330
1F
100
AcDbEntity
  8
0-0
  6
JWW_DASHED1
 62
   120
370
     5
100
AcDbLine
 10
1055.828849753664
 20
-135.6698113207572
 30
0.0
 11
1055.828849753664
 21
1039.330188679243
 31
0.0
  0
LINE
  5
379
330
1F
100
AcDbEntity
  8
0-0
  6
JWW_DASHED1
 62
   120
370
     5
100
AcDbLine
 10
1042.828849752564
 20
-135.6698113207572
 30
0.0
 11
1042.828849752564
 21
1039.330188679243
 31
0.0
  0
LINE
  5
37A
330
1F
100
AcDbEntity
  8
0-0
  6
JWW_DASHED1
 62
   120
370
     5
100
AcDbLine
 10
1041.828849752664
 20
-135.6698113207572
 30
0.0
 11
1041.828849752664
 21
1039.330188679243
 31
0.0
  0
LINE
  5
37B
330
1F
100
AcDbEntity
  8
0-0
  6
JWW_DASHED1
 62
   120
370
     5
100
AcDbLine
 10
1028.828849751564
 20
-135.6698113207572
 30
0.0
 11
1028.828849751564
 21
1039.330188679243
 31
0.0
  0
LINE
  5
37C
330
1F
100
AcDbEntity
  8
0-0
  6
JWW_DASHED1
 62
   120
370
     5
100
AcDbLine
 10
1027.828849751664
 20
-135.6698113207572
 30
0.0
 11
1027.828849751664
 21
1039.330188679243
 31
0.0
  0
LINE
  5
37D
330
1F
100
AcDbEntity
  8
0-0
  6
JWW_DASHED1
 62
   120
370
     5
100
AcDbLine
 10
1014.828849750564
 20
-135.6698113207572
 30
0.0
 11
1014.828849750564
 21
1039.330188679243
 31
0.0
  0
LINE
  5
37E
330
1F
100
AcDbEntity
  8
0-0
  6
JWW_DASHED1
 62
   120
370
     5
100
AcDbLine
 10
1013.828849750664
 20
-135.6698113207572
 30
0.0
 11
1013.828849750664
 21
1039.330188679243
 31
0.0
  0
LINE
  5
37F
330
1F
100
AcDbEntity
  8
0-0
  6
JWW_DASHED1
 62
   120
370
     5
100
AcDbLine
 10
1000.828849749564
 20
-135.6698113207572
 30
0.0
 11
1000.828849749564
 21
1039.330188679243
 31
0.0
  0
LINE
  5
380
330
1F
100
AcDbEntity
  8
0-0
  6
JWW_DASHED1
 62
   120
370
     5
100
AcDbLine
 10
999.8288497496642
 20
-135.6698113207572
 30
0.0
 11
999.8288497496642
 21
1039.330188679243
 31
0.0
  0
LINE
  5
381
330
1F
100
AcDbEntity
  8
0-0
  6
JWW_DASHED1
 62
   120
370
     5
100
AcDbLine
 10
986.8288497485642
 20
-135.6698113207572
 30
0.0
 11
986.8288497485642
 21
1039.330188679243
 31
0.0
  0
LINE
  5
382
330
1F
100
AcDbEntity
  8
0-0
  6
JWW_DASHED1
 62
   120
370
     5
100
AcDbLine
 10
985.828849748664
 20
-135.6698113207572
 30
0.0
 11
985.828849748664
 21
1039.330188679243
 31
0.0
  0
LINE
  5
383
330
1F
100
AcDbEntity
  8
0-0
  6
JWW_DASHED1
 62
   120
370
     5
100
AcDbLine
 10
972.8288497475639
 20
-135.6698113207572
 30
0.0
 11
972.8288497475639
 21
1039.330188679243
 31
0.0
  0
LINE
  5
384
330
1F
100
AcDbEntity
  8
0-0
  6
JWW_DASHED1
 62
   120
370
     5
100
AcDbLine
 10
971.8288497476638
 20
-135.6698113207572
 30
0.0
 11
971.8288497476638
 21
1039.330188679243
 31
0.0
  0
LINE
  5
385
330
1F
100
AcDbEntity
  8
0-0
  6
JWW_DASHED1
 62
   120
370
     5
100
AcDbLine
 10
958.8288497465642
 20
-135.6698113207572
 30
0.0
 11
958.8288497465642
 21
1039.330188679243
 31
0.0
  0
LINE
  5
386
330
1F
100
AcDbEntity
  8
0-0
  6
JWW_DASHED1
 62
   120
370
     5
100
AcDbLine
 10
957.828849746664
 20
-135.6698113207572
 30
0.0
 11
957.828849746664
 21
1039.330188679243
 31
0.0
  0
LINE
  5
387
330
1F
100
AcDbEntity
  8
0-0
  6
JWW_DASHED1
 62
   120
370
     5
100
AcDbLine
 10
944.8288497455644
 20
-135.6698113207572
 30
0.0
 11
944.8288497455644
 21
1039.330188679243
 31
0.0
  0
LINE
  5
388
330
1F
100
AcDbEntity
  8
0-0
  6
JWW_DASHED1
 62
   120
370
     5
100
AcDbLine
 10
943.8288497456642
 20
-135.6698113207572
 30
0.0
 11
943.8288497456642
 21
1039.330188679243
 31
0.0
  0
LINE
  5
389
330
1F
100
AcDbEntity
  8
0-0
  6
JWW_DASHED1
 62
   120
370
     5
100
AcDbLine
 10
930.8288497445642
 20
-135.6698113207572
 30
0.0
 11
930.8288497445642
 21
1039.330188679243
 31
0.0
  0
LINE
  5
38A
330
1F
100
AcDbEntity
  8
0-0
  6
JWW_DASHED1
 62
   120
370
     5
100
AcDbLine
 10
929.828849744664
 20
-135.6698113207572
 30
0.0
 11
929.828849744664
 21
1039.330188679243
 31
0.0
  0
LINE
  5
38B
330
1F
100
AcDbEntity
  8
0-0
  6
JWW_DASHED1
 62
   120
370
     5
100
AcDbLine
 10
916.828849743564
 20
-135.6698113207572
 30
0.0
 11
916.828849743564
 21
1039.330188679243
 31
0.0
  0
LINE
  5
38C
330
1F
100
AcDbEntity
  8
0-0
  6
JWW_DASHED1
 62
   120
370
     5
100
AcDbLine
 10
915.8288497436638
 20
-135.6698113207572
 30
0.0
 11
915.8288497436638
 21
1039.330188679243
 31
0.0
  0
LINE
  5
38D
330
1F
100
AcDbEntity
  8
0-0
  6
JWW_DASHED1
 62
   120
370
     5
100
AcDbLine
 10
902.8288497425642
 20
-135.6698113207572
 30
0.0
 11
902.8288497425642
 21
1039.330188679243
 31
0.0
  0
LINE
  5
38E
330
1F
100
AcDbEntity
  8
0-0
  6
JWW_DASHED1
 62
   120
370
     5
100
AcDbLine
 10
901.828849742664
 20
-135.6698113207572
 30
0.0
 11
901.828849742664
 21
1039.330188679243
 31
0.0
  0
LINE
  5
38F
330
1F
100
AcDbEntity
  8
0-0
  6
JWW_DASHED1
 62
   120
370
     5
100
AcDbLine
 10
888.8288497415645
 20
-135.6698113207572
 30
0.0
 11
888.8288497415645
 21
1039.330188679243
 31
0.0
  0
LINE
  5
390
330
1F
100
AcDbEntity
  8
0-0
  6
JWW_DASHED1
 62
   120
370
     5
100
AcDbLine
 10
887.8288497416638
 20
-135.6698113207572
 30
0.0
 11
887.8288497416638
 21
1039.330188679243
 31
0.0
  0
LINE
  5
391
330
1F
100
AcDbEntity
  8
0-0
  6
JWW_DASHED1
 62
   120
370
     5
100
AcDbLine
 10
874.828849740564
 20
-135.6698113207572
 30
0.0
 11
874.828849740564
 21
1039.330188679243
 31
0.0
  0
LINE
  5
392
330
1F
100
AcDbEntity
  8
0-0
  6
JWW_DASHED1
 62
   120
370
     5
100
AcDbLine
 10
873.828849740664
 20
-135.6698113207572
 30
0.0
 11
873.828849740664
 21
1039.330188679243
 31
0.0
  0
LINE
  5
393
330
1F
100
AcDbEntity
  8
0-0
  6
JWW_DASHED1
 62
   120
370
     5
100
AcDbLine
 10
860.828849739564
 20
-135.6698113207572
 30
0.0
 11
860.828849739564
 21
1039.330188679243
 31
0.0
  0
LINE
  5
394
330
1F
100
AcDbEntity
  8
0-0
  6
JWW_DASHED1
 62
   120
370
     5
100
AcDbLine
 10
859.8288497396636
 20
-135.6698113207572
 30
0.0
 11
859.8288497396636
 21
1039.330188679243
 31
0.0
  0
LINE
  5
395
330
1F
100
AcDbEntity
  8
0-0
  6
JWW_DASHED1
 62
   120
370
     5
100
AcDbLine
 10
846.8288497385636
 20
-135.6698113207572
 30
0.0
 11
846.8288497385636
 21
1039.330188679243
 31
0.0
  0
LINE
  5
396
330
1F
100
AcDbEntity
  8
0-0
  6
JWW_DASHED1
 62
   120
370
     5
100
AcDbLine
 10
845.8288497386637
 20
-135.6698113207572
 30
0.0
 11
845.8288497386637
 21
1039.330188679243
 31
0.0
  0
LINE
  5
397
330
1F
100
AcDbEntity
  8
0-0
  6
JWW_DASHED1
 62
   120
370
     5
100
AcDbLine
 10
832.8288497375644
 20
-135.6698113207572
 30
0.0
 11
832.8288497375644
 21
1039.330188679243
 31
0.0
  0
LINE
  5
398
330
1F
100
AcDbEntity
  8
0-0
  6
JWW_DASHED1
 62
   120
370
     5
100
AcDbLine
 10
831.8288497376642
 20
-135.6698113207572
 30
0.0
 11
831.8288497376642
 21
1039.330188679243
 31
0.0
  0
LINE
  5
399
330
1F
100
AcDbEntity
  8
0-0
  6
JWW_DASHED1
 62
   120
370
     5
100
AcDbLine
 10
818.8288497365642
 20
-135.6698113207572
 30
0.0
 11
818.8288497365642
 21
1039.330188679243
 31
0.0
  0
LINE
  5
39A
330
1F
100
AcDbEntity
  8
0-0
  6
JWW_DASHED1
 62
   120
370
     5
100
AcDbLine
 10
817.828849736664
 20
-135.6698113207572
 30
0.0
 11
817.828849736664
 21
1039.330188679243
 31
0.0
  0
LINE
  5
39B
330
1F
100
AcDbEntity
  8
0-0
  6
JWW_DASHED1
 62
   120
370
     5
100
AcDbLine
 10
804.828849735564
 20
-135.6698113207572
 30
0.0
 11
804.828849735564
 21
1039.330188679243
 31
0.0
  0
LINE
  5
39C
330
1F
100
AcDbEntity
  8
0-0
  6
JWW_DASHED1
 62
   120
370
     5
100
AcDbLine
 10
803.8288497356638
 20
-135.6698113207572
 30
0.0
 11
803.8288497356638
 21
1039.330188679243
 31
0.0
  0
LINE
  5
39D
330
1F
100
AcDbEntity
  8
0-0
  6
JWW_DASHED1
 62
   120
370
     5
100
AcDbLine
 10
790.8288497345642
 20
-135.6698113207572
 30
0.0
 11
790.8288497345642
 21
1039.330188679243
 31
0.0
  0
LINE
  5
39E
330
1F
100
AcDbEntity
  8
0-0
  6
JWW_DASHED1
 62
   120
370
     5
100
AcDbLine
 10
789.828849734664
 20
-135.6698113207572
 30
0.0
 11
789.828849734664
 21
1039.330188679243
 31
0.0
  0
LINE
  5
39F
330
1F
100
AcDbEntity
  8
0-0
  6
JWW_DASHED1
 62
   120
370
     5
100
AcDbLine
 10
776.8288497335643
 20
-135.6698113207572
 30
0.0
 11
776.8288497335643
 21
1039.330188679243
 31
0.0
  0
LINE
  5
3A0
330
1F
100
AcDbEntity
  8
0-0
  6
JWW_DASHED1
 62
   120
370
     5
100
AcDbLine
 10
775.8288497336641
 20
-135.6698113207572
 30
0.0
 11
775.8288497336641
 21
1039.330188679243
 31
0.0
  0
LINE
  5
3A1
330
1F
100
AcDbEntity
  8
0-0
  6
JWW_DASHED1
 62
   120
370
     5
100
AcDbLine
 10
762.8288497325641
 20
-135.6698113207572
 30
0.0
 11
762.8288497325641
 21
1039.330188679243
 31
0.0
  0
LINE
  5
3A2
330
1F
100
AcDbEntity
  8
0-0
  6
JWW_DASHED1
 62
   120
370
     5
100
AcDbLine
 10
761.8288497326639
 20
-135.6698113207572
 30
0.0
 11
761.8288497326639
 21
1039.330188679243
 31
0.0
  0
LINE
  5
3A3
330
1F
100
AcDbEntity
  8
0-0
  6
JWW_DASHED1
 62
   120
370
     5
100
AcDbLine
 10
748.8288497315639
 20
-135.6698113207572
 30
0.0
 11
748.8288497315639
 21
1039.330188679243
 31
0.0
  0
LINE
  5
3A4
330
1F
100
AcDbEntity
  8
0-0
  6
JWW_DASHED1
 62
   120
370
     5
100
AcDbLine
 10
747.8288497316637
 20
-135.6698113207572
 30
0.0
 11
747.8288497316637
 21
1039.330188679243
 31
0.0
  0
LINE
  5
3A5
330
1F
100
AcDbEntity
  8
0-0
  6
JWW_DASHED1
 62
   120
370
     5
100
AcDbLine
 10
734.8288497305641
 20
-135.6698113207572
 30
0.0
 11
734.8288497305641
 21
1039.330188679243
 31
0.0
  0
LINE
  5
3A6
330
1F
100
AcDbEntity
  8
0-0
  6
JWW_DASHED1
 62
   120
370
     5
100
AcDbLine
 10
733.8288497306639
 20
-135.6698113207572
 30
0.0
 11
733.8288497306639
 21
1039.330188679243
 31
0.0
  0
LINE
  5
3A7
330
1F
100
AcDbEntity
  8
0-0
  6
JWW_DASHED1
 62
   120
370
     5
100
AcDbLine
 10
720.8288497295644
 20
-135.6698113207572
 30
0.0
 11
720.8288497295644
 21
1039.330188679243
 31
0.0
  0
LINE
  5
3A8
330
1F
100
AcDbEntity
  8
0-0
  6
JWW_DASHED1
 62
   120
370
     5
100
AcDbLine
 10
719.8288497296642
 20
-135.6698113207572
 30
0.0
 11
719.8288497296642
 21
1039.330188679243
 31
0.0
  0
LINE
  5
3A9
330
1F
100
AcDbEntity
  8
0-0
  6
JWW_DASHED1
 62
   120
370
     5
100
AcDbLine
 10
706.8288497285641
 20
-135.6698113207572
 30
0.0
 11
706.8288497285641
 21
1039.330188679243
 31
0.0
  0
LINE
  5
3AA
330
1F
100
AcDbEntity
  8
0-0
  6
JWW_DASHED1
 62
   120
370
     5
100
AcDbLine
 10
705.828849728664
 20
-135.6698113207572
 30
0.0
 11
705.828849728664
 21
1039.330188679243
 31
0.0
  0
LINE
  5
3AB
330
1F
100
AcDbEntity
  8
0-0
  6
JWW_DASHED1
 62
   120
370
     5
100
AcDbLine
 10
692.8288497275639
 20
-135.6698113207572
 30
0.0
 11
692.8288497275639
 21
1039.330188679243
 31
0.0
  0
LINE
  5
3AC
330
1F
100
AcDbEntity
  8
0-0
  6
JWW_DASHED1
 62
   120
370
     5
100
AcDbLine
 10
691.8288497276637
 20
-135.6698113207572
 30
0.0
 11
691.8288497276637
 21
1039.330188679243
 31
0.0
  0
LINE
  5
3AD
330
1F
100
AcDbEntity
  8
0-0
  6
JWW_DASHED1
 62
   120
370
     5
100
AcDbLine
 10
678.8288497265642
 20
-135.6698113207572
 30
0.0
 11
678.8288497265642
 21
1039.330188679243
 31
0.0
  0
LINE
  5
3AE
330
1F
100
AcDbEntity
  8
0-0
  6
JWW_DASHED1
 62
   120
370
     5
100
AcDbLine
 10
677.828849726664
 20
-135.6698113207572
 30
0.0
 11
677.828849726664
 21
1039.330188679243
 31
0.0
  0
LINE
  5
3AF
330
1F
100
AcDbEntity
  8
0-0
  6
JWW_DASHED1
 62
   120
370
     5
100
AcDbLine
 10
664.8288497255639
 20
-135.6698113207572
 30
0.0
 11
664.8288497255639
 21
1039.330188679243
 31
0.0
  0
LINE
  5
3B0
330
1F
100
AcDbEntity
  8
0-0
  6
JWW_DASHED1
 62
   120
370
     5
100
AcDbLine
 10
663.8288497256642
 20
-135.6698113207572
 30
0.0
 11
663.8288497256642
 21
1039.330188679243
 31
0.0
  0
LINE
  5
3B1
330
1F
100
AcDbEntity
  8
0-0
  6
JWW_DASHED1
 62
   120
370
     5
100
AcDbLine
 10
650.8288497245642
 20
-135.6698113207572
 30
0.0
 11
650.8288497245642
 21
1039.330188679243
 31
0.0
  0
LINE
  5
3B2
330
1F
100
AcDbEntity
  8
0-0
  6
JWW_DASHED1
 62
   120
370
     5
100
AcDbLine
 10
649.8288497246635
 20
-135.6698113207572
 30
0.0
 11
649.8288497246635
 21
1039.330188679243
 31
0.0
  0
LINE
  5
3B3
330
1F
100
AcDbEntity
  8
0-0
  6
JWW_DASHED1
 62
   120
370
     5
100
AcDbLine
 10
636.8288497235637
 20
-135.6698113207572
 30
0.0
 11
636.8288497235637
 21
1039.330188679243
 31
0.0
  0
LINE
  5
3B4
330
1F
100
AcDbEntity
  8
0-0
  6
JWW_DASHED1
 62
   120
370
     5
100
AcDbLine
 10
635.8288497236638
 20
-135.6698113207572
 30
0.0
 11
635.8288497236638
 21
1039.330188679243
 31
0.0
  0
LINE
  5
3B5
330
1F
100
AcDbEntity
  8
0-0
  6
JWW_DASHED1
 62
   120
370
     5
100
AcDbLine
 10
622.8288497225639
 20
-135.6698113207572
 30
0.0
 11
622.8288497225639
 21
1039.330188679243
 31
0.0
  0
LINE
  5
3B6
330
1F
100
AcDbEntity
  8
0-0
  6
JWW_DASHED1
 62
   120
370
     5
100
AcDbLine
 10
621.8288497226633
 20
-135.6698113207572
 30
0.0
 11
621.8288497226633
 21
1039.330188679243
 31
0.0
  0
LINE
  5
3B7
330
1F
100
AcDbEntity
  8
0-0
  6
JWW_DASHED1
 62
   120
370
     5
100
AcDbLine
 10
608.8288497215643
 20
-135.6698113207572
 30
0.0
 11
608.8288497215643
 21
1039.330188679243
 31
0.0
  0
LINE
  5
3B8
330
1F
100
AcDbEntity
  8
0-0
  6
JWW_DASHED1
 62
   120
370
     5
100
AcDbLine
 10
607.8288497216641
 20
-135.6698113207572
 30
0.0
 11
607.8288497216641
 21
1039.330188679243
 31
0.0
  0
LINE
  5
3B9
330
1F
100
AcDbEntity
  8
0-0
  6
JWW_DASHED1
 62
   120
370
     5
100
AcDbLine
 10
594.8288497205641
 20
-135.6698113207572
 30
0.0
 11
594.8288497205641
 21
1039.330188679243
 31
0.0
  0
LINE
  5
3BA
330
1F
100
AcDbEntity
  8
0-0
  6
JWW_DASHED1
 62
   120
370
     5
100
AcDbLine
 10
593.8288497206639
 20
-135.6698113207572
 30
0.0
 11
593.8288497206639
 21
1039.330188679243
 31
0.0
  0
LINE
  5
3BB
330
1F
100
AcDbEntity
  8
0-0
  6
JWW_DASHED1
 62
   120
370
     5
100
AcDbLine
 10
580.8288497195639
 20
-135.6698113207572
 30
0.0
 11
580.8288497195639
 21
1039.330188679243
 31
0.0
  0
LINE
  5
3BC
330
1F
100
AcDbEntity
  8
0-0
  6
JWW_DASHED1
 62
   120
370
     5
100
AcDbLine
 10
1140.828849759564
 20
-135.6698113207572
 30
0.0
 11
1140.828849759564
 21
1039.330188679243
 31
0.0
  0
LINE
  5
3BD
330
1F
100
AcDbEntity
  8
0-0
  6
JWW_DASHED1
 62
   120
370
     5
100
AcDbLine
 10
1125.828849758664
 20
-135.6698113207572
 30
0.0
 11
1125.828849758664
 21
1039.330188679243
 31
0.0
  0
LINE
  5
3BE
330
1F
100
AcDbEntity
  8
0-0
  6
JWW_DASHED1
 62
   120
370
     5
100
AcDbLine
 10
1139.828849759664
 20
-135.6698113207572
 30
0.0
 11
1139.828849759664
 21
1039.330188679243
 31
0.0
  0
LINE
  5
3BF
330
1F
100
AcDbEntity
  8
0-0
  6
JWW_DASHED1
 62
   120
370
     5
100
AcDbLine
 10
1126.828849758564
 20
-135.6698113207572
 30
0.0
 11
1126.828849758564
 21
1039.330188679243
 31
0.0
  0
LINE
  5
3C0
330
1F
100
AcDbEntity
  8
0-0
  6
JWW_DASHED1
 62
   120
370
     5
100
AcDbLine
 10
573.8288312616328
 20
1027.330040448282
 30
0.0
 11
1146.828831261632
 21
1027.330040448282
 31
0.0
  0
LINE
  5
3C1
330
1F
100
AcDbEntity
  8
0-0
  6
JWW_DASHED1
 62
   120
370
     5
100
AcDbLine
 10
573.8288312616328
 20
984.3300404453823
 30
0.0
 11
1146.828831261632
 21
984.3300404453823
 31
0.0
  0
LINE
  5
3C2
330
1F
100
AcDbEntity
  8
0-0
  6
JWW_DASHED1
 62
   120
370
     5
100
AcDbLine
 10
573.8288312616328
 20
985.3300404452825
 30
0.0
 11
1146.828831261632
 21
985.3300404452825
 31
0.0
  0
LINE
  5
3C3
330
1F
100
AcDbEntity
  8
0-0
  6
JWW_DASHED1
 62
   120
370
     5
100
AcDbLine
 10
573.8288312616328
 20
998.3300404463819
 30
0.0
 11
1146.828831261632
 21
998.3300404463819
 31
0.0
  0
LINE
  5
3C4
330
1F
100
AcDbEntity
  8
0-0
  6
JWW_DASHED1
 62
   120
370
     5
100
AcDbLine
 10
573.8288312616328
 20
999.330040446282
 30
0.0
 11
1146.828831261632
 21
999.330040446282
 31
0.0
  0
LINE
  5
3C5
330
1F
100
AcDbEntity
  8
0-0
  6
JWW_DASHED1
 62
   120
370
     5
100
AcDbLine
 10
573.8288312616328
 20
1012.330040447382
 30
0.0
 11
1146.828831261632
 21
1012.330040447382
 31
0.0
  0
LINE
  5
3C6
330
1F
100
AcDbEntity
  8
0-0
  6
JWW_DASHED1
 62
   120
370
     5
100
AcDbLine
 10
573.8288312616328
 20
1013.330040447282
 30
0.0
 11
1146.828831261632
 21
1013.330040447282
 31
0.0
  0
LINE
  5
3C7
330
1F
100
AcDbEntity
  8
0-0
  6
JWW_DASHED1
 62
   120
370
     5
100
AcDbLine
 10
573.8288312616328
 20
1026.330040448382
 30
0.0
 11
1146.828831261632
 21
1026.330040448382
 31
0.0
  0
ENDSEC
  0
SECTION
  2
OBJECTS
  0
DICTIONARY
  5
C
330
0
100
AcDbDictionary
281
     1
  3
ACAD_GROUP
350
D
  3
ACAD_LAYOUT
350
1A
  3
ACAD_MATERIAL
350
3B
  3
ACAD_MLEADERSTYLE
350
3C9
  3
ACAD_MLINESTYLE
350
17
  3
ACAD_PLOTSETTINGS
350
19
  3
ACAD_PLOTSTYLENAME
350
E
  3
ACAD_TABLESTYLE
350
3C8
  3
ACAD_VISUALSTYLE
350
2A
  0
DICTIONARY
  5
D
102
{ACAD_REACTORS
330
C
102
}
330
C
100
AcDbDictionary
281
     1
  0
DICTIONARY
  5
1A
102
{ACAD_REACTORS
330
C
102
}
330
C
100
AcDbDictionary
281
     1
  3
Layout1
350
1E
  3
Layout2
350
26
  3
Model
350
22
  0
DICTIONARY
  5
3B
102
{ACAD_REACTORS
330
C
102
}
330
C
100
AcDbDictionary
281
     1
  3
ByBlock
350
3D
  3
ByLayer
350
3C
  3
Global
350
3E
  0
DICTIONARY
  5
3C9
102
{ACAD_REACTORS
330
C
102
}
330
C
100
AcDbDictionary
281
     1
  0
DICTIONARY
  5
17
102
{ACAD_REACTORS
330
C
102
}
330
C
100
AcDbDictionary
281
     1
  3
Standard
350
18
  0
DICTIONARY
  5
19
102
{ACAD_REACTORS
330
C
102
}
330
C
100
AcDbDictionary
281
     1
  0
ACDBDICTIONARYWDFLT
  5
E
102
{ACAD_REACTORS
330
C
102
}
330
C
100
AcDbDictionary
281
     1
  3
Normal
350
F
100
AcDbDictionaryWithDefault
340
F
  0
DICTIONARY
  5
3C8
102
{ACAD_REACTORS
330
C
102
}
330
C
100
AcDbDictionary
281
     1
  0
DICTIONARY
  5
2A
102
{ACAD_REACTORS
330
C
102
}
330
C
100
AcDbDictionary
281
     1
  3
2dWireframe
350
2F
  3
3D Hidden
350
31
  3
3dWireframe
350
30
  3
Basic
350
32
  3
Brighten
350
36
  3
ColorChange
350
3A
  3
Conceptual
350
34
  3
Dim
350
35
  3
Facepattern
350
39
  3
Flat
350
2B
  3
FlatWithEdges
350
2C
  3
Gouraud
350
2D
  3
GouraudWithEdges
350
2E
  3
Linepattern
350
38
  3
Realistic
350
33
  3
Thicken
350
37
  0
LAYOUT
  5
1E
102
{ACAD_REACTORS
330
1A
102
}
330
1A
100
AcDbPlotSettings
  1

  2
none_device
  4

  6

 40
0.0
 41
0.0
 42
0.0
 43
0.0
 44
0.0
 45
0.0
 46
0.0
 47
0.0
 48
0.0
 49
0.0
140
0.0
141
0.0
142
1.0
143
1.0
 70
   688
 72
     0
 73
     0
 74
     5
  7

 75
    16
 76
     0
 77
     5
 78
   300
147
1.0
148
0.0
149
0.0
100
AcDbLayout
  1
Layout1
 70
     1
 71
     1
 10
0.0
 20
0.0
 11
420.0
 21
297.0
 12
0.0
 22
0.0
 32
0.0
 14
1.000000000000000E+20
 24
1.000000000000000E+20
 34
1.000000000000000E+20
 15
-1.000000000000000E+20
 25
-1.000000000000000E+20
 35
-1.000000000000000E+20
146
0.0
 13
0.0
 23
0.0
 33
0.0
 16
1.0
 26
0.0
 36
0.0
 17
0.0
 27
1.0
 37
0.0
 76
     0
330
1B
  0
LAYOUT
  5
26
102
{ACAD_REACTORS
330
1A
102
}
330
1A
100
AcDbPlotSettings
  1

  2
none_device
  4

  6

 40
0.0
 41
0.0
 42
0.0
 43
0.0
 44
0.0
 45
0.0
 46
0.0
 47
0.0
 48
0.0
 49
0.0
140
0.0
141
0.0
142
1.0
143
1.0
 70
   688
 72
     0
 73
     0
 74
     5
  7

 75
    16
 76
     0
 77
     5
 78
   300
147
1.0
148
0.0
149
0.0
100
AcDbLayout
  1
Layout2
 70
     1
 71
     2
 10
0.0
 20
0.0
 11
0.0
 21
0.0
 12
0.0
 22
0.0
 32
0.0
 14
0.0
 24
0.0
 34
0.0
 15
0.0
 25
0.0
 35
0.0
146
0.0
 13
0.0
 23
0.0
 33
0.0
 16
1.0
 26
0.0
 36
0.0
 17
0.0
 27
1.0
 37
0.0
 76
     0
330
23
  0
LAYOUT
  5
22
102
{ACAD_REACTORS
330
1A
102
}
330
1A
100
AcDbPlotSettings
  1

  2
none_device
  4

  6

 40
0.0
 41
0.0
 42
0.0
 43
0.0
 44
0.0
 45
0.0
 46
0.0
 47
0.0
 48
0.0
 49
0.0
140
0.0
141
0.0
142
1.0
143
1.0
 70
  1712
 72
     0
 73
     0
 74
     0
  7

 75
     0
 76
     0
 77
     5
 78
   300
147
1.0
148
0.0
149
0.0
100
AcDbLayout
  1
Model
 70
     1
 71
     0
 10
-4455.0
 20
-3150.0
 11
4455.0
 21
3150.0
 12
0.0
 22
0.0
 32
0.0
 14
-4455.0
 24
-3150.0
 34
0.0
 15
4455.0
 25
3150.0
 35
0.0
146
0.0
 13
0.0
 23
0.0
 33
0.0
 16
1.0
 26
0.0
 36
0.0
 17
0.0
 27
1.0
 37
0.0
 76
     0
330
1F
331
29
  0
MATERIAL
  5
3D
102
{ACAD_REACTORS
330
3B
102
}
330
3B
100
AcDbMaterial
  1
ByBlock
 72
     1
 94
      127
  0
MATERIAL
  5
3C
102
{ACAD_REACTORS
330
3B
102
}
330
3B
100
AcDbMaterial
  1
ByLayer
 72
     1
 94
      127
  0
MATERIAL
  5
3E
102
{ACAD_REACTORS
330
3B
102
}
330
3B
100
AcDbMaterial
  1
Global
 72
     1
 94
      127
  0
MLINESTYLE
  5
18
102
{ACAD_REACTORS
330
17
102
}
330
17
100
AcDbMlineStyle
  2
Standard
 70
     0
  3

 62
   256
 51
90.0
 52
90.0
 71
     2
 49
0.5
 62
   256
  6
BYLAYER
 49
-0.5
 62
   256
  6
BYLAYER
  0
ACDBPLACEHOLDER
  5
F
102
{ACAD_REACTORS
330
E
102
}
330
E
  0
VISUALSTYLE
  5
2F
102
{ACAD_REACTORS
330
2A
102
}
330
2A
100
AcDbVisualStyle
  2
2dWireframe
 70
     4
177
     2
291
     0
 71
     0
176
     1
 72
     2
176
     1
 73
     0
176
     1
 90
        0
176
     1
 40
-0.6
176
     1
 41
-30.0
176
     1
 62
     5
 63
     7
421
 16777215
176
     1
 74
     1
176
     1
 91
        4
176
     1
 64
     7
176
     1
 65
   257
176
     1
 75
     1
176
     1
175
     1
176
     1
 42
1.0
176
     1
 92
        0
176
     1
 66
   257
176
     1
 43
1.0
176
     1
 76
     1
176
     1
 77
     6
176
     1
 78
     2
176
     1
 67
     7
176
     1
 79
     5
176
     1
170
     0
176
     1
171
     0
176
     1
290
     0
176
     1
 93
        1
176
     1
 44
0.0
176
     1
173
     0
176
     1
  0
VISUALSTYLE
  5
31
102
{ACAD_REACTORS
330
2A
102
}
330
2A
100
AcDbVisualStyle
  2
3D Hidden
 70
     6
177
     2
291
     0
 71
     1
176
     1
 72
     2
176
     1
 73
     2
176
     1
 90
        0
176
     1
 40
-0.6
176
     1
 41
-30.0
176
     1
 62
     5
 63
     7
421
 16777215
176
     1
 74
     2
176
     1
 91
        2
176
     1
 64
     7
176
     1
 65
   257
176
     1
 75
     2
176
     1
175
     1
176
     1
 42
40.0
176
     1
 92
        0
176
     1
 66
   257
176
     1
 43
1.0
176
     1
 76
     1
176
     1
 77
     6
176
     1
 78
     2
176
     1
 67
     7
176
     1
 79
     3
176
     1
170
     0
176
     1
171
     0
176
     1
290
     0
176
     1
 93
        1
176
     1
 44
0.0
176
     1
173
     0
176
     1
  0
VISUALSTYLE
  5
30
102
{ACAD_REACTORS
330
2A
102
}
330
2A
100
AcDbVisualStyle
  2
3dWireframe
 70
     5
177
     2
291
     0
 71
     0
176
     1
 72
     2
176
     1
 73
     0
176
     1
 90
        0
176
     1
 40
-0.6
176
     1
 41
-30.0
176
     1
 62
     5
 63
     7
421
 16777215
176
     1
 74
     1
176
     1
 91
        4
176
     1
 64
     7
176
     1
 65
   257
176
     1
 75
     1
176
     1
175
     1
176
     1
 42
1.0
176
     1
 92
        0
176
     1
 66
   257
176
     1
 43
1.0
176
     1
 76
     1
176
     1
 77
     6
176
     1
 78
     2
176
     1
 67
     7
176
     1
 79
     5
176
     1
170
     0
176
     1
171
     0
176
     1
290
     0
176
     1
 93
        1
176
     1
 44
0.0
176
     1
173
     0
176
     1
  0
VISUALSTYLE
  5
32
102
{ACAD_REACTORS
330
2A
102
}
330
2A
100
AcDbVisualStyle
  2
Basic
 70
     7
177
     2
291
     1
 71
     1
176
     1
 72
     0
176
     1
 73
     1
176
     1
 90
        0
176
     1
 40
-0.6
176
     1
 41
-30.0
176
     1
 62
     5
 63
     7
421
 16777215
176
     1
 74
     0
176
     1
 91
        4
176
     1
 64
     7
176
     1
 65
   257
176
     1
 75
     1
176
     1
175
     1
176
     1
 42
1.0
176
     1
 92
        8
176
     1
 66
     7
176
     1
 43
1.0
176
     1
 76
     1
176
     1
 77
     6
176
     1
 78
     2
176
     1
 67
     7
176
     1
 79
     5
176
     1
170
     0
176
     1
171
     0
176
     1
290
     0
176
     1
 93
        1
176
     1
 44
0.0
176
     1
173
     0
176
     1
  0
VISUALSTYLE
  5
36
102
{ACAD_REACTORS
330
2A
102
}
330
2A
100
AcDbVisualStyle
  2
Brighten
 70
    12
177
     2
291
     1
 71
     2
176
     1
 72
     2
176
     1
 73
     0
176
     1
 90
        0
176
     1
 40
-0.6
176
     1
 41
-30.0
176
     1
 62
     5
 63
     7
421
 16777215
176
     1
 74
     1
176
     1
 91
        4
176
     1
 64
     7
176
     1
 65
   257
176
     1
 75
     1
176
     1
175
     1
176
     1
 42
1.0
176
     1
 92
        8
176
     1
 66
     7
176
     1
 43
1.0
176
     1
 76
     1
176
     1
 77
     6
176
     1
 78
     2
176
     1
 67
     7
176
     1
 79
     5
176
     1
170
     0
176
     1
171
     0
176
     1
290
     0
176
     1
 93
        1
176
     1
 44
50.0
176
     1
173
     0
176
     1
  0
VISUALSTYLE
  5
3A
102
{ACAD_REACTORS
330
2A
102
}
330
2A
100
AcDbVisualStyle
  2
ColorChange
 70
    16
177
     2
291
     1
 71
     2
176
     1
 72
     2
176
     1
 73
     3
176
     1
 90
        0
176
     1
 40
-0.6
176
     1
 41
-30.0
176
     1
 62
     5
 63
     8
421
  8421504
176
     1
 74
     1
176
     1
 91
        4
176
     1
 64
     7
176
     1
 65
   257
176
     1
 75
     1
176
     1
175
     1
176
     1
 42
1.0
176
     1
 92
        8
176
     1
 66
     8
424
  8421504
176
     1
 43
1.0
176
     1
 76
     1
176
     1
 77
     6
176
     1
 78
     2
176
     1
 67
     7
176
     1
 79
     5
176
     1
170
     0
176
     1
171
     0
176
     1
290
     0
176
     1
 93
        1
176
     1
 44
0.0
176
     1
173
     0
176
     1
  0
VISUALSTYLE
  5
34
102
{ACAD_REACTORS
330
2A
102
}
330
2A
100
AcDbVisualStyle
  2
Conceptual
 70
     9
177
     2
291
     0
 71
     3
176
     1
 72
     2
176
     1
 73
     0
176
     1
 90
        0
176
     1
 40
-0.6
176
     1
 41
-30.0
176
     1
 62
     5
 63
     7
421
 16777215
176
     1
 74
     2
176
     1
 91
        2
176
     1
 64
     7
176
     1
 65
   257
176
     1
 75
     1
176
     1
175
     1
176
     1
 42
40.0
176
     1
 92
        8
176
     1
 66
     7
176
     1
 43
1.0
176
     1
 76
     1
176
     1
 77
     6
176
     1
 78
     2
176
     1
 67
     7
176
     1
 79
     3
176
     1
170
     0
176
     1
171
     0
176
     1
290
     0
176
     1
 93
        1
176
     1
 44
0.0
176
     1
173
     0
176
     1
  0
VISUALSTYLE
  5
35
102
{ACAD_REACTORS
330
2A
102
}
330
2A
100
AcDbVisualStyle
  2
Dim
 70
    11
177
     2
291
     1
 71
     2
176
     1
 72
     2
176
     1
 73
     0
176
     1
 90
        0
176
     1
 40
-0.6
176
     1
 41
-30.0
176
     1
 62
     5
 63
     7
421
 16777215
176
     1
 74
     1
176
     1
 91
        4
176
     1
 64
     7
176
     1
 65
   257
176
     1
 75
     1
176
     1
175
     1
176
     1
 42
1.0
176
     1
 92
        8
176
     1
 66
     7
176
     1
 43
1.0
176
     1
 76
     1
176
     1
 77
     6
176
     1
 78
     2
176
     1
 67
     7
176
     1
 79
     5
176
     1
170
     0
176
     1
171
     0
176
     1
290
     0
176
     1
 93
        1
176
     1
 44
-50.0
176
     1
173
     0
176
     1
  0
VISUALSTYLE
  5
39
102
{ACAD_REACTORS
330
2A
102
}
330
2A
100
AcDbVisualStyle
  2
Facepattern
 70
    15
177
     2
291
     1
 71
     2
176
     1
 72
     2
176
     1
 73
     0
176
     1
 90
        0
176
     1
 40
-0.6
176
     1
 41
-30.0
176
     1
 62
     5
 63
     7
421
 16777215
176
     1
 74
     1
176
     1
 91
        4
176
     1
 64
     7
176
     1
 65
   257
176
     1
 75
     1
176
     1
175
     1
176
     1
 42
1.0
176
     1
 92
        8
176
     1
 66
     7
176
     1
 43
1.0
176
     1
 76
     1
176
     1
 77
     6
176
     1
 78
     2
176
     1
 67
     7
176
     1
 79
     5
176
     1
170
     0
176
     1
171
     0
176
     1
290
     0
176
     1
 93
        1
176
     1
 44
0.0
176
     1
173
     0
176
     1
  0
VISUALSTYLE
  5
2B
102
{ACAD_REACTORS
330
2A
102
}
330
2A
100
AcDbVisualStyle
  2
Flat
 70
     0
177
     2
291
     1
 71
     2
176
     1
 72
     1
176
     1
 73
     1
176
     1
 90
        2
176
     1
 40
-0.6
176
     1
 41
30.0
176
     1
 62
     5
 63
     7
421
 16777215
176
     1
 74
     0
176
     1
 91
        4
176
     1
 64
     7
176
     1
 65
   257
176
     1
 75
     1
176
     1
175
     1
176
     1
 42
1.0
176
     1
 92
        8
176
     1
 66
     7
176
     1
 43
1.0
176
     1
 76
     1
176
     1
 77
     6
176
     1
 78
     2
176
     1
 67
     7
176
     1
 79
     5
176
     1
170
     0
176
     1
171
     0
176
     1
290
     0
176
     1
 93
       13
176
     1
 44
0.0
176
     1
173
     0
176
     1
  0
VISUALSTYLE
  5
2C
102
{ACAD_REACTORS
330
2A
102
}
330
2A
100
AcDbVisualStyle
  2
FlatWithEdges
 70
     1
177
     2
291
     1
 71
     2
176
     1
 72
     1
176
     1
 73
     1
176
     1
 90
        2
176
     1
 40
-0.6
176
     1
 41
30.0
176
     1
 62
     5
 63
     7
421
 16777215
176
     1
 74
     1
176
     1
 91
        4
176
     1
 64
     7
176
     1
 65
   257
176
     1
 75
     1
176
     1
175
     1
176
     1
 42
1.0
176
     1
 92
        0
176
     1
 66
   257
176
     1
 43
1.0
176
     1
 76
     1
176
     1
 77
     6
176
     1
 78
     2
176
     1
 67
     7
176
     1
 79
     5
176
     1
170
     0
176
     1
171
     0
176
     1
290
     0
176
     1
 93
       13
176
     1
 44
0.0
176
     1
173
     0
176
     1
  0
VISUALSTYLE
  5
2D
102
{ACAD_REACTORS
330
2A
102
}
330
2A
100
AcDbVisualStyle
  2
Gouraud
 70
     2
177
     2
291
     1
 71
     2
176
     1
 72
     2
176
     1
 73
     1
176
     1
 90
        2
176
     1
 40
-0.6
176
     1
 41
30.0
176
     1
 62
     5
 63
     7
421
 16777215
176
     1
 74
     0
176
     1
 91
        4
176
     1
 64
     7
176
     1
 65
   257
176
     1
 75
     1
176
     1
175
     1
176
     1
 42
1.0
176
     1
 92
        0
176
     1
 66
     7
176
     1
 43
1.0
176
     1
 76
     1
176
     1
 77
     6
176
     1
 78
     2
176
     1
 67
     7
176
     1
 79
     5
176
     1
170
     0
176
     1
171
     0
176
     1
290
     0
176
     1
 93
       13
176
     1
 44
0.0
176
     1
173
     0
176
     1
  0
VISUALSTYLE
  5
2E
102
{ACAD_REACTORS
330
2A
102
}
330
2A
100
AcDbVisualStyle
  2
GouraudWithEdges
 70
     3
177
     2
291
     1
 71
     2
176
     1
 72
     2
176
     1
 73
     1
176
     1
 90
        2
176
     1
 40
-0.6
176
     1
 41
30.0
176
     1
 62
     5
 63
     7
421
 16777215
176
     1
 74
     1
176
     1
 91
        4
176
     1
 64
     7
176
     1
 65
   257
176
     1
 75
     1
176
     1
175
     1
176
     1
 42
1.0
176
     1
 92
        0
176
     1
 66
   257
176
     1
 43
1.0
176
     1
 76
     1
176
     1
 77
     6
176
     1
 78
     2
176
     1
 67
     7
176
     1
 79
     5
176
     1
170
     0
176
     1
171
     0
176
     1
290
     0
176
     1
 93
       13
176
     1
 44
0.0
176
     1
173
     0
176
     1
  0
VISUALSTYLE
  5
38
102
{ACAD_REACTORS
330
2A
102
}
330
2A
100
AcDbVisualStyle
  2
Linepattern
 70
    14
177
     2
291
     1
 71
     2
176
     1
 72
     2
176
     1
 73
     0
176
     1
 90
        0
176
     1
 40
-0.6
176
     1
 41
-30.0
176
     1
 62
     5
 63
     7
421
 16777215
176
     1
 74
     1
176
     1
 91
        4
176
     1
 64
     7
176
     1
 65
   257
176
     1
 75
     7
176
     1
175
     7
176
     1
 42
1.0
176
     1
 92
        8
176
     1
 66
     7
176
     1
 43
1.0
176
     1
 76
     1
176
     1
 77
     6
176
     1
 78
     2
176
     1
 67
     7
176
     1
 79
     5
176
     1
170
     0
176
     1
171
     0
176
     1
290
     0
176
     1
 93
        1
176
     1
 44
0.0
176
     1
173
     0
176
     1
  0
VISUALSTYLE
  5
33
102
{ACAD_REACTORS
330
2A
102
}
330
2A
100
AcDbVisualStyle
  2
Realistic
 70
     8
177
     2
291
     0
 71
     2
176
     1
 72
     2
176
     1
 73
     0
176
     1
 90
        0
176
     1
 40
-0.6
176
     1
 41
-30.0
176
     1
 62
     5
 63
     7
421
 16777215
176
     1
 74
     1
176
     1
 91
        0
176
     1
 64
     7
176
     1
 65
   257
176
     1
 75
     1
176
     1
175
     1
176
     1
 42
1.0
176
     1
 92
        8
176
     1
 66
     8
424
  7895160
176
     1
 43
1.0
176
     1
 76
     1
176
     1
 77
     6
176
     1
 78
     2
176
     1
 67
     7
176
     1
 79
     5
176
     1
170
     0
176
     1
171
     0
176
     1
290
     0
176
     1
 93
       13
176
     1
 44
0.0
176
     1
173
     0
176
     1
  0
VISUALSTYLE
  5
37
102
{ACAD_REACTORS
330
2A
102
}
330
2A
100
AcDbVisualStyle
  2
Thicken
 70
    13
177
     2
291
     1
 71
     2
176
     1
 72
     2
176
     1
 73
     0
176
     1
 90
        0
176
     1
 40
-0.6
176
     1
 41
-30.0
176
     1
 62
     5
 63
     7
421
 16777215
176
     1
 74
     1
176
     1
 91
        4
176
     1
 64
     7
176
     1
 65
   257
176
     1
 75
     1
176
     1
175
     1
176
     1
 42
1.0
176
     1
 92
       12
176
     1
 66
     7
176
     1
 43
1.0
176
     1
 76
     1
176
     1
 77
     6
176
     1
 78
     2
176
     1
 67
     7
176
     1
 79
     5
176
     1
170
     0
176
     1
171
     0
176
     1
290
     0
176
     1
 93
        1
176
     1
 44
0.0
176
     1
173
     0
176
     1
  0
ENDSEC
  0
EOF
