  0
SECTION
  2
HEADER
  9
$ACADVER
  1
AC1024
  9
$ACADMAINTVER
 70
     6
  9
$DWGCODEPAGE
  3
ANSI_932
  9
$INSBASE
 10
0.0
 20
0.0
 30
0.0
  9
$EXTMIN
 10
-4455.0
 20
-3150.0
 30
0.0
  9
$EXTMAX
 10
4455.0
 20
3150.0
 30
0.0
  9
$LIMMIN
 10
-4455.0
 20
-3150.0
  9
$LIMMAX
 10
4455.0
 20
3150.0
  9
$ORTHOMODE
 70
     0
  9
$REGENMODE
 70
     1
  9
$FILLMODE
 70
     1
  9
$QTEXTMODE
 70
     0
  9
$MIRRTEXT
 70
     1
  9
$LTSCALE
 40
30.0
  9
$ATTMODE
 70
     1
  9
$TEXTSIZE
 40
2.5
  9
$TRACEWID
 40
1.0
  9
$TEXTSTYLE
  7
Standard
  9
$CLAYER
  8
0
  9
$CELTYPE
  6
ByLayer
  9
$CECOLOR
 62
   256
  9
$CELTSCALE
 40
1.0
  9
$DISPSILH
 70
     0
  9
$DIMSCALE
 40
1.0
  9
$DIMASZ
 40
2.5
  9
$DIMEXO
 40
0.625
  9
$DIMDLI
 40
3.75
  9
$DIMRND
 40
0.0
  9
$DIMDLE
 40
0.0
  9
$DIMEXE
 40
1.25
  9
$DIMTP
 40
0.0
  9
$DIMTM
 40
0.0
  9
$DIMTXT
 40
2.5
  9
$DIMCEN
 40
2.5
  9
$DIMTSZ
 40
0.0
  9
$DIMTOL
 70
     0
  9
$DIMLIM
 70
     0
  9
$DIMTIH
 70
     0
  9
$DIMTOH
 70
     0
  9
$DIMSE1
 70
     0
  9
$DIMSE2
 70
     0
  9
$DIMTAD
 70
     1
  9
$DIMZIN
 70
     8
  9
$DIMBLK
  1

  9
$DIMASO
 70
     1
  9
$DIMSHO
 70
     1
  9
$DIMPOST
  1

  9
$DIMAPOST
  1

  9
$DIMALT
 70
     0
  9
$DIMALTD
 70
     3
  9
$DIMALTF
 40
0.03937007874016
  9
$DIMLFAC
 40
1.0
  9
$DIMTOFL
 70
     1
  9
$DIMTVP
 40
0.0
  9
$DIMTIX
 70
     0
  9
$DIMSOXD
 70
     0
  9
$DIMSAH
 70
     0
  9
$DIMBLK1
  1

  9
$DIMBLK2
  1

  9
$DIMSTYLE
  2
ISO-25
  9
$DIMCLRD
 70
     0
  9
$DIMCLRE
 70
     0
  9
$DIMCLRT
 70
     0
  9
$DIMTFAC
 40
1.0
  9
$DIMGAP
 40
0.625
  9
$DIMJUST
 70
     0
  9
$DIMSD1
 70
     0
  9
$DIMSD2
 70
     0
  9
$DIMTOLJ
 70
     0
  9
$DIMTZIN
 70
     8
  9
$DIMALTZ
 70
     0
  9
$DIMALTTZ
 70
     0
  9
$DIMUPT
 70
     0
  9
$DIMDEC
 70
     2
  9
$DIMTDEC
 70
     2
  9
$DIMALTU
 70
     2
  9
$DIMALTTD
 70
     3
  9
$DIMTXSTY
  7
Standard
  9
$DIMAUNIT
 70
     0
  9
$DIMADEC
 70
     0
  9
$DIMALTRND
 40
0.0
  9
$DIMAZIN
 70
     0
  9
$DIMDSEP
 70
    44
  9
$DIMATFIT
 70
     3
  9
$DIMFRAC
 70
     0
  9
$DIMLDRBLK
  1

  9
$DIMLUNIT
 70
     2
  9
$DIMLWD
 70
    -2
  9
$DIMLWE
 70
    -2
  9
$DIMTMOVE
 70
     0
  9
$DIMFXL
 40
1.0
  9
$DIMFXLON
 70
     0
  9
$DIMJOGANG
 40
0.7853981633974483
  9
$DIMTFILL
 70
     0
  9
$DIMTFILLCLR
 70
     0
  9
$DIMARCSYM
 70
     0
  9
$DIMLTYPE
  6

  9
$DIMLTEX1
  6

  9
$DIMLTEX2
  6

  9
$DIMTXTDIRECTION
 70
     0
  9
$LUNITS
 70
     2
  9
$LUPREC
 70
     4
  9
$SKETCHINC
 40
1.0
  9
$FILLETRAD
 40
10.0
  9
$AUNITS
 70
     0
  9
$AUPREC
 70
     0
  9
$MENU
  1
.
  9
$ELEVATION
 40
0.0
  9
$PELEVATION
 40
0.0
  9
$THICKNESS
 40
0.0
  9
$LIMCHECK
 70
     0
  9
$CHAMFERA
 40
0.0
  9
$CHAMFERB
 40
0.0
  9
$CHAMFERC
 40
0.0
  9
$CHAMFERD
 40
0.0
  9
$SKPOLY
 70
     0
  9
$TDCREATE
 40
2458737.48365485
  9
$TDUCREATE
 40
2458737.10865485
  9
$TDUPDATE
 40
2458737.483655208
  9
$TDUUPDATE
 40
2458737.108655208
  9
$TDINDWG
 40
0.0000000116
  9
$TDUSRTIMER
 40
0.0000000116
  9
$USRTIMER
 70
     1
  9
$ANGBASE
 50
0.0
  9
$ANGDIR
 70
     0
  9
$PDMODE
 70
     0
  9
$PDSIZE
 40
0.0
  9
$PLINEWID
 40
0.0
  9
$SPLFRAME
 70
     0
  9
$SPLINETYPE
 70
     6
  9
$SPLINESEGS
 70
     8
  9
$HANDSEED
  5
1D8
  9
$SURFTAB1
 70
     6
  9
$SURFTAB2
 70
     6
  9
$SURFTYPE
 70
     6
  9
$SURFU
 70
     6
  9
$SURFV
 70
     6
  9
$UCSBASE
  2

  9
$UCSNAME
  2

  9
$UCSORG
 10
0.0
 20
0.0
 30
0.0
  9
$UCSXDIR
 10
1.0
 20
0.0
 30
0.0
  9
$UCSYDIR
 10
0.0
 20
1.0
 30
0.0
  9
$UCSORTHOREF
  2

  9
$UCSORTHOVIEW
 70
     0
  9
$UCSORGTOP
 10
0.0
 20
0.0
 30
0.0
  9
$UCSORGBOTTOM
 10
0.0
 20
0.0
 30
0.0
  9
$UCSORGLEFT
 10
0.0
 20
0.0
 30
0.0
  9
$UCSORGRIGHT
 10
0.0
 20
0.0
 30
0.0
  9
$UCSORGFRONT
 10
0.0
 20
0.0
 30
0.0
  9
$UCSORGBACK
 10
0.0
 20
0.0
 30
0.0
  9
$PUCSBASE
  2

  9
$PUCSNAME
  2

  9
$PUCSORG
 10
0.0
 20
0.0
 30
0.0
  9
$PUCSXDIR
 10
1.0
 20
0.0
 30
0.0
  9
$PUCSYDIR
 10
0.0
 20
1.0
 30
0.0
  9
$PUCSORTHOREF
  2

  9
$PUCSORTHOVIEW
 70
     0
  9
$PUCSORGTOP
 10
0.0
 20
0.0
 30
0.0
  9
$PUCSORGBOTTOM
 10
0.0
 20
0.0
 30
0.0
  9
$PUCSORGLEFT
 10
0.0
 20
0.0
 30
0.0
  9
$PUCSORGRIGHT
 10
0.0
 20
0.0
 30
0.0
  9
$PUCSORGFRONT
 10
0.0
 20
0.0
 30
0.0
  9
$PUCSORGBACK
 10
0.0
 20
0.0
 30
0.0
  9
$USERI1
 70
     0
  9
$USERI2
 70
     0
  9
$USERI3
 70
     0
  9
$USERI4
 70
     0
  9
$USERI5
 70
     0
  9
$USERR1
 40
0.0
  9
$USERR2
 40
0.0
  9
$USERR3
 40
0.0
  9
$USERR4
 40
0.0
  9
$USERR5
 40
0.0
  9
$WORLDVIEW
 70
     1
  9
$SHADEDGE
 70
     3
  9
$SHADEDIF
 70
    70
  9
$TILEMODE
 70
     1
  9
$MAXACTVP
 70
    64
  9
$PINSBASE
 10
0.0
 20
0.0
 30
0.0
  9
$PLIMCHECK
 70
     0
  9
$PEXTMIN
 10
1.000000000000000E+20
 20
1.000000000000000E+20
 30
1.000000000000000E+20
  9
$PEXTMAX
 10
-1.000000000000000E+20
 20
-1.000000000000000E+20
 30
-1.000000000000000E+20
  9
$PLIMMIN
 10
0.0
 20
0.0
  9
$PLIMMAX
 10
420.0
 20
297.0
  9
$UNITMODE
 70
     0
  9
$VISRETAIN
 70
     1
  9
$PLINEGEN
 70
     0
  9
$PSLTSCALE
 70
     1
  9
$TREEDEPTH
 70
  3020
  9
$CMLSTYLE
  2
Standard
  9
$CMLJUST
 70
     0
  9
$CMLSCALE
 40
20.0
  9
$PROXYGRAPHICS
 70
     1
  9
$MEASUREMENT
 70
     1
  9
$CELWEIGHT
370
    -1
  9
$ENDCAPS
280
     0
  9
$JOINSTYLE
280
     0
  9
$LWDISPLAY
290
     0
  9
$INSUNITS
 70
     4
  9
$HYPERLINKBASE
  1

  9
$STYLESHEET
  1

  9
$XEDIT
290
     1
  9
$CEPSNTYPE
380
     0
  9
$PSTYLEMODE
290
     1
  9
$FINGERPRINTGUID
  2
{287A6E78-90B5-4BF0-A152-27671ABADBB0}
  9
$VERSIONGUID
  2
{FAEB1C32-E019-11D5-929B-00C0DF256EC4}
  9
$EXTNAMES
290
     1
  9
$PSVPSCALE
 40
0.0
  9
$OLESTARTUP
290
     0
  9
$SORTENTS
280
   127
  9
$INDEXCTL
280
     0
  9
$HIDETEXT
280
     1
  9
$XCLIPFRAME
280
     2
  9
$HALOGAP
280
     0
  9
$OBSCOLOR
 70
   257
  9
$OBSLTYPE
280
     0
  9
$INTERSECTIONDISPLAY
280
     0
  9
$INTERSECTIONCOLOR
 70
   257
  9
$DIMASSOC
280
     2
  9
$PROJECTNAME
  1

  9
$CAMERADISPLAY
290
     0
  9
$LENSLENGTH
 40
50.0
  9
$CAMERAHEIGHT
 40
0.0
  9
$STEPSPERSEC
 40
2.0
  9
$STEPSIZE
 40
6.0
  9
$3DDWFPREC
 40
2.0
  9
$PSOLWIDTH
 40
5.0
  9
$PSOLHEIGHT
 40
80.0
  9
$LOFTANG1
 40
1.570796326794897
  9
$LOFTANG2
 40
1.570796326794897
  9
$LOFTMAG1
 40
0.0
  9
$LOFTMAG2
 40
0.0
  9
$LOFTPARAM
 70
     7
  9
$LOFTNORMALS
280
     1
  9
$LATITUDE
 40
37.795
  9
$LONGITUDE
 40
-122.394
  9
$NORTHDIRECTION
 40
0.0
  9
$TIMEZONE
 70
 -8000
  9
$LIGHTGLYPHDISPLAY
280
     1
  9
$TILEMODELIGHTSYNCH
280
     1
  9
$CMATERIAL
347
44
  9
$SOLIDHIST
280
     0
  9
$SHOWHIST
280
     1
  9
$DWFFRAME
280
     2
  9
$DGNFRAME
280
     2
  9
$REALWORLDSCALE
290
     1
  9
$INTERFERECOLOR
 62
   256
  9
$CSHADOW
280
     0
  9
$SHADOWPLANELOCATION
 40
0.0
  0
ENDSEC
  0
SECTION
  2
CLASSES
  0
CLASS
  1
ACDBDICTIONARYWDFLT
  2
AcDbDictionaryWithDefault
  3
ObjectDBX Classes
 90
        0
 91
        4
280
     0
281
     0
  0
CLASS
  1
VISUALSTYLE
  2
AcDbVisualStyle
  3
ObjectDBX Classes
 90
     4095
 91
        4
280
     0
281
     0
  0
CLASS
  1
MATERIAL
  2
AcDbMaterial
  3
ObjectDBX Classes
 90
     1153
 91
        4
280
     0
281
     0
  0
CLASS
  1
SCALE
  2
AcDbScale
  3
ObjectDBX Classes
 90
     1153
 91
        4
280
     0
281
     0
  0
CLASS
  1
TABLESTYLE
  2
AcDbTableStyle
  3
ObjectDBX Classes
 90
     4095
 91
        4
280
     0
281
     0
  0
CLASS
  1
MLEADERSTYLE
  2
AcDbMLeaderStyle
  3
ACDB_MLEADERSTYLE_CLASS
 90
     4095
 91
        4
280
     0
281
     0
  0
CLASS
  1
SUN
  2
AcDbSun
  3
SCENEOE
 90
     1153
 91
        4
280
     0
281
     0
  0
CLASS
  1
DICTIONARYVAR
  2
AcDbDictionaryVar
  3
ObjectDBX Classes
 90
        0
 91
        4
280
     0
281
     0
  0
CLASS
  1
CELLSTYLEMAP
  2
AcDbCellStyleMap
  3
ObjectDBX Classes
 90
     1152
 91
        4
280
     0
281
     0
  0
ENDSEC
  0
SECTION
  2
TABLES
  0
TABLE
  2
VPORT
  5
8
330
0
100
AcDbSymbolTable
 70
     1
  0
VPORT
  5
29
330
8
100
AcDbSymbolTableRecord
100
AcDbViewportTableRecord
  2
*Active
 70
     0
 10
0.0
 20
0.0
 11
1.0
 21
1.0
 12
0.0
 22
0.0
 13
0.0
 23
0.0
 14
10.0
 24
10.0
 15
10.0
 25
10.0
 16
0.0
 26
0.0
 36
1.0
 17
0.0
 27
0.0
 37
0.0
 40
6930.000000000001
 41
1.414285714285714
 42
50.0
 43
0.0
 44
0.0
 50
0.0
 51
0.0
 71
     0
 72
 10000
 73
     1
 74
     3
 75
     0
 76
     0
 77
     0
 78
     0
281
     0
 65
     1
110
0.0
120
0.0
130
0.0
111
1.0
121
0.0
131
0.0
112
0.0
122
1.0
132
0.0
 79
     0
146
0.0
348
2F
 60
     3
 61
     5
292
     1
282
     1
141
0.0
142
0.0
 63
   250
361
6D
  0
ENDTAB
  0
TABLE
  2
LTYPE
  5
5
330
0
100
AcDbSymbolTable
 70
     2
  0
LTYPE
  5
14
330
5
100
AcDbSymbolTableRecord
100
AcDbLinetypeTableRecord
  2
ByBlock
 70
     0
  3

 72
    65
 73
     0
 40
0.0
  0
LTYPE
  5
15
330
5
100
AcDbSymbolTableRecord
100
AcDbLinetypeTableRecord
  2
ByLayer
 70
     0
  3

 72
    65
 73
     0
 40
0.0
  0
LTYPE
  5
16
330
5
100
AcDbSymbolTableRecord
100
AcDbLinetypeTableRecord
  2
Continuous
 70
     0
  3
Solid line
 72
    65
 73
     0
 40
0.0
  0
LTYPE
  5
6F
330
5
100
AcDbSymbolTableRecord
100
AcDbLinetypeTableRecord
  2
JWW_DASHED1
 70
     0
  3
-  --  --  --  --  --  --  --  -
 72
    65
 73
     2
 40
1.693333333333333
 49
0.8466666666666667
 74
     0
 49
-0.8466666666666667
 74
     0
  0
ENDTAB
  0
TABLE
  2
LAYER
  5
2
330
0
100
AcDbSymbolTable
 70
     3
  0
LAYER
  5
10
330
2
100
AcDbSymbolTableRecord
100
AcDbLayerTableRecord
  2
0
 70
     0
 62
     7
  6
Continuous
370
    -3
390
F
347
46
  0
LAYER
  5
70
330
2
100
AcDbSymbolTableRecord
100
AcDbLayerTableRecord
  2
0-0
 70
     0
 62
     7
  6
Continuous
370
    -3
390
F
347
46
  0
LAYER
  5
71
330
2
100
AcDbSymbolTableRecord
100
AcDbLayerTableRecord
  2
寸法
 70
     0
 62
     7
  6
Continuous
370
    -3
390
F
347
46
  0
ENDTAB
  0
TABLE
  2
STYLE
  5
3
330
0
100
AcDbSymbolTable
 70
     2
  0
STYLE
  5
11
330
3
100
AcDbSymbolTableRecord
100
AcDbTextStyleTableRecord
  2
Standard
 70
     0
 40
0.0
 41
1.0
 50
0.0
 71
     0
 42
2.5
  3
txt
  4

  0
STYLE
  5
6E
330
3
100
AcDbSymbolTableRecord
100
AcDbTextStyleTableRecord
  2
ＭＳ ゴシック
 70
     0
 40
1.0
 41
1.0
 50
0.0
 71
     0
 42
2.5
  3

  4

1001
ACAD
1000
MS Gothic
1071
    32817
  0
ENDTAB
  0
TABLE
  2
VIEW
  5
6
330
0
100
AcDbSymbolTable
 70
     0
  0
ENDTAB
  0
TABLE
  2
UCS
  5
7
330
0
100
AcDbSymbolTable
 70
     0
  0
ENDTAB
  0
TABLE
  2
APPID
  5
9
330
0
100
AcDbSymbolTable
 70
     1
  0
APPID
  5
12
330
9
100
AcDbSymbolTableRecord
100
AcDbRegAppTableRecord
  2
ACAD
 70
     0
  0
ENDTAB
  0
TABLE
  2
DIMSTYLE
  5
A
330
0
100
AcDbSymbolTable
 70
     1
100
AcDbDimStyleTable
  0
DIMSTYLE
105
27
330
A
100
AcDbSymbolTableRecord
100
AcDbDimStyleTableRecord
  2
ISO-25
 70
     0
 41
2.5
 42
0.625
 43
3.75
 44
1.25
 73
     0
 74
     0
 77
     1
 78
     8
140
2.5
141
2.5
143
0.03937007874016
147
0.625
171
     3
172
     1
178
     0
271
     2
272
     2
274
     3
278
    44
283
     0
284
     8
340
11
  0
ENDTAB
  0
TABLE
  2
BLOCK_RECORD
  5
1
330
0
100
AcDbSymbolTable
 70
     1
  0
BLOCK_RECORD
  5
1F
330
1
100
AcDbSymbolTableRecord
100
AcDbBlockTableRecord
  2
*Model_Space
340
22
 70
     0
280
     1
281
     0
  0
BLOCK_RECORD
  5
1B
330
1
100
AcDbSymbolTableRecord
100
AcDbBlockTableRecord
  2
*Paper_Space
340
1E
 70
     0
280
     1
281
     0
  0
BLOCK_RECORD
  5
23
330
1
100
AcDbSymbolTableRecord
100
AcDbBlockTableRecord
  2
*Paper_Space0
340
26
 70
     0
280
     1
281
     0
  0
ENDTAB
  0
ENDSEC
  0
SECTION
  2
BLOCKS
  0
BLOCK
  5
20
330
1F
100
AcDbEntity
  8
0
100
AcDbBlockBegin
  2
*Model_Space
 70
     0
 10
0.0
 20
0.0
 30
0.0
  3
*Model_Space
  1

  0
ENDBLK
  5
21
330
1F
100
AcDbEntity
  8
0
100
AcDbBlockEnd
  0
BLOCK
  5
1C
330
1B
100
AcDbEntity
 67
     1
  8
0
100
AcDbBlockBegin
  2
*Paper_Space
 70
     0
 10
0.0
 20
0.0
 30
0.0
  3
*Paper_Space
  1

  0
ENDBLK
  5
1D
330
1B
100
AcDbEntity
 67
     1
  8
0
100
AcDbBlockEnd
  0
BLOCK
  5
24
330
23
100
AcDbEntity
  8
0
100
AcDbBlockBegin
  2
*Paper_Space0
 70
     0
 10
0.0
 20
0.0
 30
0.0
  3
*Paper_Space0
  1

  0
ENDBLK
  5
25
330
23
100
AcDbEntity
  8
0
100
AcDbBlockEnd
  0
ENDSEC
  0
SECTION
  2
ENTITIES
  0
LINE
  5
72
330
1F
100
AcDbEntity
  8
0-0
  6
Continuous
 62
    92
370
    13
100
AcDbLine
 10
-1045.296363794459
 20
-979.9187804944208
 30
0.0
 11
-1075.296363794459
 21
-979.9187804944208
 31
0.0
  0
LINE
  5
73
330
1F
100
AcDbEntity
  8
0-0
  6
Continuous
 62
    92
370
    13
100
AcDbLine
 10
-1075.296363794459
 20
-979.9187804944208
 30
0.0
 11
-1075.296363794459
 21
1055.081219505577
 31
0.0
  0
LINE
  5
74
330
1F
100
AcDbEntity
  8
0-0
  6
Continuous
 62
    92
370
    13
100
AcDbLine
 10
-1045.296363794459
 20
-979.9187804944208
 30
0.0
 11
-1045.296363794459
 21
1055.081219505577
 31
0.0
  0
LINE
  5
75
330
1F
100
AcDbEntity
  8
0-0
  6
Continuous
 62
    92
370
    13
100
AcDbLine
 10
2004.703636205541
 20
-979.9187804944208
 30
0.0
 11
1974.703636205541
 21
-979.9187804944208
 31
0.0
  0
LINE
  5
76
330
1F
100
AcDbEntity
  8
0-0
  6
Continuous
 62
    92
370
    13
100
AcDbLine
 10
-1045.296363794459
 20
1025.081219505579
 30
0.0
 11
1974.703636205541
 21
1025.081219505579
 31
0.0
  0
LINE
  5
77
330
1F
100
AcDbEntity
  8
0-0
  6
Continuous
 62
    92
370
    13
100
AcDbLine
 10
-1075.296363794459
 20
1055.081219505577
 30
0.0
 11
2004.703636205541
 21
1055.081219505577
 31
0.0
  0
LINE
  5
78
330
1F
100
AcDbEntity
  8
0-0
  6
Continuous
 62
    92
370
    13
100
AcDbLine
 10
2004.703636205541
 20
1055.081219505577
 30
0.0
 11
2004.703636205541
 21
-979.9187804944208
 31
0.0
  0
LINE
  5
79
330
1F
100
AcDbEntity
  8
0-0
  6
Continuous
 62
    92
370
    13
100
AcDbLine
 10
1974.703636205541
 20
-979.9187804944208
 30
0.0
 11
1974.703636205541
 21
1055.081219505577
 31
0.0
  0
LINE
  5
7A
330
1F
100
AcDbEntity
  8
0-0
  6
Continuous
 62
    92
370
    13
100
AcDbLine
 10
1164.703636205541
 20
-979.9187804944218
 30
0.0
 11
1194.703636205541
 21
-979.9187804944218
 31
0.0
  0
LINE
  5
7B
330
1F
100
AcDbEntity
  8
0-0
  6
JWW_DASHED1
 62
   120
370
     5
100
AcDbLine
 10
-238.2963637944599
 20
-971.9187804944218
 30
0.0
 11
-238.2963637944599
 21
1011.081219505578
 31
0.0
  0
LINE
  5
7C
330
1F
100
AcDbEntity
  8
0-0
  6
JWW_DASHED1
 62
   120
370
     5
100
AcDbLine
 10
-1048.29636379446
 20
1011.081219505578
 30
0.0
 11
-1045.296363794459
 21
1011.081219505578
 31
0.0
  0
LINE
  5
7D
330
1F
100
AcDbEntity
  8
0-0
  6
JWW_DASHED1
 62
   120
370
     5
100
AcDbLine
 10
-1048.29636379446
 20
-971.9187804944218
 30
0.0
 11
-1048.29636379446
 21
1011.081219505578
 31
0.0
  0
LINE
  5
7E
330
1F
100
AcDbEntity
  8
0-0
  6
JWW_DASHED1
 62
   120
370
     5
100
AcDbLine
 10
-1045.296363794459
 20
-971.9187804944218
 30
0.0
 11
-1048.29636379446
 21
-971.9187804944218
 31
0.0
  0
LINE
  5
7F
330
1F
100
AcDbEntity
  8
0-0
  6
Continuous
 62
     7
370
     9
100
AcDbLine
 10
-1012.296363794459
 20
15.18121950557791
 30
0.0
 11
-1012.296363794459
 21
-44.01878049442196
 31
0.0
  0
LINE
  5
80
330
1F
100
AcDbEntity
  8
0-0
  6
Continuous
 62
     7
370
     9
100
AcDbLine
 10
-982.2963637944586
 20
-44.01878049442196
 30
0.0
 11
-982.2963637944586
 21
15.18121950557791
 31
0.0
  0
ARC
  5
81
330
1F
100
AcDbEntity
  8
0-0
  6
Continuous
 62
     7
370
     9
100
AcDbCircle
 10
-997.2963637944586
 20
15.18121950557791
 30
0.0
 40
15.0
100
AcDbArc
 50
0.0
 51
180.0
  0
ARC
  5
82
330
1F
100
AcDbEntity
  8
0-0
  6
Continuous
 62
     7
370
     9
100
AcDbCircle
 10
-997.2963637944586
 20
-44.01878049442196
 30
0.0
 40
15.0
100
AcDbArc
 50
180.0
 51
0.0
  0
ARC
  5
83
330
1F
100
AcDbEntity
  8
0-0
  6
Continuous
 62
    92
370
    13
100
AcDbCircle
 10
-1016.796363794458
 20
-73.91878049442205
 30
0.0
 40
1.5
100
AcDbArc
 50
180.0
 51
270.0
  0
LINE
  5
84
330
1F
100
AcDbEntity
  8
0-0
  6
Continuous
 62
    92
370
    13
100
AcDbLine
 10
-1018.296363794458
 20
-73.91878049442205
 30
0.0
 11
-1018.296363794458
 21
45.08121950557801
 31
0.0
  0
LINE
  5
85
330
1F
100
AcDbEntity
  8
0-0
  6
Continuous
 62
    92
370
    13
100
AcDbLine
 10
-1016.796363794458
 20
-75.41878049442239
 30
0.0
 11
-977.7963637944592
 21
-75.41878049442239
 31
0.0
  0
ARC
  5
86
330
1F
100
AcDbEntity
  8
0-0
  6
Continuous
 62
    92
370
    13
100
AcDbCircle
 10
-977.7963637944592
 20
-73.91878049442205
 30
0.0
 40
1.5
100
AcDbArc
 50
270.0
 51
0.0
  0
LINE
  5
87
330
1F
100
AcDbEntity
  8
0-0
  6
Continuous
 62
    92
370
    13
100
AcDbLine
 10
-976.2963637944588
 20
-73.91878049442205
 30
0.0
 11
-976.2963637944588
 21
45.08121950557801
 31
0.0
  0
ARC
  5
88
330
1F
100
AcDbEntity
  8
0-0
  6
Continuous
 62
    92
370
    13
100
AcDbCircle
 10
-977.7963637944592
 20
45.08121950557801
 30
0.0
 40
1.5
100
AcDbArc
 50
0.0
 51
90.00000000000001
  0
LINE
  5
89
330
1F
100
AcDbEntity
  8
0-0
  6
Continuous
 62
    92
370
    13
100
AcDbLine
 10
-977.7963637944592
 20
46.58121950557792
 30
0.0
 11
-1016.796363794458
 21
46.58121950557792
 31
0.0
  0
ARC
  5
8A
330
1F
100
AcDbEntity
  8
0-0
  6
Continuous
 62
    92
370
    13
100
AcDbCircle
 10
-1016.796363794458
 20
45.08121950557801
 30
0.0
 40
1.5
100
AcDbArc
 50
90.0
 51
180.0
  0
LINE
  5
8B
330
1F
100
AcDbEntity
  8
0-0
  6
JWW_DASHED1
 62
   120
370
     5
100
AcDbLine
 10
493.7036362055412
 20
-971.9187804944218
 30
0.0
 11
493.7036362055412
 21
1011.081219505578
 31
0.0
  0
LINE
  5
8C
330
1F
100
AcDbEntity
  8
0-0
  6
Continuous
 62
    92
370
    13
100
AcDbLine
 10
-316.2963637944588
 20
1011.081219505578
 30
0.0
 11
-316.2963637944588
 21
-971.9187804944218
 31
0.0
  0
LINE
  5
8D
330
1F
100
AcDbEntity
  8
0-0
  6
Continuous
 62
    92
370
    13
100
AcDbLine
 10
415.7036362055405
 20
1011.081219505578
 30
0.0
 11
415.7036362055405
 21
-971.9187804944218
 31
0.0
  0
LINE
  5
8E
330
1F
100
AcDbEntity
  8
0-0
  6
Continuous
 62
    92
370
    13
100
AcDbLine
 10
-1045.296363794459
 20
1011.081219505578
 30
0.0
 11
1225.703636205541
 21
1011.081219505578
 31
0.0
  0
LINE
  5
8F
330
1F
100
AcDbEntity
  8
0-0
  6
Continuous
 62
    92
370
    13
100
AcDbLine
 10
1225.703636205541
 20
1011.081219505578
 30
0.0
 11
1225.703636205541
 21
-971.9187804944218
 31
0.0
  0
LINE
  5
90
330
1F
100
AcDbEntity
  8
0-0
  6
Continuous
 62
    92
370
    13
100
AcDbLine
 10
-1045.296363794459
 20
-971.9187804944218
 30
0.0
 11
1225.703636205541
 21
-971.9187804944218
 31
0.0
  0
LINE
  5
91
330
1F
100
AcDbEntity
  8
0-0
  6
JWW_DASHED1
 62
   120
370
     5
100
AcDbLine
 10
1194.703636205541
 20
-971.9187804944218
 30
0.0
 11
1194.703636205541
 21
1025.081219505579
 31
0.0
  0
LINE
  5
92
330
1F
100
AcDbEntity
  8
0-0
  6
JWW_DASHED1
 62
   120
370
     5
100
AcDbLine
 10
1164.703636205541
 20
-971.9187804944218
 30
0.0
 11
1164.703636205541
 21
1025.081219505579
 31
0.0
  0
LINE
  5
93
330
1F
100
AcDbEntity
  8
0-0
  6
Continuous
 62
    92
370
    13
100
AcDbLine
 10
1194.703636205541
 20
-971.9187804944218
 30
0.0
 11
1194.703636205541
 21
-979.9187804944218
 31
0.0
  0
LINE
  5
94
330
1F
100
AcDbEntity
  8
0-0
  6
Continuous
 62
    92
370
    13
100
AcDbLine
 10
1164.703636205541
 20
-971.9187804944218
 30
0.0
 11
1164.703636205541
 21
-979.9187804944218
 31
0.0
  0
LINE
  5
95
330
1F
100
AcDbEntity
  8
0-0
  6
Continuous
 62
     7
370
     9
100
AcDbLine
 10
-929.7963637944601
 20
-821.9187804944218
 30
0.0
 11
-944.7963637944601
 21
-836.9187804944218
 31
0.0
  0
LINE
  5
96
330
1F
100
AcDbEntity
  8
0-0
  6
Continuous
 62
     7
370
     9
100
AcDbLine
 10
-944.7963637944601
 20
-971.9187804944218
 30
0.0
 11
-944.7963637944601
 21
1011.081219505578
 31
0.0
  0
LINE
  5
97
330
1F
100
AcDbEntity
  8
0-0
  6
Continuous
 62
     7
370
     9
100
AcDbLine
 10
-356.7963637944595
 20
-821.9187804944218
 30
0.0
 11
-341.7963637944595
 21
-836.9187804944218
 31
0.0
  0
LINE
  5
98
330
1F
100
AcDbEntity
  8
0-0
  6
Continuous
 62
     7
370
     9
100
AcDbLine
 10
-341.7963637944595
 20
-971.9187804944218
 30
0.0
 11
-341.7963637944595
 21
1011.081219505578
 31
0.0
  0
LINE
  5
99
330
1F
100
AcDbEntity
  8
0-0
  6
Continuous
 62
     7
370
     9
100
AcDbLine
 10
-944.7963637944601
 20
-836.9187804944218
 30
0.0
 11
-341.7963637944595
 21
-836.9187804944218
 31
0.0
  0
LINE
  5
9A
330
1F
100
AcDbEntity
  8
0-0
  6
Continuous
 62
     7
370
     9
100
AcDbLine
 10
-929.7963637944601
 20
-298.9187804944216
 30
0.0
 11
-944.7963637944601
 21
-313.9187804944216
 31
0.0
  0
LINE
  5
9B
330
1F
100
AcDbEntity
  8
0-0
  6
Continuous
 62
     7
370
     9
100
AcDbLine
 10
-944.7963637944601
 20
-388.9187804944216
 30
0.0
 11
-929.7963637944601
 21
-403.9187804944216
 31
0.0
  0
LINE
  5
9C
330
1F
100
AcDbEntity
  8
0-0
  6
Continuous
 62
     7
370
     9
100
AcDbLine
 10
-356.7963637944595
 20
-298.9187804944216
 30
0.0
 11
-341.7963637944595
 21
-313.9187804944216
 31
0.0
  0
LINE
  5
9D
330
1F
100
AcDbEntity
  8
0-0
  6
Continuous
 62
     7
370
     9
100
AcDbLine
 10
-341.7963637944595
 20
-388.9187804944216
 30
0.0
 11
-356.7963637944595
 21
-403.9187804944216
 31
0.0
  0
LINE
  5
9E
330
1F
100
AcDbEntity
  8
0-0
  6
Continuous
 62
     7
370
     9
100
AcDbLine
 10
-944.7963637944601
 20
-313.9187804944216
 30
0.0
 11
-341.7963637944595
 21
-313.9187804944216
 31
0.0
  0
LINE
  5
9F
330
1F
100
AcDbEntity
  8
0-0
  6
Continuous
 62
     7
370
     9
100
AcDbLine
 10
-944.7963637944601
 20
-388.9187804944216
 30
0.0
 11
-341.7963637944629
 21
-388.9187804944216
 31
0.0
  0
LINE
  5
A0
330
1F
100
AcDbEntity
  8
0-0
  6
Continuous
 62
     7
370
     9
100
AcDbLine
 10
-899.7963637944601
 20
-791.9187804944218
 30
0.0
 11
-899.7963637944601
 21
-433.9187804944216
 31
0.0
  0
LINE
  5
A1
330
1F
100
AcDbEntity
  8
0-0
  6
Continuous
 62
     7
370
     9
100
AcDbLine
 10
-899.7963637944601
 20
-791.9187804944218
 30
0.0
 11
-914.7963637944601
 21
-806.9187804944218
 31
0.0
  0
LINE
  5
A2
330
1F
100
AcDbEntity
  8
0-0
  6
Continuous
 62
     7
370
     9
100
AcDbLine
 10
-914.7963637944601
 20
-418.9187804944216
 30
0.0
 11
-899.7963637944601
 21
-433.9187804944216
 31
0.0
  0
LINE
  5
A3
330
1F
100
AcDbEntity
  8
0-0
  6
Continuous
 62
     7
370
     9
100
AcDbLine
 10
-386.7963637944595
 20
-791.9187804944218
 30
0.0
 11
-371.7963637944595
 21
-806.9187804944218
 31
0.0
  0
LINE
  5
A4
330
1F
100
AcDbEntity
  8
0-0
  6
Continuous
 62
     7
370
     9
100
AcDbLine
 10
-371.7963637944595
 20
-418.9187804944216
 30
0.0
 11
-386.7963637944595
 21
-433.9187804944216
 31
0.0
  0
LINE
  5
A5
330
1F
100
AcDbEntity
  8
0-0
  6
Continuous
 62
     7
370
     9
100
AcDbLine
 10
-899.7963637944601
 20
-433.9187804944216
 30
0.0
 11
-386.7963637944595
 21
-433.9187804944216
 31
0.0
  0
LINE
  5
A6
330
1F
100
AcDbEntity
  8
0-0
  6
Continuous
 62
     7
370
     9
100
AcDbLine
 10
-386.7963637944595
 20
-791.9187804944218
 30
0.0
 11
-386.7963637944595
 21
-433.9187804944216
 31
0.0
  0
LINE
  5
A7
330
1F
100
AcDbEntity
  8
0-0
  6
Continuous
 62
     7
370
     9
100
AcDbLine
 10
-899.7963637944601
 20
-791.9187804944218
 30
0.0
 11
-386.7963637944595
 21
-791.9187804944218
 31
0.0
  0
LINE
  5
A8
330
1F
100
AcDbEntity
  8
0-0
  6
Continuous
 62
     7
370
     9
100
AcDbLine
 10
-929.7963637944636
 20
816.0809519612699
 30
0.0
 11
-944.7967597034076
 21
831.081347870211
 31
0.0
  0
LINE
  5
A9
330
1F
100
AcDbEntity
  8
0-0
  6
Continuous
 62
     7
370
     9
100
AcDbLine
 10
-356.7963637944595
 20
816.0809519612699
 30
0.0
 11
-341.7963637944595
 21
831.0809519612699
 31
0.0
  0
ARC
  5
AA
330
1F
100
AcDbEntity
  8
0-0
  6
Continuous
 62
     7
370
     9
100
AcDbCircle
 10
-880.7837012230495
 20
966.0809519612699
 30
0.0
 40
135.0
100
AcDbArc
 50
270.0
 51
298.3577011236671
  0
ARC
  5
AB
330
1F
100
AcDbEntity
  8
0-0
  6
Continuous
 62
     7
370
     9
100
AcDbCircle
 10
-405.8090263658735
 20
966.0809519612699
 30
0.0
 40
135.0
100
AcDbArc
 50
241.6422988763328
 51
270.0
  0
ARC
  5
AC
330
1F
100
AcDbEntity
  8
0-0
  6
Continuous
 62
     7
370
     9
100
AcDbCircle
 10
-643.2963637944615
 20
526.0812195055781
 30
0.0
 40
365.0
100
AcDbArc
 50
61.64229887633292
 51
118.3577011236671
  0
LINE
  5
AD
330
1F
100
AcDbEntity
  8
0-0
  6
Continuous
 62
     7
370
     9
100
AcDbLine
 10
-944.7964132824293
 20
831.0810014492339
 30
0.0
 11
-880.7837012230495
 21
831.0810014492339
 31
0.0
  0
LINE
  5
AE
330
1F
100
AcDbEntity
  8
0-0
  6
Continuous
 62
     7
370
     9
100
AcDbLine
 10
-341.7963143064972
 20
831.0810014492339
 30
0.0
 11
-405.8090263658735
 21
831.0810014492339
 31
0.0
  0
ARC
  5
AF
330
1F
100
AcDbEntity
  8
0-0
  6
Continuous
 62
    92
370
    13
100
AcDbCircle
 10
-643.2963637944615
 20
526.0812195055781
 30
0.0
 40
350.0
100
AcDbArc
 50
61.64229887633292
 51
118.3577011236671
  0
ARC
  5
B0
330
1F
100
AcDbEntity
  8
0-0
  6
Continuous
 62
    92
370
    13
100
AcDbCircle
 10
-880.7837012230495
 20
966.0809519612699
 30
0.0
 40
150.0
100
AcDbArc
 50
270.0
 51
298.3577011236671
  0
LINE
  5
B1
330
1F
100
AcDbEntity
  8
0-0
  6
Continuous
 62
    92
370
    13
100
AcDbLine
 10
-929.7963637944636
 20
816.0809519612699
 30
0.0
 11
-880.7837012230495
 21
816.0809519612699
 31
0.0
  0
LINE
  5
B2
330
1F
100
AcDbEntity
  8
0-0
  6
Continuous
 62
    92
370
    13
100
AcDbLine
 10
-929.7963637944601
 20
-298.9187804944216
 30
0.0
 11
-929.7963637944601
 21
816.0809519612699
 31
0.0
  0
LINE
  5
B3
330
1F
100
AcDbEntity
  8
0-0
  6
Continuous
 62
    92
370
    13
100
AcDbLine
 10
-929.7963637944601
 20
-298.9187804944216
 30
0.0
 11
-356.7963637944595
 21
-298.9187804944216
 31
0.0
  0
LINE
  5
B4
330
1F
100
AcDbEntity
  8
0-0
  6
Continuous
 62
    92
370
    13
100
AcDbLine
 10
-356.7963637944595
 20
-298.9187804944216
 30
0.0
 11
-356.7963637944595
 21
816.0809519612699
 31
0.0
  0
LINE
  5
B5
330
1F
100
AcDbEntity
  8
0-0
  6
Continuous
 62
    92
370
    13
100
AcDbLine
 10
-356.7963637944595
 20
816.0809519612699
 30
0.0
 11
-405.8090263658735
 21
816.0809519612699
 31
0.0
  0
ARC
  5
B6
330
1F
100
AcDbEntity
  8
0-0
  6
Continuous
 62
    92
370
    13
100
AcDbCircle
 10
-405.8090263658735
 20
966.0809519612699
 30
0.0
 40
150.0
100
AcDbArc
 50
241.6422988763328
 51
270.0
  0
LINE
  5
B7
330
1F
100
AcDbEntity
  8
0-0
  6
Continuous
 62
    92
370
    13
100
AcDbLine
 10
-929.7963637944601
 20
-821.9187804944218
 30
0.0
 11
-356.7963637944595
 21
-821.9187804944218
 31
0.0
  0
LINE
  5
B8
330
1F
100
AcDbEntity
  8
0-0
  6
Continuous
 62
    92
370
    13
100
AcDbLine
 10
-929.7963637944601
 20
-403.9187804944216
 30
0.0
 11
-356.7963637944595
 21
-403.9187804944216
 31
0.0
  0
LINE
  5
B9
330
1F
100
AcDbEntity
  8
0-0
  6
Continuous
 62
    92
370
    13
100
AcDbLine
 10
-929.7963637944601
 20
-821.9187804944218
 30
0.0
 11
-929.7963637944601
 21
-403.9187804944216
 31
0.0
  0
LINE
  5
BA
330
1F
100
AcDbEntity
  8
0-0
  6
Continuous
 62
    92
370
    13
100
AcDbLine
 10
-356.7963637944595
 20
-821.9187804944218
 30
0.0
 11
-356.7963637944595
 21
-403.9187804944216
 31
0.0
  0
LINE
  5
BB
330
1F
100
AcDbEntity
  8
0-0
  6
JWW_DASHED1
 62
   120
370
     5
100
AcDbLine
 10
-381.9365126195217
 20
-298.9187804944263
 30
0.0
 11
-356.7963637944548
 21
-273.7786316693599
 31
0.0
  0
LINE
  5
BC
330
1F
100
AcDbEntity
  8
0-0
  6
JWW_DASHED1
 62
   120
370
     5
100
AcDbLine
 10
-424.362919490674
 20
-298.9187804944331
 30
0.0
 11
-356.7963637944459
 21
-231.3522247982064
 31
0.0
  0
LINE
  5
BD
330
1F
100
AcDbEntity
  8
0-0
  6
JWW_DASHED1
 62
   120
370
     5
100
AcDbLine
 10
-466.7893263618706
 20
-298.918780494431
 30
0.0
 11
-356.796363794451
 21
-188.9258179270106
 31
0.0
  0
LINE
  5
BE
330
1F
100
AcDbEntity
  8
0-0
  6
JWW_DASHED1
 62
   120
370
     5
100
AcDbLine
 10
-509.2157332330672
 20
-298.9187804944272
 30
0.0
 11
-356.7963637944548
 21
-146.4994110558144
 31
0.0
  0
LINE
  5
BF
330
1F
100
AcDbEntity
  8
0-0
  6
JWW_DASHED1
 62
   120
370
     5
100
AcDbLine
 10
-551.6421401042637
 20
-298.9187804944237
 30
0.0
 11
-356.7963637944561
 21
-104.0730041846152
 31
0.0
  0
LINE
  5
C0
330
1F
100
AcDbEntity
  8
0-0
  6
JWW_DASHED1
 62
   120
370
     5
100
AcDbLine
 10
-594.0685469754603
 20
-298.9187804944208
 30
0.0
 11
-356.7963637944578
 21
-61.64659731341779
 31
0.0
  0
LINE
  5
C1
330
1F
100
AcDbEntity
  8
0-0
  6
JWW_DASHED1
 62
   120
370
     5
100
AcDbLine
 10
-636.4949538466724
 20
-298.9187804944323
 30
0.0
 11
-356.7963637944493
 21
-19.22019044220924
 31
0.0
  0
LINE
  5
C2
330
1F
100
AcDbEntity
  8
0-0
  6
JWW_DASHED1
 62
   120
370
     5
100
AcDbLine
 10
-678.9213607178766
 20
-298.9187804944361
 30
0.0
 11
-356.7963637944374
 21
23.20621642900271
 31
0.0
  0
LINE
  5
C3
330
1F
100
AcDbEntity
  8
0-0
  6
JWW_DASHED1
 62
   120
370
     5
100
AcDbLine
 10
-721.3477675890724
 20
-298.9187804944319
 30
0.0
 11
-356.7963637944425
 21
65.63262330019889
 31
0.0
  0
LINE
  5
C4
330
1F
100
AcDbEntity
  8
0-0
  6
JWW_DASHED1
 62
   120
370
     5
100
AcDbLine
 10
-763.7741744602042
 20
-298.9187804944186
 30
0.0
 11
-356.7963637944663
 21
108.05903017132
 31
0.0
  0
LINE
  5
C5
330
1F
100
AcDbEntity
  8
0-0
  6
JWW_DASHED1
 62
   120
370
     5
100
AcDbLine
 10
-806.2005813314126
 20
-298.9187804944272
 30
0.0
 11
-356.7963637944698
 21
150.4854370425167
 31
0.0
  0
LINE
  5
C6
330
1F
100
AcDbEntity
  8
0-0
  6
JWW_DASHED1
 62
   120
370
     5
100
AcDbLine
 10
-848.6269882026111
 20
-298.9187804944246
 30
0.0
 11
-356.7963637944663
 21
192.9118439137205
 31
0.0
  0
LINE
  5
C7
330
1F
100
AcDbEntity
  8
0-0
  6
JWW_DASHED1
 62
   120
370
     5
100
AcDbLine
 10
-891.0533950738077
 20
-298.9187804944225
 30
0.0
 11
-356.7963637944698
 21
235.3382507849167
 31
0.0
  0
LINE
  5
C8
330
1F
100
AcDbEntity
  8
0-0
  6
JWW_DASHED1
 62
   120
370
     5
100
AcDbLine
 10
-929.796363794462
 20
-295.2353423438763
 30
0.0
 11
-356.7963637944715
 21
277.7646576561137
 31
0.0
  0
LINE
  5
C9
330
1F
100
AcDbEntity
  8
0-0
  6
JWW_DASHED1
 62
   120
370
     5
100
AcDbLine
 10
-929.7963637944499
 20
-252.8089354726644
 30
0.0
 11
-356.7963637944527
 21
320.1910645273338
 31
0.0
  0
LINE
  5
CA
330
1F
100
AcDbEntity
  8
0-0
  6
JWW_DASHED1
 62
   120
370
     5
100
AcDbLine
 10
-929.7963637944533
 20
-210.3825286014678
 30
0.0
 11
-356.7963637944561
 21
362.6174713985304
 31
0.0
  0
LINE
  5
CB
330
1F
100
AcDbEntity
  8
0-0
  6
JWW_DASHED1
 62
   120
370
     5
100
AcDbLine
 10
-929.7963637944567
 20
-167.9561217302716
 30
0.0
 11
-356.7963637944595
 21
405.0438782697261
 31
0.0
  0
LINE
  5
CC
330
1F
100
AcDbEntity
  8
0-0
  6
JWW_DASHED1
 62
   120
370
     5
100
AcDbLine
 10
-929.7963637944499
 20
-125.529714859118
 30
0.0
 11
-356.7963637944527
 21
447.4702851408788
 31
0.0
  0
LINE
  5
CD
330
1F
100
AcDbEntity
  8
0-0
  6
JWW_DASHED1
 62
   120
370
     5
100
AcDbLine
 10
-929.7963637944533
 20
-83.10330798792144
 30
0.0
 11
-356.7963637944561
 21
489.8966920120754
 31
0.0
  0
LINE
  5
CE
330
1F
100
AcDbEntity
  8
0-0
  6
JWW_DASHED1
 62
   120
370
     5
100
AcDbLine
 10
-929.7963637944533
 20
-40.67690111672228
 30
0.0
 11
-356.7963637944476
 21
532.3230988832837
 31
0.0
  0
LINE
  5
CF
330
1F
100
AcDbEntity
  8
0-0
  6
JWW_DASHED1
 62
   120
370
     5
100
AcDbLine
 10
-929.7963637944567
 20
1.749505754474754
 30
0.0
 11
-356.796363794451
 21
574.7495057544801
 31
0.0
  0
LINE
  5
D0
330
1F
100
AcDbEntity
  8
0-0
  6
JWW_DASHED1
 62
   120
370
     5
100
AcDbLine
 10
-929.7963637944601
 20
44.17591262567178
 30
0.0
 11
-356.7963637944527
 21
617.175912625678
 31
0.0
  0
LINE
  5
D1
330
1F
100
AcDbEntity
  8
0-0
  6
JWW_DASHED1
 62
   120
370
     5
100
AcDbLine
 10
-929.7963637944517
 20
86.60231949687905
 30
0.0
 11
-356.7963637944548
 21
659.6023194968767
 31
0.0
  0
LINE
  5
D2
330
1F
100
AcDbEntity
  8
0-0
  6
JWW_DASHED1
 62
   120
370
     5
100
AcDbLine
 10
-929.7963637944567
 20
129.0287263680752
 30
0.0
 11
-356.7963637944425
 21
702.0287263680887
 31
0.0
  0
LINE
  5
D3
330
1F
100
AcDbEntity
  8
0-0
  6
JWW_DASHED1
 62
   120
370
     5
100
AcDbLine
 10
-929.7963637944636
 20
171.455133239213
 30
0.0
 11
-356.7963637944663
 21
744.4551332392102
 31
0.0
  0
LINE
  5
D4
330
1F
100
AcDbEntity
  8
0-0
  6
JWW_DASHED1
 62
   120
370
     5
100
AcDbLine
 10
-929.7963637944517
 20
213.881540110425
 30
0.0
 11
-356.7963637944698
 21
786.8815401104067
 31
0.0
  0
LINE
  5
D5
330
1F
100
AcDbEntity
  8
0-0
  6
JWW_DASHED1
 62
   120
370
     5
100
AcDbLine
 10
-929.7963637944551
 20
256.3079469816216
 30
0.0
 11
-370.0233588147935
 21
816.0809519612816
 31
0.0
  0
LINE
  5
D6
330
1F
100
AcDbEntity
  8
0-0
  6
JWW_DASHED1
 62
   120
370
     5
100
AcDbLine
 10
-929.7963637944517
 20
298.7343538528258
 30
0.0
 11
-412.3088728362417
 21
816.2218448110352
 31
0.0
  0
LINE
  5
D7
330
1F
100
AcDbEntity
  8
0-0
  6
JWW_DASHED1
 62
   120
370
     5
100
AcDbLine
 10
-929.7963637944533
 20
341.1607607240229
 30
0.0
 11
-448.6332193303759
 21
822.3239051881013
 31
0.0
  0
LINE
  5
D8
330
1F
100
AcDbEntity
  8
0-0
  6
JWW_DASHED1
 62
   120
370
     5
100
AcDbLine
 10
-929.7963637944517
 20
383.5871675952259
 30
0.0
 11
-478.517641484369
 21
834.8658899053073
 31
0.0
  0
LINE
  5
D9
330
1F
100
AcDbEntity
  8
0-0
  6
JWW_DASHED1
 62
   120
370
     5
100
AcDbLine
 10
-929.7963637944551
 20
426.0135744664216
 30
0.0
 11
-507.2512400137364
 21
848.5586982471416
 31
0.0
  0
LINE
  5
DA
330
1F
100
AcDbEntity
  8
0-0
  6
JWW_DASHED1
 62
   120
370
     5
100
AcDbLine
 10
-929.7963637944586
 20
468.4399813376178
 30
0.0
 11
-538.2811804506318
 21
859.9551646814446
 31
0.0
  0
LINE
  5
DB
330
1F
100
AcDbEntity
  8
0-0
  6
JWW_DASHED1
 62
   120
370
     5
100
AcDbLine
 10
-929.7963637944499
 20
510.8663882087714
 30
0.0
 11
-571.933901564058
 21
868.7288504391638
 31
0.0
  0
LINE
  5
DC
330
1F
100
AcDbEntity
  8
0-0
  6
JWW_DASHED1
 62
   120
370
     5
100
AcDbLine
 10
-929.7963637944533
 20
553.292795079968
 30
0.0
 11
-608.7200178171142
 21
874.3691410573078
 31
0.0
  0
LINE
  5
DD
330
1F
100
AcDbEntity
  8
0-0
  6
JWW_DASHED1
 62
   120
370
     5
100
AcDbLine
 10
-929.7963637944449
 20
595.719201951177
 30
0.0
 11
-649.4891368691433
 21
876.0264288764786
 31
0.0
  0
LINE
  5
DE
330
1F
100
AcDbEntity
  8
0-0
  6
JWW_DASHED1
 62
   120
370
     5
100
AcDbLine
 10
-929.7963637944483
 20
638.1456088223736
 30
0.0
 11
-695.8250000900543
 21
872.1169725267675
 31
0.0
  0
LINE
  5
DF
330
1F
100
AcDbEntity
  8
0-0
  6
JWW_DASHED1
 62
   120
370
     5
100
AcDbLine
 10
-929.7963637944517
 20
680.5720156935705
 30
0.0
 11
-751.4005726458006
 21
858.9678068422224
 31
0.0
  0
LINE
  5
E0
330
1F
100
AcDbEntity
  8
0-0
  6
JWW_DASHED1
 62
   120
370
     5
100
AcDbLine
 10
-929.7963637944533
 20
722.9984225647688
 30
0.0
 11
-826.5765823428715
 21
826.218204016351
 31
0.0
  0
LINE
  5
E1
330
1F
100
AcDbEntity
  8
0-0
  6
JWW_DASHED1
 62
   120
370
     5
100
AcDbLine
 10
-929.7963637944567
 20
765.4248294359639
 30
0.0
 11
-879.1311377730412
 21
816.0900554573813
 31
0.0
  0
LINE
  5
E2
330
1F
100
AcDbEntity
  8
0-0
  6
JWW_DASHED1
 62
   120
370
     5
100
AcDbLine
 10
-929.7963637944636
 20
807.8512363071322
 30
0.0
 11
-921.5666481403239
 21
816.0809519612716
 31
0.0
  0
LINE
  5
E3
330
1F
100
AcDbEntity
  8
0-0
  6
Continuous
 62
     7
370
     9
100
AcDbLine
 10
-197.7963637944592
 20
-821.9187804944218
 30
0.0
 11
-212.7963637944592
 21
-836.9187804944218
 31
0.0
  0
LINE
  5
E4
330
1F
100
AcDbEntity
  8
0-0
  6
Continuous
 62
     7
370
     9
100
AcDbLine
 10
-212.7963637944592
 20
-971.9187804944218
 30
0.0
 11
-212.7963637944592
 21
1011.081219505578
 31
0.0
  0
LINE
  5
E5
330
1F
100
AcDbEntity
  8
0-0
  6
Continuous
 62
     7
370
     9
100
AcDbLine
 10
375.2036362055415
 20
-821.9187804944218
 30
0.0
 11
390.2036362055415
 21
-836.9187804944218
 31
0.0
  0
LINE
  5
E6
330
1F
100
AcDbEntity
  8
0-0
  6
Continuous
 62
     7
370
     9
100
AcDbLine
 10
390.2036362055415
 20
-971.9187804944218
 30
0.0
 11
390.2036362055415
 21
1011.081219505578
 31
0.0
  0
LINE
  5
E7
330
1F
100
AcDbEntity
  8
0-0
  6
Continuous
 62
     7
370
     9
100
AcDbLine
 10
-212.7963637944592
 20
-836.9187804944218
 30
0.0
 11
390.2036362055415
 21
-836.9187804944218
 31
0.0
  0
LINE
  5
E8
330
1F
100
AcDbEntity
  8
0-0
  6
Continuous
 62
     7
370
     9
100
AcDbLine
 10
-197.7963637944592
 20
-298.9187804944216
 30
0.0
 11
-212.7963637944592
 21
-313.9187804944216
 31
0.0
  0
LINE
  5
E9
330
1F
100
AcDbEntity
  8
0-0
  6
Continuous
 62
     7
370
     9
100
AcDbLine
 10
-212.7963637944592
 20
-388.9187804944216
 30
0.0
 11
-197.7963637944592
 21
-403.9187804944216
 31
0.0
  0
LINE
  5
EA
330
1F
100
AcDbEntity
  8
0-0
  6
Continuous
 62
     7
370
     9
100
AcDbLine
 10
375.2036362055415
 20
-298.9187804944216
 30
0.0
 11
390.2036362055415
 21
-313.9187804944216
 31
0.0
  0
LINE
  5
EB
330
1F
100
AcDbEntity
  8
0-0
  6
Continuous
 62
     7
370
     9
100
AcDbLine
 10
390.2036362055415
 20
-388.9187804944216
 30
0.0
 11
375.2036362055415
 21
-403.9187804944216
 31
0.0
  0
LINE
  5
EC
330
1F
100
AcDbEntity
  8
0-0
  6
Continuous
 62
     7
370
     9
100
AcDbLine
 10
-212.7963637944592
 20
-313.9187804944216
 30
0.0
 11
390.2036362055415
 21
-313.9187804944216
 31
0.0
  0
LINE
  5
ED
330
1F
100
AcDbEntity
  8
0-0
  6
Continuous
 62
     7
370
     9
100
AcDbLine
 10
-212.7963637944592
 20
-388.9187804944216
 30
0.0
 11
390.2036362055381
 21
-388.9187804944216
 31
0.0
  0
LINE
  5
EE
330
1F
100
AcDbEntity
  8
0-0
  6
Continuous
 62
     7
370
     9
100
AcDbLine
 10
-167.7963637944592
 20
-791.9187804944218
 30
0.0
 11
-167.7963637944592
 21
-433.9187804944216
 31
0.0
  0
LINE
  5
EF
330
1F
100
AcDbEntity
  8
0-0
  6
Continuous
 62
     7
370
     9
100
AcDbLine
 10
-167.7963637944592
 20
-791.9187804944218
 30
0.0
 11
-182.7963637944592
 21
-806.9187804944218
 31
0.0
  0
LINE
  5
F0
330
1F
100
AcDbEntity
  8
0-0
  6
Continuous
 62
     7
370
     9
100
AcDbLine
 10
-182.7963637944592
 20
-418.9187804944216
 30
0.0
 11
-167.7963637944592
 21
-433.9187804944216
 31
0.0
  0
LINE
  5
F1
330
1F
100
AcDbEntity
  8
0-0
  6
Continuous
 62
     7
370
     9
100
AcDbLine
 10
345.2036362055415
 20
-791.9187804944218
 30
0.0
 11
360.2036362055415
 21
-806.9187804944218
 31
0.0
  0
LINE
  5
F2
330
1F
100
AcDbEntity
  8
0-0
  6
Continuous
 62
     7
370
     9
100
AcDbLine
 10
360.2036362055415
 20
-418.9187804944216
 30
0.0
 11
345.2036362055415
 21
-433.9187804944216
 31
0.0
  0
LINE
  5
F3
330
1F
100
AcDbEntity
  8
0-0
  6
Continuous
 62
     7
370
     9
100
AcDbLine
 10
-167.7963637944592
 20
-433.9187804944216
 30
0.0
 11
345.2036362055415
 21
-433.9187804944216
 31
0.0
  0
LINE
  5
F4
330
1F
100
AcDbEntity
  8
0-0
  6
Continuous
 62
     7
370
     9
100
AcDbLine
 10
345.2036362055415
 20
-791.9187804944218
 30
0.0
 11
345.2036362055415
 21
-433.9187804944216
 31
0.0
  0
LINE
  5
F5
330
1F
100
AcDbEntity
  8
0-0
  6
Continuous
 62
     7
370
     9
100
AcDbLine
 10
-167.7963637944592
 20
-791.9187804944218
 30
0.0
 11
345.2036362055415
 21
-791.9187804944218
 31
0.0
  0
LINE
  5
F6
330
1F
100
AcDbEntity
  8
0-0
  6
Continuous
 62
     7
370
     9
100
AcDbLine
 10
-197.7963637944626
 20
816.0809519612699
 30
0.0
 11
-212.7967597034066
 21
831.081347870211
 31
0.0
  0
LINE
  5
F7
330
1F
100
AcDbEntity
  8
0-0
  6
Continuous
 62
     7
370
     9
100
AcDbLine
 10
375.2036362055415
 20
816.0809519612699
 30
0.0
 11
390.2036362055415
 21
831.0809519612699
 31
0.0
  0
ARC
  5
F8
330
1F
100
AcDbEntity
  8
0-0
  6
Continuous
 62
     7
370
     9
100
AcDbCircle
 10
-148.7837012230486
 20
966.0809519612699
 30
0.0
 40
135.0
100
AcDbArc
 50
270.0
 51
298.3577011236671
  0
ARC
  5
F9
330
1F
100
AcDbEntity
  8
0-0
  6
Continuous
 62
     7
370
     9
100
AcDbCircle
 10
326.1909736341275
 20
966.0809519612699
 30
0.0
 40
135.0
100
AcDbArc
 50
241.6422988763328
 51
270.0
  0
ARC
  5
FA
330
1F
100
AcDbEntity
  8
0-0
  6
Continuous
 62
     7
370
     9
100
AcDbCircle
 10
88.70363620553945
 20
526.0812195055781
 30
0.0
 40
365.0
100
AcDbArc
 50
61.64229887633292
 51
118.3577011236671
  0
LINE
  5
FB
330
1F
100
AcDbEntity
  8
0-0
  6
Continuous
 62
     7
370
     9
100
AcDbLine
 10
-212.7964132824283
 20
831.0810014492339
 30
0.0
 11
-148.7837012230486
 21
831.0810014492339
 31
0.0
  0
LINE
  5
FC
330
1F
100
AcDbEntity
  8
0-0
  6
Continuous
 62
     7
370
     9
100
AcDbLine
 10
390.2036856935038
 20
831.0810014492339
 30
0.0
 11
326.1909736341275
 21
831.0810014492339
 31
0.0
  0
ARC
  5
FD
330
1F
100
AcDbEntity
  8
0-0
  6
Continuous
 62
    92
370
    13
100
AcDbCircle
 10
88.70363620553945
 20
526.0812195055781
 30
0.0
 40
350.0
100
AcDbArc
 50
61.64229887633292
 51
118.3577011236671
  0
ARC
  5
FE
330
1F
100
AcDbEntity
  8
0-0
  6
Continuous
 62
    92
370
    13
100
AcDbCircle
 10
-148.7837012230486
 20
966.0809519612699
 30
0.0
 40
150.0
100
AcDbArc
 50
270.0
 51
298.3577011236671
  0
LINE
  5
FF
330
1F
100
AcDbEntity
  8
0-0
  6
Continuous
 62
    92
370
    13
100
AcDbLine
 10
-197.7963637944626
 20
816.0809519612699
 30
0.0
 11
-148.7837012230486
 21
816.0809519612699
 31
0.0
  0
LINE
  5
100
330
1F
100
AcDbEntity
  8
0-0
  6
Continuous
 62
    92
370
    13
100
AcDbLine
 10
-197.7963637944592
 20
-298.9187804944216
 30
0.0
 11
-197.7963637944592
 21
816.0809519612699
 31
0.0
  0
LINE
  5
101
330
1F
100
AcDbEntity
  8
0-0
  6
Continuous
 62
    92
370
    13
100
AcDbLine
 10
-197.7963637944592
 20
-298.9187804944216
 30
0.0
 11
375.2036362055415
 21
-298.9187804944216
 31
0.0
  0
LINE
  5
102
330
1F
100
AcDbEntity
  8
0-0
  6
Continuous
 62
    92
370
    13
100
AcDbLine
 10
375.2036362055415
 20
-298.9187804944216
 30
0.0
 11
375.2036362055415
 21
816.0809519612699
 31
0.0
  0
LINE
  5
103
330
1F
100
AcDbEntity
  8
0-0
  6
Continuous
 62
    92
370
    13
100
AcDbLine
 10
375.2036362055415
 20
816.0809519612699
 30
0.0
 11
326.1909736341275
 21
816.0809519612699
 31
0.0
  0
ARC
  5
104
330
1F
100
AcDbEntity
  8
0-0
  6
Continuous
 62
    92
370
    13
100
AcDbCircle
 10
326.1909736341275
 20
966.0809519612699
 30
0.0
 40
150.0
100
AcDbArc
 50
241.6422988763328
 51
270.0
  0
LINE
  5
105
330
1F
100
AcDbEntity
  8
0-0
  6
Continuous
 62
    92
370
    13
100
AcDbLine
 10
-197.7963637944592
 20
-821.9187804944218
 30
0.0
 11
375.2036362055415
 21
-821.9187804944218
 31
0.0
  0
LINE
  5
106
330
1F
100
AcDbEntity
  8
0-0
  6
Continuous
 62
    92
370
    13
100
AcDbLine
 10
-197.7963637944592
 20
-403.9187804944216
 30
0.0
 11
375.2036362055415
 21
-403.9187804944216
 31
0.0
  0
LINE
  5
107
330
1F
100
AcDbEntity
  8
0-0
  6
Continuous
 62
    92
370
    13
100
AcDbLine
 10
-197.7963637944592
 20
-821.9187804944218
 30
0.0
 11
-197.7963637944592
 21
-403.9187804944216
 31
0.0
  0
LINE
  5
108
330
1F
100
AcDbEntity
  8
0-0
  6
Continuous
 62
    92
370
    13
100
AcDbLine
 10
375.2036362055415
 20
-821.9187804944218
 30
0.0
 11
375.2036362055415
 21
-403.9187804944216
 31
0.0
  0
LINE
  5
109
330
1F
100
AcDbEntity
  8
0-0
  6
JWW_DASHED1
 62
   120
370
     5
100
AcDbLine
 10
350.0634873804793
 20
-298.9187804944263
 30
0.0
 11
375.2036362055462
 21
-273.7786316693599
 31
0.0
  0
LINE
  5
10A
330
1F
100
AcDbEntity
  8
0-0
  6
JWW_DASHED1
 62
   120
370
     5
100
AcDbLine
 10
307.6370805093271
 20
-298.9187804944331
 30
0.0
 11
375.2036362055551
 21
-231.3522247982064
 31
0.0
  0
LINE
  5
10B
330
1F
100
AcDbEntity
  8
0-0
  6
JWW_DASHED1
 62
   120
370
     5
100
AcDbLine
 10
265.2106736381305
 20
-298.918780494431
 30
0.0
 11
375.20363620555
 21
-188.9258179270106
 31
0.0
  0
LINE
  5
10C
330
1F
100
AcDbEntity
  8
0-0
  6
JWW_DASHED1
 62
   120
370
     5
100
AcDbLine
 10
222.7842667669339
 20
-298.9187804944272
 30
0.0
 11
375.2036362055462
 21
-146.4994110558144
 31
0.0
  0
LINE
  5
10D
330
1F
100
AcDbEntity
  8
0-0
  6
JWW_DASHED1
 62
   120
370
     5
100
AcDbLine
 10
180.3578598957372
 20
-298.9187804944237
 30
0.0
 11
375.2036362055449
 21
-104.0730041846152
 31
0.0
  0
LINE
  5
10E
330
1F
100
AcDbEntity
  8
0-0
  6
JWW_DASHED1
 62
   120
370
     5
100
AcDbLine
 10
137.9314530245406
 20
-298.9187804944208
 30
0.0
 11
375.2036362055432
 21
-61.64659731341779
 31
0.0
  0
LINE
  5
10F
330
1F
100
AcDbEntity
  8
0-0
  6
JWW_DASHED1
 62
   120
370
     5
100
AcDbLine
 10
95.50504615332869
 20
-298.9187804944323
 30
0.0
 11
375.2036362055517
 21
-19.22019044220924
 31
0.0
  0
LINE
  5
110
330
1F
100
AcDbEntity
  8
0-0
  6
JWW_DASHED1
 62
   120
370
     5
100
AcDbLine
 10
53.07863928212484
 20
-298.9187804944361
 30
0.0
 11
375.2036362055637
 21
23.20621642900271
 31
0.0
  0
LINE
  5
111
330
1F
100
AcDbEntity
  8
0-0
  6
JWW_DASHED1
 62
   120
370
     5
100
AcDbLine
 10
10.65223241092866
 20
-298.9187804944319
 30
0.0
 11
375.2036362055586
 21
65.63262330019889
 31
0.0
  0
LINE
  5
112
330
1F
100
AcDbEntity
  8
0-0
  6
JWW_DASHED1
 62
   120
370
     5
100
AcDbLine
 10
-31.77417446020314
 20
-298.9187804944186
 30
0.0
 11
375.2036362055347
 21
108.05903017132
 31
0.0
  0
LINE
  5
113
330
1F
100
AcDbEntity
  8
0-0
  6
JWW_DASHED1
 62
   120
370
     5
100
AcDbLine
 10
-74.20058133141168
 20
-298.9187804944272
 30
0.0
 11
375.2036362055313
 21
150.4854370425167
 31
0.0
  0
LINE
  5
114
330
1F
100
AcDbEntity
  8
0-0
  6
JWW_DASHED1
 62
   120
370
     5
100
AcDbLine
 10
-116.62698820261
 20
-298.9187804944246
 30
0.0
 11
375.2036362055347
 21
192.9118439137205
 31
0.0
  0
LINE
  5
115
330
1F
100
AcDbEntity
  8
0-0
  6
JWW_DASHED1
 62
   120
370
     5
100
AcDbLine
 10
-159.053395073807
 20
-298.9187804944225
 30
0.0
 11
375.2036362055313
 21
235.3382507849167
 31
0.0
  0
LINE
  5
116
330
1F
100
AcDbEntity
  8
0-0
  6
JWW_DASHED1
 62
   120
370
     5
100
AcDbLine
 10
-197.7963637944609
 20
-295.2353423438763
 30
0.0
 11
375.2036362055296
 21
277.7646576561137
 31
0.0
  0
LINE
  5
117
330
1F
100
AcDbEntity
  8
0-0
  6
JWW_DASHED1
 62
   120
370
     5
100
AcDbLine
 10
-197.796363794449
 20
-252.8089354726644
 30
0.0
 11
375.2036362055483
 21
320.1910645273338
 31
0.0
  0
LINE
  5
118
330
1F
100
AcDbEntity
  8
0-0
  6
JWW_DASHED1
 62
   120
370
     5
100
AcDbLine
 10
-197.7963637944524
 20
-210.3825286014678
 30
0.0
 11
375.2036362055449
 21
362.6174713985304
 31
0.0
  0
LINE
  5
119
330
1F
100
AcDbEntity
  8
0-0
  6
JWW_DASHED1
 62
   120
370
     5
100
AcDbLine
 10
-197.7963637944558
 20
-167.9561217302716
 30
0.0
 11
375.2036362055415
 21
405.0438782697261
 31
0.0
  0
LINE
  5
11A
330
1F
100
AcDbEntity
  8
0-0
  6
JWW_DASHED1
 62
   120
370
     5
100
AcDbLine
 10
-197.796363794449
 20
-125.529714859118
 30
0.0
 11
375.2036362055483
 21
447.4702851408788
 31
0.0
  0
LINE
  5
11B
330
1F
100
AcDbEntity
  8
0-0
  6
JWW_DASHED1
 62
   120
370
     5
100
AcDbLine
 10
-197.7963637944524
 20
-83.10330798792144
 30
0.0
 11
375.2036362055449
 21
489.8966920120754
 31
0.0
  0
LINE
  5
11C
330
1F
100
AcDbEntity
  8
0-0
  6
JWW_DASHED1
 62
   120
370
     5
100
AcDbLine
 10
-197.7963637944524
 20
-40.67690111672228
 30
0.0
 11
375.2036362055534
 21
532.3230988832837
 31
0.0
  0
LINE
  5
11D
330
1F
100
AcDbEntity
  8
0-0
  6
JWW_DASHED1
 62
   120
370
     5
100
AcDbLine
 10
-197.7963637944558
 20
1.749505754474754
 30
0.0
 11
375.20363620555
 21
574.7495057544801
 31
0.0
  0
LINE
  5
11E
330
1F
100
AcDbEntity
  8
0-0
  6
JWW_DASHED1
 62
   120
370
     5
100
AcDbLine
 10
-197.7963637944592
 20
44.17591262567178
 30
0.0
 11
375.2036362055483
 21
617.175912625678
 31
0.0
  0
LINE
  5
11F
330
1F
100
AcDbEntity
  8
0-0
  6
JWW_DASHED1
 62
   120
370
     5
100
AcDbLine
 10
-197.7963637944511
 20
86.60231949687905
 30
0.0
 11
375.2036362055462
 21
659.6023194968767
 31
0.0
  0
LINE
  5
120
330
1F
100
AcDbEntity
  8
0-0
  6
JWW_DASHED1
 62
   120
370
     5
100
AcDbLine
 10
-197.7963637944558
 20
129.0287263680752
 30
0.0
 11
375.2036362055586
 21
702.0287263680887
 31
0.0
  0
LINE
  5
121
330
1F
100
AcDbEntity
  8
0-0
  6
JWW_DASHED1
 62
   120
370
     5
100
AcDbLine
 10
-197.7963637944626
 20
171.455133239213
 30
0.0
 11
375.2036362055347
 21
744.4551332392102
 31
0.0
  0
LINE
  5
122
330
1F
100
AcDbEntity
  8
0-0
  6
JWW_DASHED1
 62
   120
370
     5
100
AcDbLine
 10
-197.7963637944511
 20
213.881540110425
 30
0.0
 11
375.2036362055313
 21
786.8815401104067
 31
0.0
  0
LINE
  5
123
330
1F
100
AcDbEntity
  8
0-0
  6
JWW_DASHED1
 62
   120
370
     5
100
AcDbLine
 10
-197.7963637944541
 20
256.3079469816216
 30
0.0
 11
361.9766411852075
 21
816.0809519612816
 31
0.0
  0
LINE
  5
124
330
1F
100
AcDbEntity
  8
0-0
  6
JWW_DASHED1
 62
   120
370
     5
100
AcDbLine
 10
-197.7963637944511
 20
298.7343538528258
 30
0.0
 11
319.6911271637593
 21
816.2218448110352
 31
0.0
  0
LINE
  5
125
330
1F
100
AcDbEntity
  8
0-0
  6
JWW_DASHED1
 62
   120
370
     5
100
AcDbLine
 10
-197.7963637944524
 20
341.1607607240229
 30
0.0
 11
283.3667806696251
 21
822.3239051881013
 31
0.0
  0
LINE
  5
126
330
1F
100
AcDbEntity
  8
0-0
  6
JWW_DASHED1
 62
   120
370
     5
100
AcDbLine
 10
-197.7963637944511
 20
383.5871675952259
 30
0.0
 11
253.482358515632
 21
834.8658899053073
 31
0.0
  0
LINE
  5
127
330
1F
100
AcDbEntity
  8
0-0
  6
JWW_DASHED1
 62
   120
370
     5
100
AcDbLine
 10
-197.7963637944541
 20
426.0135744664216
 30
0.0
 11
224.7487599862646
 21
848.5586982471416
 31
0.0
  0
LINE
  5
128
330
1F
100
AcDbEntity
  8
0-0
  6
JWW_DASHED1
 62
   120
370
     5
100
AcDbLine
 10
-197.7963637944575
 20
468.4399813376178
 30
0.0
 11
193.7188195493692
 21
859.9551646814446
 31
0.0
  0
LINE
  5
129
330
1F
100
AcDbEntity
  8
0-0
  6
JWW_DASHED1
 62
   120
370
     5
100
AcDbLine
 10
-197.796363794449
 20
510.8663882087714
 30
0.0
 11
160.066098435943
 21
868.7288504391638
 31
0.0
  0
LINE
  5
12A
330
1F
100
AcDbEntity
  8
0-0
  6
JWW_DASHED1
 62
   120
370
     5
100
AcDbLine
 10
-197.7963637944524
 20
553.292795079968
 30
0.0
 11
123.2799821828868
 21
874.3691410573078
 31
0.0
  0
LINE
  5
12B
330
1F
100
AcDbEntity
  8
0-0
  6
JWW_DASHED1
 62
   120
370
     5
100
AcDbLine
 10
-197.7963637944438
 20
595.719201951177
 30
0.0
 11
82.51086313085779
 21
876.0264288764786
 31
0.0
  0
LINE
  5
12C
330
1F
100
AcDbEntity
  8
0-0
  6
JWW_DASHED1
 62
   120
370
     5
100
AcDbLine
 10
-197.7963637944472
 20
638.1456088223736
 30
0.0
 11
36.17499990994673
 21
872.1169725267675
 31
0.0
  0
LINE
  5
12D
330
1F
100
AcDbEntity
  8
0-0
  6
JWW_DASHED1
 62
   120
370
     5
100
AcDbLine
 10
-197.7963637944511
 20
680.5720156935705
 30
0.0
 11
-19.40057264579963
 21
858.9678068422224
 31
0.0
  0
LINE
  5
12E
330
1F
100
AcDbEntity
  8
0-0
  6
JWW_DASHED1
 62
   120
370
     5
100
AcDbLine
 10
-197.7963637944524
 20
722.9984225647688
 30
0.0
 11
-94.57658234287081
 21
826.218204016351
 31
0.0
  0
LINE
  5
12F
330
1F
100
AcDbEntity
  8
0-0
  6
JWW_DASHED1
 62
   120
370
     5
100
AcDbLine
 10
-197.7963637944558
 20
765.4248294359639
 30
0.0
 11
-147.1311377730406
 21
816.0900554573813
 31
0.0
  0
LINE
  5
130
330
1F
100
AcDbEntity
  8
0-0
  6
JWW_DASHED1
 62
   120
370
     5
100
AcDbLine
 10
-197.7963637944626
 20
807.8512363071322
 30
0.0
 11
-189.5666481403228
 21
816.0809519612716
 31
0.0
  0
LINE
  5
131
330
1F
100
AcDbEntity
  8
0-0
  6
Continuous
 62
     7
370
     9
100
AcDbLine
 10
534.2036362055401
 20
-821.9187804944218
 30
0.0
 11
519.2036362055401
 21
-836.9187804944218
 31
0.0
  0
LINE
  5
132
330
1F
100
AcDbEntity
  8
0-0
  6
Continuous
 62
     7
370
     9
100
AcDbLine
 10
519.2036362055401
 20
-971.9187804944218
 30
0.0
 11
519.2036362055401
 21
1011.081219505578
 31
0.0
  0
LINE
  5
133
330
1F
100
AcDbEntity
  8
0-0
  6
Continuous
 62
     7
370
     9
100
AcDbLine
 10
1107.203636205541
 20
-821.9187804944218
 30
0.0
 11
1122.203636205541
 21
-836.9187804944218
 31
0.0
  0
LINE
  5
134
330
1F
100
AcDbEntity
  8
0-0
  6
Continuous
 62
     7
370
     9
100
AcDbLine
 10
1122.203636205541
 20
-971.9187804944218
 30
0.0
 11
1122.203636205541
 21
1011.081219505578
 31
0.0
  0
LINE
  5
135
330
1F
100
AcDbEntity
  8
0-0
  6
Continuous
 62
     7
370
     9
100
AcDbLine
 10
519.2036362055401
 20
-836.9187804944218
 30
0.0
 11
1122.203636205541
 21
-836.9187804944218
 31
0.0
  0
LINE
  5
136
330
1F
100
AcDbEntity
  8
0-0
  6
Continuous
 62
     7
370
     9
100
AcDbLine
 10
534.2036362055401
 20
-298.9187804944216
 30
0.0
 11
519.2036362055401
 21
-313.9187804944216
 31
0.0
  0
LINE
  5
137
330
1F
100
AcDbEntity
  8
0-0
  6
Continuous
 62
     7
370
     9
100
AcDbLine
 10
519.2036362055401
 20
-388.9187804944216
 30
0.0
 11
534.2036362055401
 21
-403.9187804944216
 31
0.0
  0
LINE
  5
138
330
1F
100
AcDbEntity
  8
0-0
  6
Continuous
 62
     7
370
     9
100
AcDbLine
 10
1107.203636205541
 20
-298.9187804944216
 30
0.0
 11
1122.203636205541
 21
-313.9187804944216
 31
0.0
  0
LINE
  5
139
330
1F
100
AcDbEntity
  8
0-0
  6
Continuous
 62
     7
370
     9
100
AcDbLine
 10
1122.203636205541
 20
-388.9187804944216
 30
0.0
 11
1107.203636205541
 21
-403.9187804944216
 31
0.0
  0
LINE
  5
13A
330
1F
100
AcDbEntity
  8
0-0
  6
Continuous
 62
     7
370
     9
100
AcDbLine
 10
519.2036362055401
 20
-313.9187804944216
 30
0.0
 11
1122.203636205541
 21
-313.9187804944216
 31
0.0
  0
LINE
  5
13B
330
1F
100
AcDbEntity
  8
0-0
  6
Continuous
 62
     7
370
     9
100
AcDbLine
 10
519.2036362055401
 20
-388.9187804944216
 30
0.0
 11
1122.203636205537
 21
-388.9187804944216
 31
0.0
  0
LINE
  5
13C
330
1F
100
AcDbEntity
  8
0-0
  6
Continuous
 62
     7
370
     9
100
AcDbLine
 10
564.2036362055401
 20
-791.9187804944218
 30
0.0
 11
564.2036362055401
 21
-433.9187804944216
 31
0.0
  0
LINE
  5
13D
330
1F
100
AcDbEntity
  8
0-0
  6
Continuous
 62
     7
370
     9
100
AcDbLine
 10
564.2036362055401
 20
-791.9187804944218
 30
0.0
 11
549.2036362055401
 21
-806.9187804944218
 31
0.0
  0
LINE
  5
13E
330
1F
100
AcDbEntity
  8
0-0
  6
Continuous
 62
     7
370
     9
100
AcDbLine
 10
549.2036362055401
 20
-418.9187804944216
 30
0.0
 11
564.2036362055401
 21
-433.9187804944216
 31
0.0
  0
LINE
  5
13F
330
1F
100
AcDbEntity
  8
0-0
  6
Continuous
 62
     7
370
     9
100
AcDbLine
 10
1077.203636205541
 20
-791.9187804944218
 30
0.0
 11
1092.203636205541
 21
-806.9187804944218
 31
0.0
  0
LINE
  5
140
330
1F
100
AcDbEntity
  8
0-0
  6
Continuous
 62
     7
370
     9
100
AcDbLine
 10
1092.203636205541
 20
-418.9187804944216
 30
0.0
 11
1077.203636205541
 21
-433.9187804944216
 31
0.0
  0
LINE
  5
141
330
1F
100
AcDbEntity
  8
0-0
  6
Continuous
 62
     7
370
     9
100
AcDbLine
 10
564.2036362055401
 20
-433.9187804944216
 30
0.0
 11
1077.203636205541
 21
-433.9187804944216
 31
0.0
  0
LINE
  5
142
330
1F
100
AcDbEntity
  8
0-0
  6
Continuous
 62
     7
370
     9
100
AcDbLine
 10
1077.203636205541
 20
-791.9187804944218
 30
0.0
 11
1077.203636205541
 21
-433.9187804944216
 31
0.0
  0
LINE
  5
143
330
1F
100
AcDbEntity
  8
0-0
  6
Continuous
 62
     7
370
     9
100
AcDbLine
 10
564.2036362055401
 20
-791.9187804944218
 30
0.0
 11
1077.203636205541
 21
-791.9187804944218
 31
0.0
  0
LINE
  5
144
330
1F
100
AcDbEntity
  8
0-0
  6
Continuous
 62
     7
370
     9
100
AcDbLine
 10
534.2036362055367
 20
816.0809519612699
 30
0.0
 11
519.2032402965926
 21
831.081347870211
 31
0.0
  0
LINE
  5
145
330
1F
100
AcDbEntity
  8
0-0
  6
Continuous
 62
     7
370
     9
100
AcDbLine
 10
1107.203636205541
 20
816.0809519612699
 30
0.0
 11
1122.203636205541
 21
831.0809519612699
 31
0.0
  0
ARC
  5
146
330
1F
100
AcDbEntity
  8
0-0
  6
Continuous
 62
     7
370
     9
100
AcDbCircle
 10
583.2162987769507
 20
966.0809519612699
 30
0.0
 40
135.0
100
AcDbArc
 50
270.0
 51
298.3577011236671
  0
ARC
  5
147
330
1F
100
AcDbEntity
  8
0-0
  6
Continuous
 62
     7
370
     9
100
AcDbCircle
 10
1058.190973634127
 20
966.0809519612699
 30
0.0
 40
135.0
100
AcDbArc
 50
241.6422988763328
 51
270.0
  0
ARC
  5
148
330
1F
100
AcDbEntity
  8
0-0
  6
Continuous
 62
     7
370
     9
100
AcDbCircle
 10
820.7036362055387
 20
526.0812195055781
 30
0.0
 40
365.0
100
AcDbArc
 50
61.64229887633292
 51
118.3577011236671
  0
LINE
  5
149
330
1F
100
AcDbEntity
  8
0-0
  6
Continuous
 62
     7
370
     9
100
AcDbLine
 10
519.2035867175709
 20
831.0810014492339
 30
0.0
 11
583.2162987769507
 21
831.0810014492339
 31
0.0
  0
LINE
  5
14A
330
1F
100
AcDbEntity
  8
0-0
  6
Continuous
 62
     7
370
     9
100
AcDbLine
 10
1122.203685693503
 20
831.0810014492339
 30
0.0
 11
1058.190973634127
 21
831.0810014492339
 31
0.0
  0
ARC
  5
14B
330
1F
100
AcDbEntity
  8
0-0
  6
Continuous
 62
    92
370
    13
100
AcDbCircle
 10
820.7036362055387
 20
526.0812195055781
 30
0.0
 40
350.0
100
AcDbArc
 50
61.64229887633292
 51
118.3577011236671
  0
ARC
  5
14C
330
1F
100
AcDbEntity
  8
0-0
  6
Continuous
 62
    92
370
    13
100
AcDbCircle
 10
583.2162987769507
 20
966.0809519612699
 30
0.0
 40
150.0
100
AcDbArc
 50
270.0
 51
298.3577011236671
  0
LINE
  5
14D
330
1F
100
AcDbEntity
  8
0-0
  6
Continuous
 62
    92
370
    13
100
AcDbLine
 10
534.2036362055367
 20
816.0809519612699
 30
0.0
 11
583.2162987769507
 21
816.0809519612699
 31
0.0
  0
LINE
  5
14E
330
1F
100
AcDbEntity
  8
0-0
  6
Continuous
 62
    92
370
    13
100
AcDbLine
 10
534.2036362055401
 20
-298.9187804944216
 30
0.0
 11
534.2036362055401
 21
816.0809519612699
 31
0.0
  0
LINE
  5
14F
330
1F
100
AcDbEntity
  8
0-0
  6
Continuous
 62
    92
370
    13
100
AcDbLine
 10
534.2036362055401
 20
-298.9187804944216
 30
0.0
 11
1107.203636205541
 21
-298.9187804944216
 31
0.0
  0
LINE
  5
150
330
1F
100
AcDbEntity
  8
0-0
  6
Continuous
 62
    92
370
    13
100
AcDbLine
 10
1107.203636205541
 20
-298.9187804944216
 30
0.0
 11
1107.203636205541
 21
816.0809519612699
 31
0.0
  0
LINE
  5
151
330
1F
100
AcDbEntity
  8
0-0
  6
Continuous
 62
    92
370
    13
100
AcDbLine
 10
1107.203636205541
 20
816.0809519612699
 30
0.0
 11
1058.190973634127
 21
816.0809519612699
 31
0.0
  0
ARC
  5
152
330
1F
100
AcDbEntity
  8
0-0
  6
Continuous
 62
    92
370
    13
100
AcDbCircle
 10
1058.190973634127
 20
966.0809519612699
 30
0.0
 40
150.0
100
AcDbArc
 50
241.6422988763328
 51
270.0
  0
LINE
  5
153
330
1F
100
AcDbEntity
  8
0-0
  6
Continuous
 62
    92
370
    13
100
AcDbLine
 10
534.2036362055401
 20
-821.9187804944218
 30
0.0
 11
1107.203636205541
 21
-821.9187804944218
 31
0.0
  0
LINE
  5
154
330
1F
100
AcDbEntity
  8
0-0
  6
Continuous
 62
    92
370
    13
100
AcDbLine
 10
534.2036362055401
 20
-403.9187804944216
 30
0.0
 11
1107.203636205541
 21
-403.9187804944216
 31
0.0
  0
LINE
  5
155
330
1F
100
AcDbEntity
  8
0-0
  6
Continuous
 62
    92
370
    13
100
AcDbLine
 10
534.2036362055401
 20
-821.9187804944218
 30
0.0
 11
534.2036362055401
 21
-403.9187804944216
 31
0.0
  0
LINE
  5
156
330
1F
100
AcDbEntity
  8
0-0
  6
Continuous
 62
    92
370
    13
100
AcDbLine
 10
1107.203636205541
 20
-821.9187804944218
 30
0.0
 11
1107.203636205541
 21
-403.9187804944216
 31
0.0
  0
LINE
  5
157
330
1F
100
AcDbEntity
  8
0-0
  6
JWW_DASHED1
 62
   120
370
     5
100
AcDbLine
 10
1082.063487380479
 20
-298.9187804944263
 30
0.0
 11
1107.203636205546
 21
-273.7786316693599
 31
0.0
  0
LINE
  5
158
330
1F
100
AcDbEntity
  8
0-0
  6
JWW_DASHED1
 62
   120
370
     5
100
AcDbLine
 10
1039.637080509326
 20
-298.9187804944331
 30
0.0
 11
1107.203636205554
 21
-231.3522247982064
 31
0.0
  0
LINE
  5
159
330
1F
100
AcDbEntity
  8
0-0
  6
JWW_DASHED1
 62
   120
370
     5
100
AcDbLine
 10
997.2106736381297
 20
-298.918780494431
 30
0.0
 11
1107.203636205549
 21
-188.9258179270106
 31
0.0
  0
LINE
  5
15A
330
1F
100
AcDbEntity
  8
0-0
  6
JWW_DASHED1
 62
   120
370
     5
100
AcDbLine
 10
954.7842667669331
 20
-298.9187804944272
 30
0.0
 11
1107.203636205546
 21
-146.4994110558144
 31
0.0
  0
LINE
  5
15B
330
1F
100
AcDbEntity
  8
0-0
  6
JWW_DASHED1
 62
   120
370
     5
100
AcDbLine
 10
912.3578598957365
 20
-298.9187804944237
 30
0.0
 11
1107.203636205544
 21
-104.0730041846152
 31
0.0
  0
LINE
  5
15C
330
1F
100
AcDbEntity
  8
0-0
  6
JWW_DASHED1
 62
   120
370
     5
100
AcDbLine
 10
869.9314530245399
 20
-298.9187804944208
 30
0.0
 11
1107.203636205543
 21
-61.64659731341779
 31
0.0
  0
LINE
  5
15D
330
1F
100
AcDbEntity
  8
0-0
  6
JWW_DASHED1
 62
   120
370
     5
100
AcDbLine
 10
827.5050461533281
 20
-298.9187804944323
 30
0.0
 11
1107.203636205551
 21
-19.22019044220924
 31
0.0
  0
LINE
  5
15E
330
1F
100
AcDbEntity
  8
0-0
  6
JWW_DASHED1
 62
   120
370
     5
100
AcDbLine
 10
785.0786392821242
 20
-298.9187804944361
 30
0.0
 11
1107.203636205563
 21
23.20621642900271
 31
0.0
  0
LINE
  5
15F
330
1F
100
AcDbEntity
  8
0-0
  6
JWW_DASHED1
 62
   120
370
     5
100
AcDbLine
 10
742.652232410928
 20
-298.9187804944319
 30
0.0
 11
1107.203636205558
 21
65.63262330019889
 31
0.0
  0
LINE
  5
160
330
1F
100
AcDbEntity
  8
0-0
  6
JWW_DASHED1
 62
   120
370
     5
100
AcDbLine
 10
700.2258255397962
 20
-298.9187804944186
 30
0.0
 11
1107.203636205534
 21
108.05903017132
 31
0.0
  0
LINE
  5
161
330
1F
100
AcDbEntity
  8
0-0
  6
JWW_DASHED1
 62
   120
370
     5
100
AcDbLine
 10
657.7994186685876
 20
-298.9187804944272
 30
0.0
 11
1107.203636205531
 21
150.4854370425167
 31
0.0
  0
LINE
  5
162
330
1F
100
AcDbEntity
  8
0-0
  6
JWW_DASHED1
 62
   120
370
     5
100
AcDbLine
 10
615.3730117973894
 20
-298.9187804944246
 30
0.0
 11
1107.203636205534
 21
192.9118439137205
 31
0.0
  0
LINE
  5
163
330
1F
100
AcDbEntity
  8
0-0
  6
JWW_DASHED1
 62
   120
370
     5
100
AcDbLine
 10
572.9466049261923
 20
-298.9187804944225
 30
0.0
 11
1107.203636205531
 21
235.3382507849167
 31
0.0
  0
LINE
  5
164
330
1F
100
AcDbEntity
  8
0-0
  6
JWW_DASHED1
 62
   120
370
     5
100
AcDbLine
 10
534.2036362055385
 20
-295.2353423438763
 30
0.0
 11
1107.203636205529
 21
277.7646576561137
 31
0.0
  0
LINE
  5
165
330
1F
100
AcDbEntity
  8
0-0
  6
JWW_DASHED1
 62
   120
370
     5
100
AcDbLine
 10
534.2036362055503
 20
-252.8089354726644
 30
0.0
 11
1107.203636205548
 21
320.1910645273338
 31
0.0
  0
LINE
  5
166
330
1F
100
AcDbEntity
  8
0-0
  6
JWW_DASHED1
 62
   120
370
     5
100
AcDbLine
 10
534.2036362055469
 20
-210.3825286014678
 30
0.0
 11
1107.203636205544
 21
362.6174713985304
 31
0.0
  0
LINE
  5
167
330
1F
100
AcDbEntity
  8
0-0
  6
JWW_DASHED1
 62
   120
370
     5
100
AcDbLine
 10
534.2036362055435
 20
-167.9561217302716
 30
0.0
 11
1107.203636205541
 21
405.0438782697261
 31
0.0
  0
LINE
  5
168
330
1F
100
AcDbEntity
  8
0-0
  6
JWW_DASHED1
 62
   120
370
     5
100
AcDbLine
 10
534.2036362055503
 20
-125.529714859118
 30
0.0
 11
1107.203636205548
 21
447.4702851408788
 31
0.0
  0
LINE
  5
169
330
1F
100
AcDbEntity
  8
0-0
  6
JWW_DASHED1
 62
   120
370
     5
100
AcDbLine
 10
534.2036362055469
 20
-83.10330798792144
 30
0.0
 11
1107.203636205544
 21
489.8966920120754
 31
0.0
  0
LINE
  5
16A
330
1F
100
AcDbEntity
  8
0-0
  6
JWW_DASHED1
 62
   120
370
     5
100
AcDbLine
 10
534.2036362055469
 20
-40.67690111672228
 30
0.0
 11
1107.203636205553
 21
532.3230988832837
 31
0.0
  0
LINE
  5
16B
330
1F
100
AcDbEntity
  8
0-0
  6
JWW_DASHED1
 62
   120
370
     5
100
AcDbLine
 10
534.2036362055435
 20
1.749505754474754
 30
0.0
 11
1107.203636205549
 21
574.7495057544801
 31
0.0
  0
LINE
  5
16C
330
1F
100
AcDbEntity
  8
0-0
  6
JWW_DASHED1
 62
   120
370
     5
100
AcDbLine
 10
534.2036362055401
 20
44.17591262567178
 30
0.0
 11
1107.203636205548
 21
617.175912625678
 31
0.0
  0
LINE
  5
16D
330
1F
100
AcDbEntity
  8
0-0
  6
JWW_DASHED1
 62
   120
370
     5
100
AcDbLine
 10
534.2036362055483
 20
86.60231949687905
 30
0.0
 11
1107.203636205546
 21
659.6023194968767
 31
0.0
  0
LINE
  5
16E
330
1F
100
AcDbEntity
  8
0-0
  6
JWW_DASHED1
 62
   120
370
     5
100
AcDbLine
 10
534.2036362055435
 20
129.0287263680752
 30
0.0
 11
1107.203636205558
 21
702.0287263680887
 31
0.0
  0
LINE
  5
16F
330
1F
100
AcDbEntity
  8
0-0
  6
JWW_DASHED1
 62
   120
370
     5
100
AcDbLine
 10
534.2036362055367
 20
171.455133239213
 30
0.0
 11
1107.203636205534
 21
744.4551332392102
 31
0.0
  0
LINE
  5
170
330
1F
100
AcDbEntity
  8
0-0
  6
JWW_DASHED1
 62
   120
370
     5
100
AcDbLine
 10
534.2036362055483
 20
213.881540110425
 30
0.0
 11
1107.203636205531
 21
786.8815401104067
 31
0.0
  0
LINE
  5
171
330
1F
100
AcDbEntity
  8
0-0
  6
JWW_DASHED1
 62
   120
370
     5
100
AcDbLine
 10
534.2036362055453
 20
256.3079469816216
 30
0.0
 11
1093.976641185207
 21
816.0809519612816
 31
0.0
  0
LINE
  5
172
330
1F
100
AcDbEntity
  8
0-0
  6
JWW_DASHED1
 62
   120
370
     5
100
AcDbLine
 10
534.2036362055483
 20
298.7343538528258
 30
0.0
 11
1051.691127163759
 21
816.2218448110352
 31
0.0
  0
LINE
  5
173
330
1F
100
AcDbEntity
  8
0-0
  6
JWW_DASHED1
 62
   120
370
     5
100
AcDbLine
 10
534.2036362055469
 20
341.1607607240229
 30
0.0
 11
1015.366780669624
 21
822.3239051881013
 31
0.0
  0
LINE
  5
174
330
1F
100
AcDbEntity
  8
0-0
  6
JWW_DASHED1
 62
   120
370
     5
100
AcDbLine
 10
534.2036362055483
 20
383.5871675952259
 30
0.0
 11
985.4823585156314
 21
834.8658899053073
 31
0.0
  0
LINE
  5
175
330
1F
100
AcDbEntity
  8
0-0
  6
JWW_DASHED1
 62
   120
370
     5
100
AcDbLine
 10
534.2036362055453
 20
426.0135744664216
 30
0.0
 11
956.7487599862638
 21
848.5586982471416
 31
0.0
  0
LINE
  5
176
330
1F
100
AcDbEntity
  8
0-0
  6
JWW_DASHED1
 62
   120
370
     5
100
AcDbLine
 10
534.2036362055419
 20
468.4399813376178
 30
0.0
 11
925.7188195493686
 21
859.9551646814446
 31
0.0
  0
LINE
  5
177
330
1F
100
AcDbEntity
  8
0-0
  6
JWW_DASHED1
 62
   120
370
     5
100
AcDbLine
 10
534.2036362055503
 20
510.8663882087714
 30
0.0
 11
892.0660984359424
 21
868.7288504391638
 31
0.0
  0
LINE
  5
178
330
1F
100
AcDbEntity
  8
0-0
  6
JWW_DASHED1
 62
   120
370
     5
100
AcDbLine
 10
534.2036362055469
 20
553.292795079968
 30
0.0
 11
855.2799821828862
 21
874.3691410573078
 31
0.0
  0
LINE
  5
179
330
1F
100
AcDbEntity
  8
0-0
  6
JWW_DASHED1
 62
   120
370
     5
100
AcDbLine
 10
534.2036362055555
 20
595.719201951177
 30
0.0
 11
814.5108631308572
 21
876.0264288764786
 31
0.0
  0
LINE
  5
17A
330
1F
100
AcDbEntity
  8
0-0
  6
JWW_DASHED1
 62
   120
370
     5
100
AcDbLine
 10
534.2036362055521
 20
638.1456088223736
 30
0.0
 11
768.1749999099461
 21
872.1169725267675
 31
0.0
  0
LINE
  5
17B
330
1F
100
AcDbEntity
  8
0-0
  6
JWW_DASHED1
 62
   120
370
     5
100
AcDbLine
 10
534.2036362055483
 20
680.5720156935705
 30
0.0
 11
712.5994273541996
 21
858.9678068422224
 31
0.0
  0
LINE
  5
17C
330
1F
100
AcDbEntity
  8
0-0
  6
JWW_DASHED1
 62
   120
370
     5
100
AcDbLine
 10
534.2036362055469
 20
722.9984225647688
 30
0.0
 11
637.4234176571285
 21
826.218204016351
 31
0.0
  0
LINE
  5
17D
330
1F
100
AcDbEntity
  8
0-0
  6
JWW_DASHED1
 62
   120
370
     5
100
AcDbLine
 10
534.2036362055435
 20
765.4248294359639
 30
0.0
 11
584.8688622269588
 21
816.0900554573813
 31
0.0
  0
LINE
  5
17E
330
1F
100
AcDbEntity
  8
0-0
  6
JWW_DASHED1
 62
   120
370
     5
100
AcDbLine
 10
534.2036362055367
 20
807.8512363071322
 30
0.0
 11
542.4333518596766
 21
816.0809519612716
 31
0.0
  0
LWPOLYLINE
  5
17F
330
1F
100
AcDbEntity
  8
寸法
  6
Continuous
 62
     7
370
     9
100
AcDbPolyline
 90
        4
 70
     1
 43
6.0
 10
-235.2963637944599
 20
-1229.918780494422
 42
0.4142135623731
 10
-238.2963637944599
 20
-1226.918780494422
 42
0.4142135623731
 10
-241.2963637944599
 20
-1229.918780494422
 42
0.4142135623731
 10
-238.2963637944599
 20
-1232.918780494422
 42
0.4142135623731
  0
LWPOLYLINE
  5
180
330
1F
100
AcDbEntity
  8
寸法
  6
Continuous
 62
     7
370
     9
100
AcDbPolyline
 90
        4
 70
     1
 43
6.0
 10
-1045.29636379446
 20
-1229.918780494422
 42
0.4142135623731
 10
-1048.29636379446
 20
-1226.918780494422
 42
0.4142135623731
 10
-1051.29636379446
 20
-1229.918780494422
 42
0.4142135623731
 10
-1048.29636379446
 20
-1232.918780494422
 42
0.4142135623731
  0
LWPOLYLINE
  5
181
330
1F
100
AcDbEntity
  8
寸法
  6
Continuous
 62
     7
370
     9
100
AcDbPolyline
 90
        4
 70
     1
 43
6.0
 10
-1072.296363794459
 20
-1629.918780494422
 42
0.4142135623731
 10
-1075.296363794459
 20
-1626.918780494421
 42
0.4142135623731
 10
-1078.296363794459
 20
-1629.918780494422
 42
0.4142135623731
 10
-1075.296363794459
 20
-1632.918780494422
 42
0.4142135623731
  0
LWPOLYLINE
  5
182
330
1F
100
AcDbEntity
  8
寸法
  6
Continuous
 62
     7
370
     9
100
AcDbPolyline
 90
        4
 70
     1
 43
6.0
 10
-1042.296363794459
 20
-1429.918780494422
 42
0.4142135623731
 10
-1045.296363794459
 20
-1426.918780494422
 42
0.4142135623731
 10
-1048.296363794459
 20
-1429.918780494422
 42
0.4142135623731
 10
-1045.296363794459
 20
-1432.918780494422
 42
0.4142135623731
  0
LINE
  5
183
330
1F
100
AcDbEntity
  8
寸法
  6
Continuous
 62
   120
370
     5
100
AcDbLine
 10
-238.2963637944599
 20
-1229.918780494422
 30
0.0
 11
-238.2963637944599
 21
-1029.918780494422
 31
0.0
  0
LINE
  5
184
330
1F
100
AcDbEntity
  8
寸法
  6
Continuous
 62
   120
370
     5
100
AcDbLine
 10
-1048.29636379446
 20
-1229.918780494422
 30
0.0
 11
-238.2963637944599
 21
-1229.918780494422
 31
0.0
  0
LINE
  5
185
330
1F
100
AcDbEntity
  8
寸法
  6
Continuous
 62
   120
370
     5
100
AcDbLine
 10
-1048.29636379446
 20
-1229.918780494422
 30
0.0
 11
-1048.29636379446
 21
-1029.918780494422
 31
0.0
  0
LINE
  5
186
330
1F
100
AcDbEntity
  8
寸法
  6
Continuous
 62
   120
370
     5
100
AcDbLine
 10
-1075.296363794459
 20
-1629.918780494422
 30
0.0
 11
-1075.296363794459
 21
-1029.918780494422
 31
0.0
  0
LINE
  5
187
330
1F
100
AcDbEntity
  8
寸法
  6
Continuous
 62
   120
370
     5
100
AcDbLine
 10
-1045.296363794459
 20
-1429.918780494422
 30
0.0
 11
-1045.296363794459
 21
-1029.918780494422
 31
0.0
  0
LWPOLYLINE
  5
188
330
1F
100
AcDbEntity
  8
寸法
  6
Continuous
 62
     7
370
     9
100
AcDbPolyline
 90
        4
 70
     1
 43
6.0
 10
-1522.296363794459
 20
-979.9187804944218
 42
0.4142135623731
 10
-1525.296363794459
 20
-976.9187804944216
 42
0.4142135623731
 10
-1528.296363794459
 20
-979.9187804944218
 42
0.4142135623731
 10
-1525.296363794459
 20
-982.9187804944218
 42
0.4142135623731
  0
LINE
  5
189
330
1F
100
AcDbEntity
  8
寸法
  6
Continuous
 62
   120
370
     5
100
AcDbLine
 10
-1525.296363794459
 20
-979.9187804944218
 30
0.0
 11
-1125.296363794458
 21
-979.9187804944218
 31
0.0
  0
LWPOLYLINE
  5
18A
330
1F
100
AcDbEntity
  8
寸法
  6
Continuous
 62
     7
370
     9
100
AcDbPolyline
 90
        4
 70
     1
 43
6.0
 10
-1522.296363794459
 20
1055.081219505577
 42
0.4142135623731
 10
-1525.296363794459
 20
1058.081219505577
 42
0.4142135623731
 10
-1528.296363794459
 20
1055.081219505577
 42
0.4142135623731
 10
-1525.296363794459
 20
1052.081219505577
 42
0.4142135623731
  0
LINE
  5
18B
330
1F
100
AcDbEntity
  8
寸法
  6
Continuous
 62
   120
370
     5
100
AcDbLine
 10
-1525.296363794459
 20
1055.081219505577
 30
0.0
 11
-1125.296363794458
 21
1055.081219505577
 31
0.0
  0
LINE
  5
18C
330
1F
100
AcDbEntity
  8
寸法
  6
Continuous
 62
   120
370
     5
100
AcDbLine
 10
-1525.296363794459
 20
1055.081219505577
 30
0.0
 11
-1525.296363794459
 21
-979.9187804944218
 31
0.0
  0
LWPOLYLINE
  5
18D
330
1F
100
AcDbEntity
  8
寸法
  6
Continuous
 62
     7
370
     9
100
AcDbPolyline
 90
        4
 70
     1
 43
6.0
 10
2007.703636205541
 20
-1629.918780494421
 42
0.4142135623731
 10
2004.703636205541
 20
-1626.918780494421
 42
0.4142135623731
 10
2001.703636205541
 20
-1629.918780494421
 42
0.4142135623731
 10
2004.703636205541
 20
-1632.918780494421
 42
0.4142135623731
  0
LINE
  5
18E
330
1F
100
AcDbEntity
  8
寸法
  6
Continuous
 62
   120
370
     5
100
AcDbLine
 10
2004.703636205541
 20
-1629.918780494421
 30
0.0
 11
2004.703636205541
 21
-1029.918780494422
 31
0.0
  0
LINE
  5
18F
330
1F
100
AcDbEntity
  8
寸法
  6
Continuous
 62
   120
370
     5
100
AcDbLine
 10
-1075.296363794459
 20
-1629.918780494422
 30
0.0
 11
2004.703636205541
 21
-1629.918780494421
 31
0.0
  0
LWPOLYLINE
  5
190
330
1F
100
AcDbEntity
  8
寸法
  6
Continuous
 62
     7
370
     9
100
AcDbPolyline
 90
        4
 70
     1
 43
6.0
 10
1167.703636205541
 20
-1429.918780494421
 42
0.4142135623731
 10
1164.703636205541
 20
-1426.918780494421
 42
0.4142135623731
 10
1161.703636205541
 20
-1429.918780494421
 42
0.4142135623731
 10
1164.703636205541
 20
-1432.918780494421
 42
0.4142135623731
  0
LINE
  5
191
330
1F
100
AcDbEntity
  8
寸法
  6
Continuous
 62
   120
370
     5
100
AcDbLine
 10
1164.703636205541
 20
-1429.918780494421
 30
0.0
 11
1164.703636205541
 21
-1029.918780494422
 31
0.0
  0
LINE
  5
192
330
1F
100
AcDbEntity
  8
寸法
  6
Continuous
 62
   120
370
     5
100
AcDbLine
 10
-1045.296363794459
 20
-1429.918780494422
 30
0.0
 11
1164.703636205541
 21
-1429.918780494421
 31
0.0
  0
LWPOLYLINE
  5
193
330
1F
100
AcDbEntity
  8
寸法
  6
Continuous
 62
     7
370
     9
100
AcDbPolyline
 90
        4
 70
     1
 43
6.0
 10
-1322.29636379446
 20
1011.081219505578
 42
0.4142135623731
 10
-1325.29636379446
 20
1014.081219505578
 42
0.4142135623731
 10
-1328.29636379446
 20
1011.081219505578
 42
0.4142135623731
 10
-1325.29636379446
 20
1008.081219505578
 42
0.4142135623731
  0
LINE
  5
194
330
1F
100
AcDbEntity
  8
寸法
  6
Continuous
 62
   120
370
     5
100
AcDbLine
 10
-1325.29636379446
 20
1011.081219505578
 30
0.0
 11
-1325.29636379446
 21
-971.9187804944225
 31
0.0
  0
LINE
  5
195
330
1F
100
AcDbEntity
  8
寸法
  6
Continuous
 62
   120
370
     5
100
AcDbLine
 10
-1325.29636379446
 20
1011.081219505578
 30
0.0
 11
-1125.296363794458
 21
1011.081219505578
 31
0.0
  0
LWPOLYLINE
  5
196
330
1F
100
AcDbEntity
  8
寸法
  6
Continuous
 62
     7
370
     9
100
AcDbPolyline
 90
        4
 70
     1
 43
6.0
 10
-1322.29636379446
 20
-971.9187804944225
 42
0.4142135623731
 10
-1325.29636379446
 20
-968.9187804944225
 42
0.4142135623731
 10
-1328.29636379446
 20
-971.9187804944225
 42
0.4142135623731
 10
-1325.29636379446
 20
-974.9187804944227
 42
0.4142135623731
  0
LINE
  5
197
330
1F
100
AcDbEntity
  8
寸法
  6
Continuous
 62
   120
370
     5
100
AcDbLine
 10
-1325.29636379446
 20
-971.9187804944225
 30
0.0
 11
-1125.296363794458
 21
-971.9187804944225
 31
0.0
  0
TEXT
  5
198
330
1F
100
AcDbEntity
  8
寸法
  6
Continuous
 62
     7
370
    70
100
AcDbText
 10
-1550.871363794459
 20
-174.1687804944212
 30
0.0
 40
57.15000000000001
  1
枠外＝2,035
 50
90.0
 41
0.9999999999999999
  7
ＭＳ ゴシック
100
AcDbText
  0
TEXT
  5
199
330
1F
100
AcDbEntity
  8
寸法
  6
Continuous
 62
     7
370
    70
100
AcDbText
 10
-1350.87136379446
 20
-180.6687804944226
 30
0.0
 40
57.15000000000001
  1
ＤＨ＝1,983
 50
90.0
 41
0.9999999999999999
  7
ＭＳ ゴシック
100
AcDbText
  0
TEXT
  5
19A
330
1F
100
AcDbEntity
  8
寸法
  6
Continuous
 62
     7
370
   211
100
AcDbText
 10
-812.0463637944599
 20
-1204.343780494421
 30
0.0
 40
57.15000000000001
  1
ＤＷ＝810
 41
0.9999999999999998
  7
ＭＳ ゴシック
100
AcDbText
  0
TEXT
  5
19B
330
1F
100
AcDbEntity
  8
寸法
  6
Continuous
 62
     7
370
   211
100
AcDbText
 10
-221.5463637944598
 20
-1404.343780494422
 30
0.0
 40
57.15000000000001
  1
有効開口＝2,210
 41
0.9999999999999998
  7
ＭＳ ゴシック
100
AcDbText
  0
TEXT
  5
19C
330
1F
100
AcDbEntity
  8
寸法
  6
Continuous
 62
     7
370
   211
100
AcDbText
 10
258.4536362055403
 20
-1604.343780494421
 30
0.0
 40
57.15000000000001
  1
枠外＝3,080
 41
0.9999999999999998
  7
ＭＳ ゴシック
100
AcDbText
  0
ENDSEC
  0
SECTION
  2
OBJECTS
  0
DICTIONARY
  5
C
330
0
100
AcDbDictionary
281
     1
  3
ACAD_DETAILVIEWSTYLE
350
1D4
  3
ACAD_GROUP
350
D
  3
ACAD_LAYOUT
350
1A
  3
ACAD_MATERIAL
350
43
  3
ACAD_MLEADERSTYLE
350
6B
  3
ACAD_MLINESTYLE
350
17
  3
ACAD_PLOTSETTINGS
350
19
  3
ACAD_PLOTSTYLENAME
350
E
  3
ACAD_SCALELIST
350
47
  3
ACAD_SECTIONVIEWSTYLE
350
1D5
  3
ACAD_TABLESTYLE
350
69
  3
ACAD_VISUALSTYLE
350
2A
  3
ACDB_RECOMPOSE_DATA
350
1D1
  3
AcDbVariableDictionary
350
19D
  0
SUN
  5
6D
330
29
100
AcDbSun
 90
        1
290
     0
 63
     7
421
 16777215
 40
1.0
291
     1
 91
  2455826
 92
 54000000
292
     0
 70
     2
 71
   256
280
     1
  0
DICTIONARY
  5
1D4
102
{ACAD_REACTORS
330
C
102
}
330
C
100
AcDbDictionary
281
     1
  0
DICTIONARY
  5
D
102
{ACAD_REACTORS
330
C
102
}
330
C
100
AcDbDictionary
281
     1
  0
DICTIONARY
  5
1A
102
{ACAD_REACTORS
330
C
102
}
330
C
100
AcDbDictionary
281
     1
  3
Layout1
350
1E
  3
Layout2
350
26
  3
Model
350
22
  0
DICTIONARY
  5
43
102
{ACAD_REACTORS
330
C
102
}
330
C
100
AcDbDictionary
281
     1
  3
ByBlock
350
45
  3
ByLayer
350
44
  3
Global
350
46
  0
DICTIONARY
  5
6B
102
{ACAD_REACTORS
330
C
102
}
330
C
100
AcDbDictionary
281
     1
  3
Standard
350
6C
  0
DICTIONARY
  5
17
102
{ACAD_REACTORS
330
C
102
}
330
C
100
AcDbDictionary
281
     1
  3
Standard
350
18
  0
DICTIONARY
  5
19
102
{ACAD_REACTORS
330
C
102
}
330
C
100
AcDbDictionary
281
     1
  0
ACDBDICTIONARYWDFLT
  5
E
102
{ACAD_REACTORS
330
C
102
}
330
C
100
AcDbDictionary
281
     1
  3
Normal
350
F
100
AcDbDictionaryWithDefault
340
F
  0
DICTIONARY
  5
47
102
{ACAD_REACTORS
330
C
102
}
330
C
100
AcDbDictionary
281
     1
  3
A0
350
48
  3
A1
350
49
  3
A2
350
4A
  3
A3
350
4B
  3
A4
350
4C
  3
A5
350
4D
  3
A6
350
4E
  3
A7
350
4F
  3
A8
350
50
  3
A9
350
51
  3
B0
350
52
  3
B1
350
53
  3
B2
350
54
  3
B3
350
55
  3
B4
350
56
  3
B5
350
57
  3
B6
350
58
  3
B7
350
59
  3
B8
350
5A
  3
B9
350
5B
  3
C0
350
5C
  3
C1
350
5D
  3
C2
350
5E
  3
C3
350
5F
  3
C4
350
60
  3
C5
350
61
  3
C6
350
62
  3
C7
350
63
  3
C8
350
64
  3
C9
350
65
  3
D0
350
66
  3
D1
350
67
  3
D2
350
68
  0
DICTIONARY
  5
1D5
102
{ACAD_REACTORS
330
C
102
}
330
C
100
AcDbDictionary
281
     1
  0
DICTIONARY
  5
69
102
{ACAD_REACTORS
330
C
102
}
330
C
100
AcDbDictionary
281
     1
  3
Standard
350
6A
  0
DICTIONARY
  5
2A
102
{ACAD_REACTORS
330
C
102
}
330
C
100
AcDbDictionary
281
     1
  3
2dWireframe
350
2F
  3
Basic
350
32
  3
Brighten
350
36
  3
ColorChange
350
3A
  3
Conceptual
350
34
  3
Dim
350
35
  3
EdgeColorOff
350
3D
  3
Facepattern
350
39
  3
Flat
350
2B
  3
FlatWithEdges
350
2C
  3
Gouraud
350
2D
  3
GouraudWithEdges
350
2E
  3
Hidden
350
31
  3
JitterOff
350
3B
  3
Linepattern
350
38
  3
OverhangOff
350
3C
  3
Realistic
350
33
  3
Shaded
350
42
  3
Shaded with edges
350
41
  3
Shades of Gray
350
3E
  3
Sketchy
350
3F
  3
Thicken
350
37
  3
Wireframe
350
30
  3
X-Ray
350
40
  0
XRECORD
  5
1D1
102
{ACAD_REACTORS
330
C
102
}
330
C
100
AcDbXrecord
280
     1
 90
        1
330
6A
  0
DICTIONARY
  5
19D
102
{ACAD_REACTORS
330
C
102
}
330
C
100
AcDbDictionary
281
     1
  3
CANNOSCALE
350
19E
  3
CENTEREXE
350
1D6
  3
CENTERLTYPEFILE
350
1D7
  3
CMLEADERSTYLE
350
1D3
  3
CTABLESTYLE
350
1D2
  0
LAYOUT
  5
1E
102
{ACAD_REACTORS
330
1A
102
}
330
1A
100
AcDbPlotSettings
  1

  2
none_device
  4

  6

 40
0.0
 41
0.0
 42
0.0
 43
0.0
 44
0.0
 45
0.0
 46
0.0
 47
0.0
 48
0.0
 49
0.0
140
0.0
141
0.0
142
1.0
143
1.0
 70
   688
 72
     1
 73
     0
 74
     5
  7

 75
    16
 76
     0
 77
     5
 78
   300
147
1.0
148
0.0
149
0.0
100
AcDbLayout
  1
Layout1
 70
     1
 71
     1
 10
0.0
 20
0.0
 11
420.0
 21
297.0
 12
0.0
 22
0.0
 32
0.0
 14
1.000000000000000E+20
 24
1.000000000000000E+20
 34
1.000000000000000E+20
 15
-1.000000000000000E+20
 25
-1.000000000000000E+20
 35
-1.000000000000000E+20
146
0.0
 13
0.0
 23
0.0
 33
0.0
 16
1.0
 26
0.0
 36
0.0
 17
0.0
 27
1.0
 37
0.0
 76
     0
330
1B
  0
LAYOUT
  5
26
102
{ACAD_REACTORS
330
1A
102
}
330
1A
100
AcDbPlotSettings
  1

  2
none_device
  4

  6

 40
0.0
 41
0.0
 42
0.0
 43
0.0
 44
0.0
 45
0.0
 46
0.0
 47
0.0
 48
0.0
 49
0.0
140
0.0
141
0.0
142
1.0
143
1.0
 70
   688
 72
     1
 73
     0
 74
     5
  7

 75
    16
 76
     0
 77
     5
 78
   300
147
1.0
148
0.0
149
0.0
100
AcDbLayout
  1
Layout2
 70
     1
 71
     2
 10
0.0
 20
0.0
 11
0.0
 21
0.0
 12
0.0
 22
0.0
 32
0.0
 14
0.0
 24
0.0
 34
0.0
 15
0.0
 25
0.0
 35
0.0
146
0.0
 13
0.0
 23
0.0
 33
0.0
 16
1.0
 26
0.0
 36
0.0
 17
0.0
 27
1.0
 37
0.0
 76
     0
330
23
  0
LAYOUT
  5
22
102
{ACAD_REACTORS
330
1A
102
}
330
1A
100
AcDbPlotSettings
  1

  2
none_device
  4
Letter_(8.50_x_11.00_Inches)
  6

 40
6.35
 41
6.35
 42
6.35000508
 43
6.35000508
 44
215.9
 45
279.4
 46
0.0
 47
0.0
 48
0.0
 49
0.0
140
0.0
141
0.0
142
1.0
143
1.0
 70
  1712
 72
     1
 73
     0
 74
     0
  7

 75
     0
 76
     0
 77
     5
 78
   300
147
1.0
148
0.0
149
0.0
100
AcDbLayout
  1
Model
 70
     1
 71
     0
 10
-4455.0
 20
-3150.0
 11
4455.0
 21
3150.0
 12
0.0
 22
0.0
 32
0.0
 14
-4455.0
 24
-3150.0
 34
0.0
 15
4455.0
 25
3150.0
 35
0.0
146
0.0
 13
0.0
 23
0.0
 33
0.0
 16
1.0
 26
0.0
 36
0.0
 17
0.0
 27
1.0
 37
0.0
 76
     0
330
1F
331
29
  0
MATERIAL
  5
45
102
{ACAD_REACTORS
330
43
102
}
330
43
100
AcDbMaterial
  1
ByBlock
 72
     1
 94
      127
  0
MATERIAL
  5
44
102
{ACAD_REACTORS
330
43
102
}
330
43
100
AcDbMaterial
  1
ByLayer
 72
     1
 94
      127
  0
MATERIAL
  5
46
102
{ACAD_REACTORS
330
43
102
}
330
43
100
AcDbMaterial
  1
Global
 72
     1
 94
      127
  0
MLEADERSTYLE
  5
6C
102
{ACAD_REACTORS
330
6B
102
}
330
6B
100
AcDbMLeaderStyle
179
     2
170
     2
171
     1
172
     0
 90
        2
 40
0.0
 41
0.0
173
     1
 91
-1056964608
340
14
 92
       -2
290
     1
 42
2.0
291
     1
 43
8.0
  3
Standard
341
0
 44
4.0
300

342
11
174
     1
178
     6
175
     1
176
     0
 93
-1056964608
 45
4.0
292
     0
297
     0
 46
4.0
343
0
 94
-1056964608
 47
1.0
 49
1.0
140
1.0
293
     1
141
0.0
294
     1
177
     0
142
1.0
295
     0
296
     0
143
3.75
271
     0
272
     9
273
     9
  0
MLINESTYLE
  5
18
102
{ACAD_REACTORS
330
17
102
}
330
17
100
AcDbMlineStyle
  2
Standard
 70
     0
  3

 62
   256
 51
90.0
 52
90.0
 71
     2
 49
0.5
 62
   256
  6
BYLAYER
 49
-0.5
 62
   256
  6
BYLAYER
  0
ACDBPLACEHOLDER
  5
F
102
{ACAD_REACTORS
330
E
102
}
330
E
  0
SCALE
  5
48
102
{ACAD_REACTORS
330
47
102
}
330
47
100
AcDbScale
 70
     0
300
1:1
140
1.0
141
1.0
290
     1
  0
SCALE
  5
49
102
{ACAD_REACTORS
330
47
102
}
330
47
100
AcDbScale
 70
     0
300
1:2
140
1.0
141
2.0
290
     0
  0
SCALE
  5
4A
102
{ACAD_REACTORS
330
47
102
}
330
47
100
AcDbScale
 70
     0
300
1:4
140
1.0
141
4.0
290
     0
  0
SCALE
  5
4B
102
{ACAD_REACTORS
330
47
102
}
330
47
100
AcDbScale
 70
     0
300
1:5
140
1.0
141
5.0
290
     0
  0
SCALE
  5
4C
102
{ACAD_REACTORS
330
47
102
}
330
47
100
AcDbScale
 70
     0
300
1:8
140
1.0
141
8.0
290
     0
  0
SCALE
  5
4D
102
{ACAD_REACTORS
330
47
102
}
330
47
100
AcDbScale
 70
     0
300
1:10
140
1.0
141
10.0
290
     0
  0
SCALE
  5
4E
102
{ACAD_REACTORS
330
47
102
}
330
47
100
AcDbScale
 70
     0
300
1:16
140
1.0
141
16.0
290
     0
  0
SCALE
  5
4F
102
{ACAD_REACTORS
330
47
102
}
330
47
100
AcDbScale
 70
     0
300
1:20
140
1.0
141
20.0
290
     0
  0
SCALE
  5
50
102
{ACAD_REACTORS
330
47
102
}
330
47
100
AcDbScale
 70
     0
300
1:30
140
1.0
141
30.0
290
     0
  0
SCALE
  5
51
102
{ACAD_REACTORS
330
47
102
}
330
47
100
AcDbScale
 70
     0
300
1:40
140
1.0
141
40.0
290
     0
  0
SCALE
  5
52
102
{ACAD_REACTORS
330
47
102
}
330
47
100
AcDbScale
 70
     0
300
1:50
140
1.0
141
50.0
290
     0
  0
SCALE
  5
53
102
{ACAD_REACTORS
330
47
102
}
330
47
100
AcDbScale
 70
     0
300
1:100
140
1.0
141
100.0
290
     0
  0
SCALE
  5
54
102
{ACAD_REACTORS
330
47
102
}
330
47
100
AcDbScale
 70
     0
300
2:1
140
2.0
141
1.0
290
     0
  0
SCALE
  5
55
102
{ACAD_REACTORS
330
47
102
}
330
47
100
AcDbScale
 70
     0
300
4:1
140
4.0
141
1.0
290
     0
  0
SCALE
  5
56
102
{ACAD_REACTORS
330
47
102
}
330
47
100
AcDbScale
 70
     0
300
8:1
140
8.0
141
1.0
290
     0
  0
SCALE
  5
57
102
{ACAD_REACTORS
330
47
102
}
330
47
100
AcDbScale
 70
     0
300
10:1
140
10.0
141
1.0
290
     0
  0
SCALE
  5
58
102
{ACAD_REACTORS
330
47
102
}
330
47
100
AcDbScale
 70
     0
300
100:1
140
100.0
141
1.0
290
     0
  0
SCALE
  5
59
102
{ACAD_REACTORS
330
47
102
}
330
47
100
AcDbScale
 70
     0
300
1/128" = 1'-0"
140
0.0078125
141
12.0
290
     0
  0
SCALE
  5
5A
102
{ACAD_REACTORS
330
47
102
}
330
47
100
AcDbScale
 70
     0
300
1/64" = 1'-0"
140
0.015625
141
12.0
290
     0
  0
SCALE
  5
5B
102
{ACAD_REACTORS
330
47
102
}
330
47
100
AcDbScale
 70
     0
300
1/32" = 1'-0"
140
0.03125
141
12.0
290
     0
  0
SCALE
  5
5C
102
{ACAD_REACTORS
330
47
102
}
330
47
100
AcDbScale
 70
     0
300
1/16" = 1'-0"
140
0.0625
141
12.0
290
     0
  0
SCALE
  5
5D
102
{ACAD_REACTORS
330
47
102
}
330
47
100
AcDbScale
 70
     0
300
3/32" = 1'-0"
140
0.09375
141
12.0
290
     0
  0
SCALE
  5
5E
102
{ACAD_REACTORS
330
47
102
}
330
47
100
AcDbScale
 70
     0
300
1/8" = 1'-0"
140
0.125
141
12.0
290
     0
  0
SCALE
  5
5F
102
{ACAD_REACTORS
330
47
102
}
330
47
100
AcDbScale
 70
     0
300
3/16" = 1'-0"
140
0.1875
141
12.0
290
     0
  0
SCALE
  5
60
102
{ACAD_REACTORS
330
47
102
}
330
47
100
AcDbScale
 70
     0
300
1/4" = 1'-0"
140
0.25
141
12.0
290
     0
  0
SCALE
  5
61
102
{ACAD_REACTORS
330
47
102
}
330
47
100
AcDbScale
 70
     0
300
3/8" = 1'-0"
140
0.375
141
12.0
290
     0
  0
SCALE
  5
62
102
{ACAD_REACTORS
330
47
102
}
330
47
100
AcDbScale
 70
     0
300
1/2" = 1'-0"
140
0.5
141
12.0
290
     0
  0
SCALE
  5
63
102
{ACAD_REACTORS
330
47
102
}
330
47
100
AcDbScale
 70
     0
300
3/4" = 1'-0"
140
0.75
141
12.0
290
     0
  0
SCALE
  5
64
102
{ACAD_REACTORS
330
47
102
}
330
47
100
AcDbScale
 70
     0
300
1" = 1'-0"
140
1.0
141
12.0
290
     0
  0
SCALE
  5
65
102
{ACAD_REACTORS
330
47
102
}
330
47
100
AcDbScale
 70
     0
300
1-1/2" = 1'-0"
140
1.5
141
12.0
290
     0
  0
SCALE
  5
66
102
{ACAD_REACTORS
330
47
102
}
330
47
100
AcDbScale
 70
     0
300
3" = 1'-0"
140
3.0
141
12.0
290
     0
  0
SCALE
  5
67
102
{ACAD_REACTORS
330
47
102
}
330
47
100
AcDbScale
 70
     0
300
6" = 1'-0"
140
6.0
141
12.0
290
     0
  0
SCALE
  5
68
102
{ACAD_REACTORS
330
47
102
}
330
47
100
AcDbScale
 70
     0
300
1'-0" = 1'-0"
140
12.0
141
12.0
290
     0
  0
TABLESTYLE
  5
6A
102
{ACAD_REACTORS
330
69
102
}
102
{ACAD_XDICTIONARY
360
1CF
102
}
330
69
100
AcDbTableStyle
  3
Standard
 70
     0
 71
     0
 40
0.06
 41
0.06
280
     0
281
     0
  7
Standard
140
4.5
170
     2
 62
     0
 63
   257
283
     0
 90
        4
 91
        0
  1

274
    -2
284
     1
 64
     0
275
    -2
285
     1
 65
     0
276
    -2
286
     1
 66
     0
277
    -2
287
     1
 67
     0
278
    -2
288
     1
 68
     0
279
    -2
289
     1
 69
     0
  7
Standard
140
6.0
170
     5
 62
     0
 63
   257
283
     0
 90
        4
 91
        0
  1

274
    -2
284
     1
 64
     0
275
    -2
285
     1
 65
     0
276
    -2
286
     1
 66
     0
277
    -2
287
     1
 67
     0
278
    -2
288
     1
 68
     0
279
    -2
289
     1
 69
     0
  7
Standard
140
4.5
170
     5
 62
     0
 63
   257
283
     0
 90
        4
 91
        0
  1

274
    -2
284
     1
 64
     0
275
    -2
285
     1
 65
     0
276
    -2
286
     1
 66
     0
277
    -2
287
     1
 67
     0
278
    -2
288
     1
 68
     0
279
    -2
289
     1
 69
     0
  0
VISUALSTYLE
  5
2F
102
{ACAD_REACTORS
330
2A
102
}
102
{ACAD_XDICTIONARY
360
1A7
102
}
330
2A
100
AcDbVisualStyle
  2
2dWireframe
 70
     4
177
     2
291
     0
 71
     0
176
     1
 72
     2
176
     1
 73
     0
176
     1
 90
        0
176
     1
 40
0.6
176
     1
 41
30.0
176
     1
 62
     5
 63
     7
421
 16777215
176
     1
 74
     1
176
     1
 91
        4
176
     1
 64
     7
176
     1
 65
   257
176
     1
 75
     1
176
     1
175
     1
176
     1
 42
1.0
176
     1
 92
        0
176
     1
 66
   257
176
     1
 43
1.0
176
     1
 76
     1
176
     1
 77
     6
176
     1
 78
     2
176
     1
 67
     7
176
     1
 79
     5
176
     1
170
     0
176
     1
171
     0
176
     1
290
     0
176
     1
 93
        1
176
     1
 44
0.0
176
     1
173
     0
176
     1
  0
VISUALSTYLE
  5
32
102
{ACAD_REACTORS
330
2A
102
}
102
{ACAD_XDICTIONARY
360
1AD
102
}
330
2A
100
AcDbVisualStyle
  2
Basic
 70
     7
177
     2
291
     1
 71
     1
176
     1
 72
     0
176
     1
 73
     1
176
     1
 90
        0
176
     1
 40
0.6
176
     1
 41
30.0
176
     1
 62
     5
 63
     7
421
 16777215
176
     1
 74
     0
176
     1
 91
        4
176
     1
 64
     7
176
     1
 65
   257
176
     1
 75
     1
176
     1
175
     1
176
     1
 42
1.0
176
     1
 92
        8
176
     1
 66
     7
176
     1
 43
1.0
176
     1
 76
     1
176
     1
 77
     6
176
     1
 78
     2
176
     1
 67
     7
176
     1
 79
     5
176
     1
170
     0
176
     1
171
     0
176
     1
290
     0
176
     1
 93
        1
176
     1
 44
0.0
176
     1
173
     0
176
     1
  0
VISUALSTYLE
  5
36
102
{ACAD_REACTORS
330
2A
102
}
102
{ACAD_XDICTIONARY
360
1B5
102
}
330
2A
100
AcDbVisualStyle
  2
Brighten
 70
    12
177
     2
291
     1
 71
     2
176
     1
 72
     2
176
     1
 73
     0
176
     1
 90
        0
176
     1
 40
0.6
176
     1
 41
30.0
176
     1
 62
     5
 63
     7
421
 16777215
176
     1
 74
     1
176
     1
 91
        4
176
     1
 64
     7
176
     1
 65
   257
176
     1
 75
     1
176
     1
175
     1
176
     1
 42
1.0
176
     1
 92
        8
176
     1
 66
     7
176
     1
 43
1.0
176
     1
 76
     1
176
     1
 77
     6
176
     1
 78
     2
176
     1
 67
     7
176
     1
 79
     5
176
     1
170
     0
176
     1
171
     0
176
     1
290
     0
176
     1
 93
        1
176
     1
 44
50.0
176
     1
173
     0
176
     1
  0
VISUALSTYLE
  5
3A
102
{ACAD_REACTORS
330
2A
102
}
102
{ACAD_XDICTIONARY
360
1BD
102
}
330
2A
100
AcDbVisualStyle
  2
ColorChange
 70
    16
177
     2
291
     1
 71
     2
176
     1
 72
     2
176
     1
 73
     3
176
     1
 90
        0
176
     1
 40
0.6
176
     1
 41
30.0
176
     1
 62
     5
 63
     8
421
  8421504
176
     1
 74
     1
176
     1
 91
        4
176
     1
 64
     7
176
     1
 65
   257
176
     1
 75
     1
176
     1
175
     1
176
     1
 42
1.0
176
     1
 92
        8
176
     1
 66
     8
424
  8421504
176
     1
 43
1.0
176
     1
 76
     1
176
     1
 77
     6
176
     1
 78
     2
176
     1
 67
     7
176
     1
 79
     5
176
     1
170
     0
176
     1
171
     0
176
     1
290
     0
176
     1
 93
        1
176
     1
 44
0.0
176
     1
173
     0
176
     1
  0
VISUALSTYLE
  5
34
102
{ACAD_REACTORS
330
2A
102
}
102
{ACAD_XDICTIONARY
360
1B1
102
}
330
2A
100
AcDbVisualStyle
  2
Conceptual
 70
     9
177
     2
291
     0
 71
     3
176
     1
 72
     2
176
     1
 73
     0
176
     1
 90
        0
176
     1
 40
0.6
176
     1
 41
30.0
176
     1
 62
     5
 63
     7
421
 16777215
176
     1
 74
     2
176
     1
 91
        2
176
     1
 64
     7
176
     1
 65
   257
176
     1
 75
     1
176
     1
175
     1
176
     1
 42
179.0
176
     1
 92
        8
176
     1
 66
     7
176
     1
 43
1.0
176
     1
 76
     1
176
     1
 77
     6
176
     1
 78
     2
176
     1
 67
     7
176
     1
 79
     3
176
     1
170
     0
176
     1
171
     0
176
     1
290
     0
176
     1
 93
        1
176
     1
 44
0.0
176
     1
173
     0
176
     1
  0
VISUALSTYLE
  5
35
102
{ACAD_REACTORS
330
2A
102
}
102
{ACAD_XDICTIONARY
360
1B3
102
}
330
2A
100
AcDbVisualStyle
  2
Dim
 70
    11
177
     2
291
     1
 71
     2
176
     1
 72
     2
176
     1
 73
     0
176
     1
 90
        0
176
     1
 40
0.6
176
     1
 41
30.0
176
     1
 62
     5
 63
     7
421
 16777215
176
     1
 74
     1
176
     1
 91
        4
176
     1
 64
     7
176
     1
 65
   257
176
     1
 75
     1
176
     1
175
     1
176
     1
 42
1.0
176
     1
 92
        8
176
     1
 66
     7
176
     1
 43
1.0
176
     1
 76
     1
176
     1
 77
     6
176
     1
 78
     2
176
     1
 67
     7
176
     1
 79
     5
176
     1
170
     0
176
     1
171
     0
176
     1
290
     0
176
     1
 93
        1
176
     1
 44
-50.0
176
     1
173
     0
176
     1
  0
VISUALSTYLE
  5
3D
102
{ACAD_REACTORS
330
2A
102
}
102
{ACAD_XDICTIONARY
360
1C3
102
}
330
2A
100
AcDbVisualStyle
  2
EdgeColorOff
 70
    22
177
     2
291
     1
 71
     2
176
     0
 72
     2
176
     0
 73
     0
176
     0
 90
        0
176
     0
 40
0.6
176
     0
 41
30.0
176
     0
 62
     5
 63
     7
421
 16777215
176
     0
 74
     1
176
     0
 91
        4
176
     0
 64
     7
176
     0
 65
   257
176
     0
 75
     1
176
     0
175
     1
176
     0
 42
1.0
176
     0
 92
        8
176
     2
 66
     7
176
     0
 43
1.0
176
     0
 76
     1
176
     0
 77
     6
176
     0
 78
     2
176
     0
 67
     7
176
     0
 79
     5
176
     0
170
     0
176
     0
171
     0
176
     0
290
     0
176
     0
 93
        1
176
     0
 44
0.0
176
     0
173
     0
176
     0
  0
VISUALSTYLE
  5
39
102
{ACAD_REACTORS
330
2A
102
}
102
{ACAD_XDICTIONARY
360
1BB
102
}
330
2A
100
AcDbVisualStyle
  2
Facepattern
 70
    15
177
     2
291
     1
 71
     2
176
     1
 72
     2
176
     1
 73
     0
176
     1
 90
        0
176
     1
 40
0.6
176
     1
 41
30.0
176
     1
 62
     5
 63
     7
421
 16777215
176
     1
 74
     1
176
     1
 91
        4
176
     1
 64
     7
176
     1
 65
   257
176
     1
 75
     1
176
     1
175
     1
176
     1
 42
1.0
176
     1
 92
        8
176
     1
 66
     7
176
     1
 43
1.0
176
     1
 76
     1
176
     1
 77
     6
176
     1
 78
     2
176
     1
 67
     7
176
     1
 79
     5
176
     1
170
     0
176
     1
171
     0
176
     1
290
     0
176
     1
 93
        1
176
     1
 44
0.0
176
     1
173
     0
176
     1
  0
VISUALSTYLE
  5
2B
102
{ACAD_REACTORS
330
2A
102
}
102
{ACAD_XDICTIONARY
360
19F
102
}
330
2A
100
AcDbVisualStyle
  2
Flat
 70
     0
177
     2
291
     1
 71
     2
176
     1
 72
     1
176
     1
 73
     1
176
     1
 90
        2
176
     1
 40
0.6
176
     1
 41
30.0
176
     1
 62
     5
 63
     7
421
 16777215
176
     1
 74
     0
176
     1
 91
        0
176
     1
 64
     7
176
     1
 65
   257
176
     1
 75
     1
176
     1
175
     1
176
     1
 42
1.0
176
     1
 92
        8
176
     1
 66
     7
176
     1
 43
1.0
176
     1
 76
     1
176
     1
 77
     6
176
     1
 78
     2
176
     1
 67
     7
176
     1
 79
     5
176
     1
170
     0
176
     1
171
     0
176
     1
290
     0
176
     1
 93
       13
176
     1
 44
0.0
176
     1
173
     0
176
     1
  0
VISUALSTYLE
  5
2C
102
{ACAD_REACTORS
330
2A
102
}
102
{ACAD_XDICTIONARY
360
1A1
102
}
330
2A
100
AcDbVisualStyle
  2
FlatWithEdges
 70
     1
177
     2
291
     1
 71
     2
176
     1
 72
     1
176
     1
 73
     1
176
     1
 90
        2
176
     1
 40
0.6
176
     1
 41
30.0
176
     1
 62
     5
 63
     7
421
 16777215
176
     1
 74
     1
176
     1
 91
        0
176
     1
 64
     7
176
     1
 65
   257
176
     1
 75
     1
176
     1
175
     1
176
     1
 42
1.0
176
     1
 92
        0
176
     1
 66
   257
176
     1
 43
1.0
176
     1
 76
     1
176
     1
 77
     6
176
     1
 78
     2
176
     1
 67
     7
176
     1
 79
     5
176
     1
170
     0
176
     1
171
     0
176
     1
290
     0
176
     1
 93
       13
176
     1
 44
0.0
176
     1
173
     0
176
     1
  0
VISUALSTYLE
  5
2D
102
{ACAD_REACTORS
330
2A
102
}
102
{ACAD_XDICTIONARY
360
1A3
102
}
330
2A
100
AcDbVisualStyle
  2
Gouraud
 70
     2
177
     2
291
     1
 71
     2
176
     1
 72
     2
176
     1
 73
     1
176
     1
 90
        2
176
     1
 40
0.6
176
     1
 41
30.0
176
     1
 62
     5
 63
     7
421
 16777215
176
     1
 74
     0
176
     1
 91
        0
176
     1
 64
     7
176
     1
 65
   257
176
     1
 75
     1
176
     1
175
     1
176
     1
 42
1.0
176
     1
 92
        0
176
     1
 66
     7
176
     1
 43
1.0
176
     1
 76
     1
176
     1
 77
     6
176
     1
 78
     2
176
     1
 67
     7
176
     1
 79
     5
176
     1
170
     0
176
     1
171
     0
176
     1
290
     0
176
     1
 93
       13
176
     1
 44
0.0
176
     1
173
     0
176
     1
  0
VISUALSTYLE
  5
2E
102
{ACAD_REACTORS
330
2A
102
}
102
{ACAD_XDICTIONARY
360
1A5
102
}
330
2A
100
AcDbVisualStyle
  2
GouraudWithEdges
 70
     3
177
     2
291
     1
 71
     2
176
     1
 72
     2
176
     1
 73
     1
176
     1
 90
        2
176
     1
 40
0.6
176
     1
 41
30.0
176
     1
 62
     5
 63
     7
421
 16777215
176
     1
 74
     1
176
     1
 91
        0
176
     1
 64
     7
176
     1
 65
   257
176
     1
 75
     1
176
     1
175
     1
176
     1
 42
1.0
176
     1
 92
        0
176
     1
 66
   257
176
     1
 43
1.0
176
     1
 76
     1
176
     1
 77
     6
176
     1
 78
     2
176
     1
 67
     7
176
     1
 79
     5
176
     1
170
     0
176
     1
171
     0
176
     1
290
     0
176
     1
 93
       13
176
     1
 44
0.0
176
     1
173
     0
176
     1
  0
VISUALSTYLE
  5
31
102
{ACAD_REACTORS
330
2A
102
}
102
{ACAD_XDICTIONARY
360
1AB
102
}
330
2A
100
AcDbVisualStyle
  2
Hidden
 70
     6
177
     2
291
     0
 71
     1
176
     1
 72
     2
176
     1
 73
     2
176
     1
 90
        0
176
     1
 40
0.6
176
     1
 41
30.0
176
     1
 62
     5
 63
     7
421
 16777215
176
     1
 74
     2
176
     1
 91
        2
176
     1
 64
     7
176
     1
 65
   257
176
     1
 75
     2
176
     1
175
     1
176
     1
 42
40.0
176
     1
 92
        0
176
     1
 66
   257
176
     1
 43
1.0
176
     1
 76
     1
176
     1
 77
     6
176
     1
 78
     2
176
     1
 67
     7
176
     1
 79
     3
176
     1
170
     0
176
     1
171
     0
176
     1
290
     0
176
     1
 93
        1
176
     1
 44
0.0
176
     1
173
     0
176
     1
  0
VISUALSTYLE
  5
3B
102
{ACAD_REACTORS
330
2A
102
}
102
{ACAD_XDICTIONARY
360
1BF
102
}
330
2A
100
AcDbVisualStyle
  2
JitterOff
 70
    20
177
     2
291
     1
 71
     2
176
     0
 72
     2
176
     0
 73
     0
176
     0
 90
        0
176
     0
 40
0.6
176
     0
 41
30.0
176
     0
 62
     5
 63
     7
421
 16777215
176
     0
 74
     1
176
     0
 91
        4
176
     0
 64
     7
176
     0
 65
   257
176
     0
 75
     1
176
     0
175
     1
176
     0
 42
1.0
176
     0
 92
       10
176
     2
 66
     7
176
     0
 43
1.0
176
     0
 76
     1
176
     0
 77
     6
176
     0
 78
     2
176
     0
 67
     7
176
     0
 79
     5
176
     0
170
     0
176
     0
171
     0
176
     0
290
     0
176
     0
 93
        1
176
     0
 44
0.0
176
     0
173
     0
176
     0
  0
VISUALSTYLE
  5
38
102
{ACAD_REACTORS
330
2A
102
}
102
{ACAD_XDICTIONARY
360
1B9
102
}
330
2A
100
AcDbVisualStyle
  2
Linepattern
 70
    14
177
     2
291
     1
 71
     2
176
     1
 72
     2
176
     1
 73
     0
176
     1
 90
        0
176
     1
 40
0.6
176
     1
 41
30.0
176
     1
 62
     5
 63
     7
421
 16777215
176
     1
 74
     1
176
     1
 91
        4
176
     1
 64
     7
176
     1
 65
   257
176
     1
 75
     7
176
     1
175
     7
176
     1
 42
1.0
176
     1
 92
        8
176
     1
 66
     7
176
     1
 43
1.0
176
     1
 76
     1
176
     1
 77
     6
176
     1
 78
     2
176
     1
 67
     7
176
     1
 79
     5
176
     1
170
     0
176
     1
171
     0
176
     1
290
     0
176
     1
 93
        1
176
     1
 44
0.0
176
     1
173
     0
176
     1
  0
VISUALSTYLE
  5
3C
102
{ACAD_REACTORS
330
2A
102
}
102
{ACAD_XDICTIONARY
360
1C1
102
}
330
2A
100
AcDbVisualStyle
  2
OverhangOff
 70
    21
177
     2
291
     1
 71
     2
176
     0
 72
     2
176
     0
 73
     0
176
     0
 90
        0
176
     0
 40
0.6
176
     0
 41
30.0
176
     0
 62
     5
 63
     7
421
 16777215
176
     0
 74
     1
176
     0
 91
        4
176
     0
 64
     7
176
     0
 65
   257
176
     0
 75
     1
176
     0
175
     1
176
     0
 42
1.0
176
     0
 92
        9
176
     2
 66
     7
176
     0
 43
1.0
176
     0
 76
     1
176
     0
 77
     6
176
     0
 78
     2
176
     0
 67
     7
176
     0
 79
     5
176
     0
170
     0
176
     0
171
     0
176
     0
290
     0
176
     0
 93
        1
176
     0
 44
0.0
176
     0
173
     0
176
     0
  0
VISUALSTYLE
  5
33
102
{ACAD_REACTORS
330
2A
102
}
102
{ACAD_XDICTIONARY
360
1AF
102
}
330
2A
100
AcDbVisualStyle
  2
Realistic
 70
     8
177
     2
291
     0
 71
     2
176
     1
 72
     3
176
     1
 73
     0
176
     1
 90
        2
176
     1
 40
0.6
176
     1
 41
30.0
176
     1
 62
     5
 63
     7
421
 16777215
176
     1
 74
     0
176
     1
 91
        0
176
     1
 64
     7
176
     1
 65
   257
176
     1
 75
     1
176
     1
175
     1
176
     1
 42
1.0
176
     1
 92
        8
176
     1
 66
   257
176
     1
 43
1.0
176
     1
 76
     1
176
     1
 77
     6
176
     1
 78
     2
176
     1
 67
     7
176
     1
 79
     3
176
     1
170
     0
176
     1
171
     0
176
     1
290
     0
176
     1
 93
       13
176
     1
 44
0.0
176
     1
173
     0
176
     1
  0
VISUALSTYLE
  5
42
102
{ACAD_REACTORS
330
2A
102
}
102
{ACAD_XDICTIONARY
360
1CD
102
}
330
2A
100
AcDbVisualStyle
  2
Shaded
 70
    27
177
     2
291
     0
 71
     2
176
     1
 72
     2
176
     1
 73
     1
176
     1
 90
        2
176
     1
 40
0.6
176
     1
 41
30.0
176
     1
 62
     5
 63
     7
421
 16777215
176
     1
 74
     0
176
     1
 91
        4
176
     1
 64
     7
176
     1
 65
   257
176
     1
 75
     1
176
     1
175
     1
176
     1
 42
1.0
176
     1
 92
        8
176
     1
 66
   257
176
     1
 43
1.0
176
     1
 76
     1
176
     1
 77
     6
176
     1
 78
     2
176
     1
 67
     8
425
  7895160
176
     1
 79
     3
176
     1
170
     0
176
     1
171
     0
176
     1
290
     0
176
     1
 93
        5
176
     1
 44
0.0
176
     1
173
     0
176
     1
  0
VISUALSTYLE
  5
41
102
{ACAD_REACTORS
330
2A
102
}
102
{ACAD_XDICTIONARY
360
1CB
102
}
330
2A
100
AcDbVisualStyle
  2
Shaded with edges
 70
    26
177
     2
291
     0
 71
     2
176
     1
 72
     2
176
     1
 73
     1
176
     1
 90
        2
176
     1
 40
0.6
176
     1
 41
30.0
176
     1
 62
     5
 63
     7
421
 16777215
176
     1
 74
     1
176
     1
 91
       10
176
     1
 64
     7
176
     1
 65
   257
176
     1
 75
     2
176
     1
175
     1
176
     1
 42
1.0
176
     1
 92
        8
176
     1
 66
   257
176
     1
 43
1.0
176
     1
 76
     1
176
     1
 77
     6
176
     1
 78
     2
176
     1
 67
     7
176
     1
 79
     3
176
     1
170
     0
176
     1
171
     0
176
     1
290
     0
176
     1
 93
        5
176
     1
 44
0.0
176
     1
173
     0
176
     1
  0
VISUALSTYLE
  5
3E
102
{ACAD_REACTORS
330
2A
102
}
102
{ACAD_XDICTIONARY
360
1C5
102
}
330
2A
100
AcDbVisualStyle
  2
Shades of Gray
 70
    23
177
     2
291
     0
 71
     2
176
     1
 72
     2
176
     1
 73
     3
176
     1
 90
        0
176
     1
 40
0.6
176
     1
 41
30.0
176
     1
 62
     5
 63
     7
421
 16777215
176
     1
 74
     2
176
     1
 91
        2
176
     1
 64
     7
176
     1
 65
     7
176
     1
 75
     1
176
     1
175
     1
176
     1
 42
40.0
176
     1
 92
        8
176
     1
 66
     7
176
     1
 43
1.0
176
     1
 76
     1
176
     1
 77
     6
176
     1
 78
     2
176
     1
 67
     7
176
     1
 79
     3
176
     1
170
     0
176
     1
171
     0
176
     1
290
     0
176
     1
 93
        1
176
     1
 44
0.0
176
     1
173
     0
176
     1
  0
VISUALSTYLE
  5
3F
102
{ACAD_REACTORS
330
2A
102
}
102
{ACAD_XDICTIONARY
360
1C7
102
}
330
2A
100
AcDbVisualStyle
  2
Sketchy
 70
    24
177
     2
291
     0
 71
     1
176
     1
 72
     2
176
     1
 73
     2
176
     1
 90
        0
176
     1
 40
0.6
176
     1
 41
30.0
176
     1
 62
     5
 63
     7
421
 16777215
176
     1
 74
     2
176
     1
 91
        2
176
     1
 64
     7
176
     1
 65
     7
176
     1
 75
     1
176
     1
175
     1
176
     1
 42
40.0
176
     1
 92
       11
176
     1
 66
     7
176
     1
 43
1.0
176
     1
 76
     1
176
     1
 77
     6
176
     1
 78
     2
176
     1
 67
     7
176
     1
 79
     6
176
     1
170
     0
176
     1
171
     0
176
     1
290
     0
176
     1
 93
        1
176
     1
 44
0.0
176
     1
173
     0
176
     1
  0
VISUALSTYLE
  5
37
102
{ACAD_REACTORS
330
2A
102
}
102
{ACAD_XDICTIONARY
360
1B7
102
}
330
2A
100
AcDbVisualStyle
  2
Thicken
 70
    13
177
     2
291
     1
 71
     2
176
     1
 72
     2
176
     1
 73
     0
176
     1
 90
        0
176
     1
 40
0.6
176
     1
 41
30.0
176
     1
 62
     5
 63
     7
421
 16777215
176
     1
 74
     1
176
     1
 91
        4
176
     1
 64
     7
176
     1
 65
   257
176
     1
 75
     1
176
     1
175
     1
176
     1
 42
1.0
176
     1
 92
       12
176
     1
 66
     7
176
     1
 43
1.0
176
     1
 76
     1
176
     1
 77
     6
176
     1
 78
     2
176
     1
 67
     7
176
     1
 79
     5
176
     1
170
     0
176
     1
171
     0
176
     1
290
     0
176
     1
 93
        1
176
     1
 44
0.0
176
     1
173
     0
176
     1
  0
VISUALSTYLE
  5
30
102
{ACAD_REACTORS
330
2A
102
}
102
{ACAD_XDICTIONARY
360
1A9
102
}
330
2A
100
AcDbVisualStyle
  2
Wireframe
 70
     5
177
     2
291
     0
 71
     0
176
     1
 72
     2
176
     1
 73
     0
176
     1
 90
        0
176
     1
 40
0.6
176
     1
 41
30.0
176
     1
 62
     5
 63
     7
421
 16777215
176
     1
 74
     1
176
     1
 91
        4
176
     1
 64
     7
176
     1
 65
   257
176
     1
 75
     1
176
     1
175
     1
176
     1
 42
1.0
176
     1
 92
        0
176
     1
 66
   257
176
     1
 43
1.0
176
     1
 76
     1
176
     1
 77
     6
176
     1
 78
     2
176
     1
 67
     7
176
     1
 79
     3
176
     1
170
     0
176
     1
171
     0
176
     1
290
     0
176
     1
 93
        1
176
     1
 44
0.0
176
     1
173
     0
176
     1
  0
VISUALSTYLE
  5
40
102
{ACAD_REACTORS
330
2A
102
}
102
{ACAD_XDICTIONARY
360
1C9
102
}
330
2A
100
AcDbVisualStyle
  2
X-Ray
 70
    25
177
     2
291
     0
 71
     2
176
     1
 72
     2
176
     1
 73
     1
176
     1
 90
        1
176
     1
 40
0.5
176
     1
 41
30.0
176
     1
 62
     5
 63
     7
421
 16777215
176
     1
 74
     1
176
     1
 91
        0
176
     1
 64
     7
176
     1
 65
   257
176
     1
 75
     1
176
     1
175
     1
176
     1
 42
1.0
176
     1
 92
        8
176
     1
 66
     7
176
     1
 43
1.0
176
     1
 76
     1
176
     1
 77
     6
176
     1
 78
     2
176
     1
 67
     7
176
     1
 79
     3
176
     1
170
     0
176
     1
171
     0
176
     1
290
     0
176
     1
 93
       13
176
     1
 44
0.0
176
     1
173
     0
176
     1
  0
DICTIONARYVAR
  5
19E
102
{ACAD_REACTORS
330
19D
102
}
330
19D
100
DictionaryVariables
280
     0
  1
1:1
  0
DICTIONARYVAR
  5
1D6
102
{ACAD_REACTORS
330
19D
102
}
330
19D
100
DictionaryVariables
280
     0
  1
3.500000
  0
DICTIONARYVAR
  5
1D7
102
{ACAD_REACTORS
330
19D
102
}
330
19D
100
DictionaryVariables
280
     0
  1
acadiso.lin
  0
DICTIONARYVAR
  5
1D3
102
{ACAD_REACTORS
330
19D
102
}
330
19D
100
DictionaryVariables
280
     0
  1
Standard
  0
DICTIONARYVAR
  5
1D2
102
{ACAD_REACTORS
330
19D
102
}
330
19D
100
DictionaryVariables
280
     0
  1
Standard
  0
DICTIONARY
  5
1CF
330
6A
100
AcDbDictionary
280
     1
281
     1
  3
ACAD_ROUNDTRIP_2008_TABLESTYLE_CELLSTYLEMAP
360
1D0
  0
DICTIONARY
  5
1A7
330
2F
100
AcDbDictionary
280
     1
281
     1
  3
ACAD_XREC_ROUNDTRIP
360
1A8
  0
DICTIONARY
  5
1AD
330
32
100
AcDbDictionary
280
     1
281
     1
  3
ACAD_XREC_ROUNDTRIP
360
1AE
  0
DICTIONARY
  5
1B5
330
36
100
AcDbDictionary
280
     1
281
     1
  3
ACAD_XREC_ROUNDTRIP
360
1B6
  0
DICTIONARY
  5
1BD
330
3A
100
AcDbDictionary
280
     1
281
     1
  3
ACAD_XREC_ROUNDTRIP
360
1BE
  0
DICTIONARY
  5
1B1
330
34
100
AcDbDictionary
280
     1
281
     1
  3
ACAD_XREC_ROUNDTRIP
360
1B2
  0
DICTIONARY
  5
1B3
330
35
100
AcDbDictionary
280
     1
281
     1
  3
ACAD_XREC_ROUNDTRIP
360
1B4
  0
DICTIONARY
  5
1C3
330
3D
100
AcDbDictionary
280
     1
281
     1
  3
ACAD_XREC_ROUNDTRIP
360
1C4
  0
DICTIONARY
  5
1BB
330
39
100
AcDbDictionary
280
     1
281
     1
  3
ACAD_XREC_ROUNDTRIP
360
1BC
  0
DICTIONARY
  5
19F
330
2B
100
AcDbDictionary
280
     1
281
     1
  3
ACAD_XREC_ROUNDTRIP
360
1A0
  0
DICTIONARY
  5
1A1
330
2C
100
AcDbDictionary
280
     1
281
     1
  3
ACAD_XREC_ROUNDTRIP
360
1A2
  0
DICTIONARY
  5
1A3
330
2D
100
AcDbDictionary
280
     1
281
     1
  3
ACAD_XREC_ROUNDTRIP
360
1A4
  0
DICTIONARY
  5
1A5
330
2E
100
AcDbDictionary
280
     1
281
     1
  3
ACAD_XREC_ROUNDTRIP
360
1A6
  0
DICTIONARY
  5
1AB
330
31
100
AcDbDictionary
280
     1
281
     1
  3
ACAD_XREC_ROUNDTRIP
360
1AC
  0
DICTIONARY
  5
1BF
330
3B
100
AcDbDictionary
280
     1
281
     1
  3
ACAD_XREC_ROUNDTRIP
360
1C0
  0
DICTIONARY
  5
1B9
330
38
100
AcDbDictionary
280
     1
281
     1
  3
ACAD_XREC_ROUNDTRIP
360
1BA
  0
DICTIONARY
  5
1C1
330
3C
100
AcDbDictionary
280
     1
281
     1
  3
ACAD_XREC_ROUNDTRIP
360
1C2
  0
DICTIONARY
  5
1AF
330
33
100
AcDbDictionary
280
     1
281
     1
  3
ACAD_XREC_ROUNDTRIP
360
1B0
  0
DICTIONARY
  5
1CD
330
42
100
AcDbDictionary
280
     1
281
     1
  3
ACAD_XREC_ROUNDTRIP
360
1CE
  0
DICTIONARY
  5
1CB
330
41
100
AcDbDictionary
280
     1
281
     1
  3
ACAD_XREC_ROUNDTRIP
360
1CC
  0
DICTIONARY
  5
1C5
330
3E
100
AcDbDictionary
280
     1
281
     1
  3
ACAD_XREC_ROUNDTRIP
360
1C6
  0
DICTIONARY
  5
1C7
330
3F
100
AcDbDictionary
280
     1
281
     1
  3
ACAD_XREC_ROUNDTRIP
360
1C8
  0
DICTIONARY
  5
1B7
330
37
100
AcDbDictionary
280
     1
281
     1
  3
ACAD_XREC_ROUNDTRIP
360
1B8
  0
DICTIONARY
  5
1A9
330
30
100
AcDbDictionary
280
     1
281
     1
  3
ACAD_XREC_ROUNDTRIP
360
1AA
  0
DICTIONARY
  5
1C9
330
40
100
AcDbDictionary
280
     1
281
     1
  3
ACAD_XREC_ROUNDTRIP
360
1CA
  0
CELLSTYLEMAP
  5
1D0
102
{ACAD_REACTORS
330
1CF
102
}
330
1CF
100
AcDbCellStyleMap
 90
        3
300
CELLSTYLE
  1
TABLEFORMAT_BEGIN
 90
        5
170
     1
 91
        0
 92
    32768
 62
   257
 93
        1
300
CONTENTFORMAT
  1
CONTENTFORMAT_BEGIN
 90
        0
 91
        0
 92
        4
 93
        0
300

 40
0.0
140
1.0
 94
        5
 62
     0
340
11
144
6.0
309
CONTENTFORMAT_END
171
     1
301
MARGIN
  1
CELLMARGIN_BEGIN
 40
1.5
 40
1.5
 40
1.5
 40
1.5
 40
1.5
 40
1.5
309
CELLMARGIN_END
 94
        6
 95
        1
302
GRIDFORMAT
  1
GRIDFORMAT_BEGIN
 90
        0
 91
        1
 62
     0
 92
       -2
340
14
 93
        0
 40
0.045
309
GRIDFORMAT_END
 95
        2
302
GRIDFORMAT
  1
GRIDFORMAT_BEGIN
 90
        0
 91
        1
 62
     0
 92
       -2
340
14
 93
        0
 40
0.045
309
GRIDFORMAT_END
 95
        4
302
GRIDFORMAT
  1
GRIDFORMAT_BEGIN
 90
        0
 91
        1
 62
     0
 92
       -2
340
14
 93
        0
 40
0.045
309
GRIDFORMAT_END
 95
        8
302
GRIDFORMAT
  1
GRIDFORMAT_BEGIN
 90
        0
 91
        1
 62
     0
 92
       -2
340
14
 93
        0
 40
0.045
309
GRIDFORMAT_END
 95
       16
302
GRIDFORMAT
  1
GRIDFORMAT_BEGIN
 90
        0
 91
        1
 62
     0
 92
       -2
340
14
 93
        0
 40
0.045
309
GRIDFORMAT_END
 95
       32
302
GRIDFORMAT
  1
GRIDFORMAT_BEGIN
 90
        0
 91
        1
 62
     0
 92
       -2
340
14
 93
        0
 40
0.045
309
GRIDFORMAT_END
309
TABLEFORMAT_END
  1
CELLSTYLE_BEGIN
 90
        1
 91
        1
300
_TITLE
309
CELLSTYLE_END
300
CELLSTYLE
  1
TABLEFORMAT_BEGIN
 90
        5
170
     1
 91
        0
 92
        0
 62
   257
 93
        1
300
CONTENTFORMAT
  1
CONTENTFORMAT_BEGIN
 90
        0
 91
        0
 92
        4
 93
        0
300

 40
0.0
140
1.0
 94
        5
 62
     0
340
11
144
4.5
309
CONTENTFORMAT_END
171
     1
301
MARGIN
  1
CELLMARGIN_BEGIN
 40
1.5
 40
1.5
 40
1.5
 40
1.5
 40
1.5
 40
1.5
309
CELLMARGIN_END
 94
        6
 95
        1
302
GRIDFORMAT
  1
GRIDFORMAT_BEGIN
 90
        0
 91
        1
 62
     0
 92
       -2
340
14
 93
        0
 40
0.045
309
GRIDFORMAT_END
 95
        2
302
GRIDFORMAT
  1
GRIDFORMAT_BEGIN
 90
        0
 91
        1
 62
     0
 92
       -2
340
14
 93
        0
 40
0.045
309
GRIDFORMAT_END
 95
        4
302
GRIDFORMAT
  1
GRIDFORMAT_BEGIN
 90
        0
 91
        1
 62
     0
 92
       -2
340
14
 93
        0
 40
0.045
309
GRIDFORMAT_END
 95
        8
302
GRIDFORMAT
  1
GRIDFORMAT_BEGIN
 90
        0
 91
        1
 62
     0
 92
       -2
340
14
 93
        0
 40
0.045
309
GRIDFORMAT_END
 95
       16
302
GRIDFORMAT
  1
GRIDFORMAT_BEGIN
 90
        0
 91
        1
 62
     0
 92
       -2
340
14
 93
        0
 40
0.045
309
GRIDFORMAT_END
 95
       32
302
GRIDFORMAT
  1
GRIDFORMAT_BEGIN
 90
        0
 91
        1
 62
     0
 92
       -2
340
14
 93
        0
 40
0.045
309
GRIDFORMAT_END
309
TABLEFORMAT_END
  1
CELLSTYLE_BEGIN
 90
        2
 91
        1
300
_HEADER
309
CELLSTYLE_END
300
CELLSTYLE
  1
TABLEFORMAT_BEGIN
 90
        5
170
     1
 91
        0
 92
        0
 62
   257
 93
        1
300
CONTENTFORMAT
  1
CONTENTFORMAT_BEGIN
 90
        0
 91
        0
 92
        4
 93
        0
300

 40
0.0
140
1.0
 94
        2
 62
     0
340
11
144
4.5
309
CONTENTFORMAT_END
171
     1
301
MARGIN
  1
CELLMARGIN_BEGIN
 40
1.5
 40
1.5
 40
1.5
 40
1.5
 40
1.5
 40
1.5
309
CELLMARGIN_END
 94
        6
 95
        1
302
GRIDFORMAT
  1
GRIDFORMAT_BEGIN
 90
        0
 91
        1
 62
     0
 92
       -2
340
14
 93
        0
 40
0.045
309
GRIDFORMAT_END
 95
        2
302
GRIDFORMAT
  1
GRIDFORMAT_BEGIN
 90
        0
 91
        1
 62
     0
 92
       -2
340
14
 93
        0
 40
0.045
309
GRIDFORMAT_END
 95
        4
302
GRIDFORMAT
  1
GRIDFORMAT_BEGIN
 90
        0
 91
        1
 62
     0
 92
       -2
340
14
 93
        0
 40
0.045
309
GRIDFORMAT_END
 95
        8
302
GRIDFORMAT
  1
GRIDFORMAT_BEGIN
 90
        0
 91
        1
 62
     0
 92
       -2
340
14
 93
        0
 40
0.045
309
GRIDFORMAT_END
 95
       16
302
GRIDFORMAT
  1
GRIDFORMAT_BEGIN
 90
        0
 91
        1
 62
     0
 92
       -2
340
14
 93
        0
 40
0.045
309
GRIDFORMAT_END
 95
       32
302
GRIDFORMAT
  1
GRIDFORMAT_BEGIN
 90
        0
 91
        1
 62
     0
 92
       -2
340
14
 93
        0
 40
0.045
309
GRIDFORMAT_END
309
TABLEFORMAT_END
  1
CELLSTYLE_BEGIN
 90
        3
 91
        2
300
_DATA
309
CELLSTYLE_END
  0
XRECORD
  5
1A8
102
{ACAD_REACTORS
330
1A7
102
}
330
1A7
100
AcDbXrecord
280
     1
102
RTVSPost2010Prop28
280
     1
102
RTVSPost2010PropOp28
 70
     1
102
RTVSPost2010Prop29
280
     1
102
RTVSPost2010PropOp29
 70
     1
102
RTVSPost2010Prop30
280
     0
102
RTVSPost2010PropOp30
 70
     1
102
RTVSPost2010Prop31
280
     0
102
RTVSPost2010PropOp31
 70
     1
102
RTVSPost2010Prop32
280
     0
102
RTVSPost2010PropOp32
 70
     1
102
RTVSPost2010Prop33
280
     0
102
RTVSPost2010PropOp33
 70
     1
102
RTVSPost2010Prop34
280
     0
102
RTVSPost2010PropOp34
 70
     1
102
RTVSPost2010Prop35
280
     0
102
RTVSPost2010PropOp35
 70
     1
102
RTVSPost2010Prop36
280
     0
102
RTVSPost2010PropOp36
 70
     1
102
RTVSPost2010Prop37
 90
       50
102
RTVSPost2010PropOp37
 70
     1
102
RTVSPost2010Prop38
140
0.0
102
RTVSPost2010PropOp38
 70
     1
102
RTVSPost2010Prop39
140
1.0
102
RTVSPost2010PropOp39
 70
     1
102
RTVSPost2010Prop40
 90
        0
102
RTVSPost2010PropOp40
 70
     1
102
RTVSPost2010Prop41ColorIndex
 90
       18
102
RTVSPost2010Prop41ColorRGB
 90
        0
102
RTVSPost2010PropOp41
 70
     1
102
RTVSPost2010Prop42
 90
       50
102
RTVSPost2010PropOp42
 70
     1
102
RTVSPost2010Prop43
 90
        3
102
RTVSPost2010PropOp43
 70
     1
102
RTVSPost2010Prop44ColorIndex
 90
        5
102
RTVSPost2010Prop44ColorRGB
 90
      255
102
RTVSPost2010PropOp44
 70
     1
102
RTVSPost2010Prop45
280
     0
102
RTVSPost2010PropOp45
 70
     1
102
RTVSPost2010Prop46
 90
       50
102
RTVSPost2010PropOp46
 70
     1
102
RTVSPost2010Prop47
 90
       50
102
RTVSPost2010PropOp47
 70
     1
102
RTVSPost2010Prop48
 90
       50
102
RTVSPost2010PropOp48
 70
     1
102
RTVSPost2010Prop49
280
     0
102
RTVSPost2010PropOp49
 70
     1
102
RTVSPost2010Prop50
 90
       50
102
RTVSPost2010PropOp50
 70
     1
102
RTVSPost2010Prop51ColorIndex
 90
      256
102
RTVSPost2010Prop51ColorRGB
 90
-16777216
102
RTVSPost2010PropOp51
 70
     0
102
RTVSPost2010Prop52
140
1.0
102
RTVSPost2010PropOp52
 70
     0
102
RTVSPost2010Prop53
 90
        2
102
RTVSPost2010PropOp53
 70
     1
102
RTVSPost2010Prop54
  1
strokes_ogs.tif
102
RTVSPost2010PropOp54
 70
     1
102
RTVSPost2010Prop55
280
     0
102
RTVSPost2010PropOp55
 70
     1
102
RTVSPost2010Prop56
140
1.0
102
RTVSPost2010PropOp56
 70
     1
102
RTVSPost2010Prop57
140
1.0
102
RTVSPost2010PropOp57
 70
     1
  0
XRECORD
  5
1AE
102
{ACAD_REACTORS
330
1AD
102
}
330
1AD
100
AcDbXrecord
280
     1
102
RTVSPost2010Prop28
280
     0
102
RTVSPost2010PropOp28
 70
     1
102
RTVSPost2010Prop29
280
     1
102
RTVSPost2010PropOp29
 70
     1
102
RTVSPost2010Prop30
280
     1
102
RTVSPost2010PropOp30
 70
     1
102
RTVSPost2010Prop31
280
     0
102
RTVSPost2010PropOp31
 70
     1
102
RTVSPost2010Prop32
280
     0
102
RTVSPost2010PropOp32
 70
     1
102
RTVSPost2010Prop33
280
     0
102
RTVSPost2010PropOp33
 70
     1
102
RTVSPost2010Prop34
280
     0
102
RTVSPost2010PropOp34
 70
     1
102
RTVSPost2010Prop35
280
     0
102
RTVSPost2010PropOp35
 70
     1
102
RTVSPost2010Prop36
280
     0
102
RTVSPost2010PropOp36
 70
     1
102
RTVSPost2010Prop37
 90
       50
102
RTVSPost2010PropOp37
 70
     1
102
RTVSPost2010Prop38
140
0.0
102
RTVSPost2010PropOp38
 70
     1
102
RTVSPost2010Prop39
140
1.0
102
RTVSPost2010PropOp39
 70
     1
102
RTVSPost2010Prop40
 90
        0
102
RTVSPost2010PropOp40
 70
     1
102
RTVSPost2010Prop41ColorIndex
 90
       18
102
RTVSPost2010Prop41ColorRGB
 90
        0
102
RTVSPost2010PropOp41
 70
     1
102
RTVSPost2010Prop42
 90
       50
102
RTVSPost2010PropOp42
 70
     1
102
RTVSPost2010Prop43
 90
        3
102
RTVSPost2010PropOp43
 70
     1
102
RTVSPost2010Prop44ColorIndex
 90
        5
102
RTVSPost2010Prop44ColorRGB
 90
      255
102
RTVSPost2010PropOp44
 70
     1
102
RTVSPost2010Prop45
280
     0
102
RTVSPost2010PropOp45
 70
     1
102
RTVSPost2010Prop46
 90
       50
102
RTVSPost2010PropOp46
 70
     1
102
RTVSPost2010Prop47
 90
       50
102
RTVSPost2010PropOp47
 70
     1
102
RTVSPost2010Prop48
 90
       50
102
RTVSPost2010PropOp48
 70
     1
102
RTVSPost2010Prop49
280
     0
102
RTVSPost2010PropOp49
 70
     1
102
RTVSPost2010Prop50
 90
       50
102
RTVSPost2010PropOp50
 70
     1
102
RTVSPost2010Prop51ColorIndex
 90
      256
102
RTVSPost2010Prop51ColorRGB
 90
-16777216
102
RTVSPost2010PropOp51
 70
     0
102
RTVSPost2010Prop52
140
1.0
102
RTVSPost2010PropOp52
 70
     0
102
RTVSPost2010Prop53
 90
        2
102
RTVSPost2010PropOp53
 70
     1
102
RTVSPost2010Prop54
  1
strokes_ogs.tif
102
RTVSPost2010PropOp54
 70
     1
102
RTVSPost2010Prop55
280
     0
102
RTVSPost2010PropOp55
 70
     1
102
RTVSPost2010Prop56
140
1.0
102
RTVSPost2010PropOp56
 70
     1
102
RTVSPost2010Prop57
140
1.0
102
RTVSPost2010PropOp57
 70
     1
  0
XRECORD
  5
1B6
102
{ACAD_REACTORS
330
1B5
102
}
330
1B5
100
AcDbXrecord
280
     1
102
RTVSPost2010Prop28
280
     0
102
RTVSPost2010PropOp28
 70
     1
102
RTVSPost2010Prop29
280
     1
102
RTVSPost2010PropOp29
 70
     1
102
RTVSPost2010Prop30
280
     1
102
RTVSPost2010PropOp30
 70
     1
102
RTVSPost2010Prop31
280
     0
102
RTVSPost2010PropOp31
 70
     1
102
RTVSPost2010Prop32
280
     0
102
RTVSPost2010PropOp32
 70
     1
102
RTVSPost2010Prop33
280
     0
102
RTVSPost2010PropOp33
 70
     1
102
RTVSPost2010Prop34
280
     0
102
RTVSPost2010PropOp34
 70
     1
102
RTVSPost2010Prop35
280
     0
102
RTVSPost2010PropOp35
 70
     1
102
RTVSPost2010Prop36
280
     0
102
RTVSPost2010PropOp36
 70
     1
102
RTVSPost2010Prop37
 90
       50
102
RTVSPost2010PropOp37
 70
     1
102
RTVSPost2010Prop38
140
0.0
102
RTVSPost2010PropOp38
 70
     1
102
RTVSPost2010Prop39
140
1.0
102
RTVSPost2010PropOp39
 70
     1
102
RTVSPost2010Prop40
 90
        0
102
RTVSPost2010PropOp40
 70
     1
102
RTVSPost2010Prop41ColorIndex
 90
       18
102
RTVSPost2010Prop41ColorRGB
 90
        0
102
RTVSPost2010PropOp41
 70
     1
102
RTVSPost2010Prop42
 90
       50
102
RTVSPost2010PropOp42
 70
     1
102
RTVSPost2010Prop43
 90
        3
102
RTVSPost2010PropOp43
 70
     1
102
RTVSPost2010Prop44ColorIndex
 90
        5
102
RTVSPost2010Prop44ColorRGB
 90
      255
102
RTVSPost2010PropOp44
 70
     1
102
RTVSPost2010Prop45
280
     0
102
RTVSPost2010PropOp45
 70
     1
102
RTVSPost2010Prop46
 90
       50
102
RTVSPost2010PropOp46
 70
     1
102
RTVSPost2010Prop47
 90
       50
102
RTVSPost2010PropOp47
 70
     1
102
RTVSPost2010Prop48
 90
       50
102
RTVSPost2010PropOp48
 70
     1
102
RTVSPost2010Prop49
280
     0
102
RTVSPost2010PropOp49
 70
     1
102
RTVSPost2010Prop50
 90
       50
102
RTVSPost2010PropOp50
 70
     1
102
RTVSPost2010Prop51ColorIndex
 90
      256
102
RTVSPost2010Prop51ColorRGB
 90
-16777216
102
RTVSPost2010PropOp51
 70
     0
102
RTVSPost2010Prop52
140
1.0
102
RTVSPost2010PropOp52
 70
     0
102
RTVSPost2010Prop53
 90
        2
102
RTVSPost2010PropOp53
 70
     1
102
RTVSPost2010Prop54
  1
strokes_ogs.tif
102
RTVSPost2010PropOp54
 70
     1
102
RTVSPost2010Prop55
280
     0
102
RTVSPost2010PropOp55
 70
     1
102
RTVSPost2010Prop56
140
1.0
102
RTVSPost2010PropOp56
 70
     1
102
RTVSPost2010Prop57
140
1.0
102
RTVSPost2010PropOp57
 70
     1
  0
XRECORD
  5
1BE
102
{ACAD_REACTORS
330
1BD
102
}
330
1BD
100
AcDbXrecord
280
     1
102
RTVSPost2010Prop28
280
     0
102
RTVSPost2010PropOp28
 70
     1
102
RTVSPost2010Prop29
280
     1
102
RTVSPost2010PropOp29
 70
     1
102
RTVSPost2010Prop30
280
     1
102
RTVSPost2010PropOp30
 70
     1
102
RTVSPost2010Prop31
280
     0
102
RTVSPost2010PropOp31
 70
     1
102
RTVSPost2010Prop32
280
     0
102
RTVSPost2010PropOp32
 70
     1
102
RTVSPost2010Prop33
280
     0
102
RTVSPost2010PropOp33
 70
     1
102
RTVSPost2010Prop34
280
     0
102
RTVSPost2010PropOp34
 70
     1
102
RTVSPost2010Prop35
280
     0
102
RTVSPost2010PropOp35
 70
     1
102
RTVSPost2010Prop36
280
     0
102
RTVSPost2010PropOp36
 70
     1
102
RTVSPost2010Prop37
 90
       50
102
RTVSPost2010PropOp37
 70
     1
102
RTVSPost2010Prop38
140
0.0
102
RTVSPost2010PropOp38
 70
     1
102
RTVSPost2010Prop39
140
1.0
102
RTVSPost2010PropOp39
 70
     1
102
RTVSPost2010Prop40
 90
        0
102
RTVSPost2010PropOp40
 70
     1
102
RTVSPost2010Prop41ColorIndex
 90
       18
102
RTVSPost2010Prop41ColorRGB
 90
        0
102
RTVSPost2010PropOp41
 70
     1
102
RTVSPost2010Prop42
 90
       50
102
RTVSPost2010PropOp42
 70
     1
102
RTVSPost2010Prop43
 90
        3
102
RTVSPost2010PropOp43
 70
     1
102
RTVSPost2010Prop44ColorIndex
 90
        5
102
RTVSPost2010Prop44ColorRGB
 90
      255
102
RTVSPost2010PropOp44
 70
     1
102
RTVSPost2010Prop45
280
     0
102
RTVSPost2010PropOp45
 70
     1
102
RTVSPost2010Prop46
 90
       50
102
RTVSPost2010PropOp46
 70
     1
102
RTVSPost2010Prop47
 90
       50
102
RTVSPost2010PropOp47
 70
     1
102
RTVSPost2010Prop48
 90
       50
102
RTVSPost2010PropOp48
 70
     1
102
RTVSPost2010Prop49
280
     0
102
RTVSPost2010PropOp49
 70
     1
102
RTVSPost2010Prop50
 90
       50
102
RTVSPost2010PropOp50
 70
     1
102
RTVSPost2010Prop51ColorIndex
 90
      256
102
RTVSPost2010Prop51ColorRGB
 90
-16777216
102
RTVSPost2010PropOp51
 70
     0
102
RTVSPost2010Prop52
140
1.0
102
RTVSPost2010PropOp52
 70
     0
102
RTVSPost2010Prop53
 90
        2
102
RTVSPost2010PropOp53
 70
     1
102
RTVSPost2010Prop54
  1
strokes_ogs.tif
102
RTVSPost2010PropOp54
 70
     1
102
RTVSPost2010Prop55
280
     0
102
RTVSPost2010PropOp55
 70
     1
102
RTVSPost2010Prop56
140
1.0
102
RTVSPost2010PropOp56
 70
     1
102
RTVSPost2010Prop57
140
1.0
102
RTVSPost2010PropOp57
 70
     1
  0
XRECORD
  5
1B2
102
{ACAD_REACTORS
330
1B1
102
}
330
1B1
100
AcDbXrecord
280
     1
102
RTVSPost2010Prop28
280
     0
102
RTVSPost2010PropOp28
 70
     1
102
RTVSPost2010Prop29
280
     1
102
RTVSPost2010PropOp29
 70
     1
102
RTVSPost2010Prop30
280
     1
102
RTVSPost2010PropOp30
 70
     1
102
RTVSPost2010Prop31
280
     0
102
RTVSPost2010PropOp31
 70
     1
102
RTVSPost2010Prop32
280
     0
102
RTVSPost2010PropOp32
 70
     1
102
RTVSPost2010Prop33
280
     0
102
RTVSPost2010PropOp33
 70
     1
102
RTVSPost2010Prop34
280
     0
102
RTVSPost2010PropOp34
 70
     1
102
RTVSPost2010Prop35
280
     0
102
RTVSPost2010PropOp35
 70
     1
102
RTVSPost2010Prop36
280
     0
102
RTVSPost2010PropOp36
 70
     1
102
RTVSPost2010Prop37
 90
       50
102
RTVSPost2010PropOp37
 70
     1
102
RTVSPost2010Prop38
140
0.0
102
RTVSPost2010PropOp38
 70
     1
102
RTVSPost2010Prop39
140
1.0
102
RTVSPost2010PropOp39
 70
     1
102
RTVSPost2010Prop40
 90
        0
102
RTVSPost2010PropOp40
 70
     1
102
RTVSPost2010Prop41ColorIndex
 90
       18
102
RTVSPost2010Prop41ColorRGB
 90
        0
102
RTVSPost2010PropOp41
 70
     1
102
RTVSPost2010Prop42
 90
       50
102
RTVSPost2010PropOp42
 70
     1
102
RTVSPost2010Prop43
 90
        3
102
RTVSPost2010PropOp43
 70
     1
102
RTVSPost2010Prop44ColorIndex
 90
        5
102
RTVSPost2010Prop44ColorRGB
 90
      255
102
RTVSPost2010PropOp44
 70
     1
102
RTVSPost2010Prop45
280
     0
102
RTVSPost2010PropOp45
 70
     1
102
RTVSPost2010Prop46
 90
       50
102
RTVSPost2010PropOp46
 70
     1
102
RTVSPost2010Prop47
 90
       50
102
RTVSPost2010PropOp47
 70
     1
102
RTVSPost2010Prop48
 90
       50
102
RTVSPost2010PropOp48
 70
     1
102
RTVSPost2010Prop49
280
     0
102
RTVSPost2010PropOp49
 70
     1
102
RTVSPost2010Prop50
 90
       50
102
RTVSPost2010PropOp50
 70
     1
102
RTVSPost2010Prop51ColorIndex
 90
      256
102
RTVSPost2010Prop51ColorRGB
 90
-16777216
102
RTVSPost2010PropOp51
 70
     0
102
RTVSPost2010Prop52
140
1.0
102
RTVSPost2010PropOp52
 70
     0
102
RTVSPost2010Prop53
 90
        2
102
RTVSPost2010PropOp53
 70
     1
102
RTVSPost2010Prop54
  1
strokes_ogs.tif
102
RTVSPost2010PropOp54
 70
     1
102
RTVSPost2010Prop55
280
     0
102
RTVSPost2010PropOp55
 70
     1
102
RTVSPost2010Prop56
140
1.0
102
RTVSPost2010PropOp56
 70
     1
102
RTVSPost2010Prop57
140
1.0
102
RTVSPost2010PropOp57
 70
     1
  0
XRECORD
  5
1B4
102
{ACAD_REACTORS
330
1B3
102
}
330
1B3
100
AcDbXrecord
280
     1
102
RTVSPost2010Prop28
280
     0
102
RTVSPost2010PropOp28
 70
     1
102
RTVSPost2010Prop29
280
     1
102
RTVSPost2010PropOp29
 70
     1
102
RTVSPost2010Prop30
280
     1
102
RTVSPost2010PropOp30
 70
     1
102
RTVSPost2010Prop31
280
     0
102
RTVSPost2010PropOp31
 70
     1
102
RTVSPost2010Prop32
280
     0
102
RTVSPost2010PropOp32
 70
     1
102
RTVSPost2010Prop33
280
     0
102
RTVSPost2010PropOp33
 70
     1
102
RTVSPost2010Prop34
280
     0
102
RTVSPost2010PropOp34
 70
     1
102
RTVSPost2010Prop35
280
     0
102
RTVSPost2010PropOp35
 70
     1
102
RTVSPost2010Prop36
280
     0
102
RTVSPost2010PropOp36
 70
     1
102
RTVSPost2010Prop37
 90
       50
102
RTVSPost2010PropOp37
 70
     1
102
RTVSPost2010Prop38
140
0.0
102
RTVSPost2010PropOp38
 70
     1
102
RTVSPost2010Prop39
140
1.0
102
RTVSPost2010PropOp39
 70
     1
102
RTVSPost2010Prop40
 90
        0
102
RTVSPost2010PropOp40
 70
     1
102
RTVSPost2010Prop41ColorIndex
 90
       18
102
RTVSPost2010Prop41ColorRGB
 90
        0
102
RTVSPost2010PropOp41
 70
     1
102
RTVSPost2010Prop42
 90
       50
102
RTVSPost2010PropOp42
 70
     1
102
RTVSPost2010Prop43
 90
        3
102
RTVSPost2010PropOp43
 70
     1
102
RTVSPost2010Prop44ColorIndex
 90
        5
102
RTVSPost2010Prop44ColorRGB
 90
      255
102
RTVSPost2010PropOp44
 70
     1
102
RTVSPost2010Prop45
280
     0
102
RTVSPost2010PropOp45
 70
     1
102
RTVSPost2010Prop46
 90
       50
102
RTVSPost2010PropOp46
 70
     1
102
RTVSPost2010Prop47
 90
       50
102
RTVSPost2010PropOp47
 70
     1
102
RTVSPost2010Prop48
 90
       50
102
RTVSPost2010PropOp48
 70
     1
102
RTVSPost2010Prop49
280
     0
102
RTVSPost2010PropOp49
 70
     1
102
RTVSPost2010Prop50
 90
       50
102
RTVSPost2010PropOp50
 70
     1
102
RTVSPost2010Prop51ColorIndex
 90
      256
102
RTVSPost2010Prop51ColorRGB
 90
-16777216
102
RTVSPost2010PropOp51
 70
     0
102
RTVSPost2010Prop52
140
1.0
102
RTVSPost2010PropOp52
 70
     0
102
RTVSPost2010Prop53
 90
        2
102
RTVSPost2010PropOp53
 70
     1
102
RTVSPost2010Prop54
  1
strokes_ogs.tif
102
RTVSPost2010PropOp54
 70
     1
102
RTVSPost2010Prop55
280
     0
102
RTVSPost2010PropOp55
 70
     1
102
RTVSPost2010Prop56
140
1.0
102
RTVSPost2010PropOp56
 70
     1
102
RTVSPost2010Prop57
140
1.0
102
RTVSPost2010PropOp57
 70
     1
  0
XRECORD
  5
1C4
102
{ACAD_REACTORS
330
1C3
102
}
330
1C3
100
AcDbXrecord
280
     1
102
RTVSPost2010Prop28
280
     0
102
RTVSPost2010PropOp28
 70
     0
102
RTVSPost2010Prop29
280
     1
102
RTVSPost2010PropOp29
 70
     0
102
RTVSPost2010Prop30
280
     1
102
RTVSPost2010PropOp30
 70
     0
102
RTVSPost2010Prop31
280
     0
102
RTVSPost2010PropOp31
 70
     0
102
RTVSPost2010Prop32
280
     0
102
RTVSPost2010PropOp32
 70
     0
102
RTVSPost2010Prop33
280
     0
102
RTVSPost2010PropOp33
 70
     0
102
RTVSPost2010Prop34
280
     0
102
RTVSPost2010PropOp34
 70
     0
102
RTVSPost2010Prop35
280
     0
102
RTVSPost2010PropOp35
 70
     0
102
RTVSPost2010Prop36
280
     0
102
RTVSPost2010PropOp36
 70
     0
102
RTVSPost2010Prop37
 90
       50
102
RTVSPost2010PropOp37
 70
     0
102
RTVSPost2010Prop38
140
0.0
102
RTVSPost2010PropOp38
 70
     0
102
RTVSPost2010Prop39
140
1.0
102
RTVSPost2010PropOp39
 70
     0
102
RTVSPost2010Prop40
 90
        0
102
RTVSPost2010PropOp40
 70
     0
102
RTVSPost2010Prop41ColorIndex
 90
       18
102
RTVSPost2010Prop41ColorRGB
 90
        0
102
RTVSPost2010PropOp41
 70
     0
102
RTVSPost2010Prop42
 90
       50
102
RTVSPost2010PropOp42
 70
     0
102
RTVSPost2010Prop43
 90
        3
102
RTVSPost2010PropOp43
 70
     0
102
RTVSPost2010Prop44ColorIndex
 90
        5
102
RTVSPost2010Prop44ColorRGB
 90
      255
102
RTVSPost2010PropOp44
 70
     0
102
RTVSPost2010Prop45
280
     0
102
RTVSPost2010PropOp45
 70
     0
102
RTVSPost2010Prop46
 90
       50
102
RTVSPost2010PropOp46
 70
     0
102
RTVSPost2010Prop47
 90
       50
102
RTVSPost2010PropOp47
 70
     0
102
RTVSPost2010Prop48
 90
       50
102
RTVSPost2010PropOp48
 70
     0
102
RTVSPost2010Prop49
280
     0
102
RTVSPost2010PropOp49
 70
     0
102
RTVSPost2010Prop50
 90
       50
102
RTVSPost2010PropOp50
 70
     0
102
RTVSPost2010Prop51ColorIndex
 90
      256
102
RTVSPost2010Prop51ColorRGB
 90
-16777216
102
RTVSPost2010PropOp51
 70
     0
102
RTVSPost2010Prop52
140
1.0
102
RTVSPost2010PropOp52
 70
     0
102
RTVSPost2010Prop53
 90
        2
102
RTVSPost2010PropOp53
 70
     0
102
RTVSPost2010Prop54
  1
strokes_ogs.tif
102
RTVSPost2010PropOp54
 70
     0
102
RTVSPost2010Prop55
280
     0
102
RTVSPost2010PropOp55
 70
     0
102
RTVSPost2010Prop56
140
1.0
102
RTVSPost2010PropOp56
 70
     0
102
RTVSPost2010Prop57
140
1.0
102
RTVSPost2010PropOp57
 70
     0
  0
XRECORD
  5
1BC
102
{ACAD_REACTORS
330
1BB
102
}
330
1BB
100
AcDbXrecord
280
     1
102
RTVSPost2010Prop28
280
     0
102
RTVSPost2010PropOp28
 70
     1
102
RTVSPost2010Prop29
280
     1
102
RTVSPost2010PropOp29
 70
     1
102
RTVSPost2010Prop30
280
     1
102
RTVSPost2010PropOp30
 70
     1
102
RTVSPost2010Prop31
280
     0
102
RTVSPost2010PropOp31
 70
     1
102
RTVSPost2010Prop32
280
     0
102
RTVSPost2010PropOp32
 70
     1
102
RTVSPost2010Prop33
280
     0
102
RTVSPost2010PropOp33
 70
     1
102
RTVSPost2010Prop34
280
     0
102
RTVSPost2010PropOp34
 70
     1
102
RTVSPost2010Prop35
280
     0
102
RTVSPost2010PropOp35
 70
     1
102
RTVSPost2010Prop36
280
     0
102
RTVSPost2010PropOp36
 70
     1
102
RTVSPost2010Prop37
 90
       50
102
RTVSPost2010PropOp37
 70
     1
102
RTVSPost2010Prop38
140
0.0
102
RTVSPost2010PropOp38
 70
     1
102
RTVSPost2010Prop39
140
1.0
102
RTVSPost2010PropOp39
 70
     1
102
RTVSPost2010Prop40
 90
        0
102
RTVSPost2010PropOp40
 70
     1
102
RTVSPost2010Prop41ColorIndex
 90
       18
102
RTVSPost2010Prop41ColorRGB
 90
        0
102
RTVSPost2010PropOp41
 70
     1
102
RTVSPost2010Prop42
 90
       50
102
RTVSPost2010PropOp42
 70
     1
102
RTVSPost2010Prop43
 90
        3
102
RTVSPost2010PropOp43
 70
     1
102
RTVSPost2010Prop44ColorIndex
 90
        5
102
RTVSPost2010Prop44ColorRGB
 90
      255
102
RTVSPost2010PropOp44
 70
     1
102
RTVSPost2010Prop45
280
     0
102
RTVSPost2010PropOp45
 70
     1
102
RTVSPost2010Prop46
 90
       50
102
RTVSPost2010PropOp46
 70
     1
102
RTVSPost2010Prop47
 90
       50
102
RTVSPost2010PropOp47
 70
     1
102
RTVSPost2010Prop48
 90
       50
102
RTVSPost2010PropOp48
 70
     1
102
RTVSPost2010Prop49
280
     0
102
RTVSPost2010PropOp49
 70
     1
102
RTVSPost2010Prop50
 90
       50
102
RTVSPost2010PropOp50
 70
     1
102
RTVSPost2010Prop51ColorIndex
 90
      256
102
RTVSPost2010Prop51ColorRGB
 90
-16777216
102
RTVSPost2010PropOp51
 70
     0
102
RTVSPost2010Prop52
140
1.0
102
RTVSPost2010PropOp52
 70
     0
102
RTVSPost2010Prop53
 90
        2
102
RTVSPost2010PropOp53
 70
     1
102
RTVSPost2010Prop54
  1
strokes_ogs.tif
102
RTVSPost2010PropOp54
 70
     1
102
RTVSPost2010Prop55
280
     0
102
RTVSPost2010PropOp55
 70
     1
102
RTVSPost2010Prop56
140
1.0
102
RTVSPost2010PropOp56
 70
     1
102
RTVSPost2010Prop57
140
1.0
102
RTVSPost2010PropOp57
 70
     1
  0
XRECORD
  5
1A0
102
{ACAD_REACTORS
330
19F
102
}
330
19F
100
AcDbXrecord
280
     1
102
RTVSPost2010Prop28
280
     0
102
RTVSPost2010PropOp28
 70
     1
102
RTVSPost2010Prop29
280
     1
102
RTVSPost2010PropOp29
 70
     1
102
RTVSPost2010Prop30
280
     1
102
RTVSPost2010PropOp30
 70
     1
102
RTVSPost2010Prop31
280
     0
102
RTVSPost2010PropOp31
 70
     1
102
RTVSPost2010Prop32
280
     0
102
RTVSPost2010PropOp32
 70
     1
102
RTVSPost2010Prop33
280
     0
102
RTVSPost2010PropOp33
 70
     1
102
RTVSPost2010Prop34
280
     0
102
RTVSPost2010PropOp34
 70
     1
102
RTVSPost2010Prop35
280
     0
102
RTVSPost2010PropOp35
 70
     1
102
RTVSPost2010Prop36
280
     0
102
RTVSPost2010PropOp36
 70
     1
102
RTVSPost2010Prop37
 90
       50
102
RTVSPost2010PropOp37
 70
     1
102
RTVSPost2010Prop38
140
0.0
102
RTVSPost2010PropOp38
 70
     1
102
RTVSPost2010Prop39
140
1.0
102
RTVSPost2010PropOp39
 70
     1
102
RTVSPost2010Prop40
 90
        0
102
RTVSPost2010PropOp40
 70
     1
102
RTVSPost2010Prop41ColorIndex
 90
       18
102
RTVSPost2010Prop41ColorRGB
 90
        0
102
RTVSPost2010PropOp41
 70
     1
102
RTVSPost2010Prop42
 90
       50
102
RTVSPost2010PropOp42
 70
     1
102
RTVSPost2010Prop43
 90
        3
102
RTVSPost2010PropOp43
 70
     1
102
RTVSPost2010Prop44ColorIndex
 90
        5
102
RTVSPost2010Prop44ColorRGB
 90
      255
102
RTVSPost2010PropOp44
 70
     1
102
RTVSPost2010Prop45
280
     0
102
RTVSPost2010PropOp45
 70
     1
102
RTVSPost2010Prop46
 90
       50
102
RTVSPost2010PropOp46
 70
     1
102
RTVSPost2010Prop47
 90
       50
102
RTVSPost2010PropOp47
 70
     1
102
RTVSPost2010Prop48
 90
       50
102
RTVSPost2010PropOp48
 70
     1
102
RTVSPost2010Prop49
280
     0
102
RTVSPost2010PropOp49
 70
     1
102
RTVSPost2010Prop50
 90
       50
102
RTVSPost2010PropOp50
 70
     1
102
RTVSPost2010Prop51ColorIndex
 90
      256
102
RTVSPost2010Prop51ColorRGB
 90
-16777216
102
RTVSPost2010PropOp51
 70
     0
102
RTVSPost2010Prop52
140
1.0
102
RTVSPost2010PropOp52
 70
     0
102
RTVSPost2010Prop53
 90
        2
102
RTVSPost2010PropOp53
 70
     1
102
RTVSPost2010Prop54
  1
strokes_ogs.tif
102
RTVSPost2010PropOp54
 70
     1
102
RTVSPost2010Prop55
280
     0
102
RTVSPost2010PropOp55
 70
     1
102
RTVSPost2010Prop56
140
1.0
102
RTVSPost2010PropOp56
 70
     1
102
RTVSPost2010Prop57
140
1.0
102
RTVSPost2010PropOp57
 70
     1
  0
XRECORD
  5
1A2
102
{ACAD_REACTORS
330
1A1
102
}
330
1A1
100
AcDbXrecord
280
     1
102
RTVSPost2010Prop28
280
     0
102
RTVSPost2010PropOp28
 70
     1
102
RTVSPost2010Prop29
280
     1
102
RTVSPost2010PropOp29
 70
     1
102
RTVSPost2010Prop30
280
     1
102
RTVSPost2010PropOp30
 70
     1
102
RTVSPost2010Prop31
280
     0
102
RTVSPost2010PropOp31
 70
     1
102
RTVSPost2010Prop32
280
     0
102
RTVSPost2010PropOp32
 70
     1
102
RTVSPost2010Prop33
280
     0
102
RTVSPost2010PropOp33
 70
     1
102
RTVSPost2010Prop34
280
     0
102
RTVSPost2010PropOp34
 70
     1
102
RTVSPost2010Prop35
280
     0
102
RTVSPost2010PropOp35
 70
     1
102
RTVSPost2010Prop36
280
     0
102
RTVSPost2010PropOp36
 70
     1
102
RTVSPost2010Prop37
 90
       50
102
RTVSPost2010PropOp37
 70
     1
102
RTVSPost2010Prop38
140
0.0
102
RTVSPost2010PropOp38
 70
     1
102
RTVSPost2010Prop39
140
1.0
102
RTVSPost2010PropOp39
 70
     1
102
RTVSPost2010Prop40
 90
        0
102
RTVSPost2010PropOp40
 70
     1
102
RTVSPost2010Prop41ColorIndex
 90
       18
102
RTVSPost2010Prop41ColorRGB
 90
        0
102
RTVSPost2010PropOp41
 70
     1
102
RTVSPost2010Prop42
 90
       50
102
RTVSPost2010PropOp42
 70
     1
102
RTVSPost2010Prop43
 90
        3
102
RTVSPost2010PropOp43
 70
     1
102
RTVSPost2010Prop44ColorIndex
 90
        5
102
RTVSPost2010Prop44ColorRGB
 90
      255
102
RTVSPost2010PropOp44
 70
     1
102
RTVSPost2010Prop45
280
     0
102
RTVSPost2010PropOp45
 70
     1
102
RTVSPost2010Prop46
 90
       50
102
RTVSPost2010PropOp46
 70
     1
102
RTVSPost2010Prop47
 90
       50
102
RTVSPost2010PropOp47
 70
     1
102
RTVSPost2010Prop48
 90
       50
102
RTVSPost2010PropOp48
 70
     1
102
RTVSPost2010Prop49
280
     0
102
RTVSPost2010PropOp49
 70
     1
102
RTVSPost2010Prop50
 90
       50
102
RTVSPost2010PropOp50
 70
     1
102
RTVSPost2010Prop51ColorIndex
 90
      256
102
RTVSPost2010Prop51ColorRGB
 90
-16777216
102
RTVSPost2010PropOp51
 70
     0
102
RTVSPost2010Prop52
140
1.0
102
RTVSPost2010PropOp52
 70
     0
102
RTVSPost2010Prop53
 90
        2
102
RTVSPost2010PropOp53
 70
     1
102
RTVSPost2010Prop54
  1
strokes_ogs.tif
102
RTVSPost2010PropOp54
 70
     1
102
RTVSPost2010Prop55
280
     0
102
RTVSPost2010PropOp55
 70
     1
102
RTVSPost2010Prop56
140
1.0
102
RTVSPost2010PropOp56
 70
     1
102
RTVSPost2010Prop57
140
1.0
102
RTVSPost2010PropOp57
 70
     1
  0
XRECORD
  5
1A4
102
{ACAD_REACTORS
330
1A3
102
}
330
1A3
100
AcDbXrecord
280
     1
102
RTVSPost2010Prop28
280
     0
102
RTVSPost2010PropOp28
 70
     1
102
RTVSPost2010Prop29
280
     1
102
RTVSPost2010PropOp29
 70
     1
102
RTVSPost2010Prop30
280
     1
102
RTVSPost2010PropOp30
 70
     1
102
RTVSPost2010Prop31
280
     0
102
RTVSPost2010PropOp31
 70
     1
102
RTVSPost2010Prop32
280
     0
102
RTVSPost2010PropOp32
 70
     1
102
RTVSPost2010Prop33
280
     0
102
RTVSPost2010PropOp33
 70
     1
102
RTVSPost2010Prop34
280
     0
102
RTVSPost2010PropOp34
 70
     1
102
RTVSPost2010Prop35
280
     0
102
RTVSPost2010PropOp35
 70
     1
102
RTVSPost2010Prop36
280
     0
102
RTVSPost2010PropOp36
 70
     1
102
RTVSPost2010Prop37
 90
       50
102
RTVSPost2010PropOp37
 70
     1
102
RTVSPost2010Prop38
140
0.0
102
RTVSPost2010PropOp38
 70
     1
102
RTVSPost2010Prop39
140
1.0
102
RTVSPost2010PropOp39
 70
     1
102
RTVSPost2010Prop40
 90
        0
102
RTVSPost2010PropOp40
 70
     1
102
RTVSPost2010Prop41ColorIndex
 90
       18
102
RTVSPost2010Prop41ColorRGB
 90
        0
102
RTVSPost2010PropOp41
 70
     1
102
RTVSPost2010Prop42
 90
       50
102
RTVSPost2010PropOp42
 70
     1
102
RTVSPost2010Prop43
 90
        3
102
RTVSPost2010PropOp43
 70
     1
102
RTVSPost2010Prop44ColorIndex
 90
        5
102
RTVSPost2010Prop44ColorRGB
 90
      255
102
RTVSPost2010PropOp44
 70
     1
102
RTVSPost2010Prop45
280
     0
102
RTVSPost2010PropOp45
 70
     1
102
RTVSPost2010Prop46
 90
       50
102
RTVSPost2010PropOp46
 70
     1
102
RTVSPost2010Prop47
 90
       50
102
RTVSPost2010PropOp47
 70
     1
102
RTVSPost2010Prop48
 90
       50
102
RTVSPost2010PropOp48
 70
     1
102
RTVSPost2010Prop49
280
     0
102
RTVSPost2010PropOp49
 70
     1
102
RTVSPost2010Prop50
 90
       50
102
RTVSPost2010PropOp50
 70
     1
102
RTVSPost2010Prop51ColorIndex
 90
      256
102
RTVSPost2010Prop51ColorRGB
 90
-16777216
102
RTVSPost2010PropOp51
 70
     0
102
RTVSPost2010Prop52
140
1.0
102
RTVSPost2010PropOp52
 70
     0
102
RTVSPost2010Prop53
 90
        2
102
RTVSPost2010PropOp53
 70
     1
102
RTVSPost2010Prop54
  1
strokes_ogs.tif
102
RTVSPost2010PropOp54
 70
     1
102
RTVSPost2010Prop55
280
     0
102
RTVSPost2010PropOp55
 70
     1
102
RTVSPost2010Prop56
140
1.0
102
RTVSPost2010PropOp56
 70
     1
102
RTVSPost2010Prop57
140
1.0
102
RTVSPost2010PropOp57
 70
     1
  0
XRECORD
  5
1A6
102
{ACAD_REACTORS
330
1A5
102
}
330
1A5
100
AcDbXrecord
280
     1
102
RTVSPost2010Prop28
280
     0
102
RTVSPost2010PropOp28
 70
     1
102
RTVSPost2010Prop29
280
     1
102
RTVSPost2010PropOp29
 70
     1
102
RTVSPost2010Prop30
280
     1
102
RTVSPost2010PropOp30
 70
     1
102
RTVSPost2010Prop31
280
     0
102
RTVSPost2010PropOp31
 70
     1
102
RTVSPost2010Prop32
280
     0
102
RTVSPost2010PropOp32
 70
     1
102
RTVSPost2010Prop33
280
     0
102
RTVSPost2010PropOp33
 70
     1
102
RTVSPost2010Prop34
280
     0
102
RTVSPost2010PropOp34
 70
     1
102
RTVSPost2010Prop35
280
     0
102
RTVSPost2010PropOp35
 70
     1
102
RTVSPost2010Prop36
280
     0
102
RTVSPost2010PropOp36
 70
     1
102
RTVSPost2010Prop37
 90
       50
102
RTVSPost2010PropOp37
 70
     1
102
RTVSPost2010Prop38
140
0.0
102
RTVSPost2010PropOp38
 70
     1
102
RTVSPost2010Prop39
140
1.0
102
RTVSPost2010PropOp39
 70
     1
102
RTVSPost2010Prop40
 90
        0
102
RTVSPost2010PropOp40
 70
     1
102
RTVSPost2010Prop41ColorIndex
 90
       18
102
RTVSPost2010Prop41ColorRGB
 90
        0
102
RTVSPost2010PropOp41
 70
     1
102
RTVSPost2010Prop42
 90
       50
102
RTVSPost2010PropOp42
 70
     1
102
RTVSPost2010Prop43
 90
        3
102
RTVSPost2010PropOp43
 70
     1
102
RTVSPost2010Prop44ColorIndex
 90
        5
102
RTVSPost2010Prop44ColorRGB
 90
      255
102
RTVSPost2010PropOp44
 70
     1
102
RTVSPost2010Prop45
280
     0
102
RTVSPost2010PropOp45
 70
     1
102
RTVSPost2010Prop46
 90
       50
102
RTVSPost2010PropOp46
 70
     1
102
RTVSPost2010Prop47
 90
       50
102
RTVSPost2010PropOp47
 70
     1
102
RTVSPost2010Prop48
 90
       50
102
RTVSPost2010PropOp48
 70
     1
102
RTVSPost2010Prop49
280
     0
102
RTVSPost2010PropOp49
 70
     1
102
RTVSPost2010Prop50
 90
       50
102
RTVSPost2010PropOp50
 70
     1
102
RTVSPost2010Prop51ColorIndex
 90
      256
102
RTVSPost2010Prop51ColorRGB
 90
-16777216
102
RTVSPost2010PropOp51
 70
     0
102
RTVSPost2010Prop52
140
1.0
102
RTVSPost2010PropOp52
 70
     0
102
RTVSPost2010Prop53
 90
        2
102
RTVSPost2010PropOp53
 70
     1
102
RTVSPost2010Prop54
  1
strokes_ogs.tif
102
RTVSPost2010PropOp54
 70
     1
102
RTVSPost2010Prop55
280
     0
102
RTVSPost2010PropOp55
 70
     1
102
RTVSPost2010Prop56
140
1.0
102
RTVSPost2010PropOp56
 70
     1
102
RTVSPost2010Prop57
140
1.0
102
RTVSPost2010PropOp57
 70
     1
  0
XRECORD
  5
1AC
102
{ACAD_REACTORS
330
1AB
102
}
330
1AB
100
AcDbXrecord
280
     1
102
RTVSPost2010Prop28
280
     0
102
RTVSPost2010PropOp28
 70
     1
102
RTVSPost2010Prop29
280
     1
102
RTVSPost2010PropOp29
 70
     1
102
RTVSPost2010Prop30
280
     1
102
RTVSPost2010PropOp30
 70
     1
102
RTVSPost2010Prop31
280
     0
102
RTVSPost2010PropOp31
 70
     1
102
RTVSPost2010Prop32
280
     0
102
RTVSPost2010PropOp32
 70
     1
102
RTVSPost2010Prop33
280
     0
102
RTVSPost2010PropOp33
 70
     1
102
RTVSPost2010Prop34
280
     0
102
RTVSPost2010PropOp34
 70
     1
102
RTVSPost2010Prop35
280
     0
102
RTVSPost2010PropOp35
 70
     1
102
RTVSPost2010Prop36
280
     0
102
RTVSPost2010PropOp36
 70
     1
102
RTVSPost2010Prop37
 90
       50
102
RTVSPost2010PropOp37
 70
     1
102
RTVSPost2010Prop38
140
0.0
102
RTVSPost2010PropOp38
 70
     1
102
RTVSPost2010Prop39
140
1.0
102
RTVSPost2010PropOp39
 70
     1
102
RTVSPost2010Prop40
 90
        0
102
RTVSPost2010PropOp40
 70
     1
102
RTVSPost2010Prop41ColorIndex
 90
       18
102
RTVSPost2010Prop41ColorRGB
 90
        0
102
RTVSPost2010PropOp41
 70
     1
102
RTVSPost2010Prop42
 90
       50
102
RTVSPost2010PropOp42
 70
     1
102
RTVSPost2010Prop43
 90
        3
102
RTVSPost2010PropOp43
 70
     1
102
RTVSPost2010Prop44ColorIndex
 90
        5
102
RTVSPost2010Prop44ColorRGB
 90
      255
102
RTVSPost2010PropOp44
 70
     1
102
RTVSPost2010Prop45
280
     0
102
RTVSPost2010PropOp45
 70
     1
102
RTVSPost2010Prop46
 90
       50
102
RTVSPost2010PropOp46
 70
     1
102
RTVSPost2010Prop47
 90
       50
102
RTVSPost2010PropOp47
 70
     1
102
RTVSPost2010Prop48
 90
       50
102
RTVSPost2010PropOp48
 70
     1
102
RTVSPost2010Prop49
280
     0
102
RTVSPost2010PropOp49
 70
     1
102
RTVSPost2010Prop50
 90
       50
102
RTVSPost2010PropOp50
 70
     1
102
RTVSPost2010Prop51ColorIndex
 90
      256
102
RTVSPost2010Prop51ColorRGB
 90
-16777216
102
RTVSPost2010PropOp51
 70
     0
102
RTVSPost2010Prop52
140
1.0
102
RTVSPost2010PropOp52
 70
     0
102
RTVSPost2010Prop53
 90
        2
102
RTVSPost2010PropOp53
 70
     1
102
RTVSPost2010Prop54
  1
strokes_ogs.tif
102
RTVSPost2010PropOp54
 70
     1
102
RTVSPost2010Prop55
280
     0
102
RTVSPost2010PropOp55
 70
     1
102
RTVSPost2010Prop56
140
1.0
102
RTVSPost2010PropOp56
 70
     1
102
RTVSPost2010Prop57
140
1.0
102
RTVSPost2010PropOp57
 70
     1
  0
XRECORD
  5
1C0
102
{ACAD_REACTORS
330
1BF
102
}
330
1BF
100
AcDbXrecord
280
     1
102
RTVSPost2010Prop28
280
     0
102
RTVSPost2010PropOp28
 70
     0
102
RTVSPost2010Prop29
280
     1
102
RTVSPost2010PropOp29
 70
     0
102
RTVSPost2010Prop30
280
     1
102
RTVSPost2010PropOp30
 70
     0
102
RTVSPost2010Prop31
280
     0
102
RTVSPost2010PropOp31
 70
     0
102
RTVSPost2010Prop32
280
     0
102
RTVSPost2010PropOp32
 70
     0
102
RTVSPost2010Prop33
280
     0
102
RTVSPost2010PropOp33
 70
     0
102
RTVSPost2010Prop34
280
     0
102
RTVSPost2010PropOp34
 70
     0
102
RTVSPost2010Prop35
280
     0
102
RTVSPost2010PropOp35
 70
     0
102
RTVSPost2010Prop36
280
     0
102
RTVSPost2010PropOp36
 70
     0
102
RTVSPost2010Prop37
 90
       50
102
RTVSPost2010PropOp37
 70
     0
102
RTVSPost2010Prop38
140
0.0
102
RTVSPost2010PropOp38
 70
     0
102
RTVSPost2010Prop39
140
1.0
102
RTVSPost2010PropOp39
 70
     0
102
RTVSPost2010Prop40
 90
        0
102
RTVSPost2010PropOp40
 70
     0
102
RTVSPost2010Prop41ColorIndex
 90
       18
102
RTVSPost2010Prop41ColorRGB
 90
        0
102
RTVSPost2010PropOp41
 70
     0
102
RTVSPost2010Prop42
 90
       50
102
RTVSPost2010PropOp42
 70
     0
102
RTVSPost2010Prop43
 90
        3
102
RTVSPost2010PropOp43
 70
     0
102
RTVSPost2010Prop44ColorIndex
 90
        5
102
RTVSPost2010Prop44ColorRGB
 90
      255
102
RTVSPost2010PropOp44
 70
     0
102
RTVSPost2010Prop45
280
     0
102
RTVSPost2010PropOp45
 70
     0
102
RTVSPost2010Prop46
 90
       50
102
RTVSPost2010PropOp46
 70
     0
102
RTVSPost2010Prop47
 90
       50
102
RTVSPost2010PropOp47
 70
     0
102
RTVSPost2010Prop48
 90
       50
102
RTVSPost2010PropOp48
 70
     0
102
RTVSPost2010Prop49
280
     0
102
RTVSPost2010PropOp49
 70
     0
102
RTVSPost2010Prop50
 90
       50
102
RTVSPost2010PropOp50
 70
     0
102
RTVSPost2010Prop51ColorIndex
 90
      256
102
RTVSPost2010Prop51ColorRGB
 90
-16777216
102
RTVSPost2010PropOp51
 70
     0
102
RTVSPost2010Prop52
140
1.0
102
RTVSPost2010PropOp52
 70
     0
102
RTVSPost2010Prop53
 90
        2
102
RTVSPost2010PropOp53
 70
     0
102
RTVSPost2010Prop54
  1
strokes_ogs.tif
102
RTVSPost2010PropOp54
 70
     0
102
RTVSPost2010Prop55
280
     0
102
RTVSPost2010PropOp55
 70
     0
102
RTVSPost2010Prop56
140
1.0
102
RTVSPost2010PropOp56
 70
     0
102
RTVSPost2010Prop57
140
1.0
102
RTVSPost2010PropOp57
 70
     0
  0
XRECORD
  5
1BA
102
{ACAD_REACTORS
330
1B9
102
}
330
1B9
100
AcDbXrecord
280
     1
102
RTVSPost2010Prop28
280
     0
102
RTVSPost2010PropOp28
 70
     1
102
RTVSPost2010Prop29
280
     1
102
RTVSPost2010PropOp29
 70
     1
102
RTVSPost2010Prop30
280
     1
102
RTVSPost2010PropOp30
 70
     1
102
RTVSPost2010Prop31
280
     0
102
RTVSPost2010PropOp31
 70
     1
102
RTVSPost2010Prop32
280
     0
102
RTVSPost2010PropOp32
 70
     1
102
RTVSPost2010Prop33
280
     0
102
RTVSPost2010PropOp33
 70
     1
102
RTVSPost2010Prop34
280
     0
102
RTVSPost2010PropOp34
 70
     1
102
RTVSPost2010Prop35
280
     0
102
RTVSPost2010PropOp35
 70
     1
102
RTVSPost2010Prop36
280
     0
102
RTVSPost2010PropOp36
 70
     1
102
RTVSPost2010Prop37
 90
       50
102
RTVSPost2010PropOp37
 70
     1
102
RTVSPost2010Prop38
140
0.0
102
RTVSPost2010PropOp38
 70
     1
102
RTVSPost2010Prop39
140
1.0
102
RTVSPost2010PropOp39
 70
     1
102
RTVSPost2010Prop40
 90
        0
102
RTVSPost2010PropOp40
 70
     1
102
RTVSPost2010Prop41ColorIndex
 90
       18
102
RTVSPost2010Prop41ColorRGB
 90
        0
102
RTVSPost2010PropOp41
 70
     1
102
RTVSPost2010Prop42
 90
       50
102
RTVSPost2010PropOp42
 70
     1
102
RTVSPost2010Prop43
 90
        3
102
RTVSPost2010PropOp43
 70
     1
102
RTVSPost2010Prop44ColorIndex
 90
        5
102
RTVSPost2010Prop44ColorRGB
 90
      255
102
RTVSPost2010PropOp44
 70
     1
102
RTVSPost2010Prop45
280
     0
102
RTVSPost2010PropOp45
 70
     1
102
RTVSPost2010Prop46
 90
       50
102
RTVSPost2010PropOp46
 70
     1
102
RTVSPost2010Prop47
 90
       50
102
RTVSPost2010PropOp47
 70
     1
102
RTVSPost2010Prop48
 90
       50
102
RTVSPost2010PropOp48
 70
     1
102
RTVSPost2010Prop49
280
     0
102
RTVSPost2010PropOp49
 70
     1
102
RTVSPost2010Prop50
 90
       50
102
RTVSPost2010PropOp50
 70
     1
102
RTVSPost2010Prop51ColorIndex
 90
      256
102
RTVSPost2010Prop51ColorRGB
 90
-16777216
102
RTVSPost2010PropOp51
 70
     0
102
RTVSPost2010Prop52
140
1.0
102
RTVSPost2010PropOp52
 70
     0
102
RTVSPost2010Prop53
 90
        2
102
RTVSPost2010PropOp53
 70
     1
102
RTVSPost2010Prop54
  1
strokes_ogs.tif
102
RTVSPost2010PropOp54
 70
     1
102
RTVSPost2010Prop55
280
     0
102
RTVSPost2010PropOp55
 70
     1
102
RTVSPost2010Prop56
140
1.0
102
RTVSPost2010PropOp56
 70
     1
102
RTVSPost2010Prop57
140
1.0
102
RTVSPost2010PropOp57
 70
     1
  0
XRECORD
  5
1C2
102
{ACAD_REACTORS
330
1C1
102
}
330
1C1
100
AcDbXrecord
280
     1
102
RTVSPost2010Prop28
280
     0
102
RTVSPost2010PropOp28
 70
     0
102
RTVSPost2010Prop29
280
     1
102
RTVSPost2010PropOp29
 70
     0
102
RTVSPost2010Prop30
280
     1
102
RTVSPost2010PropOp30
 70
     0
102
RTVSPost2010Prop31
280
     0
102
RTVSPost2010PropOp31
 70
     0
102
RTVSPost2010Prop32
280
     0
102
RTVSPost2010PropOp32
 70
     0
102
RTVSPost2010Prop33
280
     0
102
RTVSPost2010PropOp33
 70
     0
102
RTVSPost2010Prop34
280
     0
102
RTVSPost2010PropOp34
 70
     0
102
RTVSPost2010Prop35
280
     0
102
RTVSPost2010PropOp35
 70
     0
102
RTVSPost2010Prop36
280
     0
102
RTVSPost2010PropOp36
 70
     0
102
RTVSPost2010Prop37
 90
       50
102
RTVSPost2010PropOp37
 70
     0
102
RTVSPost2010Prop38
140
0.0
102
RTVSPost2010PropOp38
 70
     0
102
RTVSPost2010Prop39
140
1.0
102
RTVSPost2010PropOp39
 70
     0
102
RTVSPost2010Prop40
 90
        0
102
RTVSPost2010PropOp40
 70
     0
102
RTVSPost2010Prop41ColorIndex
 90
       18
102
RTVSPost2010Prop41ColorRGB
 90
        0
102
RTVSPost2010PropOp41
 70
     0
102
RTVSPost2010Prop42
 90
       50
102
RTVSPost2010PropOp42
 70
     0
102
RTVSPost2010Prop43
 90
        3
102
RTVSPost2010PropOp43
 70
     0
102
RTVSPost2010Prop44ColorIndex
 90
        5
102
RTVSPost2010Prop44ColorRGB
 90
      255
102
RTVSPost2010PropOp44
 70
     0
102
RTVSPost2010Prop45
280
     0
102
RTVSPost2010PropOp45
 70
     0
102
RTVSPost2010Prop46
 90
       50
102
RTVSPost2010PropOp46
 70
     0
102
RTVSPost2010Prop47
 90
       50
102
RTVSPost2010PropOp47
 70
     0
102
RTVSPost2010Prop48
 90
       50
102
RTVSPost2010PropOp48
 70
     0
102
RTVSPost2010Prop49
280
     0
102
RTVSPost2010PropOp49
 70
     0
102
RTVSPost2010Prop50
 90
       50
102
RTVSPost2010PropOp50
 70
     0
102
RTVSPost2010Prop51ColorIndex
 90
      256
102
RTVSPost2010Prop51ColorRGB
 90
-16777216
102
RTVSPost2010PropOp51
 70
     0
102
RTVSPost2010Prop52
140
1.0
102
RTVSPost2010PropOp52
 70
     0
102
RTVSPost2010Prop53
 90
        2
102
RTVSPost2010PropOp53
 70
     0
102
RTVSPost2010Prop54
  1
strokes_ogs.tif
102
RTVSPost2010PropOp54
 70
     0
102
RTVSPost2010Prop55
280
     0
102
RTVSPost2010PropOp55
 70
     0
102
RTVSPost2010Prop56
140
1.0
102
RTVSPost2010PropOp56
 70
     0
102
RTVSPost2010Prop57
140
1.0
102
RTVSPost2010PropOp57
 70
     0
  0
XRECORD
  5
1B0
102
{ACAD_REACTORS
330
1AF
102
}
330
1AF
100
AcDbXrecord
280
     1
102
RTVSPost2010Prop28
280
     0
102
RTVSPost2010PropOp28
 70
     1
102
RTVSPost2010Prop29
280
     1
102
RTVSPost2010PropOp29
 70
     1
102
RTVSPost2010Prop30
280
     1
102
RTVSPost2010PropOp30
 70
     1
102
RTVSPost2010Prop31
280
     0
102
RTVSPost2010PropOp31
 70
     1
102
RTVSPost2010Prop32
280
     0
102
RTVSPost2010PropOp32
 70
     1
102
RTVSPost2010Prop33
280
     0
102
RTVSPost2010PropOp33
 70
     1
102
RTVSPost2010Prop34
280
     0
102
RTVSPost2010PropOp34
 70
     1
102
RTVSPost2010Prop35
280
     0
102
RTVSPost2010PropOp35
 70
     1
102
RTVSPost2010Prop36
280
     0
102
RTVSPost2010PropOp36
 70
     1
102
RTVSPost2010Prop37
 90
       50
102
RTVSPost2010PropOp37
 70
     1
102
RTVSPost2010Prop38
140
0.0
102
RTVSPost2010PropOp38
 70
     1
102
RTVSPost2010Prop39
140
1.0
102
RTVSPost2010PropOp39
 70
     1
102
RTVSPost2010Prop40
 90
        0
102
RTVSPost2010PropOp40
 70
     1
102
RTVSPost2010Prop41ColorIndex
 90
       18
102
RTVSPost2010Prop41ColorRGB
 90
        0
102
RTVSPost2010PropOp41
 70
     1
102
RTVSPost2010Prop42
 90
       50
102
RTVSPost2010PropOp42
 70
     1
102
RTVSPost2010Prop43
 90
        3
102
RTVSPost2010PropOp43
 70
     1
102
RTVSPost2010Prop44ColorIndex
 90
        5
102
RTVSPost2010Prop44ColorRGB
 90
      255
102
RTVSPost2010PropOp44
 70
     1
102
RTVSPost2010Prop45
280
     0
102
RTVSPost2010PropOp45
 70
     1
102
RTVSPost2010Prop46
 90
       50
102
RTVSPost2010PropOp46
 70
     1
102
RTVSPost2010Prop47
 90
       50
102
RTVSPost2010PropOp47
 70
     1
102
RTVSPost2010Prop48
 90
       50
102
RTVSPost2010PropOp48
 70
     1
102
RTVSPost2010Prop49
280
     0
102
RTVSPost2010PropOp49
 70
     1
102
RTVSPost2010Prop50
 90
       50
102
RTVSPost2010PropOp50
 70
     1
102
RTVSPost2010Prop51ColorIndex
 90
      256
102
RTVSPost2010Prop51ColorRGB
 90
-16777216
102
RTVSPost2010PropOp51
 70
     0
102
RTVSPost2010Prop52
140
1.0
102
RTVSPost2010PropOp52
 70
     0
102
RTVSPost2010Prop53
 90
        2
102
RTVSPost2010PropOp53
 70
     1
102
RTVSPost2010Prop54
  1
strokes_ogs.tif
102
RTVSPost2010PropOp54
 70
     1
102
RTVSPost2010Prop55
280
     0
102
RTVSPost2010PropOp55
 70
     1
102
RTVSPost2010Prop56
140
1.0
102
RTVSPost2010PropOp56
 70
     1
102
RTVSPost2010Prop57
140
1.0
102
RTVSPost2010PropOp57
 70
     1
  0
XRECORD
  5
1CE
102
{ACAD_REACTORS
330
1CD
102
}
330
1CD
100
AcDbXrecord
280
     1
102
RTVSPost2010Prop28
280
     0
102
RTVSPost2010PropOp28
 70
     1
102
RTVSPost2010Prop29
280
     1
102
RTVSPost2010PropOp29
 70
     1
102
RTVSPost2010Prop30
280
     1
102
RTVSPost2010PropOp30
 70
     1
102
RTVSPost2010Prop31
280
     0
102
RTVSPost2010PropOp31
 70
     1
102
RTVSPost2010Prop32
280
     0
102
RTVSPost2010PropOp32
 70
     1
102
RTVSPost2010Prop33
280
     0
102
RTVSPost2010PropOp33
 70
     1
102
RTVSPost2010Prop34
280
     0
102
RTVSPost2010PropOp34
 70
     1
102
RTVSPost2010Prop35
280
     0
102
RTVSPost2010PropOp35
 70
     1
102
RTVSPost2010Prop36
280
     0
102
RTVSPost2010PropOp36
 70
     1
102
RTVSPost2010Prop37
 90
       50
102
RTVSPost2010PropOp37
 70
     1
102
RTVSPost2010Prop38
140
0.0
102
RTVSPost2010PropOp38
 70
     1
102
RTVSPost2010Prop39
140
1.0
102
RTVSPost2010PropOp39
 70
     1
102
RTVSPost2010Prop40
 90
        0
102
RTVSPost2010PropOp40
 70
     1
102
RTVSPost2010Prop41ColorIndex
 90
       18
102
RTVSPost2010Prop41ColorRGB
 90
        0
102
RTVSPost2010PropOp41
 70
     1
102
RTVSPost2010Prop42
 90
       50
102
RTVSPost2010PropOp42
 70
     1
102
RTVSPost2010Prop43
 90
        3
102
RTVSPost2010PropOp43
 70
     1
102
RTVSPost2010Prop44ColorIndex
 90
        5
102
RTVSPost2010Prop44ColorRGB
 90
      255
102
RTVSPost2010PropOp44
 70
     1
102
RTVSPost2010Prop45
280
     0
102
RTVSPost2010PropOp45
 70
     1
102
RTVSPost2010Prop46
 90
       50
102
RTVSPost2010PropOp46
 70
     1
102
RTVSPost2010Prop47
 90
       50
102
RTVSPost2010PropOp47
 70
     1
102
RTVSPost2010Prop48
 90
       50
102
RTVSPost2010PropOp48
 70
     1
102
RTVSPost2010Prop49
280
     0
102
RTVSPost2010PropOp49
 70
     1
102
RTVSPost2010Prop50
 90
       50
102
RTVSPost2010PropOp50
 70
     1
102
RTVSPost2010Prop51ColorIndex
 90
      256
102
RTVSPost2010Prop51ColorRGB
 90
-16777216
102
RTVSPost2010PropOp51
 70
     0
102
RTVSPost2010Prop52
140
1.0
102
RTVSPost2010PropOp52
 70
     0
102
RTVSPost2010Prop53
 90
        2
102
RTVSPost2010PropOp53
 70
     1
102
RTVSPost2010Prop54
  1
strokes_ogs.tif
102
RTVSPost2010PropOp54
 70
     1
102
RTVSPost2010Prop55
280
     0
102
RTVSPost2010PropOp55
 70
     1
102
RTVSPost2010Prop56
140
1.0
102
RTVSPost2010PropOp56
 70
     1
102
RTVSPost2010Prop57
140
1.0
102
RTVSPost2010PropOp57
 70
     1
  0
XRECORD
  5
1CC
102
{ACAD_REACTORS
330
1CB
102
}
330
1CB
100
AcDbXrecord
280
     1
102
RTVSPost2010Prop28
280
     0
102
RTVSPost2010PropOp28
 70
     1
102
RTVSPost2010Prop29
280
     1
102
RTVSPost2010PropOp29
 70
     1
102
RTVSPost2010Prop30
280
     1
102
RTVSPost2010PropOp30
 70
     1
102
RTVSPost2010Prop31
280
     0
102
RTVSPost2010PropOp31
 70
     1
102
RTVSPost2010Prop32
280
     0
102
RTVSPost2010PropOp32
 70
     1
102
RTVSPost2010Prop33
280
     0
102
RTVSPost2010PropOp33
 70
     1
102
RTVSPost2010Prop34
280
     0
102
RTVSPost2010PropOp34
 70
     1
102
RTVSPost2010Prop35
280
     0
102
RTVSPost2010PropOp35
 70
     1
102
RTVSPost2010Prop36
280
     0
102
RTVSPost2010PropOp36
 70
     1
102
RTVSPost2010Prop37
 90
       50
102
RTVSPost2010PropOp37
 70
     1
102
RTVSPost2010Prop38
140
0.0
102
RTVSPost2010PropOp38
 70
     1
102
RTVSPost2010Prop39
140
1.0
102
RTVSPost2010PropOp39
 70
     1
102
RTVSPost2010Prop40
 90
        0
102
RTVSPost2010PropOp40
 70
     1
102
RTVSPost2010Prop41ColorIndex
 90
       18
102
RTVSPost2010Prop41ColorRGB
 90
        0
102
RTVSPost2010PropOp41
 70
     1
102
RTVSPost2010Prop42
 90
       50
102
RTVSPost2010PropOp42
 70
     1
102
RTVSPost2010Prop43
 90
        3
102
RTVSPost2010PropOp43
 70
     1
102
RTVSPost2010Prop44ColorIndex
 90
        5
102
RTVSPost2010Prop44ColorRGB
 90
      255
102
RTVSPost2010PropOp44
 70
     1
102
RTVSPost2010Prop45
280
     0
102
RTVSPost2010PropOp45
 70
     1
102
RTVSPost2010Prop46
 90
       50
102
RTVSPost2010PropOp46
 70
     1
102
RTVSPost2010Prop47
 90
       50
102
RTVSPost2010PropOp47
 70
     1
102
RTVSPost2010Prop48
 90
       50
102
RTVSPost2010PropOp48
 70
     1
102
RTVSPost2010Prop49
280
     0
102
RTVSPost2010PropOp49
 70
     1
102
RTVSPost2010Prop50
 90
       50
102
RTVSPost2010PropOp50
 70
     1
102
RTVSPost2010Prop51ColorIndex
 90
      256
102
RTVSPost2010Prop51ColorRGB
 90
-16777216
102
RTVSPost2010PropOp51
 70
     0
102
RTVSPost2010Prop52
140
1.0
102
RTVSPost2010PropOp52
 70
     0
102
RTVSPost2010Prop53
 90
        2
102
RTVSPost2010PropOp53
 70
     1
102
RTVSPost2010Prop54
  1
strokes_ogs.tif
102
RTVSPost2010PropOp54
 70
     1
102
RTVSPost2010Prop55
280
     0
102
RTVSPost2010PropOp55
 70
     1
102
RTVSPost2010Prop56
140
1.0
102
RTVSPost2010PropOp56
 70
     1
102
RTVSPost2010Prop57
140
1.0
102
RTVSPost2010PropOp57
 70
     1
  0
XRECORD
  5
1C6
102
{ACAD_REACTORS
330
1C5
102
}
330
1C5
100
AcDbXrecord
280
     1
102
RTVSPost2010Prop28
280
     0
102
RTVSPost2010PropOp28
 70
     1
102
RTVSPost2010Prop29
280
     1
102
RTVSPost2010PropOp29
 70
     1
102
RTVSPost2010Prop30
280
     1
102
RTVSPost2010PropOp30
 70
     1
102
RTVSPost2010Prop31
280
     0
102
RTVSPost2010PropOp31
 70
     1
102
RTVSPost2010Prop32
280
     0
102
RTVSPost2010PropOp32
 70
     1
102
RTVSPost2010Prop33
280
     0
102
RTVSPost2010PropOp33
 70
     1
102
RTVSPost2010Prop34
280
     0
102
RTVSPost2010PropOp34
 70
     1
102
RTVSPost2010Prop35
280
     0
102
RTVSPost2010PropOp35
 70
     1
102
RTVSPost2010Prop36
280
     0
102
RTVSPost2010PropOp36
 70
     1
102
RTVSPost2010Prop37
 90
       50
102
RTVSPost2010PropOp37
 70
     1
102
RTVSPost2010Prop38
140
0.0
102
RTVSPost2010PropOp38
 70
     1
102
RTVSPost2010Prop39
140
1.0
102
RTVSPost2010PropOp39
 70
     1
102
RTVSPost2010Prop40
 90
        0
102
RTVSPost2010PropOp40
 70
     1
102
RTVSPost2010Prop41ColorIndex
 90
       18
102
RTVSPost2010Prop41ColorRGB
 90
        0
102
RTVSPost2010PropOp41
 70
     1
102
RTVSPost2010Prop42
 90
       50
102
RTVSPost2010PropOp42
 70
     1
102
RTVSPost2010Prop43
 90
        3
102
RTVSPost2010PropOp43
 70
     1
102
RTVSPost2010Prop44ColorIndex
 90
        5
102
RTVSPost2010Prop44ColorRGB
 90
      255
102
RTVSPost2010PropOp44
 70
     1
102
RTVSPost2010Prop45
280
     0
102
RTVSPost2010PropOp45
 70
     1
102
RTVSPost2010Prop46
 90
       50
102
RTVSPost2010PropOp46
 70
     1
102
RTVSPost2010Prop47
 90
       50
102
RTVSPost2010PropOp47
 70
     1
102
RTVSPost2010Prop48
 90
       50
102
RTVSPost2010PropOp48
 70
     1
102
RTVSPost2010Prop49
280
     0
102
RTVSPost2010PropOp49
 70
     1
102
RTVSPost2010Prop50
 90
       50
102
RTVSPost2010PropOp50
 70
     1
102
RTVSPost2010Prop51ColorIndex
 90
      256
102
RTVSPost2010Prop51ColorRGB
 90
-16777216
102
RTVSPost2010PropOp51
 70
     0
102
RTVSPost2010Prop52
140
1.0
102
RTVSPost2010PropOp52
 70
     0
102
RTVSPost2010Prop53
 90
        2
102
RTVSPost2010PropOp53
 70
     1
102
RTVSPost2010Prop54
  1
strokes_ogs.tif
102
RTVSPost2010PropOp54
 70
     1
102
RTVSPost2010Prop55
280
     0
102
RTVSPost2010PropOp55
 70
     1
102
RTVSPost2010Prop56
140
1.0
102
RTVSPost2010PropOp56
 70
     1
102
RTVSPost2010Prop57
140
1.0
102
RTVSPost2010PropOp57
 70
     1
  0
XRECORD
  5
1C8
102
{ACAD_REACTORS
330
1C7
102
}
330
1C7
100
AcDbXrecord
280
     1
102
RTVSPost2010Prop28
280
     0
102
RTVSPost2010PropOp28
 70
     1
102
RTVSPost2010Prop29
280
     1
102
RTVSPost2010PropOp29
 70
     1
102
RTVSPost2010Prop30
280
     1
102
RTVSPost2010PropOp30
 70
     1
102
RTVSPost2010Prop31
280
     0
102
RTVSPost2010PropOp31
 70
     1
102
RTVSPost2010Prop32
280
     0
102
RTVSPost2010PropOp32
 70
     1
102
RTVSPost2010Prop33
280
     0
102
RTVSPost2010PropOp33
 70
     1
102
RTVSPost2010Prop34
280
     0
102
RTVSPost2010PropOp34
 70
     1
102
RTVSPost2010Prop35
280
     0
102
RTVSPost2010PropOp35
 70
     1
102
RTVSPost2010Prop36
280
     0
102
RTVSPost2010PropOp36
 70
     1
102
RTVSPost2010Prop37
 90
       50
102
RTVSPost2010PropOp37
 70
     1
102
RTVSPost2010Prop38
140
0.0
102
RTVSPost2010PropOp38
 70
     1
102
RTVSPost2010Prop39
140
1.0
102
RTVSPost2010PropOp39
 70
     1
102
RTVSPost2010Prop40
 90
        0
102
RTVSPost2010PropOp40
 70
     1
102
RTVSPost2010Prop41ColorIndex
 90
       18
102
RTVSPost2010Prop41ColorRGB
 90
        0
102
RTVSPost2010PropOp41
 70
     1
102
RTVSPost2010Prop42
 90
       50
102
RTVSPost2010PropOp42
 70
     1
102
RTVSPost2010Prop43
 90
        3
102
RTVSPost2010PropOp43
 70
     1
102
RTVSPost2010Prop44ColorIndex
 90
        5
102
RTVSPost2010Prop44ColorRGB
 90
      255
102
RTVSPost2010PropOp44
 70
     1
102
RTVSPost2010Prop45
280
     0
102
RTVSPost2010PropOp45
 70
     1
102
RTVSPost2010Prop46
 90
       50
102
RTVSPost2010PropOp46
 70
     1
102
RTVSPost2010Prop47
 90
       50
102
RTVSPost2010PropOp47
 70
     1
102
RTVSPost2010Prop48
 90
       50
102
RTVSPost2010PropOp48
 70
     1
102
RTVSPost2010Prop49
280
     0
102
RTVSPost2010PropOp49
 70
     1
102
RTVSPost2010Prop50
 90
       50
102
RTVSPost2010PropOp50
 70
     1
102
RTVSPost2010Prop51ColorIndex
 90
      256
102
RTVSPost2010Prop51ColorRGB
 90
-16777216
102
RTVSPost2010PropOp51
 70
     0
102
RTVSPost2010Prop52
140
1.0
102
RTVSPost2010PropOp52
 70
     0
102
RTVSPost2010Prop53
 90
        2
102
RTVSPost2010PropOp53
 70
     1
102
RTVSPost2010Prop54
  1
strokes_ogs.tif
102
RTVSPost2010PropOp54
 70
     1
102
RTVSPost2010Prop55
280
     0
102
RTVSPost2010PropOp55
 70
     1
102
RTVSPost2010Prop56
140
1.0
102
RTVSPost2010PropOp56
 70
     1
102
RTVSPost2010Prop57
140
1.0
102
RTVSPost2010PropOp57
 70
     1
  0
XRECORD
  5
1B8
102
{ACAD_REACTORS
330
1B7
102
}
330
1B7
100
AcDbXrecord
280
     1
102
RTVSPost2010Prop28
280
     0
102
RTVSPost2010PropOp28
 70
     1
102
RTVSPost2010Prop29
280
     1
102
RTVSPost2010PropOp29
 70
     1
102
RTVSPost2010Prop30
280
     1
102
RTVSPost2010PropOp30
 70
     1
102
RTVSPost2010Prop31
280
     0
102
RTVSPost2010PropOp31
 70
     1
102
RTVSPost2010Prop32
280
     0
102
RTVSPost2010PropOp32
 70
     1
102
RTVSPost2010Prop33
280
     0
102
RTVSPost2010PropOp33
 70
     1
102
RTVSPost2010Prop34
280
     0
102
RTVSPost2010PropOp34
 70
     1
102
RTVSPost2010Prop35
280
     0
102
RTVSPost2010PropOp35
 70
     1
102
RTVSPost2010Prop36
280
     0
102
RTVSPost2010PropOp36
 70
     1
102
RTVSPost2010Prop37
 90
       50
102
RTVSPost2010PropOp37
 70
     1
102
RTVSPost2010Prop38
140
0.0
102
RTVSPost2010PropOp38
 70
     1
102
RTVSPost2010Prop39
140
1.0
102
RTVSPost2010PropOp39
 70
     1
102
RTVSPost2010Prop40
 90
        0
102
RTVSPost2010PropOp40
 70
     1
102
RTVSPost2010Prop41ColorIndex
 90
       18
102
RTVSPost2010Prop41ColorRGB
 90
        0
102
RTVSPost2010PropOp41
 70
     1
102
RTVSPost2010Prop42
 90
       50
102
RTVSPost2010PropOp42
 70
     1
102
RTVSPost2010Prop43
 90
        3
102
RTVSPost2010PropOp43
 70
     1
102
RTVSPost2010Prop44ColorIndex
 90
        5
102
RTVSPost2010Prop44ColorRGB
 90
      255
102
RTVSPost2010PropOp44
 70
     1
102
RTVSPost2010Prop45
280
     0
102
RTVSPost2010PropOp45
 70
     1
102
RTVSPost2010Prop46
 90
       50
102
RTVSPost2010PropOp46
 70
     1
102
RTVSPost2010Prop47
 90
       50
102
RTVSPost2010PropOp47
 70
     1
102
RTVSPost2010Prop48
 90
       50
102
RTVSPost2010PropOp48
 70
     1
102
RTVSPost2010Prop49
280
     0
102
RTVSPost2010PropOp49
 70
     1
102
RTVSPost2010Prop50
 90
       50
102
RTVSPost2010PropOp50
 70
     1
102
RTVSPost2010Prop51ColorIndex
 90
      256
102
RTVSPost2010Prop51ColorRGB
 90
-16777216
102
RTVSPost2010PropOp51
 70
     0
102
RTVSPost2010Prop52
140
1.0
102
RTVSPost2010PropOp52
 70
     0
102
RTVSPost2010Prop53
 90
        2
102
RTVSPost2010PropOp53
 70
     1
102
RTVSPost2010Prop54
  1
strokes_ogs.tif
102
RTVSPost2010PropOp54
 70
     1
102
RTVSPost2010Prop55
280
     0
102
RTVSPost2010PropOp55
 70
     1
102
RTVSPost2010Prop56
140
1.0
102
RTVSPost2010PropOp56
 70
     1
102
RTVSPost2010Prop57
140
1.0
102
RTVSPost2010PropOp57
 70
     1
  0
XRECORD
  5
1AA
102
{ACAD_REACTORS
330
1A9
102
}
330
1A9
100
AcDbXrecord
280
     1
102
RTVSPost2010Prop28
280
     0
102
RTVSPost2010PropOp28
 70
     1
102
RTVSPost2010Prop29
280
     1
102
RTVSPost2010PropOp29
 70
     1
102
RTVSPost2010Prop30
280
     1
102
RTVSPost2010PropOp30
 70
     1
102
RTVSPost2010Prop31
280
     0
102
RTVSPost2010PropOp31
 70
     1
102
RTVSPost2010Prop32
280
     0
102
RTVSPost2010PropOp32
 70
     1
102
RTVSPost2010Prop33
280
     0
102
RTVSPost2010PropOp33
 70
     1
102
RTVSPost2010Prop34
280
     0
102
RTVSPost2010PropOp34
 70
     1
102
RTVSPost2010Prop35
280
     0
102
RTVSPost2010PropOp35
 70
     1
102
RTVSPost2010Prop36
280
     0
102
RTVSPost2010PropOp36
 70
     1
102
RTVSPost2010Prop37
 90
       50
102
RTVSPost2010PropOp37
 70
     1
102
RTVSPost2010Prop38
140
0.0
102
RTVSPost2010PropOp38
 70
     1
102
RTVSPost2010Prop39
140
1.0
102
RTVSPost2010PropOp39
 70
     1
102
RTVSPost2010Prop40
 90
        0
102
RTVSPost2010PropOp40
 70
     1
102
RTVSPost2010Prop41ColorIndex
 90
       18
102
RTVSPost2010Prop41ColorRGB
 90
        0
102
RTVSPost2010PropOp41
 70
     1
102
RTVSPost2010Prop42
 90
       50
102
RTVSPost2010PropOp42
 70
     1
102
RTVSPost2010Prop43
 90
        3
102
RTVSPost2010PropOp43
 70
     1
102
RTVSPost2010Prop44ColorIndex
 90
        5
102
RTVSPost2010Prop44ColorRGB
 90
      255
102
RTVSPost2010PropOp44
 70
     1
102
RTVSPost2010Prop45
280
     0
102
RTVSPost2010PropOp45
 70
     1
102
RTVSPost2010Prop46
 90
       50
102
RTVSPost2010PropOp46
 70
     1
102
RTVSPost2010Prop47
 90
       50
102
RTVSPost2010PropOp47
 70
     1
102
RTVSPost2010Prop48
 90
       50
102
RTVSPost2010PropOp48
 70
     1
102
RTVSPost2010Prop49
280
     0
102
RTVSPost2010PropOp49
 70
     1
102
RTVSPost2010Prop50
 90
       50
102
RTVSPost2010PropOp50
 70
     1
102
RTVSPost2010Prop51ColorIndex
 90
      256
102
RTVSPost2010Prop51ColorRGB
 90
-16777216
102
RTVSPost2010PropOp51
 70
     0
102
RTVSPost2010Prop52
140
1.0
102
RTVSPost2010PropOp52
 70
     0
102
RTVSPost2010Prop53
 90
        2
102
RTVSPost2010PropOp53
 70
     1
102
RTVSPost2010Prop54
  1
strokes_ogs.tif
102
RTVSPost2010PropOp54
 70
     1
102
RTVSPost2010Prop55
280
     0
102
RTVSPost2010PropOp55
 70
     1
102
RTVSPost2010Prop56
140
1.0
102
RTVSPost2010PropOp56
 70
     1
102
RTVSPost2010Prop57
140
1.0
102
RTVSPost2010PropOp57
 70
     1
  0
XRECORD
  5
1CA
102
{ACAD_REACTORS
330
1C9
102
}
330
1C9
100
AcDbXrecord
280
     1
102
RTVSPost2010Prop28
280
     0
102
RTVSPost2010PropOp28
 70
     1
102
RTVSPost2010Prop29
280
     1
102
RTVSPost2010PropOp29
 70
     1
102
RTVSPost2010Prop30
280
     1
102
RTVSPost2010PropOp30
 70
     1
102
RTVSPost2010Prop31
280
     0
102
RTVSPost2010PropOp31
 70
     1
102
RTVSPost2010Prop32
280
     0
102
RTVSPost2010PropOp32
 70
     1
102
RTVSPost2010Prop33
280
     0
102
RTVSPost2010PropOp33
 70
     1
102
RTVSPost2010Prop34
280
     0
102
RTVSPost2010PropOp34
 70
     1
102
RTVSPost2010Prop35
280
     0
102
RTVSPost2010PropOp35
 70
     1
102
RTVSPost2010Prop36
280
     0
102
RTVSPost2010PropOp36
 70
     1
102
RTVSPost2010Prop37
 90
       50
102
RTVSPost2010PropOp37
 70
     1
102
RTVSPost2010Prop38
140
0.0
102
RTVSPost2010PropOp38
 70
     1
102
RTVSPost2010Prop39
140
1.0
102
RTVSPost2010PropOp39
 70
     1
102
RTVSPost2010Prop40
 90
        0
102
RTVSPost2010PropOp40
 70
     1
102
RTVSPost2010Prop41ColorIndex
 90
       18
102
RTVSPost2010Prop41ColorRGB
 90
        0
102
RTVSPost2010PropOp41
 70
     1
102
RTVSPost2010Prop42
 90
       50
102
RTVSPost2010PropOp42
 70
     1
102
RTVSPost2010Prop43
 90
        3
102
RTVSPost2010PropOp43
 70
     1
102
RTVSPost2010Prop44ColorIndex
 90
        5
102
RTVSPost2010Prop44ColorRGB
 90
      255
102
RTVSPost2010PropOp44
 70
     1
102
RTVSPost2010Prop45
280
     0
102
RTVSPost2010PropOp45
 70
     1
102
RTVSPost2010Prop46
 90
       50
102
RTVSPost2010PropOp46
 70
     1
102
RTVSPost2010Prop47
 90
       50
102
RTVSPost2010PropOp47
 70
     1
102
RTVSPost2010Prop48
 90
       50
102
RTVSPost2010PropOp48
 70
     1
102
RTVSPost2010Prop49
280
     0
102
RTVSPost2010PropOp49
 70
     1
102
RTVSPost2010Prop50
 90
       50
102
RTVSPost2010PropOp50
 70
     1
102
RTVSPost2010Prop51ColorIndex
 90
      256
102
RTVSPost2010Prop51ColorRGB
 90
-16777216
102
RTVSPost2010PropOp51
 70
     0
102
RTVSPost2010Prop52
140
1.0
102
RTVSPost2010PropOp52
 70
     0
102
RTVSPost2010Prop53
 90
        2
102
RTVSPost2010PropOp53
 70
     1
102
RTVSPost2010Prop54
  1
strokes_ogs.tif
102
RTVSPost2010PropOp54
 70
     1
102
RTVSPost2010Prop55
280
     0
102
RTVSPost2010PropOp55
 70
     1
102
RTVSPost2010Prop56
140
1.0
102
RTVSPost2010PropOp56
 70
     1
102
RTVSPost2010Prop57
140
1.0
102
RTVSPost2010PropOp57
 70
     1
  0
ENDSEC
  0
EOF
