  0
SECTION
  2
HEADER
  9
$ACADVER
  1
AC1024
  9
$ACADMAINTVER
 70
     6
  9
$DWGCODEPAGE
  3
ANSI_932
  9
$INSBASE
 10
0.0
 20
0.0
 30
0.0
  9
$EXTMIN
 10
-4455.0
 20
-3150.0
 30
0.0
  9
$EXTMAX
 10
4455.0
 20
3150.0
 30
0.0
  9
$LIMMIN
 10
-4455.0
 20
-3150.0
  9
$LIMMAX
 10
4455.0
 20
3150.0
  9
$ORTHOMODE
 70
     0
  9
$REGENMODE
 70
     1
  9
$FILLMODE
 70
     1
  9
$QTEXTMODE
 70
     0
  9
$MIRRTEXT
 70
     1
  9
$LTSCALE
 40
30.0
  9
$ATTMODE
 70
     1
  9
$TEXTSIZE
 40
2.5
  9
$TRACEWID
 40
1.0
  9
$TEXTSTYLE
  7
Standard
  9
$CLAYER
  8
0
  9
$CELTYPE
  6
ByLayer
  9
$CECOLOR
 62
   256
  9
$CELTSCALE
 40
1.0
  9
$DISPSILH
 70
     0
  9
$DIMSCALE
 40
1.0
  9
$DIMASZ
 40
2.5
  9
$DIMEXO
 40
0.625
  9
$DIMDLI
 40
3.75
  9
$DIMRND
 40
0.0
  9
$DIMDLE
 40
0.0
  9
$DIMEXE
 40
1.25
  9
$DIMTP
 40
0.0
  9
$DIMTM
 40
0.0
  9
$DIMTXT
 40
2.5
  9
$DIMCEN
 40
2.5
  9
$DIMTSZ
 40
0.0
  9
$DIMTOL
 70
     0
  9
$DIMLIM
 70
     0
  9
$DIMTIH
 70
     0
  9
$DIMTOH
 70
     0
  9
$DIMSE1
 70
     0
  9
$DIMSE2
 70
     0
  9
$DIMTAD
 70
     1
  9
$DIMZIN
 70
     8
  9
$DIMBLK
  1

  9
$DIMASO
 70
     1
  9
$DIMSHO
 70
     1
  9
$DIMPOST
  1

  9
$DIMAPOST
  1

  9
$DIMALT
 70
     0
  9
$DIMALTD
 70
     3
  9
$DIMALTF
 40
0.03937007874016
  9
$DIMLFAC
 40
1.0
  9
$DIMTOFL
 70
     1
  9
$DIMTVP
 40
0.0
  9
$DIMTIX
 70
     0
  9
$DIMSOXD
 70
     0
  9
$DIMSAH
 70
     0
  9
$DIMBLK1
  1

  9
$DIMBLK2
  1

  9
$DIMSTYLE
  2
ISO-25
  9
$DIMCLRD
 70
     0
  9
$DIMCLRE
 70
     0
  9
$DIMCLRT
 70
     0
  9
$DIMTFAC
 40
1.0
  9
$DIMGAP
 40
0.625
  9
$DIMJUST
 70
     0
  9
$DIMSD1
 70
     0
  9
$DIMSD2
 70
     0
  9
$DIMTOLJ
 70
     0
  9
$DIMTZIN
 70
     8
  9
$DIMALTZ
 70
     0
  9
$DIMALTTZ
 70
     0
  9
$DIMUPT
 70
     0
  9
$DIMDEC
 70
     2
  9
$DIMTDEC
 70
     2
  9
$DIMALTU
 70
     2
  9
$DIMALTTD
 70
     3
  9
$DIMTXSTY
  7
Standard
  9
$DIMAUNIT
 70
     0
  9
$DIMADEC
 70
     0
  9
$DIMALTRND
 40
0.0
  9
$DIMAZIN
 70
     0
  9
$DIMDSEP
 70
    44
  9
$DIMATFIT
 70
     3
  9
$DIMFRAC
 70
     0
  9
$DIMLDRBLK
  1

  9
$DIMLUNIT
 70
     2
  9
$DIMLWD
 70
    -2
  9
$DIMLWE
 70
    -2
  9
$DIMTMOVE
 70
     0
  9
$DIMFXL
 40
1.0
  9
$DIMFXLON
 70
     0
  9
$DIMJOGANG
 40
0.7853981633974483
  9
$DIMTFILL
 70
     0
  9
$DIMTFILLCLR
 70
     0
  9
$DIMARCSYM
 70
     0
  9
$DIMLTYPE
  6

  9
$DIMLTEX1
  6

  9
$DIMLTEX2
  6

  9
$DIMTXTDIRECTION
 70
     0
  9
$LUNITS
 70
     2
  9
$LUPREC
 70
     4
  9
$SKETCHINC
 40
1.0
  9
$FILLETRAD
 40
10.0
  9
$AUNITS
 70
     0
  9
$AUPREC
 70
     0
  9
$MENU
  1
.
  9
$ELEVATION
 40
0.0
  9
$PELEVATION
 40
0.0
  9
$THICKNESS
 40
0.0
  9
$LIMCHECK
 70
     0
  9
$CHAMFERA
 40
10.0
  9
$CHAMFERB
 40
10.0
  9
$CHAMFERC
 40
20.0
  9
$CHAMFERD
 40
0.0
  9
$SKPOLY
 70
     0
  9
$TDCREATE
 40
2457953.400374456
  9
$TDUCREATE
 40
2457953.025374456
  9
$TDUPDATE
 40
2457953.400374467
  9
$TDUUPDATE
 40
2457953.025374467
  9
$TDINDWG
 40
0.0000000116
  9
$TDUSRTIMER
 40
0.0000000116
  9
$USRTIMER
 70
     1
  9
$ANGBASE
 50
0.0
  9
$ANGDIR
 70
     0
  9
$PDMODE
 70
     0
  9
$PDSIZE
 40
0.0
  9
$PLINEWID
 40
0.0
  9
$SPLFRAME
 70
     0
  9
$SPLINETYPE
 70
     6
  9
$SPLINESEGS
 70
     8
  9
$HANDSEED
  5
3E2
  9
$SURFTAB1
 70
     6
  9
$SURFTAB2
 70
     6
  9
$SURFTYPE
 70
     6
  9
$SURFU
 70
     6
  9
$SURFV
 70
     6
  9
$UCSBASE
  2

  9
$UCSNAME
  2

  9
$UCSORG
 10
0.0
 20
0.0
 30
0.0
  9
$UCSXDIR
 10
1.0
 20
0.0
 30
0.0
  9
$UCSYDIR
 10
0.0
 20
1.0
 30
0.0
  9
$UCSORTHOREF
  2

  9
$UCSORTHOVIEW
 70
     0
  9
$UCSORGTOP
 10
0.0
 20
0.0
 30
0.0
  9
$UCSORGBOTTOM
 10
0.0
 20
0.0
 30
0.0
  9
$UCSORGLEFT
 10
0.0
 20
0.0
 30
0.0
  9
$UCSORGRIGHT
 10
0.0
 20
0.0
 30
0.0
  9
$UCSORGFRONT
 10
0.0
 20
0.0
 30
0.0
  9
$UCSORGBACK
 10
0.0
 20
0.0
 30
0.0
  9
$PUCSBASE
  2

  9
$PUCSNAME
  2

  9
$PUCSORG
 10
0.0
 20
0.0
 30
0.0
  9
$PUCSXDIR
 10
1.0
 20
0.0
 30
0.0
  9
$PUCSYDIR
 10
0.0
 20
1.0
 30
0.0
  9
$PUCSORTHOREF
  2

  9
$PUCSORTHOVIEW
 70
     0
  9
$PUCSORGTOP
 10
0.0
 20
0.0
 30
0.0
  9
$PUCSORGBOTTOM
 10
0.0
 20
0.0
 30
0.0
  9
$PUCSORGLEFT
 10
0.0
 20
0.0
 30
0.0
  9
$PUCSORGRIGHT
 10
0.0
 20
0.0
 30
0.0
  9
$PUCSORGFRONT
 10
0.0
 20
0.0
 30
0.0
  9
$PUCSORGBACK
 10
0.0
 20
0.0
 30
0.0
  9
$USERI1
 70
     0
  9
$USERI2
 70
     0
  9
$USERI3
 70
     0
  9
$USERI4
 70
     0
  9
$USERI5
 70
     0
  9
$USERR1
 40
0.0
  9
$USERR2
 40
0.0
  9
$USERR3
 40
0.0
  9
$USERR4
 40
0.0
  9
$USERR5
 40
0.0
  9
$WORLDVIEW
 70
     1
  9
$SHADEDGE
 70
     3
  9
$SHADEDIF
 70
    70
  9
$TILEMODE
 70
     1
  9
$MAXACTVP
 70
    64
  9
$PINSBASE
 10
0.0
 20
0.0
 30
0.0
  9
$PLIMCHECK
 70
     0
  9
$PEXTMIN
 10
1.000000000000000E+20
 20
1.000000000000000E+20
 30
1.000000000000000E+20
  9
$PEXTMAX
 10
-1.000000000000000E+20
 20
-1.000000000000000E+20
 30
-1.000000000000000E+20
  9
$PLIMMIN
 10
0.0
 20
0.0
  9
$PLIMMAX
 10
420.0
 20
297.0
  9
$UNITMODE
 70
     0
  9
$VISRETAIN
 70
     1
  9
$PLINEGEN
 70
     0
  9
$PSLTSCALE
 70
     1
  9
$TREEDEPTH
 70
  3020
  9
$CMLSTYLE
  2
Standard
  9
$CMLJUST
 70
     0
  9
$CMLSCALE
 40
20.0
  9
$PROXYGRAPHICS
 70
     1
  9
$MEASUREMENT
 70
     1
  9
$CELWEIGHT
370
    -1
  9
$ENDCAPS
280
     0
  9
$JOINSTYLE
280
     0
  9
$LWDISPLAY
290
     0
  9
$INSUNITS
 70
     4
  9
$HYPERLINKBASE
  1

  9
$STYLESHEET
  1

  9
$XEDIT
290
     1
  9
$CEPSNTYPE
380
     0
  9
$PSTYLEMODE
290
     1
  9
$FINGERPRINTGUID
  2
{1CB715BA-8FF4-4564-86CB-F306B471B109}
  9
$VERSIONGUID
  2
{FAEB1C32-E019-11D5-929B-00C0DF256EC4}
  9
$EXTNAMES
290
     1
  9
$PSVPSCALE
 40
0.0
  9
$OLESTARTUP
290
     0
  9
$SORTENTS
280
   127
  9
$INDEXCTL
280
     0
  9
$HIDETEXT
280
     1
  9
$XCLIPFRAME
280
     2
  9
$HALOGAP
280
     0
  9
$OBSCOLOR
 70
   257
  9
$OBSLTYPE
280
     0
  9
$INTERSECTIONDISPLAY
280
     0
  9
$INTERSECTIONCOLOR
 70
   257
  9
$DIMASSOC
280
     2
  9
$PROJECTNAME
  1

  9
$CAMERADISPLAY
290
     0
  9
$LENSLENGTH
 40
50.0
  9
$CAMERAHEIGHT
 40
0.0
  9
$STEPSPERSEC
 40
2.0
  9
$STEPSIZE
 40
6.0
  9
$3DDWFPREC
 40
2.0
  9
$PSOLWIDTH
 40
5.0
  9
$PSOLHEIGHT
 40
80.0
  9
$LOFTANG1
 40
1.570796326794897
  9
$LOFTANG2
 40
1.570796326794897
  9
$LOFTMAG1
 40
0.0
  9
$LOFTMAG2
 40
0.0
  9
$LOFTPARAM
 70
     7
  9
$LOFTNORMALS
280
     1
  9
$LATITUDE
 40
37.795
  9
$LONGITUDE
 40
-122.394
  9
$NORTHDIRECTION
 40
0.0
  9
$TIMEZONE
 70
 -8000
  9
$LIGHTGLYPHDISPLAY
280
     1
  9
$TILEMODELIGHTSYNCH
280
     1
  9
$SOLIDHIST
280
     1
  9
$SHOWHIST
280
     1
  9
$DWFFRAME
280
     2
  9
$DGNFRAME
280
     2
  9
$REALWORLDSCALE
290
     1
  9
$INTERFERECOLOR
 62
   256
  9
$CSHADOW
280
     0
  9
$SHADOWPLANELOCATION
 40
0.0
  0
ENDSEC
  0
SECTION
  2
CLASSES
  0
CLASS
  1
ACDBDICTIONARYWDFLT
  2
AcDbDictionaryWithDefault
  3
ObjectDBX Classes
 90
        0
 91
        4
280
     0
281
     0
  0
CLASS
  1
VISUALSTYLE
  2
AcDbVisualStyle
  3
ObjectDBX Classes
 90
     4095
 91
        4
280
     0
281
     0
  0
CLASS
  1
MATERIAL
  2
AcDbMaterial
  3
ObjectDBX Classes
 90
     1153
 91
        4
280
     0
281
     0
  0
ENDSEC
  0
SECTION
  2
TABLES
  0
TABLE
  2
VPORT
  5
8
330
0
100
AcDbSymbolTable
 70
     1
  0
VPORT
  5
29
330
8
100
AcDbSymbolTableRecord
100
AcDbViewportTableRecord
  2
*Active
 70
     0
 10
0.0
 20
0.0
 11
1.0
 21
1.0
 12
0.0
 22
0.0
 13
0.0
 23
0.0
 14
10.0
 24
10.0
 15
10.0
 25
10.0
 16
0.0
 26
0.0
 36
1.0
 17
0.0
 27
0.0
 37
0.0
 40
6930.000000000001
 41
1.414285714285714
 42
50.0
 43
0.0
 44
0.0
 50
0.0
 51
0.0
 71
     0
 72
 10000
 73
     1
 74
     3
 75
     0
 76
     0
 77
     0
 78
     0
281
     0
 65
     1
110
0.0
120
0.0
130
0.0
111
1.0
121
0.0
131
0.0
112
0.0
122
1.0
132
0.0
 79
     0
146
0.0
 60
     3
 61
     5
292
     1
282
     1
141
0.0
142
0.0
 63
   250
  0
ENDTAB
  0
TABLE
  2
LTYPE
  5
5
330
0
100
AcDbSymbolTable
 70
     2
  0
LTYPE
  5
14
330
5
100
AcDbSymbolTableRecord
100
AcDbLinetypeTableRecord
  2
ByBlock
 70
     0
  3

 72
    65
 73
     0
 40
0.0
  0
LTYPE
  5
15
330
5
100
AcDbSymbolTableRecord
100
AcDbLinetypeTableRecord
  2
ByLayer
 70
     0
  3

 72
    65
 73
     0
 40
0.0
  0
LTYPE
  5
16
330
5
100
AcDbSymbolTableRecord
100
AcDbLinetypeTableRecord
  2
Continuous
 70
     0
  3
Solid line
 72
    65
 73
     0
 40
0.0
  0
LTYPE
  5
3F
330
5
100
AcDbSymbolTableRecord
100
AcDbLinetypeTableRecord
  2
JWW_DASHED1
 70
     0
  3
-  --  --  --  --  --  --  --  -
 72
    65
 73
     2
 40
1.693333333333333
 49
0.8466666666666667
 74
     0
 49
-0.8466666666666667
 74
     0
  0
ENDTAB
  0
TABLE
  2
LAYER
  5
2
330
0
100
AcDbSymbolTable
 70
     3
  0
LAYER
  5
10
330
2
100
AcDbSymbolTableRecord
100
AcDbLayerTableRecord
  2
0
 70
     0
 62
     7
  6
Continuous
370
    -3
390
F
347
3E
  0
LAYER
  5
40
330
2
100
AcDbSymbolTableRecord
100
AcDbLayerTableRecord
  2
0-0
 70
     0
 62
     7
  6
Continuous
370
    -3
390
F
347
3E
  0
LAYER
  5
41
330
2
100
AcDbSymbolTableRecord
100
AcDbLayerTableRecord
  2
寸法
 70
     0
 62
     7
  6
Continuous
370
    -3
390
F
347
3E
  0
ENDTAB
  0
TABLE
  2
STYLE
  5
3
330
0
100
AcDbSymbolTable
 70
     1
  0
STYLE
  5
11
330
3
100
AcDbSymbolTableRecord
100
AcDbTextStyleTableRecord
  2
Standard
 70
     0
 40
0.0
 41
1.0
 50
0.0
 71
     0
 42
2.5
  3
txt
  4

  0
ENDTAB
  0
TABLE
  2
VIEW
  5
6
330
0
100
AcDbSymbolTable
 70
     0
  0
ENDTAB
  0
TABLE
  2
UCS
  5
7
330
0
100
AcDbSymbolTable
 70
     0
  0
ENDTAB
  0
TABLE
  2
APPID
  5
9
330
0
100
AcDbSymbolTable
 70
     1
  0
APPID
  5
12
330
9
100
AcDbSymbolTableRecord
100
AcDbRegAppTableRecord
  2
ACAD
 70
     0
  0
ENDTAB
  0
TABLE
  2
DIMSTYLE
  5
A
330
0
100
AcDbSymbolTable
 70
     1
100
AcDbDimStyleTable
  0
DIMSTYLE
105
27
330
A
100
AcDbSymbolTableRecord
100
AcDbDimStyleTableRecord
  2
ISO-25
 70
     0
 41
2.5
 42
0.625
 43
3.75
 44
1.25
 73
     0
 74
     0
 77
     1
 78
     8
140
2.5
141
2.5
143
0.03937007874016
147
0.625
171
     3
172
     1
178
     0
271
     2
272
     2
274
     3
278
    44
283
     0
284
     8
340
11
  0
ENDTAB
  0
TABLE
  2
BLOCK_RECORD
  5
1
330
0
100
AcDbSymbolTable
 70
     1
  0
BLOCK_RECORD
  5
1F
330
1
100
AcDbSymbolTableRecord
100
AcDbBlockTableRecord
  2
*Model_Space
340
22
 70
     0
280
     1
281
     0
  0
BLOCK_RECORD
  5
1B
330
1
100
AcDbSymbolTableRecord
100
AcDbBlockTableRecord
  2
*Paper_Space
340
1E
 70
     0
280
     1
281
     0
  0
BLOCK_RECORD
  5
23
330
1
100
AcDbSymbolTableRecord
100
AcDbBlockTableRecord
  2
*Paper_Space0
340
26
 70
     0
280
     1
281
     0
  0
ENDTAB
  0
ENDSEC
  0
SECTION
  2
BLOCKS
  0
BLOCK
  5
20
330
1F
100
AcDbEntity
  8
0
100
AcDbBlockBegin
  2
*Model_Space
 70
     0
 10
0.0
 20
0.0
 30
0.0
  3
*Model_Space
  1

  0
ENDBLK
  5
21
330
1F
100
AcDbEntity
  8
0
100
AcDbBlockEnd
  0
BLOCK
  5
1C
330
1B
100
AcDbEntity
 67
     1
  8
0
100
AcDbBlockBegin
  2
*Paper_Space
 70
     0
 10
0.0
 20
0.0
 30
0.0
  3
*Paper_Space
  1

  0
ENDBLK
  5
1D
330
1B
100
AcDbEntity
 67
     1
  8
0
100
AcDbBlockEnd
  0
BLOCK
  5
24
330
23
100
AcDbEntity
  8
0
100
AcDbBlockBegin
  2
*Paper_Space0
 70
     0
 10
0.0
 20
0.0
 30
0.0
  3
*Paper_Space0
  1

  0
ENDBLK
  5
25
330
23
100
AcDbEntity
  8
0
100
AcDbBlockEnd
  0
ENDSEC
  0
SECTION
  2
ENTITIES
  0
LINE
  5
42
330
1F
100
AcDbEntity
  8
0-0
  6
Continuous
 62
    92
370
    13
100
AcDbLine
 10
-1105.117714850669
 20
-1172.29745448694
 30
0.0
 11
-1135.117714850669
 21
-1172.29745448694
 31
0.0
  0
LINE
  5
43
330
1F
100
AcDbEntity
  8
0-0
  6
Continuous
 62
    92
370
    13
100
AcDbLine
 10
-1135.117714850669
 20
-1172.29745448694
 30
0.0
 11
-1135.117714850669
 21
862.7025455130583
 31
0.0
  0
LINE
  5
44
330
1F
100
AcDbEntity
  8
0-0
  6
Continuous
 62
    92
370
    13
100
AcDbLine
 10
-1105.117714850669
 20
-1172.29745448694
 30
0.0
 11
-1105.117714850669
 21
862.7025455130583
 31
0.0
  0
LINE
  5
45
330
1F
100
AcDbEntity
  8
0-0
  6
Continuous
 62
    92
370
    13
100
AcDbLine
 10
1944.882285149331
 20
-1172.29745448694
 30
0.0
 11
1914.882285149331
 21
-1172.29745448694
 31
0.0
  0
LINE
  5
46
330
1F
100
AcDbEntity
  8
0-0
  6
Continuous
 62
    92
370
    13
100
AcDbLine
 10
-1105.117714850669
 20
832.7025455130602
 30
0.0
 11
1914.882285149331
 21
832.7025455130602
 31
0.0
  0
LINE
  5
47
330
1F
100
AcDbEntity
  8
0-0
  6
Continuous
 62
    92
370
    13
100
AcDbLine
 10
-1135.117714850669
 20
862.7025455130583
 30
0.0
 11
1944.882285149331
 21
862.7025455130583
 31
0.0
  0
LINE
  5
48
330
1F
100
AcDbEntity
  8
0-0
  6
Continuous
 62
    92
370
    13
100
AcDbLine
 10
1944.882285149331
 20
862.7025455130583
 30
0.0
 11
1944.882285149331
 21
-1172.29745448694
 31
0.0
  0
LINE
  5
49
330
1F
100
AcDbEntity
  8
0-0
  6
Continuous
 62
    92
370
    13
100
AcDbLine
 10
1914.882285149331
 20
-1172.29745448694
 30
0.0
 11
1914.882285149331
 21
862.7025455130583
 31
0.0
  0
LINE
  5
4A
330
1F
100
AcDbEntity
  8
0-0
  6
Continuous
 62
    92
370
    13
100
AcDbLine
 10
1104.882285149331
 20
-1172.297454486941
 30
0.0
 11
1134.882285149331
 21
-1172.297454486941
 31
0.0
  0
LINE
  5
4B
330
1F
100
AcDbEntity
  8
0-0
  6
JWW_DASHED1
 62
   120
370
     5
100
AcDbLine
 10
-298.1177148506702
 20
-1164.297454486941
 30
0.0
 11
-298.1177148506702
 21
818.7025455130588
 31
0.0
  0
LINE
  5
4C
330
1F
100
AcDbEntity
  8
0-0
  6
JWW_DASHED1
 62
   120
370
     5
100
AcDbLine
 10
-1108.11771485067
 20
818.7025455130588
 30
0.0
 11
-1105.117714850669
 21
818.7025455130588
 31
0.0
  0
LINE
  5
4D
330
1F
100
AcDbEntity
  8
0-0
  6
JWW_DASHED1
 62
   120
370
     5
100
AcDbLine
 10
-1108.11771485067
 20
-1164.297454486941
 30
0.0
 11
-1108.11771485067
 21
818.7025455130588
 31
0.0
  0
LINE
  5
4E
330
1F
100
AcDbEntity
  8
0-0
  6
JWW_DASHED1
 62
   120
370
     5
100
AcDbLine
 10
-1105.117714850669
 20
-1164.297454486941
 30
0.0
 11
-1108.11771485067
 21
-1164.297454486941
 31
0.0
  0
LINE
  5
4F
330
1F
100
AcDbEntity
  8
0-0
  6
Continuous
 62
     7
370
     9
100
AcDbLine
 10
-1072.117714850669
 20
-177.197454486941
 30
0.0
 11
-1072.117714850669
 21
-236.3974544869409
 31
0.0
  0
LINE
  5
50
330
1F
100
AcDbEntity
  8
0-0
  6
Continuous
 62
     7
370
     9
100
AcDbLine
 10
-1042.117714850669
 20
-236.3974544869409
 30
0.0
 11
-1042.117714850669
 21
-177.197454486941
 31
0.0
  0
ARC
  5
51
330
1F
100
AcDbEntity
  8
0-0
  6
Continuous
 62
     7
370
     9
100
AcDbCircle
 10
-1057.117714850669
 20
-177.197454486941
 30
0.0
 40
15.0
100
AcDbArc
 50
0.0
 51
180.0
  0
ARC
  5
52
330
1F
100
AcDbEntity
  8
0-0
  6
Continuous
 62
     7
370
     9
100
AcDbCircle
 10
-1057.117714850669
 20
-236.3974544869409
 30
0.0
 40
15.0
100
AcDbArc
 50
180.0
 51
0.0
  0
ARC
  5
53
330
1F
100
AcDbEntity
  8
0-0
  6
Continuous
 62
    92
370
    13
100
AcDbCircle
 10
-1076.617714850668
 20
-266.297454486941
 30
0.0
 40
1.5
100
AcDbArc
 50
180.0
 51
270.0
  0
LINE
  5
54
330
1F
100
AcDbEntity
  8
0-0
  6
Continuous
 62
    92
370
    13
100
AcDbLine
 10
-1078.117714850668
 20
-266.297454486941
 30
0.0
 11
-1078.117714850668
 21
-147.2974544869409
 31
0.0
  0
LINE
  5
55
330
1F
100
AcDbEntity
  8
0-0
  6
Continuous
 62
    92
370
    13
100
AcDbLine
 10
-1076.617714850668
 20
-267.7974544869413
 30
0.0
 11
-1037.617714850669
 21
-267.7974544869413
 31
0.0
  0
ARC
  5
56
330
1F
100
AcDbEntity
  8
0-0
  6
Continuous
 62
    92
370
    13
100
AcDbCircle
 10
-1037.617714850669
 20
-266.297454486941
 30
0.0
 40
1.5
100
AcDbArc
 50
270.0
 51
0.0
  0
LINE
  5
57
330
1F
100
AcDbEntity
  8
0-0
  6
Continuous
 62
    92
370
    13
100
AcDbLine
 10
-1036.117714850669
 20
-266.297454486941
 30
0.0
 11
-1036.117714850669
 21
-147.2974544869409
 31
0.0
  0
ARC
  5
58
330
1F
100
AcDbEntity
  8
0-0
  6
Continuous
 62
    92
370
    13
100
AcDbCircle
 10
-1037.617714850669
 20
-147.2974544869409
 30
0.0
 40
1.5
100
AcDbArc
 50
0.0
 51
90.00000000000001
  0
LINE
  5
59
330
1F
100
AcDbEntity
  8
0-0
  6
Continuous
 62
    92
370
    13
100
AcDbLine
 10
-1037.617714850669
 20
-145.797454486941
 30
0.0
 11
-1076.617714850668
 21
-145.797454486941
 31
0.0
  0
ARC
  5
5A
330
1F
100
AcDbEntity
  8
0-0
  6
Continuous
 62
    92
370
    13
100
AcDbCircle
 10
-1076.617714850668
 20
-147.2974544869409
 30
0.0
 40
1.5
100
AcDbArc
 50
90.0
 51
180.0
  0
LINE
  5
5B
330
1F
100
AcDbEntity
  8
0-0
  6
JWW_DASHED1
 62
   120
370
     5
100
AcDbLine
 10
433.8822851493309
 20
-1164.297454486941
 30
0.0
 11
433.8822851493309
 21
818.7025455130588
 31
0.0
  0
LINE
  5
5C
330
1F
100
AcDbEntity
  8
0-0
  6
Continuous
 62
    92
370
    13
100
AcDbLine
 10
-376.1177148506691
 20
818.7025455130588
 30
0.0
 11
-376.1177148506691
 21
-1164.297454486941
 31
0.0
  0
LINE
  5
5D
330
1F
100
AcDbEntity
  8
0-0
  6
Continuous
 62
    92
370
    13
100
AcDbLine
 10
355.8822851493302
 20
818.7025455130588
 30
0.0
 11
355.8822851493302
 21
-1164.297454486941
 31
0.0
  0
LINE
  5
5E
330
1F
100
AcDbEntity
  8
0-0
  6
Continuous
 62
    92
370
    13
100
AcDbLine
 10
-1105.117714850669
 20
818.7025455130588
 30
0.0
 11
1165.88228514933
 21
818.7025455130588
 31
0.0
  0
LINE
  5
5F
330
1F
100
AcDbEntity
  8
0-0
  6
Continuous
 62
    92
370
    13
100
AcDbLine
 10
1165.88228514933
 20
818.7025455130588
 30
0.0
 11
1165.88228514933
 21
-1164.297454486941
 31
0.0
  0
LINE
  5
60
330
1F
100
AcDbEntity
  8
0-0
  6
Continuous
 62
    92
370
    13
100
AcDbLine
 10
-1105.117714850669
 20
-1164.297454486941
 30
0.0
 11
1165.88228514933
 21
-1164.297454486941
 31
0.0
  0
LINE
  5
61
330
1F
100
AcDbEntity
  8
0-0
  6
JWW_DASHED1
 62
   120
370
     5
100
AcDbLine
 10
1134.882285149331
 20
-1164.297454486941
 30
0.0
 11
1134.882285149331
 21
832.7025455130602
 31
0.0
  0
LINE
  5
62
330
1F
100
AcDbEntity
  8
0-0
  6
JWW_DASHED1
 62
   120
370
     5
100
AcDbLine
 10
1104.882285149331
 20
-1164.297454486941
 30
0.0
 11
1104.882285149331
 21
832.7025455130602
 31
0.0
  0
LINE
  5
63
330
1F
100
AcDbEntity
  8
0-0
  6
Continuous
 62
    92
370
    13
100
AcDbLine
 10
1134.882285149331
 20
-1164.297454486941
 30
0.0
 11
1134.882285149331
 21
-1172.297454486941
 31
0.0
  0
LINE
  5
64
330
1F
100
AcDbEntity
  8
0-0
  6
Continuous
 62
    92
370
    13
100
AcDbLine
 10
1104.882285149331
 20
-1164.297454486941
 30
0.0
 11
1104.882285149331
 21
-1172.297454486941
 31
0.0
  0
LINE
  5
65
330
1F
100
AcDbEntity
  8
0-0
  6
Continuous
 62
     7
370
     9
100
AcDbLine
 10
-989.6177148506705
 20
-1014.297454486941
 30
0.0
 11
-1004.61771485067
 21
-1029.297454486941
 31
0.0
  0
LINE
  5
66
330
1F
100
AcDbEntity
  8
0-0
  6
Continuous
 62
     7
370
     9
100
AcDbLine
 10
-1004.61771485067
 20
-1164.297454486941
 30
0.0
 11
-1004.61771485067
 21
818.7025455130592
 31
0.0
  0
LINE
  5
67
330
1F
100
AcDbEntity
  8
0-0
  6
Continuous
 62
     7
370
     9
100
AcDbLine
 10
-416.6177148506698
 20
-1014.297454486941
 30
0.0
 11
-401.6177148506698
 21
-1029.297454486941
 31
0.0
  0
LINE
  5
68
330
1F
100
AcDbEntity
  8
0-0
  6
Continuous
 62
     7
370
     9
100
AcDbLine
 10
-401.6177148506698
 20
-1164.297454486941
 30
0.0
 11
-401.6177148506698
 21
818.7025455130592
 31
0.0
  0
LINE
  5
69
330
1F
100
AcDbEntity
  8
0-0
  6
Continuous
 62
     7
370
     9
100
AcDbLine
 10
-1004.61771485067
 20
-1029.297454486941
 30
0.0
 11
-401.6177148506698
 21
-1029.297454486941
 31
0.0
  0
LINE
  5
6A
330
1F
100
AcDbEntity
  8
0-0
  6
Continuous
 62
     7
370
     9
100
AcDbLine
 10
-989.6177148506705
 20
-491.2974544869405
 30
0.0
 11
-1004.61771485067
 21
-506.2974544869405
 31
0.0
  0
LINE
  5
6B
330
1F
100
AcDbEntity
  8
0-0
  6
Continuous
 62
     7
370
     9
100
AcDbLine
 10
-1004.61771485067
 20
-581.2974544869405
 30
0.0
 11
-989.6177148506705
 21
-596.2974544869405
 31
0.0
  0
LINE
  5
6C
330
1F
100
AcDbEntity
  8
0-0
  6
Continuous
 62
     7
370
     9
100
AcDbLine
 10
-416.6177148506698
 20
-491.2974544869405
 30
0.0
 11
-401.6177148506698
 21
-506.2974544869405
 31
0.0
  0
LINE
  5
6D
330
1F
100
AcDbEntity
  8
0-0
  6
Continuous
 62
     7
370
     9
100
AcDbLine
 10
-401.6177148506698
 20
-581.2974544869405
 30
0.0
 11
-416.6177148506698
 21
-596.2974544869405
 31
0.0
  0
LINE
  5
6E
330
1F
100
AcDbEntity
  8
0-0
  6
Continuous
 62
     7
370
     9
100
AcDbLine
 10
-1004.61771485067
 20
-506.2974544869405
 30
0.0
 11
-401.6177148506698
 21
-506.2974544869405
 31
0.0
  0
LINE
  5
6F
330
1F
100
AcDbEntity
  8
0-0
  6
Continuous
 62
     7
370
     9
100
AcDbLine
 10
-1004.61771485067
 20
-581.2974544869405
 30
0.0
 11
-401.6177148506698
 21
-581.2974544869405
 31
0.0
  0
LINE
  5
70
330
1F
100
AcDbEntity
  8
0-0
  6
Continuous
 62
     7
370
     9
100
AcDbLine
 10
-959.6177148506705
 20
-984.2974544869406
 30
0.0
 11
-959.6177148506705
 21
-626.2974544869405
 31
0.0
  0
LINE
  5
71
330
1F
100
AcDbEntity
  8
0-0
  6
Continuous
 62
     7
370
     9
100
AcDbLine
 10
-959.6177148506705
 20
-984.2974544869406
 30
0.0
 11
-974.6177148506705
 21
-999.2974544869406
 31
0.0
  0
LINE
  5
72
330
1F
100
AcDbEntity
  8
0-0
  6
Continuous
 62
     7
370
     9
100
AcDbLine
 10
-974.6177148506705
 20
-611.2974544869405
 30
0.0
 11
-959.6177148506705
 21
-626.2974544869405
 31
0.0
  0
LINE
  5
73
330
1F
100
AcDbEntity
  8
0-0
  6
Continuous
 62
     7
370
     9
100
AcDbLine
 10
-446.6177148506698
 20
-984.2974544869406
 30
0.0
 11
-431.6177148506698
 21
-999.2974544869406
 31
0.0
  0
LINE
  5
74
330
1F
100
AcDbEntity
  8
0-0
  6
Continuous
 62
     7
370
     9
100
AcDbLine
 10
-431.6177148506698
 20
-611.2974544869405
 30
0.0
 11
-446.6177148506698
 21
-626.2974544869405
 31
0.0
  0
LINE
  5
75
330
1F
100
AcDbEntity
  8
0-0
  6
Continuous
 62
     7
370
     9
100
AcDbLine
 10
-959.6177148506705
 20
-626.2974544869405
 30
0.0
 11
-446.6177148506698
 21
-626.2974544869405
 31
0.0
  0
LINE
  5
76
330
1F
100
AcDbEntity
  8
0-0
  6
Continuous
 62
     7
370
     9
100
AcDbLine
 10
-446.6177148506698
 20
-984.2974544869406
 30
0.0
 11
-446.6177148506698
 21
-626.2974544869405
 31
0.0
  0
LINE
  5
77
330
1F
100
AcDbEntity
  8
0-0
  6
Continuous
 62
     7
370
     9
100
AcDbLine
 10
-959.6177148506705
 20
-984.2974544869406
 30
0.0
 11
-446.6177148506698
 21
-984.2974544869406
 31
0.0
  0
LINE
  5
78
330
1F
100
AcDbEntity
  8
0-0
  6
Continuous
 62
     7
370
     9
100
AcDbLine
 10
-989.6177148506722
 20
623.702277968751
 30
0.0
 11
-1004.618110759616
 21
638.7026738776921
 31
0.0
  0
LINE
  5
79
330
1F
100
AcDbEntity
  8
0-0
  6
Continuous
 62
     7
370
     9
100
AcDbLine
 10
-416.6177148506698
 20
623.702277968751
 30
0.0
 11
-401.6177148506698
 21
638.702277968751
 31
0.0
  0
ARC
  5
7A
330
1F
100
AcDbEntity
  8
0-0
  6
Continuous
 62
     7
370
     9
100
AcDbCircle
 10
-940.6050522792582
 20
773.702277968751
 30
0.0
 40
135.0
100
AcDbArc
 50
270.0
 51
298.3577011236671
  0
ARC
  5
7B
330
1F
100
AcDbEntity
  8
0-0
  6
Continuous
 62
     7
370
     9
100
AcDbCircle
 10
-465.6303774220825
 20
773.702277968751
 30
0.0
 40
135.0
100
AcDbArc
 50
241.6422988763328
 51
270.0
  0
ARC
  5
7C
330
1F
100
AcDbEntity
  8
0-0
  6
Continuous
 62
     7
370
     9
100
AcDbCircle
 10
-703.117714850671
 20
333.7025455130592
 30
0.0
 40
365.0
100
AcDbArc
 50
61.64229887633292
 51
118.3577011236671
  0
LINE
  5
7D
330
1F
100
AcDbEntity
  8
0-0
  6
Continuous
 62
     7
370
     9
100
AcDbLine
 10
-1004.61776433864
 20
638.702327456715
 30
0.0
 11
-940.6050522792582
 21
638.702327456715
 31
0.0
  0
LINE
  5
7E
330
1F
100
AcDbEntity
  8
0-0
  6
Continuous
 62
     7
370
     9
100
AcDbLine
 10
-401.6176653627041
 20
638.702327456715
 30
0.0
 11
-465.6303774220825
 21
638.702327456715
 31
0.0
  0
LINE
  5
7F
330
1F
100
AcDbEntity
  8
0-0
  6
Continuous
 62
    92
370
    13
100
AcDbLine
 10
-989.6177148506705
 20
-1014.297454486941
 30
0.0
 11
-416.6177148506698
 21
-1014.297454486941
 31
0.0
  0
LINE
  5
80
330
1F
100
AcDbEntity
  8
0-0
  6
Continuous
 62
    92
370
    13
100
AcDbLine
 10
-989.6177148506705
 20
-596.2974544869405
 30
0.0
 11
-416.6177148506698
 21
-596.2974544869405
 31
0.0
  0
LINE
  5
81
330
1F
100
AcDbEntity
  8
0-0
  6
Continuous
 62
    92
370
    13
100
AcDbLine
 10
-989.6177148506705
 20
-1014.297454486941
 30
0.0
 11
-989.6177148506705
 21
-596.2974544869405
 31
0.0
  0
LINE
  5
82
330
1F
100
AcDbEntity
  8
0-0
  6
Continuous
 62
    92
370
    13
100
AcDbLine
 10
-416.6177148506698
 20
-1014.297454486941
 30
0.0
 11
-416.6177148506698
 21
-596.2974544869405
 31
0.0
  0
LINE
  5
83
330
1F
100
AcDbEntity
  8
0-0
  6
Continuous
 62
    92
370
    13
100
AcDbLine
 10
-416.6177148506698
 20
623.702277968751
 30
0.0
 11
-465.6303774220825
 21
623.702277968751
 31
0.0
  0
ARC
  5
84
330
1F
100
AcDbEntity
  8
0-0
  6
Continuous
 62
    92
370
    13
100
AcDbCircle
 10
-465.6303774220825
 20
773.702277968751
 30
0.0
 40
150.0
100
AcDbArc
 50
241.6422988763328
 51
270.0
  0
ARC
  5
85
330
1F
100
AcDbEntity
  8
0-0
  6
Continuous
 62
    92
370
    13
100
AcDbCircle
 10
-703.117714850671
 20
333.7025455130592
 30
0.0
 40
350.0
100
AcDbArc
 50
61.64229887633292
 51
118.3577011236671
  0
ARC
  5
86
330
1F
100
AcDbEntity
  8
0-0
  6
Continuous
 62
    92
370
    13
100
AcDbCircle
 10
-940.6050522792582
 20
773.702277968751
 30
0.0
 40
150.0
100
AcDbArc
 50
270.0
 51
298.3577011236671
  0
LINE
  5
87
330
1F
100
AcDbEntity
  8
0-0
  6
Continuous
 62
    92
370
    13
100
AcDbLine
 10
-989.6177148506722
 20
623.702277968751
 30
0.0
 11
-940.6050522792582
 21
623.702277968751
 31
0.0
  0
LINE
  5
88
330
1F
100
AcDbEntity
  8
0-0
  6
Continuous
 62
    92
370
    13
100
AcDbLine
 10
-989.6177148506705
 20
-491.2974544869405
 30
0.0
 11
-989.6177148506705
 21
623.702277968751
 31
0.0
  0
LINE
  5
89
330
1F
100
AcDbEntity
  8
0-0
  6
Continuous
 62
    92
370
    13
100
AcDbLine
 10
-989.6177148506705
 20
-491.2974544869405
 30
0.0
 11
-416.6177148506698
 21
-491.2974544869405
 31
0.0
  0
LINE
  5
8A
330
1F
100
AcDbEntity
  8
0-0
  6
Continuous
 62
    92
370
    13
100
AcDbLine
 10
-416.6177148506698
 20
-491.2974544869405
 30
0.0
 11
-416.6177148506698
 21
623.702277968751
 31
0.0
  0
LINE
  5
8B
330
1F
100
AcDbEntity
  8
0-0
  6
Continuous
 62
     7
370
     9
100
AcDbLine
 10
-257.6177148506695
 20
-1014.297454486941
 30
0.0
 11
-272.6177148506695
 21
-1029.297454486941
 31
0.0
  0
LINE
  5
8C
330
1F
100
AcDbEntity
  8
0-0
  6
Continuous
 62
     7
370
     9
100
AcDbLine
 10
-272.6177148506695
 20
-1164.297454486941
 30
0.0
 11
-272.6177148506695
 21
818.7025455130592
 31
0.0
  0
LINE
  5
8D
330
1F
100
AcDbEntity
  8
0-0
  6
Continuous
 62
     7
370
     9
100
AcDbLine
 10
315.3822851493312
 20
-1014.297454486941
 30
0.0
 11
330.3822851493312
 21
-1029.297454486941
 31
0.0
  0
LINE
  5
8E
330
1F
100
AcDbEntity
  8
0-0
  6
Continuous
 62
     7
370
     9
100
AcDbLine
 10
330.3822851493312
 20
-1164.297454486941
 30
0.0
 11
330.3822851493312
 21
818.7025455130592
 31
0.0
  0
LINE
  5
8F
330
1F
100
AcDbEntity
  8
0-0
  6
Continuous
 62
     7
370
     9
100
AcDbLine
 10
-272.6177148506695
 20
-1029.297454486941
 30
0.0
 11
330.3822851493312
 21
-1029.297454486941
 31
0.0
  0
LINE
  5
90
330
1F
100
AcDbEntity
  8
0-0
  6
Continuous
 62
     7
370
     9
100
AcDbLine
 10
-257.6177148506695
 20
-491.2974544869405
 30
0.0
 11
-272.6177148506695
 21
-506.2974544869405
 31
0.0
  0
LINE
  5
91
330
1F
100
AcDbEntity
  8
0-0
  6
Continuous
 62
     7
370
     9
100
AcDbLine
 10
-272.6177148506695
 20
-581.2974544869405
 30
0.0
 11
-257.6177148506695
 21
-596.2974544869405
 31
0.0
  0
LINE
  5
92
330
1F
100
AcDbEntity
  8
0-0
  6
Continuous
 62
     7
370
     9
100
AcDbLine
 10
315.3822851493312
 20
-491.2974544869405
 30
0.0
 11
330.3822851493312
 21
-506.2974544869405
 31
0.0
  0
LINE
  5
93
330
1F
100
AcDbEntity
  8
0-0
  6
Continuous
 62
     7
370
     9
100
AcDbLine
 10
330.3822851493312
 20
-581.2974544869405
 30
0.0
 11
315.3822851493312
 21
-596.2974544869405
 31
0.0
  0
LINE
  5
94
330
1F
100
AcDbEntity
  8
0-0
  6
Continuous
 62
     7
370
     9
100
AcDbLine
 10
-272.6177148506695
 20
-506.2974544869405
 30
0.0
 11
330.3822851493312
 21
-506.2974544869405
 31
0.0
  0
LINE
  5
95
330
1F
100
AcDbEntity
  8
0-0
  6
Continuous
 62
     7
370
     9
100
AcDbLine
 10
-272.6177148506695
 20
-581.2974544869405
 30
0.0
 11
330.3822851493312
 21
-581.2974544869405
 31
0.0
  0
LINE
  5
96
330
1F
100
AcDbEntity
  8
0-0
  6
Continuous
 62
     7
370
     9
100
AcDbLine
 10
-227.6177148506694
 20
-984.2974544869406
 30
0.0
 11
-227.6177148506694
 21
-626.2974544869405
 31
0.0
  0
LINE
  5
97
330
1F
100
AcDbEntity
  8
0-0
  6
Continuous
 62
     7
370
     9
100
AcDbLine
 10
-227.6177148506694
 20
-984.2974544869406
 30
0.0
 11
-242.6177148506694
 21
-999.2974544869406
 31
0.0
  0
LINE
  5
98
330
1F
100
AcDbEntity
  8
0-0
  6
Continuous
 62
     7
370
     9
100
AcDbLine
 10
-242.6177148506694
 20
-611.2974544869405
 30
0.0
 11
-227.6177148506694
 21
-626.2974544869405
 31
0.0
  0
LINE
  5
99
330
1F
100
AcDbEntity
  8
0-0
  6
Continuous
 62
     7
370
     9
100
AcDbLine
 10
285.3822851493312
 20
-984.2974544869406
 30
0.0
 11
300.3822851493312
 21
-999.2974544869406
 31
0.0
  0
LINE
  5
9A
330
1F
100
AcDbEntity
  8
0-0
  6
Continuous
 62
     7
370
     9
100
AcDbLine
 10
300.3822851493312
 20
-611.2974544869405
 30
0.0
 11
285.3822851493312
 21
-626.2974544869405
 31
0.0
  0
LINE
  5
9B
330
1F
100
AcDbEntity
  8
0-0
  6
Continuous
 62
     7
370
     9
100
AcDbLine
 10
-227.6177148506694
 20
-626.2974544869405
 30
0.0
 11
285.3822851493312
 21
-626.2974544869405
 31
0.0
  0
LINE
  5
9C
330
1F
100
AcDbEntity
  8
0-0
  6
Continuous
 62
     7
370
     9
100
AcDbLine
 10
285.3822851493312
 20
-984.2974544869406
 30
0.0
 11
285.3822851493312
 21
-626.2974544869405
 31
0.0
  0
LINE
  5
9D
330
1F
100
AcDbEntity
  8
0-0
  6
Continuous
 62
     7
370
     9
100
AcDbLine
 10
-227.6177148506694
 20
-984.2974544869406
 30
0.0
 11
285.3822851493312
 21
-984.2974544869406
 31
0.0
  0
LINE
  5
9E
330
1F
100
AcDbEntity
  8
0-0
  6
Continuous
 62
     7
370
     9
100
AcDbLine
 10
-257.6177148506712
 20
623.702277968751
 30
0.0
 11
-272.6181107596152
 21
638.7026738776921
 31
0.0
  0
LINE
  5
9F
330
1F
100
AcDbEntity
  8
0-0
  6
Continuous
 62
     7
370
     9
100
AcDbLine
 10
315.3822851493312
 20
623.702277968751
 30
0.0
 11
330.3822851493312
 21
638.702277968751
 31
0.0
  0
ARC
  5
A0
330
1F
100
AcDbEntity
  8
0-0
  6
Continuous
 62
     7
370
     9
100
AcDbCircle
 10
-208.6050522792576
 20
773.702277968751
 30
0.0
 40
135.0
100
AcDbArc
 50
270.0
 51
298.3577011236671
  0
ARC
  5
A1
330
1F
100
AcDbEntity
  8
0-0
  6
Continuous
 62
     7
370
     9
100
AcDbCircle
 10
266.3696225779185
 20
773.702277968751
 30
0.0
 40
135.0
100
AcDbArc
 50
241.6422988763328
 51
270.0
  0
ARC
  5
A2
330
1F
100
AcDbEntity
  8
0-0
  6
Continuous
 62
     7
370
     9
100
AcDbCircle
 10
28.88228514933047
 20
333.7025455130592
 30
0.0
 40
365.0
100
AcDbArc
 50
61.64229887633292
 51
118.3577011236671
  0
LINE
  5
A3
330
1F
100
AcDbEntity
  8
0-0
  6
Continuous
 62
     7
370
     9
100
AcDbLine
 10
-272.6177643386386
 20
638.702327456715
 30
0.0
 11
-208.6050522792576
 21
638.702327456715
 31
0.0
  0
LINE
  5
A4
330
1F
100
AcDbEntity
  8
0-0
  6
Continuous
 62
     7
370
     9
100
AcDbLine
 10
330.3823346372969
 20
638.702327456715
 30
0.0
 11
266.3696225779185
 21
638.702327456715
 31
0.0
  0
LINE
  5
A5
330
1F
100
AcDbEntity
  8
0-0
  6
Continuous
 62
    92
370
    13
100
AcDbLine
 10
-257.6177148506695
 20
-1014.297454486941
 30
0.0
 11
315.3822851493312
 21
-1014.297454486941
 31
0.0
  0
LINE
  5
A6
330
1F
100
AcDbEntity
  8
0-0
  6
Continuous
 62
    92
370
    13
100
AcDbLine
 10
-257.6177148506695
 20
-596.2974544869405
 30
0.0
 11
315.3822851493312
 21
-596.2974544869405
 31
0.0
  0
LINE
  5
A7
330
1F
100
AcDbEntity
  8
0-0
  6
Continuous
 62
    92
370
    13
100
AcDbLine
 10
-257.6177148506695
 20
-1014.297454486941
 30
0.0
 11
-257.6177148506695
 21
-596.2974544869405
 31
0.0
  0
LINE
  5
A8
330
1F
100
AcDbEntity
  8
0-0
  6
Continuous
 62
    92
370
    13
100
AcDbLine
 10
315.3822851493312
 20
-1014.297454486941
 30
0.0
 11
315.3822851493312
 21
-596.2974544869405
 31
0.0
  0
LINE
  5
A9
330
1F
100
AcDbEntity
  8
0-0
  6
Continuous
 62
    92
370
    13
100
AcDbLine
 10
315.3822851493312
 20
623.702277968751
 30
0.0
 11
266.3696225779185
 21
623.702277968751
 31
0.0
  0
ARC
  5
AA
330
1F
100
AcDbEntity
  8
0-0
  6
Continuous
 62
    92
370
    13
100
AcDbCircle
 10
266.3696225779185
 20
773.702277968751
 30
0.0
 40
150.0
100
AcDbArc
 50
241.6422988763328
 51
270.0
  0
ARC
  5
AB
330
1F
100
AcDbEntity
  8
0-0
  6
Continuous
 62
    92
370
    13
100
AcDbCircle
 10
28.88228514933047
 20
333.7025455130592
 30
0.0
 40
350.0
100
AcDbArc
 50
61.64229887633292
 51
118.3577011236671
  0
ARC
  5
AC
330
1F
100
AcDbEntity
  8
0-0
  6
Continuous
 62
    92
370
    13
100
AcDbCircle
 10
-208.6050522792576
 20
773.702277968751
 30
0.0
 40
150.0
100
AcDbArc
 50
270.0
 51
298.3577011236671
  0
LINE
  5
AD
330
1F
100
AcDbEntity
  8
0-0
  6
Continuous
 62
    92
370
    13
100
AcDbLine
 10
-257.6177148506712
 20
623.702277968751
 30
0.0
 11
-208.6050522792576
 21
623.702277968751
 31
0.0
  0
LINE
  5
AE
330
1F
100
AcDbEntity
  8
0-0
  6
Continuous
 62
    92
370
    13
100
AcDbLine
 10
-257.6177148506695
 20
-491.2974544869405
 30
0.0
 11
-257.6177148506695
 21
623.702277968751
 31
0.0
  0
LINE
  5
AF
330
1F
100
AcDbEntity
  8
0-0
  6
Continuous
 62
    92
370
    13
100
AcDbLine
 10
-257.6177148506695
 20
-491.2974544869405
 30
0.0
 11
315.3822851493312
 21
-491.2974544869405
 31
0.0
  0
LINE
  5
B0
330
1F
100
AcDbEntity
  8
0-0
  6
Continuous
 62
    92
370
    13
100
AcDbLine
 10
315.3822851493312
 20
-491.2974544869405
 30
0.0
 11
315.3822851493312
 21
623.702277968751
 31
0.0
  0
LINE
  5
B1
330
1F
100
AcDbEntity
  8
0-0
  6
Continuous
 62
     7
370
     9
100
AcDbLine
 10
474.3822851493298
 20
-1014.297454486941
 30
0.0
 11
459.3822851493298
 21
-1029.297454486941
 31
0.0
  0
LINE
  5
B2
330
1F
100
AcDbEntity
  8
0-0
  6
Continuous
 62
     7
370
     9
100
AcDbLine
 10
459.3822851493298
 20
-1164.297454486941
 30
0.0
 11
459.3822851493298
 21
818.7025455130592
 31
0.0
  0
LINE
  5
B3
330
1F
100
AcDbEntity
  8
0-0
  6
Continuous
 62
     7
370
     9
100
AcDbLine
 10
1047.382285149331
 20
-1014.297454486941
 30
0.0
 11
1062.382285149331
 21
-1029.297454486941
 31
0.0
  0
LINE
  5
B4
330
1F
100
AcDbEntity
  8
0-0
  6
Continuous
 62
     7
370
     9
100
AcDbLine
 10
1062.382285149331
 20
-1164.297454486941
 30
0.0
 11
1062.382285149331
 21
818.7025455130592
 31
0.0
  0
LINE
  5
B5
330
1F
100
AcDbEntity
  8
0-0
  6
Continuous
 62
     7
370
     9
100
AcDbLine
 10
459.3822851493298
 20
-1029.297454486941
 30
0.0
 11
1062.382285149331
 21
-1029.297454486941
 31
0.0
  0
LINE
  5
B6
330
1F
100
AcDbEntity
  8
0-0
  6
Continuous
 62
     7
370
     9
100
AcDbLine
 10
474.3822851493298
 20
-491.2974544869405
 30
0.0
 11
459.3822851493298
 21
-506.2974544869405
 31
0.0
  0
LINE
  5
B7
330
1F
100
AcDbEntity
  8
0-0
  6
Continuous
 62
     7
370
     9
100
AcDbLine
 10
459.3822851493298
 20
-581.2974544869405
 30
0.0
 11
474.3822851493298
 21
-596.2974544869405
 31
0.0
  0
LINE
  5
B8
330
1F
100
AcDbEntity
  8
0-0
  6
Continuous
 62
     7
370
     9
100
AcDbLine
 10
1047.382285149331
 20
-491.2974544869405
 30
0.0
 11
1062.382285149331
 21
-506.2974544869405
 31
0.0
  0
LINE
  5
B9
330
1F
100
AcDbEntity
  8
0-0
  6
Continuous
 62
     7
370
     9
100
AcDbLine
 10
1062.382285149331
 20
-581.2974544869405
 30
0.0
 11
1047.382285149331
 21
-596.2974544869405
 31
0.0
  0
LINE
  5
BA
330
1F
100
AcDbEntity
  8
0-0
  6
Continuous
 62
     7
370
     9
100
AcDbLine
 10
459.3822851493298
 20
-506.2974544869405
 30
0.0
 11
1062.382285149331
 21
-506.2974544869405
 31
0.0
  0
LINE
  5
BB
330
1F
100
AcDbEntity
  8
0-0
  6
Continuous
 62
     7
370
     9
100
AcDbLine
 10
459.3822851493298
 20
-581.2974544869405
 30
0.0
 11
1062.382285149331
 21
-581.2974544869405
 31
0.0
  0
LINE
  5
BC
330
1F
100
AcDbEntity
  8
0-0
  6
Continuous
 62
     7
370
     9
100
AcDbLine
 10
504.3822851493298
 20
-984.2974544869406
 30
0.0
 11
504.3822851493298
 21
-626.2974544869405
 31
0.0
  0
LINE
  5
BD
330
1F
100
AcDbEntity
  8
0-0
  6
Continuous
 62
     7
370
     9
100
AcDbLine
 10
504.3822851493298
 20
-984.2974544869406
 30
0.0
 11
489.3822851493298
 21
-999.2974544869406
 31
0.0
  0
LINE
  5
BE
330
1F
100
AcDbEntity
  8
0-0
  6
Continuous
 62
     7
370
     9
100
AcDbLine
 10
489.3822851493298
 20
-611.2974544869405
 30
0.0
 11
504.3822851493298
 21
-626.2974544869405
 31
0.0
  0
LINE
  5
BF
330
1F
100
AcDbEntity
  8
0-0
  6
Continuous
 62
     7
370
     9
100
AcDbLine
 10
1017.382285149331
 20
-984.2974544869406
 30
0.0
 11
1032.382285149331
 21
-999.2974544869406
 31
0.0
  0
LINE
  5
C0
330
1F
100
AcDbEntity
  8
0-0
  6
Continuous
 62
     7
370
     9
100
AcDbLine
 10
1032.382285149331
 20
-611.2974544869405
 30
0.0
 11
1017.382285149331
 21
-626.2974544869405
 31
0.0
  0
LINE
  5
C1
330
1F
100
AcDbEntity
  8
0-0
  6
Continuous
 62
     7
370
     9
100
AcDbLine
 10
504.3822851493298
 20
-626.2974544869405
 30
0.0
 11
1017.382285149331
 21
-626.2974544869405
 31
0.0
  0
LINE
  5
C2
330
1F
100
AcDbEntity
  8
0-0
  6
Continuous
 62
     7
370
     9
100
AcDbLine
 10
1017.382285149331
 20
-984.2974544869406
 30
0.0
 11
1017.382285149331
 21
-626.2974544869405
 31
0.0
  0
LINE
  5
C3
330
1F
100
AcDbEntity
  8
0-0
  6
Continuous
 62
     7
370
     9
100
AcDbLine
 10
504.3822851493298
 20
-984.2974544869406
 30
0.0
 11
1017.382285149331
 21
-984.2974544869406
 31
0.0
  0
LINE
  5
C4
330
1F
100
AcDbEntity
  8
0-0
  6
Continuous
 62
     7
370
     9
100
AcDbLine
 10
474.3822851493281
 20
623.702277968751
 30
0.0
 11
459.3818892403841
 21
638.7026738776921
 31
0.0
  0
LINE
  5
C5
330
1F
100
AcDbEntity
  8
0-0
  6
Continuous
 62
     7
370
     9
100
AcDbLine
 10
1047.382285149331
 20
623.702277968751
 30
0.0
 11
1062.382285149331
 21
638.702277968751
 31
0.0
  0
ARC
  5
C6
330
1F
100
AcDbEntity
  8
0-0
  6
Continuous
 62
     7
370
     9
100
AcDbCircle
 10
523.3949477207418
 20
773.702277968751
 30
0.0
 40
135.0
100
AcDbArc
 50
270.0
 51
298.3577011236671
  0
ARC
  5
C7
330
1F
100
AcDbEntity
  8
0-0
  6
Continuous
 62
     7
370
     9
100
AcDbCircle
 10
998.3696225779179
 20
773.702277968751
 30
0.0
 40
135.0
100
AcDbArc
 50
241.6422988763328
 51
270.0
  0
ARC
  5
C8
330
1F
100
AcDbEntity
  8
0-0
  6
Continuous
 62
     7
370
     9
100
AcDbCircle
 10
760.8822851493298
 20
333.7025455130592
 30
0.0
 40
365.0
100
AcDbArc
 50
61.64229887633292
 51
118.3577011236671
  0
LINE
  5
C9
330
1F
100
AcDbEntity
  8
0-0
  6
Continuous
 62
     7
370
     9
100
AcDbLine
 10
459.3822356613607
 20
638.702327456715
 30
0.0
 11
523.3949477207418
 21
638.702327456715
 31
0.0
  0
LINE
  5
CA
330
1F
100
AcDbEntity
  8
0-0
  6
Continuous
 62
     7
370
     9
100
AcDbLine
 10
1062.382334637296
 20
638.702327456715
 30
0.0
 11
998.3696225779179
 21
638.702327456715
 31
0.0
  0
LINE
  5
CB
330
1F
100
AcDbEntity
  8
0-0
  6
Continuous
 62
    92
370
    13
100
AcDbLine
 10
474.3822851493298
 20
-1014.297454486941
 30
0.0
 11
1047.382285149331
 21
-1014.297454486941
 31
0.0
  0
LINE
  5
CC
330
1F
100
AcDbEntity
  8
0-0
  6
Continuous
 62
    92
370
    13
100
AcDbLine
 10
474.3822851493298
 20
-596.2974544869405
 30
0.0
 11
1047.382285149331
 21
-596.2974544869405
 31
0.0
  0
LINE
  5
CD
330
1F
100
AcDbEntity
  8
0-0
  6
Continuous
 62
    92
370
    13
100
AcDbLine
 10
474.3822851493298
 20
-1014.297454486941
 30
0.0
 11
474.3822851493298
 21
-596.2974544869405
 31
0.0
  0
LINE
  5
CE
330
1F
100
AcDbEntity
  8
0-0
  6
Continuous
 62
    92
370
    13
100
AcDbLine
 10
1047.382285149331
 20
-1014.297454486941
 30
0.0
 11
1047.382285149331
 21
-596.2974544869405
 31
0.0
  0
LINE
  5
CF
330
1F
100
AcDbEntity
  8
0-0
  6
Continuous
 62
    92
370
    13
100
AcDbLine
 10
1047.382285149331
 20
623.702277968751
 30
0.0
 11
998.3696225779179
 21
623.702277968751
 31
0.0
  0
ARC
  5
D0
330
1F
100
AcDbEntity
  8
0-0
  6
Continuous
 62
    92
370
    13
100
AcDbCircle
 10
998.3696225779179
 20
773.702277968751
 30
0.0
 40
150.0
100
AcDbArc
 50
241.6422988763328
 51
270.0
  0
ARC
  5
D1
330
1F
100
AcDbEntity
  8
0-0
  6
Continuous
 62
    92
370
    13
100
AcDbCircle
 10
760.8822851493298
 20
333.7025455130592
 30
0.0
 40
350.0
100
AcDbArc
 50
61.64229887633292
 51
118.3577011236671
  0
ARC
  5
D2
330
1F
100
AcDbEntity
  8
0-0
  6
Continuous
 62
    92
370
    13
100
AcDbCircle
 10
523.3949477207418
 20
773.702277968751
 30
0.0
 40
150.0
100
AcDbArc
 50
270.0
 51
298.3577011236671
  0
LINE
  5
D3
330
1F
100
AcDbEntity
  8
0-0
  6
Continuous
 62
    92
370
    13
100
AcDbLine
 10
474.3822851493281
 20
623.702277968751
 30
0.0
 11
523.3949477207418
 21
623.702277968751
 31
0.0
  0
LINE
  5
D4
330
1F
100
AcDbEntity
  8
0-0
  6
Continuous
 62
    92
370
    13
100
AcDbLine
 10
474.3822851493298
 20
-491.2974544869405
 30
0.0
 11
474.3822851493298
 21
623.702277968751
 31
0.0
  0
LINE
  5
D5
330
1F
100
AcDbEntity
  8
0-0
  6
Continuous
 62
    92
370
    13
100
AcDbLine
 10
474.3822851493298
 20
-491.2974544869405
 30
0.0
 11
1047.382285149331
 21
-491.2974544869405
 31
0.0
  0
LINE
  5
D6
330
1F
100
AcDbEntity
  8
0-0
  6
Continuous
 62
    92
370
    13
100
AcDbLine
 10
1047.382285149331
 20
-491.2974544869405
 30
0.0
 11
1047.382285149331
 21
623.702277968751
 31
0.0
  0
LINE
  5
D7
330
1F
100
AcDbEntity
  8
0-0
  6
JWW_DASHED1
 62
   120
370
     5
100
AcDbLine
 10
-989.6177148506705
 20
-490.2976028008841
 30
0.0
 11
-416.6177148506698
 21
-490.2976028008841
 31
0.0
  0
LINE
  5
D8
330
1F
100
AcDbEntity
  8
0-0
  6
JWW_DASHED1
 62
   120
370
     5
100
AcDbLine
 10
-989.6177148506705
 20
-477.2976027997845
 30
0.0
 11
-416.6177148506698
 21
-477.2976027997845
 31
0.0
  0
LINE
  5
D9
330
1F
100
AcDbEntity
  8
0-0
  6
JWW_DASHED1
 62
   120
370
     5
100
AcDbLine
 10
-989.6177148506705
 20
-476.2976027998843
 30
0.0
 11
-416.6177148506698
 21
-476.2976027998843
 31
0.0
  0
LINE
  5
DA
330
1F
100
AcDbEntity
  8
0-0
  6
JWW_DASHED1
 62
   120
370
     5
100
AcDbLine
 10
-989.6177148506705
 20
-463.2976027987847
 30
0.0
 11
-416.6177148506698
 21
-463.2976027987847
 31
0.0
  0
LINE
  5
DB
330
1F
100
AcDbEntity
  8
0-0
  6
JWW_DASHED1
 62
   120
370
     5
100
AcDbLine
 10
-989.6177148506705
 20
-462.2976027988846
 30
0.0
 11
-416.6177148506698
 21
-462.2976027988846
 31
0.0
  0
LINE
  5
DC
330
1F
100
AcDbEntity
  8
0-0
  6
JWW_DASHED1
 62
   120
370
     5
100
AcDbLine
 10
-989.6177148506705
 20
-449.2976027977849
 30
0.0
 11
-416.6177148506698
 21
-449.2976027977849
 31
0.0
  0
LINE
  5
DD
330
1F
100
AcDbEntity
  8
0-0
  6
JWW_DASHED1
 62
   120
370
     5
100
AcDbLine
 10
-989.6177148506705
 20
-448.2976027978847
 30
0.0
 11
-416.6177148506698
 21
-448.2976027978847
 31
0.0
  0
LINE
  5
DE
330
1F
100
AcDbEntity
  8
0-0
  6
JWW_DASHED1
 62
   120
370
     5
100
AcDbLine
 10
-989.6177148506705
 20
-435.2976027967851
 30
0.0
 11
-416.6177148506698
 21
-435.2976027967851
 31
0.0
  0
LINE
  5
DF
330
1F
100
AcDbEntity
  8
0-0
  6
JWW_DASHED1
 62
   120
370
     5
100
AcDbLine
 10
-989.6177148506705
 20
-434.2976027968849
 30
0.0
 11
-416.6177148506698
 21
-434.2976027968849
 31
0.0
  0
LINE
  5
E0
330
1F
100
AcDbEntity
  8
0-0
  6
JWW_DASHED1
 62
   120
370
     5
100
AcDbLine
 10
-989.6177148506705
 20
-421.2976027957853
 30
0.0
 11
-416.6177148506698
 21
-421.2976027957853
 31
0.0
  0
LINE
  5
E1
330
1F
100
AcDbEntity
  8
0-0
  6
JWW_DASHED1
 62
   120
370
     5
100
AcDbLine
 10
-989.6177148506705
 20
-420.2976027958852
 30
0.0
 11
-416.6177148506698
 21
-420.2976027958852
 31
0.0
  0
LINE
  5
E2
330
1F
100
AcDbEntity
  8
0-0
  6
JWW_DASHED1
 62
   120
370
     5
100
AcDbLine
 10
-989.6177148506705
 20
-407.2976027947856
 30
0.0
 11
-416.6177148506698
 21
-407.2976027947856
 31
0.0
  0
LINE
  5
E3
330
1F
100
AcDbEntity
  8
0-0
  6
JWW_DASHED1
 62
   120
370
     5
100
AcDbLine
 10
-989.6177148506705
 20
-406.2976027948854
 30
0.0
 11
-416.6177148506698
 21
-406.2976027948854
 31
0.0
  0
LINE
  5
E4
330
1F
100
AcDbEntity
  8
0-0
  6
JWW_DASHED1
 62
   120
370
     5
100
AcDbLine
 10
-989.6177148506705
 20
-393.2976027937858
 30
0.0
 11
-416.6177148506698
 21
-393.2976027937858
 31
0.0
  0
LINE
  5
E5
330
1F
100
AcDbEntity
  8
0-0
  6
JWW_DASHED1
 62
   120
370
     5
100
AcDbLine
 10
-989.6177148506705
 20
-392.2976027938856
 30
0.0
 11
-416.6177148506698
 21
-392.2976027938856
 31
0.0
  0
LINE
  5
E6
330
1F
100
AcDbEntity
  8
0-0
  6
JWW_DASHED1
 62
   120
370
     5
100
AcDbLine
 10
-989.6177148506705
 20
-379.2976027927859
 30
0.0
 11
-416.6177148506698
 21
-379.2976027927859
 31
0.0
  0
LINE
  5
E7
330
1F
100
AcDbEntity
  8
0-0
  6
JWW_DASHED1
 62
   120
370
     5
100
AcDbLine
 10
-989.6177148506705
 20
-378.2976027928858
 30
0.0
 11
-416.6177148506698
 21
-378.2976027928858
 31
0.0
  0
LINE
  5
E8
330
1F
100
AcDbEntity
  8
0-0
  6
JWW_DASHED1
 62
   120
370
     5
100
AcDbLine
 10
-989.6177148506705
 20
-365.2976027917862
 30
0.0
 11
-416.6177148506698
 21
-365.2976027917862
 31
0.0
  0
LINE
  5
E9
330
1F
100
AcDbEntity
  8
0-0
  6
JWW_DASHED1
 62
   120
370
     5
100
AcDbLine
 10
-989.6177148506705
 20
-364.297602791886
 30
0.0
 11
-416.6177148506698
 21
-364.297602791886
 31
0.0
  0
LINE
  5
EA
330
1F
100
AcDbEntity
  8
0-0
  6
JWW_DASHED1
 62
   120
370
     5
100
AcDbLine
 10
-989.6177148506705
 20
-351.2976027907864
 30
0.0
 11
-416.6177148506698
 21
-351.2976027907864
 31
0.0
  0
LINE
  5
EB
330
1F
100
AcDbEntity
  8
0-0
  6
JWW_DASHED1
 62
   120
370
     5
100
AcDbLine
 10
-989.6177148506705
 20
-350.2976027908862
 30
0.0
 11
-416.6177148506698
 21
-350.2976027908862
 31
0.0
  0
LINE
  5
EC
330
1F
100
AcDbEntity
  8
0-0
  6
JWW_DASHED1
 62
   120
370
     5
100
AcDbLine
 10
-989.6177148506705
 20
-337.2976027897866
 30
0.0
 11
-416.6177148506698
 21
-337.2976027897866
 31
0.0
  0
LINE
  5
ED
330
1F
100
AcDbEntity
  8
0-0
  6
JWW_DASHED1
 62
   120
370
     5
100
AcDbLine
 10
-989.6177148506705
 20
-336.2976027898864
 30
0.0
 11
-416.6177148506698
 21
-336.2976027898864
 31
0.0
  0
LINE
  5
EE
330
1F
100
AcDbEntity
  8
0-0
  6
JWW_DASHED1
 62
   120
370
     5
100
AcDbLine
 10
-989.6177148506705
 20
-323.2976027887868
 30
0.0
 11
-416.6177148506698
 21
-323.2976027887868
 31
0.0
  0
LINE
  5
EF
330
1F
100
AcDbEntity
  8
0-0
  6
JWW_DASHED1
 62
   120
370
     5
100
AcDbLine
 10
-989.6177148506705
 20
-322.2976027888866
 30
0.0
 11
-416.6177148506698
 21
-322.2976027888866
 31
0.0
  0
LINE
  5
F0
330
1F
100
AcDbEntity
  8
0-0
  6
JWW_DASHED1
 62
   120
370
     5
100
AcDbLine
 10
-989.6177148506705
 20
-309.297602787787
 30
0.0
 11
-416.6177148506698
 21
-309.297602787787
 31
0.0
  0
LINE
  5
F1
330
1F
100
AcDbEntity
  8
0-0
  6
JWW_DASHED1
 62
   120
370
     5
100
AcDbLine
 10
-989.6177148506705
 20
-308.2976027878868
 30
0.0
 11
-416.6177148506698
 21
-308.2976027878868
 31
0.0
  0
LINE
  5
F2
330
1F
100
AcDbEntity
  8
0-0
  6
JWW_DASHED1
 62
   120
370
     5
100
AcDbLine
 10
-989.6177148506705
 20
-295.2976027867873
 30
0.0
 11
-416.6177148506698
 21
-295.2976027867873
 31
0.0
  0
LINE
  5
F3
330
1F
100
AcDbEntity
  8
0-0
  6
JWW_DASHED1
 62
   120
370
     5
100
AcDbLine
 10
-989.6177148506705
 20
-294.2976027868871
 30
0.0
 11
-416.6177148506698
 21
-294.2976027868871
 31
0.0
  0
LINE
  5
F4
330
1F
100
AcDbEntity
  8
0-0
  6
JWW_DASHED1
 62
   120
370
     5
100
AcDbLine
 10
-989.6177148506705
 20
-281.2976027857874
 30
0.0
 11
-416.6177148506698
 21
-281.2976027857874
 31
0.0
  0
LINE
  5
F5
330
1F
100
AcDbEntity
  8
0-0
  6
JWW_DASHED1
 62
   120
370
     5
100
AcDbLine
 10
-989.6177148506705
 20
-280.2976027858872
 30
0.0
 11
-416.6177148506698
 21
-280.2976027858872
 31
0.0
  0
LINE
  5
F6
330
1F
100
AcDbEntity
  8
0-0
  6
JWW_DASHED1
 62
   120
370
     5
100
AcDbLine
 10
-989.6177148506705
 20
-267.2976027847876
 30
0.0
 11
-416.6177148506698
 21
-267.2976027847876
 31
0.0
  0
LINE
  5
F7
330
1F
100
AcDbEntity
  8
0-0
  6
JWW_DASHED1
 62
   120
370
     5
100
AcDbLine
 10
-989.6177148506705
 20
-266.2976027848874
 30
0.0
 11
-416.6177148506698
 21
-266.2976027848874
 31
0.0
  0
LINE
  5
F8
330
1F
100
AcDbEntity
  8
0-0
  6
JWW_DASHED1
 62
   120
370
     5
100
AcDbLine
 10
-989.6177148506705
 20
-253.2976027837879
 30
0.0
 11
-416.6177148506698
 21
-253.2976027837879
 31
0.0
  0
LINE
  5
F9
330
1F
100
AcDbEntity
  8
0-0
  6
JWW_DASHED1
 62
   120
370
     5
100
AcDbLine
 10
-989.6177148506705
 20
-252.2976027838877
 30
0.0
 11
-416.6177148506698
 21
-252.2976027838877
 31
0.0
  0
LINE
  5
FA
330
1F
100
AcDbEntity
  8
0-0
  6
JWW_DASHED1
 62
   120
370
     5
100
AcDbLine
 10
-989.6177148506705
 20
-239.2976027827881
 30
0.0
 11
-416.6177148506698
 21
-239.2976027827881
 31
0.0
  0
LINE
  5
FB
330
1F
100
AcDbEntity
  8
0-0
  6
JWW_DASHED1
 62
   120
370
     5
100
AcDbLine
 10
-989.6177148506705
 20
-238.2976027828879
 30
0.0
 11
-416.6177148506698
 21
-238.2976027828879
 31
0.0
  0
LINE
  5
FC
330
1F
100
AcDbEntity
  8
0-0
  6
JWW_DASHED1
 62
   120
370
     5
100
AcDbLine
 10
-989.6177148506705
 20
-225.2976027817883
 30
0.0
 11
-416.6177148506698
 21
-225.2976027817883
 31
0.0
  0
LINE
  5
FD
330
1F
100
AcDbEntity
  8
0-0
  6
JWW_DASHED1
 62
   120
370
     5
100
AcDbLine
 10
-989.6177148506705
 20
-224.2976027818881
 30
0.0
 11
-416.6177148506698
 21
-224.2976027818881
 31
0.0
  0
LINE
  5
FE
330
1F
100
AcDbEntity
  8
0-0
  6
JWW_DASHED1
 62
   120
370
     5
100
AcDbLine
 10
-989.6177148506705
 20
-211.2976027807885
 30
0.0
 11
-416.6177148506698
 21
-211.2976027807885
 31
0.0
  0
LINE
  5
FF
330
1F
100
AcDbEntity
  8
0-0
  6
JWW_DASHED1
 62
   120
370
     5
100
AcDbLine
 10
-989.6177148506705
 20
-210.2976027808883
 30
0.0
 11
-416.6177148506698
 21
-210.2976027808883
 31
0.0
  0
LINE
  5
100
330
1F
100
AcDbEntity
  8
0-0
  6
JWW_DASHED1
 62
   120
370
     5
100
AcDbLine
 10
-989.6177148506705
 20
-197.2976027797887
 30
0.0
 11
-416.6177148506698
 21
-197.2976027797887
 31
0.0
  0
LINE
  5
101
330
1F
100
AcDbEntity
  8
0-0
  6
JWW_DASHED1
 62
   120
370
     5
100
AcDbLine
 10
-989.6177148506705
 20
-196.2976027798885
 30
0.0
 11
-416.6177148506698
 21
-196.2976027798885
 31
0.0
  0
LINE
  5
102
330
1F
100
AcDbEntity
  8
0-0
  6
JWW_DASHED1
 62
   120
370
     5
100
AcDbLine
 10
-989.6177148506705
 20
-183.2976027787889
 30
0.0
 11
-416.6177148506698
 21
-183.2976027787889
 31
0.0
  0
LINE
  5
103
330
1F
100
AcDbEntity
  8
0-0
  6
JWW_DASHED1
 62
   120
370
     5
100
AcDbLine
 10
-989.6177148506705
 20
-182.2976027788887
 30
0.0
 11
-416.6177148506698
 21
-182.2976027788887
 31
0.0
  0
LINE
  5
104
330
1F
100
AcDbEntity
  8
0-0
  6
JWW_DASHED1
 62
   120
370
     5
100
AcDbLine
 10
-989.6177148506705
 20
-169.2976027777891
 30
0.0
 11
-416.6177148506698
 21
-169.2976027777891
 31
0.0
  0
LINE
  5
105
330
1F
100
AcDbEntity
  8
0-0
  6
JWW_DASHED1
 62
   120
370
     5
100
AcDbLine
 10
-989.6177148506705
 20
-168.2976027778889
 30
0.0
 11
-416.6177148506698
 21
-168.2976027778889
 31
0.0
  0
LINE
  5
106
330
1F
100
AcDbEntity
  8
0-0
  6
JWW_DASHED1
 62
   120
370
     5
100
AcDbLine
 10
-989.6177148506705
 20
-155.2976027767893
 30
0.0
 11
-416.6177148506698
 21
-155.2976027767893
 31
0.0
  0
LINE
  5
107
330
1F
100
AcDbEntity
  8
0-0
  6
JWW_DASHED1
 62
   120
370
     5
100
AcDbLine
 10
-989.6177148506705
 20
-154.2976027768891
 30
0.0
 11
-416.6177148506698
 21
-154.2976027768891
 31
0.0
  0
LINE
  5
108
330
1F
100
AcDbEntity
  8
0-0
  6
JWW_DASHED1
 62
   120
370
     5
100
AcDbLine
 10
-989.6177148506705
 20
-141.2976027757895
 30
0.0
 11
-416.6177148506698
 21
-141.2976027757895
 31
0.0
  0
LINE
  5
109
330
1F
100
AcDbEntity
  8
0-0
  6
JWW_DASHED1
 62
   120
370
     5
100
AcDbLine
 10
-989.6177148506705
 20
-140.2976027758893
 30
0.0
 11
-416.6177148506698
 21
-140.2976027758893
 31
0.0
  0
LINE
  5
10A
330
1F
100
AcDbEntity
  8
0-0
  6
JWW_DASHED1
 62
   120
370
     5
100
AcDbLine
 10
-989.6177148506705
 20
-127.2976027747897
 30
0.0
 11
-416.6177148506698
 21
-127.2976027747897
 31
0.0
  0
LINE
  5
10B
330
1F
100
AcDbEntity
  8
0-0
  6
JWW_DASHED1
 62
   120
370
     5
100
AcDbLine
 10
-989.6177148506705
 20
-126.2976027748896
 30
0.0
 11
-416.6177148506698
 21
-126.2976027748896
 31
0.0
  0
LINE
  5
10C
330
1F
100
AcDbEntity
  8
0-0
  6
JWW_DASHED1
 62
   120
370
     5
100
AcDbLine
 10
-989.6177148506705
 20
-113.2976027737899
 30
0.0
 11
-416.6177148506698
 21
-113.2976027737899
 31
0.0
  0
LINE
  5
10D
330
1F
100
AcDbEntity
  8
0-0
  6
JWW_DASHED1
 62
   120
370
     5
100
AcDbLine
 10
-989.6177148506705
 20
-112.2976027738898
 30
0.0
 11
-416.6177148506698
 21
-112.2976027738898
 31
0.0
  0
LINE
  5
10E
330
1F
100
AcDbEntity
  8
0-0
  6
JWW_DASHED1
 62
   120
370
     5
100
AcDbLine
 10
-989.6177148506705
 20
-99.29760277279016
 30
0.0
 11
-416.6177148506698
 21
-99.29760277279016
 31
0.0
  0
LINE
  5
10F
330
1F
100
AcDbEntity
  8
0-0
  6
JWW_DASHED1
 62
   120
370
     5
100
AcDbLine
 10
-989.6177148506705
 20
-98.29760277288997
 30
0.0
 11
-416.6177148506698
 21
-98.29760277288997
 31
0.0
  0
LINE
  5
110
330
1F
100
AcDbEntity
  8
0-0
  6
JWW_DASHED1
 62
   120
370
     5
100
AcDbLine
 10
-989.6177148506705
 20
-85.29760277179037
 30
0.0
 11
-416.6177148506698
 21
-85.29760277179037
 31
0.0
  0
LINE
  5
111
330
1F
100
AcDbEntity
  8
0-0
  6
JWW_DASHED1
 62
   120
370
     5
100
AcDbLine
 10
-989.6177148506705
 20
-84.29760277189018
 30
0.0
 11
-416.6177148506698
 21
-84.29760277189018
 31
0.0
  0
LINE
  5
112
330
1F
100
AcDbEntity
  8
0-0
  6
JWW_DASHED1
 62
   120
370
     5
100
AcDbLine
 10
-989.6177148506705
 20
-71.29760277079058
 30
0.0
 11
-416.6177148506698
 21
-71.29760277079058
 31
0.0
  0
LINE
  5
113
330
1F
100
AcDbEntity
  8
0-0
  6
JWW_DASHED1
 62
   120
370
     5
100
AcDbLine
 10
-989.6177148506705
 20
-70.29760277089039
 30
0.0
 11
-416.6177148506698
 21
-70.29760277089039
 31
0.0
  0
LINE
  5
114
330
1F
100
AcDbEntity
  8
0-0
  6
JWW_DASHED1
 62
   120
370
     5
100
AcDbLine
 10
-989.6177148506705
 20
-57.29760276979079
 30
0.0
 11
-416.6177148506698
 21
-57.29760276979079
 31
0.0
  0
LINE
  5
115
330
1F
100
AcDbEntity
  8
0-0
  6
JWW_DASHED1
 62
   120
370
     5
100
AcDbLine
 10
-989.6177148506705
 20
-56.2976027698906
 30
0.0
 11
-416.6177148506698
 21
-56.2976027698906
 31
0.0
  0
LINE
  5
116
330
1F
100
AcDbEntity
  8
0-0
  6
JWW_DASHED1
 62
   120
370
     5
100
AcDbLine
 10
-989.6177148506705
 20
-43.29760276879099
 30
0.0
 11
-416.6177148506698
 21
-43.29760276879099
 31
0.0
  0
LINE
  5
117
330
1F
100
AcDbEntity
  8
0-0
  6
JWW_DASHED1
 62
   120
370
     5
100
AcDbLine
 10
-989.6177148506705
 20
-42.29760276889081
 30
0.0
 11
-416.6177148506698
 21
-42.29760276889081
 31
0.0
  0
LINE
  5
118
330
1F
100
AcDbEntity
  8
0-0
  6
JWW_DASHED1
 62
   120
370
     5
100
AcDbLine
 10
-989.6177148506705
 20
-29.2976027677912
 30
0.0
 11
-416.6177148506698
 21
-29.2976027677912
 31
0.0
  0
LINE
  5
119
330
1F
100
AcDbEntity
  8
0-0
  6
JWW_DASHED1
 62
   120
370
     5
100
AcDbLine
 10
-989.6177148506705
 20
-28.29760276789102
 30
0.0
 11
-416.6177148506698
 21
-28.29760276789102
 31
0.0
  0
LINE
  5
11A
330
1F
100
AcDbEntity
  8
0-0
  6
JWW_DASHED1
 62
   120
370
     5
100
AcDbLine
 10
-989.6177148506705
 20
-15.29760276679141
 30
0.0
 11
-416.6177148506698
 21
-15.29760276679141
 31
0.0
  0
LINE
  5
11B
330
1F
100
AcDbEntity
  8
0-0
  6
JWW_DASHED1
 62
   120
370
     5
100
AcDbLine
 10
-989.6177148506705
 20
-14.29760276689123
 30
0.0
 11
-416.6177148506698
 21
-14.29760276689123
 31
0.0
  0
LINE
  5
11C
330
1F
100
AcDbEntity
  8
0-0
  6
JWW_DASHED1
 62
   120
370
     5
100
AcDbLine
 10
-989.6177148506705
 20
-1.297602765791623
 30
0.0
 11
-416.6177148506698
 21
-1.297602765791623
 31
0.0
  0
LINE
  5
11D
330
1F
100
AcDbEntity
  8
0-0
  6
JWW_DASHED1
 62
   120
370
     5
100
AcDbLine
 10
-989.6177148506705
 20
-0.2976027658914404
 30
0.0
 11
-416.6177148506698
 21
-0.2976027658914404
 31
0.0
  0
LINE
  5
11E
330
1F
100
AcDbEntity
  8
0-0
  6
JWW_DASHED1
 62
   120
370
     5
100
AcDbLine
 10
-989.6177148506705
 20
12.70239723520817
 30
0.0
 11
-416.6177148506698
 21
12.70239723520817
 31
0.0
  0
LINE
  5
11F
330
1F
100
AcDbEntity
  8
0-0
  6
JWW_DASHED1
 62
   120
370
     5
100
AcDbLine
 10
-989.6177148506705
 20
13.70239723510835
 30
0.0
 11
-416.6177148506698
 21
13.70239723510835
 31
0.0
  0
LINE
  5
120
330
1F
100
AcDbEntity
  8
0-0
  6
JWW_DASHED1
 62
   120
370
     5
100
AcDbLine
 10
-989.6177148506705
 20
26.70239723620796
 30
0.0
 11
-416.6177148506698
 21
26.70239723620796
 31
0.0
  0
LINE
  5
121
330
1F
100
AcDbEntity
  8
0-0
  6
JWW_DASHED1
 62
   120
370
     5
100
AcDbLine
 10
-989.6177148506705
 20
27.70239723610814
 30
0.0
 11
-416.6177148506698
 21
27.70239723610814
 31
0.0
  0
LINE
  5
122
330
1F
100
AcDbEntity
  8
0-0
  6
JWW_DASHED1
 62
   120
370
     5
100
AcDbLine
 10
-989.6177148506705
 20
40.70239723720775
 30
0.0
 11
-416.6177148506698
 21
40.70239723720775
 31
0.0
  0
LINE
  5
123
330
1F
100
AcDbEntity
  8
0-0
  6
JWW_DASHED1
 62
   120
370
     5
100
AcDbLine
 10
-989.6177148506705
 20
41.70239723710793
 30
0.0
 11
-416.6177148506698
 21
41.70239723710793
 31
0.0
  0
LINE
  5
124
330
1F
100
AcDbEntity
  8
0-0
  6
JWW_DASHED1
 62
   120
370
     5
100
AcDbLine
 10
-989.6177148506705
 20
54.70239723820754
 30
0.0
 11
-416.6177148506698
 21
54.70239723820754
 31
0.0
  0
LINE
  5
125
330
1F
100
AcDbEntity
  8
0-0
  6
JWW_DASHED1
 62
   120
370
     5
100
AcDbLine
 10
-989.6177148506705
 20
55.70239723810772
 30
0.0
 11
-416.6177148506698
 21
55.70239723810772
 31
0.0
  0
LINE
  5
126
330
1F
100
AcDbEntity
  8
0-0
  6
JWW_DASHED1
 62
   120
370
     5
100
AcDbLine
 10
-989.6177148506705
 20
68.70239723920733
 30
0.0
 11
-416.6177148506698
 21
68.70239723920733
 31
0.0
  0
LINE
  5
127
330
1F
100
AcDbEntity
  8
0-0
  6
JWW_DASHED1
 62
   120
370
     5
100
AcDbLine
 10
-989.6177148506705
 20
69.70239723910751
 30
0.0
 11
-416.6177148506698
 21
69.70239723910751
 31
0.0
  0
LINE
  5
128
330
1F
100
AcDbEntity
  8
0-0
  6
JWW_DASHED1
 62
   120
370
     5
100
AcDbLine
 10
-989.6177148506705
 20
82.70239724020712
 30
0.0
 11
-416.6177148506698
 21
82.70239724020712
 31
0.0
  0
LINE
  5
129
330
1F
100
AcDbEntity
  8
0-0
  6
JWW_DASHED1
 62
   120
370
     5
100
AcDbLine
 10
-989.6177148506705
 20
83.7023972401073
 30
0.0
 11
-416.6177148506698
 21
83.7023972401073
 31
0.0
  0
LINE
  5
12A
330
1F
100
AcDbEntity
  8
0-0
  6
JWW_DASHED1
 62
   120
370
     5
100
AcDbLine
 10
-989.6177148506705
 20
96.70239724120691
 30
0.0
 11
-416.6177148506698
 21
96.70239724120691
 31
0.0
  0
LINE
  5
12B
330
1F
100
AcDbEntity
  8
0-0
  6
JWW_DASHED1
 62
   120
370
     5
100
AcDbLine
 10
-989.6177148506705
 20
97.7023972411071
 30
0.0
 11
-416.6177148506698
 21
97.7023972411071
 31
0.0
  0
LINE
  5
12C
330
1F
100
AcDbEntity
  8
0-0
  6
JWW_DASHED1
 62
   120
370
     5
100
AcDbLine
 10
-989.6177148506705
 20
110.7023972422067
 30
0.0
 11
-416.6177148506698
 21
110.7023972422067
 31
0.0
  0
LINE
  5
12D
330
1F
100
AcDbEntity
  8
0-0
  6
JWW_DASHED1
 62
   120
370
     5
100
AcDbLine
 10
-989.6177148506705
 20
111.7023972421069
 30
0.0
 11
-416.6177148506698
 21
111.7023972421069
 31
0.0
  0
LINE
  5
12E
330
1F
100
AcDbEntity
  8
0-0
  6
JWW_DASHED1
 62
   120
370
     5
100
AcDbLine
 10
-989.6177148506705
 20
124.7023972432065
 30
0.0
 11
-416.6177148506698
 21
124.7023972432065
 31
0.0
  0
LINE
  5
12F
330
1F
100
AcDbEntity
  8
0-0
  6
JWW_DASHED1
 62
   120
370
     5
100
AcDbLine
 10
-989.6177148506705
 20
125.7023972431067
 30
0.0
 11
-416.6177148506698
 21
125.7023972431067
 31
0.0
  0
LINE
  5
130
330
1F
100
AcDbEntity
  8
0-0
  6
JWW_DASHED1
 62
   120
370
     5
100
AcDbLine
 10
-989.6177148506705
 20
138.7023972442063
 30
0.0
 11
-416.6177148506698
 21
138.7023972442063
 31
0.0
  0
LINE
  5
131
330
1F
100
AcDbEntity
  8
0-0
  6
JWW_DASHED1
 62
   120
370
     5
100
AcDbLine
 10
-989.6177148506705
 20
139.7023972441065
 30
0.0
 11
-416.6177148506698
 21
139.7023972441065
 31
0.0
  0
LINE
  5
132
330
1F
100
AcDbEntity
  8
0-0
  6
JWW_DASHED1
 62
   120
370
     5
100
AcDbLine
 10
-989.6177148506705
 20
152.7023972452061
 30
0.0
 11
-416.6177148506698
 21
152.7023972452061
 31
0.0
  0
LINE
  5
133
330
1F
100
AcDbEntity
  8
0-0
  6
JWW_DASHED1
 62
   120
370
     5
100
AcDbLine
 10
-989.6177148506705
 20
153.7023972451063
 30
0.0
 11
-416.6177148506698
 21
153.7023972451063
 31
0.0
  0
LINE
  5
134
330
1F
100
AcDbEntity
  8
0-0
  6
JWW_DASHED1
 62
   120
370
     5
100
AcDbLine
 10
-989.6177148506705
 20
166.7023972462059
 30
0.0
 11
-416.6177148506698
 21
166.7023972462059
 31
0.0
  0
LINE
  5
135
330
1F
100
AcDbEntity
  8
0-0
  6
JWW_DASHED1
 62
   120
370
     5
100
AcDbLine
 10
-989.6177148506705
 20
167.702397246106
 30
0.0
 11
-416.6177148506698
 21
167.702397246106
 31
0.0
  0
LINE
  5
136
330
1F
100
AcDbEntity
  8
0-0
  6
JWW_DASHED1
 62
   120
370
     5
100
AcDbLine
 10
-989.6177148506705
 20
180.7023972472057
 30
0.0
 11
-416.6177148506698
 21
180.7023972472057
 31
0.0
  0
LINE
  5
137
330
1F
100
AcDbEntity
  8
0-0
  6
JWW_DASHED1
 62
   120
370
     5
100
AcDbLine
 10
-989.6177148506705
 20
181.7023972471058
 30
0.0
 11
-416.6177148506698
 21
181.7023972471058
 31
0.0
  0
LINE
  5
138
330
1F
100
AcDbEntity
  8
0-0
  6
JWW_DASHED1
 62
   120
370
     5
100
AcDbLine
 10
-989.6177148506705
 20
194.7023972482054
 30
0.0
 11
-416.6177148506698
 21
194.7023972482054
 31
0.0
  0
LINE
  5
139
330
1F
100
AcDbEntity
  8
0-0
  6
JWW_DASHED1
 62
   120
370
     5
100
AcDbLine
 10
-989.6177148506705
 20
195.7023972481056
 30
0.0
 11
-416.6177148506698
 21
195.7023972481056
 31
0.0
  0
LINE
  5
13A
330
1F
100
AcDbEntity
  8
0-0
  6
JWW_DASHED1
 62
   120
370
     5
100
AcDbLine
 10
-989.6177148506705
 20
208.7023972492052
 30
0.0
 11
-416.6177148506698
 21
208.7023972492052
 31
0.0
  0
LINE
  5
13B
330
1F
100
AcDbEntity
  8
0-0
  6
JWW_DASHED1
 62
   120
370
     5
100
AcDbLine
 10
-989.6177148506705
 20
209.7023972491054
 30
0.0
 11
-416.6177148506698
 21
209.7023972491054
 31
0.0
  0
LINE
  5
13C
330
1F
100
AcDbEntity
  8
0-0
  6
JWW_DASHED1
 62
   120
370
     5
100
AcDbLine
 10
-989.6177148506705
 20
222.702397250205
 30
0.0
 11
-416.6177148506698
 21
222.702397250205
 31
0.0
  0
LINE
  5
13D
330
1F
100
AcDbEntity
  8
0-0
  6
JWW_DASHED1
 62
   120
370
     5
100
AcDbLine
 10
-989.6177148506705
 20
223.7023972501052
 30
0.0
 11
-416.6177148506698
 21
223.7023972501052
 31
0.0
  0
LINE
  5
13E
330
1F
100
AcDbEntity
  8
0-0
  6
JWW_DASHED1
 62
   120
370
     5
100
AcDbLine
 10
-989.6177148506705
 20
236.7023972512048
 30
0.0
 11
-416.6177148506698
 21
236.7023972512048
 31
0.0
  0
LINE
  5
13F
330
1F
100
AcDbEntity
  8
0-0
  6
JWW_DASHED1
 62
   120
370
     5
100
AcDbLine
 10
-989.6177148506705
 20
237.702397251105
 30
0.0
 11
-416.6177148506698
 21
237.702397251105
 31
0.0
  0
LINE
  5
140
330
1F
100
AcDbEntity
  8
0-0
  6
JWW_DASHED1
 62
   120
370
     5
100
AcDbLine
 10
-989.6177148506705
 20
250.7023972522046
 30
0.0
 11
-416.6177148506698
 21
250.7023972522046
 31
0.0
  0
LINE
  5
141
330
1F
100
AcDbEntity
  8
0-0
  6
JWW_DASHED1
 62
   120
370
     5
100
AcDbLine
 10
-989.6177148506705
 20
251.7023972521048
 30
0.0
 11
-416.6177148506698
 21
251.7023972521048
 31
0.0
  0
LINE
  5
142
330
1F
100
AcDbEntity
  8
0-0
  6
JWW_DASHED1
 62
   120
370
     5
100
AcDbLine
 10
-989.6177148506705
 20
264.7023972532044
 30
0.0
 11
-416.6177148506698
 21
264.7023972532044
 31
0.0
  0
LINE
  5
143
330
1F
100
AcDbEntity
  8
0-0
  6
JWW_DASHED1
 62
   120
370
     5
100
AcDbLine
 10
-989.6177148506705
 20
265.7023972531046
 30
0.0
 11
-416.6177148506698
 21
265.7023972531046
 31
0.0
  0
LINE
  5
144
330
1F
100
AcDbEntity
  8
0-0
  6
JWW_DASHED1
 62
   120
370
     5
100
AcDbLine
 10
-989.6177148506705
 20
278.7023972542042
 30
0.0
 11
-416.6177148506698
 21
278.7023972542042
 31
0.0
  0
LINE
  5
145
330
1F
100
AcDbEntity
  8
0-0
  6
JWW_DASHED1
 62
   120
370
     5
100
AcDbLine
 10
-989.6177148506705
 20
279.7023972541044
 30
0.0
 11
-416.6177148506698
 21
279.7023972541044
 31
0.0
  0
LINE
  5
146
330
1F
100
AcDbEntity
  8
0-0
  6
JWW_DASHED1
 62
   120
370
     5
100
AcDbLine
 10
-989.6177148506705
 20
292.702397255204
 30
0.0
 11
-416.6177148506698
 21
292.702397255204
 31
0.0
  0
LINE
  5
147
330
1F
100
AcDbEntity
  8
0-0
  6
JWW_DASHED1
 62
   120
370
     5
100
AcDbLine
 10
-989.6177148506705
 20
293.7023972551042
 30
0.0
 11
-416.6177148506698
 21
293.7023972551042
 31
0.0
  0
LINE
  5
148
330
1F
100
AcDbEntity
  8
0-0
  6
JWW_DASHED1
 62
   120
370
     5
100
AcDbLine
 10
-989.6177148506705
 20
306.7023972562038
 30
0.0
 11
-416.6177148506698
 21
306.7023972562038
 31
0.0
  0
LINE
  5
149
330
1F
100
AcDbEntity
  8
0-0
  6
JWW_DASHED1
 62
   120
370
     5
100
AcDbLine
 10
-989.6177148506705
 20
307.7023972561039
 30
0.0
 11
-416.6177148506698
 21
307.7023972561039
 31
0.0
  0
LINE
  5
14A
330
1F
100
AcDbEntity
  8
0-0
  6
JWW_DASHED1
 62
   120
370
     5
100
AcDbLine
 10
-989.6177148506705
 20
320.7023972572035
 30
0.0
 11
-416.6177148506698
 21
320.7023972572035
 31
0.0
  0
LINE
  5
14B
330
1F
100
AcDbEntity
  8
0-0
  6
JWW_DASHED1
 62
   120
370
     5
100
AcDbLine
 10
-989.6177148506705
 20
321.7023972571037
 30
0.0
 11
-416.6177148506698
 21
321.7023972571037
 31
0.0
  0
LINE
  5
14C
330
1F
100
AcDbEntity
  8
0-0
  6
JWW_DASHED1
 62
   120
370
     5
100
AcDbLine
 10
-989.6177148506705
 20
334.7023972582033
 30
0.0
 11
-416.6177148506698
 21
334.7023972582033
 31
0.0
  0
LINE
  5
14D
330
1F
100
AcDbEntity
  8
0-0
  6
JWW_DASHED1
 62
   120
370
     5
100
AcDbLine
 10
-989.6177148506705
 20
335.7023972581035
 30
0.0
 11
-416.6177148506698
 21
335.7023972581035
 31
0.0
  0
LINE
  5
14E
330
1F
100
AcDbEntity
  8
0-0
  6
JWW_DASHED1
 62
   120
370
     5
100
AcDbLine
 10
-989.6177148506705
 20
348.7023972592032
 30
0.0
 11
-416.6177148506698
 21
348.7023972592032
 31
0.0
  0
LINE
  5
14F
330
1F
100
AcDbEntity
  8
0-0
  6
JWW_DASHED1
 62
   120
370
     5
100
AcDbLine
 10
-989.6177148506705
 20
349.7023972591033
 30
0.0
 11
-416.6177148506698
 21
349.7023972591033
 31
0.0
  0
LINE
  5
150
330
1F
100
AcDbEntity
  8
0-0
  6
JWW_DASHED1
 62
   120
370
     5
100
AcDbLine
 10
-989.6177148506705
 20
362.7023972602029
 30
0.0
 11
-416.6177148506698
 21
362.7023972602029
 31
0.0
  0
LINE
  5
151
330
1F
100
AcDbEntity
  8
0-0
  6
JWW_DASHED1
 62
   120
370
     5
100
AcDbLine
 10
-989.6177148506705
 20
363.7023972601031
 30
0.0
 11
-416.6177148506698
 21
363.7023972601031
 31
0.0
  0
LINE
  5
152
330
1F
100
AcDbEntity
  8
0-0
  6
JWW_DASHED1
 62
   120
370
     5
100
AcDbLine
 10
-989.6177148506705
 20
376.7023972612027
 30
0.0
 11
-416.6177148506698
 21
376.7023972612027
 31
0.0
  0
LINE
  5
153
330
1F
100
AcDbEntity
  8
0-0
  6
JWW_DASHED1
 62
   120
370
     5
100
AcDbLine
 10
-989.6177148506705
 20
377.7023972611029
 30
0.0
 11
-416.6177148506698
 21
377.7023972611029
 31
0.0
  0
LINE
  5
154
330
1F
100
AcDbEntity
  8
0-0
  6
JWW_DASHED1
 62
   120
370
     5
100
AcDbLine
 10
-989.6177148506705
 20
390.7023972622025
 30
0.0
 11
-416.6177148506698
 21
390.7023972622025
 31
0.0
  0
LINE
  5
155
330
1F
100
AcDbEntity
  8
0-0
  6
JWW_DASHED1
 62
   120
370
     5
100
AcDbLine
 10
-989.6177148506705
 20
391.7023972621027
 30
0.0
 11
-416.6177148506698
 21
391.7023972621027
 31
0.0
  0
LINE
  5
156
330
1F
100
AcDbEntity
  8
0-0
  6
JWW_DASHED1
 62
   120
370
     5
100
AcDbLine
 10
-989.6177148506705
 20
404.7023972632023
 30
0.0
 11
-416.6177148506698
 21
404.7023972632023
 31
0.0
  0
LINE
  5
157
330
1F
100
AcDbEntity
  8
0-0
  6
JWW_DASHED1
 62
   120
370
     5
100
AcDbLine
 10
-989.6177148506705
 20
405.7023972631025
 30
0.0
 11
-416.6177148506698
 21
405.7023972631025
 31
0.0
  0
LINE
  5
158
330
1F
100
AcDbEntity
  8
0-0
  6
JWW_DASHED1
 62
   120
370
     5
100
AcDbLine
 10
-989.6177148506705
 20
418.7023972642021
 30
0.0
 11
-416.6177148506698
 21
418.7023972642021
 31
0.0
  0
LINE
  5
159
330
1F
100
AcDbEntity
  8
0-0
  6
JWW_DASHED1
 62
   120
370
     5
100
AcDbLine
 10
-989.6177148506705
 20
419.7023972641023
 30
0.0
 11
-416.6177148506698
 21
419.7023972641023
 31
0.0
  0
LINE
  5
15A
330
1F
100
AcDbEntity
  8
0-0
  6
JWW_DASHED1
 62
   120
370
     5
100
AcDbLine
 10
-989.6177148506705
 20
432.7023972652019
 30
0.0
 11
-416.6177148506698
 21
432.7023972652019
 31
0.0
  0
LINE
  5
15B
330
1F
100
AcDbEntity
  8
0-0
  6
JWW_DASHED1
 62
   120
370
     5
100
AcDbLine
 10
-989.6177148506705
 20
433.702397265102
 30
0.0
 11
-416.6177148506698
 21
433.702397265102
 31
0.0
  0
LINE
  5
15C
330
1F
100
AcDbEntity
  8
0-0
  6
JWW_DASHED1
 62
   120
370
     5
100
AcDbLine
 10
-989.6177148506705
 20
446.7023972662017
 30
0.0
 11
-416.6177148506698
 21
446.7023972662017
 31
0.0
  0
LINE
  5
15D
330
1F
100
AcDbEntity
  8
0-0
  6
JWW_DASHED1
 62
   120
370
     5
100
AcDbLine
 10
-989.6177148506705
 20
447.7023972661019
 30
0.0
 11
-416.6177148506698
 21
447.7023972661019
 31
0.0
  0
LINE
  5
15E
330
1F
100
AcDbEntity
  8
0-0
  6
JWW_DASHED1
 62
   120
370
     5
100
AcDbLine
 10
-989.6177148506705
 20
460.7023972672015
 30
0.0
 11
-416.6177148506698
 21
460.7023972672015
 31
0.0
  0
LINE
  5
15F
330
1F
100
AcDbEntity
  8
0-0
  6
JWW_DASHED1
 62
   120
370
     5
100
AcDbLine
 10
-989.6177148506705
 20
461.7023972671017
 30
0.0
 11
-416.6177148506698
 21
461.7023972671017
 31
0.0
  0
LINE
  5
160
330
1F
100
AcDbEntity
  8
0-0
  6
JWW_DASHED1
 62
   120
370
     5
100
AcDbLine
 10
-989.6177148506705
 20
474.7023972682013
 30
0.0
 11
-416.6177148506698
 21
474.7023972682013
 31
0.0
  0
LINE
  5
161
330
1F
100
AcDbEntity
  8
0-0
  6
JWW_DASHED1
 62
   120
370
     5
100
AcDbLine
 10
-989.6177148506705
 20
475.7023972681014
 30
0.0
 11
-416.6177148506698
 21
475.7023972681014
 31
0.0
  0
LINE
  5
162
330
1F
100
AcDbEntity
  8
0-0
  6
JWW_DASHED1
 62
   120
370
     5
100
AcDbLine
 10
-989.6177148506705
 20
488.702397269201
 30
0.0
 11
-416.6177148506698
 21
488.702397269201
 31
0.0
  0
LINE
  5
163
330
1F
100
AcDbEntity
  8
0-0
  6
JWW_DASHED1
 62
   120
370
     5
100
AcDbLine
 10
-989.6177148506705
 20
489.7023972691012
 30
0.0
 11
-416.6177148506698
 21
489.7023972691012
 31
0.0
  0
LINE
  5
164
330
1F
100
AcDbEntity
  8
0-0
  6
JWW_DASHED1
 62
   120
370
     5
100
AcDbLine
 10
-989.6177148506705
 20
502.7023972702008
 30
0.0
 11
-416.6177148506698
 21
502.7023972702008
 31
0.0
  0
LINE
  5
165
330
1F
100
AcDbEntity
  8
0-0
  6
JWW_DASHED1
 62
   120
370
     5
100
AcDbLine
 10
-989.6177148506705
 20
503.702397270101
 30
0.0
 11
-416.6177148506698
 21
503.702397270101
 31
0.0
  0
LINE
  5
166
330
1F
100
AcDbEntity
  8
0-0
  6
JWW_DASHED1
 62
   120
370
     5
100
AcDbLine
 10
-989.6177148506705
 20
516.7023972712007
 30
0.0
 11
-416.6177148506698
 21
516.7023972712007
 31
0.0
  0
LINE
  5
167
330
1F
100
AcDbEntity
  8
0-0
  6
JWW_DASHED1
 62
   120
370
     5
100
AcDbLine
 10
-989.6177148506705
 20
517.7023972711008
 30
0.0
 11
-416.6177148506698
 21
517.7023972711008
 31
0.0
  0
LINE
  5
168
330
1F
100
AcDbEntity
  8
0-0
  6
JWW_DASHED1
 62
   120
370
     5
100
AcDbLine
 10
-989.6177148506705
 20
530.7023972722004
 30
0.0
 11
-416.6177148506698
 21
530.7023972722004
 31
0.0
  0
LINE
  5
169
330
1F
100
AcDbEntity
  8
0-0
  6
JWW_DASHED1
 62
   120
370
     5
100
AcDbLine
 10
-989.6177148506705
 20
531.7023972721006
 30
0.0
 11
-416.6177148506698
 21
531.7023972721006
 31
0.0
  0
LINE
  5
16A
330
1F
100
AcDbEntity
  8
0-0
  6
JWW_DASHED1
 62
   120
370
     5
100
AcDbLine
 10
-989.6177148506705
 20
544.7023972732002
 30
0.0
 11
-416.6177148506698
 21
544.7023972732002
 31
0.0
  0
LINE
  5
16B
330
1F
100
AcDbEntity
  8
0-0
  6
JWW_DASHED1
 62
   120
370
     5
100
AcDbLine
 10
-989.6177148506705
 20
545.7023972731004
 30
0.0
 11
-416.6177148506698
 21
545.7023972731004
 31
0.0
  0
LINE
  5
16C
330
1F
100
AcDbEntity
  8
0-0
  6
JWW_DASHED1
 62
   120
370
     5
100
AcDbLine
 10
-989.6177148506705
 20
558.7023972741999
 30
0.0
 11
-416.6177148506698
 21
558.7023972741999
 31
0.0
  0
LINE
  5
16D
330
1F
100
AcDbEntity
  8
0-0
  6
JWW_DASHED1
 62
   120
370
     5
100
AcDbLine
 10
-989.6177148506705
 20
559.7023972741001
 30
0.0
 11
-416.6177148506698
 21
559.7023972741001
 31
0.0
  0
LINE
  5
16E
330
1F
100
AcDbEntity
  8
0-0
  6
JWW_DASHED1
 62
   120
370
     5
100
AcDbLine
 10
-989.6177148506705
 20
572.7023972751998
 30
0.0
 11
-416.6177148506698
 21
572.7023972751998
 31
0.0
  0
LINE
  5
16F
330
1F
100
AcDbEntity
  8
0-0
  6
JWW_DASHED1
 62
   120
370
     5
100
AcDbLine
 10
-989.6177148506705
 20
573.7023972751
 30
0.0
 11
-416.6177148506698
 21
573.7023972751
 31
0.0
  0
LINE
  5
170
330
1F
100
AcDbEntity
  8
0-0
  6
JWW_DASHED1
 62
   120
370
     5
100
AcDbLine
 10
-989.6177148506705
 20
586.7023972761996
 30
0.0
 11
-416.6177148506698
 21
586.7023972761996
 31
0.0
  0
LINE
  5
171
330
1F
100
AcDbEntity
  8
0-0
  6
JWW_DASHED1
 62
   120
370
     5
100
AcDbLine
 10
-989.6177148506705
 20
587.7023972760995
 30
0.0
 11
-416.6177148506698
 21
587.7023972760995
 31
0.0
  0
LINE
  5
172
330
1F
100
AcDbEntity
  8
0-0
  6
JWW_DASHED1
 62
   120
370
     5
100
AcDbLine
 10
-989.6177148506705
 20
600.7023972771993
 30
0.0
 11
-416.6177148506698
 21
600.7023972771993
 31
0.0
  0
LINE
  5
173
330
1F
100
AcDbEntity
  8
0-0
  6
JWW_DASHED1
 62
   120
370
     5
100
AcDbLine
 10
-989.6177148506705
 20
601.7023972770995
 30
0.0
 11
-416.6177148506698
 21
601.7023972770995
 31
0.0
  0
LINE
  5
174
330
1F
100
AcDbEntity
  8
0-0
  6
JWW_DASHED1
 62
   120
370
     5
100
AcDbLine
 10
-989.6177148506705
 20
614.7023972781992
 30
0.0
 11
-416.6177148506698
 21
614.7023972781992
 31
0.0
  0
LINE
  5
175
330
1F
100
AcDbEntity
  8
0-0
  6
JWW_DASHED1
 62
   120
370
     5
100
AcDbLine
 10
-989.6177148506705
 20
615.7023972780994
 30
0.0
 11
-416.6177148506698
 21
615.7023972780994
 31
0.0
  0
LINE
  5
176
330
1F
100
AcDbEntity
  8
0-0
  6
JWW_DASHED1
 62
   120
370
     5
100
AcDbLine
 10
-902.1988730887067
 20
628.702397279199
 30
0.0
 11
-504.036556612634
 21
628.702397279199
 31
0.0
  0
LINE
  5
177
330
1F
100
AcDbEntity
  8
0-0
  6
JWW_DASHED1
 62
   120
370
     5
100
AcDbLine
 10
-898.6046432173468
 20
629.7023972790992
 30
0.0
 11
-507.6307864839939
 21
629.7023972790992
 31
0.0
  0
LINE
  5
178
330
1F
100
AcDbEntity
  8
0-0
  6
JWW_DASHED1
 62
   120
370
     5
100
AcDbLine
 10
-867.492565749091
 20
642.7023972801987
 30
0.0
 11
-538.7428639522498
 21
642.7023972801987
 31
0.0
  0
LINE
  5
179
330
1F
100
AcDbEntity
  8
0-0
  6
JWW_DASHED1
 62
   120
370
     5
100
AcDbLine
 10
-865.5987657594249
 20
643.7023972800989
 30
0.0
 11
-540.6366639419159
 21
643.7023972800989
 31
0.0
  0
LINE
  5
17A
330
1F
100
AcDbEntity
  8
0-0
  6
JWW_DASHED1
 62
   120
370
     5
100
AcDbLine
 10
-837.9179216671052
 20
656.7023972811985
 30
0.0
 11
-568.3175080342355
 21
656.7023972811985
 31
0.0
  0
LINE
  5
17B
330
1F
100
AcDbEntity
  8
0-0
  6
JWW_DASHED1
 62
   120
370
     5
100
AcDbLine
 10
-835.496323599529
 20
657.7023972810987
 30
0.0
 11
-570.7391061018118
 21
657.7023972810987
 31
0.0
  0
LINE
  5
17C
330
1F
100
AcDbEntity
  8
0-0
  6
JWW_DASHED1
 62
   120
370
     5
100
AcDbLine
 10
-797.622211609161
 20
670.7023972821983
 30
0.0
 11
-608.6132180921797
 21
670.7023972821983
 31
0.0
  0
LINE
  5
17D
330
1F
100
AcDbEntity
  8
0-0
  6
JWW_DASHED1
 62
   120
370
     5
100
AcDbLine
 10
-793.9807997867881
 20
671.7023972820984
 30
0.0
 11
-612.2546299145527
 21
671.7023972820984
 31
0.0
  0
LINE
  5
17E
330
1F
100
AcDbEntity
  8
0-0
  6
JWW_DASHED1
 62
   120
370
     5
100
AcDbLine
 10
-422.6176963527383
 20
-491.2974544869405
 30
0.0
 11
-422.6176963527383
 21
623.702277968751
 31
0.0
  0
LINE
  5
17F
330
1F
100
AcDbEntity
  8
0-0
  6
JWW_DASHED1
 62
   120
370
     5
100
AcDbLine
 10
-423.6176963526385
 20
-491.2974544869405
 30
0.0
 11
-423.6176963526385
 21
623.702277968751
 31
0.0
  0
LINE
  5
180
330
1F
100
AcDbEntity
  8
0-0
  6
JWW_DASHED1
 62
   120
370
     5
100
AcDbLine
 10
-436.6176963537386
 20
-491.2974544869405
 30
0.0
 11
-436.6176963537386
 21
623.702277968751
 31
0.0
  0
LINE
  5
181
330
1F
100
AcDbEntity
  8
0-0
  6
JWW_DASHED1
 62
   120
370
     5
100
AcDbLine
 10
-437.6176963536383
 20
-491.2974544869405
 30
0.0
 11
-437.6176963536383
 21
623.702277968751
 31
0.0
  0
LINE
  5
182
330
1F
100
AcDbEntity
  8
0-0
  6
JWW_DASHED1
 62
   120
370
     5
100
AcDbLine
 10
-450.6176963547384
 20
-491.2974544869405
 30
0.0
 11
-450.6176963547384
 21
623.702277968751
 31
0.0
  0
LINE
  5
183
330
1F
100
AcDbEntity
  8
0-0
  6
JWW_DASHED1
 62
   120
370
     5
100
AcDbLine
 10
-451.6176963546386
 20
-491.2974544869405
 30
0.0
 11
-451.6176963546382
 21
623.702277968751
 31
0.0
  0
LINE
  5
184
330
1F
100
AcDbEntity
  8
0-0
  6
JWW_DASHED1
 62
   120
370
     5
100
AcDbLine
 10
-464.6176963557386
 20
-491.2974544869405
 30
0.0
 11
-464.6176963557382
 21
623.702277968751
 31
0.0
  0
LINE
  5
185
330
1F
100
AcDbEntity
  8
0-0
  6
JWW_DASHED1
 62
   120
370
     5
100
AcDbLine
 10
-465.6176963556384
 20
-491.2974544869405
 30
0.0
 11
-465.6176963556384
 21
623.702277968751
 31
0.0
  0
LINE
  5
186
330
1F
100
AcDbEntity
  8
0-0
  6
JWW_DASHED1
 62
   120
370
     5
100
AcDbLine
 10
-478.6176963567384
 20
-491.2974544869405
 30
0.0
 11
-478.6176963567384
 21
624.2655704739633
 31
0.0
  0
LINE
  5
187
330
1F
100
AcDbEntity
  8
0-0
  6
JWW_DASHED1
 62
   120
370
     5
100
AcDbLine
 10
-479.6176963566386
 20
-491.2974544869405
 30
0.0
 11
-479.6176963566386
 21
624.3558521359961
 31
0.0
  0
LINE
  5
188
330
1F
100
AcDbEntity
  8
0-0
  6
JWW_DASHED1
 62
   120
370
     5
100
AcDbLine
 10
-492.6176963577386
 20
-491.2974544869405
 30
0.0
 11
-492.6176963577386
 21
626.1499665105299
 31
0.0
  0
LINE
  5
189
330
1F
100
AcDbEntity
  8
0-0
  6
JWW_DASHED1
 62
   120
370
     5
100
AcDbLine
 10
-493.6176963576384
 20
-491.2974544869405
 30
0.0
 11
-493.6176963576384
 21
626.3363728929659
 31
0.0
  0
LINE
  5
18A
330
1F
100
AcDbEntity
  8
0-0
  6
JWW_DASHED1
 62
   120
370
     5
100
AcDbLine
 10
-506.6176963587384
 20
-491.2974544869405
 30
0.0
 11
-506.6176963587384
 21
629.4107685637215
 31
0.0
  0
LINE
  5
18B
330
1F
100
AcDbEntity
  8
0-0
  6
JWW_DASHED1
 62
   120
370
     5
100
AcDbLine
 10
-507.6176963586386
 20
-491.2974544869405
 30
0.0
 11
-507.6176963586381
 21
629.6985799311011
 31
0.0
  0
LINE
  5
18C
330
1F
100
AcDbEntity
  8
0-0
  6
JWW_DASHED1
 62
   120
370
     5
100
AcDbLine
 10
-520.6176963597386
 20
-491.2974544869405
 30
0.0
 11
-520.6176963597381
 21
634.1444234565648
 31
0.0
  0
LINE
  5
18D
330
1F
100
AcDbEntity
  8
0-0
  6
JWW_DASHED1
 62
   120
370
     5
100
AcDbLine
 10
-521.6176963596383
 20
-491.2974544869405
 30
0.0
 11
-521.6176963596383
 21
634.5425851040824
 31
0.0
  0
LINE
  5
18E
330
1F
100
AcDbEntity
  8
0-0
  6
JWW_DASHED1
 62
   120
370
     5
100
AcDbLine
 10
-534.6176963607384
 20
-491.2974544869405
 30
0.0
 11
-534.6176963607384
 21
640.5078718337251
 31
0.0
  0
LINE
  5
18F
330
1F
100
AcDbEntity
  8
0-0
  6
JWW_DASHED1
 62
   120
370
     5
100
AcDbLine
 10
-535.6176963606385
 20
-491.2974544869405
 30
0.0
 11
-535.6176963606385
 21
641.0305960325246
 31
0.0
  0
LINE
  5
190
330
1F
100
AcDbEntity
  8
0-0
  6
JWW_DASHED1
 62
   120
370
     5
100
AcDbLine
 10
-548.6176963617381
 20
-491.2974544869405
 30
0.0
 11
-548.6176963617381
 21
647.756273857284
 31
0.0
  0
LINE
  5
191
330
1F
100
AcDbEntity
  8
0-0
  6
JWW_DASHED1
 62
   120
370
     5
100
AcDbLine
 10
-549.6176963616383
 20
-491.2974544869405
 30
0.0
 11
-549.6176963616383
 21
648.2462536425908
 31
0.0
  0
LINE
  5
192
330
1F
100
AcDbEntity
  8
0-0
  6
JWW_DASHED1
 62
   120
370
     5
100
AcDbLine
 10
-562.617696362738
 20
-491.2974544869405
 30
0.0
 11
-562.617696362738
 21
654.2641539519161
 31
0.0
  0
LINE
  5
193
330
1F
100
AcDbEntity
  8
0-0
  6
JWW_DASHED1
 62
   120
370
     5
100
AcDbLine
 10
-563.6176963626382
 20
-491.2974544869405
 30
0.0
 11
-563.6176963626382
 21
654.7005904320929
 31
0.0
  0
LINE
  5
194
330
1F
100
AcDbEntity
  8
0-0
  6
JWW_DASHED1
 62
   120
370
     5
100
AcDbLine
 10
-576.6176963637382
 20
-491.2974544869405
 30
0.0
 11
-576.6176963637382
 21
660.0424684811503
 31
0.0
  0
LINE
  5
195
330
1F
100
AcDbEntity
  8
0-0
  6
JWW_DASHED1
 62
   120
370
     5
100
AcDbLine
 10
-577.6176963636384
 20
-491.2974544869405
 30
0.0
 11
-577.6176963636384
 21
660.4283408824256
 31
0.0
  0
LINE
  5
196
330
1F
100
AcDbEntity
  8
0-0
  6
JWW_DASHED1
 62
   120
370
     5
100
AcDbLine
 10
-590.6176963647384
 20
-491.2974544869405
 30
0.0
 11
-590.6176963647384
 21
665.1293788272221
 31
0.0
  0
LINE
  5
197
330
1F
100
AcDbEntity
  8
0-0
  6
JWW_DASHED1
 62
   120
370
     5
100
AcDbLine
 10
-591.6176963646386
 20
-491.2974544869405
 30
0.0
 11
-591.6176963646386
 21
665.467139581832
 31
0.0
  0
LINE
  5
198
330
1F
100
AcDbEntity
  8
0-0
  6
JWW_DASHED1
 62
   120
370
     5
100
AcDbLine
 10
-604.6176963657382
 20
-491.2974544869405
 30
0.0
 11
-604.6176963657382
 21
669.5563029112407
 31
0.0
  0
LINE
  5
199
330
1F
100
AcDbEntity
  8
0-0
  6
JWW_DASHED1
 62
   120
370
     5
100
AcDbLine
 10
-605.6176963656384
 20
-491.2974544869405
 30
0.0
 11
-605.6176963656384
 21
669.847969987967
 31
0.0
  0
LINE
  5
19A
330
1F
100
AcDbEntity
  8
0-0
  6
JWW_DASHED1
 62
   120
370
     5
100
AcDbLine
 10
-618.617696366738
 20
-491.2974544869405
 30
0.0
 11
-618.617696366738
 21
673.3490483306184
 31
0.0
  0
LINE
  5
19B
330
1F
100
AcDbEntity
  8
0-0
  6
JWW_DASHED1
 62
   120
370
     5
100
AcDbLine
 10
-619.6176963666381
 20
-491.2974544869405
 30
0.0
 11
-619.6176963666381
 21
673.5962743654079
 31
0.0
  0
LINE
  5
19C
330
1F
100
AcDbEntity
  8
0-0
  6
JWW_DASHED1
 62
   120
370
     5
100
AcDbLine
 10
-632.6176963677382
 20
-491.2974544869405
 30
0.0
 11
-632.6176963677382
 21
676.5286638207351
 31
0.0
  0
LINE
  5
19D
330
1F
100
AcDbEntity
  8
0-0
  6
JWW_DASHED1
 62
   120
370
     5
100
AcDbLine
 10
-633.6176963676384
 20
-491.2974544869405
 30
0.0
 11
-633.6176963676384
 21
676.7327882480993
 31
0.0
  0
LINE
  5
19E
330
1F
100
AcDbEntity
  8
0-0
  6
JWW_DASHED1
 62
   120
370
     5
100
AcDbLine
 10
-646.6176963687384
 20
-491.2974544869405
 30
0.0
 11
-646.6176963687384
 21
679.1120820223284
 31
0.0
  0
LINE
  5
19F
330
1F
100
AcDbEntity
  8
0-0
  6
JWW_DASHED1
 62
   120
370
     5
100
AcDbLine
 10
-647.6176963686386
 20
-491.2974544869405
 30
0.0
 11
-647.6176963686386
 21
679.2741704311072
 31
0.0
  0
LINE
  5
1A0
330
1F
100
AcDbEntity
  8
0-0
  6
JWW_DASHED1
 62
   120
370
     5
100
AcDbLine
 10
-660.6176963697383
 20
-491.2974544869405
 30
0.0
 11
-660.6176963697383
 21
681.1126035556106
 31
0.0
  0
LINE
  5
1A1
330
1F
100
AcDbEntity
  8
0-0
  6
JWW_DASHED1
 62
   120
370
     5
100
AcDbLine
 10
-661.6176963696385
 20
-491.2974544869405
 30
0.0
 11
-661.6176963696385
 21
681.2334771811027
 31
0.0
  0
LINE
  5
1A2
330
1F
100
AcDbEntity
  8
0-0
  6
JWW_DASHED1
 62
   120
370
     5
100
AcDbLine
 10
-674.617696370738
 20
-491.2974544869405
 30
0.0
 11
-674.617696370738
 21
682.5402569873756
 31
0.0
  0
LINE
  5
1A3
330
1F
100
AcDbEntity
  8
0-0
  6
JWW_DASHED1
 62
   120
370
     5
100
AcDbLine
 10
-675.6176963706382
 20
-491.2974544869405
 30
0.0
 11
-675.6176963706382
 21
682.6205143590221
 31
0.0
  0
LINE
  5
1A4
330
1F
100
AcDbEntity
  8
0-0
  6
JWW_DASHED1
 62
   120
370
     5
100
AcDbLine
 10
-688.6176963717382
 20
-491.2974544869405
 30
0.0
 11
-688.6176963717382
 21
683.4020586155373
 31
0.0
  0
LINE
  5
1A5
330
1F
100
AcDbEntity
  8
0-0
  6
JWW_DASHED1
 62
   120
370
     5
100
AcDbLine
 10
-689.6176963716384
 20
-491.2974544869405
 30
0.0
 11
-689.6176963716384
 21
683.4420907478659
 31
0.0
  0
LINE
  5
1A6
330
1F
100
AcDbEntity
  8
0-0
  6
JWW_DASHED1
 62
   120
370
     5
100
AcDbLine
 10
-702.6176963727385
 20
-491.2974544869405
 30
0.0
 11
-702.6176963727385
 21
683.7021883436125
 31
0.0
  0
LINE
  5
1A7
330
1F
100
AcDbEntity
  8
0-0
  6
JWW_DASHED1
 62
   120
370
     5
100
AcDbLine
 10
-703.6176963726386
 20
-491.2974544869405
 30
0.0
 11
-703.6176963726386
 21
683.702188396436
 31
0.0
  0
LINE
  5
1A8
330
1F
100
AcDbEntity
  8
0-0
  6
JWW_DASHED1
 62
   120
370
     5
100
AcDbLine
 10
-716.6176963737387
 20
-491.2974544869405
 30
0.0
 11
-716.6176963737387
 21
683.442092174372
 31
0.0
  0
LINE
  5
1A9
330
1F
100
AcDbEntity
  8
0-0
  6
JWW_DASHED1
 62
   120
370
     5
100
AcDbLine
 10
-717.6176963736389
 20
-491.2974544869405
 30
0.0
 11
-717.6176963736389
 21
683.4020601479085
 31
0.0
  0
LINE
  5
1AA
330
1F
100
AcDbEntity
  8
0-0
  6
JWW_DASHED1
 62
   120
370
     5
100
AcDbLine
 10
-730.617696374738
 20
-491.2974544869405
 30
0.0
 11
-730.617696374738
 21
682.6205172717334
 31
0.0
  0
LINE
  5
1AB
330
1F
100
AcDbEntity
  8
0-0
  6
JWW_DASHED1
 62
   120
370
     5
100
AcDbLine
 10
-731.6176963746382
 20
-491.2974544869405
 30
0.0
 11
-731.6176963746382
 21
682.5402600066616
 31
0.0
  0
LINE
  5
1AC
330
1F
100
AcDbEntity
  8
0-0
  6
JWW_DASHED1
 62
   120
370
     5
100
AcDbLine
 10
-744.6176963757382
 20
-491.2974544869405
 30
0.0
 11
-744.6176963757382
 21
681.2334815941529
 31
0.0
  0
LINE
  5
1AD
330
1F
100
AcDbEntity
  8
0-0
  6
JWW_DASHED1
 62
   120
370
     5
100
AcDbLine
 10
-745.6176963756384
 20
-491.2974544869405
 30
0.0
 11
-745.6176963756384
 21
681.112608076545
 31
0.0
  0
LINE
  5
1AE
330
1F
100
AcDbEntity
  8
0-0
  6
JWW_DASHED1
 62
   120
370
     5
100
AcDbLine
 10
-758.6176963767384
 20
-491.2974544869405
 30
0.0
 11
-758.6176963767384
 21
679.2741763663787
 31
0.0
  0
LINE
  5
1AF
330
1F
100
AcDbEntity
  8
0-0
  6
JWW_DASHED1
 62
   120
370
     5
100
AcDbLine
 10
-759.6176963766386
 20
-491.2974544869405
 30
0.0
 11
-759.6176963766386
 21
679.1120880673395
 31
0.0
  0
LINE
  5
1B0
330
1F
100
AcDbEntity
  8
0-0
  6
JWW_DASHED1
 62
   120
370
     5
100
AcDbLine
 10
-772.6176963777378
 20
-491.2974544869405
 30
0.0
 11
-772.6176963777378
 21
676.7327957356054
 31
0.0
  0
LINE
  5
1B1
330
1F
100
AcDbEntity
  8
0-0
  6
JWW_DASHED1
 62
   120
370
     5
100
AcDbLine
 10
-773.617696377638
 20
-491.2974544869405
 30
0.0
 11
-773.617696377638
 21
676.528671420491
 31
0.0
  0
LINE
  5
1B2
330
1F
100
AcDbEntity
  8
0-0
  6
JWW_DASHED1
 62
   120
370
     5
100
AcDbLine
 10
-786.6176963787381
 20
-491.2974544869405
 30
0.0
 11
-786.6176963787381
 21
673.5962834442205
 31
0.0
  0
LINE
  5
1B3
330
1F
100
AcDbEntity
  8
0-0
  6
JWW_DASHED1
 62
   120
370
     5
100
AcDbLine
 10
-787.6176963786382
 20
-491.2974544869405
 30
0.0
 11
-787.6176963786382
 21
673.3490575248459
 31
0.0
  0
LINE
  5
1B4
330
1F
100
AcDbEntity
  8
0-0
  6
JWW_DASHED1
 62
   120
370
     5
100
AcDbLine
 10
-800.6176963797383
 20
-491.2974544869405
 30
0.0
 11
-800.6176963797383
 21
669.8479807071442
 31
0.0
  0
LINE
  5
1B5
330
1F
100
AcDbEntity
  8
0-0
  6
JWW_DASHED1
 62
   120
370
     5
100
AcDbLine
 10
-801.6176963796385
 20
-491.2974544869405
 30
0.0
 11
-801.6176963796385
 21
669.5563137497618
 31
0.0
  0
LINE
  5
1B6
330
1F
100
AcDbEntity
  8
0-0
  6
JWW_DASHED1
 62
   120
370
     5
100
AcDbLine
 10
-814.6176963807385
 20
-491.2974544869405
 30
0.0
 11
-814.6176963807385
 21
665.4671520020554
 31
0.0
  0
LINE
  5
1B7
330
1F
100
AcDbEntity
  8
0-0
  6
JWW_DASHED1
 62
   120
370
     5
100
AcDbLine
 10
-815.6176963806387
 20
-491.2974544869405
 30
0.0
 11
-815.6176963806387
 21
665.1293913716461
 31
0.0
  0
LINE
  5
1B8
330
1F
100
AcDbEntity
  8
0-0
  6
JWW_DASHED1
 62
   120
370
     5
100
AcDbLine
 10
-828.6176963817387
 20
-491.2974544869405
 30
0.0
 11
-828.6176963817387
 21
660.4283550777461
 31
0.0
  0
LINE
  5
1B9
330
1F
100
AcDbEntity
  8
0-0
  6
JWW_DASHED1
 62
   120
370
     5
100
AcDbLine
 10
-829.6176963816389
 20
-491.2974544869405
 30
0.0
 11
-829.6176963816389
 21
660.0424828064558
 31
0.0
  0
LINE
  5
1BA
330
1F
100
AcDbEntity
  8
0-0
  6
JWW_DASHED1
 62
   120
370
     5
100
AcDbLine
 10
-842.617696382738
 20
-491.2974544869405
 30
0.0
 11
-842.617696382738
 21
654.700606492496
 31
0.0
  0
LINE
  5
1BB
330
1F
100
AcDbEntity
  8
0-0
  6
JWW_DASHED1
 62
   120
370
     5
100
AcDbLine
 10
-843.6176963826382
 20
-491.2974544869405
 30
0.0
 11
-843.6176963826382
 21
654.2641701494529
 31
0.0
  0
LINE
  5
1BC
330
1F
100
AcDbEntity
  8
0-0
  6
JWW_DASHED1
 62
   120
370
     5
100
AcDbLine
 10
-856.6176963837382
 20
-491.2974544869405
 30
0.0
 11
-856.6176963837382
 21
648.2462716773796
 31
0.0
  0
LINE
  5
1BD
330
1F
100
AcDbEntity
  8
0-0
  6
JWW_DASHED1
 62
   120
370
     5
100
AcDbLine
 10
-857.6176963836384
 20
-491.2974544869405
 30
0.0
 11
-857.6176963836384
 21
647.7562920379376
 31
0.0
  0
LINE
  5
1BE
330
1F
100
AcDbEntity
  8
0-0
  6
JWW_DASHED1
 62
   120
370
     5
100
AcDbLine
 10
-870.6176963847385
 20
-491.2974544869405
 30
0.0
 11
-870.6176963847385
 21
641.0306155275981
 31
0.0
  0
LINE
  5
1BF
330
1F
100
AcDbEntity
  8
0-0
  6
JWW_DASHED1
 62
   120
370
     5
100
AcDbLine
 10
-871.6176963846386
 20
-491.2974544869405
 30
0.0
 11
-871.6176963846386
 21
640.5078909749142
 31
0.0
  0
LINE
  5
1C0
330
1F
100
AcDbEntity
  8
0-0
  6
JWW_DASHED1
 62
   120
370
     5
100
AcDbLine
 10
-884.6176963857379
 20
-491.2974544869405
 30
0.0
 11
-884.6176963857379
 21
634.5425999724108
 31
0.0
  0
LINE
  5
1C1
330
1F
100
AcDbEntity
  8
0-0
  6
JWW_DASHED1
 62
   120
370
     5
100
AcDbLine
 10
-885.617696385638
 20
-491.2974544869405
 30
0.0
 11
-885.617696385638
 21
634.1444380176114
 31
0.0
  0
LINE
  5
1C2
330
1F
100
AcDbEntity
  8
0-0
  6
JWW_DASHED1
 62
   120
370
     5
100
AcDbLine
 10
-898.6176963867381
 20
-491.2974544869405
 30
0.0
 11
-898.6176963867381
 21
629.698590706376
 31
0.0
  0
LINE
  5
1C3
330
1F
100
AcDbEntity
  8
0-0
  6
JWW_DASHED1
 62
   120
370
     5
100
AcDbLine
 10
-899.6176963866383
 20
-491.2974544869405
 30
0.0
 11
-899.6176963866383
 21
629.4107790614004
 31
0.0
  0
LINE
  5
1C4
330
1F
100
AcDbEntity
  8
0-0
  6
JWW_DASHED1
 62
   120
370
     5
100
AcDbLine
 10
-912.6176963877383
 20
-491.2974544869405
 30
0.0
 11
-912.6176963877383
 21
626.3363799115547
 31
0.0
  0
LINE
  5
1C5
330
1F
100
AcDbEntity
  8
0-0
  6
JWW_DASHED1
 62
   120
370
     5
100
AcDbLine
 10
-913.6176963876385
 20
-491.2974544869405
 30
0.0
 11
-913.6176963876385
 21
626.1499732698036
 31
0.0
  0
LINE
  5
1C6
330
1F
100
AcDbEntity
  8
0-0
  6
JWW_DASHED1
 62
   120
370
     5
100
AcDbLine
 10
-926.6176963887385
 20
-491.2974544869405
 30
0.0
 11
-926.6176963887385
 21
624.3558555971873
 31
0.0
  0
LINE
  5
1C7
330
1F
100
AcDbEntity
  8
0-0
  6
JWW_DASHED1
 62
   120
370
     5
100
AcDbLine
 10
-927.6176963886387
 20
-491.2974544869405
 30
0.0
 11
-927.6176963886387
 21
624.2655736857165
 31
0.0
  0
LINE
  5
1C8
330
1F
100
AcDbEntity
  8
0-0
  6
JWW_DASHED1
 62
   120
370
     5
100
AcDbLine
 10
-940.6176963897387
 20
-491.2974544869405
 30
0.0
 11
-940.6176963897387
 21
623.702277968751
 31
0.0
  0
LINE
  5
1C9
330
1F
100
AcDbEntity
  8
0-0
  6
JWW_DASHED1
 62
   120
370
     5
100
AcDbLine
 10
-941.6176963896389
 20
-491.2974544869405
 30
0.0
 11
-941.6176963896389
 21
623.702277968751
 31
0.0
  0
LINE
  5
1CA
330
1F
100
AcDbEntity
  8
0-0
  6
JWW_DASHED1
 62
   120
370
     5
100
AcDbLine
 10
-954.617696390738
 20
-491.2974544869405
 30
0.0
 11
-954.617696390738
 21
623.702277968751
 31
0.0
  0
LINE
  5
1CB
330
1F
100
AcDbEntity
  8
0-0
  6
JWW_DASHED1
 62
   120
370
     5
100
AcDbLine
 10
-955.6176963906382
 20
-491.2974544869405
 30
0.0
 11
-955.6176963906382
 21
623.702277968751
 31
0.0
  0
LINE
  5
1CC
330
1F
100
AcDbEntity
  8
0-0
  6
JWW_DASHED1
 62
   120
370
     5
100
AcDbLine
 10
-968.6176963917383
 20
-491.2974544869405
 30
0.0
 11
-968.6176963917383
 21
623.702277968751
 31
0.0
  0
LINE
  5
1CD
330
1F
100
AcDbEntity
  8
0-0
  6
JWW_DASHED1
 62
   120
370
     5
100
AcDbLine
 10
-969.6176963916384
 20
-491.2974544869405
 30
0.0
 11
-969.6176963916384
 21
623.702277968751
 31
0.0
  0
LINE
  5
1CE
330
1F
100
AcDbEntity
  8
0-0
  6
JWW_DASHED1
 62
   120
370
     5
100
AcDbLine
 10
-982.6176963927385
 20
-491.2974544869405
 30
0.0
 11
-982.6176963927385
 21
623.702277968751
 31
0.0
  0
LINE
  5
1CF
330
1F
100
AcDbEntity
  8
0-0
  6
JWW_DASHED1
 62
   120
370
     5
100
AcDbLine
 10
-983.6176963926387
 20
-491.2974544869405
 30
0.0
 11
-983.6176963926387
 21
623.702277968751
 31
0.0
  0
LINE
  5
1D0
330
1F
100
AcDbEntity
  8
0-0
  6
JWW_DASHED1
 62
   120
370
     5
100
AcDbLine
 10
-257.6177148506695
 20
-490.2976028008841
 30
0.0
 11
315.3822851493312
 21
-490.2976028008841
 31
0.0
  0
LINE
  5
1D1
330
1F
100
AcDbEntity
  8
0-0
  6
JWW_DASHED1
 62
   120
370
     5
100
AcDbLine
 10
-257.6177148506695
 20
-477.2976027997845
 30
0.0
 11
315.3822851493312
 21
-477.2976027997845
 31
0.0
  0
LINE
  5
1D2
330
1F
100
AcDbEntity
  8
0-0
  6
JWW_DASHED1
 62
   120
370
     5
100
AcDbLine
 10
-257.6177148506695
 20
-476.2976027998843
 30
0.0
 11
315.3822851493312
 21
-476.2976027998843
 31
0.0
  0
LINE
  5
1D3
330
1F
100
AcDbEntity
  8
0-0
  6
JWW_DASHED1
 62
   120
370
     5
100
AcDbLine
 10
-257.6177148506695
 20
-463.2976027987847
 30
0.0
 11
315.3822851493312
 21
-463.2976027987847
 31
0.0
  0
LINE
  5
1D4
330
1F
100
AcDbEntity
  8
0-0
  6
JWW_DASHED1
 62
   120
370
     5
100
AcDbLine
 10
-257.6177148506695
 20
-462.2976027988846
 30
0.0
 11
315.3822851493312
 21
-462.2976027988846
 31
0.0
  0
LINE
  5
1D5
330
1F
100
AcDbEntity
  8
0-0
  6
JWW_DASHED1
 62
   120
370
     5
100
AcDbLine
 10
-257.6177148506695
 20
-449.2976027977849
 30
0.0
 11
315.3822851493312
 21
-449.2976027977849
 31
0.0
  0
LINE
  5
1D6
330
1F
100
AcDbEntity
  8
0-0
  6
JWW_DASHED1
 62
   120
370
     5
100
AcDbLine
 10
-257.6177148506695
 20
-448.2976027978847
 30
0.0
 11
315.3822851493312
 21
-448.2976027978847
 31
0.0
  0
LINE
  5
1D7
330
1F
100
AcDbEntity
  8
0-0
  6
JWW_DASHED1
 62
   120
370
     5
100
AcDbLine
 10
-257.6177148506695
 20
-435.2976027967851
 30
0.0
 11
315.3822851493312
 21
-435.2976027967851
 31
0.0
  0
LINE
  5
1D8
330
1F
100
AcDbEntity
  8
0-0
  6
JWW_DASHED1
 62
   120
370
     5
100
AcDbLine
 10
-257.6177148506695
 20
-434.2976027968849
 30
0.0
 11
315.3822851493312
 21
-434.2976027968849
 31
0.0
  0
LINE
  5
1D9
330
1F
100
AcDbEntity
  8
0-0
  6
JWW_DASHED1
 62
   120
370
     5
100
AcDbLine
 10
-257.6177148506695
 20
-421.2976027957853
 30
0.0
 11
315.3822851493312
 21
-421.2976027957853
 31
0.0
  0
LINE
  5
1DA
330
1F
100
AcDbEntity
  8
0-0
  6
JWW_DASHED1
 62
   120
370
     5
100
AcDbLine
 10
-257.6177148506695
 20
-420.2976027958852
 30
0.0
 11
315.3822851493312
 21
-420.2976027958852
 31
0.0
  0
LINE
  5
1DB
330
1F
100
AcDbEntity
  8
0-0
  6
JWW_DASHED1
 62
   120
370
     5
100
AcDbLine
 10
-257.6177148506695
 20
-407.2976027947856
 30
0.0
 11
315.3822851493312
 21
-407.2976027947856
 31
0.0
  0
LINE
  5
1DC
330
1F
100
AcDbEntity
  8
0-0
  6
JWW_DASHED1
 62
   120
370
     5
100
AcDbLine
 10
-257.6177148506695
 20
-406.2976027948854
 30
0.0
 11
315.3822851493312
 21
-406.2976027948854
 31
0.0
  0
LINE
  5
1DD
330
1F
100
AcDbEntity
  8
0-0
  6
JWW_DASHED1
 62
   120
370
     5
100
AcDbLine
 10
-257.6177148506695
 20
-393.2976027937858
 30
0.0
 11
315.3822851493312
 21
-393.2976027937858
 31
0.0
  0
LINE
  5
1DE
330
1F
100
AcDbEntity
  8
0-0
  6
JWW_DASHED1
 62
   120
370
     5
100
AcDbLine
 10
-257.6177148506695
 20
-392.2976027938856
 30
0.0
 11
315.3822851493312
 21
-392.2976027938856
 31
0.0
  0
LINE
  5
1DF
330
1F
100
AcDbEntity
  8
0-0
  6
JWW_DASHED1
 62
   120
370
     5
100
AcDbLine
 10
-257.6177148506695
 20
-379.2976027927859
 30
0.0
 11
315.3822851493312
 21
-379.2976027927859
 31
0.0
  0
LINE
  5
1E0
330
1F
100
AcDbEntity
  8
0-0
  6
JWW_DASHED1
 62
   120
370
     5
100
AcDbLine
 10
-257.6177148506695
 20
-378.2976027928858
 30
0.0
 11
315.3822851493312
 21
-378.2976027928858
 31
0.0
  0
LINE
  5
1E1
330
1F
100
AcDbEntity
  8
0-0
  6
JWW_DASHED1
 62
   120
370
     5
100
AcDbLine
 10
-257.6177148506695
 20
-365.2976027917862
 30
0.0
 11
315.3822851493312
 21
-365.2976027917862
 31
0.0
  0
LINE
  5
1E2
330
1F
100
AcDbEntity
  8
0-0
  6
JWW_DASHED1
 62
   120
370
     5
100
AcDbLine
 10
-257.6177148506695
 20
-364.297602791886
 30
0.0
 11
315.3822851493312
 21
-364.297602791886
 31
0.0
  0
LINE
  5
1E3
330
1F
100
AcDbEntity
  8
0-0
  6
JWW_DASHED1
 62
   120
370
     5
100
AcDbLine
 10
-257.6177148506695
 20
-351.2976027907864
 30
0.0
 11
315.3822851493312
 21
-351.2976027907864
 31
0.0
  0
LINE
  5
1E4
330
1F
100
AcDbEntity
  8
0-0
  6
JWW_DASHED1
 62
   120
370
     5
100
AcDbLine
 10
-257.6177148506695
 20
-350.2976027908862
 30
0.0
 11
315.3822851493312
 21
-350.2976027908862
 31
0.0
  0
LINE
  5
1E5
330
1F
100
AcDbEntity
  8
0-0
  6
JWW_DASHED1
 62
   120
370
     5
100
AcDbLine
 10
-257.6177148506695
 20
-337.2976027897866
 30
0.0
 11
315.3822851493312
 21
-337.2976027897866
 31
0.0
  0
LINE
  5
1E6
330
1F
100
AcDbEntity
  8
0-0
  6
JWW_DASHED1
 62
   120
370
     5
100
AcDbLine
 10
-257.6177148506695
 20
-336.2976027898864
 30
0.0
 11
315.3822851493312
 21
-336.2976027898864
 31
0.0
  0
LINE
  5
1E7
330
1F
100
AcDbEntity
  8
0-0
  6
JWW_DASHED1
 62
   120
370
     5
100
AcDbLine
 10
-257.6177148506695
 20
-323.2976027887868
 30
0.0
 11
315.3822851493312
 21
-323.2976027887868
 31
0.0
  0
LINE
  5
1E8
330
1F
100
AcDbEntity
  8
0-0
  6
JWW_DASHED1
 62
   120
370
     5
100
AcDbLine
 10
-257.6177148506695
 20
-322.2976027888866
 30
0.0
 11
315.3822851493312
 21
-322.2976027888866
 31
0.0
  0
LINE
  5
1E9
330
1F
100
AcDbEntity
  8
0-0
  6
JWW_DASHED1
 62
   120
370
     5
100
AcDbLine
 10
-257.6177148506695
 20
-309.297602787787
 30
0.0
 11
315.3822851493312
 21
-309.297602787787
 31
0.0
  0
LINE
  5
1EA
330
1F
100
AcDbEntity
  8
0-0
  6
JWW_DASHED1
 62
   120
370
     5
100
AcDbLine
 10
-257.6177148506695
 20
-308.2976027878868
 30
0.0
 11
315.3822851493312
 21
-308.2976027878868
 31
0.0
  0
LINE
  5
1EB
330
1F
100
AcDbEntity
  8
0-0
  6
JWW_DASHED1
 62
   120
370
     5
100
AcDbLine
 10
-257.6177148506695
 20
-295.2976027867873
 30
0.0
 11
315.3822851493312
 21
-295.2976027867873
 31
0.0
  0
LINE
  5
1EC
330
1F
100
AcDbEntity
  8
0-0
  6
JWW_DASHED1
 62
   120
370
     5
100
AcDbLine
 10
-257.6177148506695
 20
-294.2976027868871
 30
0.0
 11
315.3822851493312
 21
-294.2976027868871
 31
0.0
  0
LINE
  5
1ED
330
1F
100
AcDbEntity
  8
0-0
  6
JWW_DASHED1
 62
   120
370
     5
100
AcDbLine
 10
-257.6177148506695
 20
-281.2976027857874
 30
0.0
 11
315.3822851493312
 21
-281.2976027857874
 31
0.0
  0
LINE
  5
1EE
330
1F
100
AcDbEntity
  8
0-0
  6
JWW_DASHED1
 62
   120
370
     5
100
AcDbLine
 10
-257.6177148506695
 20
-280.2976027858872
 30
0.0
 11
315.3822851493312
 21
-280.2976027858872
 31
0.0
  0
LINE
  5
1EF
330
1F
100
AcDbEntity
  8
0-0
  6
JWW_DASHED1
 62
   120
370
     5
100
AcDbLine
 10
-257.6177148506695
 20
-267.2976027847876
 30
0.0
 11
315.3822851493312
 21
-267.2976027847876
 31
0.0
  0
LINE
  5
1F0
330
1F
100
AcDbEntity
  8
0-0
  6
JWW_DASHED1
 62
   120
370
     5
100
AcDbLine
 10
-257.6177148506695
 20
-266.2976027848874
 30
0.0
 11
315.3822851493312
 21
-266.2976027848874
 31
0.0
  0
LINE
  5
1F1
330
1F
100
AcDbEntity
  8
0-0
  6
JWW_DASHED1
 62
   120
370
     5
100
AcDbLine
 10
-257.6177148506695
 20
-253.2976027837879
 30
0.0
 11
315.3822851493312
 21
-253.2976027837879
 31
0.0
  0
LINE
  5
1F2
330
1F
100
AcDbEntity
  8
0-0
  6
JWW_DASHED1
 62
   120
370
     5
100
AcDbLine
 10
-257.6177148506695
 20
-252.2976027838877
 30
0.0
 11
315.3822851493312
 21
-252.2976027838877
 31
0.0
  0
LINE
  5
1F3
330
1F
100
AcDbEntity
  8
0-0
  6
JWW_DASHED1
 62
   120
370
     5
100
AcDbLine
 10
-257.6177148506695
 20
-239.2976027827881
 30
0.0
 11
315.3822851493312
 21
-239.2976027827881
 31
0.0
  0
LINE
  5
1F4
330
1F
100
AcDbEntity
  8
0-0
  6
JWW_DASHED1
 62
   120
370
     5
100
AcDbLine
 10
-257.6177148506695
 20
-238.2976027828879
 30
0.0
 11
315.3822851493312
 21
-238.2976027828879
 31
0.0
  0
LINE
  5
1F5
330
1F
100
AcDbEntity
  8
0-0
  6
JWW_DASHED1
 62
   120
370
     5
100
AcDbLine
 10
-257.6177148506695
 20
-225.2976027817883
 30
0.0
 11
315.3822851493312
 21
-225.2976027817883
 31
0.0
  0
LINE
  5
1F6
330
1F
100
AcDbEntity
  8
0-0
  6
JWW_DASHED1
 62
   120
370
     5
100
AcDbLine
 10
-257.6177148506695
 20
-224.2976027818881
 30
0.0
 11
315.3822851493312
 21
-224.2976027818881
 31
0.0
  0
LINE
  5
1F7
330
1F
100
AcDbEntity
  8
0-0
  6
JWW_DASHED1
 62
   120
370
     5
100
AcDbLine
 10
-257.6177148506695
 20
-211.2976027807885
 30
0.0
 11
315.3822851493312
 21
-211.2976027807885
 31
0.0
  0
LINE
  5
1F8
330
1F
100
AcDbEntity
  8
0-0
  6
JWW_DASHED1
 62
   120
370
     5
100
AcDbLine
 10
-257.6177148506695
 20
-210.2976027808883
 30
0.0
 11
315.3822851493312
 21
-210.2976027808883
 31
0.0
  0
LINE
  5
1F9
330
1F
100
AcDbEntity
  8
0-0
  6
JWW_DASHED1
 62
   120
370
     5
100
AcDbLine
 10
-257.6177148506695
 20
-197.2976027797887
 30
0.0
 11
315.3822851493312
 21
-197.2976027797887
 31
0.0
  0
LINE
  5
1FA
330
1F
100
AcDbEntity
  8
0-0
  6
JWW_DASHED1
 62
   120
370
     5
100
AcDbLine
 10
-257.6177148506695
 20
-196.2976027798885
 30
0.0
 11
315.3822851493312
 21
-196.2976027798885
 31
0.0
  0
LINE
  5
1FB
330
1F
100
AcDbEntity
  8
0-0
  6
JWW_DASHED1
 62
   120
370
     5
100
AcDbLine
 10
-257.6177148506695
 20
-183.2976027787889
 30
0.0
 11
315.3822851493312
 21
-183.2976027787889
 31
0.0
  0
LINE
  5
1FC
330
1F
100
AcDbEntity
  8
0-0
  6
JWW_DASHED1
 62
   120
370
     5
100
AcDbLine
 10
-257.6177148506695
 20
-182.2976027788887
 30
0.0
 11
315.3822851493312
 21
-182.2976027788887
 31
0.0
  0
LINE
  5
1FD
330
1F
100
AcDbEntity
  8
0-0
  6
JWW_DASHED1
 62
   120
370
     5
100
AcDbLine
 10
-257.6177148506695
 20
-169.2976027777891
 30
0.0
 11
315.3822851493312
 21
-169.2976027777891
 31
0.0
  0
LINE
  5
1FE
330
1F
100
AcDbEntity
  8
0-0
  6
JWW_DASHED1
 62
   120
370
     5
100
AcDbLine
 10
-257.6177148506695
 20
-168.2976027778889
 30
0.0
 11
315.3822851493312
 21
-168.2976027778889
 31
0.0
  0
LINE
  5
1FF
330
1F
100
AcDbEntity
  8
0-0
  6
JWW_DASHED1
 62
   120
370
     5
100
AcDbLine
 10
-257.6177148506695
 20
-155.2976027767893
 30
0.0
 11
315.3822851493312
 21
-155.2976027767893
 31
0.0
  0
LINE
  5
200
330
1F
100
AcDbEntity
  8
0-0
  6
JWW_DASHED1
 62
   120
370
     5
100
AcDbLine
 10
-257.6177148506695
 20
-154.2976027768891
 30
0.0
 11
315.3822851493312
 21
-154.2976027768891
 31
0.0
  0
LINE
  5
201
330
1F
100
AcDbEntity
  8
0-0
  6
JWW_DASHED1
 62
   120
370
     5
100
AcDbLine
 10
-257.6177148506695
 20
-141.2976027757895
 30
0.0
 11
315.3822851493312
 21
-141.2976027757895
 31
0.0
  0
LINE
  5
202
330
1F
100
AcDbEntity
  8
0-0
  6
JWW_DASHED1
 62
   120
370
     5
100
AcDbLine
 10
-257.6177148506695
 20
-140.2976027758893
 30
0.0
 11
315.3822851493312
 21
-140.2976027758893
 31
0.0
  0
LINE
  5
203
330
1F
100
AcDbEntity
  8
0-0
  6
JWW_DASHED1
 62
   120
370
     5
100
AcDbLine
 10
-257.6177148506695
 20
-127.2976027747897
 30
0.0
 11
315.3822851493312
 21
-127.2976027747897
 31
0.0
  0
LINE
  5
204
330
1F
100
AcDbEntity
  8
0-0
  6
JWW_DASHED1
 62
   120
370
     5
100
AcDbLine
 10
-257.6177148506695
 20
-126.2976027748896
 30
0.0
 11
315.3822851493312
 21
-126.2976027748896
 31
0.0
  0
LINE
  5
205
330
1F
100
AcDbEntity
  8
0-0
  6
JWW_DASHED1
 62
   120
370
     5
100
AcDbLine
 10
-257.6177148506695
 20
-113.2976027737899
 30
0.0
 11
315.3822851493312
 21
-113.2976027737899
 31
0.0
  0
LINE
  5
206
330
1F
100
AcDbEntity
  8
0-0
  6
JWW_DASHED1
 62
   120
370
     5
100
AcDbLine
 10
-257.6177148506695
 20
-112.2976027738898
 30
0.0
 11
315.3822851493312
 21
-112.2976027738898
 31
0.0
  0
LINE
  5
207
330
1F
100
AcDbEntity
  8
0-0
  6
JWW_DASHED1
 62
   120
370
     5
100
AcDbLine
 10
-257.6177148506695
 20
-99.29760277279016
 30
0.0
 11
315.3822851493312
 21
-99.29760277279016
 31
0.0
  0
LINE
  5
208
330
1F
100
AcDbEntity
  8
0-0
  6
JWW_DASHED1
 62
   120
370
     5
100
AcDbLine
 10
-257.6177148506695
 20
-98.29760277288997
 30
0.0
 11
315.3822851493312
 21
-98.29760277288997
 31
0.0
  0
LINE
  5
209
330
1F
100
AcDbEntity
  8
0-0
  6
JWW_DASHED1
 62
   120
370
     5
100
AcDbLine
 10
-257.6177148506695
 20
-85.29760277179037
 30
0.0
 11
315.3822851493312
 21
-85.29760277179037
 31
0.0
  0
LINE
  5
20A
330
1F
100
AcDbEntity
  8
0-0
  6
JWW_DASHED1
 62
   120
370
     5
100
AcDbLine
 10
-257.6177148506695
 20
-84.29760277189018
 30
0.0
 11
315.3822851493312
 21
-84.29760277189018
 31
0.0
  0
LINE
  5
20B
330
1F
100
AcDbEntity
  8
0-0
  6
JWW_DASHED1
 62
   120
370
     5
100
AcDbLine
 10
-257.6177148506695
 20
-71.29760277079058
 30
0.0
 11
315.3822851493312
 21
-71.29760277079058
 31
0.0
  0
LINE
  5
20C
330
1F
100
AcDbEntity
  8
0-0
  6
JWW_DASHED1
 62
   120
370
     5
100
AcDbLine
 10
-257.6177148506695
 20
-70.29760277089039
 30
0.0
 11
315.3822851493312
 21
-70.29760277089039
 31
0.0
  0
LINE
  5
20D
330
1F
100
AcDbEntity
  8
0-0
  6
JWW_DASHED1
 62
   120
370
     5
100
AcDbLine
 10
-257.6177148506695
 20
-57.29760276979079
 30
0.0
 11
315.3822851493312
 21
-57.29760276979079
 31
0.0
  0
LINE
  5
20E
330
1F
100
AcDbEntity
  8
0-0
  6
JWW_DASHED1
 62
   120
370
     5
100
AcDbLine
 10
-257.6177148506695
 20
-56.2976027698906
 30
0.0
 11
315.3822851493312
 21
-56.2976027698906
 31
0.0
  0
LINE
  5
20F
330
1F
100
AcDbEntity
  8
0-0
  6
JWW_DASHED1
 62
   120
370
     5
100
AcDbLine
 10
-257.6177148506695
 20
-43.29760276879099
 30
0.0
 11
315.3822851493312
 21
-43.29760276879099
 31
0.0
  0
LINE
  5
210
330
1F
100
AcDbEntity
  8
0-0
  6
JWW_DASHED1
 62
   120
370
     5
100
AcDbLine
 10
-257.6177148506695
 20
-42.29760276889081
 30
0.0
 11
315.3822851493312
 21
-42.29760276889081
 31
0.0
  0
LINE
  5
211
330
1F
100
AcDbEntity
  8
0-0
  6
JWW_DASHED1
 62
   120
370
     5
100
AcDbLine
 10
-257.6177148506695
 20
-29.2976027677912
 30
0.0
 11
315.3822851493312
 21
-29.2976027677912
 31
0.0
  0
LINE
  5
212
330
1F
100
AcDbEntity
  8
0-0
  6
JWW_DASHED1
 62
   120
370
     5
100
AcDbLine
 10
-257.6177148506695
 20
-28.29760276789102
 30
0.0
 11
315.3822851493312
 21
-28.29760276789102
 31
0.0
  0
LINE
  5
213
330
1F
100
AcDbEntity
  8
0-0
  6
JWW_DASHED1
 62
   120
370
     5
100
AcDbLine
 10
-257.6177148506695
 20
-15.29760276679141
 30
0.0
 11
315.3822851493312
 21
-15.29760276679141
 31
0.0
  0
LINE
  5
214
330
1F
100
AcDbEntity
  8
0-0
  6
JWW_DASHED1
 62
   120
370
     5
100
AcDbLine
 10
-257.6177148506695
 20
-14.29760276689123
 30
0.0
 11
315.3822851493312
 21
-14.29760276689123
 31
0.0
  0
LINE
  5
215
330
1F
100
AcDbEntity
  8
0-0
  6
JWW_DASHED1
 62
   120
370
     5
100
AcDbLine
 10
-257.6177148506695
 20
-1.297602765791623
 30
0.0
 11
315.3822851493312
 21
-1.297602765791623
 31
0.0
  0
LINE
  5
216
330
1F
100
AcDbEntity
  8
0-0
  6
JWW_DASHED1
 62
   120
370
     5
100
AcDbLine
 10
-257.6177148506695
 20
-0.2976027658914404
 30
0.0
 11
315.3822851493312
 21
-0.2976027658914404
 31
0.0
  0
LINE
  5
217
330
1F
100
AcDbEntity
  8
0-0
  6
JWW_DASHED1
 62
   120
370
     5
100
AcDbLine
 10
-257.6177148506695
 20
12.70239723520817
 30
0.0
 11
315.3822851493312
 21
12.70239723520817
 31
0.0
  0
LINE
  5
218
330
1F
100
AcDbEntity
  8
0-0
  6
JWW_DASHED1
 62
   120
370
     5
100
AcDbLine
 10
-257.6177148506695
 20
13.70239723510835
 30
0.0
 11
315.3822851493312
 21
13.70239723510835
 31
0.0
  0
LINE
  5
219
330
1F
100
AcDbEntity
  8
0-0
  6
JWW_DASHED1
 62
   120
370
     5
100
AcDbLine
 10
-257.6177148506695
 20
26.70239723620796
 30
0.0
 11
315.3822851493312
 21
26.70239723620796
 31
0.0
  0
LINE
  5
21A
330
1F
100
AcDbEntity
  8
0-0
  6
JWW_DASHED1
 62
   120
370
     5
100
AcDbLine
 10
-257.6177148506695
 20
27.70239723610814
 30
0.0
 11
315.3822851493312
 21
27.70239723610814
 31
0.0
  0
LINE
  5
21B
330
1F
100
AcDbEntity
  8
0-0
  6
JWW_DASHED1
 62
   120
370
     5
100
AcDbLine
 10
-257.6177148506695
 20
40.70239723720775
 30
0.0
 11
315.3822851493312
 21
40.70239723720775
 31
0.0
  0
LINE
  5
21C
330
1F
100
AcDbEntity
  8
0-0
  6
JWW_DASHED1
 62
   120
370
     5
100
AcDbLine
 10
-257.6177148506695
 20
41.70239723710793
 30
0.0
 11
315.3822851493312
 21
41.70239723710793
 31
0.0
  0
LINE
  5
21D
330
1F
100
AcDbEntity
  8
0-0
  6
JWW_DASHED1
 62
   120
370
     5
100
AcDbLine
 10
-257.6177148506695
 20
54.70239723820754
 30
0.0
 11
315.3822851493312
 21
54.70239723820754
 31
0.0
  0
LINE
  5
21E
330
1F
100
AcDbEntity
  8
0-0
  6
JWW_DASHED1
 62
   120
370
     5
100
AcDbLine
 10
-257.6177148506695
 20
55.70239723810772
 30
0.0
 11
315.3822851493312
 21
55.70239723810772
 31
0.0
  0
LINE
  5
21F
330
1F
100
AcDbEntity
  8
0-0
  6
JWW_DASHED1
 62
   120
370
     5
100
AcDbLine
 10
-257.6177148506695
 20
68.70239723920733
 30
0.0
 11
315.3822851493312
 21
68.70239723920733
 31
0.0
  0
LINE
  5
220
330
1F
100
AcDbEntity
  8
0-0
  6
JWW_DASHED1
 62
   120
370
     5
100
AcDbLine
 10
-257.6177148506695
 20
69.70239723910751
 30
0.0
 11
315.3822851493312
 21
69.70239723910751
 31
0.0
  0
LINE
  5
221
330
1F
100
AcDbEntity
  8
0-0
  6
JWW_DASHED1
 62
   120
370
     5
100
AcDbLine
 10
-257.6177148506695
 20
82.70239724020712
 30
0.0
 11
315.3822851493312
 21
82.70239724020712
 31
0.0
  0
LINE
  5
222
330
1F
100
AcDbEntity
  8
0-0
  6
JWW_DASHED1
 62
   120
370
     5
100
AcDbLine
 10
-257.6177148506695
 20
83.7023972401073
 30
0.0
 11
315.3822851493312
 21
83.7023972401073
 31
0.0
  0
LINE
  5
223
330
1F
100
AcDbEntity
  8
0-0
  6
JWW_DASHED1
 62
   120
370
     5
100
AcDbLine
 10
-257.6177148506695
 20
96.70239724120691
 30
0.0
 11
315.3822851493312
 21
96.70239724120691
 31
0.0
  0
LINE
  5
224
330
1F
100
AcDbEntity
  8
0-0
  6
JWW_DASHED1
 62
   120
370
     5
100
AcDbLine
 10
-257.6177148506695
 20
97.7023972411071
 30
0.0
 11
315.3822851493312
 21
97.7023972411071
 31
0.0
  0
LINE
  5
225
330
1F
100
AcDbEntity
  8
0-0
  6
JWW_DASHED1
 62
   120
370
     5
100
AcDbLine
 10
-257.6177148506695
 20
110.7023972422067
 30
0.0
 11
315.3822851493312
 21
110.7023972422067
 31
0.0
  0
LINE
  5
226
330
1F
100
AcDbEntity
  8
0-0
  6
JWW_DASHED1
 62
   120
370
     5
100
AcDbLine
 10
-257.6177148506695
 20
111.7023972421069
 30
0.0
 11
315.3822851493312
 21
111.7023972421069
 31
0.0
  0
LINE
  5
227
330
1F
100
AcDbEntity
  8
0-0
  6
JWW_DASHED1
 62
   120
370
     5
100
AcDbLine
 10
-257.6177148506695
 20
124.7023972432065
 30
0.0
 11
315.3822851493312
 21
124.7023972432065
 31
0.0
  0
LINE
  5
228
330
1F
100
AcDbEntity
  8
0-0
  6
JWW_DASHED1
 62
   120
370
     5
100
AcDbLine
 10
-257.6177148506695
 20
125.7023972431067
 30
0.0
 11
315.3822851493312
 21
125.7023972431067
 31
0.0
  0
LINE
  5
229
330
1F
100
AcDbEntity
  8
0-0
  6
JWW_DASHED1
 62
   120
370
     5
100
AcDbLine
 10
-257.6177148506695
 20
138.7023972442063
 30
0.0
 11
315.3822851493312
 21
138.7023972442063
 31
0.0
  0
LINE
  5
22A
330
1F
100
AcDbEntity
  8
0-0
  6
JWW_DASHED1
 62
   120
370
     5
100
AcDbLine
 10
-257.6177148506695
 20
139.7023972441065
 30
0.0
 11
315.3822851493312
 21
139.7023972441065
 31
0.0
  0
LINE
  5
22B
330
1F
100
AcDbEntity
  8
0-0
  6
JWW_DASHED1
 62
   120
370
     5
100
AcDbLine
 10
-257.6177148506695
 20
152.7023972452061
 30
0.0
 11
315.3822851493312
 21
152.7023972452061
 31
0.0
  0
LINE
  5
22C
330
1F
100
AcDbEntity
  8
0-0
  6
JWW_DASHED1
 62
   120
370
     5
100
AcDbLine
 10
-257.6177148506695
 20
153.7023972451063
 30
0.0
 11
315.3822851493312
 21
153.7023972451063
 31
0.0
  0
LINE
  5
22D
330
1F
100
AcDbEntity
  8
0-0
  6
JWW_DASHED1
 62
   120
370
     5
100
AcDbLine
 10
-257.6177148506695
 20
166.7023972462059
 30
0.0
 11
315.3822851493312
 21
166.7023972462059
 31
0.0
  0
LINE
  5
22E
330
1F
100
AcDbEntity
  8
0-0
  6
JWW_DASHED1
 62
   120
370
     5
100
AcDbLine
 10
-257.6177148506695
 20
167.702397246106
 30
0.0
 11
315.3822851493312
 21
167.702397246106
 31
0.0
  0
LINE
  5
22F
330
1F
100
AcDbEntity
  8
0-0
  6
JWW_DASHED1
 62
   120
370
     5
100
AcDbLine
 10
-257.6177148506695
 20
180.7023972472057
 30
0.0
 11
315.3822851493312
 21
180.7023972472057
 31
0.0
  0
LINE
  5
230
330
1F
100
AcDbEntity
  8
0-0
  6
JWW_DASHED1
 62
   120
370
     5
100
AcDbLine
 10
-257.6177148506695
 20
181.7023972471058
 30
0.0
 11
315.3822851493312
 21
181.7023972471058
 31
0.0
  0
LINE
  5
231
330
1F
100
AcDbEntity
  8
0-0
  6
JWW_DASHED1
 62
   120
370
     5
100
AcDbLine
 10
-257.6177148506695
 20
194.7023972482054
 30
0.0
 11
315.3822851493312
 21
194.7023972482054
 31
0.0
  0
LINE
  5
232
330
1F
100
AcDbEntity
  8
0-0
  6
JWW_DASHED1
 62
   120
370
     5
100
AcDbLine
 10
-257.6177148506695
 20
195.7023972481056
 30
0.0
 11
315.3822851493312
 21
195.7023972481056
 31
0.0
  0
LINE
  5
233
330
1F
100
AcDbEntity
  8
0-0
  6
JWW_DASHED1
 62
   120
370
     5
100
AcDbLine
 10
-257.6177148506695
 20
208.7023972492052
 30
0.0
 11
315.3822851493312
 21
208.7023972492052
 31
0.0
  0
LINE
  5
234
330
1F
100
AcDbEntity
  8
0-0
  6
JWW_DASHED1
 62
   120
370
     5
100
AcDbLine
 10
-257.6177148506695
 20
209.7023972491054
 30
0.0
 11
315.3822851493312
 21
209.7023972491054
 31
0.0
  0
LINE
  5
235
330
1F
100
AcDbEntity
  8
0-0
  6
JWW_DASHED1
 62
   120
370
     5
100
AcDbLine
 10
-257.6177148506695
 20
222.702397250205
 30
0.0
 11
315.3822851493312
 21
222.702397250205
 31
0.0
  0
LINE
  5
236
330
1F
100
AcDbEntity
  8
0-0
  6
JWW_DASHED1
 62
   120
370
     5
100
AcDbLine
 10
-257.6177148506695
 20
223.7023972501052
 30
0.0
 11
315.3822851493312
 21
223.7023972501052
 31
0.0
  0
LINE
  5
237
330
1F
100
AcDbEntity
  8
0-0
  6
JWW_DASHED1
 62
   120
370
     5
100
AcDbLine
 10
-257.6177148506695
 20
236.7023972512048
 30
0.0
 11
315.3822851493312
 21
236.7023972512048
 31
0.0
  0
LINE
  5
238
330
1F
100
AcDbEntity
  8
0-0
  6
JWW_DASHED1
 62
   120
370
     5
100
AcDbLine
 10
-257.6177148506695
 20
237.702397251105
 30
0.0
 11
315.3822851493312
 21
237.702397251105
 31
0.0
  0
LINE
  5
239
330
1F
100
AcDbEntity
  8
0-0
  6
JWW_DASHED1
 62
   120
370
     5
100
AcDbLine
 10
-257.6177148506695
 20
250.7023972522046
 30
0.0
 11
315.3822851493312
 21
250.7023972522046
 31
0.0
  0
LINE
  5
23A
330
1F
100
AcDbEntity
  8
0-0
  6
JWW_DASHED1
 62
   120
370
     5
100
AcDbLine
 10
-257.6177148506695
 20
251.7023972521048
 30
0.0
 11
315.3822851493312
 21
251.7023972521048
 31
0.0
  0
LINE
  5
23B
330
1F
100
AcDbEntity
  8
0-0
  6
JWW_DASHED1
 62
   120
370
     5
100
AcDbLine
 10
-257.6177148506695
 20
264.7023972532044
 30
0.0
 11
315.3822851493312
 21
264.7023972532044
 31
0.0
  0
LINE
  5
23C
330
1F
100
AcDbEntity
  8
0-0
  6
JWW_DASHED1
 62
   120
370
     5
100
AcDbLine
 10
-257.6177148506695
 20
265.7023972531046
 30
0.0
 11
315.3822851493312
 21
265.7023972531046
 31
0.0
  0
LINE
  5
23D
330
1F
100
AcDbEntity
  8
0-0
  6
JWW_DASHED1
 62
   120
370
     5
100
AcDbLine
 10
-257.6177148506695
 20
278.7023972542042
 30
0.0
 11
315.3822851493312
 21
278.7023972542042
 31
0.0
  0
LINE
  5
23E
330
1F
100
AcDbEntity
  8
0-0
  6
JWW_DASHED1
 62
   120
370
     5
100
AcDbLine
 10
-257.6177148506695
 20
279.7023972541044
 30
0.0
 11
315.3822851493312
 21
279.7023972541044
 31
0.0
  0
LINE
  5
23F
330
1F
100
AcDbEntity
  8
0-0
  6
JWW_DASHED1
 62
   120
370
     5
100
AcDbLine
 10
-257.6177148506695
 20
292.702397255204
 30
0.0
 11
315.3822851493312
 21
292.702397255204
 31
0.0
  0
LINE
  5
240
330
1F
100
AcDbEntity
  8
0-0
  6
JWW_DASHED1
 62
   120
370
     5
100
AcDbLine
 10
-257.6177148506695
 20
293.7023972551042
 30
0.0
 11
315.3822851493312
 21
293.7023972551042
 31
0.0
  0
LINE
  5
241
330
1F
100
AcDbEntity
  8
0-0
  6
JWW_DASHED1
 62
   120
370
     5
100
AcDbLine
 10
-257.6177148506695
 20
306.7023972562038
 30
0.0
 11
315.3822851493312
 21
306.7023972562038
 31
0.0
  0
LINE
  5
242
330
1F
100
AcDbEntity
  8
0-0
  6
JWW_DASHED1
 62
   120
370
     5
100
AcDbLine
 10
-257.6177148506695
 20
307.7023972561039
 30
0.0
 11
315.3822851493312
 21
307.7023972561039
 31
0.0
  0
LINE
  5
243
330
1F
100
AcDbEntity
  8
0-0
  6
JWW_DASHED1
 62
   120
370
     5
100
AcDbLine
 10
-257.6177148506695
 20
320.7023972572035
 30
0.0
 11
315.3822851493312
 21
320.7023972572035
 31
0.0
  0
LINE
  5
244
330
1F
100
AcDbEntity
  8
0-0
  6
JWW_DASHED1
 62
   120
370
     5
100
AcDbLine
 10
-257.6177148506695
 20
321.7023972571037
 30
0.0
 11
315.3822851493312
 21
321.7023972571037
 31
0.0
  0
LINE
  5
245
330
1F
100
AcDbEntity
  8
0-0
  6
JWW_DASHED1
 62
   120
370
     5
100
AcDbLine
 10
-257.6177148506695
 20
334.7023972582033
 30
0.0
 11
315.3822851493312
 21
334.7023972582033
 31
0.0
  0
LINE
  5
246
330
1F
100
AcDbEntity
  8
0-0
  6
JWW_DASHED1
 62
   120
370
     5
100
AcDbLine
 10
-257.6177148506695
 20
335.7023972581035
 30
0.0
 11
315.3822851493312
 21
335.7023972581035
 31
0.0
  0
LINE
  5
247
330
1F
100
AcDbEntity
  8
0-0
  6
JWW_DASHED1
 62
   120
370
     5
100
AcDbLine
 10
-257.6177148506695
 20
348.7023972592032
 30
0.0
 11
315.3822851493312
 21
348.7023972592032
 31
0.0
  0
LINE
  5
248
330
1F
100
AcDbEntity
  8
0-0
  6
JWW_DASHED1
 62
   120
370
     5
100
AcDbLine
 10
-257.6177148506695
 20
349.7023972591033
 30
0.0
 11
315.3822851493312
 21
349.7023972591033
 31
0.0
  0
LINE
  5
249
330
1F
100
AcDbEntity
  8
0-0
  6
JWW_DASHED1
 62
   120
370
     5
100
AcDbLine
 10
-257.6177148506695
 20
362.7023972602029
 30
0.0
 11
315.3822851493312
 21
362.7023972602029
 31
0.0
  0
LINE
  5
24A
330
1F
100
AcDbEntity
  8
0-0
  6
JWW_DASHED1
 62
   120
370
     5
100
AcDbLine
 10
-257.6177148506695
 20
363.7023972601031
 30
0.0
 11
315.3822851493312
 21
363.7023972601031
 31
0.0
  0
LINE
  5
24B
330
1F
100
AcDbEntity
  8
0-0
  6
JWW_DASHED1
 62
   120
370
     5
100
AcDbLine
 10
-257.6177148506695
 20
376.7023972612027
 30
0.0
 11
315.3822851493312
 21
376.7023972612027
 31
0.0
  0
LINE
  5
24C
330
1F
100
AcDbEntity
  8
0-0
  6
JWW_DASHED1
 62
   120
370
     5
100
AcDbLine
 10
-257.6177148506695
 20
377.7023972611029
 30
0.0
 11
315.3822851493312
 21
377.7023972611029
 31
0.0
  0
LINE
  5
24D
330
1F
100
AcDbEntity
  8
0-0
  6
JWW_DASHED1
 62
   120
370
     5
100
AcDbLine
 10
-257.6177148506695
 20
390.7023972622025
 30
0.0
 11
315.3822851493312
 21
390.7023972622025
 31
0.0
  0
LINE
  5
24E
330
1F
100
AcDbEntity
  8
0-0
  6
JWW_DASHED1
 62
   120
370
     5
100
AcDbLine
 10
-257.6177148506695
 20
391.7023972621027
 30
0.0
 11
315.3822851493312
 21
391.7023972621027
 31
0.0
  0
LINE
  5
24F
330
1F
100
AcDbEntity
  8
0-0
  6
JWW_DASHED1
 62
   120
370
     5
100
AcDbLine
 10
-257.6177148506695
 20
404.7023972632023
 30
0.0
 11
315.3822851493312
 21
404.7023972632023
 31
0.0
  0
LINE
  5
250
330
1F
100
AcDbEntity
  8
0-0
  6
JWW_DASHED1
 62
   120
370
     5
100
AcDbLine
 10
-257.6177148506695
 20
405.7023972631025
 30
0.0
 11
315.3822851493312
 21
405.7023972631025
 31
0.0
  0
LINE
  5
251
330
1F
100
AcDbEntity
  8
0-0
  6
JWW_DASHED1
 62
   120
370
     5
100
AcDbLine
 10
-257.6177148506695
 20
418.7023972642021
 30
0.0
 11
315.3822851493312
 21
418.7023972642021
 31
0.0
  0
LINE
  5
252
330
1F
100
AcDbEntity
  8
0-0
  6
JWW_DASHED1
 62
   120
370
     5
100
AcDbLine
 10
-257.6177148506695
 20
419.7023972641023
 30
0.0
 11
315.3822851493312
 21
419.7023972641023
 31
0.0
  0
LINE
  5
253
330
1F
100
AcDbEntity
  8
0-0
  6
JWW_DASHED1
 62
   120
370
     5
100
AcDbLine
 10
-257.6177148506695
 20
432.7023972652019
 30
0.0
 11
315.3822851493312
 21
432.7023972652019
 31
0.0
  0
LINE
  5
254
330
1F
100
AcDbEntity
  8
0-0
  6
JWW_DASHED1
 62
   120
370
     5
100
AcDbLine
 10
-257.6177148506695
 20
433.702397265102
 30
0.0
 11
315.3822851493312
 21
433.702397265102
 31
0.0
  0
LINE
  5
255
330
1F
100
AcDbEntity
  8
0-0
  6
JWW_DASHED1
 62
   120
370
     5
100
AcDbLine
 10
-257.6177148506695
 20
446.7023972662017
 30
0.0
 11
315.3822851493312
 21
446.7023972662017
 31
0.0
  0
LINE
  5
256
330
1F
100
AcDbEntity
  8
0-0
  6
JWW_DASHED1
 62
   120
370
     5
100
AcDbLine
 10
-257.6177148506695
 20
447.7023972661019
 30
0.0
 11
315.3822851493312
 21
447.7023972661019
 31
0.0
  0
LINE
  5
257
330
1F
100
AcDbEntity
  8
0-0
  6
JWW_DASHED1
 62
   120
370
     5
100
AcDbLine
 10
-257.6177148506695
 20
460.7023972672015
 30
0.0
 11
315.3822851493312
 21
460.7023972672015
 31
0.0
  0
LINE
  5
258
330
1F
100
AcDbEntity
  8
0-0
  6
JWW_DASHED1
 62
   120
370
     5
100
AcDbLine
 10
-257.6177148506695
 20
461.7023972671017
 30
0.0
 11
315.3822851493312
 21
461.7023972671017
 31
0.0
  0
LINE
  5
259
330
1F
100
AcDbEntity
  8
0-0
  6
JWW_DASHED1
 62
   120
370
     5
100
AcDbLine
 10
-257.6177148506695
 20
474.7023972682013
 30
0.0
 11
315.3822851493312
 21
474.7023972682013
 31
0.0
  0
LINE
  5
25A
330
1F
100
AcDbEntity
  8
0-0
  6
JWW_DASHED1
 62
   120
370
     5
100
AcDbLine
 10
-257.6177148506695
 20
475.7023972681014
 30
0.0
 11
315.3822851493312
 21
475.7023972681014
 31
0.0
  0
LINE
  5
25B
330
1F
100
AcDbEntity
  8
0-0
  6
JWW_DASHED1
 62
   120
370
     5
100
AcDbLine
 10
-257.6177148506695
 20
488.702397269201
 30
0.0
 11
315.3822851493312
 21
488.702397269201
 31
0.0
  0
LINE
  5
25C
330
1F
100
AcDbEntity
  8
0-0
  6
JWW_DASHED1
 62
   120
370
     5
100
AcDbLine
 10
-257.6177148506695
 20
489.7023972691012
 30
0.0
 11
315.3822851493312
 21
489.7023972691012
 31
0.0
  0
LINE
  5
25D
330
1F
100
AcDbEntity
  8
0-0
  6
JWW_DASHED1
 62
   120
370
     5
100
AcDbLine
 10
-257.6177148506695
 20
502.7023972702008
 30
0.0
 11
315.3822851493312
 21
502.7023972702008
 31
0.0
  0
LINE
  5
25E
330
1F
100
AcDbEntity
  8
0-0
  6
JWW_DASHED1
 62
   120
370
     5
100
AcDbLine
 10
-257.6177148506695
 20
503.702397270101
 30
0.0
 11
315.3822851493312
 21
503.702397270101
 31
0.0
  0
LINE
  5
25F
330
1F
100
AcDbEntity
  8
0-0
  6
JWW_DASHED1
 62
   120
370
     5
100
AcDbLine
 10
-257.6177148506695
 20
516.7023972712007
 30
0.0
 11
315.3822851493312
 21
516.7023972712007
 31
0.0
  0
LINE
  5
260
330
1F
100
AcDbEntity
  8
0-0
  6
JWW_DASHED1
 62
   120
370
     5
100
AcDbLine
 10
-257.6177148506695
 20
517.7023972711008
 30
0.0
 11
315.3822851493312
 21
517.7023972711008
 31
0.0
  0
LINE
  5
261
330
1F
100
AcDbEntity
  8
0-0
  6
JWW_DASHED1
 62
   120
370
     5
100
AcDbLine
 10
-257.6177148506695
 20
530.7023972722004
 30
0.0
 11
315.3822851493312
 21
530.7023972722004
 31
0.0
  0
LINE
  5
262
330
1F
100
AcDbEntity
  8
0-0
  6
JWW_DASHED1
 62
   120
370
     5
100
AcDbLine
 10
-257.6177148506695
 20
531.7023972721006
 30
0.0
 11
315.3822851493312
 21
531.7023972721006
 31
0.0
  0
LINE
  5
263
330
1F
100
AcDbEntity
  8
0-0
  6
JWW_DASHED1
 62
   120
370
     5
100
AcDbLine
 10
-257.6177148506695
 20
544.7023972732002
 30
0.0
 11
315.3822851493312
 21
544.7023972732002
 31
0.0
  0
LINE
  5
264
330
1F
100
AcDbEntity
  8
0-0
  6
JWW_DASHED1
 62
   120
370
     5
100
AcDbLine
 10
-257.6177148506695
 20
545.7023972731004
 30
0.0
 11
315.3822851493312
 21
545.7023972731004
 31
0.0
  0
LINE
  5
265
330
1F
100
AcDbEntity
  8
0-0
  6
JWW_DASHED1
 62
   120
370
     5
100
AcDbLine
 10
-257.6177148506695
 20
558.7023972741999
 30
0.0
 11
315.3822851493312
 21
558.7023972741999
 31
0.0
  0
LINE
  5
266
330
1F
100
AcDbEntity
  8
0-0
  6
JWW_DASHED1
 62
   120
370
     5
100
AcDbLine
 10
-257.6177148506695
 20
559.7023972741001
 30
0.0
 11
315.3822851493312
 21
559.7023972741001
 31
0.0
  0
LINE
  5
267
330
1F
100
AcDbEntity
  8
0-0
  6
JWW_DASHED1
 62
   120
370
     5
100
AcDbLine
 10
-257.6177148506695
 20
572.7023972751998
 30
0.0
 11
315.3822851493312
 21
572.7023972751998
 31
0.0
  0
LINE
  5
268
330
1F
100
AcDbEntity
  8
0-0
  6
JWW_DASHED1
 62
   120
370
     5
100
AcDbLine
 10
-257.6177148506695
 20
573.7023972751
 30
0.0
 11
315.3822851493312
 21
573.7023972751
 31
0.0
  0
LINE
  5
269
330
1F
100
AcDbEntity
  8
0-0
  6
JWW_DASHED1
 62
   120
370
     5
100
AcDbLine
 10
-257.6177148506695
 20
586.7023972761996
 30
0.0
 11
315.3822851493312
 21
586.7023972761996
 31
0.0
  0
LINE
  5
26A
330
1F
100
AcDbEntity
  8
0-0
  6
JWW_DASHED1
 62
   120
370
     5
100
AcDbLine
 10
-257.6177148506695
 20
587.7023972760995
 30
0.0
 11
315.3822851493312
 21
587.7023972760995
 31
0.0
  0
LINE
  5
26B
330
1F
100
AcDbEntity
  8
0-0
  6
JWW_DASHED1
 62
   120
370
     5
100
AcDbLine
 10
-257.6177148506695
 20
600.7023972771993
 30
0.0
 11
315.3822851493312
 21
600.7023972771993
 31
0.0
  0
LINE
  5
26C
330
1F
100
AcDbEntity
  8
0-0
  6
JWW_DASHED1
 62
   120
370
     5
100
AcDbLine
 10
-257.6177148506695
 20
601.7023972770995
 30
0.0
 11
315.3822851493312
 21
601.7023972770995
 31
0.0
  0
LINE
  5
26D
330
1F
100
AcDbEntity
  8
0-0
  6
JWW_DASHED1
 62
   120
370
     5
100
AcDbLine
 10
-257.6177148506695
 20
614.7023972781992
 30
0.0
 11
315.3822851493312
 21
614.7023972781992
 31
0.0
  0
LINE
  5
26E
330
1F
100
AcDbEntity
  8
0-0
  6
JWW_DASHED1
 62
   120
370
     5
100
AcDbLine
 10
-257.6177148506695
 20
615.7023972780994
 30
0.0
 11
315.3822851493312
 21
615.7023972780994
 31
0.0
  0
LINE
  5
26F
330
1F
100
AcDbEntity
  8
0-0
  6
JWW_DASHED1
 62
   120
370
     5
100
AcDbLine
 10
-170.1988730887061
 20
628.702397279199
 30
0.0
 11
227.963443387367
 21
628.702397279199
 31
0.0
  0
LINE
  5
270
330
1F
100
AcDbEntity
  8
0-0
  6
JWW_DASHED1
 62
   120
370
     5
100
AcDbLine
 10
-166.6046432173462
 20
629.7023972790992
 30
0.0
 11
224.3692135160072
 21
629.7023972790992
 31
0.0
  0
LINE
  5
271
330
1F
100
AcDbEntity
  8
0-0
  6
JWW_DASHED1
 62
   120
370
     5
100
AcDbLine
 10
-135.4925657490904
 20
642.7023972801987
 30
0.0
 11
193.2571360477513
 21
642.7023972801987
 31
0.0
  0
LINE
  5
272
330
1F
100
AcDbEntity
  8
0-0
  6
JWW_DASHED1
 62
   120
370
     5
100
AcDbLine
 10
-133.5987657594242
 20
643.7023972800989
 30
0.0
 11
191.3633360580852
 21
643.7023972800989
 31
0.0
  0
LINE
  5
273
330
1F
100
AcDbEntity
  8
0-0
  6
JWW_DASHED1
 62
   120
370
     5
100
AcDbLine
 10
-105.9179216671046
 20
656.7023972811985
 30
0.0
 11
163.6824919657656
 21
656.7023972811985
 31
0.0
  0
LINE
  5
274
330
1F
100
AcDbEntity
  8
0-0
  6
JWW_DASHED1
 62
   120
370
     5
100
AcDbLine
 10
-103.4963235995284
 20
657.7023972810987
 30
0.0
 11
161.2608938981893
 21
657.7023972810987
 31
0.0
  0
LINE
  5
275
330
1F
100
AcDbEntity
  8
0-0
  6
JWW_DASHED1
 62
   120
370
     5
100
AcDbLine
 10
-65.62221160916039
 20
670.7023972821983
 30
0.0
 11
123.3867819078213
 21
670.7023972821983
 31
0.0
  0
LINE
  5
276
330
1F
100
AcDbEntity
  8
0-0
  6
JWW_DASHED1
 62
   120
370
     5
100
AcDbLine
 10
-61.98079978678749
 20
671.7023972820984
 30
0.0
 11
119.7453700854484
 21
671.7023972820984
 31
0.0
  0
LINE
  5
277
330
1F
100
AcDbEntity
  8
0-0
  6
JWW_DASHED1
 62
   120
370
     5
100
AcDbLine
 10
309.3823036472627
 20
-491.2974544869405
 30
0.0
 11
309.3823036472627
 21
623.702277968751
 31
0.0
  0
LINE
  5
278
330
1F
100
AcDbEntity
  8
0-0
  6
JWW_DASHED1
 62
   120
370
     5
100
AcDbLine
 10
308.3823036473625
 20
-491.2974544869405
 30
0.0
 11
308.3823036473625
 21
623.702277968751
 31
0.0
  0
LINE
  5
279
330
1F
100
AcDbEntity
  8
0-0
  6
JWW_DASHED1
 62
   120
370
     5
100
AcDbLine
 10
295.3823036462625
 20
-491.2974544869405
 30
0.0
 11
295.3823036462625
 21
623.702277968751
 31
0.0
  0
LINE
  5
27A
330
1F
100
AcDbEntity
  8
0-0
  6
JWW_DASHED1
 62
   120
370
     5
100
AcDbLine
 10
294.3823036463627
 20
-491.2974544869405
 30
0.0
 11
294.3823036463627
 21
623.702277968751
 31
0.0
  0
LINE
  5
27B
330
1F
100
AcDbEntity
  8
0-0
  6
JWW_DASHED1
 62
   120
370
     5
100
AcDbLine
 10
281.3823036452627
 20
-491.2974544869405
 30
0.0
 11
281.3823036452627
 21
623.702277968751
 31
0.0
  0
LINE
  5
27C
330
1F
100
AcDbEntity
  8
0-0
  6
JWW_DASHED1
 62
   120
370
     5
100
AcDbLine
 10
280.3823036453625
 20
-491.2974544869405
 30
0.0
 11
280.3823036453629
 21
623.702277968751
 31
0.0
  0
LINE
  5
27D
330
1F
100
AcDbEntity
  8
0-0
  6
JWW_DASHED1
 62
   120
370
     5
100
AcDbLine
 10
267.3823036442624
 20
-491.2974544869405
 30
0.0
 11
267.3823036442628
 21
623.702277968751
 31
0.0
  0
LINE
  5
27E
330
1F
100
AcDbEntity
  8
0-0
  6
JWW_DASHED1
 62
   120
370
     5
100
AcDbLine
 10
266.3823036443627
 20
-491.2974544869405
 30
0.0
 11
266.3823036443627
 21
623.702277968751
 31
0.0
  0
LINE
  5
27F
330
1F
100
AcDbEntity
  8
0-0
  6
JWW_DASHED1
 62
   120
370
     5
100
AcDbLine
 10
253.3823036432626
 20
-491.2974544869405
 30
0.0
 11
253.3823036432626
 21
624.2655704739633
 31
0.0
  0
LINE
  5
280
330
1F
100
AcDbEntity
  8
0-0
  6
JWW_DASHED1
 62
   120
370
     5
100
AcDbLine
 10
252.3823036433625
 20
-491.2974544869405
 30
0.0
 11
252.3823036433625
 21
624.3558521359961
 31
0.0
  0
LINE
  5
281
330
1F
100
AcDbEntity
  8
0-0
  6
JWW_DASHED1
 62
   120
370
     5
100
AcDbLine
 10
239.3823036422624
 20
-491.2974544869405
 30
0.0
 11
239.3823036422624
 21
626.1499665105299
 31
0.0
  0
LINE
  5
282
330
1F
100
AcDbEntity
  8
0-0
  6
JWW_DASHED1
 62
   120
370
     5
100
AcDbLine
 10
238.3823036423627
 20
-491.2974544869405
 30
0.0
 11
238.3823036423627
 21
626.3363728929659
 31
0.0
  0
LINE
  5
283
330
1F
100
AcDbEntity
  8
0-0
  6
JWW_DASHED1
 62
   120
370
     5
100
AcDbLine
 10
225.3823036412626
 20
-491.2974544869405
 30
0.0
 11
225.3823036412626
 21
629.4107685637215
 31
0.0
  0
LINE
  5
284
330
1F
100
AcDbEntity
  8
0-0
  6
JWW_DASHED1
 62
   120
370
     5
100
AcDbLine
 10
224.3823036413625
 20
-491.2974544869405
 30
0.0
 11
224.3823036413629
 21
629.6985799311011
 31
0.0
  0
LINE
  5
285
330
1F
100
AcDbEntity
  8
0-0
  6
JWW_DASHED1
 62
   120
370
     5
100
AcDbLine
 10
211.3823036402624
 20
-491.2974544869405
 30
0.0
 11
211.3823036402628
 21
634.1444234565648
 31
0.0
  0
LINE
  5
286
330
1F
100
AcDbEntity
  8
0-0
  6
JWW_DASHED1
 62
   120
370
     5
100
AcDbLine
 10
210.3823036403627
 20
-491.2974544869405
 30
0.0
 11
210.3823036403627
 21
634.5425851040824
 31
0.0
  0
LINE
  5
287
330
1F
100
AcDbEntity
  8
0-0
  6
JWW_DASHED1
 62
   120
370
     5
100
AcDbLine
 10
197.3823036392626
 20
-491.2974544869405
 30
0.0
 11
197.3823036392626
 21
640.5078718337251
 31
0.0
  0
LINE
  5
288
330
1F
100
AcDbEntity
  8
0-0
  6
JWW_DASHED1
 62
   120
370
     5
100
AcDbLine
 10
196.3823036393624
 20
-491.2974544869405
 30
0.0
 11
196.3823036393624
 21
641.0305960325246
 31
0.0
  0
LINE
  5
289
330
1F
100
AcDbEntity
  8
0-0
  6
JWW_DASHED1
 62
   120
370
     5
100
AcDbLine
 10
183.3823036382628
 20
-491.2974544869405
 30
0.0
 11
183.3823036382628
 21
647.756273857284
 31
0.0
  0
LINE
  5
28A
330
1F
100
AcDbEntity
  8
0-0
  6
JWW_DASHED1
 62
   120
370
     5
100
AcDbLine
 10
182.3823036383627
 20
-491.2974544869405
 30
0.0
 11
182.3823036383627
 21
648.2462536425908
 31
0.0
  0
LINE
  5
28B
330
1F
100
AcDbEntity
  8
0-0
  6
JWW_DASHED1
 62
   120
370
     5
100
AcDbLine
 10
169.382303637263
 20
-491.2974544869405
 30
0.0
 11
169.382303637263
 21
654.2641539519161
 31
0.0
  0
LINE
  5
28C
330
1F
100
AcDbEntity
  8
0-0
  6
JWW_DASHED1
 62
   120
370
     5
100
AcDbLine
 10
168.3823036373629
 20
-491.2974544869405
 30
0.0
 11
168.3823036373629
 21
654.7005904320929
 31
0.0
  0
LINE
  5
28D
330
1F
100
AcDbEntity
  8
0-0
  6
JWW_DASHED1
 62
   120
370
     5
100
AcDbLine
 10
155.3823036362628
 20
-491.2974544869405
 30
0.0
 11
155.3823036362628
 21
660.0424684811503
 31
0.0
  0
LINE
  5
28E
330
1F
100
AcDbEntity
  8
0-0
  6
JWW_DASHED1
 62
   120
370
     5
100
AcDbLine
 10
154.3823036363626
 20
-491.2974544869405
 30
0.0
 11
154.3823036363626
 21
660.4283408824256
 31
0.0
  0
LINE
  5
28F
330
1F
100
AcDbEntity
  8
0-0
  6
JWW_DASHED1
 62
   120
370
     5
100
AcDbLine
 10
141.3823036352626
 20
-491.2974544869405
 30
0.0
 11
141.3823036352626
 21
665.1293788272221
 31
0.0
  0
LINE
  5
290
330
1F
100
AcDbEntity
  8
0-0
  6
JWW_DASHED1
 62
   120
370
     5
100
AcDbLine
 10
140.3823036353624
 20
-491.2974544869405
 30
0.0
 11
140.3823036353624
 21
665.467139581832
 31
0.0
  0
LINE
  5
291
330
1F
100
AcDbEntity
  8
0-0
  6
JWW_DASHED1
 62
   120
370
     5
100
AcDbLine
 10
127.3823036342628
 20
-491.2974544869405
 30
0.0
 11
127.3823036342628
 21
669.5563029112407
 31
0.0
  0
LINE
  5
292
330
1F
100
AcDbEntity
  8
0-0
  6
JWW_DASHED1
 62
   120
370
     5
100
AcDbLine
 10
126.3823036343626
 20
-491.2974544869405
 30
0.0
 11
126.3823036343626
 21
669.847969987967
 31
0.0
  0
LINE
  5
293
330
1F
100
AcDbEntity
  8
0-0
  6
JWW_DASHED1
 62
   120
370
     5
100
AcDbLine
 10
113.382303633263
 20
-491.2974544869405
 30
0.0
 11
113.382303633263
 21
673.3490483306184
 31
0.0
  0
LINE
  5
294
330
1F
100
AcDbEntity
  8
0-0
  6
JWW_DASHED1
 62
   120
370
     5
100
AcDbLine
 10
112.3823036333629
 20
-491.2974544869405
 30
0.0
 11
112.3823036333629
 21
673.5962743654079
 31
0.0
  0
LINE
  5
295
330
1F
100
AcDbEntity
  8
0-0
  6
JWW_DASHED1
 62
   120
370
     5
100
AcDbLine
 10
99.38230363226282
 20
-491.2974544869405
 30
0.0
 11
99.38230363226282
 21
676.5286638207351
 31
0.0
  0
LINE
  5
296
330
1F
100
AcDbEntity
  8
0-0
  6
JWW_DASHED1
 62
   120
370
     5
100
AcDbLine
 10
98.38230363236264
 20
-491.2974544869405
 30
0.0
 11
98.38230363236264
 21
676.7327882480993
 31
0.0
  0
LINE
  5
297
330
1F
100
AcDbEntity
  8
0-0
  6
JWW_DASHED1
 62
   120
370
     5
100
AcDbLine
 10
85.3823036312626
 20
-491.2974544869405
 30
0.0
 11
85.3823036312626
 21
679.1120820223284
 31
0.0
  0
LINE
  5
298
330
1F
100
AcDbEntity
  8
0-0
  6
JWW_DASHED1
 62
   120
370
     5
100
AcDbLine
 10
84.38230363136242
 20
-491.2974544869405
 30
0.0
 11
84.38230363136242
 21
679.2741704311072
 31
0.0
  0
LINE
  5
299
330
1F
100
AcDbEntity
  8
0-0
  6
JWW_DASHED1
 62
   120
370
     5
100
AcDbLine
 10
71.38230363026281
 20
-491.2974544869405
 30
0.0
 11
71.38230363026281
 21
681.1126035556106
 31
0.0
  0
LINE
  5
29A
330
1F
100
AcDbEntity
  8
0-0
  6
JWW_DASHED1
 62
   120
370
     5
100
AcDbLine
 10
70.38230363036263
 20
-491.2974544869405
 30
0.0
 11
70.38230363036263
 21
681.2334771811027
 31
0.0
  0
LINE
  5
29B
330
1F
100
AcDbEntity
  8
0-0
  6
JWW_DASHED1
 62
   120
370
     5
100
AcDbLine
 10
57.38230362926302
 20
-491.2974544869405
 30
0.0
 11
57.38230362926302
 21
682.5402569873756
 31
0.0
  0
LINE
  5
29C
330
1F
100
AcDbEntity
  8
0-0
  6
JWW_DASHED1
 62
   120
370
     5
100
AcDbLine
 10
56.38230362936284
 20
-491.2974544869405
 30
0.0
 11
56.38230362936284
 21
682.6205143590221
 31
0.0
  0
LINE
  5
29D
330
1F
100
AcDbEntity
  8
0-0
  6
JWW_DASHED1
 62
   120
370
     5
100
AcDbLine
 10
43.3823036282628
 20
-491.2974544869405
 30
0.0
 11
43.3823036282628
 21
683.4020586155373
 31
0.0
  0
LINE
  5
29E
330
1F
100
AcDbEntity
  8
0-0
  6
JWW_DASHED1
 62
   120
370
     5
100
AcDbLine
 10
42.38230362836262
 20
-491.2974544869405
 30
0.0
 11
42.38230362836262
 21
683.4420907478659
 31
0.0
  0
LINE
  5
29F
330
1F
100
AcDbEntity
  8
0-0
  6
JWW_DASHED1
 62
   120
370
     5
100
AcDbLine
 10
29.38230362726259
 20
-491.2974544869405
 30
0.0
 11
29.38230362726259
 21
683.7021883436125
 31
0.0
  0
LINE
  5
2A0
330
1F
100
AcDbEntity
  8
0-0
  6
JWW_DASHED1
 62
   120
370
     5
100
AcDbLine
 10
28.3823036273624
 20
-491.2974544869405
 30
0.0
 11
28.3823036273624
 21
683.702188396436
 31
0.0
  0
LINE
  5
2A1
330
1F
100
AcDbEntity
  8
0-0
  6
JWW_DASHED1
 62
   120
370
     5
100
AcDbLine
 10
15.3823036262628
 20
-491.2974544869405
 30
0.0
 11
15.3823036262628
 21
683.442092174372
 31
0.0
  0
LINE
  5
2A2
330
1F
100
AcDbEntity
  8
0-0
  6
JWW_DASHED1
 62
   120
370
     5
100
AcDbLine
 10
14.38230362636261
 20
-491.2974544869405
 30
0.0
 11
14.38230362636261
 21
683.4020601479085
 31
0.0
  0
LINE
  5
2A3
330
1F
100
AcDbEntity
  8
0-0
  6
JWW_DASHED1
 62
   120
370
     5
100
AcDbLine
 10
1.382303625263006
 20
-491.2974544869405
 30
0.0
 11
1.382303625263006
 21
682.6205172717334
 31
0.0
  0
LINE
  5
2A4
330
1F
100
AcDbEntity
  8
0-0
  6
JWW_DASHED1
 62
   120
370
     5
100
AcDbLine
 10
0.3823036253628231
 20
-491.2974544869405
 30
0.0
 11
0.3823036253628231
 21
682.5402600066616
 31
0.0
  0
LINE
  5
2A5
330
1F
100
AcDbEntity
  8
0-0
  6
JWW_DASHED1
 62
   120
370
     5
100
AcDbLine
 10
-12.61769637573721
 20
-491.2974544869405
 30
0.0
 11
-12.61769637573721
 21
681.2334815941529
 31
0.0
  0
LINE
  5
2A6
330
1F
100
AcDbEntity
  8
0-0
  6
JWW_DASHED1
 62
   120
370
     5
100
AcDbLine
 10
-13.61769637563739
 20
-491.2974544869405
 30
0.0
 11
-13.61769637563739
 21
681.112608076545
 31
0.0
  0
LINE
  5
2A7
330
1F
100
AcDbEntity
  8
0-0
  6
JWW_DASHED1
 62
   120
370
     5
100
AcDbLine
 10
-26.61769637673743
 20
-491.2974544869405
 30
0.0
 11
-26.61769637673743
 21
679.2741763663787
 31
0.0
  0
LINE
  5
2A8
330
1F
100
AcDbEntity
  8
0-0
  6
JWW_DASHED1
 62
   120
370
     5
100
AcDbLine
 10
-27.61769637663761
 20
-491.2974544869405
 30
0.0
 11
-27.61769637663761
 21
679.1120880673395
 31
0.0
  0
LINE
  5
2A9
330
1F
100
AcDbEntity
  8
0-0
  6
JWW_DASHED1
 62
   120
370
     5
100
AcDbLine
 10
-40.61769637773722
 20
-491.2974544869405
 30
0.0
 11
-40.61769637773722
 21
676.7327957356054
 31
0.0
  0
LINE
  5
2AA
330
1F
100
AcDbEntity
  8
0-0
  6
JWW_DASHED1
 62
   120
370
     5
100
AcDbLine
 10
-41.6176963776374
 20
-491.2974544869405
 30
0.0
 11
-41.6176963776374
 21
676.528671420491
 31
0.0
  0
LINE
  5
2AB
330
1F
100
AcDbEntity
  8
0-0
  6
JWW_DASHED1
 62
   120
370
     5
100
AcDbLine
 10
-54.61769637873743
 20
-491.2974544869405
 30
0.0
 11
-54.61769637873743
 21
673.5962834442205
 31
0.0
  0
LINE
  5
2AC
330
1F
100
AcDbEntity
  8
0-0
  6
JWW_DASHED1
 62
   120
370
     5
100
AcDbLine
 10
-55.61769637863762
 20
-491.2974544869405
 30
0.0
 11
-55.61769637863762
 21
673.3490575248459
 31
0.0
  0
LINE
  5
2AD
330
1F
100
AcDbEntity
  8
0-0
  6
JWW_DASHED1
 62
   120
370
     5
100
AcDbLine
 10
-68.61769637973723
 20
-491.2974544869405
 30
0.0
 11
-68.61769637973723
 21
669.8479807071442
 31
0.0
  0
LINE
  5
2AE
330
1F
100
AcDbEntity
  8
0-0
  6
JWW_DASHED1
 62
   120
370
     5
100
AcDbLine
 10
-69.61769637963741
 20
-491.2974544869405
 30
0.0
 11
-69.61769637963741
 21
669.5563137497618
 31
0.0
  0
LINE
  5
2AF
330
1F
100
AcDbEntity
  8
0-0
  6
JWW_DASHED1
 62
   120
370
     5
100
AcDbLine
 10
-82.61769638073744
 20
-491.2974544869405
 30
0.0
 11
-82.61769638073744
 21
665.4671520020554
 31
0.0
  0
LINE
  5
2B0
330
1F
100
AcDbEntity
  8
0-0
  6
JWW_DASHED1
 62
   120
370
     5
100
AcDbLine
 10
-83.61769638063762
 20
-491.2974544869405
 30
0.0
 11
-83.61769638063762
 21
665.1293913716461
 31
0.0
  0
LINE
  5
2B1
330
1F
100
AcDbEntity
  8
0-0
  6
JWW_DASHED1
 62
   120
370
     5
100
AcDbLine
 10
-96.61769638173723
 20
-491.2974544869405
 30
0.0
 11
-96.61769638173723
 21
660.4283550777461
 31
0.0
  0
LINE
  5
2B2
330
1F
100
AcDbEntity
  8
0-0
  6
JWW_DASHED1
 62
   120
370
     5
100
AcDbLine
 10
-97.61769638163742
 20
-491.2974544869405
 30
0.0
 11
-97.61769638163742
 21
660.0424828064558
 31
0.0
  0
LINE
  5
2B3
330
1F
100
AcDbEntity
  8
0-0
  6
JWW_DASHED1
 62
   120
370
     5
100
AcDbLine
 10
-110.6176963827374
 20
-491.2974544869405
 30
0.0
 11
-110.6176963827374
 21
654.700606492496
 31
0.0
  0
LINE
  5
2B4
330
1F
100
AcDbEntity
  8
0-0
  6
JWW_DASHED1
 62
   120
370
     5
100
AcDbLine
 10
-111.6176963826376
 20
-491.2974544869405
 30
0.0
 11
-111.6176963826376
 21
654.2641701494529
 31
0.0
  0
LINE
  5
2B5
330
1F
100
AcDbEntity
  8
0-0
  6
JWW_DASHED1
 62
   120
370
     5
100
AcDbLine
 10
-124.6176963837372
 20
-491.2974544869405
 30
0.0
 11
-124.6176963837372
 21
648.2462716773796
 31
0.0
  0
LINE
  5
2B6
330
1F
100
AcDbEntity
  8
0-0
  6
JWW_DASHED1
 62
   120
370
     5
100
AcDbLine
 10
-125.6176963836374
 20
-491.2974544869405
 30
0.0
 11
-125.6176963836374
 21
647.7562920379376
 31
0.0
  0
LINE
  5
2B7
330
1F
100
AcDbEntity
  8
0-0
  6
JWW_DASHED1
 62
   120
370
     5
100
AcDbLine
 10
-138.6176963847375
 20
-491.2974544869405
 30
0.0
 11
-138.6176963847375
 21
641.0306155275981
 31
0.0
  0
LINE
  5
2B8
330
1F
100
AcDbEntity
  8
0-0
  6
JWW_DASHED1
 62
   120
370
     5
100
AcDbLine
 10
-139.6176963846376
 20
-491.2974544869405
 30
0.0
 11
-139.6176963846376
 21
640.5078909749142
 31
0.0
  0
LINE
  5
2B9
330
1F
100
AcDbEntity
  8
0-0
  6
JWW_DASHED1
 62
   120
370
     5
100
AcDbLine
 10
-152.6176963857372
 20
-491.2974544869405
 30
0.0
 11
-152.6176963857372
 21
634.5425999724108
 31
0.0
  0
LINE
  5
2BA
330
1F
100
AcDbEntity
  8
0-0
  6
JWW_DASHED1
 62
   120
370
     5
100
AcDbLine
 10
-153.6176963856374
 20
-491.2974544869405
 30
0.0
 11
-153.6176963856374
 21
634.1444380176114
 31
0.0
  0
LINE
  5
2BB
330
1F
100
AcDbEntity
  8
0-0
  6
JWW_DASHED1
 62
   120
370
     5
100
AcDbLine
 10
-166.617696386737
 20
-491.2974544869405
 30
0.0
 11
-166.617696386737
 21
629.698590706376
 31
0.0
  0
LINE
  5
2BC
330
1F
100
AcDbEntity
  8
0-0
  6
JWW_DASHED1
 62
   120
370
     5
100
AcDbLine
 10
-167.6176963866372
 20
-491.2974544869405
 30
0.0
 11
-167.6176963866372
 21
629.4107790614004
 31
0.0
  0
LINE
  5
2BD
330
1F
100
AcDbEntity
  8
0-0
  6
JWW_DASHED1
 62
   120
370
     5
100
AcDbLine
 10
-180.6176963877373
 20
-491.2974544869405
 30
0.0
 11
-180.6176963877373
 21
626.3363799115547
 31
0.0
  0
LINE
  5
2BE
330
1F
100
AcDbEntity
  8
0-0
  6
JWW_DASHED1
 62
   120
370
     5
100
AcDbLine
 10
-181.6176963876374
 20
-491.2974544869405
 30
0.0
 11
-181.6176963876374
 21
626.1499732698036
 31
0.0
  0
LINE
  5
2BF
330
1F
100
AcDbEntity
  8
0-0
  6
JWW_DASHED1
 62
   120
370
     5
100
AcDbLine
 10
-194.6176963887375
 20
-491.2974544869405
 30
0.0
 11
-194.6176963887375
 21
624.3558555971873
 31
0.0
  0
LINE
  5
2C0
330
1F
100
AcDbEntity
  8
0-0
  6
JWW_DASHED1
 62
   120
370
     5
100
AcDbLine
 10
-195.6176963886377
 20
-491.2974544869405
 30
0.0
 11
-195.6176963886377
 21
624.2655736857165
 31
0.0
  0
LINE
  5
2C1
330
1F
100
AcDbEntity
  8
0-0
  6
JWW_DASHED1
 62
   120
370
     5
100
AcDbLine
 10
-208.6176963897373
 20
-491.2974544869405
 30
0.0
 11
-208.6176963897373
 21
623.702277968751
 31
0.0
  0
LINE
  5
2C2
330
1F
100
AcDbEntity
  8
0-0
  6
JWW_DASHED1
 62
   120
370
     5
100
AcDbLine
 10
-209.6176963896374
 20
-491.2974544869405
 30
0.0
 11
-209.6176963896374
 21
623.702277968751
 31
0.0
  0
LINE
  5
2C3
330
1F
100
AcDbEntity
  8
0-0
  6
JWW_DASHED1
 62
   120
370
     5
100
AcDbLine
 10
-222.6176963907371
 20
-491.2974544869405
 30
0.0
 11
-222.6176963907371
 21
623.702277968751
 31
0.0
  0
LINE
  5
2C4
330
1F
100
AcDbEntity
  8
0-0
  6
JWW_DASHED1
 62
   120
370
     5
100
AcDbLine
 10
-223.6176963906372
 20
-491.2974544869405
 30
0.0
 11
-223.6176963906372
 21
623.702277968751
 31
0.0
  0
LINE
  5
2C5
330
1F
100
AcDbEntity
  8
0-0
  6
JWW_DASHED1
 62
   120
370
     5
100
AcDbLine
 10
-236.6176963917373
 20
-491.2974544869405
 30
0.0
 11
-236.6176963917373
 21
623.702277968751
 31
0.0
  0
LINE
  5
2C6
330
1F
100
AcDbEntity
  8
0-0
  6
JWW_DASHED1
 62
   120
370
     5
100
AcDbLine
 10
-237.6176963916375
 20
-491.2974544869405
 30
0.0
 11
-237.6176963916375
 21
623.702277968751
 31
0.0
  0
LINE
  5
2C7
330
1F
100
AcDbEntity
  8
0-0
  6
JWW_DASHED1
 62
   120
370
     5
100
AcDbLine
 10
-250.6176963927375
 20
-491.2974544869405
 30
0.0
 11
-250.6176963927375
 21
623.702277968751
 31
0.0
  0
LINE
  5
2C8
330
1F
100
AcDbEntity
  8
0-0
  6
JWW_DASHED1
 62
   120
370
     5
100
AcDbLine
 10
-251.6176963926377
 20
-491.2974544869405
 30
0.0
 11
-251.6176963926377
 21
623.702277968751
 31
0.0
  0
LINE
  5
2C9
330
1F
100
AcDbEntity
  8
0-0
  6
JWW_DASHED1
 62
   120
370
     5
100
AcDbLine
 10
474.3822851493298
 20
-490.2976028008841
 30
0.0
 11
1047.382285149331
 21
-490.2976028008841
 31
0.0
  0
LINE
  5
2CA
330
1F
100
AcDbEntity
  8
0-0
  6
JWW_DASHED1
 62
   120
370
     5
100
AcDbLine
 10
474.3822851493298
 20
-477.2976027997845
 30
0.0
 11
1047.382285149331
 21
-477.2976027997845
 31
0.0
  0
LINE
  5
2CB
330
1F
100
AcDbEntity
  8
0-0
  6
JWW_DASHED1
 62
   120
370
     5
100
AcDbLine
 10
474.3822851493298
 20
-476.2976027998843
 30
0.0
 11
1047.382285149331
 21
-476.2976027998843
 31
0.0
  0
LINE
  5
2CC
330
1F
100
AcDbEntity
  8
0-0
  6
JWW_DASHED1
 62
   120
370
     5
100
AcDbLine
 10
474.3822851493298
 20
-463.2976027987847
 30
0.0
 11
1047.382285149331
 21
-463.2976027987847
 31
0.0
  0
LINE
  5
2CD
330
1F
100
AcDbEntity
  8
0-0
  6
JWW_DASHED1
 62
   120
370
     5
100
AcDbLine
 10
474.3822851493298
 20
-462.2976027988846
 30
0.0
 11
1047.382285149331
 21
-462.2976027988846
 31
0.0
  0
LINE
  5
2CE
330
1F
100
AcDbEntity
  8
0-0
  6
JWW_DASHED1
 62
   120
370
     5
100
AcDbLine
 10
474.3822851493298
 20
-449.2976027977849
 30
0.0
 11
1047.382285149331
 21
-449.2976027977849
 31
0.0
  0
LINE
  5
2CF
330
1F
100
AcDbEntity
  8
0-0
  6
JWW_DASHED1
 62
   120
370
     5
100
AcDbLine
 10
474.3822851493298
 20
-448.2976027978847
 30
0.0
 11
1047.382285149331
 21
-448.2976027978847
 31
0.0
  0
LINE
  5
2D0
330
1F
100
AcDbEntity
  8
0-0
  6
JWW_DASHED1
 62
   120
370
     5
100
AcDbLine
 10
474.3822851493298
 20
-435.2976027967851
 30
0.0
 11
1047.382285149331
 21
-435.2976027967851
 31
0.0
  0
LINE
  5
2D1
330
1F
100
AcDbEntity
  8
0-0
  6
JWW_DASHED1
 62
   120
370
     5
100
AcDbLine
 10
474.3822851493298
 20
-434.2976027968849
 30
0.0
 11
1047.382285149331
 21
-434.2976027968849
 31
0.0
  0
LINE
  5
2D2
330
1F
100
AcDbEntity
  8
0-0
  6
JWW_DASHED1
 62
   120
370
     5
100
AcDbLine
 10
474.3822851493298
 20
-421.2976027957853
 30
0.0
 11
1047.382285149331
 21
-421.2976027957853
 31
0.0
  0
LINE
  5
2D3
330
1F
100
AcDbEntity
  8
0-0
  6
JWW_DASHED1
 62
   120
370
     5
100
AcDbLine
 10
474.3822851493298
 20
-420.2976027958852
 30
0.0
 11
1047.382285149331
 21
-420.2976027958852
 31
0.0
  0
LINE
  5
2D4
330
1F
100
AcDbEntity
  8
0-0
  6
JWW_DASHED1
 62
   120
370
     5
100
AcDbLine
 10
474.3822851493298
 20
-407.2976027947856
 30
0.0
 11
1047.382285149331
 21
-407.2976027947856
 31
0.0
  0
LINE
  5
2D5
330
1F
100
AcDbEntity
  8
0-0
  6
JWW_DASHED1
 62
   120
370
     5
100
AcDbLine
 10
474.3822851493298
 20
-406.2976027948854
 30
0.0
 11
1047.382285149331
 21
-406.2976027948854
 31
0.0
  0
LINE
  5
2D6
330
1F
100
AcDbEntity
  8
0-0
  6
JWW_DASHED1
 62
   120
370
     5
100
AcDbLine
 10
474.3822851493298
 20
-393.2976027937858
 30
0.0
 11
1047.382285149331
 21
-393.2976027937858
 31
0.0
  0
LINE
  5
2D7
330
1F
100
AcDbEntity
  8
0-0
  6
JWW_DASHED1
 62
   120
370
     5
100
AcDbLine
 10
474.3822851493298
 20
-392.2976027938856
 30
0.0
 11
1047.382285149331
 21
-392.2976027938856
 31
0.0
  0
LINE
  5
2D8
330
1F
100
AcDbEntity
  8
0-0
  6
JWW_DASHED1
 62
   120
370
     5
100
AcDbLine
 10
474.3822851493298
 20
-379.2976027927859
 30
0.0
 11
1047.382285149331
 21
-379.2976027927859
 31
0.0
  0
LINE
  5
2D9
330
1F
100
AcDbEntity
  8
0-0
  6
JWW_DASHED1
 62
   120
370
     5
100
AcDbLine
 10
474.3822851493298
 20
-378.2976027928858
 30
0.0
 11
1047.382285149331
 21
-378.2976027928858
 31
0.0
  0
LINE
  5
2DA
330
1F
100
AcDbEntity
  8
0-0
  6
JWW_DASHED1
 62
   120
370
     5
100
AcDbLine
 10
474.3822851493298
 20
-365.2976027917862
 30
0.0
 11
1047.382285149331
 21
-365.2976027917862
 31
0.0
  0
LINE
  5
2DB
330
1F
100
AcDbEntity
  8
0-0
  6
JWW_DASHED1
 62
   120
370
     5
100
AcDbLine
 10
474.3822851493298
 20
-364.297602791886
 30
0.0
 11
1047.382285149331
 21
-364.297602791886
 31
0.0
  0
LINE
  5
2DC
330
1F
100
AcDbEntity
  8
0-0
  6
JWW_DASHED1
 62
   120
370
     5
100
AcDbLine
 10
474.3822851493298
 20
-351.2976027907864
 30
0.0
 11
1047.382285149331
 21
-351.2976027907864
 31
0.0
  0
LINE
  5
2DD
330
1F
100
AcDbEntity
  8
0-0
  6
JWW_DASHED1
 62
   120
370
     5
100
AcDbLine
 10
474.3822851493298
 20
-350.2976027908862
 30
0.0
 11
1047.382285149331
 21
-350.2976027908862
 31
0.0
  0
LINE
  5
2DE
330
1F
100
AcDbEntity
  8
0-0
  6
JWW_DASHED1
 62
   120
370
     5
100
AcDbLine
 10
474.3822851493298
 20
-337.2976027897866
 30
0.0
 11
1047.382285149331
 21
-337.2976027897866
 31
0.0
  0
LINE
  5
2DF
330
1F
100
AcDbEntity
  8
0-0
  6
JWW_DASHED1
 62
   120
370
     5
100
AcDbLine
 10
474.3822851493298
 20
-336.2976027898864
 30
0.0
 11
1047.382285149331
 21
-336.2976027898864
 31
0.0
  0
LINE
  5
2E0
330
1F
100
AcDbEntity
  8
0-0
  6
JWW_DASHED1
 62
   120
370
     5
100
AcDbLine
 10
474.3822851493298
 20
-323.2976027887868
 30
0.0
 11
1047.382285149331
 21
-323.2976027887868
 31
0.0
  0
LINE
  5
2E1
330
1F
100
AcDbEntity
  8
0-0
  6
JWW_DASHED1
 62
   120
370
     5
100
AcDbLine
 10
474.3822851493298
 20
-322.2976027888866
 30
0.0
 11
1047.382285149331
 21
-322.2976027888866
 31
0.0
  0
LINE
  5
2E2
330
1F
100
AcDbEntity
  8
0-0
  6
JWW_DASHED1
 62
   120
370
     5
100
AcDbLine
 10
474.3822851493298
 20
-309.297602787787
 30
0.0
 11
1047.382285149331
 21
-309.297602787787
 31
0.0
  0
LINE
  5
2E3
330
1F
100
AcDbEntity
  8
0-0
  6
JWW_DASHED1
 62
   120
370
     5
100
AcDbLine
 10
474.3822851493298
 20
-308.2976027878868
 30
0.0
 11
1047.382285149331
 21
-308.2976027878868
 31
0.0
  0
LINE
  5
2E4
330
1F
100
AcDbEntity
  8
0-0
  6
JWW_DASHED1
 62
   120
370
     5
100
AcDbLine
 10
474.3822851493298
 20
-295.2976027867873
 30
0.0
 11
1047.382285149331
 21
-295.2976027867873
 31
0.0
  0
LINE
  5
2E5
330
1F
100
AcDbEntity
  8
0-0
  6
JWW_DASHED1
 62
   120
370
     5
100
AcDbLine
 10
474.3822851493298
 20
-294.2976027868871
 30
0.0
 11
1047.382285149331
 21
-294.2976027868871
 31
0.0
  0
LINE
  5
2E6
330
1F
100
AcDbEntity
  8
0-0
  6
JWW_DASHED1
 62
   120
370
     5
100
AcDbLine
 10
474.3822851493298
 20
-281.2976027857874
 30
0.0
 11
1047.382285149331
 21
-281.2976027857874
 31
0.0
  0
LINE
  5
2E7
330
1F
100
AcDbEntity
  8
0-0
  6
JWW_DASHED1
 62
   120
370
     5
100
AcDbLine
 10
474.3822851493298
 20
-280.2976027858872
 30
0.0
 11
1047.382285149331
 21
-280.2976027858872
 31
0.0
  0
LINE
  5
2E8
330
1F
100
AcDbEntity
  8
0-0
  6
JWW_DASHED1
 62
   120
370
     5
100
AcDbLine
 10
474.3822851493298
 20
-267.2976027847876
 30
0.0
 11
1047.382285149331
 21
-267.2976027847876
 31
0.0
  0
LINE
  5
2E9
330
1F
100
AcDbEntity
  8
0-0
  6
JWW_DASHED1
 62
   120
370
     5
100
AcDbLine
 10
474.3822851493298
 20
-266.2976027848874
 30
0.0
 11
1047.382285149331
 21
-266.2976027848874
 31
0.0
  0
LINE
  5
2EA
330
1F
100
AcDbEntity
  8
0-0
  6
JWW_DASHED1
 62
   120
370
     5
100
AcDbLine
 10
474.3822851493298
 20
-253.2976027837879
 30
0.0
 11
1047.382285149331
 21
-253.2976027837879
 31
0.0
  0
LINE
  5
2EB
330
1F
100
AcDbEntity
  8
0-0
  6
JWW_DASHED1
 62
   120
370
     5
100
AcDbLine
 10
474.3822851493298
 20
-252.2976027838877
 30
0.0
 11
1047.382285149331
 21
-252.2976027838877
 31
0.0
  0
LINE
  5
2EC
330
1F
100
AcDbEntity
  8
0-0
  6
JWW_DASHED1
 62
   120
370
     5
100
AcDbLine
 10
474.3822851493298
 20
-239.2976027827881
 30
0.0
 11
1047.382285149331
 21
-239.2976027827881
 31
0.0
  0
LINE
  5
2ED
330
1F
100
AcDbEntity
  8
0-0
  6
JWW_DASHED1
 62
   120
370
     5
100
AcDbLine
 10
474.3822851493298
 20
-238.2976027828879
 30
0.0
 11
1047.382285149331
 21
-238.2976027828879
 31
0.0
  0
LINE
  5
2EE
330
1F
100
AcDbEntity
  8
0-0
  6
JWW_DASHED1
 62
   120
370
     5
100
AcDbLine
 10
474.3822851493298
 20
-225.2976027817883
 30
0.0
 11
1047.382285149331
 21
-225.2976027817883
 31
0.0
  0
LINE
  5
2EF
330
1F
100
AcDbEntity
  8
0-0
  6
JWW_DASHED1
 62
   120
370
     5
100
AcDbLine
 10
474.3822851493298
 20
-224.2976027818881
 30
0.0
 11
1047.382285149331
 21
-224.2976027818881
 31
0.0
  0
LINE
  5
2F0
330
1F
100
AcDbEntity
  8
0-0
  6
JWW_DASHED1
 62
   120
370
     5
100
AcDbLine
 10
474.3822851493298
 20
-211.2976027807885
 30
0.0
 11
1047.382285149331
 21
-211.2976027807885
 31
0.0
  0
LINE
  5
2F1
330
1F
100
AcDbEntity
  8
0-0
  6
JWW_DASHED1
 62
   120
370
     5
100
AcDbLine
 10
474.3822851493298
 20
-210.2976027808883
 30
0.0
 11
1047.382285149331
 21
-210.2976027808883
 31
0.0
  0
LINE
  5
2F2
330
1F
100
AcDbEntity
  8
0-0
  6
JWW_DASHED1
 62
   120
370
     5
100
AcDbLine
 10
474.3822851493298
 20
-197.2976027797887
 30
0.0
 11
1047.382285149331
 21
-197.2976027797887
 31
0.0
  0
LINE
  5
2F3
330
1F
100
AcDbEntity
  8
0-0
  6
JWW_DASHED1
 62
   120
370
     5
100
AcDbLine
 10
474.3822851493298
 20
-196.2976027798885
 30
0.0
 11
1047.382285149331
 21
-196.2976027798885
 31
0.0
  0
LINE
  5
2F4
330
1F
100
AcDbEntity
  8
0-0
  6
JWW_DASHED1
 62
   120
370
     5
100
AcDbLine
 10
474.3822851493298
 20
-183.2976027787889
 30
0.0
 11
1047.382285149331
 21
-183.2976027787889
 31
0.0
  0
LINE
  5
2F5
330
1F
100
AcDbEntity
  8
0-0
  6
JWW_DASHED1
 62
   120
370
     5
100
AcDbLine
 10
474.3822851493298
 20
-182.2976027788887
 30
0.0
 11
1047.382285149331
 21
-182.2976027788887
 31
0.0
  0
LINE
  5
2F6
330
1F
100
AcDbEntity
  8
0-0
  6
JWW_DASHED1
 62
   120
370
     5
100
AcDbLine
 10
474.3822851493298
 20
-169.2976027777891
 30
0.0
 11
1047.382285149331
 21
-169.2976027777891
 31
0.0
  0
LINE
  5
2F7
330
1F
100
AcDbEntity
  8
0-0
  6
JWW_DASHED1
 62
   120
370
     5
100
AcDbLine
 10
474.3822851493298
 20
-168.2976027778889
 30
0.0
 11
1047.382285149331
 21
-168.2976027778889
 31
0.0
  0
LINE
  5
2F8
330
1F
100
AcDbEntity
  8
0-0
  6
JWW_DASHED1
 62
   120
370
     5
100
AcDbLine
 10
474.3822851493298
 20
-155.2976027767893
 30
0.0
 11
1047.382285149331
 21
-155.2976027767893
 31
0.0
  0
LINE
  5
2F9
330
1F
100
AcDbEntity
  8
0-0
  6
JWW_DASHED1
 62
   120
370
     5
100
AcDbLine
 10
474.3822851493298
 20
-154.2976027768891
 30
0.0
 11
1047.382285149331
 21
-154.2976027768891
 31
0.0
  0
LINE
  5
2FA
330
1F
100
AcDbEntity
  8
0-0
  6
JWW_DASHED1
 62
   120
370
     5
100
AcDbLine
 10
474.3822851493298
 20
-141.2976027757895
 30
0.0
 11
1047.382285149331
 21
-141.2976027757895
 31
0.0
  0
LINE
  5
2FB
330
1F
100
AcDbEntity
  8
0-0
  6
JWW_DASHED1
 62
   120
370
     5
100
AcDbLine
 10
474.3822851493298
 20
-140.2976027758893
 30
0.0
 11
1047.382285149331
 21
-140.2976027758893
 31
0.0
  0
LINE
  5
2FC
330
1F
100
AcDbEntity
  8
0-0
  6
JWW_DASHED1
 62
   120
370
     5
100
AcDbLine
 10
474.3822851493298
 20
-127.2976027747897
 30
0.0
 11
1047.382285149331
 21
-127.2976027747897
 31
0.0
  0
LINE
  5
2FD
330
1F
100
AcDbEntity
  8
0-0
  6
JWW_DASHED1
 62
   120
370
     5
100
AcDbLine
 10
474.3822851493298
 20
-126.2976027748896
 30
0.0
 11
1047.382285149331
 21
-126.2976027748896
 31
0.0
  0
LINE
  5
2FE
330
1F
100
AcDbEntity
  8
0-0
  6
JWW_DASHED1
 62
   120
370
     5
100
AcDbLine
 10
474.3822851493298
 20
-113.2976027737899
 30
0.0
 11
1047.382285149331
 21
-113.2976027737899
 31
0.0
  0
LINE
  5
2FF
330
1F
100
AcDbEntity
  8
0-0
  6
JWW_DASHED1
 62
   120
370
     5
100
AcDbLine
 10
474.3822851493298
 20
-112.2976027738898
 30
0.0
 11
1047.382285149331
 21
-112.2976027738898
 31
0.0
  0
LINE
  5
300
330
1F
100
AcDbEntity
  8
0-0
  6
JWW_DASHED1
 62
   120
370
     5
100
AcDbLine
 10
474.3822851493298
 20
-99.29760277279016
 30
0.0
 11
1047.382285149331
 21
-99.29760277279016
 31
0.0
  0
LINE
  5
301
330
1F
100
AcDbEntity
  8
0-0
  6
JWW_DASHED1
 62
   120
370
     5
100
AcDbLine
 10
474.3822851493298
 20
-98.29760277288997
 30
0.0
 11
1047.382285149331
 21
-98.29760277288997
 31
0.0
  0
LINE
  5
302
330
1F
100
AcDbEntity
  8
0-0
  6
JWW_DASHED1
 62
   120
370
     5
100
AcDbLine
 10
474.3822851493298
 20
-85.29760277179037
 30
0.0
 11
1047.382285149331
 21
-85.29760277179037
 31
0.0
  0
LINE
  5
303
330
1F
100
AcDbEntity
  8
0-0
  6
JWW_DASHED1
 62
   120
370
     5
100
AcDbLine
 10
474.3822851493298
 20
-84.29760277189018
 30
0.0
 11
1047.382285149331
 21
-84.29760277189018
 31
0.0
  0
LINE
  5
304
330
1F
100
AcDbEntity
  8
0-0
  6
JWW_DASHED1
 62
   120
370
     5
100
AcDbLine
 10
474.3822851493298
 20
-71.29760277079058
 30
0.0
 11
1047.382285149331
 21
-71.29760277079058
 31
0.0
  0
LINE
  5
305
330
1F
100
AcDbEntity
  8
0-0
  6
JWW_DASHED1
 62
   120
370
     5
100
AcDbLine
 10
474.3822851493298
 20
-70.29760277089039
 30
0.0
 11
1047.382285149331
 21
-70.29760277089039
 31
0.0
  0
LINE
  5
306
330
1F
100
AcDbEntity
  8
0-0
  6
JWW_DASHED1
 62
   120
370
     5
100
AcDbLine
 10
474.3822851493298
 20
-57.29760276979079
 30
0.0
 11
1047.382285149331
 21
-57.29760276979079
 31
0.0
  0
LINE
  5
307
330
1F
100
AcDbEntity
  8
0-0
  6
JWW_DASHED1
 62
   120
370
     5
100
AcDbLine
 10
474.3822851493298
 20
-56.2976027698906
 30
0.0
 11
1047.382285149331
 21
-56.2976027698906
 31
0.0
  0
LINE
  5
308
330
1F
100
AcDbEntity
  8
0-0
  6
JWW_DASHED1
 62
   120
370
     5
100
AcDbLine
 10
474.3822851493298
 20
-43.29760276879099
 30
0.0
 11
1047.382285149331
 21
-43.29760276879099
 31
0.0
  0
LINE
  5
309
330
1F
100
AcDbEntity
  8
0-0
  6
JWW_DASHED1
 62
   120
370
     5
100
AcDbLine
 10
474.3822851493298
 20
-42.29760276889081
 30
0.0
 11
1047.382285149331
 21
-42.29760276889081
 31
0.0
  0
LINE
  5
30A
330
1F
100
AcDbEntity
  8
0-0
  6
JWW_DASHED1
 62
   120
370
     5
100
AcDbLine
 10
474.3822851493298
 20
-29.2976027677912
 30
0.0
 11
1047.382285149331
 21
-29.2976027677912
 31
0.0
  0
LINE
  5
30B
330
1F
100
AcDbEntity
  8
0-0
  6
JWW_DASHED1
 62
   120
370
     5
100
AcDbLine
 10
474.3822851493298
 20
-28.29760276789102
 30
0.0
 11
1047.382285149331
 21
-28.29760276789102
 31
0.0
  0
LINE
  5
30C
330
1F
100
AcDbEntity
  8
0-0
  6
JWW_DASHED1
 62
   120
370
     5
100
AcDbLine
 10
474.3822851493298
 20
-15.29760276679141
 30
0.0
 11
1047.382285149331
 21
-15.29760276679141
 31
0.0
  0
LINE
  5
30D
330
1F
100
AcDbEntity
  8
0-0
  6
JWW_DASHED1
 62
   120
370
     5
100
AcDbLine
 10
474.3822851493298
 20
-14.29760276689123
 30
0.0
 11
1047.382285149331
 21
-14.29760276689123
 31
0.0
  0
LINE
  5
30E
330
1F
100
AcDbEntity
  8
0-0
  6
JWW_DASHED1
 62
   120
370
     5
100
AcDbLine
 10
474.3822851493298
 20
-1.297602765791623
 30
0.0
 11
1047.382285149331
 21
-1.297602765791623
 31
0.0
  0
LINE
  5
30F
330
1F
100
AcDbEntity
  8
0-0
  6
JWW_DASHED1
 62
   120
370
     5
100
AcDbLine
 10
474.3822851493298
 20
-0.2976027658914404
 30
0.0
 11
1047.382285149331
 21
-0.2976027658914404
 31
0.0
  0
LINE
  5
310
330
1F
100
AcDbEntity
  8
0-0
  6
JWW_DASHED1
 62
   120
370
     5
100
AcDbLine
 10
474.3822851493298
 20
12.70239723520817
 30
0.0
 11
1047.382285149331
 21
12.70239723520817
 31
0.0
  0
LINE
  5
311
330
1F
100
AcDbEntity
  8
0-0
  6
JWW_DASHED1
 62
   120
370
     5
100
AcDbLine
 10
474.3822851493298
 20
13.70239723510835
 30
0.0
 11
1047.382285149331
 21
13.70239723510835
 31
0.0
  0
LINE
  5
312
330
1F
100
AcDbEntity
  8
0-0
  6
JWW_DASHED1
 62
   120
370
     5
100
AcDbLine
 10
474.3822851493298
 20
26.70239723620796
 30
0.0
 11
1047.382285149331
 21
26.70239723620796
 31
0.0
  0
LINE
  5
313
330
1F
100
AcDbEntity
  8
0-0
  6
JWW_DASHED1
 62
   120
370
     5
100
AcDbLine
 10
474.3822851493298
 20
27.70239723610814
 30
0.0
 11
1047.382285149331
 21
27.70239723610814
 31
0.0
  0
LINE
  5
314
330
1F
100
AcDbEntity
  8
0-0
  6
JWW_DASHED1
 62
   120
370
     5
100
AcDbLine
 10
474.3822851493298
 20
40.70239723720775
 30
0.0
 11
1047.382285149331
 21
40.70239723720775
 31
0.0
  0
LINE
  5
315
330
1F
100
AcDbEntity
  8
0-0
  6
JWW_DASHED1
 62
   120
370
     5
100
AcDbLine
 10
474.3822851493298
 20
41.70239723710793
 30
0.0
 11
1047.382285149331
 21
41.70239723710793
 31
0.0
  0
LINE
  5
316
330
1F
100
AcDbEntity
  8
0-0
  6
JWW_DASHED1
 62
   120
370
     5
100
AcDbLine
 10
474.3822851493298
 20
54.70239723820754
 30
0.0
 11
1047.382285149331
 21
54.70239723820754
 31
0.0
  0
LINE
  5
317
330
1F
100
AcDbEntity
  8
0-0
  6
JWW_DASHED1
 62
   120
370
     5
100
AcDbLine
 10
474.3822851493298
 20
55.70239723810772
 30
0.0
 11
1047.382285149331
 21
55.70239723810772
 31
0.0
  0
LINE
  5
318
330
1F
100
AcDbEntity
  8
0-0
  6
JWW_DASHED1
 62
   120
370
     5
100
AcDbLine
 10
474.3822851493298
 20
68.70239723920733
 30
0.0
 11
1047.382285149331
 21
68.70239723920733
 31
0.0
  0
LINE
  5
319
330
1F
100
AcDbEntity
  8
0-0
  6
JWW_DASHED1
 62
   120
370
     5
100
AcDbLine
 10
474.3822851493298
 20
69.70239723910751
 30
0.0
 11
1047.382285149331
 21
69.70239723910751
 31
0.0
  0
LINE
  5
31A
330
1F
100
AcDbEntity
  8
0-0
  6
JWW_DASHED1
 62
   120
370
     5
100
AcDbLine
 10
474.3822851493298
 20
82.70239724020712
 30
0.0
 11
1047.382285149331
 21
82.70239724020712
 31
0.0
  0
LINE
  5
31B
330
1F
100
AcDbEntity
  8
0-0
  6
JWW_DASHED1
 62
   120
370
     5
100
AcDbLine
 10
474.3822851493298
 20
83.7023972401073
 30
0.0
 11
1047.382285149331
 21
83.7023972401073
 31
0.0
  0
LINE
  5
31C
330
1F
100
AcDbEntity
  8
0-0
  6
JWW_DASHED1
 62
   120
370
     5
100
AcDbLine
 10
474.3822851493298
 20
96.70239724120691
 30
0.0
 11
1047.382285149331
 21
96.70239724120691
 31
0.0
  0
LINE
  5
31D
330
1F
100
AcDbEntity
  8
0-0
  6
JWW_DASHED1
 62
   120
370
     5
100
AcDbLine
 10
474.3822851493298
 20
97.7023972411071
 30
0.0
 11
1047.382285149331
 21
97.7023972411071
 31
0.0
  0
LINE
  5
31E
330
1F
100
AcDbEntity
  8
0-0
  6
JWW_DASHED1
 62
   120
370
     5
100
AcDbLine
 10
474.3822851493298
 20
110.7023972422067
 30
0.0
 11
1047.382285149331
 21
110.7023972422067
 31
0.0
  0
LINE
  5
31F
330
1F
100
AcDbEntity
  8
0-0
  6
JWW_DASHED1
 62
   120
370
     5
100
AcDbLine
 10
474.3822851493298
 20
111.7023972421069
 30
0.0
 11
1047.382285149331
 21
111.7023972421069
 31
0.0
  0
LINE
  5
320
330
1F
100
AcDbEntity
  8
0-0
  6
JWW_DASHED1
 62
   120
370
     5
100
AcDbLine
 10
474.3822851493298
 20
124.7023972432065
 30
0.0
 11
1047.382285149331
 21
124.7023972432065
 31
0.0
  0
LINE
  5
321
330
1F
100
AcDbEntity
  8
0-0
  6
JWW_DASHED1
 62
   120
370
     5
100
AcDbLine
 10
474.3822851493298
 20
125.7023972431067
 30
0.0
 11
1047.382285149331
 21
125.7023972431067
 31
0.0
  0
LINE
  5
322
330
1F
100
AcDbEntity
  8
0-0
  6
JWW_DASHED1
 62
   120
370
     5
100
AcDbLine
 10
474.3822851493298
 20
138.7023972442063
 30
0.0
 11
1047.382285149331
 21
138.7023972442063
 31
0.0
  0
LINE
  5
323
330
1F
100
AcDbEntity
  8
0-0
  6
JWW_DASHED1
 62
   120
370
     5
100
AcDbLine
 10
474.3822851493298
 20
139.7023972441065
 30
0.0
 11
1047.382285149331
 21
139.7023972441065
 31
0.0
  0
LINE
  5
324
330
1F
100
AcDbEntity
  8
0-0
  6
JWW_DASHED1
 62
   120
370
     5
100
AcDbLine
 10
474.3822851493298
 20
152.7023972452061
 30
0.0
 11
1047.382285149331
 21
152.7023972452061
 31
0.0
  0
LINE
  5
325
330
1F
100
AcDbEntity
  8
0-0
  6
JWW_DASHED1
 62
   120
370
     5
100
AcDbLine
 10
474.3822851493298
 20
153.7023972451063
 30
0.0
 11
1047.382285149331
 21
153.7023972451063
 31
0.0
  0
LINE
  5
326
330
1F
100
AcDbEntity
  8
0-0
  6
JWW_DASHED1
 62
   120
370
     5
100
AcDbLine
 10
474.3822851493298
 20
166.7023972462059
 30
0.0
 11
1047.382285149331
 21
166.7023972462059
 31
0.0
  0
LINE
  5
327
330
1F
100
AcDbEntity
  8
0-0
  6
JWW_DASHED1
 62
   120
370
     5
100
AcDbLine
 10
474.3822851493298
 20
167.702397246106
 30
0.0
 11
1047.382285149331
 21
167.702397246106
 31
0.0
  0
LINE
  5
328
330
1F
100
AcDbEntity
  8
0-0
  6
JWW_DASHED1
 62
   120
370
     5
100
AcDbLine
 10
474.3822851493298
 20
180.7023972472057
 30
0.0
 11
1047.382285149331
 21
180.7023972472057
 31
0.0
  0
LINE
  5
329
330
1F
100
AcDbEntity
  8
0-0
  6
JWW_DASHED1
 62
   120
370
     5
100
AcDbLine
 10
474.3822851493298
 20
181.7023972471058
 30
0.0
 11
1047.382285149331
 21
181.7023972471058
 31
0.0
  0
LINE
  5
32A
330
1F
100
AcDbEntity
  8
0-0
  6
JWW_DASHED1
 62
   120
370
     5
100
AcDbLine
 10
474.3822851493298
 20
194.7023972482054
 30
0.0
 11
1047.382285149331
 21
194.7023972482054
 31
0.0
  0
LINE
  5
32B
330
1F
100
AcDbEntity
  8
0-0
  6
JWW_DASHED1
 62
   120
370
     5
100
AcDbLine
 10
474.3822851493298
 20
195.7023972481056
 30
0.0
 11
1047.382285149331
 21
195.7023972481056
 31
0.0
  0
LINE
  5
32C
330
1F
100
AcDbEntity
  8
0-0
  6
JWW_DASHED1
 62
   120
370
     5
100
AcDbLine
 10
474.3822851493298
 20
208.7023972492052
 30
0.0
 11
1047.382285149331
 21
208.7023972492052
 31
0.0
  0
LINE
  5
32D
330
1F
100
AcDbEntity
  8
0-0
  6
JWW_DASHED1
 62
   120
370
     5
100
AcDbLine
 10
474.3822851493298
 20
209.7023972491054
 30
0.0
 11
1047.382285149331
 21
209.7023972491054
 31
0.0
  0
LINE
  5
32E
330
1F
100
AcDbEntity
  8
0-0
  6
JWW_DASHED1
 62
   120
370
     5
100
AcDbLine
 10
474.3822851493298
 20
222.702397250205
 30
0.0
 11
1047.382285149331
 21
222.702397250205
 31
0.0
  0
LINE
  5
32F
330
1F
100
AcDbEntity
  8
0-0
  6
JWW_DASHED1
 62
   120
370
     5
100
AcDbLine
 10
474.3822851493298
 20
223.7023972501052
 30
0.0
 11
1047.382285149331
 21
223.7023972501052
 31
0.0
  0
LINE
  5
330
330
1F
100
AcDbEntity
  8
0-0
  6
JWW_DASHED1
 62
   120
370
     5
100
AcDbLine
 10
474.3822851493298
 20
236.7023972512048
 30
0.0
 11
1047.382285149331
 21
236.7023972512048
 31
0.0
  0
LINE
  5
331
330
1F
100
AcDbEntity
  8
0-0
  6
JWW_DASHED1
 62
   120
370
     5
100
AcDbLine
 10
474.3822851493298
 20
237.702397251105
 30
0.0
 11
1047.382285149331
 21
237.702397251105
 31
0.0
  0
LINE
  5
332
330
1F
100
AcDbEntity
  8
0-0
  6
JWW_DASHED1
 62
   120
370
     5
100
AcDbLine
 10
474.3822851493298
 20
250.7023972522046
 30
0.0
 11
1047.382285149331
 21
250.7023972522046
 31
0.0
  0
LINE
  5
333
330
1F
100
AcDbEntity
  8
0-0
  6
JWW_DASHED1
 62
   120
370
     5
100
AcDbLine
 10
474.3822851493298
 20
251.7023972521048
 30
0.0
 11
1047.382285149331
 21
251.7023972521048
 31
0.0
  0
LINE
  5
334
330
1F
100
AcDbEntity
  8
0-0
  6
JWW_DASHED1
 62
   120
370
     5
100
AcDbLine
 10
474.3822851493298
 20
264.7023972532044
 30
0.0
 11
1047.382285149331
 21
264.7023972532044
 31
0.0
  0
LINE
  5
335
330
1F
100
AcDbEntity
  8
0-0
  6
JWW_DASHED1
 62
   120
370
     5
100
AcDbLine
 10
474.3822851493298
 20
265.7023972531046
 30
0.0
 11
1047.382285149331
 21
265.7023972531046
 31
0.0
  0
LINE
  5
336
330
1F
100
AcDbEntity
  8
0-0
  6
JWW_DASHED1
 62
   120
370
     5
100
AcDbLine
 10
474.3822851493298
 20
278.7023972542042
 30
0.0
 11
1047.382285149331
 21
278.7023972542042
 31
0.0
  0
LINE
  5
337
330
1F
100
AcDbEntity
  8
0-0
  6
JWW_DASHED1
 62
   120
370
     5
100
AcDbLine
 10
474.3822851493298
 20
279.7023972541044
 30
0.0
 11
1047.382285149331
 21
279.7023972541044
 31
0.0
  0
LINE
  5
338
330
1F
100
AcDbEntity
  8
0-0
  6
JWW_DASHED1
 62
   120
370
     5
100
AcDbLine
 10
474.3822851493298
 20
292.702397255204
 30
0.0
 11
1047.382285149331
 21
292.702397255204
 31
0.0
  0
LINE
  5
339
330
1F
100
AcDbEntity
  8
0-0
  6
JWW_DASHED1
 62
   120
370
     5
100
AcDbLine
 10
474.3822851493298
 20
293.7023972551042
 30
0.0
 11
1047.382285149331
 21
293.7023972551042
 31
0.0
  0
LINE
  5
33A
330
1F
100
AcDbEntity
  8
0-0
  6
JWW_DASHED1
 62
   120
370
     5
100
AcDbLine
 10
474.3822851493298
 20
306.7023972562038
 30
0.0
 11
1047.382285149331
 21
306.7023972562038
 31
0.0
  0
LINE
  5
33B
330
1F
100
AcDbEntity
  8
0-0
  6
JWW_DASHED1
 62
   120
370
     5
100
AcDbLine
 10
474.3822851493298
 20
307.7023972561039
 30
0.0
 11
1047.382285149331
 21
307.7023972561039
 31
0.0
  0
LINE
  5
33C
330
1F
100
AcDbEntity
  8
0-0
  6
JWW_DASHED1
 62
   120
370
     5
100
AcDbLine
 10
474.3822851493298
 20
320.7023972572035
 30
0.0
 11
1047.382285149331
 21
320.7023972572035
 31
0.0
  0
LINE
  5
33D
330
1F
100
AcDbEntity
  8
0-0
  6
JWW_DASHED1
 62
   120
370
     5
100
AcDbLine
 10
474.3822851493298
 20
321.7023972571037
 30
0.0
 11
1047.382285149331
 21
321.7023972571037
 31
0.0
  0
LINE
  5
33E
330
1F
100
AcDbEntity
  8
0-0
  6
JWW_DASHED1
 62
   120
370
     5
100
AcDbLine
 10
474.3822851493298
 20
334.7023972582033
 30
0.0
 11
1047.382285149331
 21
334.7023972582033
 31
0.0
  0
LINE
  5
33F
330
1F
100
AcDbEntity
  8
0-0
  6
JWW_DASHED1
 62
   120
370
     5
100
AcDbLine
 10
474.3822851493298
 20
335.7023972581035
 30
0.0
 11
1047.382285149331
 21
335.7023972581035
 31
0.0
  0
LINE
  5
340
330
1F
100
AcDbEntity
  8
0-0
  6
JWW_DASHED1
 62
   120
370
     5
100
AcDbLine
 10
474.3822851493298
 20
348.7023972592032
 30
0.0
 11
1047.382285149331
 21
348.7023972592032
 31
0.0
  0
LINE
  5
341
330
1F
100
AcDbEntity
  8
0-0
  6
JWW_DASHED1
 62
   120
370
     5
100
AcDbLine
 10
474.3822851493298
 20
349.7023972591033
 30
0.0
 11
1047.382285149331
 21
349.7023972591033
 31
0.0
  0
LINE
  5
342
330
1F
100
AcDbEntity
  8
0-0
  6
JWW_DASHED1
 62
   120
370
     5
100
AcDbLine
 10
474.3822851493298
 20
362.7023972602029
 30
0.0
 11
1047.382285149331
 21
362.7023972602029
 31
0.0
  0
LINE
  5
343
330
1F
100
AcDbEntity
  8
0-0
  6
JWW_DASHED1
 62
   120
370
     5
100
AcDbLine
 10
474.3822851493298
 20
363.7023972601031
 30
0.0
 11
1047.382285149331
 21
363.7023972601031
 31
0.0
  0
LINE
  5
344
330
1F
100
AcDbEntity
  8
0-0
  6
JWW_DASHED1
 62
   120
370
     5
100
AcDbLine
 10
474.3822851493298
 20
376.7023972612027
 30
0.0
 11
1047.382285149331
 21
376.7023972612027
 31
0.0
  0
LINE
  5
345
330
1F
100
AcDbEntity
  8
0-0
  6
JWW_DASHED1
 62
   120
370
     5
100
AcDbLine
 10
474.3822851493298
 20
377.7023972611029
 30
0.0
 11
1047.382285149331
 21
377.7023972611029
 31
0.0
  0
LINE
  5
346
330
1F
100
AcDbEntity
  8
0-0
  6
JWW_DASHED1
 62
   120
370
     5
100
AcDbLine
 10
474.3822851493298
 20
390.7023972622025
 30
0.0
 11
1047.382285149331
 21
390.7023972622025
 31
0.0
  0
LINE
  5
347
330
1F
100
AcDbEntity
  8
0-0
  6
JWW_DASHED1
 62
   120
370
     5
100
AcDbLine
 10
474.3822851493298
 20
391.7023972621027
 30
0.0
 11
1047.382285149331
 21
391.7023972621027
 31
0.0
  0
LINE
  5
348
330
1F
100
AcDbEntity
  8
0-0
  6
JWW_DASHED1
 62
   120
370
     5
100
AcDbLine
 10
474.3822851493298
 20
404.7023972632023
 30
0.0
 11
1047.382285149331
 21
404.7023972632023
 31
0.0
  0
LINE
  5
349
330
1F
100
AcDbEntity
  8
0-0
  6
JWW_DASHED1
 62
   120
370
     5
100
AcDbLine
 10
474.3822851493298
 20
405.7023972631025
 30
0.0
 11
1047.382285149331
 21
405.7023972631025
 31
0.0
  0
LINE
  5
34A
330
1F
100
AcDbEntity
  8
0-0
  6
JWW_DASHED1
 62
   120
370
     5
100
AcDbLine
 10
474.3822851493298
 20
418.7023972642021
 30
0.0
 11
1047.382285149331
 21
418.7023972642021
 31
0.0
  0
LINE
  5
34B
330
1F
100
AcDbEntity
  8
0-0
  6
JWW_DASHED1
 62
   120
370
     5
100
AcDbLine
 10
474.3822851493298
 20
419.7023972641023
 30
0.0
 11
1047.382285149331
 21
419.7023972641023
 31
0.0
  0
LINE
  5
34C
330
1F
100
AcDbEntity
  8
0-0
  6
JWW_DASHED1
 62
   120
370
     5
100
AcDbLine
 10
474.3822851493298
 20
432.7023972652019
 30
0.0
 11
1047.382285149331
 21
432.7023972652019
 31
0.0
  0
LINE
  5
34D
330
1F
100
AcDbEntity
  8
0-0
  6
JWW_DASHED1
 62
   120
370
     5
100
AcDbLine
 10
474.3822851493298
 20
433.702397265102
 30
0.0
 11
1047.382285149331
 21
433.702397265102
 31
0.0
  0
LINE
  5
34E
330
1F
100
AcDbEntity
  8
0-0
  6
JWW_DASHED1
 62
   120
370
     5
100
AcDbLine
 10
474.3822851493298
 20
446.7023972662017
 30
0.0
 11
1047.382285149331
 21
446.7023972662017
 31
0.0
  0
LINE
  5
34F
330
1F
100
AcDbEntity
  8
0-0
  6
JWW_DASHED1
 62
   120
370
     5
100
AcDbLine
 10
474.3822851493298
 20
447.7023972661019
 30
0.0
 11
1047.382285149331
 21
447.7023972661019
 31
0.0
  0
LINE
  5
350
330
1F
100
AcDbEntity
  8
0-0
  6
JWW_DASHED1
 62
   120
370
     5
100
AcDbLine
 10
474.3822851493298
 20
460.7023972672015
 30
0.0
 11
1047.382285149331
 21
460.7023972672015
 31
0.0
  0
LINE
  5
351
330
1F
100
AcDbEntity
  8
0-0
  6
JWW_DASHED1
 62
   120
370
     5
100
AcDbLine
 10
474.3822851493298
 20
461.7023972671017
 30
0.0
 11
1047.382285149331
 21
461.7023972671017
 31
0.0
  0
LINE
  5
352
330
1F
100
AcDbEntity
  8
0-0
  6
JWW_DASHED1
 62
   120
370
     5
100
AcDbLine
 10
474.3822851493298
 20
474.7023972682013
 30
0.0
 11
1047.382285149331
 21
474.7023972682013
 31
0.0
  0
LINE
  5
353
330
1F
100
AcDbEntity
  8
0-0
  6
JWW_DASHED1
 62
   120
370
     5
100
AcDbLine
 10
474.3822851493298
 20
475.7023972681014
 30
0.0
 11
1047.382285149331
 21
475.7023972681014
 31
0.0
  0
LINE
  5
354
330
1F
100
AcDbEntity
  8
0-0
  6
JWW_DASHED1
 62
   120
370
     5
100
AcDbLine
 10
474.3822851493298
 20
488.702397269201
 30
0.0
 11
1047.382285149331
 21
488.702397269201
 31
0.0
  0
LINE
  5
355
330
1F
100
AcDbEntity
  8
0-0
  6
JWW_DASHED1
 62
   120
370
     5
100
AcDbLine
 10
474.3822851493298
 20
489.7023972691012
 30
0.0
 11
1047.382285149331
 21
489.7023972691012
 31
0.0
  0
LINE
  5
356
330
1F
100
AcDbEntity
  8
0-0
  6
JWW_DASHED1
 62
   120
370
     5
100
AcDbLine
 10
474.3822851493298
 20
502.7023972702008
 30
0.0
 11
1047.382285149331
 21
502.7023972702008
 31
0.0
  0
LINE
  5
357
330
1F
100
AcDbEntity
  8
0-0
  6
JWW_DASHED1
 62
   120
370
     5
100
AcDbLine
 10
474.3822851493298
 20
503.702397270101
 30
0.0
 11
1047.382285149331
 21
503.702397270101
 31
0.0
  0
LINE
  5
358
330
1F
100
AcDbEntity
  8
0-0
  6
JWW_DASHED1
 62
   120
370
     5
100
AcDbLine
 10
474.3822851493298
 20
516.7023972712007
 30
0.0
 11
1047.382285149331
 21
516.7023972712007
 31
0.0
  0
LINE
  5
359
330
1F
100
AcDbEntity
  8
0-0
  6
JWW_DASHED1
 62
   120
370
     5
100
AcDbLine
 10
474.3822851493298
 20
517.7023972711008
 30
0.0
 11
1047.382285149331
 21
517.7023972711008
 31
0.0
  0
LINE
  5
35A
330
1F
100
AcDbEntity
  8
0-0
  6
JWW_DASHED1
 62
   120
370
     5
100
AcDbLine
 10
474.3822851493298
 20
530.7023972722004
 30
0.0
 11
1047.382285149331
 21
530.7023972722004
 31
0.0
  0
LINE
  5
35B
330
1F
100
AcDbEntity
  8
0-0
  6
JWW_DASHED1
 62
   120
370
     5
100
AcDbLine
 10
474.3822851493298
 20
531.7023972721006
 30
0.0
 11
1047.382285149331
 21
531.7023972721006
 31
0.0
  0
LINE
  5
35C
330
1F
100
AcDbEntity
  8
0-0
  6
JWW_DASHED1
 62
   120
370
     5
100
AcDbLine
 10
474.3822851493298
 20
544.7023972732002
 30
0.0
 11
1047.382285149331
 21
544.7023972732002
 31
0.0
  0
LINE
  5
35D
330
1F
100
AcDbEntity
  8
0-0
  6
JWW_DASHED1
 62
   120
370
     5
100
AcDbLine
 10
474.3822851493298
 20
545.7023972731004
 30
0.0
 11
1047.382285149331
 21
545.7023972731004
 31
0.0
  0
LINE
  5
35E
330
1F
100
AcDbEntity
  8
0-0
  6
JWW_DASHED1
 62
   120
370
     5
100
AcDbLine
 10
474.3822851493298
 20
558.7023972741999
 30
0.0
 11
1047.382285149331
 21
558.7023972741999
 31
0.0
  0
LINE
  5
35F
330
1F
100
AcDbEntity
  8
0-0
  6
JWW_DASHED1
 62
   120
370
     5
100
AcDbLine
 10
474.3822851493298
 20
559.7023972741001
 30
0.0
 11
1047.382285149331
 21
559.7023972741001
 31
0.0
  0
LINE
  5
360
330
1F
100
AcDbEntity
  8
0-0
  6
JWW_DASHED1
 62
   120
370
     5
100
AcDbLine
 10
474.3822851493298
 20
572.7023972751998
 30
0.0
 11
1047.382285149331
 21
572.7023972751998
 31
0.0
  0
LINE
  5
361
330
1F
100
AcDbEntity
  8
0-0
  6
JWW_DASHED1
 62
   120
370
     5
100
AcDbLine
 10
474.3822851493298
 20
573.7023972751
 30
0.0
 11
1047.382285149331
 21
573.7023972751
 31
0.0
  0
LINE
  5
362
330
1F
100
AcDbEntity
  8
0-0
  6
JWW_DASHED1
 62
   120
370
     5
100
AcDbLine
 10
474.3822851493298
 20
586.7023972761996
 30
0.0
 11
1047.382285149331
 21
586.7023972761996
 31
0.0
  0
LINE
  5
363
330
1F
100
AcDbEntity
  8
0-0
  6
JWW_DASHED1
 62
   120
370
     5
100
AcDbLine
 10
474.3822851493298
 20
587.7023972760995
 30
0.0
 11
1047.382285149331
 21
587.7023972760995
 31
0.0
  0
LINE
  5
364
330
1F
100
AcDbEntity
  8
0-0
  6
JWW_DASHED1
 62
   120
370
     5
100
AcDbLine
 10
474.3822851493298
 20
600.7023972771993
 30
0.0
 11
1047.382285149331
 21
600.7023972771993
 31
0.0
  0
LINE
  5
365
330
1F
100
AcDbEntity
  8
0-0
  6
JWW_DASHED1
 62
   120
370
     5
100
AcDbLine
 10
474.3822851493298
 20
601.7023972770995
 30
0.0
 11
1047.382285149331
 21
601.7023972770995
 31
0.0
  0
LINE
  5
366
330
1F
100
AcDbEntity
  8
0-0
  6
JWW_DASHED1
 62
   120
370
     5
100
AcDbLine
 10
474.3822851493298
 20
614.7023972781992
 30
0.0
 11
1047.382285149331
 21
614.7023972781992
 31
0.0
  0
LINE
  5
367
330
1F
100
AcDbEntity
  8
0-0
  6
JWW_DASHED1
 62
   120
370
     5
100
AcDbLine
 10
474.3822851493298
 20
615.7023972780994
 30
0.0
 11
1047.382285149331
 21
615.7023972780994
 31
0.0
  0
LINE
  5
368
330
1F
100
AcDbEntity
  8
0-0
  6
JWW_DASHED1
 62
   120
370
     5
100
AcDbLine
 10
561.8011269112933
 20
628.702397279199
 30
0.0
 11
959.9634433873664
 21
628.702397279199
 31
0.0
  0
LINE
  5
369
330
1F
100
AcDbEntity
  8
0-0
  6
JWW_DASHED1
 62
   120
370
     5
100
AcDbLine
 10
565.3953567826532
 20
629.7023972790992
 30
0.0
 11
956.3692135160065
 21
629.7023972790992
 31
0.0
  0
LINE
  5
36A
330
1F
100
AcDbEntity
  8
0-0
  6
JWW_DASHED1
 62
   120
370
     5
100
AcDbLine
 10
596.507434250909
 20
642.7023972801987
 30
0.0
 11
925.2571360477507
 21
642.7023972801987
 31
0.0
  0
LINE
  5
36B
330
1F
100
AcDbEntity
  8
0-0
  6
JWW_DASHED1
 62
   120
370
     5
100
AcDbLine
 10
598.4012342405751
 20
643.7023972800989
 30
0.0
 11
923.3633360580845
 21
643.7023972800989
 31
0.0
  0
LINE
  5
36C
330
1F
100
AcDbEntity
  8
0-0
  6
JWW_DASHED1
 62
   120
370
     5
100
AcDbLine
 10
626.0820783328948
 20
656.7023972811985
 30
0.0
 11
895.6824919657649
 21
656.7023972811985
 31
0.0
  0
LINE
  5
36D
330
1F
100
AcDbEntity
  8
0-0
  6
JWW_DASHED1
 62
   120
370
     5
100
AcDbLine
 10
628.503676400471
 20
657.7023972810987
 30
0.0
 11
893.2608938981887
 21
657.7023972810987
 31
0.0
  0
LINE
  5
36E
330
1F
100
AcDbEntity
  8
0-0
  6
JWW_DASHED1
 62
   120
370
     5
100
AcDbLine
 10
666.377788390839
 20
670.7023972821983
 30
0.0
 11
855.3867819078207
 21
670.7023972821983
 31
0.0
  0
LINE
  5
36F
330
1F
100
AcDbEntity
  8
0-0
  6
JWW_DASHED1
 62
   120
370
     5
100
AcDbLine
 10
670.0192002132119
 20
671.7023972820984
 30
0.0
 11
851.7453700854478
 21
671.7023972820984
 31
0.0
  0
LINE
  5
370
330
1F
100
AcDbEntity
  8
0-0
  6
JWW_DASHED1
 62
   120
370
     5
100
AcDbLine
 10
1041.382303647262
 20
-491.2974544869405
 30
0.0
 11
1041.382303647262
 21
623.702277968751
 31
0.0
  0
LINE
  5
371
330
1F
100
AcDbEntity
  8
0-0
  6
JWW_DASHED1
 62
   120
370
     5
100
AcDbLine
 10
1040.382303647362
 20
-491.2974544869405
 30
0.0
 11
1040.382303647362
 21
623.702277968751
 31
0.0
  0
LINE
  5
372
330
1F
100
AcDbEntity
  8
0-0
  6
JWW_DASHED1
 62
   120
370
     5
100
AcDbLine
 10
1027.382303646262
 20
-491.2974544869405
 30
0.0
 11
1027.382303646262
 21
623.702277968751
 31
0.0
  0
LINE
  5
373
330
1F
100
AcDbEntity
  8
0-0
  6
JWW_DASHED1
 62
   120
370
     5
100
AcDbLine
 10
1026.382303646362
 20
-491.2974544869405
 30
0.0
 11
1026.382303646362
 21
623.702277968751
 31
0.0
  0
LINE
  5
374
330
1F
100
AcDbEntity
  8
0-0
  6
JWW_DASHED1
 62
   120
370
     5
100
AcDbLine
 10
1013.382303645262
 20
-491.2974544869405
 30
0.0
 11
1013.382303645262
 21
623.702277968751
 31
0.0
  0
LINE
  5
375
330
1F
100
AcDbEntity
  8
0-0
  6
JWW_DASHED1
 62
   120
370
     5
100
AcDbLine
 10
1012.382303645362
 20
-491.2974544869405
 30
0.0
 11
1012.382303645362
 21
623.702277968751
 31
0.0
  0
LINE
  5
376
330
1F
100
AcDbEntity
  8
0-0
  6
JWW_DASHED1
 62
   120
370
     5
100
AcDbLine
 10
999.3823036442618
 20
-491.2974544869405
 30
0.0
 11
999.3823036442622
 21
623.702277968751
 31
0.0
  0
LINE
  5
377
330
1F
100
AcDbEntity
  8
0-0
  6
JWW_DASHED1
 62
   120
370
     5
100
AcDbLine
 10
998.382303644362
 20
-491.2974544869405
 30
0.0
 11
998.382303644362
 21
623.702277968751
 31
0.0
  0
LINE
  5
378
330
1F
100
AcDbEntity
  8
0-0
  6
JWW_DASHED1
 62
   120
370
     5
100
AcDbLine
 10
985.3823036432619
 20
-491.2974544869405
 30
0.0
 11
985.3823036432619
 21
624.2655704739633
 31
0.0
  0
LINE
  5
379
330
1F
100
AcDbEntity
  8
0-0
  6
JWW_DASHED1
 62
   120
370
     5
100
AcDbLine
 10
984.3823036433618
 20
-491.2974544869405
 30
0.0
 11
984.3823036433618
 21
624.3558521359961
 31
0.0
  0
LINE
  5
37A
330
1F
100
AcDbEntity
  8
0-0
  6
JWW_DASHED1
 62
   120
370
     5
100
AcDbLine
 10
971.3823036422617
 20
-491.2974544869405
 30
0.0
 11
971.3823036422617
 21
626.1499665105299
 31
0.0
  0
LINE
  5
37B
330
1F
100
AcDbEntity
  8
0-0
  6
JWW_DASHED1
 62
   120
370
     5
100
AcDbLine
 10
970.382303642362
 20
-491.2974544869405
 30
0.0
 11
970.382303642362
 21
626.3363728929659
 31
0.0
  0
LINE
  5
37C
330
1F
100
AcDbEntity
  8
0-0
  6
JWW_DASHED1
 62
   120
370
     5
100
AcDbLine
 10
957.382303641262
 20
-491.2974544869405
 30
0.0
 11
957.382303641262
 21
629.4107685637215
 31
0.0
  0
LINE
  5
37D
330
1F
100
AcDbEntity
  8
0-0
  6
JWW_DASHED1
 62
   120
370
     5
100
AcDbLine
 10
956.3823036413618
 20
-491.2974544869405
 30
0.0
 11
956.3823036413622
 21
629.6985799311011
 31
0.0
  0
LINE
  5
37E
330
1F
100
AcDbEntity
  8
0-0
  6
JWW_DASHED1
 62
   120
370
     5
100
AcDbLine
 10
943.3823036402617
 20
-491.2974544869405
 30
0.0
 11
943.3823036402622
 21
634.1444234565648
 31
0.0
  0
LINE
  5
37F
330
1F
100
AcDbEntity
  8
0-0
  6
JWW_DASHED1
 62
   120
370
     5
100
AcDbLine
 10
942.382303640362
 20
-491.2974544869405
 30
0.0
 11
942.382303640362
 21
634.5425851040824
 31
0.0
  0
LINE
  5
380
330
1F
100
AcDbEntity
  8
0-0
  6
JWW_DASHED1
 62
   120
370
     5
100
AcDbLine
 10
929.382303639262
 20
-491.2974544869405
 30
0.0
 11
929.382303639262
 21
640.5078718337251
 31
0.0
  0
LINE
  5
381
330
1F
100
AcDbEntity
  8
0-0
  6
JWW_DASHED1
 62
   120
370
     5
100
AcDbLine
 10
928.3823036393618
 20
-491.2974544869405
 30
0.0
 11
928.3823036393618
 21
641.0305960325246
 31
0.0
  0
LINE
  5
382
330
1F
100
AcDbEntity
  8
0-0
  6
JWW_DASHED1
 62
   120
370
     5
100
AcDbLine
 10
915.3823036382621
 20
-491.2974544869405
 30
0.0
 11
915.3823036382621
 21
647.756273857284
 31
0.0
  0
LINE
  5
383
330
1F
100
AcDbEntity
  8
0-0
  6
JWW_DASHED1
 62
   120
370
     5
100
AcDbLine
 10
914.3823036383619
 20
-491.2974544869405
 30
0.0
 11
914.3823036383619
 21
648.2462536425908
 31
0.0
  0
LINE
  5
384
330
1F
100
AcDbEntity
  8
0-0
  6
JWW_DASHED1
 62
   120
370
     5
100
AcDbLine
 10
901.3823036372623
 20
-491.2974544869405
 30
0.0
 11
901.3823036372623
 21
654.2641539519161
 31
0.0
  0
LINE
  5
385
330
1F
100
AcDbEntity
  8
0-0
  6
JWW_DASHED1
 62
   120
370
     5
100
AcDbLine
 10
900.3823036373622
 20
-491.2974544869405
 30
0.0
 11
900.3823036373622
 21
654.7005904320929
 31
0.0
  0
LINE
  5
386
330
1F
100
AcDbEntity
  8
0-0
  6
JWW_DASHED1
 62
   120
370
     5
100
AcDbLine
 10
887.3823036362621
 20
-491.2974544869405
 30
0.0
 11
887.3823036362621
 21
660.0424684811503
 31
0.0
  0
LINE
  5
387
330
1F
100
AcDbEntity
  8
0-0
  6
JWW_DASHED1
 62
   120
370
     5
100
AcDbLine
 10
886.3823036363619
 20
-491.2974544869405
 30
0.0
 11
886.3823036363619
 21
660.4283408824256
 31
0.0
  0
LINE
  5
388
330
1F
100
AcDbEntity
  8
0-0
  6
JWW_DASHED1
 62
   120
370
     5
100
AcDbLine
 10
873.3823036352619
 20
-491.2974544869405
 30
0.0
 11
873.3823036352619
 21
665.1293788272221
 31
0.0
  0
LINE
  5
389
330
1F
100
AcDbEntity
  8
0-0
  6
JWW_DASHED1
 62
   120
370
     5
100
AcDbLine
 10
872.3823036353617
 20
-491.2974544869405
 30
0.0
 11
872.3823036353617
 21
665.467139581832
 31
0.0
  0
LINE
  5
38A
330
1F
100
AcDbEntity
  8
0-0
  6
JWW_DASHED1
 62
   120
370
     5
100
AcDbLine
 10
859.3823036342621
 20
-491.2974544869405
 30
0.0
 11
859.3823036342621
 21
669.5563029112407
 31
0.0
  0
LINE
  5
38B
330
1F
100
AcDbEntity
  8
0-0
  6
JWW_DASHED1
 62
   120
370
     5
100
AcDbLine
 10
858.382303634362
 20
-491.2974544869405
 30
0.0
 11
858.382303634362
 21
669.847969987967
 31
0.0
  0
LINE
  5
38C
330
1F
100
AcDbEntity
  8
0-0
  6
JWW_DASHED1
 62
   120
370
     5
100
AcDbLine
 10
845.3823036332624
 20
-491.2974544869405
 30
0.0
 11
845.3823036332624
 21
673.3490483306184
 31
0.0
  0
LINE
  5
38D
330
1F
100
AcDbEntity
  8
0-0
  6
JWW_DASHED1
 62
   120
370
     5
100
AcDbLine
 10
844.3823036333622
 20
-491.2974544869405
 30
0.0
 11
844.3823036333622
 21
673.5962743654079
 31
0.0
  0
LINE
  5
38E
330
1F
100
AcDbEntity
  8
0-0
  6
JWW_DASHED1
 62
   120
370
     5
100
AcDbLine
 10
831.3823036322622
 20
-491.2974544869405
 30
0.0
 11
831.3823036322622
 21
676.5286638207351
 31
0.0
  0
LINE
  5
38F
330
1F
100
AcDbEntity
  8
0-0
  6
JWW_DASHED1
 62
   120
370
     5
100
AcDbLine
 10
830.382303632362
 20
-491.2974544869405
 30
0.0
 11
830.382303632362
 21
676.7327882480993
 31
0.0
  0
LINE
  5
390
330
1F
100
AcDbEntity
  8
0-0
  6
JWW_DASHED1
 62
   120
370
     5
100
AcDbLine
 10
817.382303631262
 20
-491.2974544869405
 30
0.0
 11
817.382303631262
 21
679.1120820223284
 31
0.0
  0
LINE
  5
391
330
1F
100
AcDbEntity
  8
0-0
  6
JWW_DASHED1
 62
   120
370
     5
100
AcDbLine
 10
816.3823036313618
 20
-491.2974544869405
 30
0.0
 11
816.3823036313618
 21
679.2741704311072
 31
0.0
  0
LINE
  5
392
330
1F
100
AcDbEntity
  8
0-0
  6
JWW_DASHED1
 62
   120
370
     5
100
AcDbLine
 10
803.3823036302622
 20
-491.2974544869405
 30
0.0
 11
803.3823036302622
 21
681.1126035556106
 31
0.0
  0
LINE
  5
393
330
1F
100
AcDbEntity
  8
0-0
  6
JWW_DASHED1
 62
   120
370
     5
100
AcDbLine
 10
802.382303630362
 20
-491.2974544869405
 30
0.0
 11
802.382303630362
 21
681.2334771811027
 31
0.0
  0
LINE
  5
394
330
1F
100
AcDbEntity
  8
0-0
  6
JWW_DASHED1
 62
   120
370
     5
100
AcDbLine
 10
789.3823036292623
 20
-491.2974544869405
 30
0.0
 11
789.3823036292623
 21
682.5402569873756
 31
0.0
  0
LINE
  5
395
330
1F
100
AcDbEntity
  8
0-0
  6
JWW_DASHED1
 62
   120
370
     5
100
AcDbLine
 10
788.3823036293621
 20
-491.2974544869405
 30
0.0
 11
788.3823036293621
 21
682.6205143590221
 31
0.0
  0
LINE
  5
396
330
1F
100
AcDbEntity
  8
0-0
  6
JWW_DASHED1
 62
   120
370
     5
100
AcDbLine
 10
775.3823036282621
 20
-491.2974544869405
 30
0.0
 11
775.3823036282621
 21
683.4020586155373
 31
0.0
  0
LINE
  5
397
330
1F
100
AcDbEntity
  8
0-0
  6
JWW_DASHED1
 62
   120
370
     5
100
AcDbLine
 10
774.3823036283619
 20
-491.2974544869405
 30
0.0
 11
774.3823036283619
 21
683.4420907478659
 31
0.0
  0
LINE
  5
398
330
1F
100
AcDbEntity
  8
0-0
  6
JWW_DASHED1
 62
   120
370
     5
100
AcDbLine
 10
761.3823036272619
 20
-491.2974544869405
 30
0.0
 11
761.3823036272619
 21
683.7021883436125
 31
0.0
  0
LINE
  5
399
330
1F
100
AcDbEntity
  8
0-0
  6
JWW_DASHED1
 62
   120
370
     5
100
AcDbLine
 10
760.3823036273617
 20
-491.2974544869405
 30
0.0
 11
760.3823036273617
 21
683.702188396436
 31
0.0
  0
LINE
  5
39A
330
1F
100
AcDbEntity
  8
0-0
  6
JWW_DASHED1
 62
   120
370
     5
100
AcDbLine
 10
747.3823036262621
 20
-491.2974544869405
 30
0.0
 11
747.3823036262621
 21
683.442092174372
 31
0.0
  0
LINE
  5
39B
330
1F
100
AcDbEntity
  8
0-0
  6
JWW_DASHED1
 62
   120
370
     5
100
AcDbLine
 10
746.3823036263619
 20
-491.2974544869405
 30
0.0
 11
746.3823036263619
 21
683.4020601479085
 31
0.0
  0
LINE
  5
39C
330
1F
100
AcDbEntity
  8
0-0
  6
JWW_DASHED1
 62
   120
370
     5
100
AcDbLine
 10
733.3823036252624
 20
-491.2974544869405
 30
0.0
 11
733.3823036252624
 21
682.6205172717334
 31
0.0
  0
LINE
  5
39D
330
1F
100
AcDbEntity
  8
0-0
  6
JWW_DASHED1
 62
   120
370
     5
100
AcDbLine
 10
732.3823036253622
 20
-491.2974544869405
 30
0.0
 11
732.3823036253622
 21
682.5402600066616
 31
0.0
  0
LINE
  5
39E
330
1F
100
AcDbEntity
  8
0-0
  6
JWW_DASHED1
 62
   120
370
     5
100
AcDbLine
 10
719.3823036242621
 20
-491.2974544869405
 30
0.0
 11
719.3823036242621
 21
681.2334815941529
 31
0.0
  0
LINE
  5
39F
330
1F
100
AcDbEntity
  8
0-0
  6
JWW_DASHED1
 62
   120
370
     5
100
AcDbLine
 10
718.382303624362
 20
-491.2974544869405
 30
0.0
 11
718.382303624362
 21
681.112608076545
 31
0.0
  0
LINE
  5
3A0
330
1F
100
AcDbEntity
  8
0-0
  6
JWW_DASHED1
 62
   120
370
     5
100
AcDbLine
 10
705.3823036232619
 20
-491.2974544869405
 30
0.0
 11
705.3823036232619
 21
679.2741763663787
 31
0.0
  0
LINE
  5
3A1
330
1F
100
AcDbEntity
  8
0-0
  6
JWW_DASHED1
 62
   120
370
     5
100
AcDbLine
 10
704.3823036233617
 20
-491.2974544869405
 30
0.0
 11
704.3823036233617
 21
679.1120880673395
 31
0.0
  0
LINE
  5
3A2
330
1F
100
AcDbEntity
  8
0-0
  6
JWW_DASHED1
 62
   120
370
     5
100
AcDbLine
 10
691.382303622262
 20
-491.2974544869405
 30
0.0
 11
691.382303622262
 21
676.7327957356054
 31
0.0
  0
LINE
  5
3A3
330
1F
100
AcDbEntity
  8
0-0
  6
JWW_DASHED1
 62
   120
370
     5
100
AcDbLine
 10
690.3823036223619
 20
-491.2974544869405
 30
0.0
 11
690.3823036223619
 21
676.528671420491
 31
0.0
  0
LINE
  5
3A4
330
1F
100
AcDbEntity
  8
0-0
  6
JWW_DASHED1
 62
   120
370
     5
100
AcDbLine
 10
677.3823036212618
 20
-491.2974544869405
 30
0.0
 11
677.3823036212618
 21
673.5962834442205
 31
0.0
  0
LINE
  5
3A5
330
1F
100
AcDbEntity
  8
0-0
  6
JWW_DASHED1
 62
   120
370
     5
100
AcDbLine
 10
676.3823036213616
 20
-491.2974544869405
 30
0.0
 11
676.3823036213616
 21
673.3490575248459
 31
0.0
  0
LINE
  5
3A6
330
1F
100
AcDbEntity
  8
0-0
  6
JWW_DASHED1
 62
   120
370
     5
100
AcDbLine
 10
663.3823036202621
 20
-491.2974544869405
 30
0.0
 11
663.3823036202621
 21
669.8479807071442
 31
0.0
  0
LINE
  5
3A7
330
1F
100
AcDbEntity
  8
0-0
  6
JWW_DASHED1
 62
   120
370
     5
100
AcDbLine
 10
662.3823036203619
 20
-491.2974544869405
 30
0.0
 11
662.3823036203619
 21
669.5563137497618
 31
0.0
  0
LINE
  5
3A8
330
1F
100
AcDbEntity
  8
0-0
  6
JWW_DASHED1
 62
   120
370
     5
100
AcDbLine
 10
649.3823036192618
 20
-491.2974544869405
 30
0.0
 11
649.3823036192618
 21
665.4671520020554
 31
0.0
  0
LINE
  5
3A9
330
1F
100
AcDbEntity
  8
0-0
  6
JWW_DASHED1
 62
   120
370
     5
100
AcDbLine
 10
648.3823036193617
 20
-491.2974544869405
 30
0.0
 11
648.3823036193617
 21
665.1293913716461
 31
0.0
  0
LINE
  5
3AA
330
1F
100
AcDbEntity
  8
0-0
  6
JWW_DASHED1
 62
   120
370
     5
100
AcDbLine
 10
635.3823036182621
 20
-491.2974544869405
 30
0.0
 11
635.3823036182621
 21
660.4283550777461
 31
0.0
  0
LINE
  5
3AB
330
1F
100
AcDbEntity
  8
0-0
  6
JWW_DASHED1
 62
   120
370
     5
100
AcDbLine
 10
634.3823036183619
 20
-491.2974544869405
 30
0.0
 11
634.3823036183619
 21
660.0424828064558
 31
0.0
  0
LINE
  5
3AC
330
1F
100
AcDbEntity
  8
0-0
  6
JWW_DASHED1
 62
   120
370
     5
100
AcDbLine
 10
621.3823036172619
 20
-491.2974544869405
 30
0.0
 11
621.3823036172619
 21
654.700606492496
 31
0.0
  0
LINE
  5
3AD
330
1F
100
AcDbEntity
  8
0-0
  6
JWW_DASHED1
 62
   120
370
     5
100
AcDbLine
 10
620.3823036173617
 20
-491.2974544869405
 30
0.0
 11
620.3823036173617
 21
654.2641701494529
 31
0.0
  0
LINE
  5
3AE
330
1F
100
AcDbEntity
  8
0-0
  6
JWW_DASHED1
 62
   120
370
     5
100
AcDbLine
 10
607.3823036162621
 20
-491.2974544869405
 30
0.0
 11
607.3823036162621
 21
648.2462716773796
 31
0.0
  0
LINE
  5
3AF
330
1F
100
AcDbEntity
  8
0-0
  6
JWW_DASHED1
 62
   120
370
     5
100
AcDbLine
 10
606.3823036163619
 20
-491.2974544869405
 30
0.0
 11
606.3823036163619
 21
647.7562920379376
 31
0.0
  0
LINE
  5
3B0
330
1F
100
AcDbEntity
  8
0-0
  6
JWW_DASHED1
 62
   120
370
     5
100
AcDbLine
 10
593.3823036152619
 20
-491.2974544869405
 30
0.0
 11
593.3823036152619
 21
641.0306155275981
 31
0.0
  0
LINE
  5
3B1
330
1F
100
AcDbEntity
  8
0-0
  6
JWW_DASHED1
 62
   120
370
     5
100
AcDbLine
 10
592.3823036153617
 20
-491.2974544869405
 30
0.0
 11
592.3823036153617
 21
640.5078909749142
 31
0.0
  0
LINE
  5
3B2
330
1F
100
AcDbEntity
  8
0-0
  6
JWW_DASHED1
 62
   120
370
     5
100
AcDbLine
 10
579.3823036142621
 20
-491.2974544869405
 30
0.0
 11
579.3823036142621
 21
634.5425999724108
 31
0.0
  0
LINE
  5
3B3
330
1F
100
AcDbEntity
  8
0-0
  6
JWW_DASHED1
 62
   120
370
     5
100
AcDbLine
 10
578.382303614362
 20
-491.2974544869405
 30
0.0
 11
578.382303614362
 21
634.1444380176114
 31
0.0
  0
LINE
  5
3B4
330
1F
100
AcDbEntity
  8
0-0
  6
JWW_DASHED1
 62
   120
370
     5
100
AcDbLine
 10
565.3823036132623
 20
-491.2974544869405
 30
0.0
 11
565.3823036132623
 21
629.698590706376
 31
0.0
  0
LINE
  5
3B5
330
1F
100
AcDbEntity
  8
0-0
  6
JWW_DASHED1
 62
   120
370
     5
100
AcDbLine
 10
564.3823036133621
 20
-491.2974544869405
 30
0.0
 11
564.3823036133621
 21
629.4107790614004
 31
0.0
  0
LINE
  5
3B6
330
1F
100
AcDbEntity
  8
0-0
  6
JWW_DASHED1
 62
   120
370
     5
100
AcDbLine
 10
551.382303612262
 20
-491.2974544869405
 30
0.0
 11
551.382303612262
 21
626.3363799115547
 31
0.0
  0
LINE
  5
3B7
330
1F
100
AcDbEntity
  8
0-0
  6
JWW_DASHED1
 62
   120
370
     5
100
AcDbLine
 10
550.3823036123619
 20
-491.2974544869405
 30
0.0
 11
550.3823036123619
 21
626.1499732698036
 31
0.0
  0
LINE
  5
3B8
330
1F
100
AcDbEntity
  8
0-0
  6
JWW_DASHED1
 62
   120
370
     5
100
AcDbLine
 10
537.3823036112618
 20
-491.2974544869405
 30
0.0
 11
537.3823036112618
 21
624.3558555971873
 31
0.0
  0
LINE
  5
3B9
330
1F
100
AcDbEntity
  8
0-0
  6
JWW_DASHED1
 62
   120
370
     5
100
AcDbLine
 10
536.3823036113616
 20
-491.2974544869405
 30
0.0
 11
536.3823036113616
 21
624.2655736857165
 31
0.0
  0
LINE
  5
3BA
330
1F
100
AcDbEntity
  8
0-0
  6
JWW_DASHED1
 62
   120
370
     5
100
AcDbLine
 10
523.382303610262
 20
-491.2974544869405
 30
0.0
 11
523.382303610262
 21
623.702277968751
 31
0.0
  0
LINE
  5
3BB
330
1F
100
AcDbEntity
  8
0-0
  6
JWW_DASHED1
 62
   120
370
     5
100
AcDbLine
 10
522.3823036103619
 20
-491.2974544869405
 30
0.0
 11
522.3823036103619
 21
623.702277968751
 31
0.0
  0
LINE
  5
3BC
330
1F
100
AcDbEntity
  8
0-0
  6
JWW_DASHED1
 62
   120
370
     5
100
AcDbLine
 10
509.3823036092623
 20
-491.2974544869405
 30
0.0
 11
509.3823036092623
 21
623.702277968751
 31
0.0
  0
LINE
  5
3BD
330
1F
100
AcDbEntity
  8
0-0
  6
JWW_DASHED1
 62
   120
370
     5
100
AcDbLine
 10
508.3823036093621
 20
-491.2974544869405
 30
0.0
 11
508.3823036093621
 21
623.702277968751
 31
0.0
  0
LINE
  5
3BE
330
1F
100
AcDbEntity
  8
0-0
  6
JWW_DASHED1
 62
   120
370
     5
100
AcDbLine
 10
495.3823036082621
 20
-491.2974544869405
 30
0.0
 11
495.3823036082621
 21
623.702277968751
 31
0.0
  0
LINE
  5
3BF
330
1F
100
AcDbEntity
  8
0-0
  6
JWW_DASHED1
 62
   120
370
     5
100
AcDbLine
 10
494.3823036083619
 20
-491.2974544869405
 30
0.0
 11
494.3823036083619
 21
623.702277968751
 31
0.0
  0
LINE
  5
3C0
330
1F
100
AcDbEntity
  8
0-0
  6
JWW_DASHED1
 62
   120
370
     5
100
AcDbLine
 10
481.3823036072619
 20
-491.2974544869405
 30
0.0
 11
481.3823036072619
 21
623.702277968751
 31
0.0
  0
LINE
  5
3C1
330
1F
100
AcDbEntity
  8
0-0
  6
JWW_DASHED1
 62
   120
370
     5
100
AcDbLine
 10
480.3823036073617
 20
-491.2974544869405
 30
0.0
 11
480.3823036073617
 21
623.702277968751
 31
0.0
  0
LWPOLYLINE
  5
3C2
330
1F
100
AcDbEntity
  8
寸法
  6
Continuous
 62
     7
370
     9
100
AcDbPolyline
 90
        4
 70
     1
 43
3.0
 10
-296.6177148506701
 20
-1422.297454486941
 42
0.4142135623731
 10
-298.1177148506702
 20
-1420.797454486941
 42
0.4142135623731
 10
-299.6177148506702
 20
-1422.297454486941
 42
0.4142135623731
 10
-298.1177148506702
 20
-1423.79745448694
 42
0.4142135623731
  0
LWPOLYLINE
  5
3C3
330
1F
100
AcDbEntity
  8
寸法
  6
Continuous
 62
     7
370
     9
100
AcDbPolyline
 90
        4
 70
     1
 43
3.0
 10
-1106.61771485067
 20
-1422.297454486941
 42
0.4142135623731
 10
-1108.11771485067
 20
-1420.797454486941
 42
0.4142135623731
 10
-1109.61771485067
 20
-1422.297454486941
 42
0.4142135623731
 10
-1108.11771485067
 20
-1423.79745448694
 42
0.4142135623731
  0
LWPOLYLINE
  5
3C4
330
1F
100
AcDbEntity
  8
寸法
  6
Continuous
 62
     7
370
     9
100
AcDbPolyline
 90
        4
 70
     1
 43
3.0
 10
-1133.617714850669
 20
-1822.29745448694
 42
0.4142135623731
 10
-1135.117714850669
 20
-1820.79745448694
 42
0.4142135623731
 10
-1136.617714850669
 20
-1822.29745448694
 42
0.4142135623731
 10
-1135.117714850669
 20
-1823.79745448694
 42
0.4142135623731
  0
LWPOLYLINE
  5
3C5
330
1F
100
AcDbEntity
  8
寸法
  6
Continuous
 62
     7
370
     9
100
AcDbPolyline
 90
        4
 70
     1
 43
3.0
 10
-1103.617714850669
 20
-1622.29745448694
 42
0.4142135623731
 10
-1105.117714850669
 20
-1620.797454486941
 42
0.4142135623731
 10
-1106.617714850669
 20
-1622.29745448694
 42
0.4142135623731
 10
-1105.117714850669
 20
-1623.79745448694
 42
0.4142135623731
  0
LINE
  5
3C6
330
1F
100
AcDbEntity
  8
寸法
  6
Continuous
 62
   120
370
     5
100
AcDbLine
 10
-298.1177148506702
 20
-1422.297454486941
 30
0.0
 11
-298.1177148506702
 21
-1222.297454486941
 31
0.0
  0
LINE
  5
3C7
330
1F
100
AcDbEntity
  8
寸法
  6
Continuous
 62
   120
370
     5
100
AcDbLine
 10
-1108.11771485067
 20
-1422.297454486941
 30
0.0
 11
-298.1177148506702
 21
-1422.297454486941
 31
0.0
  0
LINE
  5
3C8
330
1F
100
AcDbEntity
  8
寸法
  6
Continuous
 62
   120
370
     5
100
AcDbLine
 10
-1108.11771485067
 20
-1422.297454486941
 30
0.0
 11
-1108.11771485067
 21
-1222.297454486941
 31
0.0
  0
LINE
  5
3C9
330
1F
100
AcDbEntity
  8
寸法
  6
Continuous
 62
   120
370
     5
100
AcDbLine
 10
-1135.117714850669
 20
-1822.29745448694
 30
0.0
 11
-1135.117714850669
 21
-1222.297454486941
 31
0.0
  0
LINE
  5
3CA
330
1F
100
AcDbEntity
  8
寸法
  6
Continuous
 62
   120
370
     5
100
AcDbLine
 10
-1105.117714850669
 20
-1622.29745448694
 30
0.0
 11
-1105.117714850669
 21
-1222.297454486941
 31
0.0
  0
LWPOLYLINE
  5
3CB
330
1F
100
AcDbEntity
  8
寸法
  6
Continuous
 62
     7
370
     9
100
AcDbPolyline
 90
        4
 70
     1
 43
3.0
 10
-1583.617714850669
 20
-1172.297454486941
 42
0.4142135623731
 10
-1585.117714850669
 20
-1170.797454486941
 42
0.4142135623731
 10
-1586.617714850669
 20
-1172.297454486941
 42
0.4142135623731
 10
-1585.117714850669
 20
-1173.797454486941
 42
0.4142135623731
  0
LINE
  5
3CC
330
1F
100
AcDbEntity
  8
寸法
  6
Continuous
 62
   120
370
     5
100
AcDbLine
 10
-1585.117714850669
 20
-1172.297454486941
 30
0.0
 11
-1185.117714850668
 21
-1172.297454486941
 31
0.0
  0
LWPOLYLINE
  5
3CD
330
1F
100
AcDbEntity
  8
寸法
  6
Continuous
 62
     7
370
     9
100
AcDbPolyline
 90
        4
 70
     1
 43
3.0
 10
-1583.617714850669
 20
862.7025455130583
 42
0.4142135623731
 10
-1585.117714850669
 20
864.2025455130583
 42
0.4142135623731
 10
-1586.617714850669
 20
862.7025455130583
 42
0.4142135623731
 10
-1585.117714850669
 20
861.2025455130582
 42
0.4142135623731
  0
LINE
  5
3CE
330
1F
100
AcDbEntity
  8
寸法
  6
Continuous
 62
   120
370
     5
100
AcDbLine
 10
-1585.117714850669
 20
862.7025455130583
 30
0.0
 11
-1185.117714850668
 21
862.7025455130583
 31
0.0
  0
LINE
  5
3CF
330
1F
100
AcDbEntity
  8
寸法
  6
Continuous
 62
   120
370
     5
100
AcDbLine
 10
-1585.117714850669
 20
862.7025455130583
 30
0.0
 11
-1585.117714850669
 21
-1172.297454486941
 31
0.0
  0
LWPOLYLINE
  5
3D0
330
1F
100
AcDbEntity
  8
寸法
  6
Continuous
 62
     7
370
     9
100
AcDbPolyline
 90
        4
 70
     1
 43
3.0
 10
1946.382285149331
 20
-1822.29745448694
 42
0.4142135623731
 10
1944.882285149331
 20
-1820.79745448694
 42
0.4142135623731
 10
1943.382285149331
 20
-1822.29745448694
 42
0.4142135623731
 10
1944.882285149331
 20
-1823.79745448694
 42
0.4142135623731
  0
LINE
  5
3D1
330
1F
100
AcDbEntity
  8
寸法
  6
Continuous
 62
   120
370
     5
100
AcDbLine
 10
1944.882285149331
 20
-1822.29745448694
 30
0.0
 11
1944.882285149331
 21
-1222.29745448694
 31
0.0
  0
LINE
  5
3D2
330
1F
100
AcDbEntity
  8
寸法
  6
Continuous
 62
   120
370
     5
100
AcDbLine
 10
-1135.117714850669
 20
-1822.29745448694
 30
0.0
 11
1944.882285149331
 21
-1822.29745448694
 31
0.0
  0
LWPOLYLINE
  5
3D3
330
1F
100
AcDbEntity
  8
寸法
  6
Continuous
 62
     7
370
     9
100
AcDbPolyline
 90
        4
 70
     1
 43
3.0
 10
1106.382285149331
 20
-1622.29745448694
 42
0.4142135623731
 10
1104.882285149331
 20
-1620.79745448694
 42
0.4142135623731
 10
1103.382285149331
 20
-1622.29745448694
 42
0.4142135623731
 10
1104.882285149331
 20
-1623.79745448694
 42
0.4142135623731
  0
LINE
  5
3D4
330
1F
100
AcDbEntity
  8
寸法
  6
Continuous
 62
   120
370
     5
100
AcDbLine
 10
1104.882285149331
 20
-1622.29745448694
 30
0.0
 11
1104.882285149331
 21
-1222.29745448694
 31
0.0
  0
LINE
  5
3D5
330
1F
100
AcDbEntity
  8
寸法
  6
Continuous
 62
   120
370
     5
100
AcDbLine
 10
-1105.117714850669
 20
-1622.29745448694
 30
0.0
 11
1104.882285149331
 21
-1622.29745448694
 31
0.0
  0
LWPOLYLINE
  5
3D6
330
1F
100
AcDbEntity
  8
寸法
  6
Continuous
 62
     7
370
     9
100
AcDbPolyline
 90
        4
 70
     1
 43
3.0
 10
-1383.617714850671
 20
818.7025455130588
 42
0.4142135623731
 10
-1385.117714850671
 20
820.2025455130588
 42
0.4142135623731
 10
-1386.61771485067
 20
818.7025455130588
 42
0.4142135623731
 10
-1385.117714850671
 20
817.2025455130588
 42
0.4142135623731
  0
LINE
  5
3D7
330
1F
100
AcDbEntity
  8
寸法
  6
Continuous
 62
   120
370
     5
100
AcDbLine
 10
-1385.117714850671
 20
818.7025455130588
 30
0.0
 11
-1385.117714850671
 21
-1164.297454486941
 31
0.0
  0
LINE
  5
3D8
330
1F
100
AcDbEntity
  8
寸法
  6
Continuous
 62
   120
370
     5
100
AcDbLine
 10
-1385.117714850671
 20
818.7025455130588
 30
0.0
 11
-1185.117714850668
 21
818.7025455130588
 31
0.0
  0
LWPOLYLINE
  5
3D9
330
1F
100
AcDbEntity
  8
寸法
  6
Continuous
 62
     7
370
     9
100
AcDbPolyline
 90
        4
 70
     1
 43
3.0
 10
-1383.617714850671
 20
-1164.297454486941
 42
0.4142135623731
 10
-1385.117714850671
 20
-1162.797454486942
 42
0.4142135623731
 10
-1386.61771485067
 20
-1164.297454486941
 42
0.4142135623731
 10
-1385.117714850671
 20
-1165.797454486941
 42
0.4142135623731
  0
LINE
  5
3DA
330
1F
100
AcDbEntity
  8
寸法
  6
Continuous
 62
   120
370
     5
100
AcDbLine
 10
-1385.117714850671
 20
-1164.297454486941
 30
0.0
 11
-1185.117714850668
 21
-1164.297454486941
 31
0.0
  0
MTEXT
  5
3DB
330
1F
100
AcDbEntity
  8
寸法
  6
Continuous
 62
     7
370
    70
100
AcDbMText
 10
-1600.117714850669
 20
-375.4724544869402
 30
0.0
 40
57.14999999999999
 41
412.5
 46
0.0
 71
     7
 72
     1
  1
{\fＭＳ ゴシック|b0|i0|c128|p49;枠外＝2,035}
 11
6.123031769111886E-17
 21
1.0
 31
0.0
 73
     1
 44
1.0
  0
MTEXT
  5
3DC
330
1F
100
AcDbEntity
  8
寸法
  6
Continuous
 62
     7
370
    70
100
AcDbMText
 10
-1400.117714850671
 20
-381.9724544869415
 30
0.0
 40
57.14999999999999
 41
412.5
 46
0.0
 71
     7
 72
     1
  1
{\fＭＳ ゴシック|b0|i0|c128|p49;ＤＨ＝1,983}
 11
6.123031769111886E-17
 21
1.0
 31
0.0
 73
     1
 44
1.0
  0
MTEXT
  5
3DD
330
1F
100
AcDbEntity
  8
寸法
  6
Continuous
 62
     7
370
   211
100
AcDbMText
 10
-871.8677148506702
 20
-1416.22245448694
 30
0.0
 40
57.15
 41
337.5
 46
0.0
 71
     7
 72
     1
  1
{\fＭＳ ゴシック|b0|i0|c128|p49;ＤＷ＝810}
 73
     1
 44
1.0
  0
MTEXT
  5
3DE
330
1F
100
AcDbEntity
  8
寸法
  6
Continuous
 62
     7
370
   211
100
AcDbMText
 10
-281.36771485067
 20
-1616.22245448694
 30
0.0
 40
57.15000000000001
 41
562.5
 46
0.0
 71
     7
 72
     1
  1
{\fＭＳ ゴシック|b0|i0|c128|p49;有効開口＝2,210}
 73
     1
 44
1.0
  0
MTEXT
  5
3DF
330
1F
100
AcDbEntity
  8
寸法
  6
Continuous
 62
     7
370
   211
100
AcDbMText
 10
198.63228514933
 20
-1816.22245448694
 30
0.0
 40
57.14999999999999
 41
412.5
 46
0.0
 71
     7
 72
     1
  1
{\fＭＳ ゴシック|b0|i0|c128|p49;枠外＝3,080}
 73
     1
 44
1.0
  0
ENDSEC
  0
SECTION
  2
OBJECTS
  0
DICTIONARY
  5
C
330
0
100
AcDbDictionary
281
     1
  3
ACAD_GROUP
350
D
  3
ACAD_LAYOUT
350
1A
  3
ACAD_MATERIAL
350
3B
  3
ACAD_MLEADERSTYLE
350
3E1
  3
ACAD_MLINESTYLE
350
17
  3
ACAD_PLOTSETTINGS
350
19
  3
ACAD_PLOTSTYLENAME
350
E
  3
ACAD_TABLESTYLE
350
3E0
  3
ACAD_VISUALSTYLE
350
2A
  0
DICTIONARY
  5
D
102
{ACAD_REACTORS
330
C
102
}
330
C
100
AcDbDictionary
281
     1
  0
DICTIONARY
  5
1A
102
{ACAD_REACTORS
330
C
102
}
330
C
100
AcDbDictionary
281
     1
  3
Layout1
350
1E
  3
Layout2
350
26
  3
Model
350
22
  0
DICTIONARY
  5
3B
102
{ACAD_REACTORS
330
C
102
}
330
C
100
AcDbDictionary
281
     1
  3
ByBlock
350
3D
  3
ByLayer
350
3C
  3
Global
350
3E
  0
DICTIONARY
  5
3E1
102
{ACAD_REACTORS
330
C
102
}
330
C
100
AcDbDictionary
281
     1
  0
DICTIONARY
  5
17
102
{ACAD_REACTORS
330
C
102
}
330
C
100
AcDbDictionary
281
     1
  3
Standard
350
18
  0
DICTIONARY
  5
19
102
{ACAD_REACTORS
330
C
102
}
330
C
100
AcDbDictionary
281
     1
  0
ACDBDICTIONARYWDFLT
  5
E
102
{ACAD_REACTORS
330
C
102
}
330
C
100
AcDbDictionary
281
     1
  3
Normal
350
F
100
AcDbDictionaryWithDefault
340
F
  0
DICTIONARY
  5
3E0
102
{ACAD_REACTORS
330
C
102
}
330
C
100
AcDbDictionary
281
     1
  0
DICTIONARY
  5
2A
102
{ACAD_REACTORS
330
C
102
}
330
C
100
AcDbDictionary
281
     1
  3
2dWireframe
350
2F
  3
3D Hidden
350
31
  3
3dWireframe
350
30
  3
Basic
350
32
  3
Brighten
350
36
  3
ColorChange
350
3A
  3
Conceptual
350
34
  3
Dim
350
35
  3
Facepattern
350
39
  3
Flat
350
2B
  3
FlatWithEdges
350
2C
  3
Gouraud
350
2D
  3
GouraudWithEdges
350
2E
  3
Linepattern
350
38
  3
Realistic
350
33
  3
Thicken
350
37
  0
LAYOUT
  5
1E
102
{ACAD_REACTORS
330
1A
102
}
330
1A
100
AcDbPlotSettings
  1

  2
none_device
  4

  6

 40
0.0
 41
0.0
 42
0.0
 43
0.0
 44
0.0
 45
0.0
 46
0.0
 47
0.0
 48
0.0
 49
0.0
140
0.0
141
0.0
142
1.0
143
1.0
 70
   688
 72
     0
 73
     0
 74
     5
  7

 75
    16
 76
     0
 77
     5
 78
   300
147
1.0
148
0.0
149
0.0
100
AcDbLayout
  1
Layout1
 70
     1
 71
     1
 10
0.0
 20
0.0
 11
420.0
 21
297.0
 12
0.0
 22
0.0
 32
0.0
 14
1.000000000000000E+20
 24
1.000000000000000E+20
 34
1.000000000000000E+20
 15
-1.000000000000000E+20
 25
-1.000000000000000E+20
 35
-1.000000000000000E+20
146
0.0
 13
0.0
 23
0.0
 33
0.0
 16
1.0
 26
0.0
 36
0.0
 17
0.0
 27
1.0
 37
0.0
 76
     0
330
1B
  0
LAYOUT
  5
26
102
{ACAD_REACTORS
330
1A
102
}
330
1A
100
AcDbPlotSettings
  1

  2
none_device
  4

  6

 40
0.0
 41
0.0
 42
0.0
 43
0.0
 44
0.0
 45
0.0
 46
0.0
 47
0.0
 48
0.0
 49
0.0
140
0.0
141
0.0
142
1.0
143
1.0
 70
   688
 72
     0
 73
     0
 74
     5
  7

 75
    16
 76
     0
 77
     5
 78
   300
147
1.0
148
0.0
149
0.0
100
AcDbLayout
  1
Layout2
 70
     1
 71
     2
 10
0.0
 20
0.0
 11
0.0
 21
0.0
 12
0.0
 22
0.0
 32
0.0
 14
0.0
 24
0.0
 34
0.0
 15
0.0
 25
0.0
 35
0.0
146
0.0
 13
0.0
 23
0.0
 33
0.0
 16
1.0
 26
0.0
 36
0.0
 17
0.0
 27
1.0
 37
0.0
 76
     0
330
23
  0
LAYOUT
  5
22
102
{ACAD_REACTORS
330
1A
102
}
330
1A
100
AcDbPlotSettings
  1

  2
none_device
  4

  6

 40
0.0
 41
0.0
 42
0.0
 43
0.0
 44
0.0
 45
0.0
 46
0.0
 47
0.0
 48
0.0
 49
0.0
140
0.0
141
0.0
142
1.0
143
1.0
 70
  1712
 72
     0
 73
     0
 74
     0
  7

 75
     0
 76
     0
 77
     5
 78
   300
147
1.0
148
0.0
149
0.0
100
AcDbLayout
  1
Model
 70
     1
 71
     0
 10
-4455.0
 20
-3150.0
 11
4455.0
 21
3150.0
 12
0.0
 22
0.0
 32
0.0
 14
-4455.0
 24
-3150.0
 34
0.0
 15
4455.0
 25
3150.0
 35
0.0
146
0.0
 13
0.0
 23
0.0
 33
0.0
 16
1.0
 26
0.0
 36
0.0
 17
0.0
 27
1.0
 37
0.0
 76
     0
330
1F
331
29
  0
MATERIAL
  5
3D
102
{ACAD_REACTORS
330
3B
102
}
330
3B
100
AcDbMaterial
  1
ByBlock
 72
     1
 94
      127
  0
MATERIAL
  5
3C
102
{ACAD_REACTORS
330
3B
102
}
330
3B
100
AcDbMaterial
  1
ByLayer
 72
     1
 94
      127
  0
MATERIAL
  5
3E
102
{ACAD_REACTORS
330
3B
102
}
330
3B
100
AcDbMaterial
  1
Global
 72
     1
 94
      127
  0
MLINESTYLE
  5
18
102
{ACAD_REACTORS
330
17
102
}
330
17
100
AcDbMlineStyle
  2
Standard
 70
     0
  3

 62
   256
 51
90.0
 52
90.0
 71
     2
 49
0.5
 62
   256
  6
BYLAYER
 49
-0.5
 62
   256
  6
BYLAYER
  0
ACDBPLACEHOLDER
  5
F
102
{ACAD_REACTORS
330
E
102
}
330
E
  0
VISUALSTYLE
  5
2F
102
{ACAD_REACTORS
330
2A
102
}
330
2A
100
AcDbVisualStyle
  2
2dWireframe
 70
     4
177
     2
291
     0
 71
     0
176
     1
 72
     2
176
     1
 73
     0
176
     1
 90
        0
176
     1
 40
-0.6
176
     1
 41
-30.0
176
     1
 62
     5
 63
     7
421
 16777215
176
     1
 74
     1
176
     1
 91
        4
176
     1
 64
     7
176
     1
 65
   257
176
     1
 75
     1
176
     1
175
     1
176
     1
 42
1.0
176
     1
 92
        0
176
     1
 66
   257
176
     1
 43
1.0
176
     1
 76
     1
176
     1
 77
     6
176
     1
 78
     2
176
     1
 67
     7
176
     1
 79
     5
176
     1
170
     0
176
     1
171
     0
176
     1
290
     0
176
     1
 93
        1
176
     1
 44
0.0
176
     1
173
     0
176
     1
  0
VISUALSTYLE
  5
31
102
{ACAD_REACTORS
330
2A
102
}
330
2A
100
AcDbVisualStyle
  2
3D Hidden
 70
     6
177
     2
291
     0
 71
     1
176
     1
 72
     2
176
     1
 73
     2
176
     1
 90
        0
176
     1
 40
-0.6
176
     1
 41
-30.0
176
     1
 62
     5
 63
     7
421
 16777215
176
     1
 74
     2
176
     1
 91
        2
176
     1
 64
     7
176
     1
 65
   257
176
     1
 75
     2
176
     1
175
     1
176
     1
 42
40.0
176
     1
 92
        0
176
     1
 66
   257
176
     1
 43
1.0
176
     1
 76
     1
176
     1
 77
     6
176
     1
 78
     2
176
     1
 67
     7
176
     1
 79
     3
176
     1
170
     0
176
     1
171
     0
176
     1
290
     0
176
     1
 93
        1
176
     1
 44
0.0
176
     1
173
     0
176
     1
  0
VISUALSTYLE
  5
30
102
{ACAD_REACTORS
330
2A
102
}
330
2A
100
AcDbVisualStyle
  2
3dWireframe
 70
     5
177
     2
291
     0
 71
     0
176
     1
 72
     2
176
     1
 73
     0
176
     1
 90
        0
176
     1
 40
-0.6
176
     1
 41
-30.0
176
     1
 62
     5
 63
     7
421
 16777215
176
     1
 74
     1
176
     1
 91
        4
176
     1
 64
     7
176
     1
 65
   257
176
     1
 75
     1
176
     1
175
     1
176
     1
 42
1.0
176
     1
 92
        0
176
     1
 66
   257
176
     1
 43
1.0
176
     1
 76
     1
176
     1
 77
     6
176
     1
 78
     2
176
     1
 67
     7
176
     1
 79
     5
176
     1
170
     0
176
     1
171
     0
176
     1
290
     0
176
     1
 93
        1
176
     1
 44
0.0
176
     1
173
     0
176
     1
  0
VISUALSTYLE
  5
32
102
{ACAD_REACTORS
330
2A
102
}
330
2A
100
AcDbVisualStyle
  2
Basic
 70
     7
177
     2
291
     1
 71
     1
176
     1
 72
     0
176
     1
 73
     1
176
     1
 90
        0
176
     1
 40
-0.6
176
     1
 41
-30.0
176
     1
 62
     5
 63
     7
421
 16777215
176
     1
 74
     0
176
     1
 91
        4
176
     1
 64
     7
176
     1
 65
   257
176
     1
 75
     1
176
     1
175
     1
176
     1
 42
1.0
176
     1
 92
        8
176
     1
 66
     7
176
     1
 43
1.0
176
     1
 76
     1
176
     1
 77
     6
176
     1
 78
     2
176
     1
 67
     7
176
     1
 79
     5
176
     1
170
     0
176
     1
171
     0
176
     1
290
     0
176
     1
 93
        1
176
     1
 44
0.0
176
     1
173
     0
176
     1
  0
VISUALSTYLE
  5
36
102
{ACAD_REACTORS
330
2A
102
}
330
2A
100
AcDbVisualStyle
  2
Brighten
 70
    12
177
     2
291
     1
 71
     2
176
     1
 72
     2
176
     1
 73
     0
176
     1
 90
        0
176
     1
 40
-0.6
176
     1
 41
-30.0
176
     1
 62
     5
 63
     7
421
 16777215
176
     1
 74
     1
176
     1
 91
        4
176
     1
 64
     7
176
     1
 65
   257
176
     1
 75
     1
176
     1
175
     1
176
     1
 42
1.0
176
     1
 92
        8
176
     1
 66
     7
176
     1
 43
1.0
176
     1
 76
     1
176
     1
 77
     6
176
     1
 78
     2
176
     1
 67
     7
176
     1
 79
     5
176
     1
170
     0
176
     1
171
     0
176
     1
290
     0
176
     1
 93
        1
176
     1
 44
50.0
176
     1
173
     0
176
     1
  0
VISUALSTYLE
  5
3A
102
{ACAD_REACTORS
330
2A
102
}
330
2A
100
AcDbVisualStyle
  2
ColorChange
 70
    16
177
     2
291
     1
 71
     2
176
     1
 72
     2
176
     1
 73
     3
176
     1
 90
        0
176
     1
 40
-0.6
176
     1
 41
-30.0
176
     1
 62
     5
 63
     8
421
  8421504
176
     1
 74
     1
176
     1
 91
        4
176
     1
 64
     7
176
     1
 65
   257
176
     1
 75
     1
176
     1
175
     1
176
     1
 42
1.0
176
     1
 92
        8
176
     1
 66
     8
424
  8421504
176
     1
 43
1.0
176
     1
 76
     1
176
     1
 77
     6
176
     1
 78
     2
176
     1
 67
     7
176
     1
 79
     5
176
     1
170
     0
176
     1
171
     0
176
     1
290
     0
176
     1
 93
        1
176
     1
 44
0.0
176
     1
173
     0
176
     1
  0
VISUALSTYLE
  5
34
102
{ACAD_REACTORS
330
2A
102
}
330
2A
100
AcDbVisualStyle
  2
Conceptual
 70
     9
177
     2
291
     0
 71
     3
176
     1
 72
     2
176
     1
 73
     0
176
     1
 90
        0
176
     1
 40
-0.6
176
     1
 41
-30.0
176
     1
 62
     5
 63
     7
421
 16777215
176
     1
 74
     2
176
     1
 91
        2
176
     1
 64
     7
176
     1
 65
   257
176
     1
 75
     1
176
     1
175
     1
176
     1
 42
40.0
176
     1
 92
        8
176
     1
 66
     7
176
     1
 43
1.0
176
     1
 76
     1
176
     1
 77
     6
176
     1
 78
     2
176
     1
 67
     7
176
     1
 79
     3
176
     1
170
     0
176
     1
171
     0
176
     1
290
     0
176
     1
 93
        1
176
     1
 44
0.0
176
     1
173
     0
176
     1
  0
VISUALSTYLE
  5
35
102
{ACAD_REACTORS
330
2A
102
}
330
2A
100
AcDbVisualStyle
  2
Dim
 70
    11
177
     2
291
     1
 71
     2
176
     1
 72
     2
176
     1
 73
     0
176
     1
 90
        0
176
     1
 40
-0.6
176
     1
 41
-30.0
176
     1
 62
     5
 63
     7
421
 16777215
176
     1
 74
     1
176
     1
 91
        4
176
     1
 64
     7
176
     1
 65
   257
176
     1
 75
     1
176
     1
175
     1
176
     1
 42
1.0
176
     1
 92
        8
176
     1
 66
     7
176
     1
 43
1.0
176
     1
 76
     1
176
     1
 77
     6
176
     1
 78
     2
176
     1
 67
     7
176
     1
 79
     5
176
     1
170
     0
176
     1
171
     0
176
     1
290
     0
176
     1
 93
        1
176
     1
 44
-50.0
176
     1
173
     0
176
     1
  0
VISUALSTYLE
  5
39
102
{ACAD_REACTORS
330
2A
102
}
330
2A
100
AcDbVisualStyle
  2
Facepattern
 70
    15
177
     2
291
     1
 71
     2
176
     1
 72
     2
176
     1
 73
     0
176
     1
 90
        0
176
     1
 40
-0.6
176
     1
 41
-30.0
176
     1
 62
     5
 63
     7
421
 16777215
176
     1
 74
     1
176
     1
 91
        4
176
     1
 64
     7
176
     1
 65
   257
176
     1
 75
     1
176
     1
175
     1
176
     1
 42
1.0
176
     1
 92
        8
176
     1
 66
     7
176
     1
 43
1.0
176
     1
 76
     1
176
     1
 77
     6
176
     1
 78
     2
176
     1
 67
     7
176
     1
 79
     5
176
     1
170
     0
176
     1
171
     0
176
     1
290
     0
176
     1
 93
        1
176
     1
 44
0.0
176
     1
173
     0
176
     1
  0
VISUALSTYLE
  5
2B
102
{ACAD_REACTORS
330
2A
102
}
330
2A
100
AcDbVisualStyle
  2
Flat
 70
     0
177
     2
291
     1
 71
     2
176
     1
 72
     1
176
     1
 73
     1
176
     1
 90
        2
176
     1
 40
-0.6
176
     1
 41
30.0
176
     1
 62
     5
 63
     7
421
 16777215
176
     1
 74
     0
176
     1
 91
        4
176
     1
 64
     7
176
     1
 65
   257
176
     1
 75
     1
176
     1
175
     1
176
     1
 42
1.0
176
     1
 92
        8
176
     1
 66
     7
176
     1
 43
1.0
176
     1
 76
     1
176
     1
 77
     6
176
     1
 78
     2
176
     1
 67
     7
176
     1
 79
     5
176
     1
170
     0
176
     1
171
     0
176
     1
290
     0
176
     1
 93
       13
176
     1
 44
0.0
176
     1
173
     0
176
     1
  0
VISUALSTYLE
  5
2C
102
{ACAD_REACTORS
330
2A
102
}
330
2A
100
AcDbVisualStyle
  2
FlatWithEdges
 70
     1
177
     2
291
     1
 71
     2
176
     1
 72
     1
176
     1
 73
     1
176
     1
 90
        2
176
     1
 40
-0.6
176
     1
 41
30.0
176
     1
 62
     5
 63
     7
421
 16777215
176
     1
 74
     1
176
     1
 91
        4
176
     1
 64
     7
176
     1
 65
   257
176
     1
 75
     1
176
     1
175
     1
176
     1
 42
1.0
176
     1
 92
        0
176
     1
 66
   257
176
     1
 43
1.0
176
     1
 76
     1
176
     1
 77
     6
176
     1
 78
     2
176
     1
 67
     7
176
     1
 79
     5
176
     1
170
     0
176
     1
171
     0
176
     1
290
     0
176
     1
 93
       13
176
     1
 44
0.0
176
     1
173
     0
176
     1
  0
VISUALSTYLE
  5
2D
102
{ACAD_REACTORS
330
2A
102
}
330
2A
100
AcDbVisualStyle
  2
Gouraud
 70
     2
177
     2
291
     1
 71
     2
176
     1
 72
     2
176
     1
 73
     1
176
     1
 90
        2
176
     1
 40
-0.6
176
     1
 41
30.0
176
     1
 62
     5
 63
     7
421
 16777215
176
     1
 74
     0
176
     1
 91
        4
176
     1
 64
     7
176
     1
 65
   257
176
     1
 75
     1
176
     1
175
     1
176
     1
 42
1.0
176
     1
 92
        0
176
     1
 66
     7
176
     1
 43
1.0
176
     1
 76
     1
176
     1
 77
     6
176
     1
 78
     2
176
     1
 67
     7
176
     1
 79
     5
176
     1
170
     0
176
     1
171
     0
176
     1
290
     0
176
     1
 93
       13
176
     1
 44
0.0
176
     1
173
     0
176
     1
  0
VISUALSTYLE
  5
2E
102
{ACAD_REACTORS
330
2A
102
}
330
2A
100
AcDbVisualStyle
  2
GouraudWithEdges
 70
     3
177
     2
291
     1
 71
     2
176
     1
 72
     2
176
     1
 73
     1
176
     1
 90
        2
176
     1
 40
-0.6
176
     1
 41
30.0
176
     1
 62
     5
 63
     7
421
 16777215
176
     1
 74
     1
176
     1
 91
        4
176
     1
 64
     7
176
     1
 65
   257
176
     1
 75
     1
176
     1
175
     1
176
     1
 42
1.0
176
     1
 92
        0
176
     1
 66
   257
176
     1
 43
1.0
176
     1
 76
     1
176
     1
 77
     6
176
     1
 78
     2
176
     1
 67
     7
176
     1
 79
     5
176
     1
170
     0
176
     1
171
     0
176
     1
290
     0
176
     1
 93
       13
176
     1
 44
0.0
176
     1
173
     0
176
     1
  0
VISUALSTYLE
  5
38
102
{ACAD_REACTORS
330
2A
102
}
330
2A
100
AcDbVisualStyle
  2
Linepattern
 70
    14
177
     2
291
     1
 71
     2
176
     1
 72
     2
176
     1
 73
     0
176
     1
 90
        0
176
     1
 40
-0.6
176
     1
 41
-30.0
176
     1
 62
     5
 63
     7
421
 16777215
176
     1
 74
     1
176
     1
 91
        4
176
     1
 64
     7
176
     1
 65
   257
176
     1
 75
     7
176
     1
175
     7
176
     1
 42
1.0
176
     1
 92
        8
176
     1
 66
     7
176
     1
 43
1.0
176
     1
 76
     1
176
     1
 77
     6
176
     1
 78
     2
176
     1
 67
     7
176
     1
 79
     5
176
     1
170
     0
176
     1
171
     0
176
     1
290
     0
176
     1
 93
        1
176
     1
 44
0.0
176
     1
173
     0
176
     1
  0
VISUALSTYLE
  5
33
102
{ACAD_REACTORS
330
2A
102
}
330
2A
100
AcDbVisualStyle
  2
Realistic
 70
     8
177
     2
291
     0
 71
     2
176
     1
 72
     2
176
     1
 73
     0
176
     1
 90
        0
176
     1
 40
-0.6
176
     1
 41
-30.0
176
     1
 62
     5
 63
     7
421
 16777215
176
     1
 74
     1
176
     1
 91
        0
176
     1
 64
     7
176
     1
 65
   257
176
     1
 75
     1
176
     1
175
     1
176
     1
 42
1.0
176
     1
 92
        8
176
     1
 66
     8
424
  7895160
176
     1
 43
1.0
176
     1
 76
     1
176
     1
 77
     6
176
     1
 78
     2
176
     1
 67
     7
176
     1
 79
     5
176
     1
170
     0
176
     1
171
     0
176
     1
290
     0
176
     1
 93
       13
176
     1
 44
0.0
176
     1
173
     0
176
     1
  0
VISUALSTYLE
  5
37
102
{ACAD_REACTORS
330
2A
102
}
330
2A
100
AcDbVisualStyle
  2
Thicken
 70
    13
177
     2
291
     1
 71
     2
176
     1
 72
     2
176
     1
 73
     0
176
     1
 90
        0
176
     1
 40
-0.6
176
     1
 41
-30.0
176
     1
 62
     5
 63
     7
421
 16777215
176
     1
 74
     1
176
     1
 91
        4
176
     1
 64
     7
176
     1
 65
   257
176
     1
 75
     1
176
     1
175
     1
176
     1
 42
1.0
176
     1
 92
       12
176
     1
 66
     7
176
     1
 43
1.0
176
     1
 76
     1
176
     1
 77
     6
176
     1
 78
     2
176
     1
 67
     7
176
     1
 79
     5
176
     1
170
     0
176
     1
171
     0
176
     1
290
     0
176
     1
 93
        1
176
     1
 44
0.0
176
     1
173
     0
176
     1
  0
ENDSEC
  0
EOF
