  0
SECTION
  2
HEADER
  9
$ACADVER
  1
AC1024
  9
$ACADMAINTVER
 70
     6
  9
$DWGCODEPAGE
  3
ANSI_932
  9
$INSBASE
 10
0.0
 20
0.0
 30
0.0
  9
$EXTMIN
 10
-4455.0
 20
-3150.0
 30
0.0
  9
$EXTMAX
 10
4455.0
 20
3150.0
 30
0.0
  9
$LIMMIN
 10
-4455.0
 20
-3150.0
  9
$LIMMAX
 10
4455.0
 20
3150.0
  9
$ORTHOMODE
 70
     0
  9
$REGENMODE
 70
     1
  9
$FILLMODE
 70
     1
  9
$QTEXTMODE
 70
     0
  9
$MIRRTEXT
 70
     1
  9
$LTSCALE
 40
30.0
  9
$ATTMODE
 70
     1
  9
$TEXTSIZE
 40
2.5
  9
$TRACEWID
 40
1.0
  9
$TEXTSTYLE
  7
Standard
  9
$CLAYER
  8
0
  9
$CELTYPE
  6
ByLayer
  9
$CECOLOR
 62
   256
  9
$CELTSCALE
 40
1.0
  9
$DISPSILH
 70
     0
  9
$DIMSCALE
 40
1.0
  9
$DIMASZ
 40
2.5
  9
$DIMEXO
 40
0.625
  9
$DIMDLI
 40
3.75
  9
$DIMRND
 40
0.0
  9
$DIMDLE
 40
0.0
  9
$DIMEXE
 40
1.25
  9
$DIMTP
 40
0.0
  9
$DIMTM
 40
0.0
  9
$DIMTXT
 40
2.5
  9
$DIMCEN
 40
2.5
  9
$DIMTSZ
 40
0.0
  9
$DIMTOL
 70
     0
  9
$DIMLIM
 70
     0
  9
$DIMTIH
 70
     0
  9
$DIMTOH
 70
     0
  9
$DIMSE1
 70
     0
  9
$DIMSE2
 70
     0
  9
$DIMTAD
 70
     1
  9
$DIMZIN
 70
     8
  9
$DIMBLK
  1

  9
$DIMASO
 70
     1
  9
$DIMSHO
 70
     1
  9
$DIMPOST
  1

  9
$DIMAPOST
  1

  9
$DIMALT
 70
     0
  9
$DIMALTD
 70
     3
  9
$DIMALTF
 40
0.03937007874016
  9
$DIMLFAC
 40
1.0
  9
$DIMTOFL
 70
     1
  9
$DIMTVP
 40
0.0
  9
$DIMTIX
 70
     0
  9
$DIMSOXD
 70
     0
  9
$DIMSAH
 70
     0
  9
$DIMBLK1
  1

  9
$DIMBLK2
  1

  9
$DIMSTYLE
  2
ISO-25
  9
$DIMCLRD
 70
     0
  9
$DIMCLRE
 70
     0
  9
$DIMCLRT
 70
     0
  9
$DIMTFAC
 40
1.0
  9
$DIMGAP
 40
0.625
  9
$DIMJUST
 70
     0
  9
$DIMSD1
 70
     0
  9
$DIMSD2
 70
     0
  9
$DIMTOLJ
 70
     0
  9
$DIMTZIN
 70
     8
  9
$DIMALTZ
 70
     0
  9
$DIMALTTZ
 70
     0
  9
$DIMUPT
 70
     0
  9
$DIMDEC
 70
     2
  9
$DIMTDEC
 70
     2
  9
$DIMALTU
 70
     2
  9
$DIMALTTD
 70
     3
  9
$DIMTXSTY
  7
Standard
  9
$DIMAUNIT
 70
     0
  9
$DIMADEC
 70
     0
  9
$DIMALTRND
 40
0.0
  9
$DIMAZIN
 70
     0
  9
$DIMDSEP
 70
    44
  9
$DIMATFIT
 70
     3
  9
$DIMFRAC
 70
     0
  9
$DIMLDRBLK
  1

  9
$DIMLUNIT
 70
     2
  9
$DIMLWD
 70
    -2
  9
$DIMLWE
 70
    -2
  9
$DIMTMOVE
 70
     0
  9
$DIMFXL
 40
1.0
  9
$DIMFXLON
 70
     0
  9
$DIMJOGANG
 40
0.7853981633974483
  9
$DIMTFILL
 70
     0
  9
$DIMTFILLCLR
 70
     0
  9
$DIMARCSYM
 70
     0
  9
$DIMLTYPE
  6

  9
$DIMLTEX1
  6

  9
$DIMLTEX2
  6

  9
$DIMTXTDIRECTION
 70
     0
  9
$LUNITS
 70
     2
  9
$LUPREC
 70
     4
  9
$SKETCHINC
 40
1.0
  9
$FILLETRAD
 40
10.0
  9
$AUNITS
 70
     0
  9
$AUPREC
 70
     0
  9
$MENU
  1
.
  9
$ELEVATION
 40
0.0
  9
$PELEVATION
 40
0.0
  9
$THICKNESS
 40
0.0
  9
$LIMCHECK
 70
     0
  9
$CHAMFERA
 40
10.0
  9
$CHAMFERB
 40
10.0
  9
$CHAMFERC
 40
20.0
  9
$CHAMFERD
 40
0.0
  9
$SKPOLY
 70
     0
  9
$TDCREATE
 40
2457953.400365775
  9
$TDUCREATE
 40
2457953.025365775
  9
$TDUPDATE
 40
2457953.400365787
  9
$TDUUPDATE
 40
2457953.025365787
  9
$TDINDWG
 40
0.0000000116
  9
$TDUSRTIMER
 40
0.0000000116
  9
$USRTIMER
 70
     1
  9
$ANGBASE
 50
0.0
  9
$ANGDIR
 70
     0
  9
$PDMODE
 70
     0
  9
$PDSIZE
 40
0.0
  9
$PLINEWID
 40
0.0
  9
$SPLFRAME
 70
     0
  9
$SPLINETYPE
 70
     6
  9
$SPLINESEGS
 70
     8
  9
$HANDSEED
  5
349
  9
$SURFTAB1
 70
     6
  9
$SURFTAB2
 70
     6
  9
$SURFTYPE
 70
     6
  9
$SURFU
 70
     6
  9
$SURFV
 70
     6
  9
$UCSBASE
  2

  9
$UCSNAME
  2

  9
$UCSORG
 10
0.0
 20
0.0
 30
0.0
  9
$UCSXDIR
 10
1.0
 20
0.0
 30
0.0
  9
$UCSYDIR
 10
0.0
 20
1.0
 30
0.0
  9
$UCSORTHOREF
  2

  9
$UCSORTHOVIEW
 70
     0
  9
$UCSORGTOP
 10
0.0
 20
0.0
 30
0.0
  9
$UCSORGBOTTOM
 10
0.0
 20
0.0
 30
0.0
  9
$UCSORGLEFT
 10
0.0
 20
0.0
 30
0.0
  9
$UCSORGRIGHT
 10
0.0
 20
0.0
 30
0.0
  9
$UCSORGFRONT
 10
0.0
 20
0.0
 30
0.0
  9
$UCSORGBACK
 10
0.0
 20
0.0
 30
0.0
  9
$PUCSBASE
  2

  9
$PUCSNAME
  2

  9
$PUCSORG
 10
0.0
 20
0.0
 30
0.0
  9
$PUCSXDIR
 10
1.0
 20
0.0
 30
0.0
  9
$PUCSYDIR
 10
0.0
 20
1.0
 30
0.0
  9
$PUCSORTHOREF
  2

  9
$PUCSORTHOVIEW
 70
     0
  9
$PUCSORGTOP
 10
0.0
 20
0.0
 30
0.0
  9
$PUCSORGBOTTOM
 10
0.0
 20
0.0
 30
0.0
  9
$PUCSORGLEFT
 10
0.0
 20
0.0
 30
0.0
  9
$PUCSORGRIGHT
 10
0.0
 20
0.0
 30
0.0
  9
$PUCSORGFRONT
 10
0.0
 20
0.0
 30
0.0
  9
$PUCSORGBACK
 10
0.0
 20
0.0
 30
0.0
  9
$USERI1
 70
     0
  9
$USERI2
 70
     0
  9
$USERI3
 70
     0
  9
$USERI4
 70
     0
  9
$USERI5
 70
     0
  9
$USERR1
 40
0.0
  9
$USERR2
 40
0.0
  9
$USERR3
 40
0.0
  9
$USERR4
 40
0.0
  9
$USERR5
 40
0.0
  9
$WORLDVIEW
 70
     1
  9
$SHADEDGE
 70
     3
  9
$SHADEDIF
 70
    70
  9
$TILEMODE
 70
     1
  9
$MAXACTVP
 70
    64
  9
$PINSBASE
 10
0.0
 20
0.0
 30
0.0
  9
$PLIMCHECK
 70
     0
  9
$PEXTMIN
 10
1.000000000000000E+20
 20
1.000000000000000E+20
 30
1.000000000000000E+20
  9
$PEXTMAX
 10
-1.000000000000000E+20
 20
-1.000000000000000E+20
 30
-1.000000000000000E+20
  9
$PLIMMIN
 10
0.0
 20
0.0
  9
$PLIMMAX
 10
420.0
 20
297.0
  9
$UNITMODE
 70
     0
  9
$VISRETAIN
 70
     1
  9
$PLINEGEN
 70
     0
  9
$PSLTSCALE
 70
     1
  9
$TREEDEPTH
 70
  3020
  9
$CMLSTYLE
  2
Standard
  9
$CMLJUST
 70
     0
  9
$CMLSCALE
 40
20.0
  9
$PROXYGRAPHICS
 70
     1
  9
$MEASUREMENT
 70
     1
  9
$CELWEIGHT
370
    -1
  9
$ENDCAPS
280
     0
  9
$JOINSTYLE
280
     0
  9
$LWDISPLAY
290
     0
  9
$INSUNITS
 70
     4
  9
$HYPERLINKBASE
  1

  9
$STYLESHEET
  1

  9
$XEDIT
290
     1
  9
$CEPSNTYPE
380
     0
  9
$PSTYLEMODE
290
     1
  9
$FINGERPRINTGUID
  2
{09AA860C-23EB-469B-8FF4-60C8D12C2767}
  9
$VERSIONGUID
  2
{FAEB1C32-E019-11D5-929B-00C0DF256EC4}
  9
$EXTNAMES
290
     1
  9
$PSVPSCALE
 40
0.0
  9
$OLESTARTUP
290
     0
  9
$SORTENTS
280
   127
  9
$INDEXCTL
280
     0
  9
$HIDETEXT
280
     1
  9
$XCLIPFRAME
280
     2
  9
$HALOGAP
280
     0
  9
$OBSCOLOR
 70
   257
  9
$OBSLTYPE
280
     0
  9
$INTERSECTIONDISPLAY
280
     0
  9
$INTERSECTIONCOLOR
 70
   257
  9
$DIMASSOC
280
     2
  9
$PROJECTNAME
  1

  9
$CAMERADISPLAY
290
     0
  9
$LENSLENGTH
 40
50.0
  9
$CAMERAHEIGHT
 40
0.0
  9
$STEPSPERSEC
 40
2.0
  9
$STEPSIZE
 40
6.0
  9
$3DDWFPREC
 40
2.0
  9
$PSOLWIDTH
 40
5.0
  9
$PSOLHEIGHT
 40
80.0
  9
$LOFTANG1
 40
1.570796326794897
  9
$LOFTANG2
 40
1.570796326794897
  9
$LOFTMAG1
 40
0.0
  9
$LOFTMAG2
 40
0.0
  9
$LOFTPARAM
 70
     7
  9
$LOFTNORMALS
280
     1
  9
$LATITUDE
 40
37.795
  9
$LONGITUDE
 40
-122.394
  9
$NORTHDIRECTION
 40
0.0
  9
$TIMEZONE
 70
 -8000
  9
$LIGHTGLYPHDISPLAY
280
     1
  9
$TILEMODELIGHTSYNCH
280
     1
  9
$SOLIDHIST
280
     1
  9
$SHOWHIST
280
     1
  9
$DWFFRAME
280
     2
  9
$DGNFRAME
280
     2
  9
$REALWORLDSCALE
290
     1
  9
$INTERFERECOLOR
 62
   256
  9
$CSHADOW
280
     0
  9
$SHADOWPLANELOCATION
 40
0.0
  0
ENDSEC
  0
SECTION
  2
CLASSES
  0
CLASS
  1
ACDBDICTIONARYWDFLT
  2
AcDbDictionaryWithDefault
  3
ObjectDBX Classes
 90
        0
 91
        4
280
     0
281
     0
  0
CLASS
  1
VISUALSTYLE
  2
AcDbVisualStyle
  3
ObjectDBX Classes
 90
     4095
 91
        4
280
     0
281
     0
  0
CLASS
  1
MATERIAL
  2
AcDbMaterial
  3
ObjectDBX Classes
 90
     1153
 91
        4
280
     0
281
     0
  0
ENDSEC
  0
SECTION
  2
TABLES
  0
TABLE
  2
VPORT
  5
8
330
0
100
AcDbSymbolTable
 70
     1
  0
VPORT
  5
29
330
8
100
AcDbSymbolTableRecord
100
AcDbViewportTableRecord
  2
*Active
 70
     0
 10
0.0
 20
0.0
 11
1.0
 21
1.0
 12
0.0
 22
0.0
 13
0.0
 23
0.0
 14
10.0
 24
10.0
 15
10.0
 25
10.0
 16
0.0
 26
0.0
 36
1.0
 17
0.0
 27
0.0
 37
0.0
 40
6930.000000000001
 41
1.414285714285714
 42
50.0
 43
0.0
 44
0.0
 50
0.0
 51
0.0
 71
     0
 72
 10000
 73
     1
 74
     3
 75
     0
 76
     0
 77
     0
 78
     0
281
     0
 65
     1
110
0.0
120
0.0
130
0.0
111
1.0
121
0.0
131
0.0
112
0.0
122
1.0
132
0.0
 79
     0
146
0.0
 60
     3
 61
     5
292
     1
282
     1
141
0.0
142
0.0
 63
   250
  0
ENDTAB
  0
TABLE
  2
LTYPE
  5
5
330
0
100
AcDbSymbolTable
 70
     2
  0
LTYPE
  5
14
330
5
100
AcDbSymbolTableRecord
100
AcDbLinetypeTableRecord
  2
ByBlock
 70
     0
  3

 72
    65
 73
     0
 40
0.0
  0
LTYPE
  5
15
330
5
100
AcDbSymbolTableRecord
100
AcDbLinetypeTableRecord
  2
ByLayer
 70
     0
  3

 72
    65
 73
     0
 40
0.0
  0
LTYPE
  5
16
330
5
100
AcDbSymbolTableRecord
100
AcDbLinetypeTableRecord
  2
Continuous
 70
     0
  3
Solid line
 72
    65
 73
     0
 40
0.0
  0
LTYPE
  5
3F
330
5
100
AcDbSymbolTableRecord
100
AcDbLinetypeTableRecord
  2
JWW_DASHED1
 70
     0
  3
-  --  --  --  --  --  --  --  -
 72
    65
 73
     2
 40
1.693333333333333
 49
0.8466666666666667
 74
     0
 49
-0.8466666666666667
 74
     0
  0
ENDTAB
  0
TABLE
  2
LAYER
  5
2
330
0
100
AcDbSymbolTable
 70
     3
  0
LAYER
  5
10
330
2
100
AcDbSymbolTableRecord
100
AcDbLayerTableRecord
  2
0
 70
     0
 62
     7
  6
Continuous
370
    -3
390
F
347
3E
  0
LAYER
  5
40
330
2
100
AcDbSymbolTableRecord
100
AcDbLayerTableRecord
  2
0-0
 70
     0
 62
     7
  6
Continuous
370
    -3
390
F
347
3E
  0
LAYER
  5
41
330
2
100
AcDbSymbolTableRecord
100
AcDbLayerTableRecord
  2
寸法
 70
     0
 62
     7
  6
Continuous
370
    -3
390
F
347
3E
  0
ENDTAB
  0
TABLE
  2
STYLE
  5
3
330
0
100
AcDbSymbolTable
 70
     1
  0
STYLE
  5
11
330
3
100
AcDbSymbolTableRecord
100
AcDbTextStyleTableRecord
  2
Standard
 70
     0
 40
0.0
 41
1.0
 50
0.0
 71
     0
 42
2.5
  3
txt
  4

  0
ENDTAB
  0
TABLE
  2
VIEW
  5
6
330
0
100
AcDbSymbolTable
 70
     0
  0
ENDTAB
  0
TABLE
  2
UCS
  5
7
330
0
100
AcDbSymbolTable
 70
     0
  0
ENDTAB
  0
TABLE
  2
APPID
  5
9
330
0
100
AcDbSymbolTable
 70
     1
  0
APPID
  5
12
330
9
100
AcDbSymbolTableRecord
100
AcDbRegAppTableRecord
  2
ACAD
 70
     0
  0
ENDTAB
  0
TABLE
  2
DIMSTYLE
  5
A
330
0
100
AcDbSymbolTable
 70
     1
100
AcDbDimStyleTable
  0
DIMSTYLE
105
27
330
A
100
AcDbSymbolTableRecord
100
AcDbDimStyleTableRecord
  2
ISO-25
 70
     0
 41
2.5
 42
0.625
 43
3.75
 44
1.25
 73
     0
 74
     0
 77
     1
 78
     8
140
2.5
141
2.5
143
0.03937007874016
147
0.625
171
     3
172
     1
178
     0
271
     2
272
     2
274
     3
278
    44
283
     0
284
     8
340
11
  0
ENDTAB
  0
TABLE
  2
BLOCK_RECORD
  5
1
330
0
100
AcDbSymbolTable
 70
     1
  0
BLOCK_RECORD
  5
1F
330
1
100
AcDbSymbolTableRecord
100
AcDbBlockTableRecord
  2
*Model_Space
340
22
 70
     0
280
     1
281
     0
  0
BLOCK_RECORD
  5
1B
330
1
100
AcDbSymbolTableRecord
100
AcDbBlockTableRecord
  2
*Paper_Space
340
1E
 70
     0
280
     1
281
     0
  0
BLOCK_RECORD
  5
23
330
1
100
AcDbSymbolTableRecord
100
AcDbBlockTableRecord
  2
*Paper_Space0
340
26
 70
     0
280
     1
281
     0
  0
ENDTAB
  0
ENDSEC
  0
SECTION
  2
BLOCKS
  0
BLOCK
  5
20
330
1F
100
AcDbEntity
  8
0
100
AcDbBlockBegin
  2
*Model_Space
 70
     0
 10
0.0
 20
0.0
 30
0.0
  3
*Model_Space
  1

  0
ENDBLK
  5
21
330
1F
100
AcDbEntity
  8
0
100
AcDbBlockEnd
  0
BLOCK
  5
1C
330
1B
100
AcDbEntity
 67
     1
  8
0
100
AcDbBlockBegin
  2
*Paper_Space
 70
     0
 10
0.0
 20
0.0
 30
0.0
  3
*Paper_Space
  1

  0
ENDBLK
  5
1D
330
1B
100
AcDbEntity
 67
     1
  8
0
100
AcDbBlockEnd
  0
BLOCK
  5
24
330
23
100
AcDbEntity
  8
0
100
AcDbBlockBegin
  2
*Paper_Space0
 70
     0
 10
0.0
 20
0.0
 30
0.0
  3
*Paper_Space0
  1

  0
ENDBLK
  5
25
330
23
100
AcDbEntity
  8
0
100
AcDbBlockEnd
  0
ENDSEC
  0
SECTION
  2
ENTITIES
  0
LINE
  5
42
330
1F
100
AcDbEntity
  8
0-0
  6
Continuous
 62
    92
370
    13
100
AcDbLine
 10
-1101.654767980248
 20
-963.5170751783262
 30
0.0
 11
-1131.654767980248
 21
-963.5170751783262
 31
0.0
  0
LINE
  5
43
330
1F
100
AcDbEntity
  8
0-0
  6
Continuous
 62
    92
370
    13
100
AcDbLine
 10
-1131.654767980248
 20
-963.5170751783262
 30
0.0
 11
-1131.654767980248
 21
1071.482924821672
 31
0.0
  0
LINE
  5
44
330
1F
100
AcDbEntity
  8
0-0
  6
Continuous
 62
    92
370
    13
100
AcDbLine
 10
-1101.654767980248
 20
-963.5170751783262
 30
0.0
 11
-1101.654767980248
 21
1071.482924821672
 31
0.0
  0
LINE
  5
45
330
1F
100
AcDbEntity
  8
0-0
  6
Continuous
 62
    92
370
    13
100
AcDbLine
 10
1948.345232019752
 20
-963.5170751783262
 30
0.0
 11
1918.345232019752
 21
-963.5170751783262
 31
0.0
  0
LINE
  5
46
330
1F
100
AcDbEntity
  8
0-0
  6
Continuous
 62
    92
370
    13
100
AcDbLine
 10
-1101.654767980248
 20
1041.482924821674
 30
0.0
 11
1918.345232019752
 21
1041.482924821674
 31
0.0
  0
LINE
  5
47
330
1F
100
AcDbEntity
  8
0-0
  6
Continuous
 62
    92
370
    13
100
AcDbLine
 10
-1131.654767980248
 20
1071.482924821672
 30
0.0
 11
1948.345232019752
 21
1071.482924821672
 31
0.0
  0
LINE
  5
48
330
1F
100
AcDbEntity
  8
0-0
  6
Continuous
 62
    92
370
    13
100
AcDbLine
 10
1948.345232019752
 20
1071.482924821672
 30
0.0
 11
1948.345232019752
 21
-963.5170751783262
 31
0.0
  0
LINE
  5
49
330
1F
100
AcDbEntity
  8
0-0
  6
Continuous
 62
    92
370
    13
100
AcDbLine
 10
1918.345232019752
 20
-963.5170751783262
 30
0.0
 11
1918.345232019752
 21
1071.482924821672
 31
0.0
  0
LINE
  5
4A
330
1F
100
AcDbEntity
  8
0-0
  6
Continuous
 62
    92
370
    13
100
AcDbLine
 10
1108.345232019752
 20
-963.5170751783271
 30
0.0
 11
1138.345232019752
 21
-963.5170751783271
 31
0.0
  0
LINE
  5
4B
330
1F
100
AcDbEntity
  8
0-0
  6
JWW_DASHED1
 62
   120
370
     5
100
AcDbLine
 10
-294.6547679802491
 20
-955.5170751783271
 30
0.0
 11
-294.6547679802491
 21
1027.482924821672
 31
0.0
  0
LINE
  5
4C
330
1F
100
AcDbEntity
  8
0-0
  6
JWW_DASHED1
 62
   120
370
     5
100
AcDbLine
 10
-1104.654767980249
 20
1027.482924821672
 30
0.0
 11
-1101.654767980248
 21
1027.482924821672
 31
0.0
  0
LINE
  5
4D
330
1F
100
AcDbEntity
  8
0-0
  6
JWW_DASHED1
 62
   120
370
     5
100
AcDbLine
 10
-1104.654767980249
 20
-955.5170751783271
 30
0.0
 11
-1104.654767980249
 21
1027.482924821672
 31
0.0
  0
LINE
  5
4E
330
1F
100
AcDbEntity
  8
0-0
  6
JWW_DASHED1
 62
   120
370
     5
100
AcDbLine
 10
-1101.654767980248
 20
-955.5170751783271
 30
0.0
 11
-1104.654767980249
 21
-955.5170751783271
 31
0.0
  0
LINE
  5
4F
330
1F
100
AcDbEntity
  8
0-0
  6
Continuous
 62
     7
370
     9
100
AcDbLine
 10
-1068.654767980248
 20
31.58292482167255
 30
0.0
 11
-1068.654767980248
 21
-27.61707517832733
 31
0.0
  0
LINE
  5
50
330
1F
100
AcDbEntity
  8
0-0
  6
Continuous
 62
     7
370
     9
100
AcDbLine
 10
-1038.654767980248
 20
-27.61707517832733
 30
0.0
 11
-1038.654767980248
 21
31.58292482167255
 31
0.0
  0
ARC
  5
51
330
1F
100
AcDbEntity
  8
0-0
  6
Continuous
 62
     7
370
     9
100
AcDbCircle
 10
-1053.654767980248
 20
31.58292482167255
 30
0.0
 40
15.0
100
AcDbArc
 50
0.0
 51
180.0
  0
ARC
  5
52
330
1F
100
AcDbEntity
  8
0-0
  6
Continuous
 62
     7
370
     9
100
AcDbCircle
 10
-1053.654767980248
 20
-27.61707517832733
 30
0.0
 40
15.0
100
AcDbArc
 50
180.0
 51
0.0
  0
ARC
  5
53
330
1F
100
AcDbEntity
  8
0-0
  6
Continuous
 62
    92
370
    13
100
AcDbCircle
 10
-1073.154767980247
 20
-57.51707517832742
 30
0.0
 40
1.5
100
AcDbArc
 50
180.0
 51
270.0
  0
LINE
  5
54
330
1F
100
AcDbEntity
  8
0-0
  6
Continuous
 62
    92
370
    13
100
AcDbLine
 10
-1074.654767980247
 20
-57.51707517832742
 30
0.0
 11
-1074.654767980247
 21
61.48292482167264
 31
0.0
  0
LINE
  5
55
330
1F
100
AcDbEntity
  8
0-0
  6
Continuous
 62
    92
370
    13
100
AcDbLine
 10
-1073.154767980247
 20
-59.01707517832776
 30
0.0
 11
-1034.154767980248
 21
-59.01707517832776
 31
0.0
  0
ARC
  5
56
330
1F
100
AcDbEntity
  8
0-0
  6
Continuous
 62
    92
370
    13
100
AcDbCircle
 10
-1034.154767980248
 20
-57.51707517832742
 30
0.0
 40
1.5
100
AcDbArc
 50
270.0
 51
0.0
  0
LINE
  5
57
330
1F
100
AcDbEntity
  8
0-0
  6
Continuous
 62
    92
370
    13
100
AcDbLine
 10
-1032.654767980248
 20
-57.51707517832742
 30
0.0
 11
-1032.654767980248
 21
61.48292482167264
 31
0.0
  0
ARC
  5
58
330
1F
100
AcDbEntity
  8
0-0
  6
Continuous
 62
    92
370
    13
100
AcDbCircle
 10
-1034.154767980248
 20
61.48292482167264
 30
0.0
 40
1.5
100
AcDbArc
 50
0.0
 51
90.00000000000001
  0
LINE
  5
59
330
1F
100
AcDbEntity
  8
0-0
  6
Continuous
 62
    92
370
    13
100
AcDbLine
 10
-1034.154767980248
 20
62.98292482167255
 30
0.0
 11
-1073.154767980247
 21
62.98292482167255
 31
0.0
  0
ARC
  5
5A
330
1F
100
AcDbEntity
  8
0-0
  6
Continuous
 62
    92
370
    13
100
AcDbCircle
 10
-1073.154767980247
 20
61.48292482167264
 30
0.0
 40
1.5
100
AcDbArc
 50
90.0
 51
180.0
  0
LINE
  5
5B
330
1F
100
AcDbEntity
  8
0-0
  6
JWW_DASHED1
 62
   120
370
     5
100
AcDbLine
 10
437.345232019752
 20
-955.5170751783271
 30
0.0
 11
437.345232019752
 21
1027.482924821672
 31
0.0
  0
LINE
  5
5C
330
1F
100
AcDbEntity
  8
0-0
  6
Continuous
 62
    92
370
    13
100
AcDbLine
 10
-372.654767980248
 20
1027.482924821672
 30
0.0
 11
-372.654767980248
 21
-955.5170751783271
 31
0.0
  0
LINE
  5
5D
330
1F
100
AcDbEntity
  8
0-0
  6
Continuous
 62
    92
370
    13
100
AcDbLine
 10
359.3452320197513
 20
1027.482924821672
 30
0.0
 11
359.3452320197513
 21
-955.5170751783271
 31
0.0
  0
LINE
  5
5E
330
1F
100
AcDbEntity
  8
0-0
  6
Continuous
 62
    92
370
    13
100
AcDbLine
 10
-1101.654767980248
 20
1027.482924821672
 30
0.0
 11
1169.345232019751
 21
1027.482924821672
 31
0.0
  0
LINE
  5
5F
330
1F
100
AcDbEntity
  8
0-0
  6
Continuous
 62
    92
370
    13
100
AcDbLine
 10
1169.345232019751
 20
1027.482924821672
 30
0.0
 11
1169.345232019751
 21
-955.5170751783271
 31
0.0
  0
LINE
  5
60
330
1F
100
AcDbEntity
  8
0-0
  6
Continuous
 62
    92
370
    13
100
AcDbLine
 10
-1101.654767980248
 20
-955.5170751783271
 30
0.0
 11
1169.345232019751
 21
-955.5170751783271
 31
0.0
  0
LINE
  5
61
330
1F
100
AcDbEntity
  8
0-0
  6
JWW_DASHED1
 62
   120
370
     5
100
AcDbLine
 10
1138.345232019752
 20
-955.5170751783271
 30
0.0
 11
1138.345232019752
 21
1041.482924821674
 31
0.0
  0
LINE
  5
62
330
1F
100
AcDbEntity
  8
0-0
  6
JWW_DASHED1
 62
   120
370
     5
100
AcDbLine
 10
1108.345232019752
 20
-955.5170751783271
 30
0.0
 11
1108.345232019752
 21
1041.482924821674
 31
0.0
  0
LINE
  5
63
330
1F
100
AcDbEntity
  8
0-0
  6
Continuous
 62
    92
370
    13
100
AcDbLine
 10
1138.345232019752
 20
-955.5170751783271
 30
0.0
 11
1138.345232019752
 21
-963.5170751783271
 31
0.0
  0
LINE
  5
64
330
1F
100
AcDbEntity
  8
0-0
  6
Continuous
 62
    92
370
    13
100
AcDbLine
 10
1108.345232019752
 20
-955.5170751783271
 30
0.0
 11
1108.345232019752
 21
-963.5170751783271
 31
0.0
  0
LINE
  5
65
330
1F
100
AcDbEntity
  8
0-0
  6
JWW_DASHED1
 62
   120
370
     5
100
AcDbLine
 10
469.345232019757
 20
883.5840134531549
 30
0.0
 11
478.2441433882706
 21
892.4829248216702
 31
0.0
  0
LINE
  5
66
330
1F
100
AcDbEntity
  8
0-0
  6
JWW_DASHED1
 62
   120
370
     5
100
AcDbLine
 10
469.3452320197484
 20
873.6845185179309
 30
0.0
 11
488.1436383234955
 21
892.4829248216774
 31
0.0
  0
LINE
  5
67
330
1F
100
AcDbEntity
  8
0-0
  6
JWW_DASHED1
 62
   120
370
     5
100
AcDbLine
 10
469.345232019745
 20
863.785023582766
 30
0.0
 11
498.0431332586606
 21
892.4829248216813
 31
0.0
  0
LINE
  5
68
330
1F
100
AcDbEntity
  8
0-0
  6
JWW_DASHED1
 62
   120
370
     5
100
AcDbLine
 10
469.3452320197536
 20
853.8855286475577
 30
0.0
 11
507.9426281938685
 21
892.4829248216731
 31
0.0
  0
LINE
  5
69
330
1F
100
AcDbEntity
  8
0-0
  6
JWW_DASHED1
 62
   120
370
     5
100
AcDbLine
 10
469.3452320197621
 20
843.9860337123496
 30
0.0
 11
517.842123129078
 21
892.482924821665
 31
0.0
  0
LINE
  5
6A
330
1F
100
AcDbEntity
  8
0-0
  6
JWW_DASHED1
 62
   120
370
     5
100
AcDbLine
 10
469.3452320197433
 20
834.0865387771694
 30
0.0
 11
527.7416180642585
 21
892.4829248216843
 31
0.0
  0
LINE
  5
6B
330
1F
100
AcDbEntity
  8
0-0
  6
JWW_DASHED1
 62
   120
370
     5
100
AcDbLine
 10
469.3452320197518
 20
824.1870438419612
 30
0.0
 11
537.6411129994664
 21
892.4829248216761
 31
0.0
  0
LINE
  5
6C
330
1F
100
AcDbEntity
  8
0-0
  6
JWW_DASHED1
 62
   120
370
     5
100
AcDbLine
 10
469.3452320197604
 20
814.2875489067534
 30
0.0
 11
547.5406079346742
 21
892.482924821668
 31
0.0
  0
LINE
  5
6D
330
1F
100
AcDbEntity
  8
0-0
  6
JWW_DASHED1
 62
   120
370
     5
100
AcDbLine
 10
469.345232019757
 20
804.3880539715877
 30
0.0
 11
557.4401028698394
 21
892.4829248216714
 31
0.0
  0
LINE
  5
6E
330
1F
100
AcDbEntity
  8
0-0
  6
JWW_DASHED1
 62
   120
370
     5
100
AcDbLine
 10
469.3452320197501
 20
794.4885590363646
 30
0.0
 11
567.3395978050643
 21
892.4829248216795
 31
0.0
  0
LINE
  5
6F
330
1F
100
AcDbEntity
  8
0-0
  6
JWW_DASHED1
 62
   120
370
     5
100
AcDbLine
 10
469.345232019757
 20
784.5890641011567
 30
0.0
 11
577.2390927402721
 21
892.4829248216711
 31
0.0
  0
LINE
  5
70
330
1F
100
AcDbEntity
  8
0-0
  6
JWW_DASHED1
 62
   120
370
     5
100
AcDbLine
 10
469.3452320197536
 20
774.6895691659906
 30
0.0
 11
587.1385876754339
 21
892.4829248216714
 31
0.0
  0
LINE
  5
71
330
1F
100
AcDbEntity
  8
0-0
  6
JWW_DASHED1
 62
   120
370
     5
100
AcDbLine
 10
469.3452320197467
 20
764.7900742307684
 30
0.0
 11
597.0380826106622
 21
892.4829248216821
 31
0.0
  0
LINE
  5
72
330
1F
100
AcDbEntity
  8
0-0
  6
JWW_DASHED1
 62
   120
370
     5
100
AcDbLine
 10
469.3452320197553
 20
754.8905792955601
 30
0.0
 11
606.93757754587
 21
892.482924821674
 31
0.0
  0
LINE
  5
73
330
1F
100
AcDbEntity
  8
0-0
  6
JWW_DASHED1
 62
   120
370
     5
100
AcDbLine
 10
469.3452320197501
 20
744.9910843603936
 30
0.0
 11
616.8370724810301
 21
892.4829248216736
 31
0.0
  0
LINE
  5
74
330
1F
100
AcDbEntity
  8
0-0
  6
JWW_DASHED1
 62
   120
370
     5
100
AcDbLine
 10
469.345232019745
 20
735.0915894251714
 30
0.0
 11
626.7365674162601
 21
892.4829248216851
 31
0.0
  0
LINE
  5
75
330
1F
100
AcDbEntity
  8
0-0
  6
JWW_DASHED1
 62
   120
370
     5
100
AcDbLine
 10
469.3452320197536
 20
725.1920944899634
 30
0.0
 11
636.6360623514679
 21
892.482924821677
 31
0.0
  0
LINE
  5
76
330
1F
100
AcDbEntity
  8
0-0
  6
JWW_DASHED1
 62
   120
370
     5
100
AcDbLine
 10
469.3452320197484
 20
715.292599554797
 30
0.0
 11
646.535557286628
 21
892.4829248216757
 31
0.0
  0
LINE
  5
77
330
1F
100
AcDbEntity
  8
0-0
  6
JWW_DASHED1
 62
   120
370
     5
100
AcDbLine
 10
469.3452320197433
 20
705.3931046195751
 30
0.0
 11
656.4350522218563
 21
892.4829248216881
 31
0.0
  0
LINE
  5
78
330
1F
100
AcDbEntity
  8
0-0
  6
JWW_DASHED1
 62
   120
370
     5
100
AcDbLine
 10
469.3452320197518
 20
695.4936096843669
 30
0.0
 11
666.3345471570641
 21
892.48292482168
 31
0.0
  0
LINE
  5
79
330
1F
100
AcDbEntity
  8
0-0
  6
JWW_DASHED1
 62
   120
370
     5
100
AcDbLine
 10
469.3452320197621
 20
685.5941147492158
 30
0.0
 11
676.2340420922139
 21
892.4829248216677
 31
0.0
  0
LINE
  5
7A
330
1F
100
AcDbEntity
  8
0-0
  6
JWW_DASHED1
 62
   120
370
     5
100
AcDbLine
 10
469.3452320197553
 20
675.6946198139922
 30
0.0
 11
686.1335370274388
 21
892.4829248216753
 31
0.0
  0
LINE
  5
7B
330
1F
100
AcDbEntity
  8
0-0
  6
JWW_DASHED1
 62
   120
370
     5
100
AcDbLine
 10
469.3452320197501
 20
665.7951248787703
 30
0.0
 11
696.033031962662
 21
892.4829248216829
 31
0.0
  0
LINE
  5
7C
330
1F
100
AcDbEntity
  8
0-0
  6
JWW_DASHED1
 62
   120
370
     5
100
AcDbLine
 10
469.3452320197621
 20
655.8956299436213
 30
0.0
 11
705.9325268978118
 21
892.4829248216706
 31
0.0
  0
LINE
  5
7D
330
1F
100
AcDbEntity
  8
0-0
  6
JWW_DASHED1
 62
   120
370
     5
100
AcDbLine
 10
469.3452320197518
 20
645.9961350083951
 30
0.0
 11
715.8320218330299
 21
892.4829248216719
 31
0.0
  0
LINE
  5
7E
330
1F
100
AcDbEntity
  8
0-0
  6
JWW_DASHED1
 62
   120
370
     5
100
AcDbLine
 10
469.3452320197467
 20
636.0966400731736
 30
0.0
 11
725.7315167682599
 21
892.4829248216863
 31
0.0
  0
LINE
  5
7F
330
1F
100
AcDbEntity
  8
0-0
  6
JWW_DASHED1
 62
   120
370
     5
100
AcDbLine
 10
469.3452320197604
 20
626.1971451380247
 30
0.0
 11
735.631011703408
 21
892.4829248216736
 31
0.0
  0
LINE
  5
80
330
1F
100
AcDbEntity
  8
0-0
  6
JWW_DASHED1
 62
   120
370
     5
100
AcDbLine
 10
469.3452320197501
 20
616.2976502027981
 30
0.0
 11
745.5305066386261
 21
892.482924821674
 31
0.0
  0
LINE
  5
81
330
1F
100
AcDbEntity
  8
0-0
  6
JWW_DASHED1
 62
   120
370
     5
100
AcDbLine
 10
469.345232019745
 20
606.3981552675771
 30
0.0
 11
755.4300015738578
 21
892.4829248216889
 31
0.0
  0
LINE
  5
82
330
1F
100
AcDbEntity
  8
0-0
  6
JWW_DASHED1
 62
   120
370
     5
100
AcDbLine
 10
469.345232019757
 20
596.498660332428
 30
0.0
 11
765.3294965090059
 21
892.482924821677
 31
0.0
  0
LINE
  5
83
330
1F
100
AcDbEntity
  8
0-0
  6
JWW_DASHED1
 62
   120
370
     5
100
AcDbLine
 10
469.3452320197467
 20
586.5991653972014
 30
0.0
 11
775.2289914442223
 21
892.4829248216761
 31
0.0
  0
LINE
  5
84
330
1F
100
AcDbEntity
  8
0-0
  6
JWW_DASHED1
 62
   120
370
     5
100
AcDbLine
 10
469.345232019757
 20
576.6996704619932
 30
0.0
 11
785.1284863794386
 21
892.4829248216761
 31
0.0
  0
LINE
  5
85
330
1F
100
AcDbEntity
  8
0-0
  6
JWW_DASHED1
 62
   120
370
     5
100
AcDbLine
 10
469.3452320197553
 20
566.8001755268314
 30
0.0
 11
795.0279813146038
 21
892.4829248216795
 31
0.0
  0
LINE
  5
86
330
1F
100
AcDbEntity
  8
0-0
  6
JWW_DASHED1
 62
   120
370
     5
100
AcDbLine
 10
469.3452320197604
 20
556.9006805916201
 30
0.0
 11
804.9274762498134
 21
892.4829248216714
 31
0.0
  0
LINE
  5
87
330
1F
100
AcDbEntity
  8
0-0
  6
JWW_DASHED1
 62
   120
370
     5
100
AcDbLine
 10
469.3452320197536
 20
547.0011856563965
 30
0.0
 11
814.8269711850263
 21
892.4829248216702
 31
0.0
  0
LINE
  5
88
330
1F
100
AcDbEntity
  8
0-0
  6
JWW_DASHED1
 62
   120
370
     5
100
AcDbLine
 10
469.3452320197536
 20
537.1016907212347
 30
0.0
 11
824.7264661202017
 21
892.4829248216826
 31
0.0
  0
LINE
  5
89
330
1F
100
AcDbEntity
  8
0-0
  6
JWW_DASHED1
 62
   120
370
     5
100
AcDbLine
 10
469.3452320197621
 20
527.2021957860266
 30
0.0
 11
834.6259610554096
 21
892.4829248216745
 31
0.0
  0
LINE
  5
8A
330
1F
100
AcDbEntity
  8
0-0
  6
JWW_DASHED1
 62
   120
370
     5
100
AcDbLine
 10
469.3452320197553
 20
517.3027008508584
 30
0.0
 11
844.5254559905748
 21
892.4829248216779
 31
0.0
  0
LINE
  5
8B
330
1F
100
AcDbEntity
  8
0-0
  6
JWW_DASHED1
 62
   120
370
     5
100
AcDbLine
 10
469.3452320197518
 20
507.4032059156382
 30
0.0
 11
854.4249509257996
 21
892.4829248216855
 31
0.0
  0
LINE
  5
8C
330
1F
100
AcDbEntity
  8
0-0
  6
JWW_DASHED1
 62
   120
370
     5
100
AcDbLine
 10
469.3452320197604
 20
497.5037109804299
 30
0.0
 11
864.3244458610075
 21
892.4829248216779
 31
0.0
  0
LINE
  5
8D
330
1F
100
AcDbEntity
  8
0-0
  6
JWW_DASHED1
 62
   120
370
     5
100
AcDbLine
 10
469.3452320197536
 20
487.6042160452613
 30
0.0
 11
874.2239407961607
 21
892.4829248216702
 31
0.0
  0
LINE
  5
8E
330
1F
100
AcDbEntity
  8
0-0
  6
JWW_DASHED1
 62
   120
370
     5
100
AcDbLine
 10
469.3452320197501
 20
477.7047211100415
 30
0.0
 11
884.1234357313975
 21
892.4829248216889
 31
0.0
  0
LINE
  5
8F
330
1F
100
AcDbEntity
  8
0-0
  6
JWW_DASHED1
 62
   120
370
     5
100
AcDbLine
 10
469.345232019757
 20
467.8052261748337
 30
0.0
 11
894.0229306666054
 21
892.4829248216809
 31
0.0
  0
LINE
  5
90
330
1F
100
AcDbEntity
  8
0-0
  6
JWW_DASHED1
 62
   120
370
     5
100
AcDbLine
 10
469.3452320197501
 20
457.9057312396646
 30
0.0
 11
903.9224256017586
 21
892.4829248216727
 31
0.0
  0
LINE
  5
91
330
1F
100
AcDbEntity
  8
0-0
  6
JWW_DASHED1
 62
   120
370
     5
100
AcDbLine
 10
469.3452320197467
 20
448.0062363044445
 30
0.0
 11
913.8219205369937
 21
892.4829248216919
 31
0.0
  0
LINE
  5
92
330
1F
100
AcDbEntity
  8
0-0
  6
JWW_DASHED1
 62
   120
370
     5
100
AcDbLine
 10
469.3452320197553
 20
438.1067413692367
 30
0.0
 11
923.7214154722016
 21
892.4829248216838
 31
0.0
  0
LINE
  5
93
330
1F
100
AcDbEntity
  8
0-0
  6
JWW_DASHED1
 62
   120
370
     5
100
AcDbLine
 10
469.3452320197484
 20
428.2072464340677
 30
0.0
 11
933.6209104073548
 21
892.4829248216745
 31
0.0
  0
LINE
  5
94
330
1F
100
AcDbEntity
  8
0-0
  6
JWW_DASHED1
 62
   120
370
     5
100
AcDbLine
 10
469.345232019745
 20
418.3077514988479
 30
0.0
 11
943.5204053425916
 21
892.482924821695
 31
0.0
  0
LINE
  5
95
330
1F
100
AcDbEntity
  8
0-0
  6
JWW_DASHED1
 62
   120
370
     5
100
AcDbLine
 10
469.3452320197536
 20
408.4082565636405
 30
0.0
 11
953.4199002777995
 21
892.4829248216868
 31
0.0
  0
LINE
  5
96
330
1F
100
AcDbEntity
  8
0-0
  6
JWW_DASHED1
 62
   120
370
     5
100
AcDbLine
 10
469.3452320197604
 20
398.5087616284864
 30
0.0
 11
963.3193952129493
 21
892.4829248216745
 31
0.0
  0
LINE
  5
97
330
1F
100
AcDbEntity
  8
0-0
  6
JWW_DASHED1
 62
   120
370
     5
100
AcDbLine
 10
469.3452320197536
 20
388.6092666932627
 30
0.0
 11
973.2188901481742
 21
892.4829248216821
 31
0.0
  0
LINE
  5
98
330
1F
100
AcDbEntity
  8
0-0
  6
JWW_DASHED1
 62
   120
370
     5
100
AcDbLine
 10
469.3452320197501
 20
378.7097717580434
 30
0.0
 11
983.1183850833974
 21
892.4829248216897
 31
0.0
  0
LINE
  5
99
330
1F
100
AcDbEntity
  8
0-0
  6
JWW_DASHED1
 62
   120
370
     5
100
AcDbLine
 10
469.3452320197638
 20
368.8102768228944
 30
0.0
 11
993.0178800185472
 21
892.4829248216774
 31
0.0
  0
LINE
  5
9A
330
1F
100
AcDbEntity
  8
0-0
  6
JWW_DASHED1
 62
   120
370
     5
100
AcDbLine
 10
469.3452320197518
 20
358.9107818876657
 30
0.0
 11
1002.917374953757
 21
892.4829248216711
 31
0.0
  0
LINE
  5
9B
330
1F
100
AcDbEntity
  8
0-0
  6
JWW_DASHED1
 62
   120
370
     5
100
AcDbLine
 10
469.3452320197501
 20
349.0112869524468
 30
0.0
 11
1012.816869888995
 21
892.4829248216928
 31
0.0
  0
LINE
  5
9C
330
1F
100
AcDbEntity
  8
0-0
  6
JWW_DASHED1
 62
   120
370
     5
100
AcDbLine
 10
469.3452320197621
 20
339.1117920172978
 30
0.0
 11
1022.716364824143
 21
892.4829248216804
 31
0.0
  0
LINE
  5
9D
330
1F
100
AcDbEntity
  8
0-0
  6
JWW_DASHED1
 62
   120
370
     5
100
AcDbLine
 10
469.3452320197501
 20
329.2122970820686
 30
0.0
 11
1032.615859759353
 21
892.4829248216727
 31
0.0
  0
LINE
  5
9E
330
1F
100
AcDbEntity
  8
0-0
  6
JWW_DASHED1
 62
   120
370
     5
100
AcDbLine
 10
469.3452320197467
 20
319.3128021468502
 30
0.0
 11
1042.515354694593
 21
892.4829248216957
 31
0.0
  0
LINE
  5
9F
330
1F
100
AcDbEntity
  8
0-0
  6
JWW_DASHED1
 62
   120
370
     5
100
AcDbLine
 10
469.3452320197604
 20
309.4133072117012
 30
0.0
 11
1052.414849629741
 21
892.4829248216834
 31
0.0
  0
LINE
  5
A0
330
1F
100
AcDbEntity
  8
0-0
  6
JWW_DASHED1
 62
   120
370
     5
100
AcDbLine
 10
469.3452320197467
 20
299.513812276472
 30
0.0
 11
1059.345232019751
 21
889.5138122764756
 31
0.0
  0
LINE
  5
A1
330
1F
100
AcDbEntity
  8
0-0
  6
JWW_DASHED1
 62
   120
370
     5
100
AcDbLine
 10
469.3452320197467
 20
289.614317341283
 30
0.0
 11
1059.345232019728
 21
879.6143173412656
 31
0.0
  0
LINE
  5
A2
330
1F
100
AcDbEntity
  8
0-0
  6
JWW_DASHED1
 62
   120
370
     5
100
AcDbLine
 10
469.345232019757
 20
279.7148224061045
 30
0.0
 11
1059.345232019739
 21
869.7148224060868
 31
0.0
  0
LINE
  5
A3
330
1F
100
AcDbEntity
  8
0-0
  6
JWW_DASHED1
 62
   120
370
     5
100
AcDbLine
 10
469.3452320197655
 20
269.8153274708963
 30
0.0
 11
1059.345232019749
 21
859.815327470879
 31
0.0
  0
LINE
  5
A4
330
1F
100
AcDbEntity
  8
0-0
  6
JWW_DASHED1
 62
   120
370
     5
100
AcDbLine
 10
469.3452320197467
 20
259.9158325357158
 30
0.0
 11
1059.345232019728
 21
849.9158325356984
 31
0.0
  0
LINE
  5
A5
330
1F
100
AcDbEntity
  8
0-0
  6
JWW_DASHED1
 62
   120
370
     5
100
AcDbLine
 10
469.3452320197553
 20
250.0163376005084
 30
0.0
 11
1059.345232019739
 21
840.0163376004901
 31
0.0
  0
LINE
  5
A6
330
1F
100
AcDbEntity
  8
0-0
  6
JWW_DASHED1
 62
   120
370
     5
100
AcDbLine
 10
469.3452320197638
 20
240.1168426653001
 30
0.0
 11
1059.345232019745
 21
830.1168426652828
 31
0.0
  0
LINE
  5
A7
330
1F
100
AcDbEntity
  8
0-0
  6
JWW_DASHED1
 62
   120
370
     5
100
AcDbLine
 10
469.3452320197536
 20
230.2173477301289
 30
0.0
 11
1059.345232019742
 21
820.2173477301167
 31
0.0
  0
LINE
  5
A8
330
1F
100
AcDbEntity
  8
0-0
  6
JWW_DASHED1
 62
   120
370
     5
100
AcDbLine
 10
469.3452320197536
 20
220.3178527949113
 30
0.0
 11
1059.345232019735
 21
810.3178527948935
 31
0.0
  0
LINE
  5
A9
330
1F
100
AcDbEntity
  8
0-0
  6
JWW_DASHED1
 62
   120
370
     5
100
AcDbLine
 10
469.3452320197621
 20
210.4183578597035
 30
0.0
 11
1059.345232019744
 21
800.4183578596858
 31
0.0
  0
LINE
  5
AA
330
1F
100
AcDbEntity
  8
0-0
  6
JWW_DASHED1
 62
   120
370
     5
100
AcDbLine
 10
469.3452320197518
 20
200.5188629245319
 30
0.0
 11
1059.345232019756
 21
790.5188629245358
 31
0.0
  0
LINE
  5
AB
330
1F
100
AcDbEntity
  8
0-0
  6
JWW_DASHED1
 62
   120
370
     5
100
AcDbLine
 10
469.3452320197501
 20
190.6193679893147
 30
0.0
 11
1059.345232019734
 21
780.619367989297
 31
0.0
  0
LINE
  5
AC
330
1F
100
AcDbEntity
  8
0-0
  6
JWW_DASHED1
 62
   120
370
     5
100
AcDbLine
 10
469.3452320197587
 20
180.7198730541069
 30
0.0
 11
1059.345232019742
 21
770.7198730540891
 31
0.0
  0
LINE
  5
AD
330
1F
100
AcDbEntity
  8
0-0
  6
JWW_DASHED1
 62
   120
370
     5
100
AcDbLine
 10
469.3452320197501
 20
170.8203781189353
 30
0.0
 11
1059.345232019752
 21
760.8203781189388
 31
0.0
  0
LINE
  5
AE
330
1F
100
AcDbEntity
  8
0-0
  6
JWW_DASHED1
 62
   120
370
     5
100
AcDbLine
 10
469.3452320197484
 20
160.9208831837181
 30
0.0
 11
1059.345232019732
 21
750.9208831837003
 31
0.0
  0
LINE
  5
AF
330
1F
100
AcDbEntity
  8
0-0
  6
JWW_DASHED1
 62
   120
370
     5
100
AcDbLine
 10
469.345232019757
 20
151.0213882485102
 30
0.0
 11
1059.345232019739
 21
741.0213882484925
 31
0.0
  0
LINE
  5
B0
330
1F
100
AcDbEntity
  8
0-0
  6
JWW_DASHED1
 62
   120
370
     5
100
AcDbLine
 10
469.3452320197467
 20
141.1218933133387
 30
0.0
 11
1059.345232019751
 21
731.1218933133418
 31
0.0
  0
LINE
  5
B1
330
1F
100
AcDbEntity
  8
0-0
  6
JWW_DASHED1
 62
   120
370
     5
100
AcDbLine
 10
469.3452320197467
 20
131.2223983781215
 30
0.0
 11
1059.345232019728
 21
721.2223983781041
 31
0.0
  0
LINE
  5
B2
330
1F
100
AcDbEntity
  8
0-0
  6
JWW_DASHED1
 62
   120
370
     5
100
AcDbLine
 10
469.3452320197553
 20
121.3229034429136
 30
0.0
 11
1059.345232019737
 21
711.3229034428958
 31
0.0
  0
LINE
  5
B3
330
1F
100
AcDbEntity
  8
0-0
  6
JWW_DASHED1
 62
   120
370
     5
100
AcDbLine
 10
469.3452320197604
 20
111.423408507757
 30
0.0
 11
1059.345232019749
 21
701.4234085077452
 31
0.0
  0
LINE
  5
B4
330
1F
100
AcDbEntity
  8
0-0
  6
JWW_DASHED1
 62
   120
370
     5
100
AcDbLine
 10
469.3452320197536
 20
101.5239135725334
 30
0.0
 11
1059.345232019742
 21
691.5239135725211
 31
0.0
  0
LINE
  5
B5
330
1F
100
AcDbEntity
  8
0-0
  6
JWW_DASHED1
 62
   120
370
     5
100
AcDbLine
 10
469.3452320197536
 20
91.624418637317
 30
0.0
 11
1059.345232019735
 21
681.6244186372992
 31
0.0
  0
LINE
  5
B6
330
1F
100
AcDbEntity
  8
0-0
  6
JWW_DASHED1
 62
   120
370
     5
100
AcDbLine
 10
469.3452320197655
 20
81.72492370216759
 30
0.0
 11
1059.345232019749
 21
671.7249237021502
 31
0.0
  0
LINE
  5
B7
330
1F
100
AcDbEntity
  8
0-0
  6
JWW_DASHED1
 62
   120
370
     5
100
AcDbLine
 10
469.3452320197501
 20
71.82542876693674
 30
0.0
 11
1059.345232019754
 21
661.8254287669399
 31
0.0
  0
LINE
  5
B8
330
1F
100
AcDbEntity
  8
0-0
  6
JWW_DASHED1
 62
   120
370
     5
100
AcDbLine
 10
469.3452320197553
 20
61.92593383177922
 30
0.0
 11
1059.345232019739
 21
651.9259338317619
 31
0.0
  0
LINE
  5
B9
330
1F
100
AcDbEntity
  8
0-0
  6
JWW_DASHED1
 62
   120
370
     5
100
AcDbLine
 10
469.3452320197638
 20
52.02643889657139
 30
0.0
 11
1059.345232019745
 21
642.0264388965536
 31
0.0
  0
LINE
  5
BA
330
1F
100
AcDbEntity
  8
0-0
  6
JWW_DASHED1
 62
   120
370
     5
100
AcDbLine
 10
469.3452320197484
 20
42.12694396133969
 30
0.0
 11
1059.345232019752
 21
632.1269439613433
 31
0.0
  0
LINE
  5
BB
330
1F
100
AcDbEntity
  8
0-0
  6
JWW_DASHED1
 62
   120
370
     5
100
AcDbLine
 10
469.3452320197536
 20
32.2274490261826
 30
0.0
 11
1059.345232019735
 21
622.2274490261648
 31
0.0
  0
LINE
  5
BC
330
1F
100
AcDbEntity
  8
0-0
  6
JWW_DASHED1
 62
   120
370
     5
100
AcDbLine
 10
469.3452320197604
 20
22.32795409097477
 30
0.0
 11
1059.345232019744
 21
612.3279540909571
 31
0.0
  0
LINE
  5
BD
330
1F
100
AcDbEntity
  8
0-0
  6
JWW_DASHED1
 62
   120
370
     5
100
AcDbLine
 10
469.3452320197467
 20
12.42845915574264
 30
0.0
 11
1059.345232019749
 21
602.4284591557466
 31
0.0
  0
LINE
  5
BE
330
1F
100
AcDbEntity
  8
0-0
  6
JWW_DASHED1
 62
   120
370
     5
100
AcDbLine
 10
469.3452320197501
 20
2.528964220585976
 30
0.0
 11
1059.345232019734
 21
592.5289642205682
 31
0.0
  0
LINE
  5
BF
330
1F
100
AcDbEntity
  8
0-0
  6
JWW_DASHED1
 62
   120
370
     5
100
AcDbLine
 10
469.3452320197604
 20
-7.37053071462185
 30
0.0
 11
1059.345232019742
 21
582.6294692853604
 31
0.0
  0
LINE
  5
C0
330
1F
100
AcDbEntity
  8
0-0
  6
JWW_DASHED1
 62
   120
370
     5
100
AcDbLine
 10
469.3452320197672
 20
-17.2700256498301
 30
0.0
 11
1059.345232019751
 21
572.7299743501521
 31
0.0
  0
LINE
  5
C1
330
1F
100
AcDbEntity
  8
0-0
  6
JWW_DASHED1
 62
   120
370
     5
100
AcDbLine
 10
469.3452320197484
 20
-27.16952058501064
 30
0.0
 11
1059.345232019732
 21
562.8304794149716
 31
0.0
  0
LINE
  5
C2
330
1F
100
AcDbEntity
  8
0-0
  6
JWW_DASHED1
 62
   120
370
     5
100
AcDbLine
 10
469.345232019757
 20
-37.0690155202189
 30
0.0
 11
1059.345232019739
 21
552.9309844797638
 31
0.0
  0
LINE
  5
C3
330
1F
100
AcDbEntity
  8
0-0
  6
JWW_DASHED1
 62
   120
370
     5
100
AcDbLine
 10
469.3452320197655
 20
-46.96851045542672
 30
0.0
 11
1059.345232019749
 21
543.0314895445559
 31
0.0
  0
LINE
  5
C4
330
1F
100
AcDbEntity
  8
0-0
  6
JWW_DASHED1
 62
   120
370
     5
100
AcDbLine
 10
469.3452320197536
 20
-56.86800539060044
 30
0.0
 11
1059.345232019742
 21
533.1319946093873
 31
0.0
  0
LINE
  5
C5
330
1F
100
AcDbEntity
  8
0-0
  6
JWW_DASHED1
 62
   120
370
     5
100
AcDbLine
 10
469.3452320197553
 20
-66.76750032581509
 30
0.0
 11
1059.345232019737
 21
523.2324996741671
 31
0.0
  0
LINE
  5
C6
330
1F
100
AcDbEntity
  8
0-0
  6
JWW_DASHED1
 62
   120
370
     5
100
AcDbLine
 10
469.3452320197638
 20
-76.66699526102292
 30
0.0
 11
1059.345232019745
 21
513.3330047389588
 31
0.0
  0
LINE
  5
C7
330
1F
100
AcDbEntity
  8
0-0
  6
JWW_DASHED1
 62
   120
370
     5
100
AcDbLine
 10
469.3452320197501
 20
-86.56649019619707
 30
0.0
 11
1059.345232019756
 21
503.4335098038065
 31
0.0
  0
LINE
  5
C8
330
1F
100
AcDbEntity
  8
0-0
  6
JWW_DASHED1
 62
   120
370
     5
100
AcDbLine
 10
469.3452320197536
 20
-96.46598513141171
 30
0.0
 11
1059.345232019735
 21
493.5340148685705
 31
0.0
  0
LINE
  5
C9
330
1F
100
AcDbEntity
  8
0-0
  6
JWW_DASHED1
 62
   120
370
     5
100
AcDbLine
 10
469.3452320197604
 20
-106.36548006662
 30
0.0
 11
1059.345232019744
 21
483.6345199333627
 31
0.0
  0
LINE
  5
CA
330
1F
100
AcDbEntity
  8
0-0
  6
JWW_DASHED1
 62
   120
370
     5
100
AcDbLine
 10
469.3452320197484
 20
-116.2649750017941
 30
0.0
 11
1059.345232019752
 21
473.7350249982094
 31
0.0
  0
LINE
  5
CB
330
1F
100
AcDbEntity
  8
0-0
  6
JWW_DASHED1
 62
   120
370
     5
100
AcDbLine
 10
469.3452320197501
 20
-126.1644699370083
 30
0.0
 11
1059.345232019734
 21
463.8355300629739
 31
0.0
  0
LINE
  5
CC
330
1F
100
AcDbEntity
  8
0-0
  6
JWW_DASHED1
 62
   120
370
     5
100
AcDbLine
 10
469.3452320197638
 20
-136.0639648721573
 30
0.0
 11
1059.345232019745
 21
453.9360351278245
 31
0.0
  0
LINE
  5
CD
330
1F
100
AcDbEntity
  8
0-0
  6
JWW_DASHED1
 62
   120
370
     5
100
AcDbLine
 10
469.3452320197467
 20
-145.9634598073907
 30
0.0
 11
1059.345232019751
 21
444.0365401926124
 31
0.0
  0
LINE
  5
CE
330
1F
100
AcDbEntity
  8
0-0
  6
JWW_DASHED1
 62
   120
370
     5
100
AcDbLine
 10
469.3452320197536
 20
-155.8629547425994
 30
0.0
 11
1059.345232019742
 21
434.1370452573888
 31
0.0
  0
LINE
  5
CF
330
1F
100
AcDbEntity
  8
0-0
  6
JWW_DASHED1
 62
   120
370
     5
100
AcDbLine
 10
469.3452320197604
 20
-165.7624496777544
 30
0.0
 11
1059.345232019744
 21
424.2375503222283
 31
0.0
  0
LINE
  5
D0
330
1F
100
AcDbEntity
  8
0-0
  6
JWW_DASHED1
 62
   120
370
     5
100
AcDbLine
 10
469.3452320197706
 20
-175.6619446129622
 30
0.0
 11
1059.345232019752
 21
414.3380553870201
 31
0.0
  0
LINE
  5
D1
330
1F
100
AcDbEntity
  8
0-0
  6
JWW_DASHED1
 62
   120
370
     5
100
AcDbLine
 10
469.3452320197518
 20
-185.561439548196
 30
0.0
 11
1059.345232019756
 21
404.4385604518075
 31
0.0
  0
LINE
  5
D2
330
1F
100
AcDbEntity
  8
0-0
  6
JWW_DASHED1
 62
   120
370
     5
100
AcDbLine
 10
469.3452320197587
 20
-195.4609344833506
 30
0.0
 11
1059.345232019742
 21
394.5390655166312
 31
0.0
  0
LINE
  5
D3
330
1F
100
AcDbEntity
  8
0-0
  6
JWW_DASHED1
 62
   120
370
     5
100
AcDbLine
 10
469.3452320197672
 20
-205.3604294185588
 30
0.0
 11
1059.345232019749
 21
384.6395705814234
 31
0.0
  0
LINE
  5
D4
330
1F
100
AcDbEntity
  8
0-0
  6
JWW_DASHED1
 62
   120
370
     5
100
AcDbLine
 10
469.3452320197501
 20
-215.2599243537927
 30
0.0
 11
1059.345232019754
 21
374.7400756462109
 31
0.0
  0
LINE
  5
D5
330
1F
100
AcDbEntity
  8
0-0
  6
JWW_DASHED1
 62
   120
370
     5
100
AcDbLine
 10
469.345232019757
 20
-225.1594192889472
 30
0.0
 11
1059.345232019739
 21
364.840580711035
 31
0.0
  0
LINE
  5
D6
330
1F
100
AcDbEntity
  8
0-0
  6
JWW_DASHED1
 62
   120
370
     5
100
AcDbLine
 10
469.3452320197655
 20
-235.0589142241554
 30
0.0
 11
1059.345232019749
 21
354.9410857758272
 31
0.0
  0
LINE
  5
D7
330
1F
100
AcDbEntity
  8
0-0
  6
JWW_DASHED1
 62
   120
370
     5
100
AcDbLine
 10
469.3452320197467
 20
-244.9584091593897
 30
0.0
 11
1059.345232019751
 21
345.0415908406138
 31
0.0
  0
LINE
  5
D8
330
1F
100
AcDbEntity
  8
0-0
  6
JWW_DASHED1
 62
   120
370
     5
100
AcDbLine
 10
469.3452320197553
 20
-254.8579040945438
 30
0.0
 11
1059.345232019737
 21
335.142095905438
 31
0.0
  0
LINE
  5
D9
330
1F
100
AcDbEntity
  8
0-0
  6
JWW_DASHED1
 62
   120
370
     5
100
AcDbLine
 10
469.3452320197638
 20
-264.757399029752
 30
0.0
 11
1059.345232019745
 21
325.2426009702302
 31
0.0
  0
LINE
  5
DA
330
1F
100
AcDbEntity
  8
0-0
  6
JWW_DASHED1
 62
   120
370
     5
100
AcDbLine
 10
469.3452320197604
 20
-274.6568939649705
 30
0.0
 11
1059.345232019749
 21
315.3431060350168
 31
0.0
  0
LINE
  5
DB
330
1F
100
AcDbEntity
  8
0-0
  6
JWW_DASHED1
 62
   120
370
     5
100
AcDbLine
 10
469.3452320197536
 20
-284.5563889001404
 30
0.0
 11
1059.345232019735
 21
305.4436110998414
 31
0.0
  0
LINE
  5
DC
330
1F
100
AcDbEntity
  8
0-0
  6
JWW_DASHED1
 62
   120
370
     5
100
AcDbLine
 10
469.3452320197604
 20
-294.4558838353487
 30
0.0
 11
1059.345232019744
 21
295.544116164634
 31
0.0
  0
LINE
  5
DD
330
1F
100
AcDbEntity
  8
0-0
  6
JWW_DASHED1
 62
   120
370
     5
100
AcDbLine
 10
469.3452320197706
 20
-304.3553787705565
 30
0.0
 11
1059.345232019752
 21
285.6446212294258
 31
0.0
  0
LINE
  5
DE
330
1F
100
AcDbEntity
  8
0-0
  6
JWW_DASHED1
 62
   120
370
     5
100
AcDbLine
 10
469.3452320197501
 20
-314.2548737057371
 30
0.0
 11
1059.345232019734
 21
275.7451262942448
 31
0.0
  0
LINE
  5
DF
330
1F
100
AcDbEntity
  8
0-0
  6
JWW_DASHED1
 62
   120
370
     5
100
AcDbLine
 10
469.3452320197587
 20
-324.1543686409453
 30
0.0
 11
1059.345232019742
 21
265.8456313590369
 31
0.0
  0
LINE
  5
E0
330
1F
100
AcDbEntity
  8
0-0
  6
JWW_DASHED1
 62
   120
370
     5
100
AcDbLine
 10
469.3452320197604
 20
-334.0538635761058
 30
0.0
 11
1059.345232019749
 21
255.946136423882
 31
0.0
  0
LINE
  5
E1
330
1F
100
AcDbEntity
  8
0-0
  6
JWW_DASHED1
 62
   120
370
     5
100
AcDbLine
 10
469.3452320197536
 20
-343.9533585113294
 30
0.0
 11
1059.34523201974
 21
246.0466414886579
 31
0.0
  0
LINE
  5
E2
330
1F
100
AcDbEntity
  8
0-0
  6
JWW_DASHED1
 62
   120
370
     5
100
AcDbLine
 10
469.345232019757
 20
-353.8528534465419
 30
0.0
 11
1059.345232019739
 21
236.1471465534403
 31
0.0
  0
LINE
  5
E3
330
1F
100
AcDbEntity
  8
0-0
  6
JWW_DASHED1
 62
   120
370
     5
100
AcDbLine
 10
469.3452320197706
 20
-363.7523483816909
 30
0.0
 11
1059.345232019752
 21
226.2476516182913
 31
0.0
  0
LINE
  5
E4
330
1F
100
AcDbEntity
  8
0-0
  6
JWW_DASHED1
 62
   120
370
     5
100
AcDbLine
 10
469.3452320197501
 20
-373.6518433169269
 30
0.0
 11
1059.345232019754
 21
216.3481566830771
 31
0.0
  0
LINE
  5
E5
330
1F
100
AcDbEntity
  8
0-0
  6
JWW_DASHED1
 62
   120
370
     5
100
AcDbLine
 10
469.3452320197553
 20
-383.5513382521385
 30
0.0
 11
1059.345232019737
 21
206.4486617478437
 31
0.0
  0
LINE
  5
E6
330
1F
100
AcDbEntity
  8
0-0
  6
JWW_DASHED1
 62
   120
370
     5
100
AcDbLine
 10
469.3452320197672
 20
-393.450833187288
 30
0.0
 11
1059.345232019749
 21
196.5491668126947
 31
0.0
  0
LINE
  5
E7
330
1F
100
AcDbEntity
  8
0-0
  6
JWW_DASHED1
 62
   120
370
     5
100
AcDbLine
 10
469.3452320197484
 20
-403.3503281225235
 30
0.0
 11
1059.345232019752
 21
186.64967187748
 31
0.0
  0
LINE
  5
E8
330
1F
100
AcDbEntity
  8
0-0
  6
JWW_DASHED1
 62
   120
370
     5
100
AcDbLine
 10
469.3452320197536
 20
-413.2498230577352
 30
0.0
 11
1059.345232019735
 21
176.7501769422475
 31
0.0
  0
LINE
  5
E9
330
1F
100
AcDbEntity
  8
0-0
  6
JWW_DASHED1
 62
   120
370
     5
100
AcDbLine
 10
469.3452320197655
 20
-423.1493179928842
 30
0.0
 11
1059.345232019747
 21
166.8506820070981
 31
0.0
  0
LINE
  5
EA
330
1F
100
AcDbEntity
  8
0-0
  6
JWW_DASHED1
 62
   120
370
     5
100
AcDbLine
 10
469.345232019745
 20
-433.0488129281201
 30
0.0
 11
1059.345232019749
 21
156.951187071883
 31
0.0
  0
LINE
  5
EB
330
1F
100
AcDbEntity
  8
0-0
  6
JWW_DASHED1
 62
   120
370
     5
100
AcDbLine
 10
469.3452320197536
 20
-442.9483078633288
 30
0.0
 11
1059.345232019742
 21
147.0516921366594
 31
0.0
  0
LINE
  5
EC
330
1F
100
AcDbEntity
  8
0-0
  6
JWW_DASHED1
 62
   120
370
     5
100
AcDbLine
 10
469.3452320197638
 20
-452.8478027984808
 30
0.0
 11
1059.345232019745
 21
137.1521972015015
 31
0.0
  0
LINE
  5
ED
330
1F
100
AcDbEntity
  8
0-0
  6
JWW_DASHED1
 62
   120
370
     5
100
AcDbLine
 10
469.3452320197706
 20
-462.747297733689
 30
0.0
 11
1059.345232019754
 21
127.2527022662936
 31
0.0
  0
LINE
  5
EE
330
1F
100
AcDbEntity
  8
0-0
  6
JWW_DASHED1
 62
   120
370
     5
100
AcDbLine
 10
469.3452320197518
 20
-472.646792668925
 30
0.0
 11
1059.345232019756
 21
117.3532073310781
 31
0.0
  0
LINE
  5
EF
330
1F
100
AcDbEntity
  8
0-0
  6
JWW_DASHED1
 62
   120
370
     5
100
AcDbLine
 10
469.3452320197604
 20
-482.5462876040774
 30
0.0
 11
1059.345232019744
 21
107.4537123959048
 31
0.0
  0
LINE
  5
F0
330
1F
100
AcDbEntity
  8
0-0
  6
JWW_DASHED1
 62
   120
370
     5
100
AcDbLine
 10
469.3452320197689
 20
-492.4457825392852
 30
0.0
 11
1059.345232019752
 21
97.55421746069658
 31
0.0
  0
LINE
  5
F1
330
1F
100
AcDbEntity
  8
0-0
  6
JWW_DASHED1
 62
   120
370
     5
100
AcDbLine
 10
469.3452320197484
 20
-502.345277474522
 30
0.0
 11
1059.345232019752
 21
87.6547225254815
 31
0.0
  0
LINE
  5
F2
330
1F
100
AcDbEntity
  8
0-0
  6
JWW_DASHED1
 62
   120
370
     5
100
AcDbLine
 10
469.3452320197587
 20
-512.244772409674
 30
0.0
 11
1059.345232019742
 21
77.75522759030821
 31
0.0
  0
LINE
  5
F3
330
1F
100
AcDbEntity
  8
0-0
  6
JWW_DASHED1
 62
   120
370
     5
100
AcDbLine
 10
469.3452320197672
 20
-522.1442673448823
 30
0.0
 11
1059.345232019749
 21
67.85573265509996
 31
0.0
  0
LINE
  5
F4
330
1F
100
AcDbEntity
  8
0-0
  6
JWW_DASHED1
 62
   120
370
     5
100
AcDbLine
 10
469.3452320197501
 20
-532.0437622800603
 30
0.0
 11
1059.345232019756
 21
57.95623771994372
 31
0.0
  0
LINE
  5
F5
330
1F
100
AcDbEntity
  8
0-0
  6
JWW_DASHED1
 62
   120
370
     5
100
AcDbLine
 10
469.345232019757
 20
-541.9432572152707
 30
0.0
 11
1059.345232019739
 21
48.05674278471159
 31
0.0
  0
LINE
  5
F6
330
1F
100
AcDbEntity
  8
0-0
  6
JWW_DASHED1
 62
   120
370
     5
100
AcDbLine
 10
469.3452320197655
 20
-551.8427521504789
 30
0.0
 11
1059.345232019747
 21
38.15724784950334
 31
0.0
  0
LINE
  5
F7
330
1F
100
AcDbEntity
  8
0-0
  6
JWW_DASHED1
 62
   120
370
     5
100
AcDbLine
 10
469.3452320197484
 20
-561.7422470856573
 30
0.0
 11
1059.345232019752
 21
28.25775291434624
 31
0.0
  0
LINE
  5
F8
330
1F
100
AcDbEntity
  8
0-0
  6
JWW_DASHED1
 62
   120
370
     5
100
AcDbLine
 10
469.3452320197536
 20
-571.6417420208672
 30
0.0
 11
1059.345232019737
 21
18.35825797911497
 31
0.0
  0
LINE
  5
F9
330
1F
100
AcDbEntity
  8
0-0
  6
JWW_DASHED1
 62
   120
370
     5
100
AcDbLine
 10
469.3452320197638
 20
-581.5412369560755
 30
0.0
 11
1059.345232019745
 21
8.458763043906714
 31
0.0
  0
LINE
  5
FA
330
1F
100
AcDbEntity
  8
0-0
  6
JWW_DASHED1
 62
   120
370
     5
100
AcDbLine
 10
469.3452320197467
 20
-591.4407318912539
 30
0.0
 11
1059.345232019749
 21
-1.44073189125038
 31
0.0
  0
LINE
  5
FB
330
1F
100
AcDbEntity
  8
0-0
  6
JWW_DASHED1
 62
   120
370
     5
100
AcDbLine
 10
469.3452320197536
 20
-601.3402268264639
 30
0.0
 11
1059.345232019735
 21
-11.34022682648165
 31
0.0
  0
LINE
  5
FC
330
1F
100
AcDbEntity
  8
0-0
  6
JWW_DASHED1
 62
   120
370
     5
100
AcDbLine
 10
469.3452320197604
 20
-611.2397217616722
 30
0.0
 11
1059.345232019742
 21
-21.23972176168991
 31
0.0
  0
LINE
  5
FD
330
1F
100
AcDbEntity
  8
0-0
  6
JWW_DASHED1
 62
   120
370
     5
100
AcDbLine
 10
469.3452320197604
 20
-621.1392166968352
 30
0.0
 11
1059.345232019747
 21
-31.13921669684743
 31
0.0
  0
LINE
  5
FE
330
1F
100
AcDbEntity
  8
0-0
  6
JWW_DASHED1
 62
   120
370
     5
100
AcDbLine
 10
469.3452320197518
 20
-631.0387116320592
 30
0.0
 11
1059.345232019756
 21
-41.03871163205525
 31
0.0
  0
LINE
  5
FF
330
1F
100
AcDbEntity
  8
0-0
  6
JWW_DASHED1
 62
   120
370
     5
100
AcDbLine
 10
469.3452320197587
 20
-640.9382065672687
 30
0.0
 11
1059.345232019742
 21
-50.9382065672861
 31
0.0
  0
LINE
  5
100
330
1F
100
AcDbEntity
  8
0-0
  6
JWW_DASHED1
 62
   120
370
     5
100
AcDbLine
 10
469.3452320197706
 20
-650.8377015024178
 30
0.0
 11
1059.345232019754
 21
-60.83770150243552
 31
0.0
  0
LINE
  5
101
330
1F
100
AcDbEntity
  8
0-0
  6
JWW_DASHED1
 62
   120
370
     5
100
AcDbLine
 10
469.3452320197501
 20
-660.7371964376558
 30
0.0
 11
1059.345232019752
 21
-70.7371964376523
 31
0.0
  0
LINE
  5
102
330
1F
100
AcDbEntity
  8
0-0
  6
JWW_DASHED1
 62
   120
370
     5
100
AcDbLine
 10
469.345232019757
 20
-670.636691372865
 30
0.0
 11
1059.345232019739
 21
-80.63669137288315
 31
0.0
  0
LINE
  5
103
330
1F
100
AcDbEntity
  8
0-0
  6
JWW_DASHED1
 62
   120
370
     5
100
AcDbLine
 10
469.3452320197689
 20
-680.5361863080144
 30
0.0
 11
1059.345232019752
 21
-90.53618630803214
 31
0.0
  0
LINE
  5
104
330
1F
100
AcDbEntity
  8
0-0
  6
JWW_DASHED1
 62
   120
370
     5
100
AcDbLine
 10
469.3452320197467
 20
-690.4356812432529
 30
0.0
 11
1059.345232019751
 21
-100.4356812432493
 31
0.0
  0
LINE
  5
105
330
1F
100
AcDbEntity
  8
0-0
  6
JWW_DASHED1
 62
   120
370
     5
100
AcDbLine
 10
469.3452320197536
 20
-700.335176178462
 30
0.0
 11
1059.345232019737
 21
-110.3351761784798
 31
0.0
  0
LINE
  5
106
330
1F
100
AcDbEntity
  8
0-0
  6
JWW_DASHED1
 62
   120
370
     5
100
AcDbLine
 10
469.3452320197672
 20
-710.2346711136111
 30
0.0
 11
1059.345232019749
 21
-120.2346711136283
 31
0.0
  0
LINE
  5
107
330
1F
100
AcDbEntity
  8
0-0
  6
JWW_DASHED1
 62
   120
370
     5
100
AcDbLine
 10
469.345232019745
 20
-720.1341660488495
 30
0.0
 11
1059.345232019749
 21
-130.1341660488464
 31
0.0
  0
LINE
  5
108
330
1F
100
AcDbEntity
  8
0-0
  6
JWW_DASHED1
 62
   120
370
     5
100
AcDbLine
 10
469.345232019757
 20
-730.0336609839998
 30
0.0
 11
1059.345232019739
 21
-140.0336609840176
 31
0.0
  0
LINE
  5
109
330
1F
100
AcDbEntity
  8
0-0
  6
JWW_DASHED1
 62
   120
370
     5
100
AcDbLine
 10
469.3452320197655
 20
-739.9331559192076
 30
0.0
 11
1059.345232019747
 21
-149.9331559192254
 31
0.0
  0
LINE
  5
10A
330
1F
100
AcDbEntity
  8
0-0
  6
JWW_DASHED1
 62
   120
370
     5
100
AcDbLine
 10
469.345232019774
 20
-749.8326508544154
 30
0.0
 11
1059.345232019756
 21
-159.8326508544332
 31
0.0
  0
LINE
  5
10B
330
1F
100
AcDbEntity
  8
0-0
  6
JWW_DASHED1
 62
   120
370
     5
100
AcDbLine
 10
469.3452320197536
 20
-759.7321457895964
 30
0.0
 11
1059.345232019737
 21
-169.7321457896142
 31
0.0
  0
LINE
  5
10C
330
1F
100
AcDbEntity
  8
0-0
  6
JWW_DASHED1
 62
   120
370
     5
100
AcDbLine
 10
469.3452320197638
 20
-769.6316407248042
 30
0.0
 11
1059.345232019745
 21
-179.631640724822
 31
0.0
  0
LINE
  5
10D
330
1F
100
AcDbEntity
  8
0-0
  6
JWW_DASHED1
 62
   120
370
     5
100
AcDbLine
 10
469.3452320197706
 20
-779.5311356600121
 30
0.0
 11
1059.345232019754
 21
-189.5311356600298
 31
0.0
  0
LINE
  5
10E
330
1F
100
AcDbEntity
  8
0-0
  6
JWW_DASHED1
 62
   120
370
     5
100
AcDbLine
 10
469.3452320197536
 20
-789.4306305951926
 30
0.0
 11
1059.34523201974
 21
-199.4306305952048
 31
0.0
  0
LINE
  5
10F
330
1F
100
AcDbEntity
  8
0-0
  6
JWW_DASHED1
 62
   120
370
     5
100
AcDbLine
 10
469.3452320197604
 20
-799.3301255304009
 30
0.0
 11
1059.345232019744
 21
-209.3301255304186
 31
0.0
  0
LINE
  5
110
330
1F
100
AcDbEntity
  8
0-0
  6
JWW_DASHED1
 62
   120
370
     5
100
AcDbLine
 10
469.3452320197689
 20
-809.2296204656087
 30
0.0
 11
1059.345232019752
 21
-219.2296204656265
 31
0.0
  0
LINE
  5
111
330
1F
100
AcDbEntity
  8
0-0
  6
JWW_DASHED1
 62
   120
370
     5
100
AcDbLine
 10
473.9572722422149
 20
-814.5170751783245
 30
0.0
 11
1059.345232019754
 21
-229.1291154007861
 31
0.0
  0
LINE
  5
112
330
1F
100
AcDbEntity
  8
0-0
  6
JWW_DASHED1
 62
   120
370
     5
100
AcDbLine
 10
483.8567671774227
 20
-814.5170751783326
 30
0.0
 11
1059.345232019742
 21
-239.0286103360148
 31
0.0
  0
LINE
  5
113
330
1F
100
AcDbEntity
  8
0-0
  6
JWW_DASHED1
 62
   120
370
     5
100
AcDbLine
 10
493.7562621126323
 20
-814.5170751783406
 30
0.0
 11
1059.345232019749
 21
-248.9281052712231
 31
0.0
  0
LINE
  5
114
330
1F
100
AcDbEntity
  8
0-0
  6
JWW_DASHED1
 62
   120
370
     5
100
AcDbLine
 10
503.6557570478111
 20
-814.5170751783223
 30
0.0
 11
1059.345232019752
 21
-258.8276002063827
 31
0.0
  0
LINE
  5
115
330
1F
100
AcDbEntity
  8
0-0
  6
JWW_DASHED1
 62
   120
370
     5
100
AcDbLine
 10
513.5552519830206
 20
-814.5170751783296
 30
0.0
 11
1059.345232019739
 21
-268.7270951416119
 31
0.0
  0
LINE
  5
116
330
1F
100
AcDbEntity
  8
0-0
  6
JWW_DASHED1
 62
   120
370
     5
100
AcDbLine
 10
523.4547469182302
 20
-814.5170751783377
 30
0.0
 11
1059.345232019747
 21
-278.6265900768197
 31
0.0
  0
LINE
  5
117
330
1F
100
AcDbEntity
  8
0-0
  6
JWW_DASHED1
 62
   120
370
     5
100
AcDbLine
 10
533.354241853409
 20
-814.5170751783202
 30
0.0
 11
1059.345232019749
 21
-288.5260850119798
 31
0.0
  0
LINE
  5
118
330
1F
100
AcDbEntity
  8
0-0
  6
JWW_DASHED1
 62
   120
370
     5
100
AcDbLine
 10
543.2537367886185
 20
-814.5170751783266
 30
0.0
 11
1059.345232019742
 21
-298.4255799472038
 31
0.0
  0
LINE
  5
119
330
1F
100
AcDbEntity
  8
0-0
  6
JWW_DASHED1
 62
   120
370
     5
100
AcDbLine
 10
553.1532317238264
 20
-814.5170751783347
 30
0.0
 11
1059.345232019745
 21
-308.3250748824163
 31
0.0
  0
LINE
  5
11A
330
1F
100
AcDbEntity
  8
0-0
  6
JWW_DASHED1
 62
   120
370
     5
100
AcDbLine
 10
563.0527266589762
 20
-814.5170751783471
 30
0.0
 11
1059.345232019758
 21
-318.2245698175657
 31
0.0
  0
LINE
  5
11B
330
1F
100
AcDbEntity
  8
0-0
  6
JWW_DASHED1
 62
   120
370
     5
100
AcDbLine
 10
572.952221594213
 20
-814.5170751783262
 30
0.0
 11
1059.345232019756
 21
-328.1240647527846
 31
0.0
  0
LINE
  5
11C
330
1F
100
AcDbEntity
  8
0-0
  6
JWW_DASHED1
 62
   120
370
     5
100
AcDbLine
 10
582.8517165293646
 20
-814.517075178336
 30
0.0
 11
1059.345232019747
 21
-338.0235596879541
 31
0.0
  0
LINE
  5
11D
330
1F
100
AcDbEntity
  8
0-0
  6
JWW_DASHED1
 62
   120
370
     5
100
AcDbLine
 10
592.7512114645741
 20
-814.517075178344
 30
0.0
 11
1059.345232019756
 21
-347.9230546231619
 31
0.0
  0
LINE
  5
11E
330
1F
100
AcDbEntity
  8
0-0
  6
JWW_DASHED1
 62
   120
370
     5
100
AcDbLine
 10
602.6507063998109
 20
-814.517075178324
 30
0.0
 11
1059.345232019752
 21
-357.8225495583817
 31
0.0
  0
LINE
  5
11F
330
1F
100
AcDbEntity
  8
0-0
  6
JWW_DASHED1
 62
   120
370
     5
100
AcDbLine
 10
612.5502013349625
 20
-814.517075178333
 30
0.0
 11
1059.345232019745
 21
-367.7220444935507
 31
0.0
  0
LINE
  5
120
330
1F
100
AcDbEntity
  8
0-0
  6
JWW_DASHED1
 62
   120
370
     5
100
AcDbLine
 10
622.449696270172
 20
-814.5170751783411
 30
0.0
 11
1059.345232019752
 21
-377.621539428759
 31
0.0
  0
LINE
  5
121
330
1F
100
AcDbEntity
  8
0-0
  6
JWW_DASHED1
 62
   120
370
     5
100
AcDbLine
 10
632.3491912054071
 20
-814.5170751783219
 30
0.0
 11
1059.345232019749
 21
-387.5210343639787
 31
0.0
  0
LINE
  5
122
330
1F
100
AcDbEntity
  8
0-0
  6
JWW_DASHED1
 62
   120
370
     5
100
AcDbLine
 10
642.2486861405604
 20
-814.5170751783301
 30
0.0
 11
1059.345232019742
 21
-397.4205292991473
 31
0.0
  0
LINE
  5
123
330
1F
100
AcDbEntity
  8
0-0
  6
JWW_DASHED1
 62
   120
370
     5
100
AcDbLine
 10
652.1481810757682
 20
-814.5170751783381
 30
0.0
 11
1059.345232019751
 21
-407.3200242343552
 31
0.0
  0
LINE
  5
124
330
1F
100
AcDbEntity
  8
0-0
  6
JWW_DASHED1
 62
   120
370
     5
100
AcDbLine
 10
662.0476760109931
 20
-814.5170751783301
 30
0.0
 11
1059.345232019747
 21
-417.2195191695754
 31
0.0
  0
LINE
  5
125
330
1F
100
AcDbEntity
  8
0-0
  6
JWW_DASHED1
 62
   120
370
     5
100
AcDbLine
 10
671.9471709461583
 20
-814.5170751783266
 30
0.0
 11
1059.34523201974
 21
-427.119014104744
 31
0.0
  0
LINE
  5
126
330
1F
100
AcDbEntity
  8
0-0
  6
JWW_DASHED1
 62
   120
370
     5
100
AcDbLine
 10
681.8466658813661
 20
-814.5170751783351
 30
0.0
 11
1059.345232019749
 21
-437.0185090399522
 31
0.0
  0
LINE
  5
127
330
1F
100
AcDbEntity
  8
0-0
  6
JWW_DASHED1
 62
   120
370
     5
100
AcDbLine
 10
691.7461608165739
 20
-814.5170751783432
 30
0.0
 11
1059.345232019758
 21
-446.91800397516
 31
0.0
  0
LINE
  5
128
330
1F
100
AcDbEntity
  8
0-0
  6
JWW_DASHED1
 62
   120
370
     5
100
AcDbLine
 10
701.6456557517562
 20
-814.517075178324
 30
0.0
 11
1059.345232019739
 21
-456.8174989103406
 31
0.0
  0
LINE
  5
129
330
1F
100
AcDbEntity
  8
0-0
  6
JWW_DASHED1
 62
   120
370
     5
100
AcDbLine
 10
711.545150686964
 20
-814.5170751783317
 30
0.0
 11
1059.345232019747
 21
-466.7169938455484
 31
0.0
  0
LINE
  5
12A
330
1F
100
AcDbEntity
  8
0-0
  6
JWW_DASHED1
 62
   120
370
     5
100
AcDbLine
 10
721.4446456221718
 20
-814.5170751783403
 30
0.0
 11
1059.345232019756
 21
-476.6164887807562
 31
0.0
  0
LINE
  5
12B
330
1F
100
AcDbEntity
  8
0-0
  6
JWW_DASHED1
 62
   120
370
     5
100
AcDbLine
 10
731.3441405573541
 20
-814.5170751783206
 30
0.0
 11
1059.345232019739
 21
-486.5159837159342
 31
0.0
  0
LINE
  5
12C
330
1F
100
AcDbEntity
  8
0-0
  6
JWW_DASHED1
 62
   120
370
     5
100
AcDbLine
 10
741.2436354925602
 20
-814.5170751783292
 30
0.0
 11
1059.345232019745
 21
-496.415478651145
 31
0.0
  0
LINE
  5
12D
330
1F
100
AcDbEntity
  8
0-0
  6
JWW_DASHED1
 62
   120
370
     5
100
AcDbLine
 10
751.1431304277697
 20
-814.5170751783369
 30
0.0
 11
1059.345232019752
 21
-506.3149735863533
 31
0.0
  0
LINE
  5
12E
330
1F
100
AcDbEntity
  8
0-0
  6
JWW_DASHED1
 62
   120
370
     5
100
AcDbLine
 10
761.0426253629417
 20
-814.5170751783257
 30
0.0
 11
1059.345232019752
 21
-516.2144685215151
 31
0.0
  0
LINE
  5
12F
330
1F
100
AcDbEntity
  8
0-0
  6
JWW_DASHED1
 62
   120
370
     5
100
AcDbLine
 10
770.9421202981581
 20
-814.5170751783257
 30
0.0
 11
1059.345232019742
 21
-526.1139634567417
 31
0.0
  0
LINE
  5
130
330
1F
100
AcDbEntity
  8
0-0
  6
JWW_DASHED1
 62
   120
370
     5
100
AcDbLine
 10
780.841615233308
 20
-814.5170751783385
 30
0.0
 11
1059.345232019756
 21
-536.0134583918907
 31
0.0
  0
LINE
  5
131
330
1F
100
AcDbEntity
  8
0-0
  6
JWW_DASHED1
 62
   120
370
     5
100
AcDbLine
 10
790.7411101685396
 20
-814.5170751783232
 30
0.0
 11
1059.345232019751
 21
-545.9129533271121
 31
0.0
  0
LINE
  5
132
330
1F
100
AcDbEntity
  8
0-0
  6
JWW_DASHED1
 62
   120
370
     5
100
AcDbLine
 10
800.640605103756
 20
-814.5170751783232
 30
0.0
 11
1059.34523201974
 21
-555.8124482623383
 31
0.0
  0
LINE
  5
133
330
1F
100
AcDbEntity
  8
0-0
  6
JWW_DASHED1
 62
   120
370
     5
100
AcDbLine
 10
810.5401000389058
 20
-814.5170751783351
 30
0.0
 11
1059.345232019754
 21
-565.7119431974877
 31
0.0
  0
LINE
  5
134
330
1F
100
AcDbEntity
  8
0-0
  6
JWW_DASHED1
 62
   120
370
     5
100
AcDbLine
 10
820.4395949741358
 20
-814.5170751783214
 30
0.0
 11
1059.345232019749
 21
-575.6114381327092
 31
0.0
  0
LINE
  5
135
330
1F
100
AcDbEntity
  8
0-0
  6
JWW_DASHED1
 62
   120
370
     5
100
AcDbLine
 10
830.3390899093539
 20
-814.5170751783198
 30
0.0
 11
1059.34523201974
 21
-585.5109330679328
 31
0.0
  0
LINE
  5
136
330
1F
100
AcDbEntity
  8
0-0
  6
JWW_DASHED1
 62
   120
370
     5
100
AcDbLine
 10
840.238584844502
 20
-814.5170751783326
 30
0.0
 11
1059.345232019751
 21
-595.4104280030839
 31
0.0
  0
LINE
  5
137
330
1F
100
AcDbEntity
  8
0-0
  6
JWW_DASHED1
 62
   120
370
     5
100
AcDbLine
 10
850.1380797797116
 20
-814.5170751783403
 30
0.0
 11
1059.345232019759
 21
-605.3099229382917
 31
0.0
  0
LINE
  5
138
330
1F
100
AcDbEntity
  8
0-0
  6
JWW_DASHED1
 62
   120
370
     5
100
AcDbLine
 10
860.0375747149416
 20
-814.5170751783274
 30
0.0
 11
1059.345232019754
 21
-615.209417873514
 31
0.0
  0
LINE
  5
139
330
1F
100
AcDbEntity
  8
0-0
  6
JWW_DASHED1
 62
   120
370
     5
100
AcDbLine
 10
869.9370696500999
 20
-814.5170751783292
 30
0.0
 11
1059.345232019749
 21
-625.108912808681
 31
0.0
  0
LINE
  5
13A
330
1F
100
AcDbEntity
  8
0-0
  6
JWW_DASHED1
 62
   120
370
     5
100
AcDbLine
 10
879.8365645853095
 20
-814.5170751783377
 30
0.0
 11
1059.345232019758
 21
-635.0084077438887
 31
0.0
  0
LINE
  5
13B
330
1F
100
AcDbEntity
  8
0-0
  6
JWW_DASHED1
 62
   120
370
     5
100
AcDbLine
 10
889.7360595205378
 20
-814.5170751783253
 30
0.0
 11
1059.345232019752
 21
-644.9079026791111
 31
0.0
  0
LINE
  5
13C
330
1F
100
AcDbEntity
  8
0-0
  6
JWW_DASHED1
 62
   120
370
     5
100
AcDbLine
 10
899.6355544556978
 20
-814.5170751783266
 30
0.0
 11
1059.345232019747
 21
-654.8073976142771
 31
0.0
  0
LINE
  5
13D
330
1F
100
AcDbEntity
  8
0-0
  6
JWW_DASHED1
 62
   120
370
     5
100
AcDbLine
 10
909.5350493909057
 20
-814.5170751783343
 30
0.0
 11
1059.345232019756
 21
-664.7068925494854
 31
0.0
  0
LINE
  5
13E
330
1F
100
AcDbEntity
  8
0-0
  6
JWW_DASHED1
 62
   120
370
     5
100
AcDbLine
 10
919.434544326134
 20
-814.5170751783232
 30
0.0
 11
1059.345232019749
 21
-674.6063874847077
 31
0.0
  0
LINE
  5
13F
330
1F
100
AcDbEntity
  8
0-0
  6
JWW_DASHED1
 62
   120
370
     5
100
AcDbLine
 10
929.3340392612957
 20
-814.5170751783232
 30
0.0
 11
1059.345232019745
 21
-684.5058824198742
 31
0.0
  0
LINE
  5
140
330
1F
100
AcDbEntity
  8
0-0
  6
JWW_DASHED1
 62
   120
370
     5
100
AcDbLine
 10
939.2335341965036
 20
-814.5170751783317
 30
0.0
 11
1059.345232019752
 21
-694.405377355082
 31
0.0
  0
LINE
  5
141
330
1F
100
AcDbEntity
  8
0-0
  6
JWW_DASHED1
 62
   120
370
     5
100
AcDbLine
 10
949.1330291317284
 20
-814.517075178324
 30
0.0
 11
1059.345232019747
 21
-704.3048722903043
 31
0.0
  0
LINE
  5
142
330
1F
100
AcDbEntity
  8
0-0
  6
JWW_DASHED1
 62
   120
370
     5
100
AcDbLine
 10
959.0325240668936
 20
-814.5170751783206
 30
0.0
 11
1059.345232019742
 21
-714.2043672254704
 31
0.0
  0
LINE
  5
143
330
1F
100
AcDbEntity
  8
0-0
  6
JWW_DASHED1
 62
   120
370
     5
100
AcDbLine
 10
968.9320190021015
 20
-814.5170751783282
 30
0.0
 11
1059.345232019751
 21
-724.1038621606782
 31
0.0
  0
LINE
  5
144
330
1F
100
AcDbEntity
  8
0-0
  6
JWW_DASHED1
 62
   120
370
     5
100
AcDbLine
 10
978.8315139372957
 20
-814.5170751783232
 30
0.0
 11
1059.345232019745
 21
-734.0033570958724
 31
0.0
  0
LINE
  5
145
330
1F
100
AcDbEntity
  8
0-0
  6
JWW_DASHED1
 62
   120
370
     5
100
AcDbLine
 10
988.7310088724915
 20
-814.5170751783172
 30
0.0
 11
1059.34523201974
 21
-743.9028520310674
 31
0.0
  0
LINE
  5
146
330
1F
100
AcDbEntity
  8
0-0
  6
JWW_DASHED1
 62
   120
370
     5
100
AcDbLine
 10
998.6305038076977
 20
-814.5170751783257
 30
0.0
 11
1059.345232019749
 21
-753.8023469662753
 31
0.0
  0
LINE
  5
147
330
1F
100
AcDbEntity
  8
0-0
  6
JWW_DASHED1
 62
   120
370
     5
100
AcDbLine
 10
1008.529998742863
 20
-814.5170751783223
 30
0.0
 11
1059.345232019745
 21
-763.7018419014396
 31
0.0
  0
LINE
  5
148
330
1F
100
AcDbEntity
  8
0-0
  6
JWW_DASHED1
 62
   120
370
     5
100
AcDbLine
 10
1018.429493678072
 20
-814.5170751783292
 30
0.0
 11
1059.345232019754
 21
-773.6013368366474
 31
0.0
  0
LINE
  5
149
330
1F
100
AcDbEntity
  8
0-0
  6
JWW_DASHED1
 62
   120
370
     5
100
AcDbLine
 10
1028.328988613295
 20
-814.5170751783223
 30
0.0
 11
1059.345232019747
 21
-783.5008317718718
 31
0.0
  0
LINE
  5
14A
330
1F
100
AcDbEntity
  8
0-0
  6
JWW_DASHED1
 62
   120
370
     5
100
AcDbLine
 10
1038.228483548445
 20
-814.5170751783351
 30
0.0
 11
1059.345232019759
 21
-793.4003267070209
 31
0.0
  0
LINE
  5
14B
330
1F
100
AcDbEntity
  8
0-0
  6
JWW_DASHED1
 62
   120
370
     5
100
AcDbLine
 10
1048.12797848367
 20
-814.5170751783266
 30
0.0
 11
1059.345232019752
 21
-803.2998216422445
 31
0.0
  0
LINE
  5
14C
330
1F
100
AcDbEntity
  8
0-0
  6
JWW_DASHED1
 62
   120
370
     5
100
AcDbLine
 10
1058.027473418893
 20
-814.5170751783194
 30
0.0
 11
1059.345232019745
 21
-813.1993165774685
 31
0.0
  0
LINE
  5
14D
330
1F
100
AcDbEntity
  8
0-0
  6
Continuous
 62
    92
370
    13
100
AcDbLine
 10
469.3452320197518
 20
892.4829248216736
 30
0.0
 11
1059.345232019752
 21
892.4829248216736
 31
0.0
  0
LINE
  5
14E
330
1F
100
AcDbEntity
  8
0-0
  6
Continuous
 62
    92
370
    13
100
AcDbLine
 10
1059.345232019752
 20
1027.482924821674
 30
0.0
 11
1059.345232019752
 21
-955.5170751783266
 31
0.0
  0
LINE
  5
14F
330
1F
100
AcDbEntity
  8
0-0
  6
Continuous
 62
    92
370
    13
100
AcDbLine
 10
469.3452320197518
 20
1027.482924821674
 30
0.0
 11
469.3452320197518
 21
-955.5170751783266
 31
0.0
  0
LINE
  5
150
330
1F
100
AcDbEntity
  8
0-0
  6
Continuous
 62
    92
370
    13
100
AcDbLine
 10
1059.345232019752
 20
-814.5170751783266
 30
0.0
 11
469.3452320197518
 21
-814.5170751783266
 31
0.0
  0
LINE
  5
151
330
1F
100
AcDbEntity
  8
0-0
  6
JWW_DASHED1
 62
   120
370
     5
100
AcDbLine
 10
-262.6547679802424
 20
883.5840134531549
 30
0.0
 11
-253.7558566117288
 21
892.4829248216702
 31
0.0
  0
LINE
  5
152
330
1F
100
AcDbEntity
  8
0-0
  6
JWW_DASHED1
 62
   120
370
     5
100
AcDbLine
 10
-262.6547679802526
 20
873.6845185179309
 30
0.0
 11
-243.8563616765056
 21
892.4829248216774
 31
0.0
  0
LINE
  5
153
330
1F
100
AcDbEntity
  8
0-0
  6
JWW_DASHED1
 62
   120
370
     5
100
AcDbLine
 10
-262.6547679802526
 20
863.785023582766
 30
0.0
 11
-233.956866741337
 21
892.4829248216813
 31
0.0
  0
LINE
  5
154
330
1F
100
AcDbEntity
  8
0-0
  6
JWW_DASHED1
 62
   120
370
     5
100
AcDbLine
 10
-262.6547679802458
 20
853.8855286475577
 30
0.0
 11
-224.0573718061309
 21
892.4829248216731
 31
0.0
  0
LINE
  5
155
330
1F
100
AcDbEntity
  8
0-0
  6
JWW_DASHED1
 62
   120
370
     5
100
AcDbLine
 10
-262.6547679802389
 20
843.9860337123496
 30
0.0
 11
-214.1578768709213
 21
892.482924821665
 31
0.0
  0
LINE
  5
156
330
1F
100
AcDbEntity
  8
0-0
  6
JWW_DASHED1
 62
   120
370
     5
100
AcDbLine
 10
-262.654767980256
 20
834.0865387771694
 30
0.0
 11
-204.2583819357425
 21
892.4829248216843
 31
0.0
  0
LINE
  5
157
330
1F
100
AcDbEntity
  8
0-0
  6
JWW_DASHED1
 62
   120
370
     5
100
AcDbLine
 10
-262.6547679802458
 20
824.1870438419612
 30
0.0
 11
-194.358887000533
 21
892.4829248216761
 31
0.0
  0
LINE
  5
158
330
1F
100
AcDbEntity
  8
0-0
  6
JWW_DASHED1
 62
   120
370
     5
100
AcDbLine
 10
-262.6547679802389
 20
814.2875489067534
 30
0.0
 11
-184.4593920653234
 21
892.482924821668
 31
0.0
  0
LINE
  5
159
330
1F
100
AcDbEntity
  8
0-0
  6
JWW_DASHED1
 62
   120
370
     5
100
AcDbLine
 10
-262.6547679802424
 20
804.3880539715877
 30
0.0
 11
-174.5598971301582
 21
892.4829248216714
 31
0.0
  0
LINE
  5
15A
330
1F
100
AcDbEntity
  8
0-0
  6
JWW_DASHED1
 62
   120
370
     5
100
AcDbLine
 10
-262.6547679802492
 20
794.4885590363646
 30
0.0
 11
-164.6604021949351
 21
892.4829248216795
 31
0.0
  0
LINE
  5
15B
330
1F
100
AcDbEntity
  8
0-0
  6
JWW_DASHED1
 62
   120
370
     5
100
AcDbLine
 10
-262.6547679802424
 20
784.5890641011567
 30
0.0
 11
-154.760907259729
 21
892.4829248216711
 31
0.0
  0
LINE
  5
15C
330
1F
100
AcDbEntity
  8
0-0
  6
JWW_DASHED1
 62
   120
370
     5
100
AcDbLine
 10
-262.6547679802458
 20
774.6895691659906
 30
0.0
 11
-144.8614123245638
 21
892.4829248216714
 31
0.0
  0
LINE
  5
15D
330
1F
100
AcDbEntity
  8
0-0
  6
JWW_DASHED1
 62
   120
370
     5
100
AcDbLine
 10
-262.6547679802526
 20
764.7900742307684
 30
0.0
 11
-134.9619173893372
 21
892.4829248216821
 31
0.0
  0
LINE
  5
15E
330
1F
100
AcDbEntity
  8
0-0
  6
JWW_DASHED1
 62
   120
370
     5
100
AcDbLine
 10
-262.6547679802424
 20
754.8905792955601
 30
0.0
 11
-125.0624224541276
 21
892.482924821674
 31
0.0
  0
LINE
  5
15F
330
1F
100
AcDbEntity
  8
0-0
  6
JWW_DASHED1
 62
   120
370
     5
100
AcDbLine
 10
-262.6547679802492
 20
744.9910843603936
 30
0.0
 11
-115.1629275189693
 21
892.4829248216736
 31
0.0
  0
LINE
  5
160
330
1F
100
AcDbEntity
  8
0-0
  6
JWW_DASHED1
 62
   120
370
     5
100
AcDbLine
 10
-262.6547679802526
 20
735.0915894251714
 30
0.0
 11
-105.2634325837393
 21
892.4829248216851
 31
0.0
  0
LINE
  5
161
330
1F
100
AcDbEntity
  8
0-0
  6
JWW_DASHED1
 62
   120
370
     5
100
AcDbLine
 10
-262.6547679802458
 20
725.1920944899634
 30
0.0
 11
-95.36393764853315
 21
892.482924821677
 31
0.0
  0
LINE
  5
162
330
1F
100
AcDbEntity
  8
0-0
  6
JWW_DASHED1
 62
   120
370
     5
100
AcDbLine
 10
-262.6547679802492
 20
715.292599554797
 30
0.0
 11
-85.46444271337137
 21
892.4829248216757
 31
0.0
  0
LINE
  5
163
330
1F
100
AcDbEntity
  8
0-0
  6
JWW_DASHED1
 62
   120
370
     5
100
AcDbLine
 10
-262.654767980256
 20
705.3931046195751
 30
0.0
 11
-75.56494777814137
 21
892.4829248216881
 31
0.0
  0
LINE
  5
164
330
1F
100
AcDbEntity
  8
0-0
  6
JWW_DASHED1
 62
   120
370
     5
100
AcDbLine
 10
-262.6547679802492
 20
695.4936096843669
 30
0.0
 11
-65.66545284293525
 21
892.48292482168
 31
0.0
  0
LINE
  5
165
330
1F
100
AcDbEntity
  8
0-0
  6
JWW_DASHED1
 62
   120
370
     5
100
AcDbLine
 10
-262.6547679802355
 20
685.5941147492158
 30
0.0
 11
-55.7659579077837
 21
892.4829248216677
 31
0.0
  0
LINE
  5
166
330
1F
100
AcDbEntity
  8
0-0
  6
JWW_DASHED1
 62
   120
370
     5
100
AcDbLine
 10
-262.6547679802458
 20
675.6946198139922
 30
0.0
 11
-45.86646297256053
 21
892.4829248216753
 31
0.0
  0
LINE
  5
167
330
1F
100
AcDbEntity
  8
0-0
  6
JWW_DASHED1
 62
   120
370
     5
100
AcDbLine
 10
-262.6547679802492
 20
665.7951248787703
 30
0.0
 11
-35.96696803733735
 21
892.4829248216829
 31
0.0
  0
LINE
  5
168
330
1F
100
AcDbEntity
  8
0-0
  6
JWW_DASHED1
 62
   120
370
     5
100
AcDbLine
 10
-262.6547679802389
 20
655.8956299436213
 30
0.0
 11
-26.06747310218921
 21
892.4829248216706
 31
0.0
  0
LINE
  5
169
330
1F
100
AcDbEntity
  8
0-0
  6
JWW_DASHED1
 62
   120
370
     5
100
AcDbLine
 10
-262.6547679802458
 20
645.9961350083951
 30
0.0
 11
-16.16797816696945
 21
892.4829248216719
 31
0.0
  0
LINE
  5
16A
330
1F
100
AcDbEntity
  8
0-0
  6
JWW_DASHED1
 62
   120
370
     5
100
AcDbLine
 10
-262.6547679802526
 20
636.0966400731736
 30
0.0
 11
-6.268483231739452
 21
892.4829248216863
 31
0.0
  0
LINE
  5
16B
330
1F
100
AcDbEntity
  8
0-0
  6
JWW_DASHED1
 62
   120
370
     5
100
AcDbLine
 10
-262.6547679802389
 20
626.1971451380247
 30
0.0
 11
3.631011703408689
 21
892.4829248216736
 31
0.0
  0
LINE
  5
16C
330
1F
100
AcDbEntity
  8
0-0
  6
JWW_DASHED1
 62
   120
370
     5
100
AcDbLine
 10
-262.6547679802492
 20
616.2976502027981
 30
0.0
 11
13.53050663862504
 21
892.482924821674
 31
0.0
  0
LINE
  5
16D
330
1F
100
AcDbEntity
  8
0-0
  6
JWW_DASHED1
 62
   120
370
     5
100
AcDbLine
 10
-262.6547679802526
 20
606.3981552675771
 30
0.0
 11
23.43000157385845
 21
892.4829248216889
 31
0.0
  0
LINE
  5
16E
330
1F
100
AcDbEntity
  8
0-0
  6
JWW_DASHED1
 62
   120
370
     5
100
AcDbLine
 10
-262.6547679802424
 20
596.498660332428
 30
0.0
 11
33.32949650900659
 21
892.482924821677
 31
0.0
  0
LINE
  5
16F
330
1F
100
AcDbEntity
  8
0-0
  6
JWW_DASHED1
 62
   120
370
     5
100
AcDbLine
 10
-262.6547679802526
 20
586.5991653972014
 30
0.0
 11
43.22899144422294
 21
892.4829248216761
 31
0.0
  0
LINE
  5
170
330
1F
100
AcDbEntity
  8
0-0
  6
JWW_DASHED1
 62
   120
370
     5
100
AcDbLine
 10
-262.6547679802424
 20
576.6996704619932
 30
0.0
 11
53.12848637943929
 21
892.4829248216761
 31
0.0
  0
LINE
  5
171
330
1F
100
AcDbEntity
  8
0-0
  6
JWW_DASHED1
 62
   120
370
     5
100
AcDbLine
 10
-262.6547679802424
 20
566.8001755268314
 30
0.0
 11
63.02798131460449
 21
892.4829248216795
 31
0.0
  0
LINE
  5
172
330
1F
100
AcDbEntity
  8
0-0
  6
JWW_DASHED1
 62
   120
370
     5
100
AcDbLine
 10
-262.6547679802389
 20
556.9006805916201
 30
0.0
 11
72.92747624981402
 21
892.4829248216714
 31
0.0
  0
LINE
  5
173
330
1F
100
AcDbEntity
  8
0-0
  6
JWW_DASHED1
 62
   120
370
     5
100
AcDbLine
 10
-262.6547679802458
 20
547.0011856563965
 30
0.0
 11
82.82697118502696
 21
892.4829248216702
 31
0.0
  0
LINE
  5
174
330
1F
100
AcDbEntity
  8
0-0
  6
JWW_DASHED1
 62
   120
370
     5
100
AcDbLine
 10
-262.6547679802458
 20
537.1016907212347
 30
0.0
 11
92.72646612020239
 21
892.4829248216826
 31
0.0
  0
LINE
  5
175
330
1F
100
AcDbEntity
  8
0-0
  6
JWW_DASHED1
 62
   120
370
     5
100
AcDbLine
 10
-262.6547679802389
 20
527.2021957860266
 30
0.0
 11
102.6259610554119
 21
892.4829248216745
 31
0.0
  0
LINE
  5
176
330
1F
100
AcDbEntity
  8
0-0
  6
JWW_DASHED1
 62
   120
370
     5
100
AcDbLine
 10
-262.6547679802458
 20
517.3027008508584
 30
0.0
 11
112.5254559905771
 21
892.4829248216779
 31
0.0
  0
LINE
  5
177
330
1F
100
AcDbEntity
  8
0-0
  6
JWW_DASHED1
 62
   120
370
     5
100
AcDbLine
 10
-262.6547679802492
 20
507.4032059156382
 30
0.0
 11
122.4249509258003
 21
892.4829248216855
 31
0.0
  0
LINE
  5
178
330
1F
100
AcDbEntity
  8
0-0
  6
JWW_DASHED1
 62
   120
370
     5
100
AcDbLine
 10
-262.6547679802389
 20
497.5037109804299
 30
0.0
 11
132.3244458610064
 21
892.4829248216779
 31
0.0
  0
LINE
  5
179
330
1F
100
AcDbEntity
  8
0-0
  6
JWW_DASHED1
 62
   120
370
     5
100
AcDbLine
 10
-262.6547679802458
 20
487.6042160452613
 30
0.0
 11
142.2239407961614
 21
892.4829248216702
 31
0.0
  0
LINE
  5
17A
330
1F
100
AcDbEntity
  8
0-0
  6
JWW_DASHED1
 62
   120
370
     5
100
AcDbLine
 10
-262.6547679802492
 20
477.7047211100415
 30
0.0
 11
152.1234357313982
 21
892.4829248216889
 31
0.0
  0
LINE
  5
17B
330
1F
100
AcDbEntity
  8
0-0
  6
JWW_DASHED1
 62
   120
370
     5
100
AcDbLine
 10
-262.6547679802424
 20
467.8052261748337
 30
0.0
 11
162.0229306666043
 21
892.4829248216809
 31
0.0
  0
LINE
  5
17C
330
1F
100
AcDbEntity
  8
0-0
  6
JWW_DASHED1
 62
   120
370
     5
100
AcDbLine
 10
-262.6547679802492
 20
457.9057312396646
 30
0.0
 11
171.9224256017593
 21
892.4829248216727
 31
0.0
  0
LINE
  5
17D
330
1F
100
AcDbEntity
  8
0-0
  6
JWW_DASHED1
 62
   120
370
     5
100
AcDbLine
 10
-262.6547679802526
 20
448.0062363044445
 30
0.0
 11
181.8219205369961
 21
892.4829248216919
 31
0.0
  0
LINE
  5
17E
330
1F
100
AcDbEntity
  8
0-0
  6
JWW_DASHED1
 62
   120
370
     5
100
AcDbLine
 10
-262.6547679802458
 20
438.1067413692367
 30
0.0
 11
191.7214154722022
 21
892.4829248216838
 31
0.0
  0
LINE
  5
17F
330
1F
100
AcDbEntity
  8
0-0
  6
JWW_DASHED1
 62
   120
370
     5
100
AcDbLine
 10
-262.6547679802526
 20
428.2072464340677
 30
0.0
 11
201.6209104073572
 21
892.4829248216745
 31
0.0
  0
LINE
  5
180
330
1F
100
AcDbEntity
  8
0-0
  6
JWW_DASHED1
 62
   120
370
     5
100
AcDbLine
 10
-262.6547679802526
 20
418.3077514988479
 30
0.0
 11
211.520405342594
 21
892.482924821695
 31
0.0
  0
LINE
  5
181
330
1F
100
AcDbEntity
  8
0-0
  6
JWW_DASHED1
 62
   120
370
     5
100
AcDbLine
 10
-262.6547679802458
 20
408.4082565636405
 30
0.0
 11
221.4199002778001
 21
892.4829248216868
 31
0.0
  0
LINE
  5
182
330
1F
100
AcDbEntity
  8
0-0
  6
JWW_DASHED1
 62
   120
370
     5
100
AcDbLine
 10
-262.6547679802389
 20
398.5087616284864
 30
0.0
 11
231.3193952129517
 21
892.4829248216745
 31
0.0
  0
LINE
  5
183
330
1F
100
AcDbEntity
  8
0-0
  6
JWW_DASHED1
 62
   120
370
     5
100
AcDbLine
 10
-262.6547679802458
 20
388.6092666932627
 30
0.0
 11
241.2188901481748
 21
892.4829248216821
 31
0.0
  0
LINE
  5
184
330
1F
100
AcDbEntity
  8
0-0
  6
JWW_DASHED1
 62
   120
370
     5
100
AcDbLine
 10
-262.6547679802492
 20
378.7097717580434
 30
0.0
 11
251.118385083398
 21
892.4829248216897
 31
0.0
  0
LINE
  5
185
330
1F
100
AcDbEntity
  8
0-0
  6
JWW_DASHED1
 62
   120
370
     5
100
AcDbLine
 10
-262.6547679802355
 20
368.8102768228944
 30
0.0
 11
261.0178800185462
 21
892.4829248216774
 31
0.0
  0
LINE
  5
186
330
1F
100
AcDbEntity
  8
0-0
  6
JWW_DASHED1
 62
   120
370
     5
100
AcDbLine
 10
-262.6547679802492
 20
358.9107818876657
 30
0.0
 11
270.9173749537557
 21
892.4829248216711
 31
0.0
  0
LINE
  5
187
330
1F
100
AcDbEntity
  8
0-0
  6
JWW_DASHED1
 62
   120
370
     5
100
AcDbLine
 10
-262.6547679802492
 20
349.0112869524468
 30
0.0
 11
280.8168698889959
 21
892.4829248216928
 31
0.0
  0
LINE
  5
188
330
1F
100
AcDbEntity
  8
0-0
  6
JWW_DASHED1
 62
   120
370
     5
100
AcDbLine
 10
-262.6547679802389
 20
339.1117920172978
 30
0.0
 11
290.7163648241441
 21
892.4829248216804
 31
0.0
  0
LINE
  5
189
330
1F
100
AcDbEntity
  8
0-0
  6
JWW_DASHED1
 62
   120
370
     5
100
AcDbLine
 10
-262.6547679802492
 20
329.2122970820686
 30
0.0
 11
300.6158597593536
 21
892.4829248216727
 31
0.0
  0
LINE
  5
18A
330
1F
100
AcDbEntity
  8
0-0
  6
JWW_DASHED1
 62
   120
370
     5
100
AcDbLine
 10
-262.6547679802526
 20
319.3128021468502
 30
0.0
 11
310.5153546945938
 21
892.4829248216957
 31
0.0
  0
LINE
  5
18B
330
1F
100
AcDbEntity
  8
0-0
  6
JWW_DASHED1
 62
   120
370
     5
100
AcDbLine
 10
-262.6547679802389
 20
309.4133072117012
 30
0.0
 11
320.414849629742
 21
892.4829248216834
 31
0.0
  0
LINE
  5
18C
330
1F
100
AcDbEntity
  8
0-0
  6
JWW_DASHED1
 62
   120
370
     5
100
AcDbLine
 10
-262.6547679802526
 20
299.513812276472
 30
0.0
 11
327.3452320197497
 21
889.5138122764756
 31
0.0
  0
LINE
  5
18D
330
1F
100
AcDbEntity
  8
0-0
  6
JWW_DASHED1
 62
   120
370
     5
100
AcDbLine
 10
-262.6547679802526
 20
289.614317341283
 30
0.0
 11
327.3452320197292
 21
879.6143173412656
 31
0.0
  0
LINE
  5
18E
330
1F
100
AcDbEntity
  8
0-0
  6
JWW_DASHED1
 62
   120
370
     5
100
AcDbLine
 10
-262.6547679802424
 20
279.7148224061045
 30
0.0
 11
327.3452320197395
 21
869.7148224060868
 31
0.0
  0
LINE
  5
18F
330
1F
100
AcDbEntity
  8
0-0
  6
JWW_DASHED1
 62
   120
370
     5
100
AcDbLine
 10
-262.6547679802321
 20
269.8153274708963
 30
0.0
 11
327.3452320197497
 21
859.815327470879
 31
0.0
  0
LINE
  5
190
330
1F
100
AcDbEntity
  8
0-0
  6
JWW_DASHED1
 62
   120
370
     5
100
AcDbLine
 10
-262.6547679802526
 20
259.9158325357158
 30
0.0
 11
327.3452320197292
 21
849.9158325356984
 31
0.0
  0
LINE
  5
191
330
1F
100
AcDbEntity
  8
0-0
  6
JWW_DASHED1
 62
   120
370
     5
100
AcDbLine
 10
-262.6547679802424
 20
250.0163376005084
 30
0.0
 11
327.3452320197395
 21
840.0163376004901
 31
0.0
  0
LINE
  5
192
330
1F
100
AcDbEntity
  8
0-0
  6
JWW_DASHED1
 62
   120
370
     5
100
AcDbLine
 10
-262.6547679802355
 20
240.1168426653001
 30
0.0
 11
327.3452320197463
 21
830.1168426652828
 31
0.0
  0
LINE
  5
193
330
1F
100
AcDbEntity
  8
0-0
  6
JWW_DASHED1
 62
   120
370
     5
100
AcDbLine
 10
-262.6547679802458
 20
230.2173477301289
 30
0.0
 11
327.3452320197429
 21
820.2173477301167
 31
0.0
  0
LINE
  5
194
330
1F
100
AcDbEntity
  8
0-0
  6
JWW_DASHED1
 62
   120
370
     5
100
AcDbLine
 10
-262.6547679802458
 20
220.3178527949113
 30
0.0
 11
327.345232019736
 21
810.3178527948935
 31
0.0
  0
LINE
  5
195
330
1F
100
AcDbEntity
  8
0-0
  6
JWW_DASHED1
 62
   120
370
     5
100
AcDbLine
 10
-262.6547679802389
 20
210.4183578597035
 30
0.0
 11
327.3452320197429
 21
800.4183578596858
 31
0.0
  0
LINE
  5
196
330
1F
100
AcDbEntity
  8
0-0
  6
JWW_DASHED1
 62
   120
370
     5
100
AcDbLine
 10
-262.6547679802458
 20
200.5188629245319
 30
0.0
 11
327.3452320197565
 21
790.5188629245358
 31
0.0
  0
LINE
  5
197
330
1F
100
AcDbEntity
  8
0-0
  6
JWW_DASHED1
 62
   120
370
     5
100
AcDbLine
 10
-262.6547679802492
 20
190.6193679893147
 30
0.0
 11
327.345232019736
 21
780.619367989297
 31
0.0
  0
LINE
  5
198
330
1F
100
AcDbEntity
  8
0-0
  6
JWW_DASHED1
 62
   120
370
     5
100
AcDbLine
 10
-262.6547679802389
 20
180.7198730541069
 30
0.0
 11
327.3452320197429
 21
770.7198730540891
 31
0.0
  0
LINE
  5
199
330
1F
100
AcDbEntity
  8
0-0
  6
JWW_DASHED1
 62
   120
370
     5
100
AcDbLine
 10
-262.6547679802492
 20
170.8203781189353
 30
0.0
 11
327.3452320197531
 21
760.8203781189388
 31
0.0
  0
LINE
  5
19A
330
1F
100
AcDbEntity
  8
0-0
  6
JWW_DASHED1
 62
   120
370
     5
100
AcDbLine
 10
-262.6547679802492
 20
160.9208831837181
 30
0.0
 11
327.3452320197326
 21
750.9208831837003
 31
0.0
  0
LINE
  5
19B
330
1F
100
AcDbEntity
  8
0-0
  6
JWW_DASHED1
 62
   120
370
     5
100
AcDbLine
 10
-262.6547679802424
 20
151.0213882485102
 30
0.0
 11
327.3452320197395
 21
741.0213882484925
 31
0.0
  0
LINE
  5
19C
330
1F
100
AcDbEntity
  8
0-0
  6
JWW_DASHED1
 62
   120
370
     5
100
AcDbLine
 10
-262.6547679802526
 20
141.1218933133387
 30
0.0
 11
327.3452320197497
 21
731.1218933133418
 31
0.0
  0
LINE
  5
19D
330
1F
100
AcDbEntity
  8
0-0
  6
JWW_DASHED1
 62
   120
370
     5
100
AcDbLine
 10
-262.6547679802526
 20
131.2223983781215
 30
0.0
 11
327.3452320197292
 21
721.2223983781041
 31
0.0
  0
LINE
  5
19E
330
1F
100
AcDbEntity
  8
0-0
  6
JWW_DASHED1
 62
   120
370
     5
100
AcDbLine
 10
-262.6547679802458
 20
121.3229034429136
 30
0.0
 11
327.3452320197395
 21
711.3229034428958
 31
0.0
  0
LINE
  5
19F
330
1F
100
AcDbEntity
  8
0-0
  6
JWW_DASHED1
 62
   120
370
     5
100
AcDbLine
 10
-262.6547679802389
 20
111.423408507757
 30
0.0
 11
327.3452320197497
 21
701.4234085077452
 31
0.0
  0
LINE
  5
1A0
330
1F
100
AcDbEntity
  8
0-0
  6
JWW_DASHED1
 62
   120
370
     5
100
AcDbLine
 10
-262.6547679802458
 20
101.5239135725334
 30
0.0
 11
327.3452320197429
 21
691.5239135725211
 31
0.0
  0
LINE
  5
1A1
330
1F
100
AcDbEntity
  8
0-0
  6
JWW_DASHED1
 62
   120
370
     5
100
AcDbLine
 10
-262.6547679802458
 20
91.624418637317
 30
0.0
 11
327.345232019736
 21
681.6244186372992
 31
0.0
  0
LINE
  5
1A2
330
1F
100
AcDbEntity
  8
0-0
  6
JWW_DASHED1
 62
   120
370
     5
100
AcDbLine
 10
-262.6547679802321
 20
81.72492370216759
 30
0.0
 11
327.3452320197497
 21
671.7249237021502
 31
0.0
  0
LINE
  5
1A3
330
1F
100
AcDbEntity
  8
0-0
  6
JWW_DASHED1
 62
   120
370
     5
100
AcDbLine
 10
-262.6547679802492
 20
71.82542876693674
 30
0.0
 11
327.3452320197565
 21
661.8254287669399
 31
0.0
  0
LINE
  5
1A4
330
1F
100
AcDbEntity
  8
0-0
  6
JWW_DASHED1
 62
   120
370
     5
100
AcDbLine
 10
-262.6547679802458
 20
61.92593383177922
 30
0.0
 11
327.3452320197395
 21
651.9259338317619
 31
0.0
  0
LINE
  5
1A5
330
1F
100
AcDbEntity
  8
0-0
  6
JWW_DASHED1
 62
   120
370
     5
100
AcDbLine
 10
-262.6547679802355
 20
52.02643889657139
 30
0.0
 11
327.3452320197463
 21
642.0264388965536
 31
0.0
  0
LINE
  5
1A6
330
1F
100
AcDbEntity
  8
0-0
  6
JWW_DASHED1
 62
   120
370
     5
100
AcDbLine
 10
-262.6547679802526
 20
42.12694396133969
 30
0.0
 11
327.3452320197531
 21
632.1269439613433
 31
0.0
  0
LINE
  5
1A7
330
1F
100
AcDbEntity
  8
0-0
  6
JWW_DASHED1
 62
   120
370
     5
100
AcDbLine
 10
-262.6547679802458
 20
32.2274490261826
 30
0.0
 11
327.345232019736
 21
622.2274490261648
 31
0.0
  0
LINE
  5
1A8
330
1F
100
AcDbEntity
  8
0-0
  6
JWW_DASHED1
 62
   120
370
     5
100
AcDbLine
 10
-262.6547679802389
 20
22.32795409097477
 30
0.0
 11
327.3452320197429
 21
612.3279540909571
 31
0.0
  0
LINE
  5
1A9
330
1F
100
AcDbEntity
  8
0-0
  6
JWW_DASHED1
 62
   120
370
     5
100
AcDbLine
 10
-262.6547679802526
 20
12.42845915574264
 30
0.0
 11
327.3452320197497
 21
602.4284591557466
 31
0.0
  0
LINE
  5
1AA
330
1F
100
AcDbEntity
  8
0-0
  6
JWW_DASHED1
 62
   120
370
     5
100
AcDbLine
 10
-262.6547679802492
 20
2.528964220585976
 30
0.0
 11
327.345232019736
 21
592.5289642205682
 31
0.0
  0
LINE
  5
1AB
330
1F
100
AcDbEntity
  8
0-0
  6
JWW_DASHED1
 62
   120
370
     5
100
AcDbLine
 10
-262.6547679802389
 20
-7.37053071462185
 30
0.0
 11
327.3452320197429
 21
582.6294692853604
 31
0.0
  0
LINE
  5
1AC
330
1F
100
AcDbEntity
  8
0-0
  6
JWW_DASHED1
 62
   120
370
     5
100
AcDbLine
 10
-262.6547679802321
 20
-17.2700256498301
 30
0.0
 11
327.3452320197497
 21
572.7299743501521
 31
0.0
  0
LINE
  5
1AD
330
1F
100
AcDbEntity
  8
0-0
  6
JWW_DASHED1
 62
   120
370
     5
100
AcDbLine
 10
-262.6547679802492
 20
-27.16952058501064
 30
0.0
 11
327.3452320197326
 21
562.8304794149716
 31
0.0
  0
LINE
  5
1AE
330
1F
100
AcDbEntity
  8
0-0
  6
JWW_DASHED1
 62
   120
370
     5
100
AcDbLine
 10
-262.6547679802424
 20
-37.0690155202189
 30
0.0
 11
327.3452320197395
 21
552.9309844797638
 31
0.0
  0
LINE
  5
1AF
330
1F
100
AcDbEntity
  8
0-0
  6
JWW_DASHED1
 62
   120
370
     5
100
AcDbLine
 10
-262.6547679802321
 20
-46.96851045542672
 30
0.0
 11
327.3452320197497
 21
543.0314895445559
 31
0.0
  0
LINE
  5
1B0
330
1F
100
AcDbEntity
  8
0-0
  6
JWW_DASHED1
 62
   120
370
     5
100
AcDbLine
 10
-262.6547679802458
 20
-56.86800539060044
 30
0.0
 11
327.3452320197429
 21
533.1319946093873
 31
0.0
  0
LINE
  5
1B1
330
1F
100
AcDbEntity
  8
0-0
  6
JWW_DASHED1
 62
   120
370
     5
100
AcDbLine
 10
-262.6547679802458
 20
-66.76750032581509
 30
0.0
 11
327.3452320197395
 21
523.2324996741671
 31
0.0
  0
LINE
  5
1B2
330
1F
100
AcDbEntity
  8
0-0
  6
JWW_DASHED1
 62
   120
370
     5
100
AcDbLine
 10
-262.6547679802355
 20
-76.66699526102292
 30
0.0
 11
327.3452320197463
 21
513.3330047389588
 31
0.0
  0
LINE
  5
1B3
330
1F
100
AcDbEntity
  8
0-0
  6
JWW_DASHED1
 62
   120
370
     5
100
AcDbLine
 10
-262.6547679802492
 20
-86.56649019619707
 30
0.0
 11
327.3452320197565
 21
503.4335098038065
 31
0.0
  0
LINE
  5
1B4
330
1F
100
AcDbEntity
  8
0-0
  6
JWW_DASHED1
 62
   120
370
     5
100
AcDbLine
 10
-262.6547679802458
 20
-96.46598513141171
 30
0.0
 11
327.345232019736
 21
493.5340148685705
 31
0.0
  0
LINE
  5
1B5
330
1F
100
AcDbEntity
  8
0-0
  6
JWW_DASHED1
 62
   120
370
     5
100
AcDbLine
 10
-262.6547679802389
 20
-106.36548006662
 30
0.0
 11
327.3452320197429
 21
483.6345199333627
 31
0.0
  0
LINE
  5
1B6
330
1F
100
AcDbEntity
  8
0-0
  6
JWW_DASHED1
 62
   120
370
     5
100
AcDbLine
 10
-262.6547679802492
 20
-116.2649750017941
 30
0.0
 11
327.3452320197531
 21
473.7350249982094
 31
0.0
  0
LINE
  5
1B7
330
1F
100
AcDbEntity
  8
0-0
  6
JWW_DASHED1
 62
   120
370
     5
100
AcDbLine
 10
-262.6547679802492
 20
-126.1644699370083
 30
0.0
 11
327.3452320197326
 21
463.8355300629739
 31
0.0
  0
LINE
  5
1B8
330
1F
100
AcDbEntity
  8
0-0
  6
JWW_DASHED1
 62
   120
370
     5
100
AcDbLine
 10
-262.6547679802355
 20
-136.0639648721573
 30
0.0
 11
327.3452320197463
 21
453.9360351278245
 31
0.0
  0
LINE
  5
1B9
330
1F
100
AcDbEntity
  8
0-0
  6
JWW_DASHED1
 62
   120
370
     5
100
AcDbLine
 10
-262.6547679802526
 20
-145.9634598073907
 30
0.0
 11
327.3452320197497
 21
444.0365401926124
 31
0.0
  0
LINE
  5
1BA
330
1F
100
AcDbEntity
  8
0-0
  6
JWW_DASHED1
 62
   120
370
     5
100
AcDbLine
 10
-262.6547679802458
 20
-155.8629547425994
 30
0.0
 11
327.3452320197429
 21
434.1370452573888
 31
0.0
  0
LINE
  5
1BB
330
1F
100
AcDbEntity
  8
0-0
  6
JWW_DASHED1
 62
   120
370
     5
100
AcDbLine
 10
-262.6547679802389
 20
-165.7624496777544
 30
0.0
 11
327.3452320197429
 21
424.2375503222283
 31
0.0
  0
LINE
  5
1BC
330
1F
100
AcDbEntity
  8
0-0
  6
JWW_DASHED1
 62
   120
370
     5
100
AcDbLine
 10
-262.6547679802287
 20
-175.6619446129622
 30
0.0
 11
327.3452320197531
 21
414.3380553870201
 31
0.0
  0
LINE
  5
1BD
330
1F
100
AcDbEntity
  8
0-0
  6
JWW_DASHED1
 62
   120
370
     5
100
AcDbLine
 10
-262.6547679802458
 20
-185.561439548196
 30
0.0
 11
327.3452320197565
 21
404.4385604518075
 31
0.0
  0
LINE
  5
1BE
330
1F
100
AcDbEntity
  8
0-0
  6
JWW_DASHED1
 62
   120
370
     5
100
AcDbLine
 10
-262.6547679802389
 20
-195.4609344833506
 30
0.0
 11
327.3452320197429
 21
394.5390655166312
 31
0.0
  0
LINE
  5
1BF
330
1F
100
AcDbEntity
  8
0-0
  6
JWW_DASHED1
 62
   120
370
     5
100
AcDbLine
 10
-262.6547679802321
 20
-205.3604294185588
 30
0.0
 11
327.3452320197497
 21
384.6395705814234
 31
0.0
  0
LINE
  5
1C0
330
1F
100
AcDbEntity
  8
0-0
  6
JWW_DASHED1
 62
   120
370
     5
100
AcDbLine
 10
-262.6547679802492
 20
-215.2599243537927
 30
0.0
 11
327.3452320197531
 21
374.7400756462109
 31
0.0
  0
LINE
  5
1C1
330
1F
100
AcDbEntity
  8
0-0
  6
JWW_DASHED1
 62
   120
370
     5
100
AcDbLine
 10
-262.6547679802424
 20
-225.1594192889472
 30
0.0
 11
327.3452320197395
 21
364.840580711035
 31
0.0
  0
LINE
  5
1C2
330
1F
100
AcDbEntity
  8
0-0
  6
JWW_DASHED1
 62
   120
370
     5
100
AcDbLine
 10
-262.6547679802321
 20
-235.0589142241554
 30
0.0
 11
327.3452320197497
 21
354.9410857758272
 31
0.0
  0
LINE
  5
1C3
330
1F
100
AcDbEntity
  8
0-0
  6
JWW_DASHED1
 62
   120
370
     5
100
AcDbLine
 10
-262.6547679802526
 20
-244.9584091593897
 30
0.0
 11
327.3452320197531
 21
345.0415908406138
 31
0.0
  0
LINE
  5
1C4
330
1F
100
AcDbEntity
  8
0-0
  6
JWW_DASHED1
 62
   120
370
     5
100
AcDbLine
 10
-262.6547679802458
 20
-254.8579040945438
 30
0.0
 11
327.3452320197395
 21
335.142095905438
 31
0.0
  0
LINE
  5
1C5
330
1F
100
AcDbEntity
  8
0-0
  6
JWW_DASHED1
 62
   120
370
     5
100
AcDbLine
 10
-262.6547679802355
 20
-264.757399029752
 30
0.0
 11
327.3452320197463
 21
325.2426009702302
 31
0.0
  0
LINE
  5
1C6
330
1F
100
AcDbEntity
  8
0-0
  6
JWW_DASHED1
 62
   120
370
     5
100
AcDbLine
 10
-262.6547679802389
 20
-274.6568939649705
 30
0.0
 11
327.3452320197497
 21
315.3431060350168
 31
0.0
  0
LINE
  5
1C7
330
1F
100
AcDbEntity
  8
0-0
  6
JWW_DASHED1
 62
   120
370
     5
100
AcDbLine
 10
-262.6547679802458
 20
-284.5563889001404
 30
0.0
 11
327.345232019736
 21
305.4436110998414
 31
0.0
  0
LINE
  5
1C8
330
1F
100
AcDbEntity
  8
0-0
  6
JWW_DASHED1
 62
   120
370
     5
100
AcDbLine
 10
-262.6547679802389
 20
-294.4558838353487
 30
0.0
 11
327.3452320197429
 21
295.544116164634
 31
0.0
  0
LINE
  5
1C9
330
1F
100
AcDbEntity
  8
0-0
  6
JWW_DASHED1
 62
   120
370
     5
100
AcDbLine
 10
-262.6547679802287
 20
-304.3553787705565
 30
0.0
 11
327.3452320197531
 21
285.6446212294258
 31
0.0
  0
LINE
  5
1CA
330
1F
100
AcDbEntity
  8
0-0
  6
JWW_DASHED1
 62
   120
370
     5
100
AcDbLine
 10
-262.6547679802492
 20
-314.2548737057371
 30
0.0
 11
327.3452320197326
 21
275.7451262942448
 31
0.0
  0
LINE
  5
1CB
330
1F
100
AcDbEntity
  8
0-0
  6
JWW_DASHED1
 62
   120
370
     5
100
AcDbLine
 10
-262.6547679802389
 20
-324.1543686409453
 30
0.0
 11
327.3452320197429
 21
265.8456313590369
 31
0.0
  0
LINE
  5
1CC
330
1F
100
AcDbEntity
  8
0-0
  6
JWW_DASHED1
 62
   120
370
     5
100
AcDbLine
 10
-262.6547679802389
 20
-334.0538635761058
 30
0.0
 11
327.3452320197497
 21
255.946136423882
 31
0.0
  0
LINE
  5
1CD
330
1F
100
AcDbEntity
  8
0-0
  6
JWW_DASHED1
 62
   120
370
     5
100
AcDbLine
 10
-262.6547679802458
 20
-343.9533585113294
 30
0.0
 11
327.3452320197429
 21
246.0466414886579
 31
0.0
  0
LINE
  5
1CE
330
1F
100
AcDbEntity
  8
0-0
  6
JWW_DASHED1
 62
   120
370
     5
100
AcDbLine
 10
-262.6547679802424
 20
-353.8528534465419
 30
0.0
 11
327.3452320197395
 21
236.1471465534403
 31
0.0
  0
LINE
  5
1CF
330
1F
100
AcDbEntity
  8
0-0
  6
JWW_DASHED1
 62
   120
370
     5
100
AcDbLine
 10
-262.6547679802287
 20
-363.7523483816909
 30
0.0
 11
327.3452320197531
 21
226.2476516182913
 31
0.0
  0
LINE
  5
1D0
330
1F
100
AcDbEntity
  8
0-0
  6
JWW_DASHED1
 62
   120
370
     5
100
AcDbLine
 10
-262.6547679802492
 20
-373.6518433169269
 30
0.0
 11
327.3452320197565
 21
216.3481566830771
 31
0.0
  0
LINE
  5
1D1
330
1F
100
AcDbEntity
  8
0-0
  6
JWW_DASHED1
 62
   120
370
     5
100
AcDbLine
 10
-262.6547679802458
 20
-383.5513382521385
 30
0.0
 11
327.345232019736
 21
206.4486617478437
 31
0.0
  0
LINE
  5
1D2
330
1F
100
AcDbEntity
  8
0-0
  6
JWW_DASHED1
 62
   120
370
     5
100
AcDbLine
 10
-262.6547679802321
 20
-393.450833187288
 30
0.0
 11
327.3452320197497
 21
196.5491668126947
 31
0.0
  0
LINE
  5
1D3
330
1F
100
AcDbEntity
  8
0-0
  6
JWW_DASHED1
 62
   120
370
     5
100
AcDbLine
 10
-262.6547679802526
 20
-403.3503281225235
 30
0.0
 11
327.3452320197531
 21
186.64967187748
 31
0.0
  0
LINE
  5
1D4
330
1F
100
AcDbEntity
  8
0-0
  6
JWW_DASHED1
 62
   120
370
     5
100
AcDbLine
 10
-262.6547679802458
 20
-413.2498230577352
 30
0.0
 11
327.345232019736
 21
176.7501769422475
 31
0.0
  0
LINE
  5
1D5
330
1F
100
AcDbEntity
  8
0-0
  6
JWW_DASHED1
 62
   120
370
     5
100
AcDbLine
 10
-262.6547679802321
 20
-423.1493179928842
 30
0.0
 11
327.3452320197497
 21
166.8506820070981
 31
0.0
  0
LINE
  5
1D6
330
1F
100
AcDbEntity
  8
0-0
  6
JWW_DASHED1
 62
   120
370
     5
100
AcDbLine
 10
-262.6547679802526
 20
-433.0488129281201
 30
0.0
 11
327.3452320197497
 21
156.951187071883
 31
0.0
  0
LINE
  5
1D7
330
1F
100
AcDbEntity
  8
0-0
  6
JWW_DASHED1
 62
   120
370
     5
100
AcDbLine
 10
-262.6547679802458
 20
-442.9483078633288
 30
0.0
 11
327.3452320197429
 21
147.0516921366594
 31
0.0
  0
LINE
  5
1D8
330
1F
100
AcDbEntity
  8
0-0
  6
JWW_DASHED1
 62
   120
370
     5
100
AcDbLine
 10
-262.6547679802355
 20
-452.8478027984808
 30
0.0
 11
327.3452320197463
 21
137.1521972015015
 31
0.0
  0
LINE
  5
1D9
330
1F
100
AcDbEntity
  8
0-0
  6
JWW_DASHED1
 62
   120
370
     5
100
AcDbLine
 10
-262.6547679802287
 20
-462.747297733689
 30
0.0
 11
327.3452320197565
 21
127.2527022662936
 31
0.0
  0
LINE
  5
1DA
330
1F
100
AcDbEntity
  8
0-0
  6
JWW_DASHED1
 62
   120
370
     5
100
AcDbLine
 10
-262.6547679802492
 20
-472.646792668925
 30
0.0
 11
327.3452320197565
 21
117.3532073310781
 31
0.0
  0
LINE
  5
1DB
330
1F
100
AcDbEntity
  8
0-0
  6
JWW_DASHED1
 62
   120
370
     5
100
AcDbLine
 10
-262.6547679802389
 20
-482.5462876040774
 30
0.0
 11
327.3452320197429
 21
107.4537123959048
 31
0.0
  0
LINE
  5
1DC
330
1F
100
AcDbEntity
  8
0-0
  6
JWW_DASHED1
 62
   120
370
     5
100
AcDbLine
 10
-262.6547679802287
 20
-492.4457825392852
 30
0.0
 11
327.3452320197531
 21
97.55421746069658
 31
0.0
  0
LINE
  5
1DD
330
1F
100
AcDbEntity
  8
0-0
  6
JWW_DASHED1
 62
   120
370
     5
100
AcDbLine
 10
-262.6547679802492
 20
-502.345277474522
 30
0.0
 11
327.3452320197531
 21
87.6547225254815
 31
0.0
  0
LINE
  5
1DE
330
1F
100
AcDbEntity
  8
0-0
  6
JWW_DASHED1
 62
   120
370
     5
100
AcDbLine
 10
-262.6547679802389
 20
-512.244772409674
 30
0.0
 11
327.3452320197429
 21
77.75522759030821
 31
0.0
  0
LINE
  5
1DF
330
1F
100
AcDbEntity
  8
0-0
  6
JWW_DASHED1
 62
   120
370
     5
100
AcDbLine
 10
-262.6547679802321
 20
-522.1442673448823
 30
0.0
 11
327.3452320197497
 21
67.85573265509996
 31
0.0
  0
LINE
  5
1E0
330
1F
100
AcDbEntity
  8
0-0
  6
JWW_DASHED1
 62
   120
370
     5
100
AcDbLine
 10
-262.6547679802492
 20
-532.0437622800603
 30
0.0
 11
327.3452320197565
 21
57.95623771994372
 31
0.0
  0
LINE
  5
1E1
330
1F
100
AcDbEntity
  8
0-0
  6
JWW_DASHED1
 62
   120
370
     5
100
AcDbLine
 10
-262.6547679802424
 20
-541.9432572152707
 30
0.0
 11
327.3452320197395
 21
48.05674278471159
 31
0.0
  0
LINE
  5
1E2
330
1F
100
AcDbEntity
  8
0-0
  6
JWW_DASHED1
 62
   120
370
     5
100
AcDbLine
 10
-262.6547679802355
 20
-551.8427521504789
 30
0.0
 11
327.3452320197497
 21
38.15724784950334
 31
0.0
  0
LINE
  5
1E3
330
1F
100
AcDbEntity
  8
0-0
  6
JWW_DASHED1
 62
   120
370
     5
100
AcDbLine
 10
-262.6547679802526
 20
-561.7422470856573
 30
0.0
 11
327.3452320197531
 21
28.25775291434624
 31
0.0
  0
LINE
  5
1E4
330
1F
100
AcDbEntity
  8
0-0
  6
JWW_DASHED1
 62
   120
370
     5
100
AcDbLine
 10
-262.6547679802458
 20
-571.6417420208672
 30
0.0
 11
327.345232019736
 21
18.35825797911497
 31
0.0
  0
LINE
  5
1E5
330
1F
100
AcDbEntity
  8
0-0
  6
JWW_DASHED1
 62
   120
370
     5
100
AcDbLine
 10
-262.6547679802355
 20
-581.5412369560755
 30
0.0
 11
327.3452320197463
 21
8.458763043906714
 31
0.0
  0
LINE
  5
1E6
330
1F
100
AcDbEntity
  8
0-0
  6
JWW_DASHED1
 62
   120
370
     5
100
AcDbLine
 10
-262.6547679802526
 20
-591.4407318912539
 30
0.0
 11
327.3452320197497
 21
-1.44073189125038
 31
0.0
  0
LINE
  5
1E7
330
1F
100
AcDbEntity
  8
0-0
  6
JWW_DASHED1
 62
   120
370
     5
100
AcDbLine
 10
-262.6547679802458
 20
-601.3402268264639
 30
0.0
 11
327.345232019736
 21
-11.34022682648165
 31
0.0
  0
LINE
  5
1E8
330
1F
100
AcDbEntity
  8
0-0
  6
JWW_DASHED1
 62
   120
370
     5
100
AcDbLine
 10
-262.6547679802389
 20
-611.2397217616722
 30
0.0
 11
327.3452320197429
 21
-21.23972176168991
 31
0.0
  0
LINE
  5
1E9
330
1F
100
AcDbEntity
  8
0-0
  6
JWW_DASHED1
 62
   120
370
     5
100
AcDbLine
 10
-262.6547679802389
 20
-621.1392166968352
 30
0.0
 11
327.3452320197497
 21
-31.13921669684743
 31
0.0
  0
LINE
  5
1EA
330
1F
100
AcDbEntity
  8
0-0
  6
JWW_DASHED1
 62
   120
370
     5
100
AcDbLine
 10
-262.6547679802458
 20
-631.0387116320592
 30
0.0
 11
327.3452320197565
 21
-41.03871163205525
 31
0.0
  0
LINE
  5
1EB
330
1F
100
AcDbEntity
  8
0-0
  6
JWW_DASHED1
 62
   120
370
     5
100
AcDbLine
 10
-262.6547679802389
 20
-640.9382065672687
 30
0.0
 11
327.3452320197429
 21
-50.9382065672861
 31
0.0
  0
LINE
  5
1EC
330
1F
100
AcDbEntity
  8
0-0
  6
JWW_DASHED1
 62
   120
370
     5
100
AcDbLine
 10
-262.6547679802287
 20
-650.8377015024178
 30
0.0
 11
327.3452320197565
 21
-60.83770150243552
 31
0.0
  0
LINE
  5
1ED
330
1F
100
AcDbEntity
  8
0-0
  6
JWW_DASHED1
 62
   120
370
     5
100
AcDbLine
 10
-262.6547679802492
 20
-660.7371964376558
 30
0.0
 11
327.3452320197531
 21
-70.7371964376523
 31
0.0
  0
LINE
  5
1EE
330
1F
100
AcDbEntity
  8
0-0
  6
JWW_DASHED1
 62
   120
370
     5
100
AcDbLine
 10
-262.6547679802424
 20
-670.636691372865
 30
0.0
 11
327.3452320197395
 21
-80.63669137288315
 31
0.0
  0
LINE
  5
1EF
330
1F
100
AcDbEntity
  8
0-0
  6
JWW_DASHED1
 62
   120
370
     5
100
AcDbLine
 10
-262.6547679802287
 20
-680.5361863080144
 30
0.0
 11
327.3452320197531
 21
-90.53618630803214
 31
0.0
  0
LINE
  5
1F0
330
1F
100
AcDbEntity
  8
0-0
  6
JWW_DASHED1
 62
   120
370
     5
100
AcDbLine
 10
-262.6547679802526
 20
-690.4356812432529
 30
0.0
 11
327.3452320197497
 21
-100.4356812432493
 31
0.0
  0
LINE
  5
1F1
330
1F
100
AcDbEntity
  8
0-0
  6
JWW_DASHED1
 62
   120
370
     5
100
AcDbLine
 10
-262.6547679802458
 20
-700.335176178462
 30
0.0
 11
327.345232019736
 21
-110.3351761784798
 31
0.0
  0
LINE
  5
1F2
330
1F
100
AcDbEntity
  8
0-0
  6
JWW_DASHED1
 62
   120
370
     5
100
AcDbLine
 10
-262.6547679802321
 20
-710.2346711136111
 30
0.0
 11
327.3452320197497
 21
-120.2346711136283
 31
0.0
  0
LINE
  5
1F3
330
1F
100
AcDbEntity
  8
0-0
  6
JWW_DASHED1
 62
   120
370
     5
100
AcDbLine
 10
-262.6547679802526
 20
-720.1341660488495
 30
0.0
 11
327.3452320197497
 21
-130.1341660488464
 31
0.0
  0
LINE
  5
1F4
330
1F
100
AcDbEntity
  8
0-0
  6
JWW_DASHED1
 62
   120
370
     5
100
AcDbLine
 10
-262.6547679802424
 20
-730.0336609839998
 30
0.0
 11
327.3452320197395
 21
-140.0336609840176
 31
0.0
  0
LINE
  5
1F5
330
1F
100
AcDbEntity
  8
0-0
  6
JWW_DASHED1
 62
   120
370
     5
100
AcDbLine
 10
-262.6547679802355
 20
-739.9331559192076
 30
0.0
 11
327.3452320197497
 21
-149.9331559192254
 31
0.0
  0
LINE
  5
1F6
330
1F
100
AcDbEntity
  8
0-0
  6
JWW_DASHED1
 62
   120
370
     5
100
AcDbLine
 10
-262.6547679802253
 20
-749.8326508544154
 30
0.0
 11
327.3452320197565
 21
-159.8326508544332
 31
0.0
  0
LINE
  5
1F7
330
1F
100
AcDbEntity
  8
0-0
  6
JWW_DASHED1
 62
   120
370
     5
100
AcDbLine
 10
-262.6547679802458
 20
-759.7321457895964
 30
0.0
 11
327.345232019736
 21
-169.7321457896142
 31
0.0
  0
LINE
  5
1F8
330
1F
100
AcDbEntity
  8
0-0
  6
JWW_DASHED1
 62
   120
370
     5
100
AcDbLine
 10
-262.6547679802355
 20
-769.6316407248042
 30
0.0
 11
327.3452320197463
 21
-179.631640724822
 31
0.0
  0
LINE
  5
1F9
330
1F
100
AcDbEntity
  8
0-0
  6
JWW_DASHED1
 62
   120
370
     5
100
AcDbLine
 10
-262.6547679802287
 20
-779.5311356600121
 30
0.0
 11
327.3452320197531
 21
-189.5311356600298
 31
0.0
  0
LINE
  5
1FA
330
1F
100
AcDbEntity
  8
0-0
  6
JWW_DASHED1
 62
   120
370
     5
100
AcDbLine
 10
-262.6547679802458
 20
-789.4306305951926
 30
0.0
 11
327.3452320197429
 21
-199.4306305952048
 31
0.0
  0
LINE
  5
1FB
330
1F
100
AcDbEntity
  8
0-0
  6
JWW_DASHED1
 62
   120
370
     5
100
AcDbLine
 10
-262.6547679802389
 20
-799.3301255304009
 30
0.0
 11
327.3452320197429
 21
-209.3301255304186
 31
0.0
  0
LINE
  5
1FC
330
1F
100
AcDbEntity
  8
0-0
  6
JWW_DASHED1
 62
   120
370
     5
100
AcDbLine
 10
-262.6547679802321
 20
-809.2296204656087
 30
0.0
 11
327.3452320197531
 21
-219.2296204656265
 31
0.0
  0
LINE
  5
1FD
330
1F
100
AcDbEntity
  8
0-0
  6
JWW_DASHED1
 62
   120
370
     5
100
AcDbLine
 10
-258.0427277577827
 20
-814.5170751783245
 30
0.0
 11
327.3452320197565
 21
-229.1291154007861
 31
0.0
  0
LINE
  5
1FE
330
1F
100
AcDbEntity
  8
0-0
  6
JWW_DASHED1
 62
   120
370
     5
100
AcDbLine
 10
-248.1432328225766
 20
-814.5170751783326
 30
0.0
 11
327.3452320197429
 21
-239.0286103360148
 31
0.0
  0
LINE
  5
1FF
330
1F
100
AcDbEntity
  8
0-0
  6
JWW_DASHED1
 62
   120
370
     5
100
AcDbLine
 10
-238.2437378873671
 20
-814.5170751783406
 30
0.0
 11
327.3452320197497
 21
-248.9281052712231
 31
0.0
  0
LINE
  5
200
330
1F
100
AcDbEntity
  8
0-0
  6
JWW_DASHED1
 62
   120
370
     5
100
AcDbLine
 10
-228.3442429521882
 20
-814.5170751783223
 30
0.0
 11
327.3452320197531
 21
-258.8276002063827
 31
0.0
  0
LINE
  5
201
330
1F
100
AcDbEntity
  8
0-0
  6
JWW_DASHED1
 62
   120
370
     5
100
AcDbLine
 10
-218.4447480169787
 20
-814.5170751783296
 30
0.0
 11
327.3452320197395
 21
-268.7270951416119
 31
0.0
  0
LINE
  5
202
330
1F
100
AcDbEntity
  8
0-0
  6
JWW_DASHED1
 62
   120
370
     5
100
AcDbLine
 10
-208.5452530817692
 20
-814.5170751783377
 30
0.0
 11
327.3452320197497
 21
-278.6265900768197
 31
0.0
  0
LINE
  5
203
330
1F
100
AcDbEntity
  8
0-0
  6
JWW_DASHED1
 62
   120
370
     5
100
AcDbLine
 10
-198.6457581465903
 20
-814.5170751783202
 30
0.0
 11
327.3452320197497
 21
-288.5260850119798
 31
0.0
  0
LINE
  5
204
330
1F
100
AcDbEntity
  8
0-0
  6
JWW_DASHED1
 62
   120
370
     5
100
AcDbLine
 10
-188.7462632113808
 20
-814.5170751783266
 30
0.0
 11
327.3452320197429
 21
-298.4255799472038
 31
0.0
  0
LINE
  5
205
330
1F
100
AcDbEntity
  8
0-0
  6
JWW_DASHED1
 62
   120
370
     5
100
AcDbLine
 10
-178.8467682761713
 20
-814.5170751783347
 30
0.0
 11
327.3452320197463
 21
-308.3250748824163
 31
0.0
  0
LINE
  5
206
330
1F
100
AcDbEntity
  8
0-0
  6
JWW_DASHED1
 62
   120
370
     5
100
AcDbLine
 10
-168.9472733410231
 20
-814.5170751783471
 30
0.0
 11
327.3452320197599
 21
-318.2245698175657
 31
0.0
  0
LINE
  5
207
330
1F
100
AcDbEntity
  8
0-0
  6
JWW_DASHED1
 62
   120
370
     5
100
AcDbLine
 10
-159.0477784057863
 20
-814.5170751783262
 30
0.0
 11
327.3452320197565
 21
-328.1240647527846
 31
0.0
  0
LINE
  5
208
330
1F
100
AcDbEntity
  8
0-0
  6
JWW_DASHED1
 62
   120
370
     5
100
AcDbLine
 10
-149.1482834706348
 20
-814.517075178336
 30
0.0
 11
327.3452320197497
 21
-338.0235596879541
 31
0.0
  0
LINE
  5
209
330
1F
100
AcDbEntity
  8
0-0
  6
JWW_DASHED1
 62
   120
370
     5
100
AcDbLine
 10
-139.2487885354252
 20
-814.517075178344
 30
0.0
 11
327.3452320197565
 21
-347.9230546231619
 31
0.0
  0
LINE
  5
20A
330
1F
100
AcDbEntity
  8
0-0
  6
JWW_DASHED1
 62
   120
370
     5
100
AcDbLine
 10
-129.3492936001884
 20
-814.517075178324
 30
0.0
 11
327.3452320197531
 21
-357.8225495583817
 31
0.0
  0
LINE
  5
20B
330
1F
100
AcDbEntity
  8
0-0
  6
JWW_DASHED1
 62
   120
370
     5
100
AcDbLine
 10
-119.4497986650369
 20
-814.517075178333
 30
0.0
 11
327.3452320197463
 21
-367.7220444935507
 31
0.0
  0
LINE
  5
20C
330
1F
100
AcDbEntity
  8
0-0
  6
JWW_DASHED1
 62
   120
370
     5
100
AcDbLine
 10
-109.5503037298273
 20
-814.5170751783411
 30
0.0
 11
327.3452320197531
 21
-377.621539428759
 31
0.0
  0
LINE
  5
20D
330
1F
100
AcDbEntity
  8
0-0
  6
JWW_DASHED1
 62
   120
370
     5
100
AcDbLine
 10
-99.65080879459393
 20
-814.5170751783219
 30
0.0
 11
327.3452320197497
 21
-387.5210343639787
 31
0.0
  0
LINE
  5
20E
330
1F
100
AcDbEntity
  8
0-0
  6
JWW_DASHED1
 62
   120
370
     5
100
AcDbLine
 10
-89.75131385943897
 20
-814.5170751783301
 30
0.0
 11
327.3452320197429
 21
-397.4205292991473
 31
0.0
  0
LINE
  5
20F
330
1F
100
AcDbEntity
  8
0-0
  6
JWW_DASHED1
 62
   120
370
     5
100
AcDbLine
 10
-79.85181892422943
 20
-814.5170751783381
 30
0.0
 11
327.3452320197531
 21
-407.3200242343552
 31
0.0
  0
LINE
  5
210
330
1F
100
AcDbEntity
  8
0-0
  6
JWW_DASHED1
 62
   120
370
     5
100
AcDbLine
 10
-69.95232398900626
 20
-814.5170751783301
 30
0.0
 11
327.3452320197497
 21
-417.2195191695754
 31
0.0
  0
LINE
  5
211
330
1F
100
AcDbEntity
  8
0-0
  6
JWW_DASHED1
 62
   120
370
     5
100
AcDbLine
 10
-60.05282905384107
 20
-814.5170751783266
 30
0.0
 11
327.3452320197429
 21
-427.119014104744
 31
0.0
  0
LINE
  5
212
330
1F
100
AcDbEntity
  8
0-0
  6
JWW_DASHED1
 62
   120
370
     5
100
AcDbLine
 10
-50.15333411863153
 20
-814.5170751783351
 30
0.0
 11
327.3452320197497
 21
-437.0185090399522
 31
0.0
  0
LINE
  5
213
330
1F
100
AcDbEntity
  8
0-0
  6
JWW_DASHED1
 62
   120
370
     5
100
AcDbLine
 10
-40.25383918342541
 20
-814.5170751783432
 30
0.0
 11
327.3452320197565
 21
-446.91800397516
 31
0.0
  0
LINE
  5
214
330
1F
100
AcDbEntity
  8
0-0
  6
JWW_DASHED1
 62
   120
370
     5
100
AcDbLine
 10
-30.35434424824317
 20
-814.517075178324
 30
0.0
 11
327.3452320197395
 21
-456.8174989103406
 31
0.0
  0
LINE
  5
215
330
1F
100
AcDbEntity
  8
0-0
  6
JWW_DASHED1
 62
   120
370
     5
100
AcDbLine
 10
-20.45484931303704
 20
-814.5170751783317
 30
0.0
 11
327.3452320197497
 21
-466.7169938455484
 31
0.0
  0
LINE
  5
216
330
1F
100
AcDbEntity
  8
0-0
  6
JWW_DASHED1
 62
   120
370
     5
100
AcDbLine
 10
-10.55535437782751
 20
-814.5170751783403
 30
0.0
 11
327.3452320197565
 21
-476.6164887807562
 31
0.0
  0
LINE
  5
217
330
1F
100
AcDbEntity
  8
0-0
  6
JWW_DASHED1
 62
   120
370
     5
100
AcDbLine
 10
-0.6558594426452657
 20
-814.5170751783206
 30
0.0
 11
327.3452320197395
 21
-486.5159837159342
 31
0.0
  0
LINE
  5
218
330
1F
100
AcDbEntity
  8
0-0
  6
JWW_DASHED1
 62
   120
370
     5
100
AcDbLine
 10
9.243635492560855
 20
-814.5170751783292
 30
0.0
 11
327.3452320197463
 21
-496.415478651145
 31
0.0
  0
LINE
  5
219
330
1F
100
AcDbEntity
  8
0-0
  6
JWW_DASHED1
 62
   120
370
     5
100
AcDbLine
 10
19.14313042777039
 20
-814.5170751783369
 30
0.0
 11
327.3452320197531
 21
-506.3149735863533
 31
0.0
  0
LINE
  5
21A
330
1F
100
AcDbEntity
  8
0-0
  6
JWW_DASHED1
 62
   120
370
     5
100
AcDbLine
 10
29.0426253629424
 20
-814.5170751783257
 30
0.0
 11
327.3452320197531
 21
-516.2144685215151
 31
0.0
  0
LINE
  5
21B
330
1F
100
AcDbEntity
  8
0-0
  6
JWW_DASHED1
 62
   120
370
     5
100
AcDbLine
 10
38.94212029815876
 20
-814.5170751783257
 30
0.0
 11
327.3452320197429
 21
-526.1139634567417
 31
0.0
  0
LINE
  5
21C
330
1F
100
AcDbEntity
  8
0-0
  6
JWW_DASHED1
 62
   120
370
     5
100
AcDbLine
 10
48.8416152333069
 20
-814.5170751783385
 30
0.0
 11
327.3452320197565
 21
-536.0134583918907
 31
0.0
  0
LINE
  5
21D
330
1F
100
AcDbEntity
  8
0-0
  6
JWW_DASHED1
 62
   120
370
     5
100
AcDbLine
 10
58.7411101685403
 20
-814.5170751783232
 30
0.0
 11
327.3452320197497
 21
-545.9129533271121
 31
0.0
  0
LINE
  5
21E
330
1F
100
AcDbEntity
  8
0-0
  6
JWW_DASHED1
 62
   120
370
     5
100
AcDbLine
 10
68.64060510375666
 20
-814.5170751783232
 30
0.0
 11
327.3452320197429
 21
-555.8124482623383
 31
0.0
  0
LINE
  5
21F
330
1F
100
AcDbEntity
  8
0-0
  6
JWW_DASHED1
 62
   120
370
     5
100
AcDbLine
 10
78.5401000389048
 20
-814.5170751783351
 30
0.0
 11
327.3452320197531
 21
-565.7119431974877
 31
0.0
  0
LINE
  5
220
330
1F
100
AcDbEntity
  8
0-0
  6
JWW_DASHED1
 62
   120
370
     5
100
AcDbLine
 10
88.4395949741382
 20
-814.5170751783214
 30
0.0
 11
327.3452320197497
 21
-575.6114381327092
 31
0.0
  0
LINE
  5
221
330
1F
100
AcDbEntity
  8
0-0
  6
JWW_DASHED1
 62
   120
370
     5
100
AcDbLine
 10
98.33908990935456
 20
-814.5170751783198
 30
0.0
 11
327.3452320197429
 21
-585.5109330679328
 31
0.0
  0
LINE
  5
222
330
1F
100
AcDbEntity
  8
0-0
  6
JWW_DASHED1
 62
   120
370
     5
100
AcDbLine
 10
108.2385848445027
 20
-814.5170751783326
 30
0.0
 11
327.3452320197531
 21
-595.4104280030839
 31
0.0
  0
LINE
  5
223
330
1F
100
AcDbEntity
  8
0-0
  6
JWW_DASHED1
 62
   120
370
     5
100
AcDbLine
 10
118.1380797797122
 20
-814.5170751783403
 30
0.0
 11
327.3452320197599
 21
-605.3099229382917
 31
0.0
  0
LINE
  5
224
330
1F
100
AcDbEntity
  8
0-0
  6
JWW_DASHED1
 62
   120
370
     5
100
AcDbLine
 10
128.0375747149422
 20
-814.5170751783274
 30
0.0
 11
327.3452320197565
 21
-615.209417873514
 31
0.0
  0
LINE
  5
225
330
1F
100
AcDbEntity
  8
0-0
  6
JWW_DASHED1
 62
   120
370
     5
100
AcDbLine
 10
137.9370696501006
 20
-814.5170751783292
 30
0.0
 11
327.3452320197497
 21
-625.108912808681
 31
0.0
  0
LINE
  5
226
330
1F
100
AcDbEntity
  8
0-0
  6
JWW_DASHED1
 62
   120
370
     5
100
AcDbLine
 10
147.8365645853101
 20
-814.5170751783377
 30
0.0
 11
327.3452320197565
 21
-635.0084077438887
 31
0.0
  0
LINE
  5
227
330
1F
100
AcDbEntity
  8
0-0
  6
JWW_DASHED1
 62
   120
370
     5
100
AcDbLine
 10
157.7360595205367
 20
-814.5170751783253
 30
0.0
 11
327.3452320197531
 21
-644.9079026791111
 31
0.0
  0
LINE
  5
228
330
1F
100
AcDbEntity
  8
0-0
  6
JWW_DASHED1
 62
   120
370
     5
100
AcDbLine
 10
167.6355544556985
 20
-814.5170751783266
 30
0.0
 11
327.3452320197497
 21
-654.8073976142771
 31
0.0
  0
LINE
  5
229
330
1F
100
AcDbEntity
  8
0-0
  6
JWW_DASHED1
 62
   120
370
     5
100
AcDbLine
 10
177.535049390908
 20
-814.5170751783343
 30
0.0
 11
327.3452320197565
 21
-664.7068925494854
 31
0.0
  0
LINE
  5
22A
330
1F
100
AcDbEntity
  8
0-0
  6
JWW_DASHED1
 62
   120
370
     5
100
AcDbLine
 10
187.4345443261346
 20
-814.5170751783232
 30
0.0
 11
327.3452320197497
 21
-674.6063874847077
 31
0.0
  0
LINE
  5
22B
330
1F
100
AcDbEntity
  8
0-0
  6
JWW_DASHED1
 62
   120
370
     5
100
AcDbLine
 10
197.3340392612964
 20
-814.5170751783232
 30
0.0
 11
327.3452320197463
 21
-684.5058824198742
 31
0.0
  0
LINE
  5
22C
330
1F
100
AcDbEntity
  8
0-0
  6
JWW_DASHED1
 62
   120
370
     5
100
AcDbLine
 10
207.2335341965025
 20
-814.5170751783317
 30
0.0
 11
327.3452320197531
 21
-694.405377355082
 31
0.0
  0
LINE
  5
22D
330
1F
100
AcDbEntity
  8
0-0
  6
JWW_DASHED1
 62
   120
370
     5
100
AcDbLine
 10
217.1330291317291
 20
-814.517075178324
 30
0.0
 11
327.3452320197463
 21
-704.3048722903043
 31
0.0
  0
LINE
  5
22E
330
1F
100
AcDbEntity
  8
0-0
  6
JWW_DASHED1
 62
   120
370
     5
100
AcDbLine
 10
227.0325240668943
 20
-814.5170751783206
 30
0.0
 11
327.3452320197429
 21
-714.2043672254704
 31
0.0
  0
LINE
  5
22F
330
1F
100
AcDbEntity
  8
0-0
  6
JWW_DASHED1
 62
   120
370
     5
100
AcDbLine
 10
236.9320190021038
 20
-814.5170751783282
 30
0.0
 11
327.3452320197531
 21
-724.1038621606782
 31
0.0
  0
LINE
  5
230
330
1F
100
AcDbEntity
  8
0-0
  6
JWW_DASHED1
 62
   120
370
     5
100
AcDbLine
 10
246.8315139372963
 20
-814.5170751783232
 30
0.0
 11
327.3452320197463
 21
-734.0033570958724
 31
0.0
  0
LINE
  5
231
330
1F
100
AcDbEntity
  8
0-0
  6
JWW_DASHED1
 62
   120
370
     5
100
AcDbLine
 10
256.7310088724922
 20
-814.5170751783172
 30
0.0
 11
327.3452320197429
 21
-743.9028520310674
 31
0.0
  0
LINE
  5
232
330
1F
100
AcDbEntity
  8
0-0
  6
JWW_DASHED1
 62
   120
370
     5
100
AcDbLine
 10
266.6305038076983
 20
-814.5170751783257
 30
0.0
 11
327.3452320197497
 21
-753.8023469662753
 31
0.0
  0
LINE
  5
233
330
1F
100
AcDbEntity
  8
0-0
  6
JWW_DASHED1
 62
   120
370
     5
100
AcDbLine
 10
276.5299987428635
 20
-814.5170751783223
 30
0.0
 11
327.3452320197463
 21
-763.7018419014396
 31
0.0
  0
LINE
  5
234
330
1F
100
AcDbEntity
  8
0-0
  6
JWW_DASHED1
 62
   120
370
     5
100
AcDbLine
 10
286.4294936780731
 20
-814.5170751783292
 30
0.0
 11
327.3452320197565
 21
-773.6013368366474
 31
0.0
  0
LINE
  5
235
330
1F
100
AcDbEntity
  8
0-0
  6
JWW_DASHED1
 62
   120
370
     5
100
AcDbLine
 10
296.3289886132962
 20
-814.5170751783223
 30
0.0
 11
327.3452320197463
 21
-783.5008317718718
 31
0.0
  0
LINE
  5
236
330
1F
100
AcDbEntity
  8
0-0
  6
JWW_DASHED1
 62
   120
370
     5
100
AcDbLine
 10
306.2284835484478
 20
-814.5170751783351
 30
0.0
 11
327.3452320197599
 21
-793.4003267070209
 31
0.0
  0
LINE
  5
237
330
1F
100
AcDbEntity
  8
0-0
  6
JWW_DASHED1
 62
   120
370
     5
100
AcDbLine
 10
316.127978483671
 20
-814.5170751783266
 30
0.0
 11
327.3452320197531
 21
-803.2998216422445
 31
0.0
  0
LINE
  5
238
330
1F
100
AcDbEntity
  8
0-0
  6
JWW_DASHED1
 62
   120
370
     5
100
AcDbLine
 10
326.0274734188941
 20
-814.5170751783194
 30
0.0
 11
327.3452320197463
 21
-813.1993165774685
 31
0.0
  0
LINE
  5
239
330
1F
100
AcDbEntity
  8
0-0
  6
Continuous
 62
    92
370
    13
100
AcDbLine
 10
-262.6547679802458
 20
892.4829248216736
 30
0.0
 11
327.3452320197531
 21
892.4829248216736
 31
0.0
  0
LINE
  5
23A
330
1F
100
AcDbEntity
  8
0-0
  6
Continuous
 62
    92
370
    13
100
AcDbLine
 10
327.3452320197531
 20
1027.482924821674
 30
0.0
 11
327.3452320197531
 21
-955.5170751783266
 31
0.0
  0
LINE
  5
23B
330
1F
100
AcDbEntity
  8
0-0
  6
Continuous
 62
    92
370
    13
100
AcDbLine
 10
-262.6547679802458
 20
1027.482924821674
 30
0.0
 11
-262.6547679802458
 21
-955.5170751783266
 31
0.0
  0
LINE
  5
23C
330
1F
100
AcDbEntity
  8
0-0
  6
Continuous
 62
    92
370
    13
100
AcDbLine
 10
327.3452320197531
 20
-814.5170751783266
 30
0.0
 11
-262.6547679802458
 21
-814.5170751783266
 31
0.0
  0
LINE
  5
23D
330
1F
100
AcDbEntity
  8
0-0
  6
JWW_DASHED1
 62
   120
370
     5
100
AcDbLine
 10
-994.6547679802451
 20
883.5840134531549
 30
0.0
 11
-985.7558566117315
 21
892.4829248216702
 31
0.0
  0
LINE
  5
23E
330
1F
100
AcDbEntity
  8
0-0
  6
JWW_DASHED1
 62
   120
370
     5
100
AcDbLine
 10
-994.6547679802553
 20
873.6845185179309
 30
0.0
 11
-975.8563616765083
 21
892.4829248216774
 31
0.0
  0
LINE
  5
23F
330
1F
100
AcDbEntity
  8
0-0
  6
JWW_DASHED1
 62
   120
370
     5
100
AcDbLine
 10
-994.6547679802553
 20
863.785023582766
 30
0.0
 11
-965.9568667413397
 21
892.4829248216813
 31
0.0
  0
LINE
  5
240
330
1F
100
AcDbEntity
  8
0-0
  6
JWW_DASHED1
 62
   120
370
     5
100
AcDbLine
 10
-994.6547679802485
 20
853.8855286475577
 30
0.0
 11
-956.0573718061336
 21
892.4829248216731
 31
0.0
  0
LINE
  5
241
330
1F
100
AcDbEntity
  8
0-0
  6
JWW_DASHED1
 62
   120
370
     5
100
AcDbLine
 10
-994.6547679802417
 20
843.9860337123496
 30
0.0
 11
-946.157876870924
 21
892.482924821665
 31
0.0
  0
LINE
  5
242
330
1F
100
AcDbEntity
  8
0-0
  6
JWW_DASHED1
 62
   120
370
     5
100
AcDbLine
 10
-994.6547679802587
 20
834.0865387771694
 30
0.0
 11
-936.2583819357452
 21
892.4829248216843
 31
0.0
  0
LINE
  5
243
330
1F
100
AcDbEntity
  8
0-0
  6
JWW_DASHED1
 62
   120
370
     5
100
AcDbLine
 10
-994.6547679802485
 20
824.1870438419612
 30
0.0
 11
-926.3588870005357
 21
892.4829248216761
 31
0.0
  0
LINE
  5
244
330
1F
100
AcDbEntity
  8
0-0
  6
JWW_DASHED1
 62
   120
370
     5
100
AcDbLine
 10
-994.6547679802417
 20
814.2875489067534
 30
0.0
 11
-916.4593920653261
 21
892.482924821668
 31
0.0
  0
LINE
  5
245
330
1F
100
AcDbEntity
  8
0-0
  6
JWW_DASHED1
 62
   120
370
     5
100
AcDbLine
 10
-994.6547679802451
 20
804.3880539715877
 30
0.0
 11
-906.5598971301644
 21
892.4829248216714
 31
0.0
  0
LINE
  5
246
330
1F
100
AcDbEntity
  8
0-0
  6
JWW_DASHED1
 62
   120
370
     5
100
AcDbLine
 10
-994.6547679802519
 20
794.4885590363646
 30
0.0
 11
-896.6604021949378
 21
892.4829248216795
 31
0.0
  0
LINE
  5
247
330
1F
100
AcDbEntity
  8
0-0
  6
JWW_DASHED1
 62
   120
370
     5
100
AcDbLine
 10
-994.6547679802451
 20
784.5890641011567
 30
0.0
 11
-886.7609072597317
 21
892.4829248216711
 31
0.0
  0
LINE
  5
248
330
1F
100
AcDbEntity
  8
0-0
  6
JWW_DASHED1
 62
   120
370
     5
100
AcDbLine
 10
-994.6547679802485
 20
774.6895691659906
 30
0.0
 11
-876.8614123245699
 21
892.4829248216714
 31
0.0
  0
LINE
  5
249
330
1F
100
AcDbEntity
  8
0-0
  6
JWW_DASHED1
 62
   120
370
     5
100
AcDbLine
 10
-994.6547679802553
 20
764.7900742307684
 30
0.0
 11
-866.9619173893399
 21
892.4829248216821
 31
0.0
  0
LINE
  5
24A
330
1F
100
AcDbEntity
  8
0-0
  6
JWW_DASHED1
 62
   120
370
     5
100
AcDbLine
 10
-994.6547679802485
 20
754.8905792955601
 30
0.0
 11
-857.0624224541303
 21
892.482924821674
 31
0.0
  0
LINE
  5
24B
330
1F
100
AcDbEntity
  8
0-0
  6
JWW_DASHED1
 62
   120
370
     5
100
AcDbLine
 10
-994.6547679802519
 20
744.9910843603936
 30
0.0
 11
-847.162927518972
 21
892.4829248216736
 31
0.0
  0
LINE
  5
24C
330
1F
100
AcDbEntity
  8
0-0
  6
JWW_DASHED1
 62
   120
370
     5
100
AcDbLine
 10
-994.6547679802553
 20
735.0915894251714
 30
0.0
 11
-837.263432583742
 21
892.4829248216851
 31
0.0
  0
LINE
  5
24D
330
1F
100
AcDbEntity
  8
0-0
  6
JWW_DASHED1
 62
   120
370
     5
100
AcDbLine
 10
-994.6547679802485
 20
725.1920944899634
 30
0.0
 11
-827.3639376485359
 21
892.482924821677
 31
0.0
  0
LINE
  5
24E
330
1F
100
AcDbEntity
  8
0-0
  6
JWW_DASHED1
 62
   120
370
     5
100
AcDbLine
 10
-994.6547679802553
 20
715.292599554797
 30
0.0
 11
-817.4644427133741
 21
892.4829248216757
 31
0.0
  0
LINE
  5
24F
330
1F
100
AcDbEntity
  8
0-0
  6
JWW_DASHED1
 62
   120
370
     5
100
AcDbLine
 10
-994.6547679802587
 20
705.3931046195751
 30
0.0
 11
-807.5649477781441
 21
892.4829248216881
 31
0.0
  0
LINE
  5
250
330
1F
100
AcDbEntity
  8
0-0
  6
JWW_DASHED1
 62
   120
370
     5
100
AcDbLine
 10
-994.6547679802485
 20
695.4936096843669
 30
0.0
 11
-797.665452842938
 21
892.48292482168
 31
0.0
  0
LINE
  5
251
330
1F
100
AcDbEntity
  8
0-0
  6
JWW_DASHED1
 62
   120
370
     5
100
AcDbLine
 10
-994.6547679802417
 20
685.5941147492158
 30
0.0
 11
-787.7659579077864
 21
892.4829248216677
 31
0.0
  0
LINE
  5
252
330
1F
100
AcDbEntity
  8
0-0
  6
JWW_DASHED1
 62
   120
370
     5
100
AcDbLine
 10
-994.6547679802485
 20
675.6946198139922
 30
0.0
 11
-777.8664629725632
 21
892.4829248216753
 31
0.0
  0
LINE
  5
253
330
1F
100
AcDbEntity
  8
0-0
  6
JWW_DASHED1
 62
   120
370
     5
100
AcDbLine
 10
-994.6547679802519
 20
665.7951248787703
 30
0.0
 11
-767.96696803734
 21
892.4829248216829
 31
0.0
  0
LINE
  5
254
330
1F
100
AcDbEntity
  8
0-0
  6
JWW_DASHED1
 62
   120
370
     5
100
AcDbLine
 10
-994.6547679802417
 20
655.8956299436213
 30
0.0
 11
-758.0674731021919
 21
892.4829248216706
 31
0.0
  0
LINE
  5
255
330
1F
100
AcDbEntity
  8
0-0
  6
JWW_DASHED1
 62
   120
370
     5
100
AcDbLine
 10
-994.6547679802485
 20
645.9961350083951
 30
0.0
 11
-748.1679781669721
 21
892.4829248216719
 31
0.0
  0
LINE
  5
256
330
1F
100
AcDbEntity
  8
0-0
  6
JWW_DASHED1
 62
   120
370
     5
100
AcDbLine
 10
-994.6547679802553
 20
636.0966400731736
 30
0.0
 11
-738.2684832317422
 21
892.4829248216863
 31
0.0
  0
LINE
  5
257
330
1F
100
AcDbEntity
  8
0-0
  6
JWW_DASHED1
 62
   120
370
     5
100
AcDbLine
 10
-994.6547679802417
 20
626.1971451380247
 30
0.0
 11
-728.368988296594
 21
892.4829248216736
 31
0.0
  0
LINE
  5
258
330
1F
100
AcDbEntity
  8
0-0
  6
JWW_DASHED1
 62
   120
370
     5
100
AcDbLine
 10
-994.6547679802519
 20
616.2976502027981
 30
0.0
 11
-718.4694933613742
 21
892.482924821674
 31
0.0
  0
LINE
  5
259
330
1F
100
AcDbEntity
  8
0-0
  6
JWW_DASHED1
 62
   120
370
     5
100
AcDbLine
 10
-994.6547679802553
 20
606.3981552675771
 30
0.0
 11
-708.5699984261443
 21
892.4829248216889
 31
0.0
  0
LINE
  5
25A
330
1F
100
AcDbEntity
  8
0-0
  6
JWW_DASHED1
 62
   120
370
     5
100
AcDbLine
 10
-994.6547679802451
 20
596.498660332428
 30
0.0
 11
-698.6705034909961
 21
892.482924821677
 31
0.0
  0
LINE
  5
25B
330
1F
100
AcDbEntity
  8
0-0
  6
JWW_DASHED1
 62
   120
370
     5
100
AcDbLine
 10
-994.6547679802553
 20
586.5991653972014
 30
0.0
 11
-688.7710085557798
 21
892.4829248216761
 31
0.0
  0
LINE
  5
25C
330
1F
100
AcDbEntity
  8
0-0
  6
JWW_DASHED1
 62
   120
370
     5
100
AcDbLine
 10
-994.6547679802451
 20
576.6996704619932
 30
0.0
 11
-678.8715136205634
 21
892.4829248216761
 31
0.0
  0
LINE
  5
25D
330
1F
100
AcDbEntity
  8
0-0
  6
JWW_DASHED1
 62
   120
370
     5
100
AcDbLine
 10
-994.6547679802485
 20
566.8001755268314
 30
0.0
 11
-668.9720186853982
 21
892.4829248216795
 31
0.0
  0
LINE
  5
25E
330
1F
100
AcDbEntity
  8
0-0
  6
JWW_DASHED1
 62
   120
370
     5
100
AcDbLine
 10
-994.6547679802417
 20
556.9006805916201
 30
0.0
 11
-659.0725237501887
 21
892.4829248216714
 31
0.0
  0
LINE
  5
25F
330
1F
100
AcDbEntity
  8
0-0
  6
JWW_DASHED1
 62
   120
370
     5
100
AcDbLine
 10
-994.6547679802485
 20
547.0011856563965
 30
0.0
 11
-649.1730288149757
 21
892.4829248216702
 31
0.0
  0
LINE
  5
260
330
1F
100
AcDbEntity
  8
0-0
  6
JWW_DASHED1
 62
   120
370
     5
100
AcDbLine
 10
-994.6547679802485
 20
537.1016907212347
 30
0.0
 11
-639.2735338798003
 21
892.4829248216826
 31
0.0
  0
LINE
  5
261
330
1F
100
AcDbEntity
  8
0-0
  6
JWW_DASHED1
 62
   120
370
     5
100
AcDbLine
 10
-994.6547679802417
 20
527.2021957860266
 30
0.0
 11
-629.3740389445908
 21
892.4829248216745
 31
0.0
  0
LINE
  5
262
330
1F
100
AcDbEntity
  8
0-0
  6
JWW_DASHED1
 62
   120
370
     5
100
AcDbLine
 10
-994.6547679802485
 20
517.3027008508584
 30
0.0
 11
-619.4745440094256
 21
892.4829248216779
 31
0.0
  0
LINE
  5
263
330
1F
100
AcDbEntity
  8
0-0
  6
JWW_DASHED1
 62
   120
370
     5
100
AcDbLine
 10
-994.6547679802485
 20
507.4032059156382
 30
0.0
 11
-609.5750490742024
 21
892.4829248216855
 31
0.0
  0
LINE
  5
264
330
1F
100
AcDbEntity
  8
0-0
  6
JWW_DASHED1
 62
   120
370
     5
100
AcDbLine
 10
-994.6547679802417
 20
497.5037109804299
 30
0.0
 11
-599.6755541389963
 21
892.4829248216779
 31
0.0
  0
LINE
  5
265
330
1F
100
AcDbEntity
  8
0-0
  6
JWW_DASHED1
 62
   120
370
     5
100
AcDbLine
 10
-994.6547679802485
 20
487.6042160452613
 30
0.0
 11
-589.7760592038413
 21
892.4829248216702
 31
0.0
  0
LINE
  5
266
330
1F
100
AcDbEntity
  8
0-0
  6
JWW_DASHED1
 62
   120
370
     5
100
AcDbLine
 10
-994.6547679802519
 20
477.7047211100415
 30
0.0
 11
-579.8765642686045
 21
892.4829248216889
 31
0.0
  0
LINE
  5
267
330
1F
100
AcDbEntity
  8
0-0
  6
JWW_DASHED1
 62
   120
370
     5
100
AcDbLine
 10
-994.6547679802451
 20
467.8052261748337
 30
0.0
 11
-569.9770693333984
 21
892.4829248216809
 31
0.0
  0
LINE
  5
268
330
1F
100
AcDbEntity
  8
0-0
  6
JWW_DASHED1
 62
   120
370
     5
100
AcDbLine
 10
-994.6547679802519
 20
457.9057312396646
 30
0.0
 11
-560.0775743982434
 21
892.4829248216727
 31
0.0
  0
LINE
  5
269
330
1F
100
AcDbEntity
  8
0-0
  6
JWW_DASHED1
 62
   120
370
     5
100
AcDbLine
 10
-994.6547679802553
 20
448.0062363044445
 30
0.0
 11
-550.1780794630066
 21
892.4829248216919
 31
0.0
  0
LINE
  5
26A
330
1F
100
AcDbEntity
  8
0-0
  6
JWW_DASHED1
 62
   120
370
     5
100
AcDbLine
 10
-994.6547679802485
 20
438.1067413692367
 30
0.0
 11
-540.2785845278005
 21
892.4829248216838
 31
0.0
  0
LINE
  5
26B
330
1F
100
AcDbEntity
  8
0-0
  6
JWW_DASHED1
 62
   120
370
     5
100
AcDbLine
 10
-994.6547679802553
 20
428.2072464340677
 30
0.0
 11
-530.3790895926455
 21
892.4829248216745
 31
0.0
  0
LINE
  5
26C
330
1F
100
AcDbEntity
  8
0-0
  6
JWW_DASHED1
 62
   120
370
     5
100
AcDbLine
 10
-994.6547679802553
 20
418.3077514988479
 30
0.0
 11
-520.4795946574087
 21
892.482924821695
 31
0.0
  0
LINE
  5
26D
330
1F
100
AcDbEntity
  8
0-0
  6
JWW_DASHED1
 62
   120
370
     5
100
AcDbLine
 10
-994.6547679802485
 20
408.4082565636405
 30
0.0
 11
-510.5800997222026
 21
892.4829248216868
 31
0.0
  0
LINE
  5
26E
330
1F
100
AcDbEntity
  8
0-0
  6
JWW_DASHED1
 62
   120
370
     5
100
AcDbLine
 10
-994.6547679802417
 20
398.5087616284864
 30
0.0
 11
-500.680604787051
 21
892.4829248216745
 31
0.0
  0
LINE
  5
26F
330
1F
100
AcDbEntity
  8
0-0
  6
JWW_DASHED1
 62
   120
370
     5
100
AcDbLine
 10
-994.6547679802485
 20
388.6092666932627
 30
0.0
 11
-490.7811098518279
 21
892.4829248216821
 31
0.0
  0
LINE
  5
270
330
1F
100
AcDbEntity
  8
0-0
  6
JWW_DASHED1
 62
   120
370
     5
100
AcDbLine
 10
-994.6547679802519
 20
378.7097717580434
 30
0.0
 11
-480.8816149166047
 21
892.4829248216897
 31
0.0
  0
LINE
  5
271
330
1F
100
AcDbEntity
  8
0-0
  6
JWW_DASHED1
 62
   120
370
     5
100
AcDbLine
 10
-994.6547679802383
 20
368.8102768228944
 30
0.0
 11
-470.9821199814565
 21
892.4829248216774
 31
0.0
  0
LINE
  5
272
330
1F
100
AcDbEntity
  8
0-0
  6
JWW_DASHED1
 62
   120
370
     5
100
AcDbLine
 10
-994.6547679802485
 20
358.9107818876657
 30
0.0
 11
-461.082625046247
 21
892.4829248216711
 31
0.0
  0
LINE
  5
273
330
1F
100
AcDbEntity
  8
0-0
  6
JWW_DASHED1
 62
   120
370
     5
100
AcDbLine
 10
-994.6547679802519
 20
349.0112869524468
 30
0.0
 11
-451.1831301110068
 21
892.4829248216928
 31
0.0
  0
LINE
  5
274
330
1F
100
AcDbEntity
  8
0-0
  6
JWW_DASHED1
 62
   120
370
     5
100
AcDbLine
 10
-994.6547679802417
 20
339.1117920172978
 30
0.0
 11
-441.2836351758586
 21
892.4829248216804
 31
0.0
  0
LINE
  5
275
330
1F
100
AcDbEntity
  8
0-0
  6
JWW_DASHED1
 62
   120
370
     5
100
AcDbLine
 10
-994.6547679802519
 20
329.2122970820686
 30
0.0
 11
-431.3841402406491
 21
892.4829248216727
 31
0.0
  0
LINE
  5
276
330
1F
100
AcDbEntity
  8
0-0
  6
JWW_DASHED1
 62
   120
370
     5
100
AcDbLine
 10
-994.6547679802553
 20
319.3128021468502
 30
0.0
 11
-421.4846453054089
 21
892.4829248216957
 31
0.0
  0
LINE
  5
277
330
1F
100
AcDbEntity
  8
0-0
  6
JWW_DASHED1
 62
   120
370
     5
100
AcDbLine
 10
-994.6547679802417
 20
309.4133072117012
 30
0.0
 11
-411.5851503702607
 21
892.4829248216834
 31
0.0
  0
LINE
  5
278
330
1F
100
AcDbEntity
  8
0-0
  6
JWW_DASHED1
 62
   120
370
     5
100
AcDbLine
 10
-994.6547679802553
 20
299.513812276472
 30
0.0
 11
-404.654767980253
 21
889.5138122764756
 31
0.0
  0
LINE
  5
279
330
1F
100
AcDbEntity
  8
0-0
  6
JWW_DASHED1
 62
   120
370
     5
100
AcDbLine
 10
-994.6547679802553
 20
289.614317341283
 30
0.0
 11
-404.6547679802735
 21
879.6143173412656
 31
0.0
  0
LINE
  5
27A
330
1F
100
AcDbEntity
  8
0-0
  6
JWW_DASHED1
 62
   120
370
     5
100
AcDbLine
 10
-994.6547679802451
 20
279.7148224061045
 30
0.0
 11
-404.6547679802633
 21
869.7148224060868
 31
0.0
  0
LINE
  5
27B
330
1F
100
AcDbEntity
  8
0-0
  6
JWW_DASHED1
 62
   120
370
     5
100
AcDbLine
 10
-994.6547679802349
 20
269.8153274708963
 30
0.0
 11
-404.654767980253
 21
859.815327470879
 31
0.0
  0
LINE
  5
27C
330
1F
100
AcDbEntity
  8
0-0
  6
JWW_DASHED1
 62
   120
370
     5
100
AcDbLine
 10
-994.6547679802553
 20
259.9158325357158
 30
0.0
 11
-404.6547679802735
 21
849.9158325356984
 31
0.0
  0
LINE
  5
27D
330
1F
100
AcDbEntity
  8
0-0
  6
JWW_DASHED1
 62
   120
370
     5
100
AcDbLine
 10
-994.6547679802485
 20
250.0163376005084
 30
0.0
 11
-404.6547679802633
 21
840.0163376004901
 31
0.0
  0
LINE
  5
27E
330
1F
100
AcDbEntity
  8
0-0
  6
JWW_DASHED1
 62
   120
370
     5
100
AcDbLine
 10
-994.6547679802383
 20
240.1168426653001
 30
0.0
 11
-404.6547679802565
 21
830.1168426652828
 31
0.0
  0
LINE
  5
27F
330
1F
100
AcDbEntity
  8
0-0
  6
JWW_DASHED1
 62
   120
370
     5
100
AcDbLine
 10
-994.6547679802485
 20
230.2173477301289
 30
0.0
 11
-404.6547679802599
 21
820.2173477301167
 31
0.0
  0
LINE
  5
280
330
1F
100
AcDbEntity
  8
0-0
  6
JWW_DASHED1
 62
   120
370
     5
100
AcDbLine
 10
-994.6547679802485
 20
220.3178527949113
 30
0.0
 11
-404.6547679802667
 21
810.3178527948935
 31
0.0
  0
LINE
  5
281
330
1F
100
AcDbEntity
  8
0-0
  6
JWW_DASHED1
 62
   120
370
     5
100
AcDbLine
 10
-994.6547679802417
 20
210.4183578597035
 30
0.0
 11
-404.6547679802599
 21
800.4183578596858
 31
0.0
  0
LINE
  5
282
330
1F
100
AcDbEntity
  8
0-0
  6
JWW_DASHED1
 62
   120
370
     5
100
AcDbLine
 10
-994.6547679802485
 20
200.5188629245319
 30
0.0
 11
-404.6547679802462
 21
790.5188629245358
 31
0.0
  0
LINE
  5
283
330
1F
100
AcDbEntity
  8
0-0
  6
JWW_DASHED1
 62
   120
370
     5
100
AcDbLine
 10
-994.6547679802519
 20
190.6193679893147
 30
0.0
 11
-404.6547679802667
 21
780.619367989297
 31
0.0
  0
LINE
  5
284
330
1F
100
AcDbEntity
  8
0-0
  6
JWW_DASHED1
 62
   120
370
     5
100
AcDbLine
 10
-994.6547679802417
 20
180.7198730541069
 30
0.0
 11
-404.6547679802599
 21
770.7198730540891
 31
0.0
  0
LINE
  5
285
330
1F
100
AcDbEntity
  8
0-0
  6
JWW_DASHED1
 62
   120
370
     5
100
AcDbLine
 10
-994.6547679802519
 20
170.8203781189353
 30
0.0
 11
-404.6547679802496
 21
760.8203781189388
 31
0.0
  0
LINE
  5
286
330
1F
100
AcDbEntity
  8
0-0
  6
JWW_DASHED1
 62
   120
370
     5
100
AcDbLine
 10
-994.6547679802553
 20
160.9208831837181
 30
0.0
 11
-404.6547679802701
 21
750.9208831837003
 31
0.0
  0
LINE
  5
287
330
1F
100
AcDbEntity
  8
0-0
  6
JWW_DASHED1
 62
   120
370
     5
100
AcDbLine
 10
-994.6547679802451
 20
151.0213882485102
 30
0.0
 11
-404.6547679802633
 21
741.0213882484925
 31
0.0
  0
LINE
  5
288
330
1F
100
AcDbEntity
  8
0-0
  6
JWW_DASHED1
 62
   120
370
     5
100
AcDbLine
 10
-994.6547679802553
 20
141.1218933133387
 30
0.0
 11
-404.654767980253
 21
731.1218933133418
 31
0.0
  0
LINE
  5
289
330
1F
100
AcDbEntity
  8
0-0
  6
JWW_DASHED1
 62
   120
370
     5
100
AcDbLine
 10
-994.6547679802553
 20
131.2223983781215
 30
0.0
 11
-404.6547679802735
 21
721.2223983781041
 31
0.0
  0
LINE
  5
28A
330
1F
100
AcDbEntity
  8
0-0
  6
JWW_DASHED1
 62
   120
370
     5
100
AcDbLine
 10
-994.6547679802485
 20
121.3229034429136
 30
0.0
 11
-404.6547679802633
 21
711.3229034428958
 31
0.0
  0
LINE
  5
28B
330
1F
100
AcDbEntity
  8
0-0
  6
JWW_DASHED1
 62
   120
370
     5
100
AcDbLine
 10
-994.6547679802417
 20
111.423408507757
 30
0.0
 11
-404.654767980253
 21
701.4234085077452
 31
0.0
  0
LINE
  5
28C
330
1F
100
AcDbEntity
  8
0-0
  6
JWW_DASHED1
 62
   120
370
     5
100
AcDbLine
 10
-994.6547679802485
 20
101.5239135725334
 30
0.0
 11
-404.6547679802599
 21
691.5239135725211
 31
0.0
  0
LINE
  5
28D
330
1F
100
AcDbEntity
  8
0-0
  6
JWW_DASHED1
 62
   120
370
     5
100
AcDbLine
 10
-994.6547679802485
 20
91.624418637317
 30
0.0
 11
-404.6547679802667
 21
681.6244186372992
 31
0.0
  0
LINE
  5
28E
330
1F
100
AcDbEntity
  8
0-0
  6
JWW_DASHED1
 62
   120
370
     5
100
AcDbLine
 10
-994.6547679802349
 20
81.72492370216759
 30
0.0
 11
-404.654767980253
 21
671.7249237021502
 31
0.0
  0
LINE
  5
28F
330
1F
100
AcDbEntity
  8
0-0
  6
JWW_DASHED1
 62
   120
370
     5
100
AcDbLine
 10
-994.6547679802519
 20
71.82542876693674
 30
0.0
 11
-404.6547679802462
 21
661.8254287669399
 31
0.0
  0
LINE
  5
290
330
1F
100
AcDbEntity
  8
0-0
  6
JWW_DASHED1
 62
   120
370
     5
100
AcDbLine
 10
-994.6547679802485
 20
61.92593383177922
 30
0.0
 11
-404.6547679802633
 21
651.9259338317619
 31
0.0
  0
LINE
  5
291
330
1F
100
AcDbEntity
  8
0-0
  6
JWW_DASHED1
 62
   120
370
     5
100
AcDbLine
 10
-994.6547679802383
 20
52.02643889657139
 30
0.0
 11
-404.6547679802565
 21
642.0264388965536
 31
0.0
  0
LINE
  5
292
330
1F
100
AcDbEntity
  8
0-0
  6
JWW_DASHED1
 62
   120
370
     5
100
AcDbLine
 10
-994.6547679802553
 20
42.12694396133969
 30
0.0
 11
-404.6547679802496
 21
632.1269439613433
 31
0.0
  0
LINE
  5
293
330
1F
100
AcDbEntity
  8
0-0
  6
JWW_DASHED1
 62
   120
370
     5
100
AcDbLine
 10
-994.6547679802485
 20
32.2274490261826
 30
0.0
 11
-404.6547679802667
 21
622.2274490261648
 31
0.0
  0
LINE
  5
294
330
1F
100
AcDbEntity
  8
0-0
  6
JWW_DASHED1
 62
   120
370
     5
100
AcDbLine
 10
-994.6547679802417
 20
22.32795409097477
 30
0.0
 11
-404.6547679802599
 21
612.3279540909571
 31
0.0
  0
LINE
  5
295
330
1F
100
AcDbEntity
  8
0-0
  6
JWW_DASHED1
 62
   120
370
     5
100
AcDbLine
 10
-994.6547679802553
 20
12.42845915574264
 30
0.0
 11
-404.654767980253
 21
602.4284591557466
 31
0.0
  0
LINE
  5
296
330
1F
100
AcDbEntity
  8
0-0
  6
JWW_DASHED1
 62
   120
370
     5
100
AcDbLine
 10
-994.6547679802519
 20
2.528964220585976
 30
0.0
 11
-404.6547679802667
 21
592.5289642205682
 31
0.0
  0
LINE
  5
297
330
1F
100
AcDbEntity
  8
0-0
  6
JWW_DASHED1
 62
   120
370
     5
100
AcDbLine
 10
-994.6547679802417
 20
-7.37053071462185
 30
0.0
 11
-404.6547679802599
 21
582.6294692853604
 31
0.0
  0
LINE
  5
298
330
1F
100
AcDbEntity
  8
0-0
  6
JWW_DASHED1
 62
   120
370
     5
100
AcDbLine
 10
-994.6547679802349
 20
-17.2700256498301
 30
0.0
 11
-404.654767980253
 21
572.7299743501521
 31
0.0
  0
LINE
  5
299
330
1F
100
AcDbEntity
  8
0-0
  6
JWW_DASHED1
 62
   120
370
     5
100
AcDbLine
 10
-994.6547679802553
 20
-27.16952058501064
 30
0.0
 11
-404.6547679802701
 21
562.8304794149716
 31
0.0
  0
LINE
  5
29A
330
1F
100
AcDbEntity
  8
0-0
  6
JWW_DASHED1
 62
   120
370
     5
100
AcDbLine
 10
-994.6547679802451
 20
-37.0690155202189
 30
0.0
 11
-404.6547679802633
 21
552.9309844797638
 31
0.0
  0
LINE
  5
29B
330
1F
100
AcDbEntity
  8
0-0
  6
JWW_DASHED1
 62
   120
370
     5
100
AcDbLine
 10
-994.6547679802349
 20
-46.96851045542672
 30
0.0
 11
-404.654767980253
 21
543.0314895445559
 31
0.0
  0
LINE
  5
29C
330
1F
100
AcDbEntity
  8
0-0
  6
JWW_DASHED1
 62
   120
370
     5
100
AcDbLine
 10
-994.6547679802485
 20
-56.86800539060044
 30
0.0
 11
-404.6547679802599
 21
533.1319946093873
 31
0.0
  0
LINE
  5
29D
330
1F
100
AcDbEntity
  8
0-0
  6
JWW_DASHED1
 62
   120
370
     5
100
AcDbLine
 10
-994.6547679802485
 20
-66.76750032581509
 30
0.0
 11
-404.6547679802633
 21
523.2324996741671
 31
0.0
  0
LINE
  5
29E
330
1F
100
AcDbEntity
  8
0-0
  6
JWW_DASHED1
 62
   120
370
     5
100
AcDbLine
 10
-994.6547679802383
 20
-76.66699526102292
 30
0.0
 11
-404.6547679802565
 21
513.3330047389588
 31
0.0
  0
LINE
  5
29F
330
1F
100
AcDbEntity
  8
0-0
  6
JWW_DASHED1
 62
   120
370
     5
100
AcDbLine
 10
-994.6547679802519
 20
-86.56649019619707
 30
0.0
 11
-404.6547679802462
 21
503.4335098038065
 31
0.0
  0
LINE
  5
2A0
330
1F
100
AcDbEntity
  8
0-0
  6
JWW_DASHED1
 62
   120
370
     5
100
AcDbLine
 10
-994.6547679802485
 20
-96.46598513141171
 30
0.0
 11
-404.6547679802667
 21
493.5340148685705
 31
0.0
  0
LINE
  5
2A1
330
1F
100
AcDbEntity
  8
0-0
  6
JWW_DASHED1
 62
   120
370
     5
100
AcDbLine
 10
-994.6547679802417
 20
-106.36548006662
 30
0.0
 11
-404.6547679802599
 21
483.6345199333627
 31
0.0
  0
LINE
  5
2A2
330
1F
100
AcDbEntity
  8
0-0
  6
JWW_DASHED1
 62
   120
370
     5
100
AcDbLine
 10
-994.6547679802553
 20
-116.2649750017941
 30
0.0
 11
-404.6547679802496
 21
473.7350249982094
 31
0.0
  0
LINE
  5
2A3
330
1F
100
AcDbEntity
  8
0-0
  6
JWW_DASHED1
 62
   120
370
     5
100
AcDbLine
 10
-994.6547679802519
 20
-126.1644699370083
 30
0.0
 11
-404.6547679802701
 21
463.8355300629739
 31
0.0
  0
LINE
  5
2A4
330
1F
100
AcDbEntity
  8
0-0
  6
JWW_DASHED1
 62
   120
370
     5
100
AcDbLine
 10
-994.6547679802383
 20
-136.0639648721573
 30
0.0
 11
-404.6547679802565
 21
453.9360351278245
 31
0.0
  0
LINE
  5
2A5
330
1F
100
AcDbEntity
  8
0-0
  6
JWW_DASHED1
 62
   120
370
     5
100
AcDbLine
 10
-994.6547679802553
 20
-145.9634598073907
 30
0.0
 11
-404.654767980253
 21
444.0365401926124
 31
0.0
  0
LINE
  5
2A6
330
1F
100
AcDbEntity
  8
0-0
  6
JWW_DASHED1
 62
   120
370
     5
100
AcDbLine
 10
-994.6547679802485
 20
-155.8629547425994
 30
0.0
 11
-404.6547679802599
 21
434.1370452573888
 31
0.0
  0
LINE
  5
2A7
330
1F
100
AcDbEntity
  8
0-0
  6
JWW_DASHED1
 62
   120
370
     5
100
AcDbLine
 10
-994.6547679802417
 20
-165.7624496777544
 30
0.0
 11
-404.6547679802599
 21
424.2375503222283
 31
0.0
  0
LINE
  5
2A8
330
1F
100
AcDbEntity
  8
0-0
  6
JWW_DASHED1
 62
   120
370
     5
100
AcDbLine
 10
-994.6547679802314
 20
-175.6619446129622
 30
0.0
 11
-404.6547679802496
 21
414.3380553870201
 31
0.0
  0
LINE
  5
2A9
330
1F
100
AcDbEntity
  8
0-0
  6
JWW_DASHED1
 62
   120
370
     5
100
AcDbLine
 10
-994.6547679802485
 20
-185.561439548196
 30
0.0
 11
-404.6547679802462
 21
404.4385604518075
 31
0.0
  0
LINE
  5
2AA
330
1F
100
AcDbEntity
  8
0-0
  6
JWW_DASHED1
 62
   120
370
     5
100
AcDbLine
 10
-994.6547679802417
 20
-195.4609344833506
 30
0.0
 11
-404.6547679802599
 21
394.5390655166312
 31
0.0
  0
LINE
  5
2AB
330
1F
100
AcDbEntity
  8
0-0
  6
JWW_DASHED1
 62
   120
370
     5
100
AcDbLine
 10
-994.6547679802349
 20
-205.3604294185588
 30
0.0
 11
-404.654767980253
 21
384.6395705814234
 31
0.0
  0
LINE
  5
2AC
330
1F
100
AcDbEntity
  8
0-0
  6
JWW_DASHED1
 62
   120
370
     5
100
AcDbLine
 10
-994.6547679802519
 20
-215.2599243537927
 30
0.0
 11
-404.6547679802496
 21
374.7400756462109
 31
0.0
  0
LINE
  5
2AD
330
1F
100
AcDbEntity
  8
0-0
  6
JWW_DASHED1
 62
   120
370
     5
100
AcDbLine
 10
-994.6547679802451
 20
-225.1594192889472
 30
0.0
 11
-404.6547679802633
 21
364.840580711035
 31
0.0
  0
LINE
  5
2AE
330
1F
100
AcDbEntity
  8
0-0
  6
JWW_DASHED1
 62
   120
370
     5
100
AcDbLine
 10
-994.6547679802349
 20
-235.0589142241554
 30
0.0
 11
-404.654767980253
 21
354.9410857758272
 31
0.0
  0
LINE
  5
2AF
330
1F
100
AcDbEntity
  8
0-0
  6
JWW_DASHED1
 62
   120
370
     5
100
AcDbLine
 10
-994.6547679802553
 20
-244.9584091593897
 30
0.0
 11
-404.6547679802496
 21
345.0415908406138
 31
0.0
  0
LINE
  5
2B0
330
1F
100
AcDbEntity
  8
0-0
  6
JWW_DASHED1
 62
   120
370
     5
100
AcDbLine
 10
-994.6547679802485
 20
-254.8579040945438
 30
0.0
 11
-404.6547679802633
 21
335.142095905438
 31
0.0
  0
LINE
  5
2B1
330
1F
100
AcDbEntity
  8
0-0
  6
JWW_DASHED1
 62
   120
370
     5
100
AcDbLine
 10
-994.6547679802383
 20
-264.757399029752
 30
0.0
 11
-404.6547679802565
 21
325.2426009702302
 31
0.0
  0
LINE
  5
2B2
330
1F
100
AcDbEntity
  8
0-0
  6
JWW_DASHED1
 62
   120
370
     5
100
AcDbLine
 10
-994.6547679802417
 20
-274.6568939649705
 30
0.0
 11
-404.654767980253
 21
315.3431060350168
 31
0.0
  0
LINE
  5
2B3
330
1F
100
AcDbEntity
  8
0-0
  6
JWW_DASHED1
 62
   120
370
     5
100
AcDbLine
 10
-994.6547679802485
 20
-284.5563889001404
 30
0.0
 11
-404.6547679802667
 21
305.4436110998414
 31
0.0
  0
LINE
  5
2B4
330
1F
100
AcDbEntity
  8
0-0
  6
JWW_DASHED1
 62
   120
370
     5
100
AcDbLine
 10
-994.6547679802417
 20
-294.4558838353487
 30
0.0
 11
-404.6547679802599
 21
295.544116164634
 31
0.0
  0
LINE
  5
2B5
330
1F
100
AcDbEntity
  8
0-0
  6
JWW_DASHED1
 62
   120
370
     5
100
AcDbLine
 10
-994.6547679802314
 20
-304.3553787705565
 30
0.0
 11
-404.6547679802496
 21
285.6446212294258
 31
0.0
  0
LINE
  5
2B6
330
1F
100
AcDbEntity
  8
0-0
  6
JWW_DASHED1
 62
   120
370
     5
100
AcDbLine
 10
-994.6547679802519
 20
-314.2548737057371
 30
0.0
 11
-404.6547679802701
 21
275.7451262942448
 31
0.0
  0
LINE
  5
2B7
330
1F
100
AcDbEntity
  8
0-0
  6
JWW_DASHED1
 62
   120
370
     5
100
AcDbLine
 10
-994.6547679802417
 20
-324.1543686409453
 30
0.0
 11
-404.6547679802599
 21
265.8456313590369
 31
0.0
  0
LINE
  5
2B8
330
1F
100
AcDbEntity
  8
0-0
  6
JWW_DASHED1
 62
   120
370
     5
100
AcDbLine
 10
-994.6547679802417
 20
-334.0538635761058
 30
0.0
 11
-404.654767980253
 21
255.946136423882
 31
0.0
  0
LINE
  5
2B9
330
1F
100
AcDbEntity
  8
0-0
  6
JWW_DASHED1
 62
   120
370
     5
100
AcDbLine
 10
-994.6547679802485
 20
-343.9533585113294
 30
0.0
 11
-404.6547679802599
 21
246.0466414886579
 31
0.0
  0
LINE
  5
2BA
330
1F
100
AcDbEntity
  8
0-0
  6
JWW_DASHED1
 62
   120
370
     5
100
AcDbLine
 10
-994.6547679802451
 20
-353.8528534465419
 30
0.0
 11
-404.6547679802633
 21
236.1471465534403
 31
0.0
  0
LINE
  5
2BB
330
1F
100
AcDbEntity
  8
0-0
  6
JWW_DASHED1
 62
   120
370
     5
100
AcDbLine
 10
-994.6547679802314
 20
-363.7523483816909
 30
0.0
 11
-404.6547679802496
 21
226.2476516182913
 31
0.0
  0
LINE
  5
2BC
330
1F
100
AcDbEntity
  8
0-0
  6
JWW_DASHED1
 62
   120
370
     5
100
AcDbLine
 10
-994.6547679802519
 20
-373.6518433169269
 30
0.0
 11
-404.6547679802462
 21
216.3481566830771
 31
0.0
  0
LINE
  5
2BD
330
1F
100
AcDbEntity
  8
0-0
  6
JWW_DASHED1
 62
   120
370
     5
100
AcDbLine
 10
-994.6547679802485
 20
-383.5513382521385
 30
0.0
 11
-404.6547679802667
 21
206.4486617478437
 31
0.0
  0
LINE
  5
2BE
330
1F
100
AcDbEntity
  8
0-0
  6
JWW_DASHED1
 62
   120
370
     5
100
AcDbLine
 10
-994.6547679802349
 20
-393.450833187288
 30
0.0
 11
-404.654767980253
 21
196.5491668126947
 31
0.0
  0
LINE
  5
2BF
330
1F
100
AcDbEntity
  8
0-0
  6
JWW_DASHED1
 62
   120
370
     5
100
AcDbLine
 10
-994.6547679802553
 20
-403.3503281225235
 30
0.0
 11
-404.6547679802496
 21
186.64967187748
 31
0.0
  0
LINE
  5
2C0
330
1F
100
AcDbEntity
  8
0-0
  6
JWW_DASHED1
 62
   120
370
     5
100
AcDbLine
 10
-994.6547679802485
 20
-413.2498230577352
 30
0.0
 11
-404.6547679802667
 21
176.7501769422475
 31
0.0
  0
LINE
  5
2C1
330
1F
100
AcDbEntity
  8
0-0
  6
JWW_DASHED1
 62
   120
370
     5
100
AcDbLine
 10
-994.6547679802349
 20
-423.1493179928842
 30
0.0
 11
-404.654767980253
 21
166.8506820070981
 31
0.0
  0
LINE
  5
2C2
330
1F
100
AcDbEntity
  8
0-0
  6
JWW_DASHED1
 62
   120
370
     5
100
AcDbLine
 10
-994.6547679802553
 20
-433.0488129281201
 30
0.0
 11
-404.654767980253
 21
156.951187071883
 31
0.0
  0
LINE
  5
2C3
330
1F
100
AcDbEntity
  8
0-0
  6
JWW_DASHED1
 62
   120
370
     5
100
AcDbLine
 10
-994.6547679802485
 20
-442.9483078633288
 30
0.0
 11
-404.6547679802599
 21
147.0516921366594
 31
0.0
  0
LINE
  5
2C4
330
1F
100
AcDbEntity
  8
0-0
  6
JWW_DASHED1
 62
   120
370
     5
100
AcDbLine
 10
-994.6547679802383
 20
-452.8478027984808
 30
0.0
 11
-404.6547679802565
 21
137.1521972015015
 31
0.0
  0
LINE
  5
2C5
330
1F
100
AcDbEntity
  8
0-0
  6
JWW_DASHED1
 62
   120
370
     5
100
AcDbLine
 10
-994.6547679802314
 20
-462.747297733689
 30
0.0
 11
-404.6547679802462
 21
127.2527022662936
 31
0.0
  0
LINE
  5
2C6
330
1F
100
AcDbEntity
  8
0-0
  6
JWW_DASHED1
 62
   120
370
     5
100
AcDbLine
 10
-994.6547679802485
 20
-472.646792668925
 30
0.0
 11
-404.6547679802462
 21
117.3532073310781
 31
0.0
  0
LINE
  5
2C7
330
1F
100
AcDbEntity
  8
0-0
  6
JWW_DASHED1
 62
   120
370
     5
100
AcDbLine
 10
-994.6547679802417
 20
-482.5462876040774
 30
0.0
 11
-404.6547679802599
 21
107.4537123959048
 31
0.0
  0
LINE
  5
2C8
330
1F
100
AcDbEntity
  8
0-0
  6
JWW_DASHED1
 62
   120
370
     5
100
AcDbLine
 10
-994.6547679802349
 20
-492.4457825392852
 30
0.0
 11
-404.6547679802496
 21
97.55421746069658
 31
0.0
  0
LINE
  5
2C9
330
1F
100
AcDbEntity
  8
0-0
  6
JWW_DASHED1
 62
   120
370
     5
100
AcDbLine
 10
-994.6547679802553
 20
-502.345277474522
 30
0.0
 11
-404.6547679802496
 21
87.6547225254815
 31
0.0
  0
LINE
  5
2CA
330
1F
100
AcDbEntity
  8
0-0
  6
JWW_DASHED1
 62
   120
370
     5
100
AcDbLine
 10
-994.6547679802417
 20
-512.244772409674
 30
0.0
 11
-404.6547679802599
 21
77.75522759030821
 31
0.0
  0
LINE
  5
2CB
330
1F
100
AcDbEntity
  8
0-0
  6
JWW_DASHED1
 62
   120
370
     5
100
AcDbLine
 10
-994.6547679802349
 20
-522.1442673448823
 30
0.0
 11
-404.654767980253
 21
67.85573265509996
 31
0.0
  0
LINE
  5
2CC
330
1F
100
AcDbEntity
  8
0-0
  6
JWW_DASHED1
 62
   120
370
     5
100
AcDbLine
 10
-994.6547679802519
 20
-532.0437622800603
 30
0.0
 11
-404.6547679802462
 21
57.95623771994372
 31
0.0
  0
LINE
  5
2CD
330
1F
100
AcDbEntity
  8
0-0
  6
JWW_DASHED1
 62
   120
370
     5
100
AcDbLine
 10
-994.6547679802451
 20
-541.9432572152707
 30
0.0
 11
-404.6547679802633
 21
48.05674278471159
 31
0.0
  0
LINE
  5
2CE
330
1F
100
AcDbEntity
  8
0-0
  6
JWW_DASHED1
 62
   120
370
     5
100
AcDbLine
 10
-994.6547679802349
 20
-551.8427521504789
 30
0.0
 11
-404.654767980253
 21
38.15724784950334
 31
0.0
  0
LINE
  5
2CF
330
1F
100
AcDbEntity
  8
0-0
  6
JWW_DASHED1
 62
   120
370
     5
100
AcDbLine
 10
-994.6547679802553
 20
-561.7422470856573
 30
0.0
 11
-404.6547679802496
 21
28.25775291434624
 31
0.0
  0
LINE
  5
2D0
330
1F
100
AcDbEntity
  8
0-0
  6
JWW_DASHED1
 62
   120
370
     5
100
AcDbLine
 10
-994.6547679802485
 20
-571.6417420208672
 30
0.0
 11
-404.6547679802667
 21
18.35825797911497
 31
0.0
  0
LINE
  5
2D1
330
1F
100
AcDbEntity
  8
0-0
  6
JWW_DASHED1
 62
   120
370
     5
100
AcDbLine
 10
-994.6547679802383
 20
-581.5412369560755
 30
0.0
 11
-404.6547679802565
 21
8.458763043906714
 31
0.0
  0
LINE
  5
2D2
330
1F
100
AcDbEntity
  8
0-0
  6
JWW_DASHED1
 62
   120
370
     5
100
AcDbLine
 10
-994.6547679802553
 20
-591.4407318912539
 30
0.0
 11
-404.654767980253
 21
-1.44073189125038
 31
0.0
  0
LINE
  5
2D3
330
1F
100
AcDbEntity
  8
0-0
  6
JWW_DASHED1
 62
   120
370
     5
100
AcDbLine
 10
-994.6547679802485
 20
-601.3402268264639
 30
0.0
 11
-404.6547679802667
 21
-11.34022682648165
 31
0.0
  0
LINE
  5
2D4
330
1F
100
AcDbEntity
  8
0-0
  6
JWW_DASHED1
 62
   120
370
     5
100
AcDbLine
 10
-994.6547679802417
 20
-611.2397217616722
 30
0.0
 11
-404.6547679802599
 21
-21.23972176168991
 31
0.0
  0
LINE
  5
2D5
330
1F
100
AcDbEntity
  8
0-0
  6
JWW_DASHED1
 62
   120
370
     5
100
AcDbLine
 10
-994.6547679802417
 20
-621.1392166968352
 30
0.0
 11
-404.654767980253
 21
-31.13921669684743
 31
0.0
  0
LINE
  5
2D6
330
1F
100
AcDbEntity
  8
0-0
  6
JWW_DASHED1
 62
   120
370
     5
100
AcDbLine
 10
-994.6547679802485
 20
-631.0387116320592
 30
0.0
 11
-404.6547679802462
 21
-41.03871163205525
 31
0.0
  0
LINE
  5
2D7
330
1F
100
AcDbEntity
  8
0-0
  6
JWW_DASHED1
 62
   120
370
     5
100
AcDbLine
 10
-994.6547679802417
 20
-640.9382065672687
 30
0.0
 11
-404.6547679802599
 21
-50.9382065672861
 31
0.0
  0
LINE
  5
2D8
330
1F
100
AcDbEntity
  8
0-0
  6
JWW_DASHED1
 62
   120
370
     5
100
AcDbLine
 10
-994.6547679802314
 20
-650.8377015024178
 30
0.0
 11
-404.6547679802462
 21
-60.83770150243552
 31
0.0
  0
LINE
  5
2D9
330
1F
100
AcDbEntity
  8
0-0
  6
JWW_DASHED1
 62
   120
370
     5
100
AcDbLine
 10
-994.6547679802519
 20
-660.7371964376558
 30
0.0
 11
-404.6547679802496
 21
-70.7371964376523
 31
0.0
  0
LINE
  5
2DA
330
1F
100
AcDbEntity
  8
0-0
  6
JWW_DASHED1
 62
   120
370
     5
100
AcDbLine
 10
-994.6547679802451
 20
-670.636691372865
 30
0.0
 11
-404.6547679802633
 21
-80.63669137288315
 31
0.0
  0
LINE
  5
2DB
330
1F
100
AcDbEntity
  8
0-0
  6
JWW_DASHED1
 62
   120
370
     5
100
AcDbLine
 10
-994.6547679802349
 20
-680.5361863080144
 30
0.0
 11
-404.6547679802496
 21
-90.53618630803214
 31
0.0
  0
LINE
  5
2DC
330
1F
100
AcDbEntity
  8
0-0
  6
JWW_DASHED1
 62
   120
370
     5
100
AcDbLine
 10
-994.6547679802553
 20
-690.4356812432529
 30
0.0
 11
-404.654767980253
 21
-100.4356812432493
 31
0.0
  0
LINE
  5
2DD
330
1F
100
AcDbEntity
  8
0-0
  6
JWW_DASHED1
 62
   120
370
     5
100
AcDbLine
 10
-994.6547679802485
 20
-700.335176178462
 30
0.0
 11
-404.6547679802667
 21
-110.3351761784798
 31
0.0
  0
LINE
  5
2DE
330
1F
100
AcDbEntity
  8
0-0
  6
JWW_DASHED1
 62
   120
370
     5
100
AcDbLine
 10
-994.6547679802349
 20
-710.2346711136111
 30
0.0
 11
-404.654767980253
 21
-120.2346711136283
 31
0.0
  0
LINE
  5
2DF
330
1F
100
AcDbEntity
  8
0-0
  6
JWW_DASHED1
 62
   120
370
     5
100
AcDbLine
 10
-994.6547679802553
 20
-720.1341660488495
 30
0.0
 11
-404.654767980253
 21
-130.1341660488464
 31
0.0
  0
LINE
  5
2E0
330
1F
100
AcDbEntity
  8
0-0
  6
JWW_DASHED1
 62
   120
370
     5
100
AcDbLine
 10
-994.6547679802451
 20
-730.0336609839998
 30
0.0
 11
-404.6547679802633
 21
-140.0336609840176
 31
0.0
  0
LINE
  5
2E1
330
1F
100
AcDbEntity
  8
0-0
  6
JWW_DASHED1
 62
   120
370
     5
100
AcDbLine
 10
-994.6547679802349
 20
-739.9331559192076
 30
0.0
 11
-404.654767980253
 21
-149.9331559192254
 31
0.0
  0
LINE
  5
2E2
330
1F
100
AcDbEntity
  8
0-0
  6
JWW_DASHED1
 62
   120
370
     5
100
AcDbLine
 10
-994.654767980228
 20
-749.8326508544154
 30
0.0
 11
-404.6547679802462
 21
-159.8326508544332
 31
0.0
  0
LINE
  5
2E3
330
1F
100
AcDbEntity
  8
0-0
  6
JWW_DASHED1
 62
   120
370
     5
100
AcDbLine
 10
-994.6547679802485
 20
-759.7321457895964
 30
0.0
 11
-404.6547679802667
 21
-169.7321457896142
 31
0.0
  0
LINE
  5
2E4
330
1F
100
AcDbEntity
  8
0-0
  6
JWW_DASHED1
 62
   120
370
     5
100
AcDbLine
 10
-994.6547679802383
 20
-769.6316407248042
 30
0.0
 11
-404.6547679802565
 21
-179.631640724822
 31
0.0
  0
LINE
  5
2E5
330
1F
100
AcDbEntity
  8
0-0
  6
JWW_DASHED1
 62
   120
370
     5
100
AcDbLine
 10
-994.6547679802314
 20
-779.5311356600121
 30
0.0
 11
-404.6547679802496
 21
-189.5311356600298
 31
0.0
  0
LINE
  5
2E6
330
1F
100
AcDbEntity
  8
0-0
  6
JWW_DASHED1
 62
   120
370
     5
100
AcDbLine
 10
-994.6547679802485
 20
-789.4306305951926
 30
0.0
 11
-404.6547679802599
 21
-199.4306305952048
 31
0.0
  0
LINE
  5
2E7
330
1F
100
AcDbEntity
  8
0-0
  6
JWW_DASHED1
 62
   120
370
     5
100
AcDbLine
 10
-994.6547679802417
 20
-799.3301255304009
 30
0.0
 11
-404.6547679802599
 21
-209.3301255304186
 31
0.0
  0
LINE
  5
2E8
330
1F
100
AcDbEntity
  8
0-0
  6
JWW_DASHED1
 62
   120
370
     5
100
AcDbLine
 10
-994.6547679802349
 20
-809.2296204656087
 30
0.0
 11
-404.6547679802496
 21
-219.2296204656265
 31
0.0
  0
LINE
  5
2E9
330
1F
100
AcDbEntity
  8
0-0
  6
JWW_DASHED1
 62
   120
370
     5
100
AcDbLine
 10
-990.0427277577888
 20
-814.5170751783245
 30
0.0
 11
-404.6547679802462
 21
-229.1291154007861
 31
0.0
  0
LINE
  5
2EA
330
1F
100
AcDbEntity
  8
0-0
  6
JWW_DASHED1
 62
   120
370
     5
100
AcDbLine
 10
-980.1432328225793
 20
-814.5170751783326
 30
0.0
 11
-404.6547679802599
 21
-239.0286103360148
 31
0.0
  0
LINE
  5
2EB
330
1F
100
AcDbEntity
  8
0-0
  6
JWW_DASHED1
 62
   120
370
     5
100
AcDbLine
 10
-970.2437378873698
 20
-814.5170751783406
 30
0.0
 11
-404.654767980253
 21
-248.9281052712231
 31
0.0
  0
LINE
  5
2EC
330
1F
100
AcDbEntity
  8
0-0
  6
JWW_DASHED1
 62
   120
370
     5
100
AcDbLine
 10
-960.3442429521909
 20
-814.5170751783223
 30
0.0
 11
-404.6547679802496
 21
-258.8276002063827
 31
0.0
  0
LINE
  5
2ED
330
1F
100
AcDbEntity
  8
0-0
  6
JWW_DASHED1
 62
   120
370
     5
100
AcDbLine
 10
-950.4447480169814
 20
-814.5170751783296
 30
0.0
 11
-404.6547679802633
 21
-268.7270951416119
 31
0.0
  0
LINE
  5
2EE
330
1F
100
AcDbEntity
  8
0-0
  6
JWW_DASHED1
 62
   120
370
     5
100
AcDbLine
 10
-940.5452530817719
 20
-814.5170751783377
 30
0.0
 11
-404.654767980253
 21
-278.6265900768197
 31
0.0
  0
LINE
  5
2EF
330
1F
100
AcDbEntity
  8
0-0
  6
JWW_DASHED1
 62
   120
370
     5
100
AcDbLine
 10
-930.645758146593
 20
-814.5170751783202
 30
0.0
 11
-404.654767980253
 21
-288.5260850119798
 31
0.0
  0
LINE
  5
2F0
330
1F
100
AcDbEntity
  8
0-0
  6
JWW_DASHED1
 62
   120
370
     5
100
AcDbLine
 10
-920.7462632113835
 20
-814.5170751783266
 30
0.0
 11
-404.6547679802599
 21
-298.4255799472038
 31
0.0
  0
LINE
  5
2F1
330
1F
100
AcDbEntity
  8
0-0
  6
JWW_DASHED1
 62
   120
370
     5
100
AcDbLine
 10
-910.846768276174
 20
-814.5170751783347
 30
0.0
 11
-404.6547679802565
 21
-308.3250748824163
 31
0.0
  0
LINE
  5
2F2
330
1F
100
AcDbEntity
  8
0-0
  6
JWW_DASHED1
 62
   120
370
     5
100
AcDbLine
 10
-900.9472733410258
 20
-814.5170751783471
 30
0.0
 11
-404.6547679802428
 21
-318.2245698175657
 31
0.0
  0
LINE
  5
2F3
330
1F
100
AcDbEntity
  8
0-0
  6
JWW_DASHED1
 62
   120
370
     5
100
AcDbLine
 10
-891.047778405789
 20
-814.5170751783262
 30
0.0
 11
-404.6547679802462
 21
-328.1240647527846
 31
0.0
  0
LINE
  5
2F4
330
1F
100
AcDbEntity
  8
0-0
  6
JWW_DASHED1
 62
   120
370
     5
100
AcDbLine
 10
-881.1482834706375
 20
-814.517075178336
 30
0.0
 11
-404.654767980253
 21
-338.0235596879541
 31
0.0
  0
LINE
  5
2F5
330
1F
100
AcDbEntity
  8
0-0
  6
JWW_DASHED1
 62
   120
370
     5
100
AcDbLine
 10
-871.2487885354279
 20
-814.517075178344
 30
0.0
 11
-404.6547679802462
 21
-347.9230546231619
 31
0.0
  0
LINE
  5
2F6
330
1F
100
AcDbEntity
  8
0-0
  6
JWW_DASHED1
 62
   120
370
     5
100
AcDbLine
 10
-861.3492936001911
 20
-814.517075178324
 30
0.0
 11
-404.6547679802496
 21
-357.8225495583817
 31
0.0
  0
LINE
  5
2F7
330
1F
100
AcDbEntity
  8
0-0
  6
JWW_DASHED1
 62
   120
370
     5
100
AcDbLine
 10
-851.4497986650396
 20
-814.517075178333
 30
0.0
 11
-404.6547679802565
 21
-367.7220444935507
 31
0.0
  0
LINE
  5
2F8
330
1F
100
AcDbEntity
  8
0-0
  6
JWW_DASHED1
 62
   120
370
     5
100
AcDbLine
 10
-841.55030372983
 20
-814.5170751783411
 30
0.0
 11
-404.6547679802496
 21
-377.621539428759
 31
0.0
  0
LINE
  5
2F9
330
1F
100
AcDbEntity
  8
0-0
  6
JWW_DASHED1
 62
   120
370
     5
100
AcDbLine
 10
-831.6508087945932
 20
-814.5170751783219
 30
0.0
 11
-404.654767980253
 21
-387.5210343639787
 31
0.0
  0
LINE
  5
2FA
330
1F
100
AcDbEntity
  8
0-0
  6
JWW_DASHED1
 62
   120
370
     5
100
AcDbLine
 10
-821.7513138594417
 20
-814.5170751783301
 30
0.0
 11
-404.6547679802599
 21
-397.4205292991473
 31
0.0
  0
LINE
  5
2FB
330
1F
100
AcDbEntity
  8
0-0
  6
JWW_DASHED1
 62
   120
370
     5
100
AcDbLine
 10
-811.8518189242355
 20
-814.5170751783381
 30
0.0
 11
-404.6547679802496
 21
-407.3200242343552
 31
0.0
  0
LINE
  5
2FC
330
1F
100
AcDbEntity
  8
0-0
  6
JWW_DASHED1
 62
   120
370
     5
100
AcDbLine
 10
-801.952323989009
 20
-814.5170751783301
 30
0.0
 11
-404.654767980253
 21
-417.2195191695754
 31
0.0
  0
LINE
  5
2FD
330
1F
100
AcDbEntity
  8
0-0
  6
JWW_DASHED1
 62
   120
370
     5
100
AcDbLine
 10
-792.0528290538438
 20
-814.5170751783266
 30
0.0
 11
-404.6547679802599
 21
-427.119014104744
 31
0.0
  0
LINE
  5
2FE
330
1F
100
AcDbEntity
  8
0-0
  6
JWW_DASHED1
 62
   120
370
     5
100
AcDbLine
 10
-782.1533341186342
 20
-814.5170751783351
 30
0.0
 11
-404.654767980253
 21
-437.0185090399522
 31
0.0
  0
LINE
  5
2FF
330
1F
100
AcDbEntity
  8
0-0
  6
JWW_DASHED1
 62
   120
370
     5
100
AcDbLine
 10
-772.2538391834281
 20
-814.5170751783432
 30
0.0
 11
-404.6547679802462
 21
-446.91800397516
 31
0.0
  0
LINE
  5
300
330
1F
100
AcDbEntity
  8
0-0
  6
JWW_DASHED1
 62
   120
370
     5
100
AcDbLine
 10
-762.3543442482459
 20
-814.517075178324
 30
0.0
 11
-404.6547679802633
 21
-456.8174989103406
 31
0.0
  0
LINE
  5
301
330
1F
100
AcDbEntity
  8
0-0
  6
JWW_DASHED1
 62
   120
370
     5
100
AcDbLine
 10
-752.4548493130397
 20
-814.5170751783317
 30
0.0
 11
-404.654767980253
 21
-466.7169938455484
 31
0.0
  0
LINE
  5
302
330
1F
100
AcDbEntity
  8
0-0
  6
JWW_DASHED1
 62
   120
370
     5
100
AcDbLine
 10
-742.5553543778302
 20
-814.5170751783403
 30
0.0
 11
-404.6547679802462
 21
-476.6164887807562
 31
0.0
  0
LINE
  5
303
330
1F
100
AcDbEntity
  8
0-0
  6
JWW_DASHED1
 62
   120
370
     5
100
AcDbLine
 10
-732.655859442648
 20
-814.5170751783206
 30
0.0
 11
-404.6547679802633
 21
-486.5159837159342
 31
0.0
  0
LINE
  5
304
330
1F
100
AcDbEntity
  8
0-0
  6
JWW_DASHED1
 62
   120
370
     5
100
AcDbLine
 10
-722.7563645074418
 20
-814.5170751783292
 30
0.0
 11
-404.6547679802565
 21
-496.415478651145
 31
0.0
  0
LINE
  5
305
330
1F
100
AcDbEntity
  8
0-0
  6
JWW_DASHED1
 62
   120
370
     5
100
AcDbLine
 10
-712.8568695722323
 20
-814.5170751783369
 30
0.0
 11
-404.6547679802496
 21
-506.3149735863533
 31
0.0
  0
LINE
  5
306
330
1F
100
AcDbEntity
  8
0-0
  6
JWW_DASHED1
 62
   120
370
     5
100
AcDbLine
 10
-702.9573746370603
 20
-814.5170751783257
 30
0.0
 11
-404.6547679802496
 21
-516.2144685215151
 31
0.0
  0
LINE
  5
307
330
1F
100
AcDbEntity
  8
0-0
  6
JWW_DASHED1
 62
   120
370
     5
100
AcDbLine
 10
-693.057879701844
 20
-814.5170751783257
 30
0.0
 11
-404.6547679802599
 21
-526.1139634567417
 31
0.0
  0
LINE
  5
308
330
1F
100
AcDbEntity
  8
0-0
  6
JWW_DASHED1
 62
   120
370
     5
100
AcDbLine
 10
-683.1583847666958
 20
-814.5170751783385
 30
0.0
 11
-404.6547679802462
 21
-536.0134583918907
 31
0.0
  0
LINE
  5
309
330
1F
100
AcDbEntity
  8
0-0
  6
JWW_DASHED1
 62
   120
370
     5
100
AcDbLine
 10
-673.2588898314624
 20
-814.5170751783232
 30
0.0
 11
-404.654767980253
 21
-545.9129533271121
 31
0.0
  0
LINE
  5
30A
330
1F
100
AcDbEntity
  8
0-0
  6
JWW_DASHED1
 62
   120
370
     5
100
AcDbLine
 10
-663.359394896246
 20
-814.5170751783232
 30
0.0
 11
-404.6547679802599
 21
-555.8124482623383
 31
0.0
  0
LINE
  5
30B
330
1F
100
AcDbEntity
  8
0-0
  6
JWW_DASHED1
 62
   120
370
     5
100
AcDbLine
 10
-653.4598999610979
 20
-814.5170751783351
 30
0.0
 11
-404.6547679802496
 21
-565.7119431974877
 31
0.0
  0
LINE
  5
30C
330
1F
100
AcDbEntity
  8
0-0
  6
JWW_DASHED1
 62
   120
370
     5
100
AcDbLine
 10
-643.5604050258645
 20
-814.5170751783214
 30
0.0
 11
-404.654767980253
 21
-575.6114381327092
 31
0.0
  0
LINE
  5
30D
330
1F
100
AcDbEntity
  8
0-0
  6
JWW_DASHED1
 62
   120
370
     5
100
AcDbLine
 10
-633.6609100906481
 20
-814.5170751783198
 30
0.0
 11
-404.6547679802599
 21
-585.5109330679328
 31
0.0
  0
LINE
  5
30E
330
1F
100
AcDbEntity
  8
0-0
  6
JWW_DASHED1
 62
   120
370
     5
100
AcDbLine
 10
-623.7614151555
 20
-814.5170751783326
 30
0.0
 11
-404.6547679802496
 21
-595.4104280030839
 31
0.0
  0
LINE
  5
30F
330
1F
100
AcDbEntity
  8
0-0
  6
JWW_DASHED1
 62
   120
370
     5
100
AcDbLine
 10
-613.8619202202905
 20
-814.5170751783403
 30
0.0
 11
-404.6547679802428
 21
-605.3099229382917
 31
0.0
  0
LINE
  5
310
330
1F
100
AcDbEntity
  8
0-0
  6
JWW_DASHED1
 62
   120
370
     5
100
AcDbLine
 10
-603.9624252850605
 20
-814.5170751783274
 30
0.0
 11
-404.6547679802462
 21
-615.209417873514
 31
0.0
  0
LINE
  5
311
330
1F
100
AcDbEntity
  8
0-0
  6
JWW_DASHED1
 62
   120
370
     5
100
AcDbLine
 10
-594.0629303499021
 20
-814.5170751783292
 30
0.0
 11
-404.654767980253
 21
-625.108912808681
 31
0.0
  0
LINE
  5
312
330
1F
100
AcDbEntity
  8
0-0
  6
JWW_DASHED1
 62
   120
370
     5
100
AcDbLine
 10
-584.1634354146926
 20
-814.5170751783377
 30
0.0
 11
-404.6547679802462
 21
-635.0084077438887
 31
0.0
  0
LINE
  5
313
330
1F
100
AcDbEntity
  8
0-0
  6
JWW_DASHED1
 62
   120
370
     5
100
AcDbLine
 10
-574.263940479466
 20
-814.5170751783253
 30
0.0
 11
-404.6547679802496
 21
-644.9079026791111
 31
0.0
  0
LINE
  5
314
330
1F
100
AcDbEntity
  8
0-0
  6
JWW_DASHED1
 62
   120
370
     5
100
AcDbLine
 10
-564.3644455443042
 20
-814.5170751783266
 30
0.0
 11
-404.654767980253
 21
-654.8073976142771
 31
0.0
  0
LINE
  5
315
330
1F
100
AcDbEntity
  8
0-0
  6
JWW_DASHED1
 62
   120
370
     5
100
AcDbLine
 10
-554.4649506090947
 20
-814.5170751783343
 30
0.0
 11
-404.6547679802462
 21
-664.7068925494854
 31
0.0
  0
LINE
  5
316
330
1F
100
AcDbEntity
  8
0-0
  6
JWW_DASHED1
 62
   120
370
     5
100
AcDbLine
 10
-544.5654556738681
 20
-814.5170751783232
 30
0.0
 11
-404.654767980253
 21
-674.6063874847077
 31
0.0
  0
LINE
  5
317
330
1F
100
AcDbEntity
  8
0-0
  6
JWW_DASHED1
 62
   120
370
     5
100
AcDbLine
 10
-534.6659607387063
 20
-814.5170751783232
 30
0.0
 11
-404.6547679802565
 21
-684.5058824198742
 31
0.0
  0
LINE
  5
318
330
1F
100
AcDbEntity
  8
0-0
  6
JWW_DASHED1
 62
   120
370
     5
100
AcDbLine
 10
-524.7664658035002
 20
-814.5170751783317
 30
0.0
 11
-404.6547679802496
 21
-694.405377355082
 31
0.0
  0
LINE
  5
319
330
1F
100
AcDbEntity
  8
0-0
  6
JWW_DASHED1
 62
   120
370
     5
100
AcDbLine
 10
-514.8669708682736
 20
-814.517075178324
 30
0.0
 11
-404.6547679802565
 21
-704.3048722903043
 31
0.0
  0
LINE
  5
31A
330
1F
100
AcDbEntity
  8
0-0
  6
JWW_DASHED1
 62
   120
370
     5
100
AcDbLine
 10
-504.9674759331084
 20
-814.5170751783206
 30
0.0
 11
-404.6547679802599
 21
-714.2043672254704
 31
0.0
  0
LINE
  5
31B
330
1F
100
AcDbEntity
  8
0-0
  6
JWW_DASHED1
 62
   120
370
     5
100
AcDbLine
 10
-495.0679809978989
 20
-814.5170751783282
 30
0.0
 11
-404.6547679802496
 21
-724.1038621606782
 31
0.0
  0
LINE
  5
31C
330
1F
100
AcDbEntity
  8
0-0
  6
JWW_DASHED1
 62
   120
370
     5
100
AcDbLine
 10
-485.1684860627064
 20
-814.5170751783232
 30
0.0
 11
-404.6547679802565
 21
-734.0033570958724
 31
0.0
  0
LINE
  5
31D
330
1F
100
AcDbEntity
  8
0-0
  6
JWW_DASHED1
 62
   120
370
     5
100
AcDbLine
 10
-475.2689911275105
 20
-814.5170751783172
 30
0.0
 11
-404.6547679802599
 21
-743.9028520310674
 31
0.0
  0
LINE
  5
31E
330
1F
100
AcDbEntity
  8
0-0
  6
JWW_DASHED1
 62
   120
370
     5
100
AcDbLine
 10
-465.3694961923044
 20
-814.5170751783257
 30
0.0
 11
-404.654767980253
 21
-753.8023469662753
 31
0.0
  0
LINE
  5
31F
330
1F
100
AcDbEntity
  8
0-0
  6
JWW_DASHED1
 62
   120
370
     5
100
AcDbLine
 10
-455.4700012571392
 20
-814.5170751783223
 30
0.0
 11
-404.6547679802565
 21
-763.7018419014396
 31
0.0
  0
LINE
  5
320
330
1F
100
AcDbEntity
  8
0-0
  6
JWW_DASHED1
 62
   120
370
     5
100
AcDbLine
 10
-445.5705063219297
 20
-814.5170751783292
 30
0.0
 11
-404.6547679802462
 21
-773.6013368366474
 31
0.0
  0
LINE
  5
321
330
1F
100
AcDbEntity
  8
0-0
  6
JWW_DASHED1
 62
   120
370
     5
100
AcDbLine
 10
-435.6710113867065
 20
-814.5170751783223
 30
0.0
 11
-404.6547679802565
 21
-783.5008317718718
 31
0.0
  0
LINE
  5
322
330
1F
100
AcDbEntity
  8
0-0
  6
JWW_DASHED1
 62
   120
370
     5
100
AcDbLine
 10
-425.7715164515549
 20
-814.5170751783351
 30
0.0
 11
-404.6547679802428
 21
-793.4003267070209
 31
0.0
  0
LINE
  5
323
330
1F
100
AcDbEntity
  8
0-0
  6
JWW_DASHED1
 62
   120
370
     5
100
AcDbLine
 10
-415.8720215163318
 20
-814.5170751783266
 30
0.0
 11
-404.6547679802496
 21
-803.2998216422445
 31
0.0
  0
LINE
  5
324
330
1F
100
AcDbEntity
  8
0-0
  6
JWW_DASHED1
 62
   120
370
     5
100
AcDbLine
 10
-405.9725265811086
 20
-814.5170751783194
 30
0.0
 11
-404.6547679802565
 21
-813.1993165774685
 31
0.0
  0
LINE
  5
325
330
1F
100
AcDbEntity
  8
0-0
  6
Continuous
 62
    92
370
    13
100
AcDbLine
 10
-994.6547679802485
 20
892.4829248216736
 30
0.0
 11
-404.6547679802496
 21
892.4829248216736
 31
0.0
  0
LINE
  5
326
330
1F
100
AcDbEntity
  8
0-0
  6
Continuous
 62
    92
370
    13
100
AcDbLine
 10
-404.6547679802496
 20
1027.482924821674
 30
0.0
 11
-404.6547679802496
 21
-955.5170751783266
 31
0.0
  0
LINE
  5
327
330
1F
100
AcDbEntity
  8
0-0
  6
Continuous
 62
    92
370
    13
100
AcDbLine
 10
-994.6547679802485
 20
1027.482924821674
 30
0.0
 11
-994.6547679802485
 21
-955.5170751783266
 31
0.0
  0
LINE
  5
328
330
1F
100
AcDbEntity
  8
0-0
  6
Continuous
 62
    92
370
    13
100
AcDbLine
 10
-404.6547679802496
 20
-814.5170751783266
 30
0.0
 11
-994.6547679802485
 21
-814.5170751783266
 31
0.0
  0
LWPOLYLINE
  5
329
330
1F
100
AcDbEntity
  8
寸法
  6
Continuous
 62
     7
370
     9
100
AcDbPolyline
 90
        4
 70
     1
 43
3.0
 10
-293.154767980249
 20
-1213.517075178327
 42
0.4142135623731
 10
-294.6547679802491
 20
-1212.017075178327
 42
0.4142135623731
 10
-296.1547679802491
 20
-1213.517075178327
 42
0.4142135623731
 10
-294.6547679802491
 20
-1215.017075178327
 42
0.4142135623731
  0
LWPOLYLINE
  5
32A
330
1F
100
AcDbEntity
  8
寸法
  6
Continuous
 62
     7
370
     9
100
AcDbPolyline
 90
        4
 70
     1
 43
3.0
 10
-1103.154767980249
 20
-1213.517075178327
 42
0.4142135623731
 10
-1104.654767980249
 20
-1212.017075178327
 42
0.4142135623731
 10
-1106.154767980249
 20
-1213.517075178327
 42
0.4142135623731
 10
-1104.654767980249
 20
-1215.017075178327
 42
0.4142135623731
  0
LWPOLYLINE
  5
32B
330
1F
100
AcDbEntity
  8
寸法
  6
Continuous
 62
     7
370
     9
100
AcDbPolyline
 90
        4
 70
     1
 43
3.0
 10
-1130.154767980248
 20
-1613.517075178327
 42
0.4142135623731
 10
-1131.654767980248
 20
-1612.017075178327
 42
0.4142135623731
 10
-1133.154767980248
 20
-1613.517075178327
 42
0.4142135623731
 10
-1131.654767980248
 20
-1615.017075178327
 42
0.4142135623731
  0
LWPOLYLINE
  5
32C
330
1F
100
AcDbEntity
  8
寸法
  6
Continuous
 62
     7
370
     9
100
AcDbPolyline
 90
        4
 70
     1
 43
3.0
 10
-1100.154767980248
 20
-1413.517075178327
 42
0.4142135623731
 10
-1101.654767980248
 20
-1412.017075178327
 42
0.4142135623731
 10
-1103.154767980248
 20
-1413.517075178327
 42
0.4142135623731
 10
-1101.654767980248
 20
-1415.017075178327
 42
0.4142135623731
  0
LINE
  5
32D
330
1F
100
AcDbEntity
  8
寸法
  6
Continuous
 62
   120
370
     5
100
AcDbLine
 10
-294.6547679802491
 20
-1213.517075178327
 30
0.0
 11
-294.6547679802491
 21
-1013.517075178328
 31
0.0
  0
LINE
  5
32E
330
1F
100
AcDbEntity
  8
寸法
  6
Continuous
 62
   120
370
     5
100
AcDbLine
 10
-1104.654767980249
 20
-1213.517075178327
 30
0.0
 11
-294.6547679802491
 21
-1213.517075178327
 31
0.0
  0
LINE
  5
32F
330
1F
100
AcDbEntity
  8
寸法
  6
Continuous
 62
   120
370
     5
100
AcDbLine
 10
-1104.654767980249
 20
-1213.517075178327
 30
0.0
 11
-1104.654767980249
 21
-1013.517075178328
 31
0.0
  0
LINE
  5
330
330
1F
100
AcDbEntity
  8
寸法
  6
Continuous
 62
   120
370
     5
100
AcDbLine
 10
-1131.654767980248
 20
-1613.517075178327
 30
0.0
 11
-1131.654767980248
 21
-1013.517075178328
 31
0.0
  0
LINE
  5
331
330
1F
100
AcDbEntity
  8
寸法
  6
Continuous
 62
   120
370
     5
100
AcDbLine
 10
-1101.654767980248
 20
-1413.517075178327
 30
0.0
 11
-1101.654767980248
 21
-1013.517075178328
 31
0.0
  0
LWPOLYLINE
  5
332
330
1F
100
AcDbEntity
  8
寸法
  6
Continuous
 62
     7
370
     9
100
AcDbPolyline
 90
        4
 70
     1
 43
3.0
 10
-1580.154767980248
 20
-963.5170751783271
 42
0.4142135623731
 10
-1581.654767980248
 20
-962.0170751783271
 42
0.4142135623731
 10
-1583.154767980248
 20
-963.5170751783271
 42
0.4142135623731
 10
-1581.654767980248
 20
-965.017075178327
 42
0.4142135623731
  0
LINE
  5
333
330
1F
100
AcDbEntity
  8
寸法
  6
Continuous
 62
   120
370
     5
100
AcDbLine
 10
-1581.654767980248
 20
-963.5170751783271
 30
0.0
 11
-1181.654767980247
 21
-963.5170751783271
 31
0.0
  0
LWPOLYLINE
  5
334
330
1F
100
AcDbEntity
  8
寸法
  6
Continuous
 62
     7
370
     9
100
AcDbPolyline
 90
        4
 70
     1
 43
3.0
 10
-1580.154767980248
 20
1071.482924821672
 42
0.4142135623731
 10
-1581.654767980248
 20
1072.982924821672
 42
0.4142135623731
 10
-1583.154767980248
 20
1071.482924821672
 42
0.4142135623731
 10
-1581.654767980248
 20
1069.982924821672
 42
0.4142135623731
  0
LINE
  5
335
330
1F
100
AcDbEntity
  8
寸法
  6
Continuous
 62
   120
370
     5
100
AcDbLine
 10
-1581.654767980248
 20
1071.482924821672
 30
0.0
 11
-1181.654767980247
 21
1071.482924821672
 31
0.0
  0
LINE
  5
336
330
1F
100
AcDbEntity
  8
寸法
  6
Continuous
 62
   120
370
     5
100
AcDbLine
 10
-1581.654767980248
 20
1071.482924821672
 30
0.0
 11
-1581.654767980248
 21
-963.5170751783271
 31
0.0
  0
LWPOLYLINE
  5
337
330
1F
100
AcDbEntity
  8
寸法
  6
Continuous
 62
     7
370
     9
100
AcDbPolyline
 90
        4
 70
     1
 43
3.0
 10
1949.845232019752
 20
-1613.517075178326
 42
0.4142135623731
 10
1948.345232019752
 20
-1612.017075178326
 42
0.4142135623731
 10
1946.845232019752
 20
-1613.517075178326
 42
0.4142135623731
 10
1948.345232019752
 20
-1615.017075178326
 42
0.4142135623731
  0
LINE
  5
338
330
1F
100
AcDbEntity
  8
寸法
  6
Continuous
 62
   120
370
     5
100
AcDbLine
 10
1948.345232019752
 20
-1613.517075178326
 30
0.0
 11
1948.345232019752
 21
-1013.517075178327
 31
0.0
  0
LINE
  5
339
330
1F
100
AcDbEntity
  8
寸法
  6
Continuous
 62
   120
370
     5
100
AcDbLine
 10
-1131.654767980248
 20
-1613.517075178327
 30
0.0
 11
1948.345232019752
 21
-1613.517075178326
 31
0.0
  0
LWPOLYLINE
  5
33A
330
1F
100
AcDbEntity
  8
寸法
  6
Continuous
 62
     7
370
     9
100
AcDbPolyline
 90
        4
 70
     1
 43
3.0
 10
1109.845232019752
 20
-1413.517075178327
 42
0.4142135623731
 10
1108.345232019752
 20
-1412.017075178327
 42
0.4142135623731
 10
1106.845232019752
 20
-1413.517075178327
 42
0.4142135623731
 10
1108.345232019752
 20
-1415.017075178327
 42
0.4142135623731
  0
LINE
  5
33B
330
1F
100
AcDbEntity
  8
寸法
  6
Continuous
 62
   120
370
     5
100
AcDbLine
 10
1108.345232019752
 20
-1413.517075178327
 30
0.0
 11
1108.345232019752
 21
-1013.517075178327
 31
0.0
  0
LINE
  5
33C
330
1F
100
AcDbEntity
  8
寸法
  6
Continuous
 62
   120
370
     5
100
AcDbLine
 10
-1101.654767980248
 20
-1413.517075178327
 30
0.0
 11
1108.345232019752
 21
-1413.517075178327
 31
0.0
  0
LWPOLYLINE
  5
33D
330
1F
100
AcDbEntity
  8
寸法
  6
Continuous
 62
     7
370
     9
100
AcDbPolyline
 90
        4
 70
     1
 43
3.0
 10
-1380.15476798025
 20
1027.482924821672
 42
0.4142135623731
 10
-1381.65476798025
 20
1028.982924821672
 42
0.4142135623731
 10
-1383.15476798025
 20
1027.482924821672
 42
0.4142135623731
 10
-1381.65476798025
 20
1025.982924821672
 42
0.4142135623731
  0
LINE
  5
33E
330
1F
100
AcDbEntity
  8
寸法
  6
Continuous
 62
   120
370
     5
100
AcDbLine
 10
-1381.65476798025
 20
1027.482924821672
 30
0.0
 11
-1381.65476798025
 21
-955.517075178328
 31
0.0
  0
LINE
  5
33F
330
1F
100
AcDbEntity
  8
寸法
  6
Continuous
 62
   120
370
     5
100
AcDbLine
 10
-1381.65476798025
 20
1027.482924821672
 30
0.0
 11
-1181.654767980247
 21
1027.482924821672
 31
0.0
  0
LWPOLYLINE
  5
340
330
1F
100
AcDbEntity
  8
寸法
  6
Continuous
 62
     7
370
     9
100
AcDbPolyline
 90
        4
 70
     1
 43
3.0
 10
-1380.15476798025
 20
-955.517075178328
 42
0.4142135623731
 10
-1381.65476798025
 20
-954.0170751783279
 42
0.4142135623731
 10
-1383.15476798025
 20
-955.517075178328
 42
0.4142135623731
 10
-1381.65476798025
 20
-957.017075178328
 42
0.4142135623731
  0
LINE
  5
341
330
1F
100
AcDbEntity
  8
寸法
  6
Continuous
 62
   120
370
     5
100
AcDbLine
 10
-1381.65476798025
 20
-955.517075178328
 30
0.0
 11
-1181.654767980247
 21
-955.517075178328
 31
0.0
  0
MTEXT
  5
342
330
1F
100
AcDbEntity
  8
寸法
  6
Continuous
 62
     7
370
    70
100
AcDbMText
 10
-1596.654767980248
 20
-166.6920751783266
 30
0.0
 40
57.14999999999999
 41
412.5
 46
0.0
 71
     7
 72
     1
  1
{\fＭＳ ゴシック|b0|i0|c128|p49;枠外＝2,035}
 11
6.123031769111886E-17
 21
1.0
 31
0.0
 73
     1
 44
1.0
  0
MTEXT
  5
343
330
1F
100
AcDbEntity
  8
寸法
  6
Continuous
 62
     7
370
    70
100
AcDbMText
 10
-1396.65476798025
 20
-173.192075178328
 30
0.0
 40
57.14999999999999
 41
412.5
 46
0.0
 71
     7
 72
     1
  1
{\fＭＳ ゴシック|b0|i0|c128|p49;ＤＨ＝1,983}
 11
6.123031769111886E-17
 21
1.0
 31
0.0
 73
     1
 44
1.0
  0
MTEXT
  5
344
330
1F
100
AcDbEntity
  8
寸法
  6
Continuous
 62
     7
370
   211
100
AcDbMText
 10
-868.4047679802491
 20
-1207.442075178327
 30
0.0
 40
57.15
 41
337.5
 46
0.0
 71
     7
 72
     1
  1
{\fＭＳ ゴシック|b0|i0|c128|p49;ＤＷ＝810}
 73
     1
 44
1.0
  0
MTEXT
  5
345
330
1F
100
AcDbEntity
  8
寸法
  6
Continuous
 62
     7
370
   211
100
AcDbMText
 10
-277.9047679802489
 20
-1407.442075178327
 30
0.0
 40
57.15000000000001
 41
562.5
 46
0.0
 71
     7
 72
     1
  1
{\fＭＳ ゴシック|b0|i0|c128|p49;有効開口＝2,210}
 73
     1
 44
1.0
  0
MTEXT
  5
346
330
1F
100
AcDbEntity
  8
寸法
  6
Continuous
 62
     7
370
   211
100
AcDbMText
 10
202.0952320197511
 20
-1607.442075178327
 30
0.0
 40
57.14999999999999
 41
412.5
 46
0.0
 71
     7
 72
     1
  1
{\fＭＳ ゴシック|b0|i0|c128|p49;枠外＝3,080}
 73
     1
 44
1.0
  0
ENDSEC
  0
SECTION
  2
OBJECTS
  0
DICTIONARY
  5
C
330
0
100
AcDbDictionary
281
     1
  3
ACAD_GROUP
350
D
  3
ACAD_LAYOUT
350
1A
  3
ACAD_MATERIAL
350
3B
  3
ACAD_MLEADERSTYLE
350
348
  3
ACAD_MLINESTYLE
350
17
  3
ACAD_PLOTSETTINGS
350
19
  3
ACAD_PLOTSTYLENAME
350
E
  3
ACAD_TABLESTYLE
350
347
  3
ACAD_VISUALSTYLE
350
2A
  0
DICTIONARY
  5
D
102
{ACAD_REACTORS
330
C
102
}
330
C
100
AcDbDictionary
281
     1
  0
DICTIONARY
  5
1A
102
{ACAD_REACTORS
330
C
102
}
330
C
100
AcDbDictionary
281
     1
  3
Layout1
350
1E
  3
Layout2
350
26
  3
Model
350
22
  0
DICTIONARY
  5
3B
102
{ACAD_REACTORS
330
C
102
}
330
C
100
AcDbDictionary
281
     1
  3
ByBlock
350
3D
  3
ByLayer
350
3C
  3
Global
350
3E
  0
DICTIONARY
  5
348
102
{ACAD_REACTORS
330
C
102
}
330
C
100
AcDbDictionary
281
     1
  0
DICTIONARY
  5
17
102
{ACAD_REACTORS
330
C
102
}
330
C
100
AcDbDictionary
281
     1
  3
Standard
350
18
  0
DICTIONARY
  5
19
102
{ACAD_REACTORS
330
C
102
}
330
C
100
AcDbDictionary
281
     1
  0
ACDBDICTIONARYWDFLT
  5
E
102
{ACAD_REACTORS
330
C
102
}
330
C
100
AcDbDictionary
281
     1
  3
Normal
350
F
100
AcDbDictionaryWithDefault
340
F
  0
DICTIONARY
  5
347
102
{ACAD_REACTORS
330
C
102
}
330
C
100
AcDbDictionary
281
     1
  0
DICTIONARY
  5
2A
102
{ACAD_REACTORS
330
C
102
}
330
C
100
AcDbDictionary
281
     1
  3
2dWireframe
350
2F
  3
3D Hidden
350
31
  3
3dWireframe
350
30
  3
Basic
350
32
  3
Brighten
350
36
  3
ColorChange
350
3A
  3
Conceptual
350
34
  3
Dim
350
35
  3
Facepattern
350
39
  3
Flat
350
2B
  3
FlatWithEdges
350
2C
  3
Gouraud
350
2D
  3
GouraudWithEdges
350
2E
  3
Linepattern
350
38
  3
Realistic
350
33
  3
Thicken
350
37
  0
LAYOUT
  5
1E
102
{ACAD_REACTORS
330
1A
102
}
330
1A
100
AcDbPlotSettings
  1

  2
none_device
  4

  6

 40
0.0
 41
0.0
 42
0.0
 43
0.0
 44
0.0
 45
0.0
 46
0.0
 47
0.0
 48
0.0
 49
0.0
140
0.0
141
0.0
142
1.0
143
1.0
 70
   688
 72
     0
 73
     0
 74
     5
  7

 75
    16
 76
     0
 77
     5
 78
   300
147
1.0
148
0.0
149
0.0
100
AcDbLayout
  1
Layout1
 70
     1
 71
     1
 10
0.0
 20
0.0
 11
420.0
 21
297.0
 12
0.0
 22
0.0
 32
0.0
 14
1.000000000000000E+20
 24
1.000000000000000E+20
 34
1.000000000000000E+20
 15
-1.000000000000000E+20
 25
-1.000000000000000E+20
 35
-1.000000000000000E+20
146
0.0
 13
0.0
 23
0.0
 33
0.0
 16
1.0
 26
0.0
 36
0.0
 17
0.0
 27
1.0
 37
0.0
 76
     0
330
1B
  0
LAYOUT
  5
26
102
{ACAD_REACTORS
330
1A
102
}
330
1A
100
AcDbPlotSettings
  1

  2
none_device
  4

  6

 40
0.0
 41
0.0
 42
0.0
 43
0.0
 44
0.0
 45
0.0
 46
0.0
 47
0.0
 48
0.0
 49
0.0
140
0.0
141
0.0
142
1.0
143
1.0
 70
   688
 72
     0
 73
     0
 74
     5
  7

 75
    16
 76
     0
 77
     5
 78
   300
147
1.0
148
0.0
149
0.0
100
AcDbLayout
  1
Layout2
 70
     1
 71
     2
 10
0.0
 20
0.0
 11
0.0
 21
0.0
 12
0.0
 22
0.0
 32
0.0
 14
0.0
 24
0.0
 34
0.0
 15
0.0
 25
0.0
 35
0.0
146
0.0
 13
0.0
 23
0.0
 33
0.0
 16
1.0
 26
0.0
 36
0.0
 17
0.0
 27
1.0
 37
0.0
 76
     0
330
23
  0
LAYOUT
  5
22
102
{ACAD_REACTORS
330
1A
102
}
330
1A
100
AcDbPlotSettings
  1

  2
none_device
  4

  6

 40
0.0
 41
0.0
 42
0.0
 43
0.0
 44
0.0
 45
0.0
 46
0.0
 47
0.0
 48
0.0
 49
0.0
140
0.0
141
0.0
142
1.0
143
1.0
 70
  1712
 72
     0
 73
     0
 74
     0
  7

 75
     0
 76
     0
 77
     5
 78
   300
147
1.0
148
0.0
149
0.0
100
AcDbLayout
  1
Model
 70
     1
 71
     0
 10
-4455.0
 20
-3150.0
 11
4455.0
 21
3150.0
 12
0.0
 22
0.0
 32
0.0
 14
-4455.0
 24
-3150.0
 34
0.0
 15
4455.0
 25
3150.0
 35
0.0
146
0.0
 13
0.0
 23
0.0
 33
0.0
 16
1.0
 26
0.0
 36
0.0
 17
0.0
 27
1.0
 37
0.0
 76
     0
330
1F
331
29
  0
MATERIAL
  5
3D
102
{ACAD_REACTORS
330
3B
102
}
330
3B
100
AcDbMaterial
  1
ByBlock
 72
     1
 94
      127
  0
MATERIAL
  5
3C
102
{ACAD_REACTORS
330
3B
102
}
330
3B
100
AcDbMaterial
  1
ByLayer
 72
     1
 94
      127
  0
MATERIAL
  5
3E
102
{ACAD_REACTORS
330
3B
102
}
330
3B
100
AcDbMaterial
  1
Global
 72
     1
 94
      127
  0
MLINESTYLE
  5
18
102
{ACAD_REACTORS
330
17
102
}
330
17
100
AcDbMlineStyle
  2
Standard
 70
     0
  3

 62
   256
 51
90.0
 52
90.0
 71
     2
 49
0.5
 62
   256
  6
BYLAYER
 49
-0.5
 62
   256
  6
BYLAYER
  0
ACDBPLACEHOLDER
  5
F
102
{ACAD_REACTORS
330
E
102
}
330
E
  0
VISUALSTYLE
  5
2F
102
{ACAD_REACTORS
330
2A
102
}
330
2A
100
AcDbVisualStyle
  2
2dWireframe
 70
     4
177
     2
291
     0
 71
     0
176
     1
 72
     2
176
     1
 73
     0
176
     1
 90
        0
176
     1
 40
-0.6
176
     1
 41
-30.0
176
     1
 62
     5
 63
     7
421
 16777215
176
     1
 74
     1
176
     1
 91
        4
176
     1
 64
     7
176
     1
 65
   257
176
     1
 75
     1
176
     1
175
     1
176
     1
 42
1.0
176
     1
 92
        0
176
     1
 66
   257
176
     1
 43
1.0
176
     1
 76
     1
176
     1
 77
     6
176
     1
 78
     2
176
     1
 67
     7
176
     1
 79
     5
176
     1
170
     0
176
     1
171
     0
176
     1
290
     0
176
     1
 93
        1
176
     1
 44
0.0
176
     1
173
     0
176
     1
  0
VISUALSTYLE
  5
31
102
{ACAD_REACTORS
330
2A
102
}
330
2A
100
AcDbVisualStyle
  2
3D Hidden
 70
     6
177
     2
291
     0
 71
     1
176
     1
 72
     2
176
     1
 73
     2
176
     1
 90
        0
176
     1
 40
-0.6
176
     1
 41
-30.0
176
     1
 62
     5
 63
     7
421
 16777215
176
     1
 74
     2
176
     1
 91
        2
176
     1
 64
     7
176
     1
 65
   257
176
     1
 75
     2
176
     1
175
     1
176
     1
 42
40.0
176
     1
 92
        0
176
     1
 66
   257
176
     1
 43
1.0
176
     1
 76
     1
176
     1
 77
     6
176
     1
 78
     2
176
     1
 67
     7
176
     1
 79
     3
176
     1
170
     0
176
     1
171
     0
176
     1
290
     0
176
     1
 93
        1
176
     1
 44
0.0
176
     1
173
     0
176
     1
  0
VISUALSTYLE
  5
30
102
{ACAD_REACTORS
330
2A
102
}
330
2A
100
AcDbVisualStyle
  2
3dWireframe
 70
     5
177
     2
291
     0
 71
     0
176
     1
 72
     2
176
     1
 73
     0
176
     1
 90
        0
176
     1
 40
-0.6
176
     1
 41
-30.0
176
     1
 62
     5
 63
     7
421
 16777215
176
     1
 74
     1
176
     1
 91
        4
176
     1
 64
     7
176
     1
 65
   257
176
     1
 75
     1
176
     1
175
     1
176
     1
 42
1.0
176
     1
 92
        0
176
     1
 66
   257
176
     1
 43
1.0
176
     1
 76
     1
176
     1
 77
     6
176
     1
 78
     2
176
     1
 67
     7
176
     1
 79
     5
176
     1
170
     0
176
     1
171
     0
176
     1
290
     0
176
     1
 93
        1
176
     1
 44
0.0
176
     1
173
     0
176
     1
  0
VISUALSTYLE
  5
32
102
{ACAD_REACTORS
330
2A
102
}
330
2A
100
AcDbVisualStyle
  2
Basic
 70
     7
177
     2
291
     1
 71
     1
176
     1
 72
     0
176
     1
 73
     1
176
     1
 90
        0
176
     1
 40
-0.6
176
     1
 41
-30.0
176
     1
 62
     5
 63
     7
421
 16777215
176
     1
 74
     0
176
     1
 91
        4
176
     1
 64
     7
176
     1
 65
   257
176
     1
 75
     1
176
     1
175
     1
176
     1
 42
1.0
176
     1
 92
        8
176
     1
 66
     7
176
     1
 43
1.0
176
     1
 76
     1
176
     1
 77
     6
176
     1
 78
     2
176
     1
 67
     7
176
     1
 79
     5
176
     1
170
     0
176
     1
171
     0
176
     1
290
     0
176
     1
 93
        1
176
     1
 44
0.0
176
     1
173
     0
176
     1
  0
VISUALSTYLE
  5
36
102
{ACAD_REACTORS
330
2A
102
}
330
2A
100
AcDbVisualStyle
  2
Brighten
 70
    12
177
     2
291
     1
 71
     2
176
     1
 72
     2
176
     1
 73
     0
176
     1
 90
        0
176
     1
 40
-0.6
176
     1
 41
-30.0
176
     1
 62
     5
 63
     7
421
 16777215
176
     1
 74
     1
176
     1
 91
        4
176
     1
 64
     7
176
     1
 65
   257
176
     1
 75
     1
176
     1
175
     1
176
     1
 42
1.0
176
     1
 92
        8
176
     1
 66
     7
176
     1
 43
1.0
176
     1
 76
     1
176
     1
 77
     6
176
     1
 78
     2
176
     1
 67
     7
176
     1
 79
     5
176
     1
170
     0
176
     1
171
     0
176
     1
290
     0
176
     1
 93
        1
176
     1
 44
50.0
176
     1
173
     0
176
     1
  0
VISUALSTYLE
  5
3A
102
{ACAD_REACTORS
330
2A
102
}
330
2A
100
AcDbVisualStyle
  2
ColorChange
 70
    16
177
     2
291
     1
 71
     2
176
     1
 72
     2
176
     1
 73
     3
176
     1
 90
        0
176
     1
 40
-0.6
176
     1
 41
-30.0
176
     1
 62
     5
 63
     8
421
  8421504
176
     1
 74
     1
176
     1
 91
        4
176
     1
 64
     7
176
     1
 65
   257
176
     1
 75
     1
176
     1
175
     1
176
     1
 42
1.0
176
     1
 92
        8
176
     1
 66
     8
424
  8421504
176
     1
 43
1.0
176
     1
 76
     1
176
     1
 77
     6
176
     1
 78
     2
176
     1
 67
     7
176
     1
 79
     5
176
     1
170
     0
176
     1
171
     0
176
     1
290
     0
176
     1
 93
        1
176
     1
 44
0.0
176
     1
173
     0
176
     1
  0
VISUALSTYLE
  5
34
102
{ACAD_REACTORS
330
2A
102
}
330
2A
100
AcDbVisualStyle
  2
Conceptual
 70
     9
177
     2
291
     0
 71
     3
176
     1
 72
     2
176
     1
 73
     0
176
     1
 90
        0
176
     1
 40
-0.6
176
     1
 41
-30.0
176
     1
 62
     5
 63
     7
421
 16777215
176
     1
 74
     2
176
     1
 91
        2
176
     1
 64
     7
176
     1
 65
   257
176
     1
 75
     1
176
     1
175
     1
176
     1
 42
40.0
176
     1
 92
        8
176
     1
 66
     7
176
     1
 43
1.0
176
     1
 76
     1
176
     1
 77
     6
176
     1
 78
     2
176
     1
 67
     7
176
     1
 79
     3
176
     1
170
     0
176
     1
171
     0
176
     1
290
     0
176
     1
 93
        1
176
     1
 44
0.0
176
     1
173
     0
176
     1
  0
VISUALSTYLE
  5
35
102
{ACAD_REACTORS
330
2A
102
}
330
2A
100
AcDbVisualStyle
  2
Dim
 70
    11
177
     2
291
     1
 71
     2
176
     1
 72
     2
176
     1
 73
     0
176
     1
 90
        0
176
     1
 40
-0.6
176
     1
 41
-30.0
176
     1
 62
     5
 63
     7
421
 16777215
176
     1
 74
     1
176
     1
 91
        4
176
     1
 64
     7
176
     1
 65
   257
176
     1
 75
     1
176
     1
175
     1
176
     1
 42
1.0
176
     1
 92
        8
176
     1
 66
     7
176
     1
 43
1.0
176
     1
 76
     1
176
     1
 77
     6
176
     1
 78
     2
176
     1
 67
     7
176
     1
 79
     5
176
     1
170
     0
176
     1
171
     0
176
     1
290
     0
176
     1
 93
        1
176
     1
 44
-50.0
176
     1
173
     0
176
     1
  0
VISUALSTYLE
  5
39
102
{ACAD_REACTORS
330
2A
102
}
330
2A
100
AcDbVisualStyle
  2
Facepattern
 70
    15
177
     2
291
     1
 71
     2
176
     1
 72
     2
176
     1
 73
     0
176
     1
 90
        0
176
     1
 40
-0.6
176
     1
 41
-30.0
176
     1
 62
     5
 63
     7
421
 16777215
176
     1
 74
     1
176
     1
 91
        4
176
     1
 64
     7
176
     1
 65
   257
176
     1
 75
     1
176
     1
175
     1
176
     1
 42
1.0
176
     1
 92
        8
176
     1
 66
     7
176
     1
 43
1.0
176
     1
 76
     1
176
     1
 77
     6
176
     1
 78
     2
176
     1
 67
     7
176
     1
 79
     5
176
     1
170
     0
176
     1
171
     0
176
     1
290
     0
176
     1
 93
        1
176
     1
 44
0.0
176
     1
173
     0
176
     1
  0
VISUALSTYLE
  5
2B
102
{ACAD_REACTORS
330
2A
102
}
330
2A
100
AcDbVisualStyle
  2
Flat
 70
     0
177
     2
291
     1
 71
     2
176
     1
 72
     1
176
     1
 73
     1
176
     1
 90
        2
176
     1
 40
-0.6
176
     1
 41
30.0
176
     1
 62
     5
 63
     7
421
 16777215
176
     1
 74
     0
176
     1
 91
        4
176
     1
 64
     7
176
     1
 65
   257
176
     1
 75
     1
176
     1
175
     1
176
     1
 42
1.0
176
     1
 92
        8
176
     1
 66
     7
176
     1
 43
1.0
176
     1
 76
     1
176
     1
 77
     6
176
     1
 78
     2
176
     1
 67
     7
176
     1
 79
     5
176
     1
170
     0
176
     1
171
     0
176
     1
290
     0
176
     1
 93
       13
176
     1
 44
0.0
176
     1
173
     0
176
     1
  0
VISUALSTYLE
  5
2C
102
{ACAD_REACTORS
330
2A
102
}
330
2A
100
AcDbVisualStyle
  2
FlatWithEdges
 70
     1
177
     2
291
     1
 71
     2
176
     1
 72
     1
176
     1
 73
     1
176
     1
 90
        2
176
     1
 40
-0.6
176
     1
 41
30.0
176
     1
 62
     5
 63
     7
421
 16777215
176
     1
 74
     1
176
     1
 91
        4
176
     1
 64
     7
176
     1
 65
   257
176
     1
 75
     1
176
     1
175
     1
176
     1
 42
1.0
176
     1
 92
        0
176
     1
 66
   257
176
     1
 43
1.0
176
     1
 76
     1
176
     1
 77
     6
176
     1
 78
     2
176
     1
 67
     7
176
     1
 79
     5
176
     1
170
     0
176
     1
171
     0
176
     1
290
     0
176
     1
 93
       13
176
     1
 44
0.0
176
     1
173
     0
176
     1
  0
VISUALSTYLE
  5
2D
102
{ACAD_REACTORS
330
2A
102
}
330
2A
100
AcDbVisualStyle
  2
Gouraud
 70
     2
177
     2
291
     1
 71
     2
176
     1
 72
     2
176
     1
 73
     1
176
     1
 90
        2
176
     1
 40
-0.6
176
     1
 41
30.0
176
     1
 62
     5
 63
     7
421
 16777215
176
     1
 74
     0
176
     1
 91
        4
176
     1
 64
     7
176
     1
 65
   257
176
     1
 75
     1
176
     1
175
     1
176
     1
 42
1.0
176
     1
 92
        0
176
     1
 66
     7
176
     1
 43
1.0
176
     1
 76
     1
176
     1
 77
     6
176
     1
 78
     2
176
     1
 67
     7
176
     1
 79
     5
176
     1
170
     0
176
     1
171
     0
176
     1
290
     0
176
     1
 93
       13
176
     1
 44
0.0
176
     1
173
     0
176
     1
  0
VISUALSTYLE
  5
2E
102
{ACAD_REACTORS
330
2A
102
}
330
2A
100
AcDbVisualStyle
  2
GouraudWithEdges
 70
     3
177
     2
291
     1
 71
     2
176
     1
 72
     2
176
     1
 73
     1
176
     1
 90
        2
176
     1
 40
-0.6
176
     1
 41
30.0
176
     1
 62
     5
 63
     7
421
 16777215
176
     1
 74
     1
176
     1
 91
        4
176
     1
 64
     7
176
     1
 65
   257
176
     1
 75
     1
176
     1
175
     1
176
     1
 42
1.0
176
     1
 92
        0
176
     1
 66
   257
176
     1
 43
1.0
176
     1
 76
     1
176
     1
 77
     6
176
     1
 78
     2
176
     1
 67
     7
176
     1
 79
     5
176
     1
170
     0
176
     1
171
     0
176
     1
290
     0
176
     1
 93
       13
176
     1
 44
0.0
176
     1
173
     0
176
     1
  0
VISUALSTYLE
  5
38
102
{ACAD_REACTORS
330
2A
102
}
330
2A
100
AcDbVisualStyle
  2
Linepattern
 70
    14
177
     2
291
     1
 71
     2
176
     1
 72
     2
176
     1
 73
     0
176
     1
 90
        0
176
     1
 40
-0.6
176
     1
 41
-30.0
176
     1
 62
     5
 63
     7
421
 16777215
176
     1
 74
     1
176
     1
 91
        4
176
     1
 64
     7
176
     1
 65
   257
176
     1
 75
     7
176
     1
175
     7
176
     1
 42
1.0
176
     1
 92
        8
176
     1
 66
     7
176
     1
 43
1.0
176
     1
 76
     1
176
     1
 77
     6
176
     1
 78
     2
176
     1
 67
     7
176
     1
 79
     5
176
     1
170
     0
176
     1
171
     0
176
     1
290
     0
176
     1
 93
        1
176
     1
 44
0.0
176
     1
173
     0
176
     1
  0
VISUALSTYLE
  5
33
102
{ACAD_REACTORS
330
2A
102
}
330
2A
100
AcDbVisualStyle
  2
Realistic
 70
     8
177
     2
291
     0
 71
     2
176
     1
 72
     2
176
     1
 73
     0
176
     1
 90
        0
176
     1
 40
-0.6
176
     1
 41
-30.0
176
     1
 62
     5
 63
     7
421
 16777215
176
     1
 74
     1
176
     1
 91
        0
176
     1
 64
     7
176
     1
 65
   257
176
     1
 75
     1
176
     1
175
     1
176
     1
 42
1.0
176
     1
 92
        8
176
     1
 66
     8
424
  7895160
176
     1
 43
1.0
176
     1
 76
     1
176
     1
 77
     6
176
     1
 78
     2
176
     1
 67
     7
176
     1
 79
     5
176
     1
170
     0
176
     1
171
     0
176
     1
290
     0
176
     1
 93
       13
176
     1
 44
0.0
176
     1
173
     0
176
     1
  0
VISUALSTYLE
  5
37
102
{ACAD_REACTORS
330
2A
102
}
330
2A
100
AcDbVisualStyle
  2
Thicken
 70
    13
177
     2
291
     1
 71
     2
176
     1
 72
     2
176
     1
 73
     0
176
     1
 90
        0
176
     1
 40
-0.6
176
     1
 41
-30.0
176
     1
 62
     5
 63
     7
421
 16777215
176
     1
 74
     1
176
     1
 91
        4
176
     1
 64
     7
176
     1
 65
   257
176
     1
 75
     1
176
     1
175
     1
176
     1
 42
1.0
176
     1
 92
       12
176
     1
 66
     7
176
     1
 43
1.0
176
     1
 76
     1
176
     1
 77
     6
176
     1
 78
     2
176
     1
 67
     7
176
     1
 79
     5
176
     1
170
     0
176
     1
171
     0
176
     1
290
     0
176
     1
 93
        1
176
     1
 44
0.0
176
     1
173
     0
176
     1
  0
ENDSEC
  0
EOF
