  0
SECTION
  2
HEADER
  9
$ACADVER
  1
AC1024
  9
$ACADMAINTVER
 70
     6
  9
$DWGCODEPAGE
  3
ANSI_932
  9
$INSBASE
 10
0.0
 20
0.0
 30
0.0
  9
$EXTMIN
 10
-4455.0
 20
-3150.0
 30
0.0
  9
$EXTMAX
 10
4455.0
 20
3150.0
 30
0.0
  9
$LIMMIN
 10
-4455.0
 20
-3150.0
  9
$LIMMAX
 10
4455.0
 20
3150.0
  9
$ORTHOMODE
 70
     0
  9
$REGENMODE
 70
     1
  9
$FILLMODE
 70
     1
  9
$QTEXTMODE
 70
     0
  9
$MIRRTEXT
 70
     1
  9
$LTSCALE
 40
30.0
  9
$ATTMODE
 70
     1
  9
$TEXTSIZE
 40
2.5
  9
$TRACEWID
 40
1.0
  9
$TEXTSTYLE
  7
Standard
  9
$CLAYER
  8
0
  9
$CELTYPE
  6
ByLayer
  9
$CECOLOR
 62
   256
  9
$CELTSCALE
 40
1.0
  9
$DISPSILH
 70
     0
  9
$DIMSCALE
 40
1.0
  9
$DIMASZ
 40
2.5
  9
$DIMEXO
 40
0.625
  9
$DIMDLI
 40
3.75
  9
$DIMRND
 40
0.0
  9
$DIMDLE
 40
0.0
  9
$DIMEXE
 40
1.25
  9
$DIMTP
 40
0.0
  9
$DIMTM
 40
0.0
  9
$DIMTXT
 40
2.5
  9
$DIMCEN
 40
2.5
  9
$DIMTSZ
 40
0.0
  9
$DIMTOL
 70
     0
  9
$DIMLIM
 70
     0
  9
$DIMTIH
 70
     0
  9
$DIMTOH
 70
     0
  9
$DIMSE1
 70
     0
  9
$DIMSE2
 70
     0
  9
$DIMTAD
 70
     1
  9
$DIMZIN
 70
     8
  9
$DIMBLK
  1

  9
$DIMASO
 70
     1
  9
$DIMSHO
 70
     1
  9
$DIMPOST
  1

  9
$DIMAPOST
  1

  9
$DIMALT
 70
     0
  9
$DIMALTD
 70
     3
  9
$DIMALTF
 40
0.03937007874016
  9
$DIMLFAC
 40
1.0
  9
$DIMTOFL
 70
     1
  9
$DIMTVP
 40
0.0
  9
$DIMTIX
 70
     0
  9
$DIMSOXD
 70
     0
  9
$DIMSAH
 70
     0
  9
$DIMBLK1
  1

  9
$DIMBLK2
  1

  9
$DIMSTYLE
  2
ISO-25
  9
$DIMCLRD
 70
     0
  9
$DIMCLRE
 70
     0
  9
$DIMCLRT
 70
     0
  9
$DIMTFAC
 40
1.0
  9
$DIMGAP
 40
0.625
  9
$DIMJUST
 70
     0
  9
$DIMSD1
 70
     0
  9
$DIMSD2
 70
     0
  9
$DIMTOLJ
 70
     0
  9
$DIMTZIN
 70
     8
  9
$DIMALTZ
 70
     0
  9
$DIMALTTZ
 70
     0
  9
$DIMUPT
 70
     0
  9
$DIMDEC
 70
     2
  9
$DIMTDEC
 70
     2
  9
$DIMALTU
 70
     2
  9
$DIMALTTD
 70
     3
  9
$DIMTXSTY
  7
Standard
  9
$DIMAUNIT
 70
     0
  9
$DIMADEC
 70
     0
  9
$DIMALTRND
 40
0.0
  9
$DIMAZIN
 70
     0
  9
$DIMDSEP
 70
    44
  9
$DIMATFIT
 70
     3
  9
$DIMFRAC
 70
     0
  9
$DIMLDRBLK
  1

  9
$DIMLUNIT
 70
     2
  9
$DIMLWD
 70
    -2
  9
$DIMLWE
 70
    -2
  9
$DIMTMOVE
 70
     0
  9
$DIMFXL
 40
1.0
  9
$DIMFXLON
 70
     0
  9
$DIMJOGANG
 40
0.7853981633974483
  9
$DIMTFILL
 70
     0
  9
$DIMTFILLCLR
 70
     0
  9
$DIMARCSYM
 70
     0
  9
$DIMLTYPE
  6

  9
$DIMLTEX1
  6

  9
$DIMLTEX2
  6

  9
$DIMTXTDIRECTION
 70
     0
  9
$LUNITS
 70
     2
  9
$LUPREC
 70
     4
  9
$SKETCHINC
 40
1.0
  9
$FILLETRAD
 40
10.0
  9
$AUNITS
 70
     0
  9
$AUPREC
 70
     0
  9
$MENU
  1
.
  9
$ELEVATION
 40
0.0
  9
$PELEVATION
 40
0.0
  9
$THICKNESS
 40
0.0
  9
$LIMCHECK
 70
     0
  9
$CHAMFERA
 40
10.0
  9
$CHAMFERB
 40
10.0
  9
$CHAMFERC
 40
20.0
  9
$CHAMFERD
 40
0.0
  9
$SKPOLY
 70
     0
  9
$TDCREATE
 40
2457953.400320926
  9
$TDUCREATE
 40
2457953.025320926
  9
$TDUPDATE
 40
2457953.400320937
  9
$TDUUPDATE
 40
2457953.025320937
  9
$TDINDWG
 40
0.0000000116
  9
$TDUSRTIMER
 40
0.0000000116
  9
$USRTIMER
 70
     1
  9
$ANGBASE
 50
0.0
  9
$ANGDIR
 70
     0
  9
$PDMODE
 70
     0
  9
$PDSIZE
 40
0.0
  9
$PLINEWID
 40
0.0
  9
$SPLFRAME
 70
     0
  9
$SPLINETYPE
 70
     6
  9
$SPLINESEGS
 70
     8
  9
$HANDSEED
  5
2D6
  9
$SURFTAB1
 70
     6
  9
$SURFTAB2
 70
     6
  9
$SURFTYPE
 70
     6
  9
$SURFU
 70
     6
  9
$SURFV
 70
     6
  9
$UCSBASE
  2

  9
$UCSNAME
  2

  9
$UCSORG
 10
0.0
 20
0.0
 30
0.0
  9
$UCSXDIR
 10
1.0
 20
0.0
 30
0.0
  9
$UCSYDIR
 10
0.0
 20
1.0
 30
0.0
  9
$UCSORTHOREF
  2

  9
$UCSORTHOVIEW
 70
     0
  9
$UCSORGTOP
 10
0.0
 20
0.0
 30
0.0
  9
$UCSORGBOTTOM
 10
0.0
 20
0.0
 30
0.0
  9
$UCSORGLEFT
 10
0.0
 20
0.0
 30
0.0
  9
$UCSORGRIGHT
 10
0.0
 20
0.0
 30
0.0
  9
$UCSORGFRONT
 10
0.0
 20
0.0
 30
0.0
  9
$UCSORGBACK
 10
0.0
 20
0.0
 30
0.0
  9
$PUCSBASE
  2

  9
$PUCSNAME
  2

  9
$PUCSORG
 10
0.0
 20
0.0
 30
0.0
  9
$PUCSXDIR
 10
1.0
 20
0.0
 30
0.0
  9
$PUCSYDIR
 10
0.0
 20
1.0
 30
0.0
  9
$PUCSORTHOREF
  2

  9
$PUCSORTHOVIEW
 70
     0
  9
$PUCSORGTOP
 10
0.0
 20
0.0
 30
0.0
  9
$PUCSORGBOTTOM
 10
0.0
 20
0.0
 30
0.0
  9
$PUCSORGLEFT
 10
0.0
 20
0.0
 30
0.0
  9
$PUCSORGRIGHT
 10
0.0
 20
0.0
 30
0.0
  9
$PUCSORGFRONT
 10
0.0
 20
0.0
 30
0.0
  9
$PUCSORGBACK
 10
0.0
 20
0.0
 30
0.0
  9
$USERI1
 70
     0
  9
$USERI2
 70
     0
  9
$USERI3
 70
     0
  9
$USERI4
 70
     0
  9
$USERI5
 70
     0
  9
$USERR1
 40
0.0
  9
$USERR2
 40
0.0
  9
$USERR3
 40
0.0
  9
$USERR4
 40
0.0
  9
$USERR5
 40
0.0
  9
$WORLDVIEW
 70
     1
  9
$SHADEDGE
 70
     3
  9
$SHADEDIF
 70
    70
  9
$TILEMODE
 70
     1
  9
$MAXACTVP
 70
    64
  9
$PINSBASE
 10
0.0
 20
0.0
 30
0.0
  9
$PLIMCHECK
 70
     0
  9
$PEXTMIN
 10
1.000000000000000E+20
 20
1.000000000000000E+20
 30
1.000000000000000E+20
  9
$PEXTMAX
 10
-1.000000000000000E+20
 20
-1.000000000000000E+20
 30
-1.000000000000000E+20
  9
$PLIMMIN
 10
0.0
 20
0.0
  9
$PLIMMAX
 10
420.0
 20
297.0
  9
$UNITMODE
 70
     0
  9
$VISRETAIN
 70
     1
  9
$PLINEGEN
 70
     0
  9
$PSLTSCALE
 70
     1
  9
$TREEDEPTH
 70
  3020
  9
$CMLSTYLE
  2
Standard
  9
$CMLJUST
 70
     0
  9
$CMLSCALE
 40
20.0
  9
$PROXYGRAPHICS
 70
     1
  9
$MEASUREMENT
 70
     1
  9
$CELWEIGHT
370
    -1
  9
$ENDCAPS
280
     0
  9
$JOINSTYLE
280
     0
  9
$LWDISPLAY
290
     0
  9
$INSUNITS
 70
     4
  9
$HYPERLINKBASE
  1

  9
$STYLESHEET
  1

  9
$XEDIT
290
     1
  9
$CEPSNTYPE
380
     0
  9
$PSTYLEMODE
290
     1
  9
$FINGERPRINTGUID
  2
{873EA29D-C0A4-451E-8821-6DDE1BC56D66}
  9
$VERSIONGUID
  2
{FAEB1C32-E019-11D5-929B-00C0DF256EC4}
  9
$EXTNAMES
290
     1
  9
$PSVPSCALE
 40
0.0
  9
$OLESTARTUP
290
     0
  9
$SORTENTS
280
   127
  9
$INDEXCTL
280
     0
  9
$HIDETEXT
280
     1
  9
$XCLIPFRAME
280
     2
  9
$HALOGAP
280
     0
  9
$OBSCOLOR
 70
   257
  9
$OBSLTYPE
280
     0
  9
$INTERSECTIONDISPLAY
280
     0
  9
$INTERSECTIONCOLOR
 70
   257
  9
$DIMASSOC
280
     2
  9
$PROJECTNAME
  1

  9
$CAMERADISPLAY
290
     0
  9
$LENSLENGTH
 40
50.0
  9
$CAMERAHEIGHT
 40
0.0
  9
$STEPSPERSEC
 40
2.0
  9
$STEPSIZE
 40
6.0
  9
$3DDWFPREC
 40
2.0
  9
$PSOLWIDTH
 40
5.0
  9
$PSOLHEIGHT
 40
80.0
  9
$LOFTANG1
 40
1.570796326794897
  9
$LOFTANG2
 40
1.570796326794897
  9
$LOFTMAG1
 40
0.0
  9
$LOFTMAG2
 40
0.0
  9
$LOFTPARAM
 70
     7
  9
$LOFTNORMALS
280
     1
  9
$LATITUDE
 40
37.795
  9
$LONGITUDE
 40
-122.394
  9
$NORTHDIRECTION
 40
0.0
  9
$TIMEZONE
 70
 -8000
  9
$LIGHTGLYPHDISPLAY
280
     1
  9
$TILEMODELIGHTSYNCH
280
     1
  9
$SOLIDHIST
280
     1
  9
$SHOWHIST
280
     1
  9
$DWFFRAME
280
     2
  9
$DGNFRAME
280
     2
  9
$REALWORLDSCALE
290
     1
  9
$INTERFERECOLOR
 62
   256
  9
$CSHADOW
280
     0
  9
$SHADOWPLANELOCATION
 40
0.0
  0
ENDSEC
  0
SECTION
  2
CLASSES
  0
CLASS
  1
ACDBDICTIONARYWDFLT
  2
AcDbDictionaryWithDefault
  3
ObjectDBX Classes
 90
        0
 91
        4
280
     0
281
     0
  0
CLASS
  1
VISUALSTYLE
  2
AcDbVisualStyle
  3
ObjectDBX Classes
 90
     4095
 91
        4
280
     0
281
     0
  0
CLASS
  1
MATERIAL
  2
AcDbMaterial
  3
ObjectDBX Classes
 90
     1153
 91
        4
280
     0
281
     0
  0
ENDSEC
  0
SECTION
  2
TABLES
  0
TABLE
  2
VPORT
  5
8
330
0
100
AcDbSymbolTable
 70
     1
  0
VPORT
  5
29
330
8
100
AcDbSymbolTableRecord
100
AcDbViewportTableRecord
  2
*Active
 70
     0
 10
0.0
 20
0.0
 11
1.0
 21
1.0
 12
0.0
 22
0.0
 13
0.0
 23
0.0
 14
10.0
 24
10.0
 15
10.0
 25
10.0
 16
0.0
 26
0.0
 36
1.0
 17
0.0
 27
0.0
 37
0.0
 40
6930.000000000001
 41
1.414285714285714
 42
50.0
 43
0.0
 44
0.0
 50
0.0
 51
0.0
 71
     0
 72
 10000
 73
     1
 74
     3
 75
     0
 76
     0
 77
     0
 78
     0
281
     0
 65
     1
110
0.0
120
0.0
130
0.0
111
1.0
121
0.0
131
0.0
112
0.0
122
1.0
132
0.0
 79
     0
146
0.0
 60
     3
 61
     5
292
     1
282
     1
141
0.0
142
0.0
 63
   250
  0
ENDTAB
  0
TABLE
  2
LTYPE
  5
5
330
0
100
AcDbSymbolTable
 70
     2
  0
LTYPE
  5
14
330
5
100
AcDbSymbolTableRecord
100
AcDbLinetypeTableRecord
  2
ByBlock
 70
     0
  3

 72
    65
 73
     0
 40
0.0
  0
LTYPE
  5
15
330
5
100
AcDbSymbolTableRecord
100
AcDbLinetypeTableRecord
  2
ByLayer
 70
     0
  3

 72
    65
 73
     0
 40
0.0
  0
LTYPE
  5
16
330
5
100
AcDbSymbolTableRecord
100
AcDbLinetypeTableRecord
  2
Continuous
 70
     0
  3
Solid line
 72
    65
 73
     0
 40
0.0
  0
LTYPE
  5
3F
330
5
100
AcDbSymbolTableRecord
100
AcDbLinetypeTableRecord
  2
JWW_DASHED1
 70
     0
  3
-  --  --  --  --  --  --  --  -
 72
    65
 73
     2
 40
1.693333333333333
 49
0.8466666666666667
 74
     0
 49
-0.8466666666666667
 74
     0
  0
ENDTAB
  0
TABLE
  2
LAYER
  5
2
330
0
100
AcDbSymbolTable
 70
     3
  0
LAYER
  5
10
330
2
100
AcDbSymbolTableRecord
100
AcDbLayerTableRecord
  2
0
 70
     0
 62
     7
  6
Continuous
370
    -3
390
F
347
3E
  0
LAYER
  5
40
330
2
100
AcDbSymbolTableRecord
100
AcDbLayerTableRecord
  2
0-0
 70
     0
 62
     7
  6
Continuous
370
    -3
390
F
347
3E
  0
LAYER
  5
41
330
2
100
AcDbSymbolTableRecord
100
AcDbLayerTableRecord
  2
寸法
 70
     0
 62
     7
  6
Continuous
370
    -3
390
F
347
3E
  0
ENDTAB
  0
TABLE
  2
STYLE
  5
3
330
0
100
AcDbSymbolTable
 70
     1
  0
STYLE
  5
11
330
3
100
AcDbSymbolTableRecord
100
AcDbTextStyleTableRecord
  2
Standard
 70
     0
 40
0.0
 41
1.0
 50
0.0
 71
     0
 42
2.5
  3
txt
  4

  0
ENDTAB
  0
TABLE
  2
VIEW
  5
6
330
0
100
AcDbSymbolTable
 70
     0
  0
ENDTAB
  0
TABLE
  2
UCS
  5
7
330
0
100
AcDbSymbolTable
 70
     0
  0
ENDTAB
  0
TABLE
  2
APPID
  5
9
330
0
100
AcDbSymbolTable
 70
     1
  0
APPID
  5
12
330
9
100
AcDbSymbolTableRecord
100
AcDbRegAppTableRecord
  2
ACAD
 70
     0
  0
ENDTAB
  0
TABLE
  2
DIMSTYLE
  5
A
330
0
100
AcDbSymbolTable
 70
     1
100
AcDbDimStyleTable
  0
DIMSTYLE
105
27
330
A
100
AcDbSymbolTableRecord
100
AcDbDimStyleTableRecord
  2
ISO-25
 70
     0
 41
2.5
 42
0.625
 43
3.75
 44
1.25
 73
     0
 74
     0
 77
     1
 78
     8
140
2.5
141
2.5
143
0.03937007874016
147
0.625
171
     3
172
     1
178
     0
271
     2
272
     2
274
     3
278
    44
283
     0
284
     8
340
11
  0
ENDTAB
  0
TABLE
  2
BLOCK_RECORD
  5
1
330
0
100
AcDbSymbolTable
 70
     1
  0
BLOCK_RECORD
  5
1F
330
1
100
AcDbSymbolTableRecord
100
AcDbBlockTableRecord
  2
*Model_Space
340
22
 70
     0
280
     1
281
     0
  0
BLOCK_RECORD
  5
1B
330
1
100
AcDbSymbolTableRecord
100
AcDbBlockTableRecord
  2
*Paper_Space
340
1E
 70
     0
280
     1
281
     0
  0
BLOCK_RECORD
  5
23
330
1
100
AcDbSymbolTableRecord
100
AcDbBlockTableRecord
  2
*Paper_Space0
340
26
 70
     0
280
     1
281
     0
  0
ENDTAB
  0
ENDSEC
  0
SECTION
  2
BLOCKS
  0
BLOCK
  5
20
330
1F
100
AcDbEntity
  8
0
100
AcDbBlockBegin
  2
*Model_Space
 70
     0
 10
0.0
 20
0.0
 30
0.0
  3
*Model_Space
  1

  0
ENDBLK
  5
21
330
1F
100
AcDbEntity
  8
0
100
AcDbBlockEnd
  0
BLOCK
  5
1C
330
1B
100
AcDbEntity
 67
     1
  8
0
100
AcDbBlockBegin
  2
*Paper_Space
 70
     0
 10
0.0
 20
0.0
 30
0.0
  3
*Paper_Space
  1

  0
ENDBLK
  5
1D
330
1B
100
AcDbEntity
 67
     1
  8
0
100
AcDbBlockEnd
  0
BLOCK
  5
24
330
23
100
AcDbEntity
  8
0
100
AcDbBlockBegin
  2
*Paper_Space0
 70
     0
 10
0.0
 20
0.0
 30
0.0
  3
*Paper_Space0
  1

  0
ENDBLK
  5
25
330
23
100
AcDbEntity
  8
0
100
AcDbBlockEnd
  0
ENDSEC
  0
SECTION
  2
ENTITIES
  0
LINE
  5
42
330
1F
100
AcDbEntity
  8
0-0
  6
Continuous
 62
    92
370
    13
100
AcDbLine
 10
-1551.993924976399
 20
-1136.763873206593
 30
0.0
 11
-1581.993924976399
 21
-1136.763873206593
 31
0.0
  0
LINE
  5
43
330
1F
100
AcDbEntity
  8
0-0
  6
Continuous
 62
    92
370
    13
100
AcDbLine
 10
1652.006075023601
 20
-1136.763873206593
 30
0.0
 11
1622.006075023601
 21
-1136.763873206593
 31
0.0
  0
LINE
  5
44
330
1F
100
AcDbEntity
  8
0-0
  6
Continuous
 62
    92
370
    13
100
AcDbLine
 10
-1551.993924976399
 20
868.236126793407
 30
0.0
 11
1622.006075023601
 21
868.236126793407
 31
0.0
  0
LINE
  5
45
330
1F
100
AcDbEntity
  8
0-0
  6
Continuous
 62
    92
370
    13
100
AcDbLine
 10
-1581.993924976399
 20
-1136.763873206593
 30
0.0
 11
-1581.993924976399
 21
898.236126793407
 31
0.0
  0
LINE
  5
46
330
1F
100
AcDbEntity
  8
0-0
  6
Continuous
 62
    92
370
    13
100
AcDbLine
 10
1652.006075023601
 20
-1136.763873206593
 30
0.0
 11
1652.006075023601
 21
898.236126793407
 31
0.0
  0
LINE
  5
47
330
1F
100
AcDbEntity
  8
0-0
  6
Continuous
 62
    92
370
    13
100
AcDbLine
 10
-1581.993924976399
 20
898.236126793407
 30
0.0
 11
1652.006075023601
 21
898.236126793407
 31
0.0
  0
LINE
  5
48
330
1F
100
AcDbEntity
  8
0-0
  6
Continuous
 62
    92
370
    13
100
AcDbLine
 10
-1551.993924976399
 20
-1136.763873206593
 30
0.0
 11
-1551.993924976399
 21
898.236126793407
 31
0.0
  0
LINE
  5
49
330
1F
100
AcDbEntity
  8
0-0
  6
Continuous
 62
    92
370
    13
100
AcDbLine
 10
1622.006075023601
 20
-1136.763873206593
 30
0.0
 11
1622.006075023601
 21
898.236126793407
 31
0.0
  0
LINE
  5
4A
330
1F
100
AcDbEntity
  8
0-0
  6
Continuous
 62
    92
370
    13
100
AcDbLine
 10
815.0060750236024
 20
-1136.763873206594
 30
0.0
 11
845.0060750236024
 21
-1136.763873206594
 31
0.0
  0
LINE
  5
4B
330
1F
100
AcDbEntity
  8
0-0
  6
Continuous
 62
    92
370
    13
100
AcDbLine
 10
-774.9939249763993
 20
-1136.763873206594
 30
0.0
 11
-744.9939249763993
 21
-1136.763873206594
 31
0.0
  0
LINE
  5
4C
330
1F
100
AcDbEntity
  8
0-0
  6
Continuous
 62
    92
370
    13
100
AcDbLine
 10
845.0060750236007
 20
854.2361267934061
 30
0.0
 11
35.00607502360069
 21
854.2361267934061
 31
0.0
  0
LINE
  5
4D
330
1F
100
AcDbEntity
  8
0-0
  6
Continuous
 62
    92
370
    13
100
AcDbLine
 10
845.0060750236007
 20
-1128.763873206595
 30
0.0
 11
35.00607502360069
 21
-1128.763873206595
 31
0.0
  0
LINE
  5
4E
330
1F
100
AcDbEntity
  8
0-0
  6
JWW_DASHED1
 62
   120
370
     5
100
AcDbLine
 10
815.0060750236007
 20
-1128.763873206595
 30
0.0
 11
815.0060750236007
 21
854.2361267934061
 31
0.0
  0
LINE
  5
4F
330
1F
100
AcDbEntity
  8
0-0
  6
Continuous
 62
    92
370
    13
100
AcDbLine
 10
845.0060750236007
 20
-1128.763873206595
 30
0.0
 11
845.0060750236007
 21
854.2361267934061
 31
0.0
  0
LINE
  5
50
330
1F
100
AcDbEntity
  8
0-0
  6
Continuous
 62
    92
370
    13
100
AcDbLine
 10
35.00607502360069
 20
-1128.763873206595
 30
0.0
 11
35.00607502360069
 21
854.2361267934061
 31
0.0
  0
LINE
  5
51
330
1F
100
AcDbEntity
  8
0-0
  6
Continuous
 62
    92
370
    13
100
AcDbLine
 10
-774.9939249763993
 20
854.2361267934061
 30
0.0
 11
35.00607502360069
 21
854.2361267934061
 31
0.0
  0
LINE
  5
52
330
1F
100
AcDbEntity
  8
0-0
  6
Continuous
 62
    92
370
    13
100
AcDbLine
 10
-774.9939249763993
 20
-1128.763873206595
 30
0.0
 11
35.00607502360069
 21
-1128.763873206595
 31
0.0
  0
LINE
  5
53
330
1F
100
AcDbEntity
  8
0-0
  6
JWW_DASHED1
 62
   120
370
     5
100
AcDbLine
 10
-744.9939249763993
 20
-1128.763873206595
 30
0.0
 11
-744.9939249763993
 21
854.2361267934061
 31
0.0
  0
LINE
  5
54
330
1F
100
AcDbEntity
  8
0-0
  6
Continuous
 62
    92
370
    13
100
AcDbLine
 10
-774.9939249763993
 20
-1128.763873206595
 30
0.0
 11
-774.9939249763993
 21
854.2361267934061
 31
0.0
  0
LINE
  5
55
330
1F
100
AcDbEntity
  8
0-0
  6
Continuous
 62
     7
370
     9
100
AcDbLine
 10
71.00607502360035
 20
-141.6638732065937
 30
0.0
 11
71.00607502360035
 21
-200.8638732065927
 31
0.0
  0
LINE
  5
56
330
1F
100
AcDbEntity
  8
0-0
  6
Continuous
 62
     7
370
     9
100
AcDbLine
 10
101.0060750236003
 20
-200.8638732065927
 30
0.0
 11
101.0060750236003
 21
-141.6638732065937
 31
0.0
  0
ARC
  5
57
330
1F
100
AcDbEntity
  8
0-0
  6
Continuous
 62
     7
370
     9
100
AcDbCircle
 10
86.00607502360035
 20
-141.6638732065937
 30
0.0
 40
15.0
100
AcDbArc
 50
0.0
 51
180.0
  0
ARC
  5
58
330
1F
100
AcDbEntity
  8
0-0
  6
Continuous
 62
     7
370
     9
100
AcDbCircle
 10
86.00607502360035
 20
-200.8638732065927
 30
0.0
 40
15.0
100
AcDbArc
 50
180.0
 51
0.0
  0
ARC
  5
59
330
1F
100
AcDbEntity
  8
0-0
  6
Continuous
 62
    92
370
    13
100
AcDbCircle
 10
66.50607502359932
 20
-230.7638732065928
 30
0.0
 40
1.5
100
AcDbArc
 50
180.0
 51
270.0
  0
LINE
  5
5A
330
1F
100
AcDbEntity
  8
0-0
  6
Continuous
 62
    92
370
    13
100
AcDbLine
 10
65.00607502360069
 20
-230.7638732065928
 30
0.0
 11
65.00607502360069
 21
-111.7638732065936
 31
0.0
  0
LINE
  5
5B
330
1F
100
AcDbEntity
  8
0-0
  6
Continuous
 62
    92
370
    13
100
AcDbLine
 10
66.50607502359932
 20
-232.2638732065957
 30
0.0
 11
105.5060750236014
 21
-232.2638732065957
 31
0.0
  0
ARC
  5
5C
330
1F
100
AcDbEntity
  8
0-0
  6
Continuous
 62
    92
370
    13
100
AcDbCircle
 10
105.5060750236014
 20
-230.7638732065928
 30
0.0
 40
1.5
100
AcDbArc
 50
270.0
 51
0.0
  0
LINE
  5
5D
330
1F
100
AcDbEntity
  8
0-0
  6
Continuous
 62
    92
370
    13
100
AcDbLine
 10
107.0060750236017
 20
-230.7638732065928
 30
0.0
 11
107.0060750236017
 21
-111.7638732065936
 31
0.0
  0
ARC
  5
5E
330
1F
100
AcDbEntity
  8
0-0
  6
Continuous
 62
    92
370
    13
100
AcDbCircle
 10
105.5060750236014
 20
-111.7638732065936
 30
0.0
 40
1.5
100
AcDbArc
 50
0.0
 51
90.00000000000001
  0
LINE
  5
5F
330
1F
100
AcDbEntity
  8
0-0
  6
Continuous
 62
    92
370
    13
100
AcDbLine
 10
105.5060750236014
 20
-110.2638732065932
 30
0.0
 11
66.50607502359932
 21
-110.2638732065932
 31
0.0
  0
ARC
  5
60
330
1F
100
AcDbEntity
  8
0-0
  6
Continuous
 62
    92
370
    13
100
AcDbCircle
 10
66.50607502359932
 20
-111.7638732065936
 30
0.0
 40
1.5
100
AcDbArc
 50
90.0
 51
180.0
  0
LINE
  5
61
330
1F
100
AcDbEntity
  8
0-0
  6
Continuous
 62
     7
370
     9
100
AcDbLine
 10
-30.99392497639727
 20
-141.6638732065937
 30
0.0
 11
-30.99392497639727
 21
-200.8638732065927
 31
0.0
  0
LINE
  5
62
330
1F
100
AcDbEntity
  8
0-0
  6
Continuous
 62
     7
370
     9
100
AcDbLine
 10
-0.9939249763972668
 20
-200.8638732065927
 30
0.0
 11
-0.9939249763972668
 21
-141.6638732065937
 31
0.0
  0
ARC
  5
63
330
1F
100
AcDbEntity
  8
0-0
  6
Continuous
 62
     7
370
     9
100
AcDbCircle
 10
-15.99392497639727
 20
-141.6638732065937
 30
0.0
 40
15.0
100
AcDbArc
 50
0.0
 51
180.0
  0
ARC
  5
64
330
1F
100
AcDbEntity
  8
0-0
  6
Continuous
 62
     7
370
     9
100
AcDbCircle
 10
-15.99392497639727
 20
-200.8638732065927
 30
0.0
 40
15.0
100
AcDbArc
 50
180.0
 51
0.0
  0
ARC
  5
65
330
1F
100
AcDbEntity
  8
0-0
  6
Continuous
 62
    92
370
    13
100
AcDbCircle
 10
-35.49392497639658
 20
-230.7638732065928
 30
0.0
 40
1.5
100
AcDbArc
 50
180.0
 51
270.0
  0
LINE
  5
66
330
1F
100
AcDbEntity
  8
0-0
  6
Continuous
 62
    92
370
    13
100
AcDbLine
 10
-36.99392497639693
 20
-230.7638732065928
 30
0.0
 11
-36.99392497639693
 21
-111.7638732065936
 31
0.0
  0
LINE
  5
67
330
1F
100
AcDbEntity
  8
0-0
  6
Continuous
 62
    92
370
    13
100
AcDbLine
 10
-35.49392497639658
 20
-232.2638732065957
 30
0.0
 11
3.506075023602051
 21
-232.2638732065957
 31
0.0
  0
ARC
  5
68
330
1F
100
AcDbEntity
  8
0-0
  6
Continuous
 62
    92
370
    13
100
AcDbCircle
 10
3.506075023602051
 20
-230.7638732065928
 30
0.0
 40
1.5
100
AcDbArc
 50
270.0
 51
0.0
  0
LINE
  5
69
330
1F
100
AcDbEntity
  8
0-0
  6
Continuous
 62
    92
370
    13
100
AcDbLine
 10
5.006075023602392
 20
-230.7638732065928
 30
0.0
 11
5.006075023602392
 21
-111.7638732065936
 31
0.0
  0
ARC
  5
6A
330
1F
100
AcDbEntity
  8
0-0
  6
Continuous
 62
    92
370
    13
100
AcDbCircle
 10
3.506075023602051
 20
-111.7638732065936
 30
0.0
 40
1.5
100
AcDbArc
 50
0.0
 51
90.00000000000001
  0
LINE
  5
6B
330
1F
100
AcDbEntity
  8
0-0
  6
Continuous
 62
    92
370
    13
100
AcDbLine
 10
3.506075023602051
 20
-110.2638732065932
 30
0.0
 11
-35.49392497639658
 21
-110.2638732065932
 31
0.0
  0
ARC
  5
6C
330
1F
100
AcDbEntity
  8
0-0
  6
Continuous
 62
    92
370
    13
100
AcDbCircle
 10
-35.49392497639658
 20
-111.7638732065936
 30
0.0
 40
1.5
100
AcDbArc
 50
90.0
 51
180.0
  0
LINE
  5
6D
330
1F
100
AcDbEntity
  8
0-0
  6
JWW_DASHED1
 62
   120
370
     5
100
AcDbLine
 10
-744.9939249763976
 20
-1128.763873206595
 30
0.0
 11
-744.9939249763976
 21
868.236126793407
 31
0.0
  0
LINE
  5
6E
330
1F
100
AcDbEntity
  8
0-0
  6
JWW_DASHED1
 62
   120
370
     5
100
AcDbLine
 10
-774.9939249763976
 20
-1128.763873206595
 30
0.0
 11
-774.9939249763976
 21
868.236126793407
 31
0.0
  0
LINE
  5
6F
330
1F
100
AcDbEntity
  8
0-0
  6
JWW_DASHED1
 62
   120
370
     5
100
AcDbLine
 10
845.0060750236024
 20
-1128.763873206595
 30
0.0
 11
845.0060750236024
 21
868.236126793407
 31
0.0
  0
LINE
  5
70
330
1F
100
AcDbEntity
  8
0-0
  6
JWW_DASHED1
 62
   120
370
     5
100
AcDbLine
 10
815.0060750236024
 20
-1128.763873206595
 30
0.0
 11
815.0060750236024
 21
868.236126793407
 31
0.0
  0
LINE
  5
71
330
1F
100
AcDbEntity
  8
0-0
  6
Continuous
 62
    92
370
    13
100
AcDbLine
 10
845.0060750236024
 20
-1128.763873206595
 30
0.0
 11
845.0060750236024
 21
-1136.763873206594
 31
0.0
  0
LINE
  5
72
330
1F
100
AcDbEntity
  8
0-0
  6
Continuous
 62
    92
370
    13
100
AcDbLine
 10
815.0060750236024
 20
-1128.763873206595
 30
0.0
 11
815.0060750236024
 21
-1136.763873206594
 31
0.0
  0
LINE
  5
73
330
1F
100
AcDbEntity
  8
0-0
  6
Continuous
 62
    92
370
    13
100
AcDbLine
 10
-744.9939249763993
 20
-1128.763873206595
 30
0.0
 11
-744.9939249763993
 21
-1136.763873206594
 31
0.0
  0
LINE
  5
74
330
1F
100
AcDbEntity
  8
0-0
  6
Continuous
 62
    92
370
    13
100
AcDbLine
 10
-774.9939249763993
 20
-1128.763873206595
 30
0.0
 11
-774.9939249763993
 21
-1136.763873206594
 31
0.0
  0
LINE
  5
75
330
1F
100
AcDbEntity
  8
0-0
  6
Continuous
 62
     7
370
     9
100
AcDbLine
 10
-656.4939249763996
 20
-978.7638732065946
 30
0.0
 11
-671.4939249763996
 21
-993.7638732065948
 31
0.0
  0
LINE
  5
76
330
1F
100
AcDbEntity
  8
0-0
  6
Continuous
 62
     7
370
     9
100
AcDbLine
 10
-671.4939249763996
 20
-1128.763873206595
 30
0.0
 11
-671.4939249763996
 21
854.2361267934052
 31
0.0
  0
LINE
  5
77
330
1F
100
AcDbEntity
  8
0-0
  6
Continuous
 62
     7
370
     9
100
AcDbLine
 10
-83.49392497639897
 20
-978.7638732065946
 30
0.0
 11
-68.49392497639897
 21
-993.7638732065948
 31
0.0
  0
LINE
  5
78
330
1F
100
AcDbEntity
  8
0-0
  6
Continuous
 62
     7
370
     9
100
AcDbLine
 10
-68.49392497639897
 20
-1128.763873206595
 30
0.0
 11
-68.49392497639897
 21
854.2361267934052
 31
0.0
  0
LINE
  5
79
330
1F
100
AcDbEntity
  8
0-0
  6
Continuous
 62
     7
370
     9
100
AcDbLine
 10
-671.4939249763996
 20
-993.7638732065948
 30
0.0
 11
-68.49392497639897
 21
-993.7638732065948
 31
0.0
  0
LINE
  5
7A
330
1F
100
AcDbEntity
  8
0-0
  6
Continuous
 62
     7
370
     9
100
AcDbLine
 10
-656.4939249763996
 20
-455.7638732065945
 30
0.0
 11
-671.4939249763996
 21
-470.7638732065945
 31
0.0
  0
LINE
  5
7B
330
1F
100
AcDbEntity
  8
0-0
  6
Continuous
 62
     7
370
     9
100
AcDbLine
 10
-671.4939249763996
 20
-545.7638732065946
 30
0.0
 11
-656.4939249763996
 21
-560.7638732065946
 31
0.0
  0
LINE
  5
7C
330
1F
100
AcDbEntity
  8
0-0
  6
Continuous
 62
     7
370
     9
100
AcDbLine
 10
-83.49392497639897
 20
-455.7638732065945
 30
0.0
 11
-68.49392497639897
 21
-470.7638732065945
 31
0.0
  0
LINE
  5
7D
330
1F
100
AcDbEntity
  8
0-0
  6
Continuous
 62
     7
370
     9
100
AcDbLine
 10
-68.49392497639897
 20
-545.7638732065946
 30
0.0
 11
-83.49392497639897
 21
-560.7638732065946
 31
0.0
  0
LINE
  5
7E
330
1F
100
AcDbEntity
  8
0-0
  6
Continuous
 62
     7
370
     9
100
AcDbLine
 10
-671.4939249763996
 20
-470.7638732065945
 30
0.0
 11
-68.49392497639897
 21
-470.7638732065945
 31
0.0
  0
LINE
  5
7F
330
1F
100
AcDbEntity
  8
0-0
  6
Continuous
 62
     7
370
     9
100
AcDbLine
 10
-671.4939249763996
 20
-545.7638732065946
 30
0.0
 11
-68.49392497639897
 21
-545.7638732065946
 31
0.0
  0
LINE
  5
80
330
1F
100
AcDbEntity
  8
0-0
  6
Continuous
 62
     7
370
     9
100
AcDbLine
 10
-626.4939249763996
 20
-948.7638732065946
 30
0.0
 11
-626.4939249763996
 21
-590.7638732065946
 31
0.0
  0
LINE
  5
81
330
1F
100
AcDbEntity
  8
0-0
  6
Continuous
 62
     7
370
     9
100
AcDbLine
 10
-626.4939249763996
 20
-948.7638732065946
 30
0.0
 11
-641.4939249763996
 21
-963.7638732065946
 31
0.0
  0
LINE
  5
82
330
1F
100
AcDbEntity
  8
0-0
  6
Continuous
 62
     7
370
     9
100
AcDbLine
 10
-641.4939249763996
 20
-575.7638732065946
 30
0.0
 11
-626.4939249763996
 21
-590.7638732065946
 31
0.0
  0
LINE
  5
83
330
1F
100
AcDbEntity
  8
0-0
  6
Continuous
 62
     7
370
     9
100
AcDbLine
 10
-113.493924976399
 20
-948.7638732065946
 30
0.0
 11
-98.49392497639897
 21
-963.7638732065946
 31
0.0
  0
LINE
  5
84
330
1F
100
AcDbEntity
  8
0-0
  6
Continuous
 62
     7
370
     9
100
AcDbLine
 10
-98.49392497639897
 20
-575.7638732065946
 30
0.0
 11
-113.493924976399
 21
-590.7638732065946
 31
0.0
  0
LINE
  5
85
330
1F
100
AcDbEntity
  8
0-0
  6
Continuous
 62
     7
370
     9
100
AcDbLine
 10
-626.4939249763996
 20
-590.7638732065946
 30
0.0
 11
-113.493924976399
 21
-590.7638732065946
 31
0.0
  0
LINE
  5
86
330
1F
100
AcDbEntity
  8
0-0
  6
Continuous
 62
     7
370
     9
100
AcDbLine
 10
-113.493924976399
 20
-948.7638732065946
 30
0.0
 11
-113.493924976399
 21
-590.7638732065946
 31
0.0
  0
LINE
  5
87
330
1F
100
AcDbEntity
  8
0-0
  6
Continuous
 62
     7
370
     9
100
AcDbLine
 10
-626.4939249763996
 20
-948.7638732065946
 30
0.0
 11
-113.493924976399
 21
-948.7638732065946
 31
0.0
  0
LINE
  5
88
330
1F
100
AcDbEntity
  8
0-0
  6
Continuous
 62
     7
370
     9
100
AcDbLine
 10
-656.4939249764013
 20
659.2358592490971
 30
0.0
 11
-671.4943208853454
 21
674.236255158038
 31
0.0
  0
LINE
  5
89
330
1F
100
AcDbEntity
  8
0-0
  6
Continuous
 62
     7
370
     9
100
AcDbLine
 10
-83.49392497639897
 20
659.2358592490971
 30
0.0
 11
-68.49392497639897
 21
674.2358592490971
 31
0.0
  0
ARC
  5
8A
330
1F
100
AcDbEntity
  8
0-0
  6
Continuous
 62
     7
370
     9
100
AcDbCircle
 10
-607.4812624049878
 20
809.2358592490971
 30
0.0
 40
135.0
100
AcDbArc
 50
270.0
 51
298.3577011236671
  0
ARC
  5
8B
330
1F
100
AcDbEntity
  8
0-0
  6
Continuous
 62
     7
370
     9
100
AcDbCircle
 10
-132.5065875478117
 20
809.2358592490971
 30
0.0
 40
135.0
100
AcDbArc
 50
241.6422988763328
 51
270.0
  0
ARC
  5
8C
330
1F
100
AcDbEntity
  8
0-0
  6
Continuous
 62
     7
370
     9
100
AcDbCircle
 10
-369.9939249763997
 20
369.2361267934055
 30
0.0
 40
365.0
100
AcDbArc
 50
61.64229887633292
 51
118.3577011236671
  0
LINE
  5
8D
330
1F
100
AcDbEntity
  8
0-0
  6
Continuous
 62
     7
370
     9
100
AcDbLine
 10
-671.4939744643688
 20
674.235908737061
 30
0.0
 11
-607.4812624049878
 21
674.235908737061
 31
0.0
  0
LINE
  5
8E
330
1F
100
AcDbEntity
  8
0-0
  6
Continuous
 62
     7
370
     9
100
AcDbLine
 10
-68.49387548843325
 20
674.235908737061
 30
0.0
 11
-132.5065875478117
 21
674.235908737061
 31
0.0
  0
LINE
  5
8F
330
1F
100
AcDbEntity
  8
0-0
  6
Continuous
 62
    92
370
    13
100
AcDbLine
 10
-656.4939249763996
 20
-978.7638732065946
 30
0.0
 11
-83.49392497639897
 21
-978.7638732065946
 31
0.0
  0
LINE
  5
90
330
1F
100
AcDbEntity
  8
0-0
  6
Continuous
 62
    92
370
    13
100
AcDbLine
 10
-656.4939249763996
 20
-560.7638732065946
 30
0.0
 11
-83.49392497639897
 21
-560.7638732065946
 31
0.0
  0
LINE
  5
91
330
1F
100
AcDbEntity
  8
0-0
  6
Continuous
 62
    92
370
    13
100
AcDbLine
 10
-656.4939249763996
 20
-978.7638732065946
 30
0.0
 11
-656.4939249763996
 21
-560.7638732065946
 31
0.0
  0
LINE
  5
92
330
1F
100
AcDbEntity
  8
0-0
  6
Continuous
 62
    92
370
    13
100
AcDbLine
 10
-83.49392497639897
 20
-978.7638732065946
 30
0.0
 11
-83.49392497639897
 21
-560.7638732065946
 31
0.0
  0
LINE
  5
93
330
1F
100
AcDbEntity
  8
0-0
  6
Continuous
 62
    92
370
    13
100
AcDbLine
 10
-83.49392497639897
 20
659.2358592490971
 30
0.0
 11
-132.5065875478117
 21
659.2358592490971
 31
0.0
  0
ARC
  5
94
330
1F
100
AcDbEntity
  8
0-0
  6
Continuous
 62
    92
370
    13
100
AcDbCircle
 10
-132.5065875478117
 20
809.2358592490971
 30
0.0
 40
150.0
100
AcDbArc
 50
241.6422988763328
 51
270.0
  0
ARC
  5
95
330
1F
100
AcDbEntity
  8
0-0
  6
Continuous
 62
    92
370
    13
100
AcDbCircle
 10
-369.9939249763997
 20
369.2361267934055
 30
0.0
 40
350.0
100
AcDbArc
 50
61.64229887633292
 51
118.3577011236671
  0
ARC
  5
96
330
1F
100
AcDbEntity
  8
0-0
  6
Continuous
 62
    92
370
    13
100
AcDbCircle
 10
-607.4812624049878
 20
809.2358592490971
 30
0.0
 40
150.0
100
AcDbArc
 50
270.0
 51
298.3577011236671
  0
LINE
  5
97
330
1F
100
AcDbEntity
  8
0-0
  6
Continuous
 62
    92
370
    13
100
AcDbLine
 10
-656.4939249764013
 20
659.2358592490971
 30
0.0
 11
-607.4812624049878
 21
659.2358592490971
 31
0.0
  0
LINE
  5
98
330
1F
100
AcDbEntity
  8
0-0
  6
Continuous
 62
    92
370
    13
100
AcDbLine
 10
-656.4939249763996
 20
-455.7638732065945
 30
0.0
 11
-656.4939249763996
 21
659.2358592490971
 31
0.0
  0
LINE
  5
99
330
1F
100
AcDbEntity
  8
0-0
  6
Continuous
 62
    92
370
    13
100
AcDbLine
 10
-656.4939249763996
 20
-455.7638732065945
 30
0.0
 11
-83.49392497639897
 21
-455.7638732065945
 31
0.0
  0
LINE
  5
9A
330
1F
100
AcDbEntity
  8
0-0
  6
Continuous
 62
    92
370
    13
100
AcDbLine
 10
-83.49392497639897
 20
-455.7638732065945
 30
0.0
 11
-83.49392497639897
 21
659.2358592490971
 31
0.0
  0
LINE
  5
9B
330
1F
100
AcDbEntity
  8
0-0
  6
Continuous
 62
     7
370
     9
100
AcDbLine
 10
153.5060750236003
 20
-978.7638732065946
 30
0.0
 11
138.5060750236003
 21
-993.7638732065948
 31
0.0
  0
LINE
  5
9C
330
1F
100
AcDbEntity
  8
0-0
  6
Continuous
 62
     7
370
     9
100
AcDbLine
 10
138.5060750236003
 20
-1128.763873206595
 30
0.0
 11
138.5060750236003
 21
854.2361267934052
 31
0.0
  0
LINE
  5
9D
330
1F
100
AcDbEntity
  8
0-0
  6
Continuous
 62
     7
370
     9
100
AcDbLine
 10
726.506075023601
 20
-978.7638732065946
 30
0.0
 11
741.506075023601
 21
-993.7638732065948
 31
0.0
  0
LINE
  5
9E
330
1F
100
AcDbEntity
  8
0-0
  6
Continuous
 62
     7
370
     9
100
AcDbLine
 10
741.506075023601
 20
-1128.763873206595
 30
0.0
 11
741.506075023601
 21
854.2361267934052
 31
0.0
  0
LINE
  5
9F
330
1F
100
AcDbEntity
  8
0-0
  6
Continuous
 62
     7
370
     9
100
AcDbLine
 10
138.5060750236003
 20
-993.7638732065948
 30
0.0
 11
741.506075023601
 21
-993.7638732065948
 31
0.0
  0
LINE
  5
A0
330
1F
100
AcDbEntity
  8
0-0
  6
Continuous
 62
     7
370
     9
100
AcDbLine
 10
153.5060750236003
 20
-455.7638732065945
 30
0.0
 11
138.5060750236003
 21
-470.7638732065945
 31
0.0
  0
LINE
  5
A1
330
1F
100
AcDbEntity
  8
0-0
  6
Continuous
 62
     7
370
     9
100
AcDbLine
 10
138.5060750236003
 20
-545.7638732065946
 30
0.0
 11
153.5060750236003
 21
-560.7638732065946
 31
0.0
  0
LINE
  5
A2
330
1F
100
AcDbEntity
  8
0-0
  6
Continuous
 62
     7
370
     9
100
AcDbLine
 10
726.506075023601
 20
-455.7638732065945
 30
0.0
 11
741.506075023601
 21
-470.7638732065945
 31
0.0
  0
LINE
  5
A3
330
1F
100
AcDbEntity
  8
0-0
  6
Continuous
 62
     7
370
     9
100
AcDbLine
 10
741.506075023601
 20
-545.7638732065946
 30
0.0
 11
726.506075023601
 21
-560.7638732065946
 31
0.0
  0
LINE
  5
A4
330
1F
100
AcDbEntity
  8
0-0
  6
Continuous
 62
     7
370
     9
100
AcDbLine
 10
138.5060750236003
 20
-470.7638732065945
 30
0.0
 11
741.506075023601
 21
-470.7638732065945
 31
0.0
  0
LINE
  5
A5
330
1F
100
AcDbEntity
  8
0-0
  6
Continuous
 62
     7
370
     9
100
AcDbLine
 10
138.5060750236003
 20
-545.7638732065946
 30
0.0
 11
741.506075023601
 21
-545.7638732065946
 31
0.0
  0
LINE
  5
A6
330
1F
100
AcDbEntity
  8
0-0
  6
Continuous
 62
     7
370
     9
100
AcDbLine
 10
183.5060750236003
 20
-948.7638732065946
 30
0.0
 11
183.5060750236003
 21
-590.7638732065946
 31
0.0
  0
LINE
  5
A7
330
1F
100
AcDbEntity
  8
0-0
  6
Continuous
 62
     7
370
     9
100
AcDbLine
 10
183.5060750236003
 20
-948.7638732065946
 30
0.0
 11
168.5060750236003
 21
-963.7638732065946
 31
0.0
  0
LINE
  5
A8
330
1F
100
AcDbEntity
  8
0-0
  6
Continuous
 62
     7
370
     9
100
AcDbLine
 10
168.5060750236003
 20
-575.7638732065946
 30
0.0
 11
183.5060750236003
 21
-590.7638732065946
 31
0.0
  0
LINE
  5
A9
330
1F
100
AcDbEntity
  8
0-0
  6
Continuous
 62
     7
370
     9
100
AcDbLine
 10
696.506075023601
 20
-948.7638732065946
 30
0.0
 11
711.506075023601
 21
-963.7638732065946
 31
0.0
  0
LINE
  5
AA
330
1F
100
AcDbEntity
  8
0-0
  6
Continuous
 62
     7
370
     9
100
AcDbLine
 10
711.506075023601
 20
-575.7638732065946
 30
0.0
 11
696.506075023601
 21
-590.7638732065946
 31
0.0
  0
LINE
  5
AB
330
1F
100
AcDbEntity
  8
0-0
  6
Continuous
 62
     7
370
     9
100
AcDbLine
 10
183.5060750236003
 20
-590.7638732065946
 30
0.0
 11
696.506075023601
 21
-590.7638732065946
 31
0.0
  0
LINE
  5
AC
330
1F
100
AcDbEntity
  8
0-0
  6
Continuous
 62
     7
370
     9
100
AcDbLine
 10
696.506075023601
 20
-948.7638732065946
 30
0.0
 11
696.506075023601
 21
-590.7638732065946
 31
0.0
  0
LINE
  5
AD
330
1F
100
AcDbEntity
  8
0-0
  6
Continuous
 62
     7
370
     9
100
AcDbLine
 10
183.5060750236003
 20
-948.7638732065946
 30
0.0
 11
696.506075023601
 21
-948.7638732065946
 31
0.0
  0
LINE
  5
AE
330
1F
100
AcDbEntity
  8
0-0
  6
Continuous
 62
     7
370
     9
100
AcDbLine
 10
153.5060750235986
 20
659.2358592490971
 30
0.0
 11
138.5056791146546
 21
674.236255158038
 31
0.0
  0
LINE
  5
AF
330
1F
100
AcDbEntity
  8
0-0
  6
Continuous
 62
     7
370
     9
100
AcDbLine
 10
726.506075023601
 20
659.2358592490971
 30
0.0
 11
741.506075023601
 21
674.2358592490971
 31
0.0
  0
ARC
  5
B0
330
1F
100
AcDbEntity
  8
0-0
  6
Continuous
 62
     7
370
     9
100
AcDbCircle
 10
202.5187375950122
 20
809.2358592490971
 30
0.0
 40
135.0
100
AcDbArc
 50
270.0
 51
298.3577011236671
  0
ARC
  5
B1
330
1F
100
AcDbEntity
  8
0-0
  6
Continuous
 62
     7
370
     9
100
AcDbCircle
 10
677.4934124521883
 20
809.2358592490971
 30
0.0
 40
135.0
100
AcDbArc
 50
241.6422988763328
 51
270.0
  0
ARC
  5
B2
330
1F
100
AcDbEntity
  8
0-0
  6
Continuous
 62
     7
370
     9
100
AcDbCircle
 10
440.0060750236003
 20
369.2361267934055
 30
0.0
 40
365.0
100
AcDbArc
 50
61.64229887633292
 51
118.3577011236671
  0
LINE
  5
B3
330
1F
100
AcDbEntity
  8
0-0
  6
Continuous
 62
     7
370
     9
100
AcDbLine
 10
138.5060255356312
 20
674.235908737061
 30
0.0
 11
202.5187375950122
 21
674.235908737061
 31
0.0
  0
LINE
  5
B4
330
1F
100
AcDbEntity
  8
0-0
  6
Continuous
 62
     7
370
     9
100
AcDbLine
 10
741.5061245115668
 20
674.235908737061
 30
0.0
 11
677.4934124521883
 21
674.235908737061
 31
0.0
  0
LINE
  5
B5
330
1F
100
AcDbEntity
  8
0-0
  6
Continuous
 62
    92
370
    13
100
AcDbLine
 10
153.5060750236003
 20
-978.7638732065946
 30
0.0
 11
726.506075023601
 21
-978.7638732065946
 31
0.0
  0
LINE
  5
B6
330
1F
100
AcDbEntity
  8
0-0
  6
Continuous
 62
    92
370
    13
100
AcDbLine
 10
153.5060750236003
 20
-560.7638732065946
 30
0.0
 11
726.506075023601
 21
-560.7638732065946
 31
0.0
  0
LINE
  5
B7
330
1F
100
AcDbEntity
  8
0-0
  6
Continuous
 62
    92
370
    13
100
AcDbLine
 10
153.5060750236003
 20
-978.7638732065946
 30
0.0
 11
153.5060750236003
 21
-560.7638732065946
 31
0.0
  0
LINE
  5
B8
330
1F
100
AcDbEntity
  8
0-0
  6
Continuous
 62
    92
370
    13
100
AcDbLine
 10
726.506075023601
 20
-978.7638732065946
 30
0.0
 11
726.506075023601
 21
-560.7638732065946
 31
0.0
  0
LINE
  5
B9
330
1F
100
AcDbEntity
  8
0-0
  6
Continuous
 62
    92
370
    13
100
AcDbLine
 10
726.506075023601
 20
659.2358592490971
 30
0.0
 11
677.4934124521883
 21
659.2358592490971
 31
0.0
  0
ARC
  5
BA
330
1F
100
AcDbEntity
  8
0-0
  6
Continuous
 62
    92
370
    13
100
AcDbCircle
 10
677.4934124521883
 20
809.2358592490971
 30
0.0
 40
150.0
100
AcDbArc
 50
241.6422988763328
 51
270.0
  0
ARC
  5
BB
330
1F
100
AcDbEntity
  8
0-0
  6
Continuous
 62
    92
370
    13
100
AcDbCircle
 10
440.0060750236003
 20
369.2361267934055
 30
0.0
 40
350.0
100
AcDbArc
 50
61.64229887633292
 51
118.3577011236671
  0
ARC
  5
BC
330
1F
100
AcDbEntity
  8
0-0
  6
Continuous
 62
    92
370
    13
100
AcDbCircle
 10
202.5187375950122
 20
809.2358592490971
 30
0.0
 40
150.0
100
AcDbArc
 50
270.0
 51
298.3577011236671
  0
LINE
  5
BD
330
1F
100
AcDbEntity
  8
0-0
  6
Continuous
 62
    92
370
    13
100
AcDbLine
 10
153.5060750235986
 20
659.2358592490971
 30
0.0
 11
202.5187375950122
 21
659.2358592490971
 31
0.0
  0
LINE
  5
BE
330
1F
100
AcDbEntity
  8
0-0
  6
Continuous
 62
    92
370
    13
100
AcDbLine
 10
153.5060750236003
 20
-455.7638732065945
 30
0.0
 11
153.5060750236003
 21
659.2358592490971
 31
0.0
  0
LINE
  5
BF
330
1F
100
AcDbEntity
  8
0-0
  6
Continuous
 62
    92
370
    13
100
AcDbLine
 10
153.5060750236003
 20
-455.7638732065945
 30
0.0
 11
726.506075023601
 21
-455.7638732065945
 31
0.0
  0
LINE
  5
C0
330
1F
100
AcDbEntity
  8
0-0
  6
Continuous
 62
    92
370
    13
100
AcDbLine
 10
726.506075023601
 20
-455.7638732065945
 30
0.0
 11
726.506075023601
 21
659.2358592490971
 31
0.0
  0
LINE
  5
C1
330
1F
100
AcDbEntity
  8
0-0
  6
JWW_DASHED1
 62
   120
370
     5
100
AcDbLine
 10
-656.4939249763996
 20
-454.7640215205381
 30
0.0
 11
-83.49392497639897
 21
-454.7640215205381
 31
0.0
  0
LINE
  5
C2
330
1F
100
AcDbEntity
  8
0-0
  6
JWW_DASHED1
 62
   120
370
     5
100
AcDbLine
 10
-656.4939249763996
 20
-441.7640215194385
 30
0.0
 11
-83.49392497639897
 21
-441.7640215194385
 31
0.0
  0
LINE
  5
C3
330
1F
100
AcDbEntity
  8
0-0
  6
JWW_DASHED1
 62
   120
370
     5
100
AcDbLine
 10
-656.4939249763996
 20
-440.7640215195383
 30
0.0
 11
-83.49392497639897
 21
-440.7640215195383
 31
0.0
  0
LINE
  5
C4
330
1F
100
AcDbEntity
  8
0-0
  6
JWW_DASHED1
 62
   120
370
     5
100
AcDbLine
 10
-656.4939249763996
 20
-427.7640215184387
 30
0.0
 11
-83.49392497639897
 21
-427.7640215184387
 31
0.0
  0
LINE
  5
C5
330
1F
100
AcDbEntity
  8
0-0
  6
JWW_DASHED1
 62
   120
370
     5
100
AcDbLine
 10
-656.4939249763996
 20
-426.7640215185385
 30
0.0
 11
-83.49392497639897
 21
-426.7640215185385
 31
0.0
  0
LINE
  5
C6
330
1F
100
AcDbEntity
  8
0-0
  6
JWW_DASHED1
 62
   120
370
     5
100
AcDbLine
 10
-656.4939249763996
 20
-413.7640215174389
 30
0.0
 11
-83.49392497639897
 21
-413.7640215174389
 31
0.0
  0
LINE
  5
C7
330
1F
100
AcDbEntity
  8
0-0
  6
JWW_DASHED1
 62
   120
370
     5
100
AcDbLine
 10
-656.4939249763996
 20
-412.7640215175387
 30
0.0
 11
-83.49392497639897
 21
-412.7640215175387
 31
0.0
  0
LINE
  5
C8
330
1F
100
AcDbEntity
  8
0-0
  6
JWW_DASHED1
 62
   120
370
     5
100
AcDbLine
 10
-656.4939249763996
 20
-399.7640215164391
 30
0.0
 11
-83.49392497639897
 21
-399.7640215164391
 31
0.0
  0
LINE
  5
C9
330
1F
100
AcDbEntity
  8
0-0
  6
JWW_DASHED1
 62
   120
370
     5
100
AcDbLine
 10
-656.4939249763996
 20
-398.7640215165389
 30
0.0
 11
-83.49392497639897
 21
-398.7640215165389
 31
0.0
  0
LINE
  5
CA
330
1F
100
AcDbEntity
  8
0-0
  6
JWW_DASHED1
 62
   120
370
     5
100
AcDbLine
 10
-656.4939249763996
 20
-385.7640215154393
 30
0.0
 11
-83.49392497639897
 21
-385.7640215154393
 31
0.0
  0
LINE
  5
CB
330
1F
100
AcDbEntity
  8
0-0
  6
JWW_DASHED1
 62
   120
370
     5
100
AcDbLine
 10
-656.4939249763996
 20
-384.7640215155391
 30
0.0
 11
-83.49392497639897
 21
-384.7640215155391
 31
0.0
  0
LINE
  5
CC
330
1F
100
AcDbEntity
  8
0-0
  6
JWW_DASHED1
 62
   120
370
     5
100
AcDbLine
 10
-656.4939249763996
 20
-371.7640215144395
 30
0.0
 11
-83.49392497639897
 21
-371.7640215144395
 31
0.0
  0
LINE
  5
CD
330
1F
100
AcDbEntity
  8
0-0
  6
JWW_DASHED1
 62
   120
370
     5
100
AcDbLine
 10
-656.4939249763996
 20
-370.7640215145393
 30
0.0
 11
-83.49392497639897
 21
-370.7640215145393
 31
0.0
  0
LINE
  5
CE
330
1F
100
AcDbEntity
  8
0-0
  6
JWW_DASHED1
 62
   120
370
     5
100
AcDbLine
 10
-656.4939249763996
 20
-357.7640215134397
 30
0.0
 11
-83.49392497639897
 21
-357.7640215134397
 31
0.0
  0
LINE
  5
CF
330
1F
100
AcDbEntity
  8
0-0
  6
JWW_DASHED1
 62
   120
370
     5
100
AcDbLine
 10
-656.4939249763996
 20
-356.7640215135395
 30
0.0
 11
-83.49392497639897
 21
-356.7640215135395
 31
0.0
  0
LINE
  5
D0
330
1F
100
AcDbEntity
  8
0-0
  6
JWW_DASHED1
 62
   120
370
     5
100
AcDbLine
 10
-656.4939249763996
 20
-343.76402151244
 30
0.0
 11
-83.49392497639897
 21
-343.76402151244
 31
0.0
  0
LINE
  5
D1
330
1F
100
AcDbEntity
  8
0-0
  6
JWW_DASHED1
 62
   120
370
     5
100
AcDbLine
 10
-656.4939249763996
 20
-342.7640215125398
 30
0.0
 11
-83.49392497639897
 21
-342.7640215125398
 31
0.0
  0
LINE
  5
D2
330
1F
100
AcDbEntity
  8
0-0
  6
JWW_DASHED1
 62
   120
370
     5
100
AcDbLine
 10
-656.4939249763996
 20
-329.7640215114401
 30
0.0
 11
-83.49392497639897
 21
-329.7640215114401
 31
0.0
  0
LINE
  5
D3
330
1F
100
AcDbEntity
  8
0-0
  6
JWW_DASHED1
 62
   120
370
     5
100
AcDbLine
 10
-656.4939249763996
 20
-328.76402151154
 30
0.0
 11
-83.49392497639897
 21
-328.76402151154
 31
0.0
  0
LINE
  5
D4
330
1F
100
AcDbEntity
  8
0-0
  6
JWW_DASHED1
 62
   120
370
     5
100
AcDbLine
 10
-656.4939249763996
 20
-315.7640215104403
 30
0.0
 11
-83.49392497639897
 21
-315.7640215104403
 31
0.0
  0
LINE
  5
D5
330
1F
100
AcDbEntity
  8
0-0
  6
JWW_DASHED1
 62
   120
370
     5
100
AcDbLine
 10
-656.4939249763996
 20
-314.7640215105401
 30
0.0
 11
-83.49392497639897
 21
-314.7640215105401
 31
0.0
  0
LINE
  5
D6
330
1F
100
AcDbEntity
  8
0-0
  6
JWW_DASHED1
 62
   120
370
     5
100
AcDbLine
 10
-656.4939249763996
 20
-301.7640215094406
 30
0.0
 11
-83.49392497639897
 21
-301.7640215094406
 31
0.0
  0
LINE
  5
D7
330
1F
100
AcDbEntity
  8
0-0
  6
JWW_DASHED1
 62
   120
370
     5
100
AcDbLine
 10
-656.4939249763996
 20
-300.7640215095404
 30
0.0
 11
-83.49392497639897
 21
-300.7640215095404
 31
0.0
  0
LINE
  5
D8
330
1F
100
AcDbEntity
  8
0-0
  6
JWW_DASHED1
 62
   120
370
     5
100
AcDbLine
 10
-656.4939249763996
 20
-287.7640215084408
 30
0.0
 11
-83.49392497639897
 21
-287.7640215084408
 31
0.0
  0
LINE
  5
D9
330
1F
100
AcDbEntity
  8
0-0
  6
JWW_DASHED1
 62
   120
370
     5
100
AcDbLine
 10
-656.4939249763996
 20
-286.7640215085406
 30
0.0
 11
-83.49392497639897
 21
-286.7640215085406
 31
0.0
  0
LINE
  5
DA
330
1F
100
AcDbEntity
  8
0-0
  6
JWW_DASHED1
 62
   120
370
     5
100
AcDbLine
 10
-656.4939249763996
 20
-273.764021507441
 30
0.0
 11
-83.49392497639897
 21
-273.764021507441
 31
0.0
  0
LINE
  5
DB
330
1F
100
AcDbEntity
  8
0-0
  6
JWW_DASHED1
 62
   120
370
     5
100
AcDbLine
 10
-656.4939249763996
 20
-272.7640215075408
 30
0.0
 11
-83.49392497639897
 21
-272.7640215075408
 31
0.0
  0
LINE
  5
DC
330
1F
100
AcDbEntity
  8
0-0
  6
JWW_DASHED1
 62
   120
370
     5
100
AcDbLine
 10
-656.4939249763996
 20
-259.7640215064412
 30
0.0
 11
-83.49392497639897
 21
-259.7640215064412
 31
0.0
  0
LINE
  5
DD
330
1F
100
AcDbEntity
  8
0-0
  6
JWW_DASHED1
 62
   120
370
     5
100
AcDbLine
 10
-656.4939249763996
 20
-258.764021506541
 30
0.0
 11
-83.49392497639897
 21
-258.764021506541
 31
0.0
  0
LINE
  5
DE
330
1F
100
AcDbEntity
  8
0-0
  6
JWW_DASHED1
 62
   120
370
     5
100
AcDbLine
 10
-656.4939249763996
 20
-245.7640215054414
 30
0.0
 11
-83.49392497639897
 21
-245.7640215054414
 31
0.0
  0
LINE
  5
DF
330
1F
100
AcDbEntity
  8
0-0
  6
JWW_DASHED1
 62
   120
370
     5
100
AcDbLine
 10
-656.4939249763996
 20
-244.7640215055412
 30
0.0
 11
-83.49392497639897
 21
-244.7640215055412
 31
0.0
  0
LINE
  5
E0
330
1F
100
AcDbEntity
  8
0-0
  6
JWW_DASHED1
 62
   120
370
     5
100
AcDbLine
 10
-656.4939249763996
 20
-231.7640215044416
 30
0.0
 11
-83.49392497639897
 21
-231.7640215044416
 31
0.0
  0
LINE
  5
E1
330
1F
100
AcDbEntity
  8
0-0
  6
JWW_DASHED1
 62
   120
370
     5
100
AcDbLine
 10
-656.4939249763996
 20
-230.7640215045414
 30
0.0
 11
-83.49392497639897
 21
-230.7640215045414
 31
0.0
  0
LINE
  5
E2
330
1F
100
AcDbEntity
  8
0-0
  6
JWW_DASHED1
 62
   120
370
     5
100
AcDbLine
 10
-656.4939249763996
 20
-217.7640215034418
 30
0.0
 11
-83.49392497639897
 21
-217.7640215034418
 31
0.0
  0
LINE
  5
E3
330
1F
100
AcDbEntity
  8
0-0
  6
JWW_DASHED1
 62
   120
370
     5
100
AcDbLine
 10
-656.4939249763996
 20
-216.7640215035416
 30
0.0
 11
-83.49392497639897
 21
-216.7640215035416
 31
0.0
  0
LINE
  5
E4
330
1F
100
AcDbEntity
  8
0-0
  6
JWW_DASHED1
 62
   120
370
     5
100
AcDbLine
 10
-656.4939249763996
 20
-203.764021502442
 30
0.0
 11
-83.49392497639897
 21
-203.764021502442
 31
0.0
  0
LINE
  5
E5
330
1F
100
AcDbEntity
  8
0-0
  6
JWW_DASHED1
 62
   120
370
     5
100
AcDbLine
 10
-656.4939249763996
 20
-202.7640215025419
 30
0.0
 11
-83.49392497639897
 21
-202.7640215025419
 31
0.0
  0
LINE
  5
E6
330
1F
100
AcDbEntity
  8
0-0
  6
JWW_DASHED1
 62
   120
370
     5
100
AcDbLine
 10
-656.4939249763996
 20
-189.7640215014422
 30
0.0
 11
-83.49392497639897
 21
-189.7640215014422
 31
0.0
  0
LINE
  5
E7
330
1F
100
AcDbEntity
  8
0-0
  6
JWW_DASHED1
 62
   120
370
     5
100
AcDbLine
 10
-656.4939249763996
 20
-188.7640215015421
 30
0.0
 11
-83.49392497639897
 21
-188.7640215015421
 31
0.0
  0
LINE
  5
E8
330
1F
100
AcDbEntity
  8
0-0
  6
JWW_DASHED1
 62
   120
370
     5
100
AcDbLine
 10
-656.4939249763996
 20
-175.7640215004425
 30
0.0
 11
-83.49392497639897
 21
-175.7640215004425
 31
0.0
  0
LINE
  5
E9
330
1F
100
AcDbEntity
  8
0-0
  6
JWW_DASHED1
 62
   120
370
     5
100
AcDbLine
 10
-656.4939249763996
 20
-174.7640215005423
 30
0.0
 11
-83.49392497639897
 21
-174.7640215005423
 31
0.0
  0
LINE
  5
EA
330
1F
100
AcDbEntity
  8
0-0
  6
JWW_DASHED1
 62
   120
370
     5
100
AcDbLine
 10
-656.4939249763996
 20
-161.7640214994427
 30
0.0
 11
-83.49392497639897
 21
-161.7640214994427
 31
0.0
  0
LINE
  5
EB
330
1F
100
AcDbEntity
  8
0-0
  6
JWW_DASHED1
 62
   120
370
     5
100
AcDbLine
 10
-656.4939249763996
 20
-160.7640214995425
 30
0.0
 11
-83.49392497639897
 21
-160.7640214995425
 31
0.0
  0
LINE
  5
EC
330
1F
100
AcDbEntity
  8
0-0
  6
JWW_DASHED1
 62
   120
370
     5
100
AcDbLine
 10
-656.4939249763996
 20
-147.7640214984429
 30
0.0
 11
-83.49392497639897
 21
-147.7640214984429
 31
0.0
  0
LINE
  5
ED
330
1F
100
AcDbEntity
  8
0-0
  6
JWW_DASHED1
 62
   120
370
     5
100
AcDbLine
 10
-656.4939249763996
 20
-146.7640214985427
 30
0.0
 11
-83.49392497639897
 21
-146.7640214985427
 31
0.0
  0
LINE
  5
EE
330
1F
100
AcDbEntity
  8
0-0
  6
JWW_DASHED1
 62
   120
370
     5
100
AcDbLine
 10
-656.4939249763996
 20
-133.7640214974431
 30
0.0
 11
-83.49392497639897
 21
-133.7640214974431
 31
0.0
  0
LINE
  5
EF
330
1F
100
AcDbEntity
  8
0-0
  6
JWW_DASHED1
 62
   120
370
     5
100
AcDbLine
 10
-656.4939249763996
 20
-132.7640214975429
 30
0.0
 11
-83.49392497639897
 21
-132.7640214975429
 31
0.0
  0
LINE
  5
F0
330
1F
100
AcDbEntity
  8
0-0
  6
JWW_DASHED1
 62
   120
370
     5
100
AcDbLine
 10
-656.4939249763996
 20
-119.7640214964433
 30
0.0
 11
-83.49392497639897
 21
-119.7640214964433
 31
0.0
  0
LINE
  5
F1
330
1F
100
AcDbEntity
  8
0-0
  6
JWW_DASHED1
 62
   120
370
     5
100
AcDbLine
 10
-656.4939249763996
 20
-118.7640214965431
 30
0.0
 11
-83.49392497639897
 21
-118.7640214965431
 31
0.0
  0
LINE
  5
F2
330
1F
100
AcDbEntity
  8
0-0
  6
JWW_DASHED1
 62
   120
370
     5
100
AcDbLine
 10
-656.4939249763996
 20
-105.7640214954435
 30
0.0
 11
-83.49392497639897
 21
-105.7640214954435
 31
0.0
  0
LINE
  5
F3
330
1F
100
AcDbEntity
  8
0-0
  6
JWW_DASHED1
 62
   120
370
     5
100
AcDbLine
 10
-656.4939249763996
 20
-104.7640214955433
 30
0.0
 11
-83.49392497639897
 21
-104.7640214955433
 31
0.0
  0
LINE
  5
F4
330
1F
100
AcDbEntity
  8
0-0
  6
JWW_DASHED1
 62
   120
370
     5
100
AcDbLine
 10
-656.4939249763996
 20
-91.76402149444371
 30
0.0
 11
-83.49392497639897
 21
-91.76402149444371
 31
0.0
  0
LINE
  5
F5
330
1F
100
AcDbEntity
  8
0-0
  6
JWW_DASHED1
 62
   120
370
     5
100
AcDbLine
 10
-656.4939249763996
 20
-90.76402149454353
 30
0.0
 11
-83.49392497639897
 21
-90.76402149454353
 31
0.0
  0
LINE
  5
F6
330
1F
100
AcDbEntity
  8
0-0
  6
JWW_DASHED1
 62
   120
370
     5
100
AcDbLine
 10
-656.4939249763996
 20
-77.76402149344392
 30
0.0
 11
-83.49392497639897
 21
-77.76402149344392
 31
0.0
  0
LINE
  5
F7
330
1F
100
AcDbEntity
  8
0-0
  6
JWW_DASHED1
 62
   120
370
     5
100
AcDbLine
 10
-656.4939249763996
 20
-76.76402149354374
 30
0.0
 11
-83.49392497639897
 21
-76.76402149354374
 31
0.0
  0
LINE
  5
F8
330
1F
100
AcDbEntity
  8
0-0
  6
JWW_DASHED1
 62
   120
370
     5
100
AcDbLine
 10
-656.4939249763996
 20
-63.76402149244413
 30
0.0
 11
-83.49392497639897
 21
-63.76402149244413
 31
0.0
  0
LINE
  5
F9
330
1F
100
AcDbEntity
  8
0-0
  6
JWW_DASHED1
 62
   120
370
     5
100
AcDbLine
 10
-656.4939249763996
 20
-62.76402149254395
 30
0.0
 11
-83.49392497639897
 21
-62.76402149254395
 31
0.0
  0
LINE
  5
FA
330
1F
100
AcDbEntity
  8
0-0
  6
JWW_DASHED1
 62
   120
370
     5
100
AcDbLine
 10
-656.4939249763996
 20
-49.76402149144434
 30
0.0
 11
-83.49392497639897
 21
-49.76402149144434
 31
0.0
  0
LINE
  5
FB
330
1F
100
AcDbEntity
  8
0-0
  6
JWW_DASHED1
 62
   120
370
     5
100
AcDbLine
 10
-656.4939249763996
 20
-48.76402149154416
 30
0.0
 11
-83.49392497639897
 21
-48.76402149154416
 31
0.0
  0
LINE
  5
FC
330
1F
100
AcDbEntity
  8
0-0
  6
JWW_DASHED1
 62
   120
370
     5
100
AcDbLine
 10
-656.4939249763996
 20
-35.76402149044455
 30
0.0
 11
-83.49392497639897
 21
-35.76402149044455
 31
0.0
  0
LINE
  5
FD
330
1F
100
AcDbEntity
  8
0-0
  6
JWW_DASHED1
 62
   120
370
     5
100
AcDbLine
 10
-656.4939249763996
 20
-34.76402149054437
 30
0.0
 11
-83.49392497639897
 21
-34.76402149054437
 31
0.0
  0
LINE
  5
FE
330
1F
100
AcDbEntity
  8
0-0
  6
JWW_DASHED1
 62
   120
370
     5
100
AcDbLine
 10
-656.4939249763996
 20
-21.76402148944476
 30
0.0
 11
-83.49392497639897
 21
-21.76402148944476
 31
0.0
  0
LINE
  5
FF
330
1F
100
AcDbEntity
  8
0-0
  6
JWW_DASHED1
 62
   120
370
     5
100
AcDbLine
 10
-656.4939249763996
 20
-20.76402148954458
 30
0.0
 11
-83.49392497639897
 21
-20.76402148954458
 31
0.0
  0
LINE
  5
100
330
1F
100
AcDbEntity
  8
0-0
  6
JWW_DASHED1
 62
   120
370
     5
100
AcDbLine
 10
-656.4939249763996
 20
-7.764021488444968
 30
0.0
 11
-83.49392497639897
 21
-7.764021488444968
 31
0.0
  0
LINE
  5
101
330
1F
100
AcDbEntity
  8
0-0
  6
JWW_DASHED1
 62
   120
370
     5
100
AcDbLine
 10
-656.4939249763996
 20
-6.764021488544785
 30
0.0
 11
-83.49392497639897
 21
-6.764021488544785
 31
0.0
  0
LINE
  5
102
330
1F
100
AcDbEntity
  8
0-0
  6
JWW_DASHED1
 62
   120
370
     5
100
AcDbLine
 10
-656.4939249763996
 20
6.235978512554823
 30
0.0
 11
-83.49392497639897
 21
6.235978512554823
 31
0.0
  0
LINE
  5
103
330
1F
100
AcDbEntity
  8
0-0
  6
JWW_DASHED1
 62
   120
370
     5
100
AcDbLine
 10
-656.4939249763996
 20
7.235978512455006
 30
0.0
 11
-83.49392497639897
 21
7.235978512455006
 31
0.0
  0
LINE
  5
104
330
1F
100
AcDbEntity
  8
0-0
  6
JWW_DASHED1
 62
   120
370
     5
100
AcDbLine
 10
-656.4939249763996
 20
20.23597851355461
 30
0.0
 11
-83.49392497639897
 21
20.23597851355461
 31
0.0
  0
LINE
  5
105
330
1F
100
AcDbEntity
  8
0-0
  6
JWW_DASHED1
 62
   120
370
     5
100
AcDbLine
 10
-656.4939249763996
 20
21.2359785134548
 30
0.0
 11
-83.49392497639897
 21
21.2359785134548
 31
0.0
  0
LINE
  5
106
330
1F
100
AcDbEntity
  8
0-0
  6
JWW_DASHED1
 62
   120
370
     5
100
AcDbLine
 10
-656.4939249763996
 20
34.2359785145544
 30
0.0
 11
-83.49392497639897
 21
34.2359785145544
 31
0.0
  0
LINE
  5
107
330
1F
100
AcDbEntity
  8
0-0
  6
JWW_DASHED1
 62
   120
370
     5
100
AcDbLine
 10
-656.4939249763996
 20
35.23597851445459
 30
0.0
 11
-83.49392497639897
 21
35.23597851445459
 31
0.0
  0
LINE
  5
108
330
1F
100
AcDbEntity
  8
0-0
  6
JWW_DASHED1
 62
   120
370
     5
100
AcDbLine
 10
-656.4939249763996
 20
48.23597851555419
 30
0.0
 11
-83.49392497639897
 21
48.23597851555419
 31
0.0
  0
LINE
  5
109
330
1F
100
AcDbEntity
  8
0-0
  6
JWW_DASHED1
 62
   120
370
     5
100
AcDbLine
 10
-656.4939249763996
 20
49.23597851545438
 30
0.0
 11
-83.49392497639897
 21
49.23597851545438
 31
0.0
  0
LINE
  5
10A
330
1F
100
AcDbEntity
  8
0-0
  6
JWW_DASHED1
 62
   120
370
     5
100
AcDbLine
 10
-656.4939249763996
 20
62.23597851655398
 30
0.0
 11
-83.49392497639897
 21
62.23597851655398
 31
0.0
  0
LINE
  5
10B
330
1F
100
AcDbEntity
  8
0-0
  6
JWW_DASHED1
 62
   120
370
     5
100
AcDbLine
 10
-656.4939249763996
 20
63.23597851645417
 30
0.0
 11
-83.49392497639897
 21
63.23597851645417
 31
0.0
  0
LINE
  5
10C
330
1F
100
AcDbEntity
  8
0-0
  6
JWW_DASHED1
 62
   120
370
     5
100
AcDbLine
 10
-656.4939249763996
 20
76.23597851755378
 30
0.0
 11
-83.49392497639897
 21
76.23597851755378
 31
0.0
  0
LINE
  5
10D
330
1F
100
AcDbEntity
  8
0-0
  6
JWW_DASHED1
 62
   120
370
     5
100
AcDbLine
 10
-656.4939249763996
 20
77.23597851745396
 30
0.0
 11
-83.49392497639897
 21
77.23597851745396
 31
0.0
  0
LINE
  5
10E
330
1F
100
AcDbEntity
  8
0-0
  6
JWW_DASHED1
 62
   120
370
     5
100
AcDbLine
 10
-656.4939249763996
 20
90.23597851855357
 30
0.0
 11
-83.49392497639897
 21
90.23597851855357
 31
0.0
  0
LINE
  5
10F
330
1F
100
AcDbEntity
  8
0-0
  6
JWW_DASHED1
 62
   120
370
     5
100
AcDbLine
 10
-656.4939249763996
 20
91.23597851845375
 30
0.0
 11
-83.49392497639897
 21
91.23597851845375
 31
0.0
  0
LINE
  5
110
330
1F
100
AcDbEntity
  8
0-0
  6
JWW_DASHED1
 62
   120
370
     5
100
AcDbLine
 10
-656.4939249763996
 20
104.2359785195534
 30
0.0
 11
-83.49392497639897
 21
104.2359785195534
 31
0.0
  0
LINE
  5
111
330
1F
100
AcDbEntity
  8
0-0
  6
JWW_DASHED1
 62
   120
370
     5
100
AcDbLine
 10
-656.4939249763996
 20
105.2359785194535
 30
0.0
 11
-83.49392497639897
 21
105.2359785194535
 31
0.0
  0
LINE
  5
112
330
1F
100
AcDbEntity
  8
0-0
  6
JWW_DASHED1
 62
   120
370
     5
100
AcDbLine
 10
-656.4939249763996
 20
118.2359785205531
 30
0.0
 11
-83.49392497639897
 21
118.2359785205531
 31
0.0
  0
LINE
  5
113
330
1F
100
AcDbEntity
  8
0-0
  6
JWW_DASHED1
 62
   120
370
     5
100
AcDbLine
 10
-656.4939249763996
 20
119.2359785204533
 30
0.0
 11
-83.49392497639897
 21
119.2359785204533
 31
0.0
  0
LINE
  5
114
330
1F
100
AcDbEntity
  8
0-0
  6
JWW_DASHED1
 62
   120
370
     5
100
AcDbLine
 10
-656.4939249763996
 20
132.2359785215529
 30
0.0
 11
-83.49392497639897
 21
132.2359785215529
 31
0.0
  0
LINE
  5
115
330
1F
100
AcDbEntity
  8
0-0
  6
JWW_DASHED1
 62
   120
370
     5
100
AcDbLine
 10
-656.4939249763996
 20
133.2359785214531
 30
0.0
 11
-83.49392497639897
 21
133.2359785214531
 31
0.0
  0
LINE
  5
116
330
1F
100
AcDbEntity
  8
0-0
  6
JWW_DASHED1
 62
   120
370
     5
100
AcDbLine
 10
-656.4939249763996
 20
146.2359785225527
 30
0.0
 11
-83.49392497639897
 21
146.2359785225527
 31
0.0
  0
LINE
  5
117
330
1F
100
AcDbEntity
  8
0-0
  6
JWW_DASHED1
 62
   120
370
     5
100
AcDbLine
 10
-656.4939249763996
 20
147.2359785224529
 30
0.0
 11
-83.49392497639897
 21
147.2359785224529
 31
0.0
  0
LINE
  5
118
330
1F
100
AcDbEntity
  8
0-0
  6
JWW_DASHED1
 62
   120
370
     5
100
AcDbLine
 10
-656.4939249763996
 20
160.2359785235525
 30
0.0
 11
-83.49392497639897
 21
160.2359785235525
 31
0.0
  0
LINE
  5
119
330
1F
100
AcDbEntity
  8
0-0
  6
JWW_DASHED1
 62
   120
370
     5
100
AcDbLine
 10
-656.4939249763996
 20
161.2359785234527
 30
0.0
 11
-83.49392497639897
 21
161.2359785234527
 31
0.0
  0
LINE
  5
11A
330
1F
100
AcDbEntity
  8
0-0
  6
JWW_DASHED1
 62
   120
370
     5
100
AcDbLine
 10
-656.4939249763996
 20
174.2359785245523
 30
0.0
 11
-83.49392497639897
 21
174.2359785245523
 31
0.0
  0
LINE
  5
11B
330
1F
100
AcDbEntity
  8
0-0
  6
JWW_DASHED1
 62
   120
370
     5
100
AcDbLine
 10
-656.4939249763996
 20
175.2359785244525
 30
0.0
 11
-83.49392497639897
 21
175.2359785244525
 31
0.0
  0
LINE
  5
11C
330
1F
100
AcDbEntity
  8
0-0
  6
JWW_DASHED1
 62
   120
370
     5
100
AcDbLine
 10
-656.4939249763996
 20
188.2359785255521
 30
0.0
 11
-83.49392497639897
 21
188.2359785255521
 31
0.0
  0
LINE
  5
11D
330
1F
100
AcDbEntity
  8
0-0
  6
JWW_DASHED1
 62
   120
370
     5
100
AcDbLine
 10
-656.4939249763996
 20
189.2359785254523
 30
0.0
 11
-83.49392497639897
 21
189.2359785254523
 31
0.0
  0
LINE
  5
11E
330
1F
100
AcDbEntity
  8
0-0
  6
JWW_DASHED1
 62
   120
370
     5
100
AcDbLine
 10
-656.4939249763996
 20
202.2359785265519
 30
0.0
 11
-83.49392497639897
 21
202.2359785265519
 31
0.0
  0
LINE
  5
11F
330
1F
100
AcDbEntity
  8
0-0
  6
JWW_DASHED1
 62
   120
370
     5
100
AcDbLine
 10
-656.4939249763996
 20
203.2359785264521
 30
0.0
 11
-83.49392497639897
 21
203.2359785264521
 31
0.0
  0
LINE
  5
120
330
1F
100
AcDbEntity
  8
0-0
  6
JWW_DASHED1
 62
   120
370
     5
100
AcDbLine
 10
-656.4939249763996
 20
216.2359785275517
 30
0.0
 11
-83.49392497639897
 21
216.2359785275517
 31
0.0
  0
LINE
  5
121
330
1F
100
AcDbEntity
  8
0-0
  6
JWW_DASHED1
 62
   120
370
     5
100
AcDbLine
 10
-656.4939249763996
 20
217.2359785274519
 30
0.0
 11
-83.49392497639897
 21
217.2359785274519
 31
0.0
  0
LINE
  5
122
330
1F
100
AcDbEntity
  8
0-0
  6
JWW_DASHED1
 62
   120
370
     5
100
AcDbLine
 10
-656.4939249763996
 20
230.2359785285515
 30
0.0
 11
-83.49392497639897
 21
230.2359785285515
 31
0.0
  0
LINE
  5
123
330
1F
100
AcDbEntity
  8
0-0
  6
JWW_DASHED1
 62
   120
370
     5
100
AcDbLine
 10
-656.4939249763996
 20
231.2359785284517
 30
0.0
 11
-83.49392497639897
 21
231.2359785284517
 31
0.0
  0
LINE
  5
124
330
1F
100
AcDbEntity
  8
0-0
  6
JWW_DASHED1
 62
   120
370
     5
100
AcDbLine
 10
-656.4939249763996
 20
244.2359785295513
 30
0.0
 11
-83.49392497639897
 21
244.2359785295513
 31
0.0
  0
LINE
  5
125
330
1F
100
AcDbEntity
  8
0-0
  6
JWW_DASHED1
 62
   120
370
     5
100
AcDbLine
 10
-656.4939249763996
 20
245.2359785294514
 30
0.0
 11
-83.49392497639897
 21
245.2359785294514
 31
0.0
  0
LINE
  5
126
330
1F
100
AcDbEntity
  8
0-0
  6
JWW_DASHED1
 62
   120
370
     5
100
AcDbLine
 10
-656.4939249763996
 20
258.2359785305511
 30
0.0
 11
-83.49392497639897
 21
258.2359785305511
 31
0.0
  0
LINE
  5
127
330
1F
100
AcDbEntity
  8
0-0
  6
JWW_DASHED1
 62
   120
370
     5
100
AcDbLine
 10
-656.4939249763996
 20
259.2359785304512
 30
0.0
 11
-83.49392497639897
 21
259.2359785304512
 31
0.0
  0
LINE
  5
128
330
1F
100
AcDbEntity
  8
0-0
  6
JWW_DASHED1
 62
   120
370
     5
100
AcDbLine
 10
-656.4939249763996
 20
272.2359785315508
 30
0.0
 11
-83.49392497639897
 21
272.2359785315508
 31
0.0
  0
LINE
  5
129
330
1F
100
AcDbEntity
  8
0-0
  6
JWW_DASHED1
 62
   120
370
     5
100
AcDbLine
 10
-656.4939249763996
 20
273.235978531451
 30
0.0
 11
-83.49392497639897
 21
273.235978531451
 31
0.0
  0
LINE
  5
12A
330
1F
100
AcDbEntity
  8
0-0
  6
JWW_DASHED1
 62
   120
370
     5
100
AcDbLine
 10
-656.4939249763996
 20
286.2359785325506
 30
0.0
 11
-83.49392497639897
 21
286.2359785325506
 31
0.0
  0
LINE
  5
12B
330
1F
100
AcDbEntity
  8
0-0
  6
JWW_DASHED1
 62
   120
370
     5
100
AcDbLine
 10
-656.4939249763996
 20
287.2359785324508
 30
0.0
 11
-83.49392497639897
 21
287.2359785324508
 31
0.0
  0
LINE
  5
12C
330
1F
100
AcDbEntity
  8
0-0
  6
JWW_DASHED1
 62
   120
370
     5
100
AcDbLine
 10
-656.4939249763996
 20
300.2359785335505
 30
0.0
 11
-83.49392497639897
 21
300.2359785335505
 31
0.0
  0
LINE
  5
12D
330
1F
100
AcDbEntity
  8
0-0
  6
JWW_DASHED1
 62
   120
370
     5
100
AcDbLine
 10
-656.4939249763996
 20
301.2359785334506
 30
0.0
 11
-83.49392497639897
 21
301.2359785334506
 31
0.0
  0
LINE
  5
12E
330
1F
100
AcDbEntity
  8
0-0
  6
JWW_DASHED1
 62
   120
370
     5
100
AcDbLine
 10
-656.4939249763996
 20
314.2359785345502
 30
0.0
 11
-83.49392497639897
 21
314.2359785345502
 31
0.0
  0
LINE
  5
12F
330
1F
100
AcDbEntity
  8
0-0
  6
JWW_DASHED1
 62
   120
370
     5
100
AcDbLine
 10
-656.4939249763996
 20
315.2359785344504
 30
0.0
 11
-83.49392497639897
 21
315.2359785344504
 31
0.0
  0
LINE
  5
130
330
1F
100
AcDbEntity
  8
0-0
  6
JWW_DASHED1
 62
   120
370
     5
100
AcDbLine
 10
-656.4939249763996
 20
328.23597853555
 30
0.0
 11
-83.49392497639897
 21
328.23597853555
 31
0.0
  0
LINE
  5
131
330
1F
100
AcDbEntity
  8
0-0
  6
JWW_DASHED1
 62
   120
370
     5
100
AcDbLine
 10
-656.4939249763996
 20
329.2359785354502
 30
0.0
 11
-83.49392497639897
 21
329.2359785354502
 31
0.0
  0
LINE
  5
132
330
1F
100
AcDbEntity
  8
0-0
  6
JWW_DASHED1
 62
   120
370
     5
100
AcDbLine
 10
-656.4939249763996
 20
342.2359785365498
 30
0.0
 11
-83.49392497639897
 21
342.2359785365498
 31
0.0
  0
LINE
  5
133
330
1F
100
AcDbEntity
  8
0-0
  6
JWW_DASHED1
 62
   120
370
     5
100
AcDbLine
 10
-656.4939249763996
 20
343.23597853645
 30
0.0
 11
-83.49392497639897
 21
343.23597853645
 31
0.0
  0
LINE
  5
134
330
1F
100
AcDbEntity
  8
0-0
  6
JWW_DASHED1
 62
   120
370
     5
100
AcDbLine
 10
-656.4939249763996
 20
356.2359785375496
 30
0.0
 11
-83.49392497639897
 21
356.2359785375496
 31
0.0
  0
LINE
  5
135
330
1F
100
AcDbEntity
  8
0-0
  6
JWW_DASHED1
 62
   120
370
     5
100
AcDbLine
 10
-656.4939249763996
 20
357.2359785374498
 30
0.0
 11
-83.49392497639897
 21
357.2359785374498
 31
0.0
  0
LINE
  5
136
330
1F
100
AcDbEntity
  8
0-0
  6
JWW_DASHED1
 62
   120
370
     5
100
AcDbLine
 10
-656.4939249763996
 20
370.2359785385494
 30
0.0
 11
-83.49392497639897
 21
370.2359785385494
 31
0.0
  0
LINE
  5
137
330
1F
100
AcDbEntity
  8
0-0
  6
JWW_DASHED1
 62
   120
370
     5
100
AcDbLine
 10
-656.4939249763996
 20
371.2359785384496
 30
0.0
 11
-83.49392497639897
 21
371.2359785384496
 31
0.0
  0
LINE
  5
138
330
1F
100
AcDbEntity
  8
0-0
  6
JWW_DASHED1
 62
   120
370
     5
100
AcDbLine
 10
-656.4939249763996
 20
384.2359785395491
 30
0.0
 11
-83.49392497639897
 21
384.2359785395491
 31
0.0
  0
LINE
  5
139
330
1F
100
AcDbEntity
  8
0-0
  6
JWW_DASHED1
 62
   120
370
     5
100
AcDbLine
 10
-656.4939249763996
 20
385.2359785394493
 30
0.0
 11
-83.49392497639897
 21
385.2359785394493
 31
0.0
  0
LINE
  5
13A
330
1F
100
AcDbEntity
  8
0-0
  6
JWW_DASHED1
 62
   120
370
     5
100
AcDbLine
 10
-656.4939249763996
 20
398.235978540549
 30
0.0
 11
-83.49392497639897
 21
398.235978540549
 31
0.0
  0
LINE
  5
13B
330
1F
100
AcDbEntity
  8
0-0
  6
JWW_DASHED1
 62
   120
370
     5
100
AcDbLine
 10
-656.4939249763996
 20
399.2359785404491
 30
0.0
 11
-83.49392497639897
 21
399.2359785404491
 31
0.0
  0
LINE
  5
13C
330
1F
100
AcDbEntity
  8
0-0
  6
JWW_DASHED1
 62
   120
370
     5
100
AcDbLine
 10
-656.4939249763996
 20
412.2359785415488
 30
0.0
 11
-83.49392497639897
 21
412.2359785415488
 31
0.0
  0
LINE
  5
13D
330
1F
100
AcDbEntity
  8
0-0
  6
JWW_DASHED1
 62
   120
370
     5
100
AcDbLine
 10
-656.4939249763996
 20
413.235978541449
 30
0.0
 11
-83.49392497639897
 21
413.235978541449
 31
0.0
  0
LINE
  5
13E
330
1F
100
AcDbEntity
  8
0-0
  6
JWW_DASHED1
 62
   120
370
     5
100
AcDbLine
 10
-656.4939249763996
 20
426.2359785425485
 30
0.0
 11
-83.49392497639897
 21
426.2359785425485
 31
0.0
  0
LINE
  5
13F
330
1F
100
AcDbEntity
  8
0-0
  6
JWW_DASHED1
 62
   120
370
     5
100
AcDbLine
 10
-656.4939249763996
 20
427.2359785424487
 30
0.0
 11
-83.49392497639897
 21
427.2359785424487
 31
0.0
  0
LINE
  5
140
330
1F
100
AcDbEntity
  8
0-0
  6
JWW_DASHED1
 62
   120
370
     5
100
AcDbLine
 10
-656.4939249763996
 20
440.2359785435483
 30
0.0
 11
-83.49392497639897
 21
440.2359785435483
 31
0.0
  0
LINE
  5
141
330
1F
100
AcDbEntity
  8
0-0
  6
JWW_DASHED1
 62
   120
370
     5
100
AcDbLine
 10
-656.4939249763996
 20
441.2359785434485
 30
0.0
 11
-83.49392497639897
 21
441.2359785434485
 31
0.0
  0
LINE
  5
142
330
1F
100
AcDbEntity
  8
0-0
  6
JWW_DASHED1
 62
   120
370
     5
100
AcDbLine
 10
-656.4939249763996
 20
454.2359785445481
 30
0.0
 11
-83.49392497639897
 21
454.2359785445481
 31
0.0
  0
LINE
  5
143
330
1F
100
AcDbEntity
  8
0-0
  6
JWW_DASHED1
 62
   120
370
     5
100
AcDbLine
 10
-656.4939249763996
 20
455.2359785444483
 30
0.0
 11
-83.49392497639897
 21
455.2359785444483
 31
0.0
  0
LINE
  5
144
330
1F
100
AcDbEntity
  8
0-0
  6
JWW_DASHED1
 62
   120
370
     5
100
AcDbLine
 10
-656.4939249763996
 20
468.2359785455479
 30
0.0
 11
-83.49392497639897
 21
468.2359785455479
 31
0.0
  0
LINE
  5
145
330
1F
100
AcDbEntity
  8
0-0
  6
JWW_DASHED1
 62
   120
370
     5
100
AcDbLine
 10
-656.4939249763996
 20
469.2359785454481
 30
0.0
 11
-83.49392497639897
 21
469.2359785454481
 31
0.0
  0
LINE
  5
146
330
1F
100
AcDbEntity
  8
0-0
  6
JWW_DASHED1
 62
   120
370
     5
100
AcDbLine
 10
-656.4939249763996
 20
482.2359785465477
 30
0.0
 11
-83.49392497639897
 21
482.2359785465477
 31
0.0
  0
LINE
  5
147
330
1F
100
AcDbEntity
  8
0-0
  6
JWW_DASHED1
 62
   120
370
     5
100
AcDbLine
 10
-656.4939249763996
 20
483.2359785464479
 30
0.0
 11
-83.49392497639897
 21
483.2359785464479
 31
0.0
  0
LINE
  5
148
330
1F
100
AcDbEntity
  8
0-0
  6
JWW_DASHED1
 62
   120
370
     5
100
AcDbLine
 10
-656.4939249763996
 20
496.2359785475475
 30
0.0
 11
-83.49392497639897
 21
496.2359785475475
 31
0.0
  0
LINE
  5
149
330
1F
100
AcDbEntity
  8
0-0
  6
JWW_DASHED1
 62
   120
370
     5
100
AcDbLine
 10
-656.4939249763996
 20
497.2359785474476
 30
0.0
 11
-83.49392497639897
 21
497.2359785474476
 31
0.0
  0
LINE
  5
14A
330
1F
100
AcDbEntity
  8
0-0
  6
JWW_DASHED1
 62
   120
370
     5
100
AcDbLine
 10
-656.4939249763996
 20
510.2359785485473
 30
0.0
 11
-83.49392497639897
 21
510.2359785485473
 31
0.0
  0
LINE
  5
14B
330
1F
100
AcDbEntity
  8
0-0
  6
JWW_DASHED1
 62
   120
370
     5
100
AcDbLine
 10
-656.4939249763996
 20
511.2359785484475
 30
0.0
 11
-83.49392497639897
 21
511.2359785484475
 31
0.0
  0
LINE
  5
14C
330
1F
100
AcDbEntity
  8
0-0
  6
JWW_DASHED1
 62
   120
370
     5
100
AcDbLine
 10
-656.4939249763996
 20
524.2359785495471
 30
0.0
 11
-83.49392497639897
 21
524.2359785495471
 31
0.0
  0
LINE
  5
14D
330
1F
100
AcDbEntity
  8
0-0
  6
JWW_DASHED1
 62
   120
370
     5
100
AcDbLine
 10
-656.4939249763996
 20
525.2359785494473
 30
0.0
 11
-83.49392497639897
 21
525.2359785494473
 31
0.0
  0
LINE
  5
14E
330
1F
100
AcDbEntity
  8
0-0
  6
JWW_DASHED1
 62
   120
370
     5
100
AcDbLine
 10
-656.4939249763996
 20
538.2359785505469
 30
0.0
 11
-83.49392497639897
 21
538.2359785505469
 31
0.0
  0
LINE
  5
14F
330
1F
100
AcDbEntity
  8
0-0
  6
JWW_DASHED1
 62
   120
370
     5
100
AcDbLine
 10
-656.4939249763996
 20
539.235978550447
 30
0.0
 11
-83.49392497639897
 21
539.235978550447
 31
0.0
  0
LINE
  5
150
330
1F
100
AcDbEntity
  8
0-0
  6
JWW_DASHED1
 62
   120
370
     5
100
AcDbLine
 10
-656.4939249763996
 20
552.2359785515466
 30
0.0
 11
-83.49392497639897
 21
552.2359785515466
 31
0.0
  0
LINE
  5
151
330
1F
100
AcDbEntity
  8
0-0
  6
JWW_DASHED1
 62
   120
370
     5
100
AcDbLine
 10
-656.4939249763996
 20
553.2359785514468
 30
0.0
 11
-83.49392497639897
 21
553.2359785514468
 31
0.0
  0
LINE
  5
152
330
1F
100
AcDbEntity
  8
0-0
  6
JWW_DASHED1
 62
   120
370
     5
100
AcDbLine
 10
-656.4939249763996
 20
566.2359785525464
 30
0.0
 11
-83.49392497639897
 21
566.2359785525464
 31
0.0
  0
LINE
  5
153
330
1F
100
AcDbEntity
  8
0-0
  6
JWW_DASHED1
 62
   120
370
     5
100
AcDbLine
 10
-656.4939249763996
 20
567.2359785524466
 30
0.0
 11
-83.49392497639897
 21
567.2359785524466
 31
0.0
  0
LINE
  5
154
330
1F
100
AcDbEntity
  8
0-0
  6
JWW_DASHED1
 62
   120
370
     5
100
AcDbLine
 10
-656.4939249763996
 20
580.2359785535463
 30
0.0
 11
-83.49392497639897
 21
580.2359785535463
 31
0.0
  0
LINE
  5
155
330
1F
100
AcDbEntity
  8
0-0
  6
JWW_DASHED1
 62
   120
370
     5
100
AcDbLine
 10
-656.4939249763996
 20
581.2359785534464
 30
0.0
 11
-83.49392497639897
 21
581.2359785534464
 31
0.0
  0
LINE
  5
156
330
1F
100
AcDbEntity
  8
0-0
  6
JWW_DASHED1
 62
   120
370
     5
100
AcDbLine
 10
-656.4939249763996
 20
594.235978554546
 30
0.0
 11
-83.49392497639897
 21
594.235978554546
 31
0.0
  0
LINE
  5
157
330
1F
100
AcDbEntity
  8
0-0
  6
JWW_DASHED1
 62
   120
370
     5
100
AcDbLine
 10
-656.4939249763996
 20
595.2359785544462
 30
0.0
 11
-83.49392497639897
 21
595.2359785544462
 31
0.0
  0
LINE
  5
158
330
1F
100
AcDbEntity
  8
0-0
  6
JWW_DASHED1
 62
   120
370
     5
100
AcDbLine
 10
-656.4939249763996
 20
608.2359785555458
 30
0.0
 11
-83.49392497639897
 21
608.2359785555458
 31
0.0
  0
LINE
  5
159
330
1F
100
AcDbEntity
  8
0-0
  6
JWW_DASHED1
 62
   120
370
     5
100
AcDbLine
 10
-656.4939249763996
 20
609.235978555446
 30
0.0
 11
-83.49392497639897
 21
609.235978555446
 31
0.0
  0
LINE
  5
15A
330
1F
100
AcDbEntity
  8
0-0
  6
JWW_DASHED1
 62
   120
370
     5
100
AcDbLine
 10
-656.4939249763996
 20
622.2359785565457
 30
0.0
 11
-83.49392497639897
 21
622.2359785565457
 31
0.0
  0
LINE
  5
15B
330
1F
100
AcDbEntity
  8
0-0
  6
JWW_DASHED1
 62
   120
370
     5
100
AcDbLine
 10
-656.4939249763996
 20
623.2359785564458
 30
0.0
 11
-83.49392497639897
 21
623.2359785564458
 31
0.0
  0
LINE
  5
15C
330
1F
100
AcDbEntity
  8
0-0
  6
JWW_DASHED1
 62
   120
370
     5
100
AcDbLine
 10
-656.4939249763996
 20
636.2359785575454
 30
0.0
 11
-83.49392497639897
 21
636.2359785575454
 31
0.0
  0
LINE
  5
15D
330
1F
100
AcDbEntity
  8
0-0
  6
JWW_DASHED1
 62
   120
370
     5
100
AcDbLine
 10
-656.4939249763996
 20
637.2359785574456
 30
0.0
 11
-83.49392497639897
 21
637.2359785574456
 31
0.0
  0
LINE
  5
15E
330
1F
100
AcDbEntity
  8
0-0
  6
JWW_DASHED1
 62
   120
370
     5
100
AcDbLine
 10
-656.4939249763996
 20
650.2359785585452
 30
0.0
 11
-83.49392497639897
 21
650.2359785585452
 31
0.0
  0
LINE
  5
15F
330
1F
100
AcDbEntity
  8
0-0
  6
JWW_DASHED1
 62
   120
370
     5
100
AcDbLine
 10
-656.4939249763996
 20
651.2359785584454
 30
0.0
 11
-83.49392497639897
 21
651.2359785584454
 31
0.0
  0
LINE
  5
160
330
1F
100
AcDbEntity
  8
0-0
  6
JWW_DASHED1
 62
   120
370
     5
100
AcDbLine
 10
-569.0750832144363
 20
664.235978559545
 30
0.0
 11
-170.9127667383632
 21
664.235978559545
 31
0.0
  0
LINE
  5
161
330
1F
100
AcDbEntity
  8
0-0
  6
JWW_DASHED1
 62
   120
370
     5
100
AcDbLine
 10
-565.4808533430764
 20
665.2359785594451
 30
0.0
 11
-174.506996609723
 21
665.2359785594451
 31
0.0
  0
LINE
  5
162
330
1F
100
AcDbEntity
  8
0-0
  6
JWW_DASHED1
 62
   120
370
     5
100
AcDbLine
 10
-534.3687758748206
 20
678.2359785605447
 30
0.0
 11
-205.6190740779789
 21
678.2359785605447
 31
0.0
  0
LINE
  5
163
330
1F
100
AcDbEntity
  8
0-0
  6
JWW_DASHED1
 62
   120
370
     5
100
AcDbLine
 10
-532.4749758851544
 20
679.2359785604449
 30
0.0
 11
-207.512874067645
 21
679.2359785604449
 31
0.0
  0
LINE
  5
164
330
1F
100
AcDbEntity
  8
0-0
  6
JWW_DASHED1
 62
   120
370
     5
100
AcDbLine
 10
-504.7941317928348
 20
692.2359785615446
 30
0.0
 11
-235.1937181599646
 21
692.2359785615446
 31
0.0
  0
LINE
  5
165
330
1F
100
AcDbEntity
  8
0-0
  6
JWW_DASHED1
 62
   120
370
     5
100
AcDbLine
 10
-502.3725337252586
 20
693.2359785614448
 30
0.0
 11
-237.6153162275409
 21
693.2359785614448
 31
0.0
  0
LINE
  5
166
330
1F
100
AcDbEntity
  8
0-0
  6
JWW_DASHED1
 62
   120
370
     5
100
AcDbLine
 10
-464.4984217348906
 20
706.2359785625443
 30
0.0
 11
-275.4894282179089
 21
706.2359785625443
 31
0.0
  0
LINE
  5
167
330
1F
100
AcDbEntity
  8
0-0
  6
JWW_DASHED1
 62
   120
370
     5
100
AcDbLine
 10
-460.8570099125177
 20
707.2359785624445
 30
0.0
 11
-279.1308400402818
 21
707.2359785624445
 31
0.0
  0
LINE
  5
168
330
1F
100
AcDbEntity
  8
0-0
  6
JWW_DASHED1
 62
   120
370
     5
100
AcDbLine
 10
-89.49390647846755
 20
-455.7638732065945
 30
0.0
 11
-89.49390647846755
 21
659.2358592490971
 31
0.0
  0
LINE
  5
169
330
1F
100
AcDbEntity
  8
0-0
  6
JWW_DASHED1
 62
   120
370
     5
100
AcDbLine
 10
-90.49390647836773
 20
-455.7638732065945
 30
0.0
 11
-90.49390647836773
 21
659.2358592490971
 31
0.0
  0
LINE
  5
16A
330
1F
100
AcDbEntity
  8
0-0
  6
JWW_DASHED1
 62
   120
370
     5
100
AcDbLine
 10
-103.4939064794678
 20
-455.7638732065945
 30
0.0
 11
-103.4939064794678
 21
659.2358592490971
 31
0.0
  0
LINE
  5
16B
330
1F
100
AcDbEntity
  8
0-0
  6
JWW_DASHED1
 62
   120
370
     5
100
AcDbLine
 10
-104.4939064793675
 20
-455.7638732065945
 30
0.0
 11
-104.4939064793675
 21
659.2358592490971
 31
0.0
  0
LINE
  5
16C
330
1F
100
AcDbEntity
  8
0-0
  6
JWW_DASHED1
 62
   120
370
     5
100
AcDbLine
 10
-117.4939064804676
 20
-455.7638732065945
 30
0.0
 11
-117.4939064804676
 21
659.2358592490971
 31
0.0
  0
LINE
  5
16D
330
1F
100
AcDbEntity
  8
0-0
  6
JWW_DASHED1
 62
   120
370
     5
100
AcDbLine
 10
-118.4939064803677
 20
-455.7638732065945
 30
0.0
 11
-118.4939064803673
 21
659.2358592490971
 31
0.0
  0
LINE
  5
16E
330
1F
100
AcDbEntity
  8
0-0
  6
JWW_DASHED1
 62
   120
370
     5
100
AcDbLine
 10
-131.4939064814678
 20
-455.7638732065945
 30
0.0
 11
-131.4939064814673
 21
659.2358592490971
 31
0.0
  0
LINE
  5
16F
330
1F
100
AcDbEntity
  8
0-0
  6
JWW_DASHED1
 62
   120
370
     5
100
AcDbLine
 10
-132.4939064813675
 20
-455.7638732065945
 30
0.0
 11
-132.4939064813675
 21
659.2358592490971
 31
0.0
  0
LINE
  5
170
330
1F
100
AcDbEntity
  8
0-0
  6
JWW_DASHED1
 62
   120
370
     5
100
AcDbLine
 10
-145.4939064824676
 20
-455.7638732065945
 30
0.0
 11
-145.4939064824676
 21
659.7991517543094
 31
0.0
  0
LINE
  5
171
330
1F
100
AcDbEntity
  8
0-0
  6
JWW_DASHED1
 62
   120
370
     5
100
AcDbLine
 10
-146.4939064823677
 20
-455.7638732065945
 30
0.0
 11
-146.4939064823677
 21
659.8894334163422
 31
0.0
  0
LINE
  5
172
330
1F
100
AcDbEntity
  8
0-0
  6
JWW_DASHED1
 62
   120
370
     5
100
AcDbLine
 10
-159.4939064834678
 20
-455.7638732065945
 30
0.0
 11
-159.4939064834678
 21
661.683547790876
 31
0.0
  0
LINE
  5
173
330
1F
100
AcDbEntity
  8
0-0
  6
JWW_DASHED1
 62
   120
370
     5
100
AcDbLine
 10
-160.4939064833675
 20
-455.7638732065945
 30
0.0
 11
-160.4939064833675
 21
661.869954173312
 31
0.0
  0
LINE
  5
174
330
1F
100
AcDbEntity
  8
0-0
  6
JWW_DASHED1
 62
   120
370
     5
100
AcDbLine
 10
-173.4939064844676
 20
-455.7638732065945
 30
0.0
 11
-173.4939064844676
 21
664.9443498440676
 31
0.0
  0
LINE
  5
175
330
1F
100
AcDbEntity
  8
0-0
  6
JWW_DASHED1
 62
   120
370
     5
100
AcDbLine
 10
-174.4939064843678
 20
-455.7638732065945
 30
0.0
 11
-174.4939064843673
 21
665.2321612114472
 31
0.0
  0
LINE
  5
176
330
1F
100
AcDbEntity
  8
0-0
  6
JWW_DASHED1
 62
   120
370
     5
100
AcDbLine
 10
-187.4939064854678
 20
-455.7638732065945
 30
0.0
 11
-187.4939064854674
 21
669.6780047369109
 31
0.0
  0
LINE
  5
177
330
1F
100
AcDbEntity
  8
0-0
  6
JWW_DASHED1
 62
   120
370
     5
100
AcDbLine
 10
-188.4939064853675
 20
-455.7638732065945
 30
0.0
 11
-188.4939064853675
 21
670.0761663844285
 31
0.0
  0
LINE
  5
178
330
1F
100
AcDbEntity
  8
0-0
  6
JWW_DASHED1
 62
   120
370
     5
100
AcDbLine
 10
-201.4939064864676
 20
-455.7638732065945
 30
0.0
 11
-201.4939064864676
 21
676.0414531140711
 31
0.0
  0
LINE
  5
179
330
1F
100
AcDbEntity
  8
0-0
  6
JWW_DASHED1
 62
   120
370
     5
100
AcDbLine
 10
-202.4939064863678
 20
-455.7638732065945
 30
0.0
 11
-202.4939064863678
 21
676.5641773128707
 31
0.0
  0
LINE
  5
17A
330
1F
100
AcDbEntity
  8
0-0
  6
JWW_DASHED1
 62
   120
370
     5
100
AcDbLine
 10
-215.4939064874674
 20
-455.7638732065945
 30
0.0
 11
-215.4939064874674
 21
683.28985513763
 31
0.0
  0
LINE
  5
17B
330
1F
100
AcDbEntity
  8
0-0
  6
JWW_DASHED1
 62
   120
370
     5
100
AcDbLine
 10
-216.4939064873676
 20
-455.7638732065945
 30
0.0
 11
-216.4939064873676
 21
683.7798349229367
 31
0.0
  0
LINE
  5
17C
330
1F
100
AcDbEntity
  8
0-0
  6
JWW_DASHED1
 62
   120
370
     5
100
AcDbLine
 10
-229.4939064884672
 20
-455.7638732065945
 30
0.0
 11
-229.4939064884672
 21
689.7977352322621
 31
0.0
  0
LINE
  5
17D
330
1F
100
AcDbEntity
  8
0-0
  6
JWW_DASHED1
 62
   120
370
     5
100
AcDbLine
 10
-230.4939064883673
 20
-455.7638732065945
 30
0.0
 11
-230.4939064883673
 21
690.2341717124389
 31
0.0
  0
LINE
  5
17E
330
1F
100
AcDbEntity
  8
0-0
  6
JWW_DASHED1
 62
   120
370
     5
100
AcDbLine
 10
-243.4939064894674
 20
-455.7638732065945
 30
0.0
 11
-243.4939064894674
 21
695.5760497614963
 31
0.0
  0
LINE
  5
17F
330
1F
100
AcDbEntity
  8
0-0
  6
JWW_DASHED1
 62
   120
370
     5
100
AcDbLine
 10
-244.4939064893676
 20
-455.7638732065945
 30
0.0
 11
-244.4939064893676
 21
695.9619221627715
 31
0.0
  0
LINE
  5
180
330
1F
100
AcDbEntity
  8
0-0
  6
JWW_DASHED1
 62
   120
370
     5
100
AcDbLine
 10
-257.4939064904676
 20
-455.7638732065945
 30
0.0
 11
-257.4939064904676
 21
700.6629601075681
 31
0.0
  0
LINE
  5
181
330
1F
100
AcDbEntity
  8
0-0
  6
JWW_DASHED1
 62
   120
370
     5
100
AcDbLine
 10
-258.4939064903677
 20
-455.7638732065945
 30
0.0
 11
-258.4939064903677
 21
701.000720862178
 31
0.0
  0
LINE
  5
182
330
1F
100
AcDbEntity
  8
0-0
  6
JWW_DASHED1
 62
   120
370
     5
100
AcDbLine
 10
-271.4939064914674
 20
-455.7638732065945
 30
0.0
 11
-271.4939064914674
 21
705.0898841915866
 31
0.0
  0
LINE
  5
183
330
1F
100
AcDbEntity
  8
0-0
  6
JWW_DASHED1
 62
   120
370
     5
100
AcDbLine
 10
-272.4939064913676
 20
-455.7638732065945
 30
0.0
 11
-272.4939064913676
 21
705.3815512683129
 31
0.0
  0
LINE
  5
184
330
1F
100
AcDbEntity
  8
0-0
  6
JWW_DASHED1
 62
   120
370
     5
100
AcDbLine
 10
-285.4939064924672
 20
-455.7638732065945
 30
0.0
 11
-285.4939064924672
 21
708.8826296109644
 31
0.0
  0
LINE
  5
185
330
1F
100
AcDbEntity
  8
0-0
  6
JWW_DASHED1
 62
   120
370
     5
100
AcDbLine
 10
-286.4939064923674
 20
-455.7638732065945
 30
0.0
 11
-286.4939064923674
 21
709.1298556457539
 31
0.0
  0
LINE
  5
186
330
1F
100
AcDbEntity
  8
0-0
  6
JWW_DASHED1
 62
   120
370
     5
100
AcDbLine
 10
-299.4939064934674
 20
-455.7638732065945
 30
0.0
 11
-299.4939064934674
 21
712.0622451010811
 31
0.0
  0
LINE
  5
187
330
1F
100
AcDbEntity
  8
0-0
  6
JWW_DASHED1
 62
   120
370
     5
100
AcDbLine
 10
-300.4939064933676
 20
-455.7638732065945
 30
0.0
 11
-300.4939064933676
 21
712.2663695284452
 31
0.0
  0
LINE
  5
188
330
1F
100
AcDbEntity
  8
0-0
  6
JWW_DASHED1
 62
   120
370
     5
100
AcDbLine
 10
-313.4939064944676
 20
-455.7638732065945
 30
0.0
 11
-313.4939064944676
 21
714.6456633026744
 31
0.0
  0
LINE
  5
189
330
1F
100
AcDbEntity
  8
0-0
  6
JWW_DASHED1
 62
   120
370
     5
100
AcDbLine
 10
-314.4939064943678
 20
-455.7638732065945
 30
0.0
 11
-314.4939064943678
 21
714.8077517114532
 31
0.0
  0
LINE
  5
18A
330
1F
100
AcDbEntity
  8
0-0
  6
JWW_DASHED1
 62
   120
370
     5
100
AcDbLine
 10
-327.4939064954674
 20
-455.7638732065945
 30
0.0
 11
-327.4939064954674
 21
716.6461848359565
 31
0.0
  0
LINE
  5
18B
330
1F
100
AcDbEntity
  8
0-0
  6
JWW_DASHED1
 62
   120
370
     5
100
AcDbLine
 10
-328.4939064953676
 20
-455.7638732065945
 30
0.0
 11
-328.4939064953676
 21
716.7670584614486
 31
0.0
  0
LINE
  5
18C
330
1F
100
AcDbEntity
  8
0-0
  6
JWW_DASHED1
 62
   120
370
     5
100
AcDbLine
 10
-341.4939064964672
 20
-455.7638732065945
 30
0.0
 11
-341.4939064964672
 21
718.0738382677216
 31
0.0
  0
LINE
  5
18D
330
1F
100
AcDbEntity
  8
0-0
  6
JWW_DASHED1
 62
   120
370
     5
100
AcDbLine
 10
-342.4939064963673
 20
-455.7638732065945
 30
0.0
 11
-342.4939064963673
 21
718.154095639368
 31
0.0
  0
LINE
  5
18E
330
1F
100
AcDbEntity
  8
0-0
  6
JWW_DASHED1
 62
   120
370
     5
100
AcDbLine
 10
-355.4939064974674
 20
-455.7638732065945
 30
0.0
 11
-355.4939064974674
 21
718.9356398958832
 31
0.0
  0
LINE
  5
18F
330
1F
100
AcDbEntity
  8
0-0
  6
JWW_DASHED1
 62
   120
370
     5
100
AcDbLine
 10
-356.4939064973676
 20
-455.7638732065945
 30
0.0
 11
-356.4939064973676
 21
718.9756720282119
 31
0.0
  0
LINE
  5
190
330
1F
100
AcDbEntity
  8
0-0
  6
JWW_DASHED1
 62
   120
370
     5
100
AcDbLine
 10
-369.4939064984676
 20
-455.7638732065945
 30
0.0
 11
-369.4939064984676
 21
719.2357696239585
 31
0.0
  0
LINE
  5
191
330
1F
100
AcDbEntity
  8
0-0
  6
JWW_DASHED1
 62
   120
370
     5
100
AcDbLine
 10
-370.4939064983678
 20
-455.7638732065945
 30
0.0
 11
-370.4939064983678
 21
719.235769676782
 31
0.0
  0
LINE
  5
192
330
1F
100
AcDbEntity
  8
0-0
  6
JWW_DASHED1
 62
   120
370
     5
100
AcDbLine
 10
-383.4939064994674
 20
-455.7638732065945
 30
0.0
 11
-383.4939064994674
 21
718.9756734547179
 31
0.0
  0
LINE
  5
193
330
1F
100
AcDbEntity
  8
0-0
  6
JWW_DASHED1
 62
   120
370
     5
100
AcDbLine
 10
-384.4939064993676
 20
-455.7638732065945
 30
0.0
 11
-384.4939064993676
 21
718.9356414282545
 31
0.0
  0
LINE
  5
194
330
1F
100
AcDbEntity
  8
0-0
  6
JWW_DASHED1
 62
   120
370
     5
100
AcDbLine
 10
-397.4939065004672
 20
-455.7638732065945
 30
0.0
 11
-397.4939065004672
 21
718.1540985520794
 31
0.0
  0
LINE
  5
195
330
1F
100
AcDbEntity
  8
0-0
  6
JWW_DASHED1
 62
   120
370
     5
100
AcDbLine
 10
-398.4939065003674
 20
-455.7638732065945
 30
0.0
 11
-398.4939065003674
 21
718.0738412870076
 31
0.0
  0
LINE
  5
196
330
1F
100
AcDbEntity
  8
0-0
  6
JWW_DASHED1
 62
   120
370
     5
100
AcDbLine
 10
-411.4939065014674
 20
-455.7638732065945
 30
0.0
 11
-411.4939065014674
 21
716.7670628744988
 31
0.0
  0
LINE
  5
197
330
1F
100
AcDbEntity
  8
0-0
  6
JWW_DASHED1
 62
   120
370
     5
100
AcDbLine
 10
-412.4939065013676
 20
-455.7638732065945
 30
0.0
 11
-412.4939065013676
 21
716.646189356891
 31
0.0
  0
LINE
  5
198
330
1F
100
AcDbEntity
  8
0-0
  6
JWW_DASHED1
 62
   120
370
     5
100
AcDbLine
 10
-425.4939065024677
 20
-455.7638732065945
 30
0.0
 11
-425.4939065024677
 21
714.8077576467247
 31
0.0
  0
LINE
  5
199
330
1F
100
AcDbEntity
  8
0-0
  6
JWW_DASHED1
 62
   120
370
     5
100
AcDbLine
 10
-426.4939065023678
 20
-455.7638732065945
 30
0.0
 11
-426.4939065023678
 21
714.6456693476855
 31
0.0
  0
LINE
  5
19A
330
1F
100
AcDbEntity
  8
0-0
  6
JWW_DASHED1
 62
   120
370
     5
100
AcDbLine
 10
-439.4939065034674
 20
-455.7638732065945
 30
0.0
 11
-439.4939065034674
 21
712.2663770159513
 31
0.0
  0
LINE
  5
19B
330
1F
100
AcDbEntity
  8
0-0
  6
JWW_DASHED1
 62
   120
370
     5
100
AcDbLine
 10
-440.4939065033676
 20
-455.7638732065945
 30
0.0
 11
-440.4939065033676
 21
712.062252700837
 31
0.0
  0
LINE
  5
19C
330
1F
100
AcDbEntity
  8
0-0
  6
JWW_DASHED1
 62
   120
370
     5
100
AcDbLine
 10
-453.4939065044676
 20
-455.7638732065945
 30
0.0
 11
-453.4939065044676
 21
709.1298647245665
 31
0.0
  0
LINE
  5
19D
330
1F
100
AcDbEntity
  8
0-0
  6
JWW_DASHED1
 62
   120
370
     5
100
AcDbLine
 10
-454.4939065043678
 20
-455.7638732065945
 30
0.0
 11
-454.4939065043678
 21
708.8826388051918
 31
0.0
  0
LINE
  5
19E
330
1F
100
AcDbEntity
  8
0-0
  6
JWW_DASHED1
 62
   120
370
     5
100
AcDbLine
 10
-467.4939065054674
 20
-455.7638732065945
 30
0.0
 11
-467.4939065054674
 21
705.3815619874902
 31
0.0
  0
LINE
  5
19F
330
1F
100
AcDbEntity
  8
0-0
  6
JWW_DASHED1
 62
   120
370
     5
100
AcDbLine
 10
-468.4939065053676
 20
-455.7638732065945
 30
0.0
 11
-468.4939065053676
 21
705.0898950301078
 31
0.0
  0
LINE
  5
1A0
330
1F
100
AcDbEntity
  8
0-0
  6
JWW_DASHED1
 62
   120
370
     5
100
AcDbLine
 10
-481.4939065064676
 20
-455.7638732065945
 30
0.0
 11
-481.4939065064676
 21
701.0007332824014
 31
0.0
  0
LINE
  5
1A1
330
1F
100
AcDbEntity
  8
0-0
  6
JWW_DASHED1
 62
   120
370
     5
100
AcDbLine
 10
-482.4939065063678
 20
-455.7638732065945
 30
0.0
 11
-482.4939065063678
 21
700.662972651992
 31
0.0
  0
LINE
  5
1A2
330
1F
100
AcDbEntity
  8
0-0
  6
JWW_DASHED1
 62
   120
370
     5
100
AcDbLine
 10
-495.4939065074674
 20
-455.7638732065945
 30
0.0
 11
-495.4939065074674
 21
695.9619363580921
 31
0.0
  0
LINE
  5
1A3
330
1F
100
AcDbEntity
  8
0-0
  6
JWW_DASHED1
 62
   120
370
     5
100
AcDbLine
 10
-496.4939065073676
 20
-455.7638732065945
 30
0.0
 11
-496.4939065073676
 21
695.5760640868018
 31
0.0
  0
LINE
  5
1A4
330
1F
100
AcDbEntity
  8
0-0
  6
JWW_DASHED1
 62
   120
370
     5
100
AcDbLine
 10
-509.4939065084677
 20
-455.7638732065945
 30
0.0
 11
-509.4939065084677
 21
690.234187772842
 31
0.0
  0
LINE
  5
1A5
330
1F
100
AcDbEntity
  8
0-0
  6
JWW_DASHED1
 62
   120
370
     5
100
AcDbLine
 10
-510.4939065083678
 20
-455.7638732065945
 30
0.0
 11
-510.4939065083678
 21
689.7977514297988
 31
0.0
  0
LINE
  5
1A6
330
1F
100
AcDbEntity
  8
0-0
  6
JWW_DASHED1
 62
   120
370
     5
100
AcDbLine
 10
-523.4939065094675
 20
-455.7638732065945
 30
0.0
 11
-523.4939065094675
 21
683.7798529577256
 31
0.0
  0
LINE
  5
1A7
330
1F
100
AcDbEntity
  8
0-0
  6
JWW_DASHED1
 62
   120
370
     5
100
AcDbLine
 10
-524.4939065093677
 20
-455.7638732065945
 30
0.0
 11
-524.4939065093677
 21
683.2898733182835
 31
0.0
  0
LINE
  5
1A8
330
1F
100
AcDbEntity
  8
0-0
  6
JWW_DASHED1
 62
   120
370
     5
100
AcDbLine
 10
-537.4939065104677
 20
-455.7638732065945
 30
0.0
 11
-537.4939065104677
 21
676.5641968079442
 31
0.0
  0
LINE
  5
1A9
330
1F
100
AcDbEntity
  8
0-0
  6
JWW_DASHED1
 62
   120
370
     5
100
AcDbLine
 10
-538.4939065103679
 20
-455.7638732065945
 30
0.0
 11
-538.4939065103679
 21
676.0414722552603
 31
0.0
  0
LINE
  5
1AA
330
1F
100
AcDbEntity
  8
0-0
  6
JWW_DASHED1
 62
   120
370
     5
100
AcDbLine
 10
-551.4939065114675
 20
-455.7638732065945
 30
0.0
 11
-551.4939065114675
 21
670.0761812527569
 31
0.0
  0
LINE
  5
1AB
330
1F
100
AcDbEntity
  8
0-0
  6
JWW_DASHED1
 62
   120
370
     5
100
AcDbLine
 10
-552.4939065113676
 20
-455.7638732065945
 30
0.0
 11
-552.4939065113676
 21
669.6780192979575
 31
0.0
  0
LINE
  5
1AC
330
1F
100
AcDbEntity
  8
0-0
  6
JWW_DASHED1
 62
   120
370
     5
100
AcDbLine
 10
-565.4939065124672
 20
-455.7638732065945
 30
0.0
 11
-565.4939065124672
 21
665.232171986722
 31
0.0
  0
LINE
  5
1AD
330
1F
100
AcDbEntity
  8
0-0
  6
JWW_DASHED1
 62
   120
370
     5
100
AcDbLine
 10
-566.4939065123674
 20
-455.7638732065945
 30
0.0
 11
-566.4939065123674
 21
664.9443603417465
 31
0.0
  0
LINE
  5
1AE
330
1F
100
AcDbEntity
  8
0-0
  6
JWW_DASHED1
 62
   120
370
     5
100
AcDbLine
 10
-579.4939065134674
 20
-455.7638732065945
 30
0.0
 11
-579.4939065134674
 21
661.8699611919008
 31
0.0
  0
LINE
  5
1AF
330
1F
100
AcDbEntity
  8
0-0
  6
JWW_DASHED1
 62
   120
370
     5
100
AcDbLine
 10
-580.4939065133676
 20
-455.7638732065945
 30
0.0
 11
-580.4939065133676
 21
661.6835545501497
 31
0.0
  0
LINE
  5
1B0
330
1F
100
AcDbEntity
  8
0-0
  6
JWW_DASHED1
 62
   120
370
     5
100
AcDbLine
 10
-593.4939065144677
 20
-455.7638732065945
 30
0.0
 11
-593.4939065144677
 21
659.8894368775334
 31
0.0
  0
LINE
  5
1B1
330
1F
100
AcDbEntity
  8
0-0
  6
JWW_DASHED1
 62
   120
370
     5
100
AcDbLine
 10
-594.4939065143678
 20
-455.7638732065945
 30
0.0
 11
-594.4939065143678
 21
659.7991549660626
 31
0.0
  0
LINE
  5
1B2
330
1F
100
AcDbEntity
  8
0-0
  6
JWW_DASHED1
 62
   120
370
     5
100
AcDbLine
 10
-607.4939065154674
 20
-455.7638732065945
 30
0.0
 11
-607.4939065154674
 21
659.2358592490971
 31
0.0
  0
LINE
  5
1B3
330
1F
100
AcDbEntity
  8
0-0
  6
JWW_DASHED1
 62
   120
370
     5
100
AcDbLine
 10
-608.4939065153676
 20
-455.7638732065945
 30
0.0
 11
-608.4939065153676
 21
659.2358592490971
 31
0.0
  0
LINE
  5
1B4
330
1F
100
AcDbEntity
  8
0-0
  6
JWW_DASHED1
 62
   120
370
     5
100
AcDbLine
 10
-621.4939065164673
 20
-455.7638732065945
 30
0.0
 11
-621.4939065164673
 21
659.2358592490971
 31
0.0
  0
LINE
  5
1B5
330
1F
100
AcDbEntity
  8
0-0
  6
JWW_DASHED1
 62
   120
370
     5
100
AcDbLine
 10
-622.4939065163675
 20
-455.7638732065945
 30
0.0
 11
-622.4939065163675
 21
659.2358592490971
 31
0.0
  0
LINE
  5
1B6
330
1F
100
AcDbEntity
  8
0-0
  6
JWW_DASHED1
 62
   120
370
     5
100
AcDbLine
 10
-635.4939065174675
 20
-455.7638732065945
 30
0.0
 11
-635.4939065174675
 21
659.2358592490971
 31
0.0
  0
LINE
  5
1B7
330
1F
100
AcDbEntity
  8
0-0
  6
JWW_DASHED1
 62
   120
370
     5
100
AcDbLine
 10
-636.4939065173677
 20
-455.7638732065945
 30
0.0
 11
-636.4939065173677
 21
659.2358592490971
 31
0.0
  0
LINE
  5
1B8
330
1F
100
AcDbEntity
  8
0-0
  6
JWW_DASHED1
 62
   120
370
     5
100
AcDbLine
 10
-649.4939065184677
 20
-455.7638732065945
 30
0.0
 11
-649.4939065184677
 21
659.2358592490971
 31
0.0
  0
LINE
  5
1B9
330
1F
100
AcDbEntity
  8
0-0
  6
JWW_DASHED1
 62
   120
370
     5
100
AcDbLine
 10
-650.4939065183679
 20
-455.7638732065945
 30
0.0
 11
-650.4939065183679
 21
659.2358592490971
 31
0.0
  0
LINE
  5
1BA
330
1F
100
AcDbEntity
  8
0-0
  6
JWW_DASHED1
 62
   120
370
     5
100
AcDbLine
 10
153.5060750236003
 20
-454.7640215205381
 30
0.0
 11
726.506075023601
 21
-454.7640215205381
 31
0.0
  0
LINE
  5
1BB
330
1F
100
AcDbEntity
  8
0-0
  6
JWW_DASHED1
 62
   120
370
     5
100
AcDbLine
 10
153.5060750236003
 20
-441.7640215194385
 30
0.0
 11
726.506075023601
 21
-441.7640215194385
 31
0.0
  0
LINE
  5
1BC
330
1F
100
AcDbEntity
  8
0-0
  6
JWW_DASHED1
 62
   120
370
     5
100
AcDbLine
 10
153.5060750236003
 20
-440.7640215195383
 30
0.0
 11
726.506075023601
 21
-440.7640215195383
 31
0.0
  0
LINE
  5
1BD
330
1F
100
AcDbEntity
  8
0-0
  6
JWW_DASHED1
 62
   120
370
     5
100
AcDbLine
 10
153.5060750236003
 20
-427.7640215184387
 30
0.0
 11
726.506075023601
 21
-427.7640215184387
 31
0.0
  0
LINE
  5
1BE
330
1F
100
AcDbEntity
  8
0-0
  6
JWW_DASHED1
 62
   120
370
     5
100
AcDbLine
 10
153.5060750236003
 20
-426.7640215185385
 30
0.0
 11
726.506075023601
 21
-426.7640215185385
 31
0.0
  0
LINE
  5
1BF
330
1F
100
AcDbEntity
  8
0-0
  6
JWW_DASHED1
 62
   120
370
     5
100
AcDbLine
 10
153.5060750236003
 20
-413.7640215174389
 30
0.0
 11
726.506075023601
 21
-413.7640215174389
 31
0.0
  0
LINE
  5
1C0
330
1F
100
AcDbEntity
  8
0-0
  6
JWW_DASHED1
 62
   120
370
     5
100
AcDbLine
 10
153.5060750236003
 20
-412.7640215175387
 30
0.0
 11
726.506075023601
 21
-412.7640215175387
 31
0.0
  0
LINE
  5
1C1
330
1F
100
AcDbEntity
  8
0-0
  6
JWW_DASHED1
 62
   120
370
     5
100
AcDbLine
 10
153.5060750236003
 20
-399.7640215164391
 30
0.0
 11
726.506075023601
 21
-399.7640215164391
 31
0.0
  0
LINE
  5
1C2
330
1F
100
AcDbEntity
  8
0-0
  6
JWW_DASHED1
 62
   120
370
     5
100
AcDbLine
 10
153.5060750236003
 20
-398.7640215165389
 30
0.0
 11
726.506075023601
 21
-398.7640215165389
 31
0.0
  0
LINE
  5
1C3
330
1F
100
AcDbEntity
  8
0-0
  6
JWW_DASHED1
 62
   120
370
     5
100
AcDbLine
 10
153.5060750236003
 20
-385.7640215154393
 30
0.0
 11
726.506075023601
 21
-385.7640215154393
 31
0.0
  0
LINE
  5
1C4
330
1F
100
AcDbEntity
  8
0-0
  6
JWW_DASHED1
 62
   120
370
     5
100
AcDbLine
 10
153.5060750236003
 20
-384.7640215155391
 30
0.0
 11
726.506075023601
 21
-384.7640215155391
 31
0.0
  0
LINE
  5
1C5
330
1F
100
AcDbEntity
  8
0-0
  6
JWW_DASHED1
 62
   120
370
     5
100
AcDbLine
 10
153.5060750236003
 20
-371.7640215144395
 30
0.0
 11
726.506075023601
 21
-371.7640215144395
 31
0.0
  0
LINE
  5
1C6
330
1F
100
AcDbEntity
  8
0-0
  6
JWW_DASHED1
 62
   120
370
     5
100
AcDbLine
 10
153.5060750236003
 20
-370.7640215145393
 30
0.0
 11
726.506075023601
 21
-370.7640215145393
 31
0.0
  0
LINE
  5
1C7
330
1F
100
AcDbEntity
  8
0-0
  6
JWW_DASHED1
 62
   120
370
     5
100
AcDbLine
 10
153.5060750236003
 20
-357.7640215134397
 30
0.0
 11
726.506075023601
 21
-357.7640215134397
 31
0.0
  0
LINE
  5
1C8
330
1F
100
AcDbEntity
  8
0-0
  6
JWW_DASHED1
 62
   120
370
     5
100
AcDbLine
 10
153.5060750236003
 20
-356.7640215135395
 30
0.0
 11
726.506075023601
 21
-356.7640215135395
 31
0.0
  0
LINE
  5
1C9
330
1F
100
AcDbEntity
  8
0-0
  6
JWW_DASHED1
 62
   120
370
     5
100
AcDbLine
 10
153.5060750236003
 20
-343.76402151244
 30
0.0
 11
726.506075023601
 21
-343.76402151244
 31
0.0
  0
LINE
  5
1CA
330
1F
100
AcDbEntity
  8
0-0
  6
JWW_DASHED1
 62
   120
370
     5
100
AcDbLine
 10
153.5060750236003
 20
-342.7640215125398
 30
0.0
 11
726.506075023601
 21
-342.7640215125398
 31
0.0
  0
LINE
  5
1CB
330
1F
100
AcDbEntity
  8
0-0
  6
JWW_DASHED1
 62
   120
370
     5
100
AcDbLine
 10
153.5060750236003
 20
-329.7640215114401
 30
0.0
 11
726.506075023601
 21
-329.7640215114401
 31
0.0
  0
LINE
  5
1CC
330
1F
100
AcDbEntity
  8
0-0
  6
JWW_DASHED1
 62
   120
370
     5
100
AcDbLine
 10
153.5060750236003
 20
-328.76402151154
 30
0.0
 11
726.506075023601
 21
-328.76402151154
 31
0.0
  0
LINE
  5
1CD
330
1F
100
AcDbEntity
  8
0-0
  6
JWW_DASHED1
 62
   120
370
     5
100
AcDbLine
 10
153.5060750236003
 20
-315.7640215104403
 30
0.0
 11
726.506075023601
 21
-315.7640215104403
 31
0.0
  0
LINE
  5
1CE
330
1F
100
AcDbEntity
  8
0-0
  6
JWW_DASHED1
 62
   120
370
     5
100
AcDbLine
 10
153.5060750236003
 20
-314.7640215105401
 30
0.0
 11
726.506075023601
 21
-314.7640215105401
 31
0.0
  0
LINE
  5
1CF
330
1F
100
AcDbEntity
  8
0-0
  6
JWW_DASHED1
 62
   120
370
     5
100
AcDbLine
 10
153.5060750236003
 20
-301.7640215094406
 30
0.0
 11
726.506075023601
 21
-301.7640215094406
 31
0.0
  0
LINE
  5
1D0
330
1F
100
AcDbEntity
  8
0-0
  6
JWW_DASHED1
 62
   120
370
     5
100
AcDbLine
 10
153.5060750236003
 20
-300.7640215095404
 30
0.0
 11
726.506075023601
 21
-300.7640215095404
 31
0.0
  0
LINE
  5
1D1
330
1F
100
AcDbEntity
  8
0-0
  6
JWW_DASHED1
 62
   120
370
     5
100
AcDbLine
 10
153.5060750236003
 20
-287.7640215084408
 30
0.0
 11
726.506075023601
 21
-287.7640215084408
 31
0.0
  0
LINE
  5
1D2
330
1F
100
AcDbEntity
  8
0-0
  6
JWW_DASHED1
 62
   120
370
     5
100
AcDbLine
 10
153.5060750236003
 20
-286.7640215085406
 30
0.0
 11
726.506075023601
 21
-286.7640215085406
 31
0.0
  0
LINE
  5
1D3
330
1F
100
AcDbEntity
  8
0-0
  6
JWW_DASHED1
 62
   120
370
     5
100
AcDbLine
 10
153.5060750236003
 20
-273.764021507441
 30
0.0
 11
726.506075023601
 21
-273.764021507441
 31
0.0
  0
LINE
  5
1D4
330
1F
100
AcDbEntity
  8
0-0
  6
JWW_DASHED1
 62
   120
370
     5
100
AcDbLine
 10
153.5060750236003
 20
-272.7640215075408
 30
0.0
 11
726.506075023601
 21
-272.7640215075408
 31
0.0
  0
LINE
  5
1D5
330
1F
100
AcDbEntity
  8
0-0
  6
JWW_DASHED1
 62
   120
370
     5
100
AcDbLine
 10
153.5060750236003
 20
-259.7640215064412
 30
0.0
 11
726.506075023601
 21
-259.7640215064412
 31
0.0
  0
LINE
  5
1D6
330
1F
100
AcDbEntity
  8
0-0
  6
JWW_DASHED1
 62
   120
370
     5
100
AcDbLine
 10
153.5060750236003
 20
-258.764021506541
 30
0.0
 11
726.506075023601
 21
-258.764021506541
 31
0.0
  0
LINE
  5
1D7
330
1F
100
AcDbEntity
  8
0-0
  6
JWW_DASHED1
 62
   120
370
     5
100
AcDbLine
 10
153.5060750236003
 20
-245.7640215054414
 30
0.0
 11
726.506075023601
 21
-245.7640215054414
 31
0.0
  0
LINE
  5
1D8
330
1F
100
AcDbEntity
  8
0-0
  6
JWW_DASHED1
 62
   120
370
     5
100
AcDbLine
 10
153.5060750236003
 20
-244.7640215055412
 30
0.0
 11
726.506075023601
 21
-244.7640215055412
 31
0.0
  0
LINE
  5
1D9
330
1F
100
AcDbEntity
  8
0-0
  6
JWW_DASHED1
 62
   120
370
     5
100
AcDbLine
 10
153.5060750236003
 20
-231.7640215044416
 30
0.0
 11
726.506075023601
 21
-231.7640215044416
 31
0.0
  0
LINE
  5
1DA
330
1F
100
AcDbEntity
  8
0-0
  6
JWW_DASHED1
 62
   120
370
     5
100
AcDbLine
 10
153.5060750236003
 20
-230.7640215045414
 30
0.0
 11
726.506075023601
 21
-230.7640215045414
 31
0.0
  0
LINE
  5
1DB
330
1F
100
AcDbEntity
  8
0-0
  6
JWW_DASHED1
 62
   120
370
     5
100
AcDbLine
 10
153.5060750236003
 20
-217.7640215034418
 30
0.0
 11
726.506075023601
 21
-217.7640215034418
 31
0.0
  0
LINE
  5
1DC
330
1F
100
AcDbEntity
  8
0-0
  6
JWW_DASHED1
 62
   120
370
     5
100
AcDbLine
 10
153.5060750236003
 20
-216.7640215035416
 30
0.0
 11
726.506075023601
 21
-216.7640215035416
 31
0.0
  0
LINE
  5
1DD
330
1F
100
AcDbEntity
  8
0-0
  6
JWW_DASHED1
 62
   120
370
     5
100
AcDbLine
 10
153.5060750236003
 20
-203.764021502442
 30
0.0
 11
726.506075023601
 21
-203.764021502442
 31
0.0
  0
LINE
  5
1DE
330
1F
100
AcDbEntity
  8
0-0
  6
JWW_DASHED1
 62
   120
370
     5
100
AcDbLine
 10
153.5060750236003
 20
-202.7640215025419
 30
0.0
 11
726.506075023601
 21
-202.7640215025419
 31
0.0
  0
LINE
  5
1DF
330
1F
100
AcDbEntity
  8
0-0
  6
JWW_DASHED1
 62
   120
370
     5
100
AcDbLine
 10
153.5060750236003
 20
-189.7640215014422
 30
0.0
 11
726.506075023601
 21
-189.7640215014422
 31
0.0
  0
LINE
  5
1E0
330
1F
100
AcDbEntity
  8
0-0
  6
JWW_DASHED1
 62
   120
370
     5
100
AcDbLine
 10
153.5060750236003
 20
-188.7640215015421
 30
0.0
 11
726.506075023601
 21
-188.7640215015421
 31
0.0
  0
LINE
  5
1E1
330
1F
100
AcDbEntity
  8
0-0
  6
JWW_DASHED1
 62
   120
370
     5
100
AcDbLine
 10
153.5060750236003
 20
-175.7640215004425
 30
0.0
 11
726.506075023601
 21
-175.7640215004425
 31
0.0
  0
LINE
  5
1E2
330
1F
100
AcDbEntity
  8
0-0
  6
JWW_DASHED1
 62
   120
370
     5
100
AcDbLine
 10
153.5060750236003
 20
-174.7640215005423
 30
0.0
 11
726.506075023601
 21
-174.7640215005423
 31
0.0
  0
LINE
  5
1E3
330
1F
100
AcDbEntity
  8
0-0
  6
JWW_DASHED1
 62
   120
370
     5
100
AcDbLine
 10
153.5060750236003
 20
-161.7640214994427
 30
0.0
 11
726.506075023601
 21
-161.7640214994427
 31
0.0
  0
LINE
  5
1E4
330
1F
100
AcDbEntity
  8
0-0
  6
JWW_DASHED1
 62
   120
370
     5
100
AcDbLine
 10
153.5060750236003
 20
-160.7640214995425
 30
0.0
 11
726.506075023601
 21
-160.7640214995425
 31
0.0
  0
LINE
  5
1E5
330
1F
100
AcDbEntity
  8
0-0
  6
JWW_DASHED1
 62
   120
370
     5
100
AcDbLine
 10
153.5060750236003
 20
-147.7640214984429
 30
0.0
 11
726.506075023601
 21
-147.7640214984429
 31
0.0
  0
LINE
  5
1E6
330
1F
100
AcDbEntity
  8
0-0
  6
JWW_DASHED1
 62
   120
370
     5
100
AcDbLine
 10
153.5060750236003
 20
-146.7640214985427
 30
0.0
 11
726.506075023601
 21
-146.7640214985427
 31
0.0
  0
LINE
  5
1E7
330
1F
100
AcDbEntity
  8
0-0
  6
JWW_DASHED1
 62
   120
370
     5
100
AcDbLine
 10
153.5060750236003
 20
-133.7640214974431
 30
0.0
 11
726.506075023601
 21
-133.7640214974431
 31
0.0
  0
LINE
  5
1E8
330
1F
100
AcDbEntity
  8
0-0
  6
JWW_DASHED1
 62
   120
370
     5
100
AcDbLine
 10
153.5060750236003
 20
-132.7640214975429
 30
0.0
 11
726.506075023601
 21
-132.7640214975429
 31
0.0
  0
LINE
  5
1E9
330
1F
100
AcDbEntity
  8
0-0
  6
JWW_DASHED1
 62
   120
370
     5
100
AcDbLine
 10
153.5060750236003
 20
-119.7640214964433
 30
0.0
 11
726.506075023601
 21
-119.7640214964433
 31
0.0
  0
LINE
  5
1EA
330
1F
100
AcDbEntity
  8
0-0
  6
JWW_DASHED1
 62
   120
370
     5
100
AcDbLine
 10
153.5060750236003
 20
-118.7640214965431
 30
0.0
 11
726.506075023601
 21
-118.7640214965431
 31
0.0
  0
LINE
  5
1EB
330
1F
100
AcDbEntity
  8
0-0
  6
JWW_DASHED1
 62
   120
370
     5
100
AcDbLine
 10
153.5060750236003
 20
-105.7640214954435
 30
0.0
 11
726.506075023601
 21
-105.7640214954435
 31
0.0
  0
LINE
  5
1EC
330
1F
100
AcDbEntity
  8
0-0
  6
JWW_DASHED1
 62
   120
370
     5
100
AcDbLine
 10
153.5060750236003
 20
-104.7640214955433
 30
0.0
 11
726.506075023601
 21
-104.7640214955433
 31
0.0
  0
LINE
  5
1ED
330
1F
100
AcDbEntity
  8
0-0
  6
JWW_DASHED1
 62
   120
370
     5
100
AcDbLine
 10
153.5060750236003
 20
-91.76402149444371
 30
0.0
 11
726.506075023601
 21
-91.76402149444371
 31
0.0
  0
LINE
  5
1EE
330
1F
100
AcDbEntity
  8
0-0
  6
JWW_DASHED1
 62
   120
370
     5
100
AcDbLine
 10
153.5060750236003
 20
-90.76402149454353
 30
0.0
 11
726.506075023601
 21
-90.76402149454353
 31
0.0
  0
LINE
  5
1EF
330
1F
100
AcDbEntity
  8
0-0
  6
JWW_DASHED1
 62
   120
370
     5
100
AcDbLine
 10
153.5060750236003
 20
-77.76402149344392
 30
0.0
 11
726.506075023601
 21
-77.76402149344392
 31
0.0
  0
LINE
  5
1F0
330
1F
100
AcDbEntity
  8
0-0
  6
JWW_DASHED1
 62
   120
370
     5
100
AcDbLine
 10
153.5060750236003
 20
-76.76402149354374
 30
0.0
 11
726.506075023601
 21
-76.76402149354374
 31
0.0
  0
LINE
  5
1F1
330
1F
100
AcDbEntity
  8
0-0
  6
JWW_DASHED1
 62
   120
370
     5
100
AcDbLine
 10
153.5060750236003
 20
-63.76402149244413
 30
0.0
 11
726.506075023601
 21
-63.76402149244413
 31
0.0
  0
LINE
  5
1F2
330
1F
100
AcDbEntity
  8
0-0
  6
JWW_DASHED1
 62
   120
370
     5
100
AcDbLine
 10
153.5060750236003
 20
-62.76402149254395
 30
0.0
 11
726.506075023601
 21
-62.76402149254395
 31
0.0
  0
LINE
  5
1F3
330
1F
100
AcDbEntity
  8
0-0
  6
JWW_DASHED1
 62
   120
370
     5
100
AcDbLine
 10
153.5060750236003
 20
-49.76402149144434
 30
0.0
 11
726.506075023601
 21
-49.76402149144434
 31
0.0
  0
LINE
  5
1F4
330
1F
100
AcDbEntity
  8
0-0
  6
JWW_DASHED1
 62
   120
370
     5
100
AcDbLine
 10
153.5060750236003
 20
-48.76402149154416
 30
0.0
 11
726.506075023601
 21
-48.76402149154416
 31
0.0
  0
LINE
  5
1F5
330
1F
100
AcDbEntity
  8
0-0
  6
JWW_DASHED1
 62
   120
370
     5
100
AcDbLine
 10
153.5060750236003
 20
-35.76402149044455
 30
0.0
 11
726.506075023601
 21
-35.76402149044455
 31
0.0
  0
LINE
  5
1F6
330
1F
100
AcDbEntity
  8
0-0
  6
JWW_DASHED1
 62
   120
370
     5
100
AcDbLine
 10
153.5060750236003
 20
-34.76402149054437
 30
0.0
 11
726.506075023601
 21
-34.76402149054437
 31
0.0
  0
LINE
  5
1F7
330
1F
100
AcDbEntity
  8
0-0
  6
JWW_DASHED1
 62
   120
370
     5
100
AcDbLine
 10
153.5060750236003
 20
-21.76402148944476
 30
0.0
 11
726.506075023601
 21
-21.76402148944476
 31
0.0
  0
LINE
  5
1F8
330
1F
100
AcDbEntity
  8
0-0
  6
JWW_DASHED1
 62
   120
370
     5
100
AcDbLine
 10
153.5060750236003
 20
-20.76402148954458
 30
0.0
 11
726.506075023601
 21
-20.76402148954458
 31
0.0
  0
LINE
  5
1F9
330
1F
100
AcDbEntity
  8
0-0
  6
JWW_DASHED1
 62
   120
370
     5
100
AcDbLine
 10
153.5060750236003
 20
-7.764021488444968
 30
0.0
 11
726.506075023601
 21
-7.764021488444968
 31
0.0
  0
LINE
  5
1FA
330
1F
100
AcDbEntity
  8
0-0
  6
JWW_DASHED1
 62
   120
370
     5
100
AcDbLine
 10
153.5060750236003
 20
-6.764021488544785
 30
0.0
 11
726.506075023601
 21
-6.764021488544785
 31
0.0
  0
LINE
  5
1FB
330
1F
100
AcDbEntity
  8
0-0
  6
JWW_DASHED1
 62
   120
370
     5
100
AcDbLine
 10
153.5060750236003
 20
6.235978512554823
 30
0.0
 11
726.506075023601
 21
6.235978512554823
 31
0.0
  0
LINE
  5
1FC
330
1F
100
AcDbEntity
  8
0-0
  6
JWW_DASHED1
 62
   120
370
     5
100
AcDbLine
 10
153.5060750236003
 20
7.235978512455006
 30
0.0
 11
726.506075023601
 21
7.235978512455006
 31
0.0
  0
LINE
  5
1FD
330
1F
100
AcDbEntity
  8
0-0
  6
JWW_DASHED1
 62
   120
370
     5
100
AcDbLine
 10
153.5060750236003
 20
20.23597851355461
 30
0.0
 11
726.506075023601
 21
20.23597851355461
 31
0.0
  0
LINE
  5
1FE
330
1F
100
AcDbEntity
  8
0-0
  6
JWW_DASHED1
 62
   120
370
     5
100
AcDbLine
 10
153.5060750236003
 20
21.2359785134548
 30
0.0
 11
726.506075023601
 21
21.2359785134548
 31
0.0
  0
LINE
  5
1FF
330
1F
100
AcDbEntity
  8
0-0
  6
JWW_DASHED1
 62
   120
370
     5
100
AcDbLine
 10
153.5060750236003
 20
34.2359785145544
 30
0.0
 11
726.506075023601
 21
34.2359785145544
 31
0.0
  0
LINE
  5
200
330
1F
100
AcDbEntity
  8
0-0
  6
JWW_DASHED1
 62
   120
370
     5
100
AcDbLine
 10
153.5060750236003
 20
35.23597851445459
 30
0.0
 11
726.506075023601
 21
35.23597851445459
 31
0.0
  0
LINE
  5
201
330
1F
100
AcDbEntity
  8
0-0
  6
JWW_DASHED1
 62
   120
370
     5
100
AcDbLine
 10
153.5060750236003
 20
48.23597851555419
 30
0.0
 11
726.506075023601
 21
48.23597851555419
 31
0.0
  0
LINE
  5
202
330
1F
100
AcDbEntity
  8
0-0
  6
JWW_DASHED1
 62
   120
370
     5
100
AcDbLine
 10
153.5060750236003
 20
49.23597851545438
 30
0.0
 11
726.506075023601
 21
49.23597851545438
 31
0.0
  0
LINE
  5
203
330
1F
100
AcDbEntity
  8
0-0
  6
JWW_DASHED1
 62
   120
370
     5
100
AcDbLine
 10
153.5060750236003
 20
62.23597851655398
 30
0.0
 11
726.506075023601
 21
62.23597851655398
 31
0.0
  0
LINE
  5
204
330
1F
100
AcDbEntity
  8
0-0
  6
JWW_DASHED1
 62
   120
370
     5
100
AcDbLine
 10
153.5060750236003
 20
63.23597851645417
 30
0.0
 11
726.506075023601
 21
63.23597851645417
 31
0.0
  0
LINE
  5
205
330
1F
100
AcDbEntity
  8
0-0
  6
JWW_DASHED1
 62
   120
370
     5
100
AcDbLine
 10
153.5060750236003
 20
76.23597851755378
 30
0.0
 11
726.506075023601
 21
76.23597851755378
 31
0.0
  0
LINE
  5
206
330
1F
100
AcDbEntity
  8
0-0
  6
JWW_DASHED1
 62
   120
370
     5
100
AcDbLine
 10
153.5060750236003
 20
77.23597851745396
 30
0.0
 11
726.506075023601
 21
77.23597851745396
 31
0.0
  0
LINE
  5
207
330
1F
100
AcDbEntity
  8
0-0
  6
JWW_DASHED1
 62
   120
370
     5
100
AcDbLine
 10
153.5060750236003
 20
90.23597851855357
 30
0.0
 11
726.506075023601
 21
90.23597851855357
 31
0.0
  0
LINE
  5
208
330
1F
100
AcDbEntity
  8
0-0
  6
JWW_DASHED1
 62
   120
370
     5
100
AcDbLine
 10
153.5060750236003
 20
91.23597851845375
 30
0.0
 11
726.506075023601
 21
91.23597851845375
 31
0.0
  0
LINE
  5
209
330
1F
100
AcDbEntity
  8
0-0
  6
JWW_DASHED1
 62
   120
370
     5
100
AcDbLine
 10
153.5060750236003
 20
104.2359785195534
 30
0.0
 11
726.506075023601
 21
104.2359785195534
 31
0.0
  0
LINE
  5
20A
330
1F
100
AcDbEntity
  8
0-0
  6
JWW_DASHED1
 62
   120
370
     5
100
AcDbLine
 10
153.5060750236003
 20
105.2359785194535
 30
0.0
 11
726.506075023601
 21
105.2359785194535
 31
0.0
  0
LINE
  5
20B
330
1F
100
AcDbEntity
  8
0-0
  6
JWW_DASHED1
 62
   120
370
     5
100
AcDbLine
 10
153.5060750236003
 20
118.2359785205531
 30
0.0
 11
726.506075023601
 21
118.2359785205531
 31
0.0
  0
LINE
  5
20C
330
1F
100
AcDbEntity
  8
0-0
  6
JWW_DASHED1
 62
   120
370
     5
100
AcDbLine
 10
153.5060750236003
 20
119.2359785204533
 30
0.0
 11
726.506075023601
 21
119.2359785204533
 31
0.0
  0
LINE
  5
20D
330
1F
100
AcDbEntity
  8
0-0
  6
JWW_DASHED1
 62
   120
370
     5
100
AcDbLine
 10
153.5060750236003
 20
132.2359785215529
 30
0.0
 11
726.506075023601
 21
132.2359785215529
 31
0.0
  0
LINE
  5
20E
330
1F
100
AcDbEntity
  8
0-0
  6
JWW_DASHED1
 62
   120
370
     5
100
AcDbLine
 10
153.5060750236003
 20
133.2359785214531
 30
0.0
 11
726.506075023601
 21
133.2359785214531
 31
0.0
  0
LINE
  5
20F
330
1F
100
AcDbEntity
  8
0-0
  6
JWW_DASHED1
 62
   120
370
     5
100
AcDbLine
 10
153.5060750236003
 20
146.2359785225527
 30
0.0
 11
726.506075023601
 21
146.2359785225527
 31
0.0
  0
LINE
  5
210
330
1F
100
AcDbEntity
  8
0-0
  6
JWW_DASHED1
 62
   120
370
     5
100
AcDbLine
 10
153.5060750236003
 20
147.2359785224529
 30
0.0
 11
726.506075023601
 21
147.2359785224529
 31
0.0
  0
LINE
  5
211
330
1F
100
AcDbEntity
  8
0-0
  6
JWW_DASHED1
 62
   120
370
     5
100
AcDbLine
 10
153.5060750236003
 20
160.2359785235525
 30
0.0
 11
726.506075023601
 21
160.2359785235525
 31
0.0
  0
LINE
  5
212
330
1F
100
AcDbEntity
  8
0-0
  6
JWW_DASHED1
 62
   120
370
     5
100
AcDbLine
 10
153.5060750236003
 20
161.2359785234527
 30
0.0
 11
726.506075023601
 21
161.2359785234527
 31
0.0
  0
LINE
  5
213
330
1F
100
AcDbEntity
  8
0-0
  6
JWW_DASHED1
 62
   120
370
     5
100
AcDbLine
 10
153.5060750236003
 20
174.2359785245523
 30
0.0
 11
726.506075023601
 21
174.2359785245523
 31
0.0
  0
LINE
  5
214
330
1F
100
AcDbEntity
  8
0-0
  6
JWW_DASHED1
 62
   120
370
     5
100
AcDbLine
 10
153.5060750236003
 20
175.2359785244525
 30
0.0
 11
726.506075023601
 21
175.2359785244525
 31
0.0
  0
LINE
  5
215
330
1F
100
AcDbEntity
  8
0-0
  6
JWW_DASHED1
 62
   120
370
     5
100
AcDbLine
 10
153.5060750236003
 20
188.2359785255521
 30
0.0
 11
726.506075023601
 21
188.2359785255521
 31
0.0
  0
LINE
  5
216
330
1F
100
AcDbEntity
  8
0-0
  6
JWW_DASHED1
 62
   120
370
     5
100
AcDbLine
 10
153.5060750236003
 20
189.2359785254523
 30
0.0
 11
726.506075023601
 21
189.2359785254523
 31
0.0
  0
LINE
  5
217
330
1F
100
AcDbEntity
  8
0-0
  6
JWW_DASHED1
 62
   120
370
     5
100
AcDbLine
 10
153.5060750236003
 20
202.2359785265519
 30
0.0
 11
726.506075023601
 21
202.2359785265519
 31
0.0
  0
LINE
  5
218
330
1F
100
AcDbEntity
  8
0-0
  6
JWW_DASHED1
 62
   120
370
     5
100
AcDbLine
 10
153.5060750236003
 20
203.2359785264521
 30
0.0
 11
726.506075023601
 21
203.2359785264521
 31
0.0
  0
LINE
  5
219
330
1F
100
AcDbEntity
  8
0-0
  6
JWW_DASHED1
 62
   120
370
     5
100
AcDbLine
 10
153.5060750236003
 20
216.2359785275517
 30
0.0
 11
726.506075023601
 21
216.2359785275517
 31
0.0
  0
LINE
  5
21A
330
1F
100
AcDbEntity
  8
0-0
  6
JWW_DASHED1
 62
   120
370
     5
100
AcDbLine
 10
153.5060750236003
 20
217.2359785274519
 30
0.0
 11
726.506075023601
 21
217.2359785274519
 31
0.0
  0
LINE
  5
21B
330
1F
100
AcDbEntity
  8
0-0
  6
JWW_DASHED1
 62
   120
370
     5
100
AcDbLine
 10
153.5060750236003
 20
230.2359785285515
 30
0.0
 11
726.506075023601
 21
230.2359785285515
 31
0.0
  0
LINE
  5
21C
330
1F
100
AcDbEntity
  8
0-0
  6
JWW_DASHED1
 62
   120
370
     5
100
AcDbLine
 10
153.5060750236003
 20
231.2359785284517
 30
0.0
 11
726.506075023601
 21
231.2359785284517
 31
0.0
  0
LINE
  5
21D
330
1F
100
AcDbEntity
  8
0-0
  6
JWW_DASHED1
 62
   120
370
     5
100
AcDbLine
 10
153.5060750236003
 20
244.2359785295513
 30
0.0
 11
726.506075023601
 21
244.2359785295513
 31
0.0
  0
LINE
  5
21E
330
1F
100
AcDbEntity
  8
0-0
  6
JWW_DASHED1
 62
   120
370
     5
100
AcDbLine
 10
153.5060750236003
 20
245.2359785294514
 30
0.0
 11
726.506075023601
 21
245.2359785294514
 31
0.0
  0
LINE
  5
21F
330
1F
100
AcDbEntity
  8
0-0
  6
JWW_DASHED1
 62
   120
370
     5
100
AcDbLine
 10
153.5060750236003
 20
258.2359785305511
 30
0.0
 11
726.506075023601
 21
258.2359785305511
 31
0.0
  0
LINE
  5
220
330
1F
100
AcDbEntity
  8
0-0
  6
JWW_DASHED1
 62
   120
370
     5
100
AcDbLine
 10
153.5060750236003
 20
259.2359785304512
 30
0.0
 11
726.506075023601
 21
259.2359785304512
 31
0.0
  0
LINE
  5
221
330
1F
100
AcDbEntity
  8
0-0
  6
JWW_DASHED1
 62
   120
370
     5
100
AcDbLine
 10
153.5060750236003
 20
272.2359785315508
 30
0.0
 11
726.506075023601
 21
272.2359785315508
 31
0.0
  0
LINE
  5
222
330
1F
100
AcDbEntity
  8
0-0
  6
JWW_DASHED1
 62
   120
370
     5
100
AcDbLine
 10
153.5060750236003
 20
273.235978531451
 30
0.0
 11
726.506075023601
 21
273.235978531451
 31
0.0
  0
LINE
  5
223
330
1F
100
AcDbEntity
  8
0-0
  6
JWW_DASHED1
 62
   120
370
     5
100
AcDbLine
 10
153.5060750236003
 20
286.2359785325506
 30
0.0
 11
726.506075023601
 21
286.2359785325506
 31
0.0
  0
LINE
  5
224
330
1F
100
AcDbEntity
  8
0-0
  6
JWW_DASHED1
 62
   120
370
     5
100
AcDbLine
 10
153.5060750236003
 20
287.2359785324508
 30
0.0
 11
726.506075023601
 21
287.2359785324508
 31
0.0
  0
LINE
  5
225
330
1F
100
AcDbEntity
  8
0-0
  6
JWW_DASHED1
 62
   120
370
     5
100
AcDbLine
 10
153.5060750236003
 20
300.2359785335505
 30
0.0
 11
726.506075023601
 21
300.2359785335505
 31
0.0
  0
LINE
  5
226
330
1F
100
AcDbEntity
  8
0-0
  6
JWW_DASHED1
 62
   120
370
     5
100
AcDbLine
 10
153.5060750236003
 20
301.2359785334506
 30
0.0
 11
726.506075023601
 21
301.2359785334506
 31
0.0
  0
LINE
  5
227
330
1F
100
AcDbEntity
  8
0-0
  6
JWW_DASHED1
 62
   120
370
     5
100
AcDbLine
 10
153.5060750236003
 20
314.2359785345502
 30
0.0
 11
726.506075023601
 21
314.2359785345502
 31
0.0
  0
LINE
  5
228
330
1F
100
AcDbEntity
  8
0-0
  6
JWW_DASHED1
 62
   120
370
     5
100
AcDbLine
 10
153.5060750236003
 20
315.2359785344504
 30
0.0
 11
726.506075023601
 21
315.2359785344504
 31
0.0
  0
LINE
  5
229
330
1F
100
AcDbEntity
  8
0-0
  6
JWW_DASHED1
 62
   120
370
     5
100
AcDbLine
 10
153.5060750236003
 20
328.23597853555
 30
0.0
 11
726.506075023601
 21
328.23597853555
 31
0.0
  0
LINE
  5
22A
330
1F
100
AcDbEntity
  8
0-0
  6
JWW_DASHED1
 62
   120
370
     5
100
AcDbLine
 10
153.5060750236003
 20
329.2359785354502
 30
0.0
 11
726.506075023601
 21
329.2359785354502
 31
0.0
  0
LINE
  5
22B
330
1F
100
AcDbEntity
  8
0-0
  6
JWW_DASHED1
 62
   120
370
     5
100
AcDbLine
 10
153.5060750236003
 20
342.2359785365498
 30
0.0
 11
726.506075023601
 21
342.2359785365498
 31
0.0
  0
LINE
  5
22C
330
1F
100
AcDbEntity
  8
0-0
  6
JWW_DASHED1
 62
   120
370
     5
100
AcDbLine
 10
153.5060750236003
 20
343.23597853645
 30
0.0
 11
726.506075023601
 21
343.23597853645
 31
0.0
  0
LINE
  5
22D
330
1F
100
AcDbEntity
  8
0-0
  6
JWW_DASHED1
 62
   120
370
     5
100
AcDbLine
 10
153.5060750236003
 20
356.2359785375496
 30
0.0
 11
726.506075023601
 21
356.2359785375496
 31
0.0
  0
LINE
  5
22E
330
1F
100
AcDbEntity
  8
0-0
  6
JWW_DASHED1
 62
   120
370
     5
100
AcDbLine
 10
153.5060750236003
 20
357.2359785374498
 30
0.0
 11
726.506075023601
 21
357.2359785374498
 31
0.0
  0
LINE
  5
22F
330
1F
100
AcDbEntity
  8
0-0
  6
JWW_DASHED1
 62
   120
370
     5
100
AcDbLine
 10
153.5060750236003
 20
370.2359785385494
 30
0.0
 11
726.506075023601
 21
370.2359785385494
 31
0.0
  0
LINE
  5
230
330
1F
100
AcDbEntity
  8
0-0
  6
JWW_DASHED1
 62
   120
370
     5
100
AcDbLine
 10
153.5060750236003
 20
371.2359785384496
 30
0.0
 11
726.506075023601
 21
371.2359785384496
 31
0.0
  0
LINE
  5
231
330
1F
100
AcDbEntity
  8
0-0
  6
JWW_DASHED1
 62
   120
370
     5
100
AcDbLine
 10
153.5060750236003
 20
384.2359785395491
 30
0.0
 11
726.506075023601
 21
384.2359785395491
 31
0.0
  0
LINE
  5
232
330
1F
100
AcDbEntity
  8
0-0
  6
JWW_DASHED1
 62
   120
370
     5
100
AcDbLine
 10
153.5060750236003
 20
385.2359785394493
 30
0.0
 11
726.506075023601
 21
385.2359785394493
 31
0.0
  0
LINE
  5
233
330
1F
100
AcDbEntity
  8
0-0
  6
JWW_DASHED1
 62
   120
370
     5
100
AcDbLine
 10
153.5060750236003
 20
398.235978540549
 30
0.0
 11
726.506075023601
 21
398.235978540549
 31
0.0
  0
LINE
  5
234
330
1F
100
AcDbEntity
  8
0-0
  6
JWW_DASHED1
 62
   120
370
     5
100
AcDbLine
 10
153.5060750236003
 20
399.2359785404491
 30
0.0
 11
726.506075023601
 21
399.2359785404491
 31
0.0
  0
LINE
  5
235
330
1F
100
AcDbEntity
  8
0-0
  6
JWW_DASHED1
 62
   120
370
     5
100
AcDbLine
 10
153.5060750236003
 20
412.2359785415488
 30
0.0
 11
726.506075023601
 21
412.2359785415488
 31
0.0
  0
LINE
  5
236
330
1F
100
AcDbEntity
  8
0-0
  6
JWW_DASHED1
 62
   120
370
     5
100
AcDbLine
 10
153.5060750236003
 20
413.235978541449
 30
0.0
 11
726.506075023601
 21
413.235978541449
 31
0.0
  0
LINE
  5
237
330
1F
100
AcDbEntity
  8
0-0
  6
JWW_DASHED1
 62
   120
370
     5
100
AcDbLine
 10
153.5060750236003
 20
426.2359785425485
 30
0.0
 11
726.506075023601
 21
426.2359785425485
 31
0.0
  0
LINE
  5
238
330
1F
100
AcDbEntity
  8
0-0
  6
JWW_DASHED1
 62
   120
370
     5
100
AcDbLine
 10
153.5060750236003
 20
427.2359785424487
 30
0.0
 11
726.506075023601
 21
427.2359785424487
 31
0.0
  0
LINE
  5
239
330
1F
100
AcDbEntity
  8
0-0
  6
JWW_DASHED1
 62
   120
370
     5
100
AcDbLine
 10
153.5060750236003
 20
440.2359785435483
 30
0.0
 11
726.506075023601
 21
440.2359785435483
 31
0.0
  0
LINE
  5
23A
330
1F
100
AcDbEntity
  8
0-0
  6
JWW_DASHED1
 62
   120
370
     5
100
AcDbLine
 10
153.5060750236003
 20
441.2359785434485
 30
0.0
 11
726.506075023601
 21
441.2359785434485
 31
0.0
  0
LINE
  5
23B
330
1F
100
AcDbEntity
  8
0-0
  6
JWW_DASHED1
 62
   120
370
     5
100
AcDbLine
 10
153.5060750236003
 20
454.2359785445481
 30
0.0
 11
726.506075023601
 21
454.2359785445481
 31
0.0
  0
LINE
  5
23C
330
1F
100
AcDbEntity
  8
0-0
  6
JWW_DASHED1
 62
   120
370
     5
100
AcDbLine
 10
153.5060750236003
 20
455.2359785444483
 30
0.0
 11
726.506075023601
 21
455.2359785444483
 31
0.0
  0
LINE
  5
23D
330
1F
100
AcDbEntity
  8
0-0
  6
JWW_DASHED1
 62
   120
370
     5
100
AcDbLine
 10
153.5060750236003
 20
468.2359785455479
 30
0.0
 11
726.506075023601
 21
468.2359785455479
 31
0.0
  0
LINE
  5
23E
330
1F
100
AcDbEntity
  8
0-0
  6
JWW_DASHED1
 62
   120
370
     5
100
AcDbLine
 10
153.5060750236003
 20
469.2359785454481
 30
0.0
 11
726.506075023601
 21
469.2359785454481
 31
0.0
  0
LINE
  5
23F
330
1F
100
AcDbEntity
  8
0-0
  6
JWW_DASHED1
 62
   120
370
     5
100
AcDbLine
 10
153.5060750236003
 20
482.2359785465477
 30
0.0
 11
726.506075023601
 21
482.2359785465477
 31
0.0
  0
LINE
  5
240
330
1F
100
AcDbEntity
  8
0-0
  6
JWW_DASHED1
 62
   120
370
     5
100
AcDbLine
 10
153.5060750236003
 20
483.2359785464479
 30
0.0
 11
726.506075023601
 21
483.2359785464479
 31
0.0
  0
LINE
  5
241
330
1F
100
AcDbEntity
  8
0-0
  6
JWW_DASHED1
 62
   120
370
     5
100
AcDbLine
 10
153.5060750236003
 20
496.2359785475475
 30
0.0
 11
726.506075023601
 21
496.2359785475475
 31
0.0
  0
LINE
  5
242
330
1F
100
AcDbEntity
  8
0-0
  6
JWW_DASHED1
 62
   120
370
     5
100
AcDbLine
 10
153.5060750236003
 20
497.2359785474476
 30
0.0
 11
726.506075023601
 21
497.2359785474476
 31
0.0
  0
LINE
  5
243
330
1F
100
AcDbEntity
  8
0-0
  6
JWW_DASHED1
 62
   120
370
     5
100
AcDbLine
 10
153.5060750236003
 20
510.2359785485473
 30
0.0
 11
726.506075023601
 21
510.2359785485473
 31
0.0
  0
LINE
  5
244
330
1F
100
AcDbEntity
  8
0-0
  6
JWW_DASHED1
 62
   120
370
     5
100
AcDbLine
 10
153.5060750236003
 20
511.2359785484475
 30
0.0
 11
726.506075023601
 21
511.2359785484475
 31
0.0
  0
LINE
  5
245
330
1F
100
AcDbEntity
  8
0-0
  6
JWW_DASHED1
 62
   120
370
     5
100
AcDbLine
 10
153.5060750236003
 20
524.2359785495471
 30
0.0
 11
726.506075023601
 21
524.2359785495471
 31
0.0
  0
LINE
  5
246
330
1F
100
AcDbEntity
  8
0-0
  6
JWW_DASHED1
 62
   120
370
     5
100
AcDbLine
 10
153.5060750236003
 20
525.2359785494473
 30
0.0
 11
726.506075023601
 21
525.2359785494473
 31
0.0
  0
LINE
  5
247
330
1F
100
AcDbEntity
  8
0-0
  6
JWW_DASHED1
 62
   120
370
     5
100
AcDbLine
 10
153.5060750236003
 20
538.2359785505469
 30
0.0
 11
726.506075023601
 21
538.2359785505469
 31
0.0
  0
LINE
  5
248
330
1F
100
AcDbEntity
  8
0-0
  6
JWW_DASHED1
 62
   120
370
     5
100
AcDbLine
 10
153.5060750236003
 20
539.235978550447
 30
0.0
 11
726.506075023601
 21
539.235978550447
 31
0.0
  0
LINE
  5
249
330
1F
100
AcDbEntity
  8
0-0
  6
JWW_DASHED1
 62
   120
370
     5
100
AcDbLine
 10
153.5060750236003
 20
552.2359785515466
 30
0.0
 11
726.506075023601
 21
552.2359785515466
 31
0.0
  0
LINE
  5
24A
330
1F
100
AcDbEntity
  8
0-0
  6
JWW_DASHED1
 62
   120
370
     5
100
AcDbLine
 10
153.5060750236003
 20
553.2359785514468
 30
0.0
 11
726.506075023601
 21
553.2359785514468
 31
0.0
  0
LINE
  5
24B
330
1F
100
AcDbEntity
  8
0-0
  6
JWW_DASHED1
 62
   120
370
     5
100
AcDbLine
 10
153.5060750236003
 20
566.2359785525464
 30
0.0
 11
726.506075023601
 21
566.2359785525464
 31
0.0
  0
LINE
  5
24C
330
1F
100
AcDbEntity
  8
0-0
  6
JWW_DASHED1
 62
   120
370
     5
100
AcDbLine
 10
153.5060750236003
 20
567.2359785524466
 30
0.0
 11
726.506075023601
 21
567.2359785524466
 31
0.0
  0
LINE
  5
24D
330
1F
100
AcDbEntity
  8
0-0
  6
JWW_DASHED1
 62
   120
370
     5
100
AcDbLine
 10
153.5060750236003
 20
580.2359785535463
 30
0.0
 11
726.506075023601
 21
580.2359785535463
 31
0.0
  0
LINE
  5
24E
330
1F
100
AcDbEntity
  8
0-0
  6
JWW_DASHED1
 62
   120
370
     5
100
AcDbLine
 10
153.5060750236003
 20
581.2359785534464
 30
0.0
 11
726.506075023601
 21
581.2359785534464
 31
0.0
  0
LINE
  5
24F
330
1F
100
AcDbEntity
  8
0-0
  6
JWW_DASHED1
 62
   120
370
     5
100
AcDbLine
 10
153.5060750236003
 20
594.235978554546
 30
0.0
 11
726.506075023601
 21
594.235978554546
 31
0.0
  0
LINE
  5
250
330
1F
100
AcDbEntity
  8
0-0
  6
JWW_DASHED1
 62
   120
370
     5
100
AcDbLine
 10
153.5060750236003
 20
595.2359785544462
 30
0.0
 11
726.506075023601
 21
595.2359785544462
 31
0.0
  0
LINE
  5
251
330
1F
100
AcDbEntity
  8
0-0
  6
JWW_DASHED1
 62
   120
370
     5
100
AcDbLine
 10
153.5060750236003
 20
608.2359785555458
 30
0.0
 11
726.506075023601
 21
608.2359785555458
 31
0.0
  0
LINE
  5
252
330
1F
100
AcDbEntity
  8
0-0
  6
JWW_DASHED1
 62
   120
370
     5
100
AcDbLine
 10
153.5060750236003
 20
609.235978555446
 30
0.0
 11
726.506075023601
 21
609.235978555446
 31
0.0
  0
LINE
  5
253
330
1F
100
AcDbEntity
  8
0-0
  6
JWW_DASHED1
 62
   120
370
     5
100
AcDbLine
 10
153.5060750236003
 20
622.2359785565457
 30
0.0
 11
726.506075023601
 21
622.2359785565457
 31
0.0
  0
LINE
  5
254
330
1F
100
AcDbEntity
  8
0-0
  6
JWW_DASHED1
 62
   120
370
     5
100
AcDbLine
 10
153.5060750236003
 20
623.2359785564458
 30
0.0
 11
726.506075023601
 21
623.2359785564458
 31
0.0
  0
LINE
  5
255
330
1F
100
AcDbEntity
  8
0-0
  6
JWW_DASHED1
 62
   120
370
     5
100
AcDbLine
 10
153.5060750236003
 20
636.2359785575454
 30
0.0
 11
726.506075023601
 21
636.2359785575454
 31
0.0
  0
LINE
  5
256
330
1F
100
AcDbEntity
  8
0-0
  6
JWW_DASHED1
 62
   120
370
     5
100
AcDbLine
 10
153.5060750236003
 20
637.2359785574456
 30
0.0
 11
726.506075023601
 21
637.2359785574456
 31
0.0
  0
LINE
  5
257
330
1F
100
AcDbEntity
  8
0-0
  6
JWW_DASHED1
 62
   120
370
     5
100
AcDbLine
 10
153.5060750236003
 20
650.2359785585452
 30
0.0
 11
726.506075023601
 21
650.2359785585452
 31
0.0
  0
LINE
  5
258
330
1F
100
AcDbEntity
  8
0-0
  6
JWW_DASHED1
 62
   120
370
     5
100
AcDbLine
 10
153.5060750236003
 20
651.2359785584454
 30
0.0
 11
726.506075023601
 21
651.2359785584454
 31
0.0
  0
LINE
  5
259
330
1F
100
AcDbEntity
  8
0-0
  6
JWW_DASHED1
 62
   120
370
     5
100
AcDbLine
 10
240.9249167855637
 20
664.235978559545
 30
0.0
 11
639.0872332616368
 21
664.235978559545
 31
0.0
  0
LINE
  5
25A
330
1F
100
AcDbEntity
  8
0-0
  6
JWW_DASHED1
 62
   120
370
     5
100
AcDbLine
 10
244.5191466569236
 20
665.2359785594451
 30
0.0
 11
635.493003390277
 21
665.2359785594451
 31
0.0
  0
LINE
  5
25B
330
1F
100
AcDbEntity
  8
0-0
  6
JWW_DASHED1
 62
   120
370
     5
100
AcDbLine
 10
275.6312241251794
 20
678.2359785605447
 30
0.0
 11
604.3809259220211
 21
678.2359785605447
 31
0.0
  0
LINE
  5
25C
330
1F
100
AcDbEntity
  8
0-0
  6
JWW_DASHED1
 62
   120
370
     5
100
AcDbLine
 10
277.5250241148456
 20
679.2359785604449
 30
0.0
 11
602.487125932355
 21
679.2359785604449
 31
0.0
  0
LINE
  5
25D
330
1F
100
AcDbEntity
  8
0-0
  6
JWW_DASHED1
 62
   120
370
     5
100
AcDbLine
 10
305.2058682071652
 20
692.2359785615446
 30
0.0
 11
574.8062818400354
 21
692.2359785615446
 31
0.0
  0
LINE
  5
25E
330
1F
100
AcDbEntity
  8
0-0
  6
JWW_DASHED1
 62
   120
370
     5
100
AcDbLine
 10
307.6274662747414
 20
693.2359785614448
 30
0.0
 11
572.3846837724591
 21
693.2359785614448
 31
0.0
  0
LINE
  5
25F
330
1F
100
AcDbEntity
  8
0-0
  6
JWW_DASHED1
 62
   120
370
     5
100
AcDbLine
 10
345.5015782651094
 20
706.2359785625443
 30
0.0
 11
534.5105717820911
 21
706.2359785625443
 31
0.0
  0
LINE
  5
260
330
1F
100
AcDbEntity
  8
0-0
  6
JWW_DASHED1
 62
   120
370
     5
100
AcDbLine
 10
349.1429900874823
 20
707.2359785624445
 30
0.0
 11
530.8691599597182
 21
707.2359785624445
 31
0.0
  0
LINE
  5
261
330
1F
100
AcDbEntity
  8
0-0
  6
JWW_DASHED1
 62
   120
370
     5
100
AcDbLine
 10
720.5060935215324
 20
-455.7638732065945
 30
0.0
 11
720.5060935215324
 21
659.2358592490971
 31
0.0
  0
LINE
  5
262
330
1F
100
AcDbEntity
  8
0-0
  6
JWW_DASHED1
 62
   120
370
     5
100
AcDbLine
 10
719.5060935216322
 20
-455.7638732065945
 30
0.0
 11
719.5060935216322
 21
659.2358592490971
 31
0.0
  0
LINE
  5
263
330
1F
100
AcDbEntity
  8
0-0
  6
JWW_DASHED1
 62
   120
370
     5
100
AcDbLine
 10
706.5060935205322
 20
-455.7638732065945
 30
0.0
 11
706.5060935205322
 21
659.2358592490971
 31
0.0
  0
LINE
  5
264
330
1F
100
AcDbEntity
  8
0-0
  6
JWW_DASHED1
 62
   120
370
     5
100
AcDbLine
 10
705.5060935206325
 20
-455.7638732065945
 30
0.0
 11
705.5060935206325
 21
659.2358592490971
 31
0.0
  0
LINE
  5
265
330
1F
100
AcDbEntity
  8
0-0
  6
JWW_DASHED1
 62
   120
370
     5
100
AcDbLine
 10
692.5060935195324
 20
-455.7638732065945
 30
0.0
 11
692.5060935195324
 21
659.2358592490971
 31
0.0
  0
LINE
  5
266
330
1F
100
AcDbEntity
  8
0-0
  6
JWW_DASHED1
 62
   120
370
     5
100
AcDbLine
 10
691.5060935196323
 20
-455.7638732065945
 30
0.0
 11
691.5060935196327
 21
659.2358592490971
 31
0.0
  0
LINE
  5
267
330
1F
100
AcDbEntity
  8
0-0
  6
JWW_DASHED1
 62
   120
370
     5
100
AcDbLine
 10
678.5060935185322
 20
-455.7638732065945
 30
0.0
 11
678.5060935185327
 21
659.2358592490971
 31
0.0
  0
LINE
  5
268
330
1F
100
AcDbEntity
  8
0-0
  6
JWW_DASHED1
 62
   120
370
     5
100
AcDbLine
 10
677.5060935186325
 20
-455.7638732065945
 30
0.0
 11
677.5060935186325
 21
659.2358592490971
 31
0.0
  0
LINE
  5
269
330
1F
100
AcDbEntity
  8
0-0
  6
JWW_DASHED1
 62
   120
370
     5
100
AcDbLine
 10
664.5060935175325
 20
-455.7638732065945
 30
0.0
 11
664.5060935175325
 21
659.7991517543094
 31
0.0
  0
LINE
  5
26A
330
1F
100
AcDbEntity
  8
0-0
  6
JWW_DASHED1
 62
   120
370
     5
100
AcDbLine
 10
663.5060935176323
 20
-455.7638732065945
 30
0.0
 11
663.5060935176323
 21
659.8894334163422
 31
0.0
  0
LINE
  5
26B
330
1F
100
AcDbEntity
  8
0-0
  6
JWW_DASHED1
 62
   120
370
     5
100
AcDbLine
 10
650.5060935165322
 20
-455.7638732065945
 30
0.0
 11
650.5060935165322
 21
661.683547790876
 31
0.0
  0
LINE
  5
26C
330
1F
100
AcDbEntity
  8
0-0
  6
JWW_DASHED1
 62
   120
370
     5
100
AcDbLine
 10
649.5060935166325
 20
-455.7638732065945
 30
0.0
 11
649.5060935166325
 21
661.869954173312
 31
0.0
  0
LINE
  5
26D
330
1F
100
AcDbEntity
  8
0-0
  6
JWW_DASHED1
 62
   120
370
     5
100
AcDbLine
 10
636.5060935155325
 20
-455.7638732065945
 30
0.0
 11
636.5060935155325
 21
664.9443498440676
 31
0.0
  0
LINE
  5
26E
330
1F
100
AcDbEntity
  8
0-0
  6
JWW_DASHED1
 62
   120
370
     5
100
AcDbLine
 10
635.5060935156323
 20
-455.7638732065945
 30
0.0
 11
635.5060935156326
 21
665.2321612114472
 31
0.0
  0
LINE
  5
26F
330
1F
100
AcDbEntity
  8
0-0
  6
JWW_DASHED1
 62
   120
370
     5
100
AcDbLine
 10
622.5060935145323
 20
-455.7638732065945
 30
0.0
 11
622.5060935145326
 21
669.6780047369109
 31
0.0
  0
LINE
  5
270
330
1F
100
AcDbEntity
  8
0-0
  6
JWW_DASHED1
 62
   120
370
     5
100
AcDbLine
 10
621.5060935146324
 20
-455.7638732065945
 30
0.0
 11
621.5060935146324
 21
670.0761663844285
 31
0.0
  0
LINE
  5
271
330
1F
100
AcDbEntity
  8
0-0
  6
JWW_DASHED1
 62
   120
370
     5
100
AcDbLine
 10
608.5060935135324
 20
-455.7638732065945
 30
0.0
 11
608.5060935135324
 21
676.0414531140711
 31
0.0
  0
LINE
  5
272
330
1F
100
AcDbEntity
  8
0-0
  6
JWW_DASHED1
 62
   120
370
     5
100
AcDbLine
 10
607.5060935136322
 20
-455.7638732065945
 30
0.0
 11
607.5060935136322
 21
676.5641773128707
 31
0.0
  0
LINE
  5
273
330
1F
100
AcDbEntity
  8
0-0
  6
JWW_DASHED1
 62
   120
370
     5
100
AcDbLine
 10
594.5060935125326
 20
-455.7638732065945
 30
0.0
 11
594.5060935125326
 21
683.28985513763
 31
0.0
  0
LINE
  5
274
330
1F
100
AcDbEntity
  8
0-0
  6
JWW_DASHED1
 62
   120
370
     5
100
AcDbLine
 10
593.5060935126324
 20
-455.7638732065945
 30
0.0
 11
593.5060935126324
 21
683.7798349229367
 31
0.0
  0
LINE
  5
275
330
1F
100
AcDbEntity
  8
0-0
  6
JWW_DASHED1
 62
   120
370
     5
100
AcDbLine
 10
580.5060935115329
 20
-455.7638732065945
 30
0.0
 11
580.5060935115329
 21
689.7977352322621
 31
0.0
  0
LINE
  5
276
330
1F
100
AcDbEntity
  8
0-0
  6
JWW_DASHED1
 62
   120
370
     5
100
AcDbLine
 10
579.5060935116327
 20
-455.7638732065945
 30
0.0
 11
579.5060935116327
 21
690.2341717124389
 31
0.0
  0
LINE
  5
277
330
1F
100
AcDbEntity
  8
0-0
  6
JWW_DASHED1
 62
   120
370
     5
100
AcDbLine
 10
566.5060935105327
 20
-455.7638732065945
 30
0.0
 11
566.5060935105327
 21
695.5760497614963
 31
0.0
  0
LINE
  5
278
330
1F
100
AcDbEntity
  8
0-0
  6
JWW_DASHED1
 62
   120
370
     5
100
AcDbLine
 10
565.5060935106325
 20
-455.7638732065945
 30
0.0
 11
565.5060935106325
 21
695.9619221627715
 31
0.0
  0
LINE
  5
279
330
1F
100
AcDbEntity
  8
0-0
  6
JWW_DASHED1
 62
   120
370
     5
100
AcDbLine
 10
552.5060935095324
 20
-455.7638732065945
 30
0.0
 11
552.5060935095324
 21
700.6629601075681
 31
0.0
  0
LINE
  5
27A
330
1F
100
AcDbEntity
  8
0-0
  6
JWW_DASHED1
 62
   120
370
     5
100
AcDbLine
 10
551.5060935096323
 20
-455.7638732065945
 30
0.0
 11
551.5060935096323
 21
701.000720862178
 31
0.0
  0
LINE
  5
27B
330
1F
100
AcDbEntity
  8
0-0
  6
JWW_DASHED1
 62
   120
370
     5
100
AcDbLine
 10
538.5060935085326
 20
-455.7638732065945
 30
0.0
 11
538.5060935085326
 21
705.0898841915866
 31
0.0
  0
LINE
  5
27C
330
1F
100
AcDbEntity
  8
0-0
  6
JWW_DASHED1
 62
   120
370
     5
100
AcDbLine
 10
537.5060935086324
 20
-455.7638732065945
 30
0.0
 11
537.5060935086324
 21
705.3815512683129
 31
0.0
  0
LINE
  5
27D
330
1F
100
AcDbEntity
  8
0-0
  6
JWW_DASHED1
 62
   120
370
     5
100
AcDbLine
 10
524.5060935075328
 20
-455.7638732065945
 30
0.0
 11
524.5060935075328
 21
708.8826296109644
 31
0.0
  0
LINE
  5
27E
330
1F
100
AcDbEntity
  8
0-0
  6
JWW_DASHED1
 62
   120
370
     5
100
AcDbLine
 10
523.5060935076326
 20
-455.7638732065945
 30
0.0
 11
523.5060935076326
 21
709.1298556457539
 31
0.0
  0
LINE
  5
27F
330
1F
100
AcDbEntity
  8
0-0
  6
JWW_DASHED1
 62
   120
370
     5
100
AcDbLine
 10
510.5060935065326
 20
-455.7638732065945
 30
0.0
 11
510.5060935065326
 21
712.0622451010811
 31
0.0
  0
LINE
  5
280
330
1F
100
AcDbEntity
  8
0-0
  6
JWW_DASHED1
 62
   120
370
     5
100
AcDbLine
 10
509.5060935066324
 20
-455.7638732065945
 30
0.0
 11
509.5060935066324
 21
712.2663695284452
 31
0.0
  0
LINE
  5
281
330
1F
100
AcDbEntity
  8
0-0
  6
JWW_DASHED1
 62
   120
370
     5
100
AcDbLine
 10
496.5060935055324
 20
-455.7638732065945
 30
0.0
 11
496.5060935055324
 21
714.6456633026744
 31
0.0
  0
LINE
  5
282
330
1F
100
AcDbEntity
  8
0-0
  6
JWW_DASHED1
 62
   120
370
     5
100
AcDbLine
 10
495.5060935056322
 20
-455.7638732065945
 30
0.0
 11
495.5060935056322
 21
714.8077517114532
 31
0.0
  0
LINE
  5
283
330
1F
100
AcDbEntity
  8
0-0
  6
JWW_DASHED1
 62
   120
370
     5
100
AcDbLine
 10
482.5060935045326
 20
-455.7638732065945
 30
0.0
 11
482.5060935045326
 21
716.6461848359565
 31
0.0
  0
LINE
  5
284
330
1F
100
AcDbEntity
  8
0-0
  6
JWW_DASHED1
 62
   120
370
     5
100
AcDbLine
 10
481.5060935046324
 20
-455.7638732065945
 30
0.0
 11
481.5060935046324
 21
716.7670584614486
 31
0.0
  0
LINE
  5
285
330
1F
100
AcDbEntity
  8
0-0
  6
JWW_DASHED1
 62
   120
370
     5
100
AcDbLine
 10
468.5060935035328
 20
-455.7638732065945
 30
0.0
 11
468.5060935035328
 21
718.0738382677216
 31
0.0
  0
LINE
  5
286
330
1F
100
AcDbEntity
  8
0-0
  6
JWW_DASHED1
 62
   120
370
     5
100
AcDbLine
 10
467.5060935036327
 20
-455.7638732065945
 30
0.0
 11
467.5060935036327
 21
718.154095639368
 31
0.0
  0
LINE
  5
287
330
1F
100
AcDbEntity
  8
0-0
  6
JWW_DASHED1
 62
   120
370
     5
100
AcDbLine
 10
454.5060935025326
 20
-455.7638732065945
 30
0.0
 11
454.5060935025326
 21
718.9356398958832
 31
0.0
  0
LINE
  5
288
330
1F
100
AcDbEntity
  8
0-0
  6
JWW_DASHED1
 62
   120
370
     5
100
AcDbLine
 10
453.5060935026324
 20
-455.7638732065945
 30
0.0
 11
453.5060935026324
 21
718.9756720282119
 31
0.0
  0
LINE
  5
289
330
1F
100
AcDbEntity
  8
0-0
  6
JWW_DASHED1
 62
   120
370
     5
100
AcDbLine
 10
440.5060935015324
 20
-455.7638732065945
 30
0.0
 11
440.5060935015324
 21
719.2357696239585
 31
0.0
  0
LINE
  5
28A
330
1F
100
AcDbEntity
  8
0-0
  6
JWW_DASHED1
 62
   120
370
     5
100
AcDbLine
 10
439.5060935016322
 20
-455.7638732065945
 30
0.0
 11
439.5060935016322
 21
719.235769676782
 31
0.0
  0
LINE
  5
28B
330
1F
100
AcDbEntity
  8
0-0
  6
JWW_DASHED1
 62
   120
370
     5
100
AcDbLine
 10
426.5060935005326
 20
-455.7638732065945
 30
0.0
 11
426.5060935005326
 21
718.9756734547179
 31
0.0
  0
LINE
  5
28C
330
1F
100
AcDbEntity
  8
0-0
  6
JWW_DASHED1
 62
   120
370
     5
100
AcDbLine
 10
425.5060935006324
 20
-455.7638732065945
 30
0.0
 11
425.5060935006324
 21
718.9356414282545
 31
0.0
  0
LINE
  5
28D
330
1F
100
AcDbEntity
  8
0-0
  6
JWW_DASHED1
 62
   120
370
     5
100
AcDbLine
 10
412.5060934995328
 20
-455.7638732065945
 30
0.0
 11
412.5060934995328
 21
718.1540985520794
 31
0.0
  0
LINE
  5
28E
330
1F
100
AcDbEntity
  8
0-0
  6
JWW_DASHED1
 62
   120
370
     5
100
AcDbLine
 10
411.5060934996326
 20
-455.7638732065945
 30
0.0
 11
411.5060934996326
 21
718.0738412870076
 31
0.0
  0
LINE
  5
28F
330
1F
100
AcDbEntity
  8
0-0
  6
JWW_DASHED1
 62
   120
370
     5
100
AcDbLine
 10
398.5060934985326
 20
-455.7638732065945
 30
0.0
 11
398.5060934985326
 21
716.7670628744988
 31
0.0
  0
LINE
  5
290
330
1F
100
AcDbEntity
  8
0-0
  6
JWW_DASHED1
 62
   120
370
     5
100
AcDbLine
 10
397.5060934986324
 20
-455.7638732065945
 30
0.0
 11
397.5060934986324
 21
716.646189356891
 31
0.0
  0
LINE
  5
291
330
1F
100
AcDbEntity
  8
0-0
  6
JWW_DASHED1
 62
   120
370
     5
100
AcDbLine
 10
384.5060934975323
 20
-455.7638732065945
 30
0.0
 11
384.5060934975323
 21
714.8077576467247
 31
0.0
  0
LINE
  5
292
330
1F
100
AcDbEntity
  8
0-0
  6
JWW_DASHED1
 62
   120
370
     5
100
AcDbLine
 10
383.5060934976322
 20
-455.7638732065945
 30
0.0
 11
383.5060934976322
 21
714.6456693476855
 31
0.0
  0
LINE
  5
293
330
1F
100
AcDbEntity
  8
0-0
  6
JWW_DASHED1
 62
   120
370
     5
100
AcDbLine
 10
370.5060934965326
 20
-455.7638732065945
 30
0.0
 11
370.5060934965326
 21
712.2663770159513
 31
0.0
  0
LINE
  5
294
330
1F
100
AcDbEntity
  8
0-0
  6
JWW_DASHED1
 62
   120
370
     5
100
AcDbLine
 10
369.5060934966324
 20
-455.7638732065945
 30
0.0
 11
369.5060934966324
 21
712.062252700837
 31
0.0
  0
LINE
  5
295
330
1F
100
AcDbEntity
  8
0-0
  6
JWW_DASHED1
 62
   120
370
     5
100
AcDbLine
 10
356.5060934955324
 20
-455.7638732065945
 30
0.0
 11
356.5060934955324
 21
709.1298647245665
 31
0.0
  0
LINE
  5
296
330
1F
100
AcDbEntity
  8
0-0
  6
JWW_DASHED1
 62
   120
370
     5
100
AcDbLine
 10
355.5060934956322
 20
-455.7638732065945
 30
0.0
 11
355.5060934956322
 21
708.8826388051918
 31
0.0
  0
LINE
  5
297
330
1F
100
AcDbEntity
  8
0-0
  6
JWW_DASHED1
 62
   120
370
     5
100
AcDbLine
 10
342.5060934945326
 20
-455.7638732065945
 30
0.0
 11
342.5060934945326
 21
705.3815619874902
 31
0.0
  0
LINE
  5
298
330
1F
100
AcDbEntity
  8
0-0
  6
JWW_DASHED1
 62
   120
370
     5
100
AcDbLine
 10
341.5060934946324
 20
-455.7638732065945
 30
0.0
 11
341.5060934946324
 21
705.0898950301078
 31
0.0
  0
LINE
  5
299
330
1F
100
AcDbEntity
  8
0-0
  6
JWW_DASHED1
 62
   120
370
     5
100
AcDbLine
 10
328.5060934935324
 20
-455.7638732065945
 30
0.0
 11
328.5060934935324
 21
701.0007332824014
 31
0.0
  0
LINE
  5
29A
330
1F
100
AcDbEntity
  8
0-0
  6
JWW_DASHED1
 62
   120
370
     5
100
AcDbLine
 10
327.5060934936322
 20
-455.7638732065945
 30
0.0
 11
327.5060934936322
 21
700.662972651992
 31
0.0
  0
LINE
  5
29B
330
1F
100
AcDbEntity
  8
0-0
  6
JWW_DASHED1
 62
   120
370
     5
100
AcDbLine
 10
314.5060934925326
 20
-455.7638732065945
 30
0.0
 11
314.5060934925326
 21
695.9619363580921
 31
0.0
  0
LINE
  5
29C
330
1F
100
AcDbEntity
  8
0-0
  6
JWW_DASHED1
 62
   120
370
     5
100
AcDbLine
 10
313.5060934926324
 20
-455.7638732065945
 30
0.0
 11
313.5060934926324
 21
695.5760640868018
 31
0.0
  0
LINE
  5
29D
330
1F
100
AcDbEntity
  8
0-0
  6
JWW_DASHED1
 62
   120
370
     5
100
AcDbLine
 10
300.5060934915323
 20
-455.7638732065945
 30
0.0
 11
300.5060934915323
 21
690.234187772842
 31
0.0
  0
LINE
  5
29E
330
1F
100
AcDbEntity
  8
0-0
  6
JWW_DASHED1
 62
   120
370
     5
100
AcDbLine
 10
299.5060934916322
 20
-455.7638732065945
 30
0.0
 11
299.5060934916322
 21
689.7977514297988
 31
0.0
  0
LINE
  5
29F
330
1F
100
AcDbEntity
  8
0-0
  6
JWW_DASHED1
 62
   120
370
     5
100
AcDbLine
 10
286.5060934905325
 20
-455.7638732065945
 30
0.0
 11
286.5060934905325
 21
683.7798529577256
 31
0.0
  0
LINE
  5
2A0
330
1F
100
AcDbEntity
  8
0-0
  6
JWW_DASHED1
 62
   120
370
     5
100
AcDbLine
 10
285.5060934906323
 20
-455.7638732065945
 30
0.0
 11
285.5060934906323
 21
683.2898733182835
 31
0.0
  0
LINE
  5
2A1
330
1F
100
AcDbEntity
  8
0-0
  6
JWW_DASHED1
 62
   120
370
     5
100
AcDbLine
 10
272.5060934895323
 20
-455.7638732065945
 30
0.0
 11
272.5060934895323
 21
676.5641968079442
 31
0.0
  0
LINE
  5
2A2
330
1F
100
AcDbEntity
  8
0-0
  6
JWW_DASHED1
 62
   120
370
     5
100
AcDbLine
 10
271.5060934896321
 20
-455.7638732065945
 30
0.0
 11
271.5060934896321
 21
676.0414722552603
 31
0.0
  0
LINE
  5
2A3
330
1F
100
AcDbEntity
  8
0-0
  6
JWW_DASHED1
 62
   120
370
     5
100
AcDbLine
 10
258.5060934885325
 20
-455.7638732065945
 30
0.0
 11
258.5060934885325
 21
670.0761812527569
 31
0.0
  0
LINE
  5
2A4
330
1F
100
AcDbEntity
  8
0-0
  6
JWW_DASHED1
 62
   120
370
     5
100
AcDbLine
 10
257.5060934886324
 20
-455.7638732065945
 30
0.0
 11
257.5060934886324
 21
669.6780192979575
 31
0.0
  0
LINE
  5
2A5
330
1F
100
AcDbEntity
  8
0-0
  6
JWW_DASHED1
 62
   120
370
     5
100
AcDbLine
 10
244.5060934875328
 20
-455.7638732065945
 30
0.0
 11
244.5060934875328
 21
665.232171986722
 31
0.0
  0
LINE
  5
2A6
330
1F
100
AcDbEntity
  8
0-0
  6
JWW_DASHED1
 62
   120
370
     5
100
AcDbLine
 10
243.5060934876326
 20
-455.7638732065945
 30
0.0
 11
243.5060934876326
 21
664.9443603417465
 31
0.0
  0
LINE
  5
2A7
330
1F
100
AcDbEntity
  8
0-0
  6
JWW_DASHED1
 62
   120
370
     5
100
AcDbLine
 10
230.5060934865325
 20
-455.7638732065945
 30
0.0
 11
230.5060934865325
 21
661.8699611919008
 31
0.0
  0
LINE
  5
2A8
330
1F
100
AcDbEntity
  8
0-0
  6
JWW_DASHED1
 62
   120
370
     5
100
AcDbLine
 10
229.5060934866324
 20
-455.7638732065945
 30
0.0
 11
229.5060934866324
 21
661.6835545501497
 31
0.0
  0
LINE
  5
2A9
330
1F
100
AcDbEntity
  8
0-0
  6
JWW_DASHED1
 62
   120
370
     5
100
AcDbLine
 10
216.5060934855323
 20
-455.7638732065945
 30
0.0
 11
216.5060934855323
 21
659.8894368775334
 31
0.0
  0
LINE
  5
2AA
330
1F
100
AcDbEntity
  8
0-0
  6
JWW_DASHED1
 62
   120
370
     5
100
AcDbLine
 10
215.5060934856321
 20
-455.7638732065945
 30
0.0
 11
215.5060934856321
 21
659.7991549660626
 31
0.0
  0
LINE
  5
2AB
330
1F
100
AcDbEntity
  8
0-0
  6
JWW_DASHED1
 62
   120
370
     5
100
AcDbLine
 10
202.5060934845325
 20
-455.7638732065945
 30
0.0
 11
202.5060934845325
 21
659.2358592490971
 31
0.0
  0
LINE
  5
2AC
330
1F
100
AcDbEntity
  8
0-0
  6
JWW_DASHED1
 62
   120
370
     5
100
AcDbLine
 10
201.5060934846323
 20
-455.7638732065945
 30
0.0
 11
201.5060934846323
 21
659.2358592490971
 31
0.0
  0
LINE
  5
2AD
330
1F
100
AcDbEntity
  8
0-0
  6
JWW_DASHED1
 62
   120
370
     5
100
AcDbLine
 10
188.5060934835327
 20
-455.7638732065945
 30
0.0
 11
188.5060934835327
 21
659.2358592490971
 31
0.0
  0
LINE
  5
2AE
330
1F
100
AcDbEntity
  8
0-0
  6
JWW_DASHED1
 62
   120
370
     5
100
AcDbLine
 10
187.5060934836326
 20
-455.7638732065945
 30
0.0
 11
187.5060934836326
 21
659.2358592490971
 31
0.0
  0
LINE
  5
2AF
330
1F
100
AcDbEntity
  8
0-0
  6
JWW_DASHED1
 62
   120
370
     5
100
AcDbLine
 10
174.5060934825325
 20
-455.7638732065945
 30
0.0
 11
174.5060934825325
 21
659.2358592490971
 31
0.0
  0
LINE
  5
2B0
330
1F
100
AcDbEntity
  8
0-0
  6
JWW_DASHED1
 62
   120
370
     5
100
AcDbLine
 10
173.5060934826323
 20
-455.7638732065945
 30
0.0
 11
173.5060934826323
 21
659.2358592490971
 31
0.0
  0
LINE
  5
2B1
330
1F
100
AcDbEntity
  8
0-0
  6
JWW_DASHED1
 62
   120
370
     5
100
AcDbLine
 10
160.5060934815323
 20
-455.7638732065945
 30
0.0
 11
160.5060934815323
 21
659.2358592490971
 31
0.0
  0
LINE
  5
2B2
330
1F
100
AcDbEntity
  8
0-0
  6
JWW_DASHED1
 62
   120
370
     5
100
AcDbLine
 10
159.5060934816321
 20
-455.7638732065945
 30
0.0
 11
159.5060934816321
 21
659.2358592490971
 31
0.0
  0
LWPOLYLINE
  5
2B3
330
1F
100
AcDbEntity
  8
寸法
  6
Continuous
 62
     7
370
     9
100
AcDbPolyline
 90
        4
 70
     1
 43
3.0
 10
846.5060750236007
 20
-1386.763873206592
 42
0.4142135623731
 10
845.0060750236007
 20
-1385.263873206592
 42
0.4142135623731
 10
843.5060750236007
 20
-1386.763873206592
 42
0.4142135623731
 10
845.0060750236007
 20
-1388.263873206592
 42
0.4142135623731
  0
LWPOLYLINE
  5
2B4
330
1F
100
AcDbEntity
  8
寸法
  6
Continuous
 62
     7
370
     9
100
AcDbPolyline
 90
        4
 70
     1
 43
3.0
 10
1653.506075023601
 20
-1786.763873206592
 42
0.4142135623731
 10
1652.006075023601
 20
-1785.263873206592
 42
0.4142135623731
 10
1650.506075023602
 20
-1786.763873206592
 42
0.4142135623731
 10
1652.006075023601
 20
-1788.263873206592
 42
0.4142135623731
  0
LWPOLYLINE
  5
2B5
330
1F
100
AcDbEntity
  8
寸法
  6
Continuous
 62
     7
370
     9
100
AcDbPolyline
 90
        4
 70
     1
 43
3.0
 10
1623.506075023601
 20
-1586.763873206593
 42
0.4142135623731
 10
1622.006075023601
 20
-1585.263873206593
 42
0.4142135623731
 10
1620.506075023602
 20
-1586.763873206593
 42
0.4142135623731
 10
1622.006075023601
 20
-1588.263873206592
 42
0.4142135623731
  0
LWPOLYLINE
  5
2B6
330
1F
100
AcDbEntity
  8
寸法
  6
Continuous
 62
     7
370
     9
100
AcDbPolyline
 90
        4
 70
     1
 43
3.0
 10
-773.4939249763993
 20
-1386.763873206592
 42
0.4142135623731
 10
-774.9939249763993
 20
-1385.263873206592
 42
0.4142135623731
 10
-776.4939249763993
 20
-1386.763873206592
 42
0.4142135623731
 10
-774.9939249763993
 20
-1388.263873206592
 42
0.4142135623731
  0
LWPOLYLINE
  5
2B7
330
1F
100
AcDbEntity
  8
寸法
  6
Continuous
 62
     7
370
     9
100
AcDbPolyline
 90
        4
 70
     1
 43
3.0
 10
36.50607502360069
 20
-1386.763873206592
 42
0.4142135623731
 10
35.00607502360069
 20
-1385.263873206592
 42
0.4142135623731
 10
33.50607502360069
 20
-1386.763873206592
 42
0.4142135623731
 10
35.00607502360069
 20
-1388.263873206592
 42
0.4142135623731
  0
LWPOLYLINE
  5
2B8
330
1F
100
AcDbEntity
  8
寸法
  6
Continuous
 62
     7
370
     9
100
AcDbPolyline
 90
        4
 70
     1
 43
3.0
 10
-1580.493924976399
 20
-1786.763873206593
 42
0.4142135623731
 10
-1581.993924976399
 20
-1785.263873206593
 42
0.4142135623731
 10
-1583.493924976399
 20
-1786.763873206593
 42
0.4142135623731
 10
-1581.993924976399
 20
-1788.263873206593
 42
0.4142135623731
  0
LWPOLYLINE
  5
2B9
330
1F
100
AcDbEntity
  8
寸法
  6
Continuous
 62
     7
370
     9
100
AcDbPolyline
 90
        4
 70
     1
 43
3.0
 10
-1550.493924976399
 20
-1586.763873206593
 42
0.4142135623731
 10
-1551.993924976399
 20
-1585.263873206593
 42
0.4142135623731
 10
-1553.493924976399
 20
-1586.763873206593
 42
0.4142135623731
 10
-1551.993924976399
 20
-1588.263873206592
 42
0.4142135623731
  0
LINE
  5
2BA
330
1F
100
AcDbEntity
  8
寸法
  6
Continuous
 62
   120
370
     5
100
AcDbLine
 10
845.0060750236007
 20
-1386.763873206592
 30
0.0
 11
845.0060750236007
 21
-1186.763873206593
 31
0.0
  0
LINE
  5
2BB
330
1F
100
AcDbEntity
  8
寸法
  6
Continuous
 62
   120
370
     5
100
AcDbLine
 10
1652.006075023601
 20
-1786.763873206592
 30
0.0
 11
1652.006075023601
 21
-1186.763873206593
 31
0.0
  0
LINE
  5
2BC
330
1F
100
AcDbEntity
  8
寸法
  6
Continuous
 62
   120
370
     5
100
AcDbLine
 10
-1581.993924976399
 20
-1786.763873206593
 30
0.0
 11
1652.006075023601
 21
-1786.763873206592
 31
0.0
  0
LINE
  5
2BD
330
1F
100
AcDbEntity
  8
寸法
  6
Continuous
 62
   120
370
     5
100
AcDbLine
 10
1622.006075023601
 20
-1586.763873206593
 30
0.0
 11
1622.006075023601
 21
-1186.763873206593
 31
0.0
  0
LINE
  5
2BE
330
1F
100
AcDbEntity
  8
寸法
  6
Continuous
 62
   120
370
     5
100
AcDbLine
 10
-1551.993924976399
 20
-1586.763873206593
 30
0.0
 11
1622.006075023601
 21
-1586.763873206593
 31
0.0
  0
LINE
  5
2BF
330
1F
100
AcDbEntity
  8
寸法
  6
Continuous
 62
   120
370
     5
100
AcDbLine
 10
-774.9939249763993
 20
-1386.763873206592
 30
0.0
 11
845.0060750236007
 21
-1386.763873206592
 31
0.0
  0
LINE
  5
2C0
330
1F
100
AcDbEntity
  8
寸法
  6
Continuous
 62
   120
370
     5
100
AcDbLine
 10
-774.9939249763993
 20
-1386.763873206592
 30
0.0
 11
-774.9939249763993
 21
-1186.763873206593
 31
0.0
  0
LINE
  5
2C1
330
1F
100
AcDbEntity
  8
寸法
  6
Continuous
 62
   120
370
     5
100
AcDbLine
 10
35.00607502360069
 20
-1386.763873206592
 30
0.0
 11
35.00607502360069
 21
-1186.763873206593
 31
0.0
  0
LINE
  5
2C2
330
1F
100
AcDbEntity
  8
寸法
  6
Continuous
 62
   120
370
     5
100
AcDbLine
 10
-1581.993924976399
 20
-1786.763873206593
 30
0.0
 11
-1581.993924976399
 21
-1186.763873206593
 31
0.0
  0
LINE
  5
2C3
330
1F
100
AcDbEntity
  8
寸法
  6
Continuous
 62
   120
370
     5
100
AcDbLine
 10
-1551.993924976399
 20
-1586.763873206593
 30
0.0
 11
-1551.993924976399
 21
-1186.763873206593
 31
0.0
  0
LWPOLYLINE
  5
2C4
330
1F
100
AcDbEntity
  8
寸法
  6
Continuous
 62
     7
370
     9
100
AcDbPolyline
 90
        4
 70
     1
 43
3.0
 10
-2030.493924976399
 20
-1136.763873206593
 42
0.4142135623731
 10
-2031.993924976399
 20
-1135.263873206593
 42
0.4142135623731
 10
-2033.493924976399
 20
-1136.763873206593
 42
0.4142135623731
 10
-2031.993924976399
 20
-1138.263873206592
 42
0.4142135623731
  0
LINE
  5
2C5
330
1F
100
AcDbEntity
  8
寸法
  6
Continuous
 62
   120
370
     5
100
AcDbLine
 10
-2031.993924976399
 20
-1136.763873206593
 30
0.0
 11
-1631.993924976399
 21
-1136.763873206593
 31
0.0
  0
LINE
  5
2C6
330
1F
100
AcDbEntity
  8
寸法
  6
Continuous
 62
   120
370
     5
100
AcDbLine
 10
-2031.993924976399
 20
898.236126793407
 30
0.0
 11
-2031.993924976399
 21
-1136.763873206593
 31
0.0
  0
LINE
  5
2C7
330
1F
100
AcDbEntity
  8
寸法
  6
Continuous
 62
   120
370
     5
100
AcDbLine
 10
-2031.993924976399
 20
898.236126793407
 30
0.0
 11
-1631.993924976399
 21
898.236126793407
 31
0.0
  0
LWPOLYLINE
  5
2C8
330
1F
100
AcDbEntity
  8
寸法
  6
Continuous
 62
     7
370
     9
100
AcDbPolyline
 90
        4
 70
     1
 43
3.0
 10
-2030.493924976399
 20
898.236126793407
 42
0.4142135623731
 10
-2031.993924976399
 20
899.736126793407
 42
0.4142135623731
 10
-2033.493924976399
 20
898.236126793407
 42
0.4142135623731
 10
-2031.993924976399
 20
896.7361267934069
 42
0.4142135623731
  0
LINE
  5
2C9
330
1F
100
AcDbEntity
  8
寸法
  6
Continuous
 62
   120
370
     5
100
AcDbLine
 10
-1831.993924976398
 20
854.2361267934061
 30
0.0
 11
-1631.993924976399
 21
854.2361267934061
 31
0.0
  0
LINE
  5
2CA
330
1F
100
AcDbEntity
  8
寸法
  6
Continuous
 62
   120
370
     5
100
AcDbLine
 10
-1831.993924976398
 20
854.2361267934061
 30
0.0
 11
-1831.993924976398
 21
-1128.763873206594
 31
0.0
  0
LWPOLYLINE
  5
2CB
330
1F
100
AcDbEntity
  8
寸法
  6
Continuous
 62
     7
370
     9
100
AcDbPolyline
 90
        4
 70
     1
 43
3.0
 10
-1830.493924976398
 20
854.2361267934061
 42
0.4142135623731
 10
-1831.993924976398
 20
855.7361267934061
 42
0.4142135623731
 10
-1833.493924976398
 20
854.2361267934061
 42
0.4142135623731
 10
-1831.993924976398
 20
852.736126793406
 42
0.4142135623731
  0
LWPOLYLINE
  5
2CC
330
1F
100
AcDbEntity
  8
寸法
  6
Continuous
 62
     7
370
     9
100
AcDbPolyline
 90
        4
 70
     1
 43
3.0
 10
-1830.493924976398
 20
-1128.763873206594
 42
0.4142135623731
 10
-1831.993924976398
 20
-1127.263873206594
 42
0.4142135623731
 10
-1833.493924976398
 20
-1128.763873206594
 42
0.4142135623731
 10
-1831.993924976398
 20
-1130.263873206594
 42
0.4142135623731
  0
LINE
  5
2CD
330
1F
100
AcDbEntity
  8
寸法
  6
Continuous
 62
   120
370
     5
100
AcDbLine
 10
-1831.993924976398
 20
-1128.763873206594
 30
0.0
 11
-1631.993924976399
 21
-1128.763873206594
 31
0.0
  0
MTEXT
  5
2CE
330
1F
100
AcDbEntity
  8
寸法
  6
Continuous
 62
     7
370
    70
100
AcDbMText
 10
-2046.993924976399
 20
-339.938873206592
 30
0.0
 40
57.14999999999999
 41
412.5
 46
0.0
 71
     7
 72
     1
  1
{\fＭＳ ゴシック|b0|i0|c128|p49;枠外＝2,035}
 11
6.123031769111886E-17
 21
1.0
 31
0.0
 73
     1
 44
1.0
  0
MTEXT
  5
2CF
330
1F
100
AcDbEntity
  8
寸法
  6
Continuous
 62
     7
370
    70
100
AcDbMText
 10
-1846.993924976398
 20
-346.4388732065929
 30
0.0
 40
57.14999999999999
 41
412.5
 46
0.0
 71
     7
 72
     1
  1
{\fＭＳ ゴシック|b0|i0|c128|p49;ＤＨ＝1,983}
 11
6.123031769111886E-17
 21
1.0
 31
0.0
 73
     1
 44
1.0
  0
MTEXT
  5
2D0
330
1F
100
AcDbEntity
  8
寸法
  6
Continuous
 62
     7
370
   211
100
AcDbMText
 10
-538.7439249763993
 20
-1380.688873206592
 30
0.0
 40
57.15000000000001
 41
337.5000000000001
 46
0.0
 71
     7
 72
     1
  1
{\fＭＳ ゴシック|b0|i0|c128|p49;ＤＷ＝810}
 73
     1
 44
1.0
  0
MTEXT
  5
2D1
330
1F
100
AcDbEntity
  8
寸法
  6
Continuous
 62
     7
370
   211
100
AcDbMText
 10
271.2560750236007
 20
-1380.688873206592
 30
0.0
 40
57.15
 41
337.5
 46
0.0
 71
     7
 72
     1
  1
{\fＭＳ ゴシック|b0|i0|c128|p49;ＤＷ＝810}
 73
     1
 44
1.0
  0
MTEXT
  5
2D2
330
1F
100
AcDbEntity
  8
寸法
  6
Continuous
 62
     7
370
   211
100
AcDbMText
 10
-171.2439249763993
 20
-1580.688873206592
 30
0.0
 40
57.14999999999999
 41
412.5
 46
0.0
 71
     7
 72
     1
  1
{\fＭＳ ゴシック|b0|i0|c128|p49;枠内＝3,174}
 73
     1
 44
1.0
  0
MTEXT
  5
2D3
330
1F
100
AcDbEntity
  8
寸法
  6
Continuous
 62
     7
370
   211
100
AcDbMText
 10
-171.2439249763993
 20
-1780.688873206593
 30
0.0
 40
57.14999999999999
 41
412.5
 46
0.0
 71
     7
 72
     1
  1
{\fＭＳ ゴシック|b0|i0|c128|p49;枠外＝3,234}
 73
     1
 44
1.0
  0
ENDSEC
  0
SECTION
  2
OBJECTS
  0
DICTIONARY
  5
C
330
0
100
AcDbDictionary
281
     1
  3
ACAD_GROUP
350
D
  3
ACAD_LAYOUT
350
1A
  3
ACAD_MATERIAL
350
3B
  3
ACAD_MLEADERSTYLE
350
2D5
  3
ACAD_MLINESTYLE
350
17
  3
ACAD_PLOTSETTINGS
350
19
  3
ACAD_PLOTSTYLENAME
350
E
  3
ACAD_TABLESTYLE
350
2D4
  3
ACAD_VISUALSTYLE
350
2A
  0
DICTIONARY
  5
D
102
{ACAD_REACTORS
330
C
102
}
330
C
100
AcDbDictionary
281
     1
  0
DICTIONARY
  5
1A
102
{ACAD_REACTORS
330
C
102
}
330
C
100
AcDbDictionary
281
     1
  3
Layout1
350
1E
  3
Layout2
350
26
  3
Model
350
22
  0
DICTIONARY
  5
3B
102
{ACAD_REACTORS
330
C
102
}
330
C
100
AcDbDictionary
281
     1
  3
ByBlock
350
3D
  3
ByLayer
350
3C
  3
Global
350
3E
  0
DICTIONARY
  5
2D5
102
{ACAD_REACTORS
330
C
102
}
330
C
100
AcDbDictionary
281
     1
  0
DICTIONARY
  5
17
102
{ACAD_REACTORS
330
C
102
}
330
C
100
AcDbDictionary
281
     1
  3
Standard
350
18
  0
DICTIONARY
  5
19
102
{ACAD_REACTORS
330
C
102
}
330
C
100
AcDbDictionary
281
     1
  0
ACDBDICTIONARYWDFLT
  5
E
102
{ACAD_REACTORS
330
C
102
}
330
C
100
AcDbDictionary
281
     1
  3
Normal
350
F
100
AcDbDictionaryWithDefault
340
F
  0
DICTIONARY
  5
2D4
102
{ACAD_REACTORS
330
C
102
}
330
C
100
AcDbDictionary
281
     1
  0
DICTIONARY
  5
2A
102
{ACAD_REACTORS
330
C
102
}
330
C
100
AcDbDictionary
281
     1
  3
2dWireframe
350
2F
  3
3D Hidden
350
31
  3
3dWireframe
350
30
  3
Basic
350
32
  3
Brighten
350
36
  3
ColorChange
350
3A
  3
Conceptual
350
34
  3
Dim
350
35
  3
Facepattern
350
39
  3
Flat
350
2B
  3
FlatWithEdges
350
2C
  3
Gouraud
350
2D
  3
GouraudWithEdges
350
2E
  3
Linepattern
350
38
  3
Realistic
350
33
  3
Thicken
350
37
  0
LAYOUT
  5
1E
102
{ACAD_REACTORS
330
1A
102
}
330
1A
100
AcDbPlotSettings
  1

  2
none_device
  4

  6

 40
0.0
 41
0.0
 42
0.0
 43
0.0
 44
0.0
 45
0.0
 46
0.0
 47
0.0
 48
0.0
 49
0.0
140
0.0
141
0.0
142
1.0
143
1.0
 70
   688
 72
     0
 73
     0
 74
     5
  7

 75
    16
 76
     0
 77
     5
 78
   300
147
1.0
148
0.0
149
0.0
100
AcDbLayout
  1
Layout1
 70
     1
 71
     1
 10
0.0
 20
0.0
 11
420.0
 21
297.0
 12
0.0
 22
0.0
 32
0.0
 14
1.000000000000000E+20
 24
1.000000000000000E+20
 34
1.000000000000000E+20
 15
-1.000000000000000E+20
 25
-1.000000000000000E+20
 35
-1.000000000000000E+20
146
0.0
 13
0.0
 23
0.0
 33
0.0
 16
1.0
 26
0.0
 36
0.0
 17
0.0
 27
1.0
 37
0.0
 76
     0
330
1B
  0
LAYOUT
  5
26
102
{ACAD_REACTORS
330
1A
102
}
330
1A
100
AcDbPlotSettings
  1

  2
none_device
  4

  6

 40
0.0
 41
0.0
 42
0.0
 43
0.0
 44
0.0
 45
0.0
 46
0.0
 47
0.0
 48
0.0
 49
0.0
140
0.0
141
0.0
142
1.0
143
1.0
 70
   688
 72
     0
 73
     0
 74
     5
  7

 75
    16
 76
     0
 77
     5
 78
   300
147
1.0
148
0.0
149
0.0
100
AcDbLayout
  1
Layout2
 70
     1
 71
     2
 10
0.0
 20
0.0
 11
0.0
 21
0.0
 12
0.0
 22
0.0
 32
0.0
 14
0.0
 24
0.0
 34
0.0
 15
0.0
 25
0.0
 35
0.0
146
0.0
 13
0.0
 23
0.0
 33
0.0
 16
1.0
 26
0.0
 36
0.0
 17
0.0
 27
1.0
 37
0.0
 76
     0
330
23
  0
LAYOUT
  5
22
102
{ACAD_REACTORS
330
1A
102
}
330
1A
100
AcDbPlotSettings
  1

  2
none_device
  4

  6

 40
0.0
 41
0.0
 42
0.0
 43
0.0
 44
0.0
 45
0.0
 46
0.0
 47
0.0
 48
0.0
 49
0.0
140
0.0
141
0.0
142
1.0
143
1.0
 70
  1712
 72
     0
 73
     0
 74
     0
  7

 75
     0
 76
     0
 77
     5
 78
   300
147
1.0
148
0.0
149
0.0
100
AcDbLayout
  1
Model
 70
     1
 71
     0
 10
-4455.0
 20
-3150.0
 11
4455.0
 21
3150.0
 12
0.0
 22
0.0
 32
0.0
 14
-4455.0
 24
-3150.0
 34
0.0
 15
4455.0
 25
3150.0
 35
0.0
146
0.0
 13
0.0
 23
0.0
 33
0.0
 16
1.0
 26
0.0
 36
0.0
 17
0.0
 27
1.0
 37
0.0
 76
     0
330
1F
331
29
  0
MATERIAL
  5
3D
102
{ACAD_REACTORS
330
3B
102
}
330
3B
100
AcDbMaterial
  1
ByBlock
 72
     1
 94
      127
  0
MATERIAL
  5
3C
102
{ACAD_REACTORS
330
3B
102
}
330
3B
100
AcDbMaterial
  1
ByLayer
 72
     1
 94
      127
  0
MATERIAL
  5
3E
102
{ACAD_REACTORS
330
3B
102
}
330
3B
100
AcDbMaterial
  1
Global
 72
     1
 94
      127
  0
MLINESTYLE
  5
18
102
{ACAD_REACTORS
330
17
102
}
330
17
100
AcDbMlineStyle
  2
Standard
 70
     0
  3

 62
   256
 51
90.0
 52
90.0
 71
     2
 49
0.5
 62
   256
  6
BYLAYER
 49
-0.5
 62
   256
  6
BYLAYER
  0
ACDBPLACEHOLDER
  5
F
102
{ACAD_REACTORS
330
E
102
}
330
E
  0
VISUALSTYLE
  5
2F
102
{ACAD_REACTORS
330
2A
102
}
330
2A
100
AcDbVisualStyle
  2
2dWireframe
 70
     4
177
     2
291
     0
 71
     0
176
     1
 72
     2
176
     1
 73
     0
176
     1
 90
        0
176
     1
 40
-0.6
176
     1
 41
-30.0
176
     1
 62
     5
 63
     7
421
 16777215
176
     1
 74
     1
176
     1
 91
        4
176
     1
 64
     7
176
     1
 65
   257
176
     1
 75
     1
176
     1
175
     1
176
     1
 42
1.0
176
     1
 92
        0
176
     1
 66
   257
176
     1
 43
1.0
176
     1
 76
     1
176
     1
 77
     6
176
     1
 78
     2
176
     1
 67
     7
176
     1
 79
     5
176
     1
170
     0
176
     1
171
     0
176
     1
290
     0
176
     1
 93
        1
176
     1
 44
0.0
176
     1
173
     0
176
     1
  0
VISUALSTYLE
  5
31
102
{ACAD_REACTORS
330
2A
102
}
330
2A
100
AcDbVisualStyle
  2
3D Hidden
 70
     6
177
     2
291
     0
 71
     1
176
     1
 72
     2
176
     1
 73
     2
176
     1
 90
        0
176
     1
 40
-0.6
176
     1
 41
-30.0
176
     1
 62
     5
 63
     7
421
 16777215
176
     1
 74
     2
176
     1
 91
        2
176
     1
 64
     7
176
     1
 65
   257
176
     1
 75
     2
176
     1
175
     1
176
     1
 42
40.0
176
     1
 92
        0
176
     1
 66
   257
176
     1
 43
1.0
176
     1
 76
     1
176
     1
 77
     6
176
     1
 78
     2
176
     1
 67
     7
176
     1
 79
     3
176
     1
170
     0
176
     1
171
     0
176
     1
290
     0
176
     1
 93
        1
176
     1
 44
0.0
176
     1
173
     0
176
     1
  0
VISUALSTYLE
  5
30
102
{ACAD_REACTORS
330
2A
102
}
330
2A
100
AcDbVisualStyle
  2
3dWireframe
 70
     5
177
     2
291
     0
 71
     0
176
     1
 72
     2
176
     1
 73
     0
176
     1
 90
        0
176
     1
 40
-0.6
176
     1
 41
-30.0
176
     1
 62
     5
 63
     7
421
 16777215
176
     1
 74
     1
176
     1
 91
        4
176
     1
 64
     7
176
     1
 65
   257
176
     1
 75
     1
176
     1
175
     1
176
     1
 42
1.0
176
     1
 92
        0
176
     1
 66
   257
176
     1
 43
1.0
176
     1
 76
     1
176
     1
 77
     6
176
     1
 78
     2
176
     1
 67
     7
176
     1
 79
     5
176
     1
170
     0
176
     1
171
     0
176
     1
290
     0
176
     1
 93
        1
176
     1
 44
0.0
176
     1
173
     0
176
     1
  0
VISUALSTYLE
  5
32
102
{ACAD_REACTORS
330
2A
102
}
330
2A
100
AcDbVisualStyle
  2
Basic
 70
     7
177
     2
291
     1
 71
     1
176
     1
 72
     0
176
     1
 73
     1
176
     1
 90
        0
176
     1
 40
-0.6
176
     1
 41
-30.0
176
     1
 62
     5
 63
     7
421
 16777215
176
     1
 74
     0
176
     1
 91
        4
176
     1
 64
     7
176
     1
 65
   257
176
     1
 75
     1
176
     1
175
     1
176
     1
 42
1.0
176
     1
 92
        8
176
     1
 66
     7
176
     1
 43
1.0
176
     1
 76
     1
176
     1
 77
     6
176
     1
 78
     2
176
     1
 67
     7
176
     1
 79
     5
176
     1
170
     0
176
     1
171
     0
176
     1
290
     0
176
     1
 93
        1
176
     1
 44
0.0
176
     1
173
     0
176
     1
  0
VISUALSTYLE
  5
36
102
{ACAD_REACTORS
330
2A
102
}
330
2A
100
AcDbVisualStyle
  2
Brighten
 70
    12
177
     2
291
     1
 71
     2
176
     1
 72
     2
176
     1
 73
     0
176
     1
 90
        0
176
     1
 40
-0.6
176
     1
 41
-30.0
176
     1
 62
     5
 63
     7
421
 16777215
176
     1
 74
     1
176
     1
 91
        4
176
     1
 64
     7
176
     1
 65
   257
176
     1
 75
     1
176
     1
175
     1
176
     1
 42
1.0
176
     1
 92
        8
176
     1
 66
     7
176
     1
 43
1.0
176
     1
 76
     1
176
     1
 77
     6
176
     1
 78
     2
176
     1
 67
     7
176
     1
 79
     5
176
     1
170
     0
176
     1
171
     0
176
     1
290
     0
176
     1
 93
        1
176
     1
 44
50.0
176
     1
173
     0
176
     1
  0
VISUALSTYLE
  5
3A
102
{ACAD_REACTORS
330
2A
102
}
330
2A
100
AcDbVisualStyle
  2
ColorChange
 70
    16
177
     2
291
     1
 71
     2
176
     1
 72
     2
176
     1
 73
     3
176
     1
 90
        0
176
     1
 40
-0.6
176
     1
 41
-30.0
176
     1
 62
     5
 63
     8
421
  8421504
176
     1
 74
     1
176
     1
 91
        4
176
     1
 64
     7
176
     1
 65
   257
176
     1
 75
     1
176
     1
175
     1
176
     1
 42
1.0
176
     1
 92
        8
176
     1
 66
     8
424
  8421504
176
     1
 43
1.0
176
     1
 76
     1
176
     1
 77
     6
176
     1
 78
     2
176
     1
 67
     7
176
     1
 79
     5
176
     1
170
     0
176
     1
171
     0
176
     1
290
     0
176
     1
 93
        1
176
     1
 44
0.0
176
     1
173
     0
176
     1
  0
VISUALSTYLE
  5
34
102
{ACAD_REACTORS
330
2A
102
}
330
2A
100
AcDbVisualStyle
  2
Conceptual
 70
     9
177
     2
291
     0
 71
     3
176
     1
 72
     2
176
     1
 73
     0
176
     1
 90
        0
176
     1
 40
-0.6
176
     1
 41
-30.0
176
     1
 62
     5
 63
     7
421
 16777215
176
     1
 74
     2
176
     1
 91
        2
176
     1
 64
     7
176
     1
 65
   257
176
     1
 75
     1
176
     1
175
     1
176
     1
 42
40.0
176
     1
 92
        8
176
     1
 66
     7
176
     1
 43
1.0
176
     1
 76
     1
176
     1
 77
     6
176
     1
 78
     2
176
     1
 67
     7
176
     1
 79
     3
176
     1
170
     0
176
     1
171
     0
176
     1
290
     0
176
     1
 93
        1
176
     1
 44
0.0
176
     1
173
     0
176
     1
  0
VISUALSTYLE
  5
35
102
{ACAD_REACTORS
330
2A
102
}
330
2A
100
AcDbVisualStyle
  2
Dim
 70
    11
177
     2
291
     1
 71
     2
176
     1
 72
     2
176
     1
 73
     0
176
     1
 90
        0
176
     1
 40
-0.6
176
     1
 41
-30.0
176
     1
 62
     5
 63
     7
421
 16777215
176
     1
 74
     1
176
     1
 91
        4
176
     1
 64
     7
176
     1
 65
   257
176
     1
 75
     1
176
     1
175
     1
176
     1
 42
1.0
176
     1
 92
        8
176
     1
 66
     7
176
     1
 43
1.0
176
     1
 76
     1
176
     1
 77
     6
176
     1
 78
     2
176
     1
 67
     7
176
     1
 79
     5
176
     1
170
     0
176
     1
171
     0
176
     1
290
     0
176
     1
 93
        1
176
     1
 44
-50.0
176
     1
173
     0
176
     1
  0
VISUALSTYLE
  5
39
102
{ACAD_REACTORS
330
2A
102
}
330
2A
100
AcDbVisualStyle
  2
Facepattern
 70
    15
177
     2
291
     1
 71
     2
176
     1
 72
     2
176
     1
 73
     0
176
     1
 90
        0
176
     1
 40
-0.6
176
     1
 41
-30.0
176
     1
 62
     5
 63
     7
421
 16777215
176
     1
 74
     1
176
     1
 91
        4
176
     1
 64
     7
176
     1
 65
   257
176
     1
 75
     1
176
     1
175
     1
176
     1
 42
1.0
176
     1
 92
        8
176
     1
 66
     7
176
     1
 43
1.0
176
     1
 76
     1
176
     1
 77
     6
176
     1
 78
     2
176
     1
 67
     7
176
     1
 79
     5
176
     1
170
     0
176
     1
171
     0
176
     1
290
     0
176
     1
 93
        1
176
     1
 44
0.0
176
     1
173
     0
176
     1
  0
VISUALSTYLE
  5
2B
102
{ACAD_REACTORS
330
2A
102
}
330
2A
100
AcDbVisualStyle
  2
Flat
 70
     0
177
     2
291
     1
 71
     2
176
     1
 72
     1
176
     1
 73
     1
176
     1
 90
        2
176
     1
 40
-0.6
176
     1
 41
30.0
176
     1
 62
     5
 63
     7
421
 16777215
176
     1
 74
     0
176
     1
 91
        4
176
     1
 64
     7
176
     1
 65
   257
176
     1
 75
     1
176
     1
175
     1
176
     1
 42
1.0
176
     1
 92
        8
176
     1
 66
     7
176
     1
 43
1.0
176
     1
 76
     1
176
     1
 77
     6
176
     1
 78
     2
176
     1
 67
     7
176
     1
 79
     5
176
     1
170
     0
176
     1
171
     0
176
     1
290
     0
176
     1
 93
       13
176
     1
 44
0.0
176
     1
173
     0
176
     1
  0
VISUALSTYLE
  5
2C
102
{ACAD_REACTORS
330
2A
102
}
330
2A
100
AcDbVisualStyle
  2
FlatWithEdges
 70
     1
177
     2
291
     1
 71
     2
176
     1
 72
     1
176
     1
 73
     1
176
     1
 90
        2
176
     1
 40
-0.6
176
     1
 41
30.0
176
     1
 62
     5
 63
     7
421
 16777215
176
     1
 74
     1
176
     1
 91
        4
176
     1
 64
     7
176
     1
 65
   257
176
     1
 75
     1
176
     1
175
     1
176
     1
 42
1.0
176
     1
 92
        0
176
     1
 66
   257
176
     1
 43
1.0
176
     1
 76
     1
176
     1
 77
     6
176
     1
 78
     2
176
     1
 67
     7
176
     1
 79
     5
176
     1
170
     0
176
     1
171
     0
176
     1
290
     0
176
     1
 93
       13
176
     1
 44
0.0
176
     1
173
     0
176
     1
  0
VISUALSTYLE
  5
2D
102
{ACAD_REACTORS
330
2A
102
}
330
2A
100
AcDbVisualStyle
  2
Gouraud
 70
     2
177
     2
291
     1
 71
     2
176
     1
 72
     2
176
     1
 73
     1
176
     1
 90
        2
176
     1
 40
-0.6
176
     1
 41
30.0
176
     1
 62
     5
 63
     7
421
 16777215
176
     1
 74
     0
176
     1
 91
        4
176
     1
 64
     7
176
     1
 65
   257
176
     1
 75
     1
176
     1
175
     1
176
     1
 42
1.0
176
     1
 92
        0
176
     1
 66
     7
176
     1
 43
1.0
176
     1
 76
     1
176
     1
 77
     6
176
     1
 78
     2
176
     1
 67
     7
176
     1
 79
     5
176
     1
170
     0
176
     1
171
     0
176
     1
290
     0
176
     1
 93
       13
176
     1
 44
0.0
176
     1
173
     0
176
     1
  0
VISUALSTYLE
  5
2E
102
{ACAD_REACTORS
330
2A
102
}
330
2A
100
AcDbVisualStyle
  2
GouraudWithEdges
 70
     3
177
     2
291
     1
 71
     2
176
     1
 72
     2
176
     1
 73
     1
176
     1
 90
        2
176
     1
 40
-0.6
176
     1
 41
30.0
176
     1
 62
     5
 63
     7
421
 16777215
176
     1
 74
     1
176
     1
 91
        4
176
     1
 64
     7
176
     1
 65
   257
176
     1
 75
     1
176
     1
175
     1
176
     1
 42
1.0
176
     1
 92
        0
176
     1
 66
   257
176
     1
 43
1.0
176
     1
 76
     1
176
     1
 77
     6
176
     1
 78
     2
176
     1
 67
     7
176
     1
 79
     5
176
     1
170
     0
176
     1
171
     0
176
     1
290
     0
176
     1
 93
       13
176
     1
 44
0.0
176
     1
173
     0
176
     1
  0
VISUALSTYLE
  5
38
102
{ACAD_REACTORS
330
2A
102
}
330
2A
100
AcDbVisualStyle
  2
Linepattern
 70
    14
177
     2
291
     1
 71
     2
176
     1
 72
     2
176
     1
 73
     0
176
     1
 90
        0
176
     1
 40
-0.6
176
     1
 41
-30.0
176
     1
 62
     5
 63
     7
421
 16777215
176
     1
 74
     1
176
     1
 91
        4
176
     1
 64
     7
176
     1
 65
   257
176
     1
 75
     7
176
     1
175
     7
176
     1
 42
1.0
176
     1
 92
        8
176
     1
 66
     7
176
     1
 43
1.0
176
     1
 76
     1
176
     1
 77
     6
176
     1
 78
     2
176
     1
 67
     7
176
     1
 79
     5
176
     1
170
     0
176
     1
171
     0
176
     1
290
     0
176
     1
 93
        1
176
     1
 44
0.0
176
     1
173
     0
176
     1
  0
VISUALSTYLE
  5
33
102
{ACAD_REACTORS
330
2A
102
}
330
2A
100
AcDbVisualStyle
  2
Realistic
 70
     8
177
     2
291
     0
 71
     2
176
     1
 72
     2
176
     1
 73
     0
176
     1
 90
        0
176
     1
 40
-0.6
176
     1
 41
-30.0
176
     1
 62
     5
 63
     7
421
 16777215
176
     1
 74
     1
176
     1
 91
        0
176
     1
 64
     7
176
     1
 65
   257
176
     1
 75
     1
176
     1
175
     1
176
     1
 42
1.0
176
     1
 92
        8
176
     1
 66
     8
424
  7895160
176
     1
 43
1.0
176
     1
 76
     1
176
     1
 77
     6
176
     1
 78
     2
176
     1
 67
     7
176
     1
 79
     5
176
     1
170
     0
176
     1
171
     0
176
     1
290
     0
176
     1
 93
       13
176
     1
 44
0.0
176
     1
173
     0
176
     1
  0
VISUALSTYLE
  5
37
102
{ACAD_REACTORS
330
2A
102
}
330
2A
100
AcDbVisualStyle
  2
Thicken
 70
    13
177
     2
291
     1
 71
     2
176
     1
 72
     2
176
     1
 73
     0
176
     1
 90
        0
176
     1
 40
-0.6
176
     1
 41
-30.0
176
     1
 62
     5
 63
     7
421
 16777215
176
     1
 74
     1
176
     1
 91
        4
176
     1
 64
     7
176
     1
 65
   257
176
     1
 75
     1
176
     1
175
     1
176
     1
 42
1.0
176
     1
 92
       12
176
     1
 66
     7
176
     1
 43
1.0
176
     1
 76
     1
176
     1
 77
     6
176
     1
 78
     2
176
     1
 67
     7
176
     1
 79
     5
176
     1
170
     0
176
     1
171
     0
176
     1
290
     0
176
     1
 93
        1
176
     1
 44
0.0
176
     1
173
     0
176
     1
  0
ENDSEC
  0
EOF
