  0
SECTION
  2
HEADER
  9
$ACADVER
  1
AC1024
  9
$ACADMAINTVER
 70
     6
  9
$DWGCODEPAGE
  3
ANSI_932
  9
$INSBASE
 10
0.0
 20
0.0
 30
0.0
  9
$EXTMIN
 10
-4455.0
 20
-3150.0
 30
0.0
  9
$EXTMAX
 10
4455.0
 20
3150.0
 30
0.0
  9
$LIMMIN
 10
-4455.0
 20
-3150.0
  9
$LIMMAX
 10
4455.0
 20
3150.0
  9
$ORTHOMODE
 70
     0
  9
$REGENMODE
 70
     1
  9
$FILLMODE
 70
     1
  9
$QTEXTMODE
 70
     0
  9
$MIRRTEXT
 70
     1
  9
$LTSCALE
 40
30.0
  9
$ATTMODE
 70
     1
  9
$TEXTSIZE
 40
2.5
  9
$TRACEWID
 40
1.0
  9
$TEXTSTYLE
  7
Standard
  9
$CLAYER
  8
0
  9
$CELTYPE
  6
ByLayer
  9
$CECOLOR
 62
   256
  9
$CELTSCALE
 40
1.0
  9
$DISPSILH
 70
     0
  9
$DIMSCALE
 40
1.0
  9
$DIMASZ
 40
2.5
  9
$DIMEXO
 40
0.625
  9
$DIMDLI
 40
3.75
  9
$DIMRND
 40
0.0
  9
$DIMDLE
 40
0.0
  9
$DIMEXE
 40
1.25
  9
$DIMTP
 40
0.0
  9
$DIMTM
 40
0.0
  9
$DIMTXT
 40
2.5
  9
$DIMCEN
 40
2.5
  9
$DIMTSZ
 40
0.0
  9
$DIMTOL
 70
     0
  9
$DIMLIM
 70
     0
  9
$DIMTIH
 70
     0
  9
$DIMTOH
 70
     0
  9
$DIMSE1
 70
     0
  9
$DIMSE2
 70
     0
  9
$DIMTAD
 70
     1
  9
$DIMZIN
 70
     8
  9
$DIMBLK
  1

  9
$DIMASO
 70
     1
  9
$DIMSHO
 70
     1
  9
$DIMPOST
  1

  9
$DIMAPOST
  1

  9
$DIMALT
 70
     0
  9
$DIMALTD
 70
     3
  9
$DIMALTF
 40
0.03937007874016
  9
$DIMLFAC
 40
1.0
  9
$DIMTOFL
 70
     1
  9
$DIMTVP
 40
0.0
  9
$DIMTIX
 70
     0
  9
$DIMSOXD
 70
     0
  9
$DIMSAH
 70
     0
  9
$DIMBLK1
  1

  9
$DIMBLK2
  1

  9
$DIMSTYLE
  2
ISO-25
  9
$DIMCLRD
 70
     0
  9
$DIMCLRE
 70
     0
  9
$DIMCLRT
 70
     0
  9
$DIMTFAC
 40
1.0
  9
$DIMGAP
 40
0.625
  9
$DIMJUST
 70
     0
  9
$DIMSD1
 70
     0
  9
$DIMSD2
 70
     0
  9
$DIMTOLJ
 70
     0
  9
$DIMTZIN
 70
     8
  9
$DIMALTZ
 70
     0
  9
$DIMALTTZ
 70
     0
  9
$DIMUPT
 70
     0
  9
$DIMDEC
 70
     2
  9
$DIMTDEC
 70
     2
  9
$DIMALTU
 70
     2
  9
$DIMALTTD
 70
     3
  9
$DIMTXSTY
  7
Standard
  9
$DIMAUNIT
 70
     0
  9
$DIMADEC
 70
     0
  9
$DIMALTRND
 40
0.0
  9
$DIMAZIN
 70
     0
  9
$DIMDSEP
 70
    44
  9
$DIMATFIT
 70
     3
  9
$DIMFRAC
 70
     0
  9
$DIMLDRBLK
  1

  9
$DIMLUNIT
 70
     2
  9
$DIMLWD
 70
    -2
  9
$DIMLWE
 70
    -2
  9
$DIMTMOVE
 70
     0
  9
$DIMFXL
 40
1.0
  9
$DIMFXLON
 70
     0
  9
$DIMJOGANG
 40
0.7853981633974483
  9
$DIMTFILL
 70
     0
  9
$DIMTFILLCLR
 70
     0
  9
$DIMARCSYM
 70
     0
  9
$DIMLTYPE
  6

  9
$DIMLTEX1
  6

  9
$DIMLTEX2
  6

  9
$DIMTXTDIRECTION
 70
     0
  9
$LUNITS
 70
     2
  9
$LUPREC
 70
     4
  9
$SKETCHINC
 40
1.0
  9
$FILLETRAD
 40
10.0
  9
$AUNITS
 70
     0
  9
$AUPREC
 70
     0
  9
$MENU
  1
.
  9
$ELEVATION
 40
0.0
  9
$PELEVATION
 40
0.0
  9
$THICKNESS
 40
0.0
  9
$LIMCHECK
 70
     0
  9
$CHAMFERA
 40
10.0
  9
$CHAMFERB
 40
10.0
  9
$CHAMFERC
 40
20.0
  9
$CHAMFERD
 40
0.0
  9
$SKPOLY
 70
     0
  9
$TDCREATE
 40
2457953.400308276
  9
$TDUCREATE
 40
2457953.025308276
  9
$TDUPDATE
 40
2457953.400308287
  9
$TDUUPDATE
 40
2457953.025308287
  9
$TDINDWG
 40
0.0000000116
  9
$TDUSRTIMER
 40
0.0000000116
  9
$USRTIMER
 70
     1
  9
$ANGBASE
 50
0.0
  9
$ANGDIR
 70
     0
  9
$PDMODE
 70
     0
  9
$PDSIZE
 40
0.0
  9
$PLINEWID
 40
0.0
  9
$SPLFRAME
 70
     0
  9
$SPLINETYPE
 70
     6
  9
$SPLINESEGS
 70
     8
  9
$HANDSEED
  5
270
  9
$SURFTAB1
 70
     6
  9
$SURFTAB2
 70
     6
  9
$SURFTYPE
 70
     6
  9
$SURFU
 70
     6
  9
$SURFV
 70
     6
  9
$UCSBASE
  2

  9
$UCSNAME
  2

  9
$UCSORG
 10
0.0
 20
0.0
 30
0.0
  9
$UCSXDIR
 10
1.0
 20
0.0
 30
0.0
  9
$UCSYDIR
 10
0.0
 20
1.0
 30
0.0
  9
$UCSORTHOREF
  2

  9
$UCSORTHOVIEW
 70
     0
  9
$UCSORGTOP
 10
0.0
 20
0.0
 30
0.0
  9
$UCSORGBOTTOM
 10
0.0
 20
0.0
 30
0.0
  9
$UCSORGLEFT
 10
0.0
 20
0.0
 30
0.0
  9
$UCSORGRIGHT
 10
0.0
 20
0.0
 30
0.0
  9
$UCSORGFRONT
 10
0.0
 20
0.0
 30
0.0
  9
$UCSORGBACK
 10
0.0
 20
0.0
 30
0.0
  9
$PUCSBASE
  2

  9
$PUCSNAME
  2

  9
$PUCSORG
 10
0.0
 20
0.0
 30
0.0
  9
$PUCSXDIR
 10
1.0
 20
0.0
 30
0.0
  9
$PUCSYDIR
 10
0.0
 20
1.0
 30
0.0
  9
$PUCSORTHOREF
  2

  9
$PUCSORTHOVIEW
 70
     0
  9
$PUCSORGTOP
 10
0.0
 20
0.0
 30
0.0
  9
$PUCSORGBOTTOM
 10
0.0
 20
0.0
 30
0.0
  9
$PUCSORGLEFT
 10
0.0
 20
0.0
 30
0.0
  9
$PUCSORGRIGHT
 10
0.0
 20
0.0
 30
0.0
  9
$PUCSORGFRONT
 10
0.0
 20
0.0
 30
0.0
  9
$PUCSORGBACK
 10
0.0
 20
0.0
 30
0.0
  9
$USERI1
 70
     0
  9
$USERI2
 70
     0
  9
$USERI3
 70
     0
  9
$USERI4
 70
     0
  9
$USERI5
 70
     0
  9
$USERR1
 40
0.0
  9
$USERR2
 40
0.0
  9
$USERR3
 40
0.0
  9
$USERR4
 40
0.0
  9
$USERR5
 40
0.0
  9
$WORLDVIEW
 70
     1
  9
$SHADEDGE
 70
     3
  9
$SHADEDIF
 70
    70
  9
$TILEMODE
 70
     1
  9
$MAXACTVP
 70
    64
  9
$PINSBASE
 10
0.0
 20
0.0
 30
0.0
  9
$PLIMCHECK
 70
     0
  9
$PEXTMIN
 10
1.000000000000000E+20
 20
1.000000000000000E+20
 30
1.000000000000000E+20
  9
$PEXTMAX
 10
-1.000000000000000E+20
 20
-1.000000000000000E+20
 30
-1.000000000000000E+20
  9
$PLIMMIN
 10
0.0
 20
0.0
  9
$PLIMMAX
 10
420.0
 20
297.0
  9
$UNITMODE
 70
     0
  9
$VISRETAIN
 70
     1
  9
$PLINEGEN
 70
     0
  9
$PSLTSCALE
 70
     1
  9
$TREEDEPTH
 70
  3020
  9
$CMLSTYLE
  2
Standard
  9
$CMLJUST
 70
     0
  9
$CMLSCALE
 40
20.0
  9
$PROXYGRAPHICS
 70
     1
  9
$MEASUREMENT
 70
     1
  9
$CELWEIGHT
370
    -1
  9
$ENDCAPS
280
     0
  9
$JOINSTYLE
280
     0
  9
$LWDISPLAY
290
     0
  9
$INSUNITS
 70
     4
  9
$HYPERLINKBASE
  1

  9
$STYLESHEET
  1

  9
$XEDIT
290
     1
  9
$CEPSNTYPE
380
     0
  9
$PSTYLEMODE
290
     1
  9
$FINGERPRINTGUID
  2
{1B4CE6C9-937D-46D1-A13C-6AB877F405A4}
  9
$VERSIONGUID
  2
{FAEB1C32-E019-11D5-929B-00C0DF256EC4}
  9
$EXTNAMES
290
     1
  9
$PSVPSCALE
 40
0.0
  9
$OLESTARTUP
290
     0
  9
$SORTENTS
280
   127
  9
$INDEXCTL
280
     0
  9
$HIDETEXT
280
     1
  9
$XCLIPFRAME
280
     2
  9
$HALOGAP
280
     0
  9
$OBSCOLOR
 70
   257
  9
$OBSLTYPE
280
     0
  9
$INTERSECTIONDISPLAY
280
     0
  9
$INTERSECTIONCOLOR
 70
   257
  9
$DIMASSOC
280
     2
  9
$PROJECTNAME
  1

  9
$CAMERADISPLAY
290
     0
  9
$LENSLENGTH
 40
50.0
  9
$CAMERAHEIGHT
 40
0.0
  9
$STEPSPERSEC
 40
2.0
  9
$STEPSIZE
 40
6.0
  9
$3DDWFPREC
 40
2.0
  9
$PSOLWIDTH
 40
5.0
  9
$PSOLHEIGHT
 40
80.0
  9
$LOFTANG1
 40
1.570796326794897
  9
$LOFTANG2
 40
1.570796326794897
  9
$LOFTMAG1
 40
0.0
  9
$LOFTMAG2
 40
0.0
  9
$LOFTPARAM
 70
     7
  9
$LOFTNORMALS
280
     1
  9
$LATITUDE
 40
37.795
  9
$LONGITUDE
 40
-122.394
  9
$NORTHDIRECTION
 40
0.0
  9
$TIMEZONE
 70
 -8000
  9
$LIGHTGLYPHDISPLAY
280
     1
  9
$TILEMODELIGHTSYNCH
280
     1
  9
$SOLIDHIST
280
     1
  9
$SHOWHIST
280
     1
  9
$DWFFRAME
280
     2
  9
$DGNFRAME
280
     2
  9
$REALWORLDSCALE
290
     1
  9
$INTERFERECOLOR
 62
   256
  9
$CSHADOW
280
     0
  9
$SHADOWPLANELOCATION
 40
0.0
  0
ENDSEC
  0
SECTION
  2
CLASSES
  0
CLASS
  1
ACDBDICTIONARYWDFLT
  2
AcDbDictionaryWithDefault
  3
ObjectDBX Classes
 90
        0
 91
        4
280
     0
281
     0
  0
CLASS
  1
VISUALSTYLE
  2
AcDbVisualStyle
  3
ObjectDBX Classes
 90
     4095
 91
        4
280
     0
281
     0
  0
CLASS
  1
MATERIAL
  2
AcDbMaterial
  3
ObjectDBX Classes
 90
     1153
 91
        4
280
     0
281
     0
  0
ENDSEC
  0
SECTION
  2
TABLES
  0
TABLE
  2
VPORT
  5
8
330
0
100
AcDbSymbolTable
 70
     1
  0
VPORT
  5
29
330
8
100
AcDbSymbolTableRecord
100
AcDbViewportTableRecord
  2
*Active
 70
     0
 10
0.0
 20
0.0
 11
1.0
 21
1.0
 12
0.0
 22
0.0
 13
0.0
 23
0.0
 14
10.0
 24
10.0
 15
10.0
 25
10.0
 16
0.0
 26
0.0
 36
1.0
 17
0.0
 27
0.0
 37
0.0
 40
6930.000000000001
 41
1.414285714285714
 42
50.0
 43
0.0
 44
0.0
 50
0.0
 51
0.0
 71
     0
 72
 10000
 73
     1
 74
     3
 75
     0
 76
     0
 77
     0
 78
     0
281
     0
 65
     1
110
0.0
120
0.0
130
0.0
111
1.0
121
0.0
131
0.0
112
0.0
122
1.0
132
0.0
 79
     0
146
0.0
 60
     3
 61
     5
292
     1
282
     1
141
0.0
142
0.0
 63
   250
  0
ENDTAB
  0
TABLE
  2
LTYPE
  5
5
330
0
100
AcDbSymbolTable
 70
     2
  0
LTYPE
  5
14
330
5
100
AcDbSymbolTableRecord
100
AcDbLinetypeTableRecord
  2
ByBlock
 70
     0
  3

 72
    65
 73
     0
 40
0.0
  0
LTYPE
  5
15
330
5
100
AcDbSymbolTableRecord
100
AcDbLinetypeTableRecord
  2
ByLayer
 70
     0
  3

 72
    65
 73
     0
 40
0.0
  0
LTYPE
  5
16
330
5
100
AcDbSymbolTableRecord
100
AcDbLinetypeTableRecord
  2
Continuous
 70
     0
  3
Solid line
 72
    65
 73
     0
 40
0.0
  0
LTYPE
  5
3F
330
5
100
AcDbSymbolTableRecord
100
AcDbLinetypeTableRecord
  2
JWW_DASHED1
 70
     0
  3
-  --  --  --  --  --  --  --  -
 72
    65
 73
     2
 40
1.693333333333333
 49
0.8466666666666667
 74
     0
 49
-0.8466666666666667
 74
     0
  0
ENDTAB
  0
TABLE
  2
LAYER
  5
2
330
0
100
AcDbSymbolTable
 70
     3
  0
LAYER
  5
10
330
2
100
AcDbSymbolTableRecord
100
AcDbLayerTableRecord
  2
0
 70
     0
 62
     7
  6
Continuous
370
    -3
390
F
347
3E
  0
LAYER
  5
40
330
2
100
AcDbSymbolTableRecord
100
AcDbLayerTableRecord
  2
0-0
 70
     0
 62
     7
  6
Continuous
370
    -3
390
F
347
3E
  0
LAYER
  5
41
330
2
100
AcDbSymbolTableRecord
100
AcDbLayerTableRecord
  2
寸法
 70
     0
 62
     7
  6
Continuous
370
    -3
390
F
347
3E
  0
ENDTAB
  0
TABLE
  2
STYLE
  5
3
330
0
100
AcDbSymbolTable
 70
     1
  0
STYLE
  5
11
330
3
100
AcDbSymbolTableRecord
100
AcDbTextStyleTableRecord
  2
Standard
 70
     0
 40
0.0
 41
1.0
 50
0.0
 71
     0
 42
2.5
  3
txt
  4

  0
ENDTAB
  0
TABLE
  2
VIEW
  5
6
330
0
100
AcDbSymbolTable
 70
     0
  0
ENDTAB
  0
TABLE
  2
UCS
  5
7
330
0
100
AcDbSymbolTable
 70
     0
  0
ENDTAB
  0
TABLE
  2
APPID
  5
9
330
0
100
AcDbSymbolTable
 70
     1
  0
APPID
  5
12
330
9
100
AcDbSymbolTableRecord
100
AcDbRegAppTableRecord
  2
ACAD
 70
     0
  0
ENDTAB
  0
TABLE
  2
DIMSTYLE
  5
A
330
0
100
AcDbSymbolTable
 70
     1
100
AcDbDimStyleTable
  0
DIMSTYLE
105
27
330
A
100
AcDbSymbolTableRecord
100
AcDbDimStyleTableRecord
  2
ISO-25
 70
     0
 41
2.5
 42
0.625
 43
3.75
 44
1.25
 73
     0
 74
     0
 77
     1
 78
     8
140
2.5
141
2.5
143
0.03937007874016
147
0.625
171
     3
172
     1
178
     0
271
     2
272
     2
274
     3
278
    44
283
     0
284
     8
340
11
  0
ENDTAB
  0
TABLE
  2
BLOCK_RECORD
  5
1
330
0
100
AcDbSymbolTable
 70
     1
  0
BLOCK_RECORD
  5
1F
330
1
100
AcDbSymbolTableRecord
100
AcDbBlockTableRecord
  2
*Model_Space
340
22
 70
     0
280
     1
281
     0
  0
BLOCK_RECORD
  5
1B
330
1
100
AcDbSymbolTableRecord
100
AcDbBlockTableRecord
  2
*Paper_Space
340
1E
 70
     0
280
     1
281
     0
  0
BLOCK_RECORD
  5
23
330
1
100
AcDbSymbolTableRecord
100
AcDbBlockTableRecord
  2
*Paper_Space0
340
26
 70
     0
280
     1
281
     0
  0
ENDTAB
  0
ENDSEC
  0
SECTION
  2
BLOCKS
  0
BLOCK
  5
20
330
1F
100
AcDbEntity
  8
0
100
AcDbBlockBegin
  2
*Model_Space
 70
     0
 10
0.0
 20
0.0
 30
0.0
  3
*Model_Space
  1

  0
ENDBLK
  5
21
330
1F
100
AcDbEntity
  8
0
100
AcDbBlockEnd
  0
BLOCK
  5
1C
330
1B
100
AcDbEntity
 67
     1
  8
0
100
AcDbBlockBegin
  2
*Paper_Space
 70
     0
 10
0.0
 20
0.0
 30
0.0
  3
*Paper_Space
  1

  0
ENDBLK
  5
1D
330
1B
100
AcDbEntity
 67
     1
  8
0
100
AcDbBlockEnd
  0
BLOCK
  5
24
330
23
100
AcDbEntity
  8
0
100
AcDbBlockBegin
  2
*Paper_Space0
 70
     0
 10
0.0
 20
0.0
 30
0.0
  3
*Paper_Space0
  1

  0
ENDBLK
  5
25
330
23
100
AcDbEntity
  8
0
100
AcDbBlockEnd
  0
ENDSEC
  0
SECTION
  2
ENTITIES
  0
LINE
  5
42
330
1F
100
AcDbEntity
  8
0-0
  6
Continuous
 62
    92
370
    13
100
AcDbLine
 10
-1546.196518461656
 20
-937.2237922118429
 30
0.0
 11
-1576.196518461656
 21
-937.2237922118429
 31
0.0
  0
LINE
  5
43
330
1F
100
AcDbEntity
  8
0-0
  6
Continuous
 62
    92
370
    13
100
AcDbLine
 10
1657.803481538344
 20
-937.2237922118429
 30
0.0
 11
1627.803481538344
 21
-937.2237922118429
 31
0.0
  0
LINE
  5
44
330
1F
100
AcDbEntity
  8
0-0
  6
Continuous
 62
    92
370
    13
100
AcDbLine
 10
-1546.196518461656
 20
1067.776207788156
 30
0.0
 11
1627.803481538344
 21
1067.776207788156
 31
0.0
  0
LINE
  5
45
330
1F
100
AcDbEntity
  8
0-0
  6
Continuous
 62
    92
370
    13
100
AcDbLine
 10
-1576.196518461656
 20
-937.2237922118429
 30
0.0
 11
-1576.196518461656
 21
1097.776207788156
 31
0.0
  0
LINE
  5
46
330
1F
100
AcDbEntity
  8
0-0
  6
Continuous
 62
    92
370
    13
100
AcDbLine
 10
1657.803481538344
 20
-937.2237922118429
 30
0.0
 11
1657.803481538344
 21
1097.776207788156
 31
0.0
  0
LINE
  5
47
330
1F
100
AcDbEntity
  8
0-0
  6
Continuous
 62
    92
370
    13
100
AcDbLine
 10
-1576.196518461656
 20
1097.776207788156
 30
0.0
 11
1657.803481538344
 21
1097.776207788156
 31
0.0
  0
LINE
  5
48
330
1F
100
AcDbEntity
  8
0-0
  6
Continuous
 62
    92
370
    13
100
AcDbLine
 10
-1546.196518461656
 20
-937.2237922118429
 30
0.0
 11
-1546.196518461656
 21
1097.776207788156
 31
0.0
  0
LINE
  5
49
330
1F
100
AcDbEntity
  8
0-0
  6
Continuous
 62
    92
370
    13
100
AcDbLine
 10
1627.803481538344
 20
-937.2237922118429
 30
0.0
 11
1627.803481538344
 21
1097.776207788156
 31
0.0
  0
LINE
  5
4A
330
1F
100
AcDbEntity
  8
0-0
  6
Continuous
 62
    92
370
    13
100
AcDbLine
 10
820.8034815383446
 20
-937.2237922118447
 30
0.0
 11
850.8034815383446
 21
-937.2237922118447
 31
0.0
  0
LINE
  5
4B
330
1F
100
AcDbEntity
  8
0-0
  6
Continuous
 62
    92
370
    13
100
AcDbLine
 10
-769.1965184616571
 20
-937.2237922118447
 30
0.0
 11
-739.1965184616571
 21
-937.2237922118447
 31
0.0
  0
LINE
  5
4C
330
1F
100
AcDbEntity
  8
0-0
  6
Continuous
 62
    92
370
    13
100
AcDbLine
 10
850.8034815383429
 20
1053.776207788155
 30
0.0
 11
40.80348153834294
 21
1053.776207788155
 31
0.0
  0
LINE
  5
4D
330
1F
100
AcDbEntity
  8
0-0
  6
Continuous
 62
    92
370
    13
100
AcDbLine
 10
850.8034815383429
 20
-929.2237922118452
 30
0.0
 11
40.80348153834294
 21
-929.2237922118452
 31
0.0
  0
LINE
  5
4E
330
1F
100
AcDbEntity
  8
0-0
  6
JWW_DASHED1
 62
   120
370
     5
100
AcDbLine
 10
820.8034815383429
 20
-929.2237922118452
 30
0.0
 11
820.8034815383429
 21
1053.776207788155
 31
0.0
  0
LINE
  5
4F
330
1F
100
AcDbEntity
  8
0-0
  6
Continuous
 62
    92
370
    13
100
AcDbLine
 10
850.8034815383429
 20
-929.2237922118452
 30
0.0
 11
850.8034815383429
 21
1053.776207788155
 31
0.0
  0
LINE
  5
50
330
1F
100
AcDbEntity
  8
0-0
  6
Continuous
 62
    92
370
    13
100
AcDbLine
 10
40.80348153834294
 20
-929.2237922118452
 30
0.0
 11
40.80348153834294
 21
1053.776207788155
 31
0.0
  0
LINE
  5
51
330
1F
100
AcDbEntity
  8
0-0
  6
Continuous
 62
    92
370
    13
100
AcDbLine
 10
-769.1965184616571
 20
1053.776207788155
 30
0.0
 11
40.80348153834294
 21
1053.776207788155
 31
0.0
  0
LINE
  5
52
330
1F
100
AcDbEntity
  8
0-0
  6
Continuous
 62
    92
370
    13
100
AcDbLine
 10
-769.1965184616571
 20
-929.2237922118452
 30
0.0
 11
40.80348153834294
 21
-929.2237922118452
 31
0.0
  0
LINE
  5
53
330
1F
100
AcDbEntity
  8
0-0
  6
JWW_DASHED1
 62
   120
370
     5
100
AcDbLine
 10
-739.1965184616571
 20
-929.2237922118452
 30
0.0
 11
-739.1965184616571
 21
1053.776207788155
 31
0.0
  0
LINE
  5
54
330
1F
100
AcDbEntity
  8
0-0
  6
Continuous
 62
    92
370
    13
100
AcDbLine
 10
-769.1965184616571
 20
-929.2237922118452
 30
0.0
 11
-769.1965184616571
 21
1053.776207788155
 31
0.0
  0
LINE
  5
55
330
1F
100
AcDbEntity
  8
0-0
  6
Continuous
 62
     7
370
     9
100
AcDbLine
 10
76.8034815383426
 20
57.8762077881558
 30
0.0
 11
76.8034815383426
 21
-1.323792211843227
 31
0.0
  0
LINE
  5
56
330
1F
100
AcDbEntity
  8
0-0
  6
Continuous
 62
     7
370
     9
100
AcDbLine
 10
106.8034815383426
 20
-1.323792211843227
 30
0.0
 11
106.8034815383426
 21
57.8762077881558
 31
0.0
  0
ARC
  5
57
330
1F
100
AcDbEntity
  8
0-0
  6
Continuous
 62
     7
370
     9
100
AcDbCircle
 10
91.8034815383426
 20
57.8762077881558
 30
0.0
 40
15.0
100
AcDbArc
 50
0.0
 51
180.0
  0
ARC
  5
58
330
1F
100
AcDbEntity
  8
0-0
  6
Continuous
 62
     7
370
     9
100
AcDbCircle
 10
91.8034815383426
 20
-1.323792211843227
 30
0.0
 40
15.0
100
AcDbArc
 50
180.0
 51
0.0
  0
ARC
  5
59
330
1F
100
AcDbEntity
  8
0-0
  6
Continuous
 62
    92
370
    13
100
AcDbCircle
 10
72.30348153834157
 20
-31.22379221184332
 30
0.0
 40
1.5
100
AcDbArc
 50
180.0
 51
270.0
  0
LINE
  5
5A
330
1F
100
AcDbEntity
  8
0-0
  6
Continuous
 62
    92
370
    13
100
AcDbLine
 10
70.80348153834294
 20
-31.22379221184332
 30
0.0
 11
70.80348153834294
 21
87.77620778815589
 31
0.0
  0
LINE
  5
5B
330
1F
100
AcDbEntity
  8
0-0
  6
Continuous
 62
    92
370
    13
100
AcDbLine
 10
72.30348153834157
 20
-32.72379221184622
 30
0.0
 11
111.3034815383436
 21
-32.72379221184622
 31
0.0
  0
ARC
  5
5C
330
1F
100
AcDbEntity
  8
0-0
  6
Continuous
 62
    92
370
    13
100
AcDbCircle
 10
111.3034815383436
 20
-31.22379221184332
 30
0.0
 40
1.5
100
AcDbArc
 50
270.0
 51
0.0
  0
LINE
  5
5D
330
1F
100
AcDbEntity
  8
0-0
  6
Continuous
 62
    92
370
    13
100
AcDbLine
 10
112.803481538344
 20
-31.22379221184332
 30
0.0
 11
112.803481538344
 21
87.77620778815589
 31
0.0
  0
ARC
  5
5E
330
1F
100
AcDbEntity
  8
0-0
  6
Continuous
 62
    92
370
    13
100
AcDbCircle
 10
111.3034815383436
 20
87.77620778815589
 30
0.0
 40
1.5
100
AcDbArc
 50
0.0
 51
90.00000000000001
  0
LINE
  5
5F
330
1F
100
AcDbEntity
  8
0-0
  6
Continuous
 62
    92
370
    13
100
AcDbLine
 10
111.3034815383436
 20
89.27620778815623
 30
0.0
 11
72.30348153834157
 21
89.27620778815623
 31
0.0
  0
ARC
  5
60
330
1F
100
AcDbEntity
  8
0-0
  6
Continuous
 62
    92
370
    13
100
AcDbCircle
 10
72.30348153834157
 20
87.77620778815589
 30
0.0
 40
1.5
100
AcDbArc
 50
90.0
 51
180.0
  0
LINE
  5
61
330
1F
100
AcDbEntity
  8
0-0
  6
Continuous
 62
     7
370
     9
100
AcDbLine
 10
-25.19651846165502
 20
57.8762077881558
 30
0.0
 11
-25.19651846165502
 21
-1.323792211843227
 31
0.0
  0
LINE
  5
62
330
1F
100
AcDbEntity
  8
0-0
  6
Continuous
 62
     7
370
     9
100
AcDbLine
 10
4.803481538344982
 20
-1.323792211843227
 30
0.0
 11
4.803481538344982
 21
57.8762077881558
 31
0.0
  0
ARC
  5
63
330
1F
100
AcDbEntity
  8
0-0
  6
Continuous
 62
     7
370
     9
100
AcDbCircle
 10
-10.19651846165502
 20
57.8762077881558
 30
0.0
 40
15.0
100
AcDbArc
 50
0.0
 51
180.0
  0
ARC
  5
64
330
1F
100
AcDbEntity
  8
0-0
  6
Continuous
 62
     7
370
     9
100
AcDbCircle
 10
-10.19651846165502
 20
-1.323792211843227
 30
0.0
 40
15.0
100
AcDbArc
 50
180.0
 51
0.0
  0
ARC
  5
65
330
1F
100
AcDbEntity
  8
0-0
  6
Continuous
 62
    92
370
    13
100
AcDbCircle
 10
-29.69651846165434
 20
-31.22379221184332
 30
0.0
 40
1.5
100
AcDbArc
 50
180.0
 51
270.0
  0
LINE
  5
66
330
1F
100
AcDbEntity
  8
0-0
  6
Continuous
 62
    92
370
    13
100
AcDbLine
 10
-31.19651846165468
 20
-31.22379221184332
 30
0.0
 11
-31.19651846165468
 21
87.77620778815589
 31
0.0
  0
LINE
  5
67
330
1F
100
AcDbEntity
  8
0-0
  6
Continuous
 62
    92
370
    13
100
AcDbLine
 10
-29.69651846165434
 20
-32.72379221184622
 30
0.0
 11
9.3034815383443
 21
-32.72379221184622
 31
0.0
  0
ARC
  5
68
330
1F
100
AcDbEntity
  8
0-0
  6
Continuous
 62
    92
370
    13
100
AcDbCircle
 10
9.3034815383443
 20
-31.22379221184332
 30
0.0
 40
1.5
100
AcDbArc
 50
270.0
 51
0.0
  0
LINE
  5
69
330
1F
100
AcDbEntity
  8
0-0
  6
Continuous
 62
    92
370
    13
100
AcDbLine
 10
10.80348153834464
 20
-31.22379221184332
 30
0.0
 11
10.80348153834464
 21
87.77620778815589
 31
0.0
  0
ARC
  5
6A
330
1F
100
AcDbEntity
  8
0-0
  6
Continuous
 62
    92
370
    13
100
AcDbCircle
 10
9.3034815383443
 20
87.77620778815589
 30
0.0
 40
1.5
100
AcDbArc
 50
0.0
 51
90.00000000000001
  0
LINE
  5
6B
330
1F
100
AcDbEntity
  8
0-0
  6
Continuous
 62
    92
370
    13
100
AcDbLine
 10
9.3034815383443
 20
89.27620778815623
 30
0.0
 11
-29.69651846165434
 21
89.27620778815623
 31
0.0
  0
ARC
  5
6C
330
1F
100
AcDbEntity
  8
0-0
  6
Continuous
 62
    92
370
    13
100
AcDbCircle
 10
-29.69651846165434
 20
87.77620778815589
 30
0.0
 40
1.5
100
AcDbArc
 50
90.0
 51
180.0
  0
LINE
  5
6D
330
1F
100
AcDbEntity
  8
0-0
  6
JWW_DASHED1
 62
   120
370
     5
100
AcDbLine
 10
-739.1965184616554
 20
-929.2237922118452
 30
0.0
 11
-739.1965184616554
 21
1067.776207788156
 31
0.0
  0
LINE
  5
6E
330
1F
100
AcDbEntity
  8
0-0
  6
JWW_DASHED1
 62
   120
370
     5
100
AcDbLine
 10
-769.1965184616554
 20
-929.2237922118452
 30
0.0
 11
-769.1965184616554
 21
1067.776207788156
 31
0.0
  0
LINE
  5
6F
330
1F
100
AcDbEntity
  8
0-0
  6
JWW_DASHED1
 62
   120
370
     5
100
AcDbLine
 10
850.8034815383446
 20
-929.2237922118452
 30
0.0
 11
850.8034815383446
 21
1067.776207788156
 31
0.0
  0
LINE
  5
70
330
1F
100
AcDbEntity
  8
0-0
  6
JWW_DASHED1
 62
   120
370
     5
100
AcDbLine
 10
820.8034815383446
 20
-929.2237922118452
 30
0.0
 11
820.8034815383446
 21
1067.776207788156
 31
0.0
  0
LINE
  5
71
330
1F
100
AcDbEntity
  8
0-0
  6
Continuous
 62
    92
370
    13
100
AcDbLine
 10
850.8034815383446
 20
-929.2237922118452
 30
0.0
 11
850.8034815383446
 21
-937.2237922118447
 31
0.0
  0
LINE
  5
72
330
1F
100
AcDbEntity
  8
0-0
  6
Continuous
 62
    92
370
    13
100
AcDbLine
 10
820.8034815383446
 20
-929.2237922118452
 30
0.0
 11
820.8034815383446
 21
-937.2237922118447
 31
0.0
  0
LINE
  5
73
330
1F
100
AcDbEntity
  8
0-0
  6
Continuous
 62
    92
370
    13
100
AcDbLine
 10
-739.1965184616571
 20
-929.2237922118452
 30
0.0
 11
-739.1965184616571
 21
-937.2237922118447
 31
0.0
  0
LINE
  5
74
330
1F
100
AcDbEntity
  8
0-0
  6
Continuous
 62
    92
370
    13
100
AcDbLine
 10
-769.1965184616571
 20
-929.2237922118452
 30
0.0
 11
-769.1965184616571
 21
-937.2237922118447
 31
0.0
  0
LINE
  5
75
330
1F
100
AcDbEntity
  8
0-0
  6
Continuous
 62
    92
370
    13
100
AcDbLine
 10
740.803481538344
 20
-788.2237922118446
 30
0.0
 11
150.8034815383435
 21
-788.2237922118446
 31
0.0
  0
LINE
  5
76
330
1F
100
AcDbEntity
  8
0-0
  6
Continuous
 62
    92
370
    13
100
AcDbLine
 10
-69.19651846165593
 20
-788.2237922118446
 30
0.0
 11
-659.1965184616548
 21
-788.2237922118446
 31
0.0
  0
LINE
  5
77
330
1F
100
AcDbEntity
  8
0-0
  6
Continuous
 62
    92
370
    13
100
AcDbLine
 10
-69.19651846165593
 20
1053.776207788155
 30
0.0
 11
-69.19651846165593
 21
-929.2237922118447
 31
0.0
  0
LINE
  5
78
330
1F
100
AcDbEntity
  8
0-0
  6
Continuous
 62
    92
370
    13
100
AcDbLine
 10
150.8034815383435
 20
1053.776207788155
 30
0.0
 11
150.8034815383435
 21
-929.2237922118447
 31
0.0
  0
LINE
  5
79
330
1F
100
AcDbEntity
  8
0-0
  6
Continuous
 62
    92
370
    13
100
AcDbLine
 10
740.803481538344
 20
1053.776207788155
 30
0.0
 11
740.803481538344
 21
-929.2237922118447
 31
0.0
  0
LINE
  5
7A
330
1F
100
AcDbEntity
  8
0-0
  6
Continuous
 62
    92
370
    13
100
AcDbLine
 10
-659.1965184616548
 20
1053.776207788155
 30
0.0
 11
-659.1965184616548
 21
-929.2237922118447
 31
0.0
  0
LINE
  5
7B
330
1F
100
AcDbEntity
  8
0-0
  6
Continuous
 62
    92
370
    13
100
AcDbLine
 10
-659.1965184616548
 20
918.7762077881555
 30
0.0
 11
-69.19651846165593
 21
918.7762077881555
 31
0.0
  0
LINE
  5
7C
330
1F
100
AcDbEntity
  8
0-0
  6
Continuous
 62
    92
370
    13
100
AcDbLine
 10
150.8034815383435
 20
918.7762077881555
 30
0.0
 11
740.803481538344
 21
918.7762077881555
 31
0.0
  0
LINE
  5
7D
330
1F
100
AcDbEntity
  8
0-0
  6
JWW_DASHED1
 62
   120
370
     5
100
AcDbLine
 10
739.4857229374851
 20
-788.2237922118373
 30
0.0
 11
740.8034815383372
 21
-786.9060336109865
 31
0.0
  0
LINE
  5
7E
330
1F
100
AcDbEntity
  8
0-0
  6
JWW_DASHED1
 62
   120
370
     5
100
AcDbLine
 10
729.5862280022619
 20
-788.2237922118449
 30
0.0
 11
740.803481538344
 21
-777.0065386757625
 31
0.0
  0
LINE
  5
7F
330
1F
100
AcDbEntity
  8
0-0
  6
JWW_DASHED1
 62
   120
370
     5
100
AcDbLine
 10
719.686733067037
 20
-788.2237922118529
 30
0.0
 11
740.8034815383509
 21
-767.1070437405389
 31
0.0
  0
LINE
  5
80
330
1F
100
AcDbEntity
  8
0-0
  6
JWW_DASHED1
 62
   120
370
     5
100
AcDbLine
 10
709.7872381318872
 20
-788.2237922118404
 30
0.0
 11
740.8034815383389
 21
-757.2075488053899
 31
0.0
  0
LINE
  5
81
330
1F
100
AcDbEntity
  8
0-0
  6
JWW_DASHED1
 62
   120
370
     5
100
AcDbLine
 10
699.887743196664
 20
-788.223792211847
 30
0.0
 11
740.8034815383457
 21
-747.3080538701656
 31
0.0
  0
LINE
  5
82
330
1F
100
AcDbEntity
  8
0-0
  6
JWW_DASHED1
 62
   120
370
     5
100
AcDbLine
 10
689.9882482614545
 20
-788.2237922118402
 30
0.0
 11
740.8034815383372
 21
-737.4085589349577
 31
0.0
  0
LINE
  5
83
330
1F
100
AcDbEntity
  8
0-0
  6
JWW_DASHED1
 62
   120
370
     5
100
AcDbLine
 10
680.0887533262893
 20
-788.2237922118436
 30
0.0
 11
740.8034815383406
 21
-727.5090639997933
 31
0.0
  0
LINE
  5
84
330
1F
100
AcDbEntity
  8
0-0
  6
JWW_DASHED1
 62
   120
370
     5
100
AcDbLine
 10
670.1892583910832
 20
-788.2237922118353
 30
0.0
 11
740.8034815383321
 21
-717.6095690645852
 31
0.0
  0
LINE
  5
85
330
1F
100
AcDbEntity
  8
0-0
  6
JWW_DASHED1
 62
   120
370
     5
100
AcDbLine
 10
660.2897634558873
 20
-788.223792211841
 30
0.0
 11
740.8034815383372
 21
-707.7100741293903
 31
0.0
  0
LINE
  5
86
330
1F
100
AcDbEntity
  8
0-0
  6
JWW_DASHED1
 62
   120
370
     5
100
AcDbLine
 10
650.3902685206931
 20
-788.2237922118466
 30
0.0
 11
740.8034815383423
 21
-697.8105791941964
 31
0.0
  0
LINE
  5
87
330
1F
100
AcDbEntity
  8
0-0
  6
JWW_DASHED1
 62
   120
370
     5
100
AcDbLine
 10
640.4907735854853
 20
-788.2237922118385
 30
0.0
 11
740.8034815383338
 21
-687.9110842589886
 31
0.0
  0
LINE
  5
88
330
1F
100
AcDbEntity
  8
0-0
  6
JWW_DASHED1
 62
   120
370
     5
100
AcDbLine
 10
630.5912786503201
 20
-788.2237922118419
 30
0.0
 11
740.8034815383389
 21
-678.0115893238226
 31
0.0
  0
LINE
  5
89
330
1F
100
AcDbEntity
  8
0-0
  6
JWW_DASHED1
 62
   120
370
     5
100
AcDbLine
 10
620.6917837150952
 20
-788.2237922118495
 30
0.0
 11
740.803481538344
 21
-668.1120943886001
 31
0.0
  0
LINE
  5
8A
330
1F
100
AcDbEntity
  8
0-0
  6
JWW_DASHED1
 62
   120
370
     5
100
AcDbLine
 10
610.7922887798874
 20
-788.2237922118414
 30
0.0
 11
740.8034815383372
 21
-658.212599453392
 31
0.0
  0
LINE
  5
8B
330
1F
100
AcDbEntity
  8
0-0
  6
JWW_DASHED1
 62
   120
370
     5
100
AcDbLine
 10
600.8927938447256
 20
-788.223792211841
 30
0.0
 11
740.8034815383406
 21
-648.3131045182257
 31
0.0
  0
LINE
  5
8C
330
1F
100
AcDbEntity
  8
0-0
  6
JWW_DASHED1
 62
   120
370
     5
100
AcDbLine
 10
590.9932989094973
 20
-788.2237922118524
 30
0.0
 11
740.8034815383475
 21
-638.4136095830034
 31
0.0
  0
LINE
  5
8D
330
1F
100
AcDbEntity
  8
0-0
  6
JWW_DASHED1
 62
   120
370
     5
100
AcDbLine
 10
581.0938039742895
 20
-788.2237922118444
 30
0.0
 11
740.8034815383389
 21
-628.5141146477954
 31
0.0
  0
LINE
  5
8E
330
1F
100
AcDbEntity
  8
0-0
  6
JWW_DASHED1
 62
   120
370
     5
100
AcDbLine
 10
571.1943090391294
 20
-788.2237922118434
 30
0.0
 11
740.803481538344
 21
-618.614619712629
 31
0.0
  0
LINE
  5
8F
330
1F
100
AcDbEntity
  8
0-0
  6
JWW_DASHED1
 62
   120
370
     5
100
AcDbLine
 10
561.2948141039011
 20
-788.2237922118555
 30
0.0
 11
740.8034815383492
 21
-608.7151247774068
 31
0.0
  0
LINE
  5
90
330
1F
100
AcDbEntity
  8
0-0
  6
JWW_DASHED1
 62
   120
370
     5
100
AcDbLine
 10
551.3953191686916
 20
-788.2237922118472
 30
0.0
 11
740.8034815383406
 21
-598.8156298421987
 31
0.0
  0
LINE
  5
91
330
1F
100
AcDbEntity
  8
0-0
  6
JWW_DASHED1
 62
   120
370
     5
100
AcDbLine
 10
541.4958242335332
 20
-788.2237922118454
 30
0.0
 11
740.8034815383457
 21
-588.9161349070321
 31
0.0
  0
LINE
  5
92
330
1F
100
AcDbEntity
  8
0-0
  6
JWW_DASHED1
 62
   120
370
     5
100
AcDbLine
 10
531.5963292983032
 20
-788.2237922118585
 30
0.0
 11
740.8034815383509
 21
-579.0166399718099
 31
0.0
  0
LINE
  5
93
330
1F
100
AcDbEntity
  8
0-0
  6
JWW_DASHED1
 62
   120
370
     5
100
AcDbLine
 10
521.6968343630937
 20
-788.2237922118504
 30
0.0
 11
740.8034815383423
 21
-569.1171450366021
 31
0.0
  0
LINE
  5
94
330
1F
100
AcDbEntity
  8
0-0
  6
JWW_DASHED1
 62
   120
370
     5
100
AcDbLine
 10
511.7973394279455
 20
-788.223792211838
 30
0.0
 11
740.8034815383321
 21
-559.2176501014508
 31
0.0
  0
LINE
  5
95
330
1F
100
AcDbEntity
  8
0-0
  6
JWW_DASHED1
 62
   120
370
     5
100
AcDbLine
 10
501.8978444927275
 20
-788.2237922118393
 30
0.0
 11
740.8034815383406
 21
-549.318155166227
 31
0.0
  0
LINE
  5
96
330
1F
100
AcDbEntity
  8
0-0
  6
JWW_DASHED1
 62
   120
370
     5
100
AcDbLine
 10
491.9983495574975
 20
-788.2237922118534
 30
0.0
 11
740.8034815383457
 21
-539.4186602310056
 31
0.0
  0
LINE
  5
97
330
1F
100
AcDbEntity
  8
0-0
  6
JWW_DASHED1
 62
   120
370
     5
100
AcDbLine
 10
482.0988546223476
 20
-788.223792211841
 30
0.0
 11
740.8034815383321
 21
-529.5191652958563
 31
0.0
  0
LINE
  5
98
330
1F
100
AcDbEntity
  8
0-0
  6
JWW_DASHED1
 62
   120
370
     5
100
AcDbLine
 10
472.1993596871313
 20
-788.2237922118414
 30
0.0
 11
740.8034815383423
 21
-519.6196703606302
 31
0.0
  0
LINE
  5
99
330
1F
100
AcDbEntity
  8
0-0
  6
JWW_DASHED1
 62
   120
370
     5
100
AcDbLine
 10
462.2998647518996
 20
-788.2237922118563
 30
0.0
 11
740.8034815383475
 21
-509.7201754254089
 31
0.0
  0
LINE
  5
9A
330
1F
100
AcDbEntity
  8
0-0
  6
JWW_DASHED1
 62
   120
370
     5
100
AcDbLine
 10
452.4003698167497
 20
-788.2237922118438
 30
0.0
 11
740.8034815383338
 21
-499.8206804902597
 31
0.0
  0
LINE
  5
9B
330
1F
100
AcDbEntity
  8
0-0
  6
JWW_DASHED1
 62
   120
370
     5
100
AcDbLine
 10
442.5008748815334
 20
-788.2237922118438
 30
0.0
 11
740.803481538344
 21
-489.9211855550333
 31
0.0
  0
LINE
  5
9C
330
1F
100
AcDbEntity
  8
0-0
  6
JWW_DASHED1
 62
   120
370
     5
100
AcDbLine
 10
432.6013799463614
 20
-788.2237922118551
 30
0.0
 11
740.803481538344
 21
-480.0216906198711
 31
0.0
  0
LINE
  5
9D
330
1F
100
AcDbEntity
  8
0-0
  6
JWW_DASHED1
 62
   120
370
     5
100
AcDbLine
 10
422.7018850111518
 20
-788.223792211847
 30
0.0
 11
740.8034815383372
 21
-470.1221956846631
 31
0.0
  0
LINE
  5
9E
330
1F
100
AcDbEntity
  8
0-0
  6
JWW_DASHED1
 62
   120
370
     5
100
AcDbLine
 10
412.8023900759457
 20
-788.2237922118387
 30
0.0
 11
740.8034815383304
 21
-460.2227007494523
 31
0.0
  0
LINE
  5
9F
330
1F
100
AcDbEntity
  8
0-0
  6
JWW_DASHED1
 62
   120
370
     5
100
AcDbLine
 10
402.9028951407635
 20
-788.223792211858
 30
0.0
 11
740.8034815383475
 21
-450.3232058142745
 31
0.0
  0
LINE
  5
A0
330
1F
100
AcDbEntity
  8
0-0
  6
JWW_DASHED1
 62
   120
370
     5
100
AcDbLine
 10
393.0034002055556
 20
-788.22379221185
 30
0.0
 11
740.8034815383389
 21
-440.4237108790664
 31
0.0
  0
LINE
  5
A1
330
1F
100
AcDbEntity
  8
0-0
  6
JWW_DASHED1
 62
   120
370
     5
100
AcDbLine
 10
383.1039052703478
 20
-788.2237922118419
 30
0.0
 11
740.8034815383304
 21
-430.5242159438586
 31
0.0
  0
LINE
  5
A2
330
1F
100
AcDbEntity
  8
0-0
  6
JWW_DASHED1
 62
   120
370
     5
100
AcDbLine
 10
373.2044103351656
 20
-788.2237922118612
 30
0.0
 11
740.8034815383492
 21
-420.6247210086781
 31
0.0
  0
LINE
  5
A3
330
1F
100
AcDbEntity
  8
0-0
  6
JWW_DASHED1
 62
   120
370
     5
100
AcDbLine
 10
363.3049153999577
 20
-788.2237922118529
 30
0.0
 11
740.8034815383406
 21
-410.7252260734703
 31
0.0
  0
LINE
  5
A4
330
1F
100
AcDbEntity
  8
0-0
  6
JWW_DASHED1
 62
   120
370
     5
100
AcDbLine
 10
353.4054204647499
 20
-788.2237922118449
 30
0.0
 11
740.8034815383321
 21
-400.825731138262
 31
0.0
  0
LINE
  5
A5
330
1F
100
AcDbEntity
  8
0-0
  6
JWW_DASHED1
 62
   120
370
     5
100
AcDbLine
 10
343.5059255295847
 20
-788.2237922118483
 30
0.0
 11
740.8034815383389
 21
-390.9262362030934
 31
0.0
  0
LINE
  5
A6
330
1F
100
AcDbEntity
  8
0-0
  6
JWW_DASHED1
 62
   120
370
     5
100
AcDbLine
 10
333.6064305943598
 20
-788.2237922118561
 30
0.0
 11
740.8034815383423
 21
-381.0267412678732
 31
0.0
  0
LINE
  5
A7
330
1F
100
AcDbEntity
  8
0-0
  6
JWW_DASHED1
 62
   120
370
     5
100
AcDbLine
 10
323.706935659152
 20
-788.223792211848
 30
0.0
 11
740.8034815383338
 21
-371.1272463326654
 31
0.0
  0
LINE
  5
A8
330
1F
100
AcDbEntity
  8
0-0
  6
JWW_DASHED1
 62
   120
370
     5
100
AcDbLine
 10
313.8074407239988
 20
-788.22379221184
 30
0.0
 11
740.8034815383406
 21
-361.2277513974968
 31
0.0
  0
LINE
  5
A9
330
1F
100
AcDbEntity
  8
0-0
  6
JWW_DASHED1
 62
   120
370
     5
100
AcDbLine
 10
303.9079457887636
 20
-788.2237922118591
 30
0.0
 11
740.803481538344
 21
-351.328256462277
 31
0.0
  0
LINE
  5
AA
330
1F
100
AcDbEntity
  8
0-0
  6
JWW_DASHED1
 62
   120
370
     5
100
AcDbLine
 10
294.0084508535541
 20
-788.223792211851
 30
0.0
 11
740.8034815383372
 21
-341.4287615270688
 31
0.0
  0
LINE
  5
AB
330
1F
100
AcDbEntity
  8
0-0
  6
JWW_DASHED1
 62
   120
370
     5
100
AcDbLine
 10
284.1089559184026
 20
-788.223792211842
 30
0.0
 11
740.803481538344
 21
-331.5292665918997
 31
0.0
  0
LINE
  5
AC
330
1F
100
AcDbEntity
  8
0-0
  6
JWW_DASHED1
 62
   120
370
     5
100
AcDbLine
 10
274.2094609831657
 20
-788.2237922118621
 30
0.0
 11
740.8034815383475
 21
-321.62977165668
 31
0.0
  0
LINE
  5
AD
330
1F
100
AcDbEntity
  8
0-0
  6
JWW_DASHED1
 62
   120
370
     5
100
AcDbLine
 10
264.3099660479562
 20
-788.2237922118541
 30
0.0
 11
740.8034815383389
 21
-311.7302767214721
 31
0.0
  0
LINE
  5
AE
330
1F
100
AcDbEntity
  8
0-0
  6
JWW_DASHED1
 62
   120
370
     5
100
AcDbLine
 10
254.4104711128047
 20
-788.2237922118442
 30
0.0
 11
740.8034815383475
 21
-301.8307817863027
 31
0.0
  0
LINE
  5
AF
330
1F
100
AcDbEntity
  8
0-0
  6
JWW_DASHED1
 62
   120
370
     5
100
AcDbLine
 10
244.5109761775679
 20
-788.2237922118651
 30
0.0
 11
740.8034815383492
 21
-291.9312868510838
 31
0.0
  0
LINE
  5
B0
330
1F
100
AcDbEntity
  8
0-0
  6
JWW_DASHED1
 62
   120
370
     5
100
AcDbLine
 10
234.611481242418
 20
-788.2237922118527
 30
0.0
 11
740.8034815383372
 21
-282.0317919159344
 31
0.0
  0
LINE
  5
B1
330
1F
100
AcDbEntity
  8
0-0
  6
JWW_DASHED1
 62
   120
370
     5
100
AcDbLine
 10
224.7119863072102
 20
-788.2237922118446
 30
0.0
 11
740.8034815383338
 21
-272.1322969807218
 31
0.0
  0
LINE
  5
B2
330
1F
100
AcDbEntity
  8
0-0
  6
JWW_DASHED1
 62
   120
370
     5
100
AcDbLine
 10
214.8124913720007
 20
-788.2237922118383
 30
0.0
 11
740.8034815383406
 21
-262.2328020454978
 31
0.0
  0
LINE
  5
B3
330
1F
100
AcDbEntity
  8
0-0
  6
JWW_DASHED1
 62
   120
370
     5
100
AcDbLine
 10
204.9129964368218
 20
-788.2237922118557
 30
0.0
 11
740.8034815383389
 21
-252.3333071103377
 31
0.0
  0
LINE
  5
B4
330
1F
100
AcDbEntity
  8
0-0
  6
JWW_DASHED1
 62
   120
370
     5
100
AcDbLine
 10
195.0135015016123
 20
-788.2237922118476
 30
0.0
 11
740.8034815383304
 21
-242.4338121751299
 31
0.0
  0
LINE
  5
B5
330
1F
100
AcDbEntity
  8
0-0
  6
JWW_DASHED1
 62
   120
370
     5
100
AcDbLine
 10
185.1140065664028
 20
-788.2237922118404
 30
0.0
 11
740.803481538344
 21
-232.5343172399008
 31
0.0
  0
LINE
  5
B6
330
1F
100
AcDbEntity
  8
0-0
  6
JWW_DASHED1
 62
   120
370
     5
100
AcDbLine
 10
175.2145116312239
 20
-788.2237922118587
 30
0.0
 11
740.8034815383406
 21
-222.6348223047411
 31
0.0
  0
LINE
  5
B7
330
1F
100
AcDbEntity
  8
0-0
  6
JWW_DASHED1
 62
   120
370
     5
100
AcDbLine
 10
165.3150166960144
 20
-788.2237922118507
 30
0.0
 11
740.8034815383338
 21
-212.7353273695329
 31
0.0
  0
LINE
  5
B8
330
1F
100
AcDbEntity
  8
0-0
  6
JWW_DASHED1
 62
   120
370
     5
100
AcDbLine
 10
155.4155217608066
 20
-788.2237922118425
 30
0.0
 11
740.8034815383457
 21
-202.8358324343041
 31
0.0
  0
LINE
  5
B9
330
1F
100
AcDbEntity
  8
0-0
  6
JWW_DASHED1
 62
   120
370
     5
100
AcDbLine
 10
150.8034815383606
 20
-782.9363374991267
 30
0.0
 11
740.803481538344
 21
-192.9363374991445
 31
0.0
  0
LINE
  5
BA
330
1F
100
AcDbEntity
  8
0-0
  6
JWW_DASHED1
 62
   120
370
     5
100
AcDbLine
 10
150.803481538352
 20
-773.0368425639189
 30
0.0
 11
740.8034815383355
 21
-183.0368425639367
 31
0.0
  0
LINE
  5
BB
330
1F
100
AcDbEntity
  8
0-0
  6
JWW_DASHED1
 62
   120
370
     5
100
AcDbLine
 10
150.8034815383452
 20
-763.1373476287106
 30
0.0
 11
740.8034815383321
 21
-173.1373476287229
 31
0.0
  0
LINE
  5
BC
330
1F
100
AcDbEntity
  8
0-0
  6
JWW_DASHED1
 62
   120
370
     5
100
AcDbLine
 10
150.8034815383623
 20
-753.2378526935303
 30
0.0
 11
740.8034815383457
 21
-163.2378526935479
 31
0.0
  0
LINE
  5
BD
330
1F
100
AcDbEntity
  8
0-0
  6
JWW_DASHED1
 62
   120
370
     5
100
AcDbLine
 10
150.8034815383554
 20
-743.3383577583222
 30
0.0
 11
740.8034815383372
 21
-153.33835775834
 31
0.0
  0
LINE
  5
BE
330
1F
100
AcDbEntity
  8
0-0
  6
JWW_DASHED1
 62
   120
370
     5
100
AcDbLine
 10
150.8034815383452
 20
-733.4388628231145
 30
0.0
 11
740.8034815383287
 21
-143.4388628231322
 31
0.0
  0
LINE
  5
BF
330
1F
100
AcDbEntity
  8
0-0
  6
JWW_DASHED1
 62
   120
370
     5
100
AcDbLine
 10
150.8034815383657
 20
-723.5393678879335
 30
0.0
 11
740.8034815383475
 21
-133.5393678879512
 31
0.0
  0
LINE
  5
C0
330
1F
100
AcDbEntity
  8
0-0
  6
JWW_DASHED1
 62
   120
370
     5
100
AcDbLine
 10
150.8034815383571
 20
-713.6398729527257
 30
0.0
 11
740.8034815383389
 21
-123.6398729527434
 31
0.0
  0
LINE
  5
C1
330
1F
100
AcDbEntity
  8
0-0
  6
JWW_DASHED1
 62
   120
370
     5
100
AcDbLine
 10
150.8034815383486
 20
-703.7403780175179
 30
0.0
 11
740.8034815383304
 21
-113.7403780175356
 31
0.0
  0
LINE
  5
C2
330
1F
100
AcDbEntity
  8
0-0
  6
JWW_DASHED1
 62
   120
370
     5
100
AcDbLine
 10
150.8034815383367
 20
-693.8408830823676
 30
0.0
 11
740.8034815383406
 21
-103.8408830823644
 31
0.0
  0
LINE
  5
C3
330
1F
100
AcDbEntity
  8
0-0
  6
JWW_DASHED1
 62
   120
370
     5
100
AcDbLine
 10
150.8034815383589
 20
-683.941388147129
 30
0.0
 11
740.8034815383406
 21
-93.94138814714637
 31
0.0
  0
LINE
  5
C4
330
1F
100
AcDbEntity
  8
0-0
  6
JWW_DASHED1
 62
   120
370
     5
100
AcDbLine
 10
150.8034815383452
 20
-674.0418932119801
 30
0.0
 11
740.8034815383287
 21
-84.0418932119978
 31
0.0
  0
LINE
  5
C5
330
1F
100
AcDbEntity
  8
0-0
  6
JWW_DASHED1
 62
   120
370
     5
100
AcDbLine
 10
150.8034815383384
 20
-664.1423982767709
 30
0.0
 11
740.8034815383423
 21
-74.14239827676738
 31
0.0
  0
LINE
  5
C6
330
1F
100
AcDbEntity
  8
0-0
  6
JWW_DASHED1
 62
   120
370
     5
100
AcDbLine
 10
150.8034815383606
 20
-654.2429033415324
 30
0.0
 11
740.803481538344
 21
-64.24290334155017
 31
0.0
  0
LINE
  5
C7
330
1F
100
AcDbEntity
  8
0-0
  6
JWW_DASHED1
 62
   120
370
     5
100
AcDbLine
 10
150.8034815383486
 20
-644.3434084063832
 30
0.0
 11
740.8034815383304
 21
-54.34340840640118
 31
0.0
  0
LINE
  5
C8
330
1F
100
AcDbEntity
  8
0-0
  6
JWW_DASHED1
 62
   120
370
     5
100
AcDbLine
 10
150.8034815383418
 20
-634.4439134711739
 30
0.0
 11
740.803481538344
 21
-44.44391347117033
 31
0.0
  0
LINE
  5
C9
330
1F
100
AcDbEntity
  8
0-0
  6
JWW_DASHED1
 62
   120
370
     5
100
AcDbLine
 10
150.8034815383623
 20
-624.5444185359358
 30
0.0
 11
740.8034815383457
 21
-34.54441853595355
 31
0.0
  0
LINE
  5
CA
330
1F
100
AcDbEntity
  8
0-0
  6
JWW_DASHED1
 62
   120
370
     5
100
AcDbLine
 10
150.8034815383503
 20
-614.6449236007866
 30
0.0
 11
740.8034815383338
 21
-24.64492360080413
 31
0.0
  0
LINE
  5
CB
330
1F
100
AcDbEntity
  8
0-0
  6
JWW_DASHED1
 62
   120
370
     5
100
AcDbLine
 10
150.8034815383435
 20
-604.745428665577
 30
0.0
 11
740.8034815383475
 21
-14.74542866557329
 31
0.0
  0
LINE
  5
CC
330
1F
100
AcDbEntity
  8
0-0
  6
JWW_DASHED1
 62
   120
370
     5
100
AcDbLine
 10
150.803481538352
 20
-594.8459337303532
 30
0.0
 11
740.8034815383389
 21
-4.845933730365459
 31
0.0
  0
LINE
  5
CD
330
1F
100
AcDbEntity
  8
0-0
  6
JWW_DASHED1
 62
   120
370
     5
100
AcDbLine
 10
150.803481538352
 20
-584.9464387951901
 30
0.0
 11
740.8034815383338
 21
5.053561204792061
 31
0.0
  0
LINE
  5
CE
330
1F
100
AcDbEntity
  8
0-0
  6
JWW_DASHED1
 62
   120
370
     5
100
AcDbLine
 10
150.8034815383452
 20
-575.0469438599819
 30
0.0
 11
740.803481538327
 21
14.95305614000031
 31
0.0
  0
LINE
  5
CF
330
1F
100
AcDbEntity
  8
0-0
  6
JWW_DASHED1
 62
   120
370
     5
100
AcDbLine
 10
-72.27286174873129
 20
-788.2237922118404
 30
0.0
 11
-69.19651846165934
 21
-785.1474489247705
 31
0.0
  0
LINE
  5
D0
330
1F
100
AcDbEntity
  8
0-0
  6
JWW_DASHED1
 62
   120
370
     5
100
AcDbLine
 10
150.8034815383384
 20
-565.147448924772
 30
0.0
 11
740.8034815383406
 21
24.85255107523159
 31
0.0
  0
LINE
  5
D1
330
1F
100
AcDbEntity
  8
0-0
  6
JWW_DASHED1
 62
   120
370
     5
100
AcDbLine
 10
-82.17235668389648
 20
-788.2237922118436
 30
0.0
 11
-69.19651846165934
 21
-775.2479539896058
 31
0.0
  0
LINE
  5
D2
330
1F
100
AcDbEntity
  8
0-0
  6
JWW_DASHED1
 62
   120
370
     5
100
AcDbLine
 10
150.8034815383554
 20
-555.2479539895935
 30
0.0
 11
740.8034815383372
 21
34.75204601038868
 31
0.0
  0
LINE
  5
D3
330
1F
100
AcDbEntity
  8
0-0
  6
JWW_DASHED1
 62
   120
370
     5
100
AcDbLine
 10
-92.0718516191026
 20
-788.2237922118353
 30
0.0
 11
-69.19651846166616
 21
-765.348459054398
 31
0.0
  0
LINE
  5
D4
330
1F
100
AcDbEntity
  8
0-0
  6
JWW_DASHED1
 62
   120
370
     5
100
AcDbLine
 10
150.8034815383452
 20
-545.3484590543853
 30
0.0
 11
740.8034815383287
 21
44.65154094559693
 31
0.0
  0
LINE
  5
D5
330
1F
100
AcDbEntity
  8
0-0
  6
JWW_DASHED1
 62
   120
370
     5
100
AcDbLine
 10
-101.9713465543258
 20
-788.2237922118425
 30
0.0
 11
-69.19651846165934
 21
-755.448964119174
 31
0.0
  0
LINE
  5
D6
330
1F
100
AcDbEntity
  8
0-0
  6
JWW_DASHED1
 62
   120
370
     5
100
AcDbLine
 10
150.8034815383401
 20
-535.4489641191753
 30
0.0
 11
740.803481538344
 21
54.55103588082821
 31
0.0
  0
LINE
  5
D7
330
1F
100
AcDbEntity
  8
0-0
  6
JWW_DASHED1
 62
   120
370
     5
100
AcDbLine
 10
-111.8708414894944
 20
-788.2237922118468
 30
0.0
 11
-69.19651846165593
 21
-745.5494691840091
 31
0.0
  0
LINE
  5
D8
330
1F
100
AcDbEntity
  8
0-0
  6
JWW_DASHED1
 62
   120
370
     5
100
AcDbLine
 10
150.8034815383571
 20
-525.549469183997
 30
0.0
 11
740.8034815383389
 21
64.4505308159853
 31
0.0
  0
LINE
  5
D9
330
1F
100
AcDbEntity
  8
0-0
  6
JWW_DASHED1
 62
   120
370
     5
100
AcDbLine
 10
-121.7703364247005
 20
-788.2237922118386
 30
0.0
 11
-69.19651846166275
 21
-735.6499742488011
 31
0.0
  0
LINE
  5
DA
330
1F
100
AcDbEntity
  8
0-0
  6
JWW_DASHED1
 62
   120
370
     5
100
AcDbLine
 10
150.8034815383486
 20
-515.6499742487889
 30
0.0
 11
740.8034815383304
 21
74.35002575119356
 31
0.0
  0
LINE
  5
DB
330
1F
100
AcDbEntity
  8
0-0
  6
JWW_DASHED1
 62
   120
370
     5
100
AcDbLine
 10
-131.6698313599237
 20
-788.2237922118446
 30
0.0
 11
-69.19651846165593
 21
-725.7504793135769
 31
0.0
  0
LINE
  5
DC
330
1F
100
AcDbEntity
  8
0-0
  6
JWW_DASHED1
 62
   120
370
     5
100
AcDbLine
 10
150.8034815383418
 20
-505.7504793135783
 30
0.0
 11
740.8034815383475
 21
84.24952068642568
 31
0.0
  0
LINE
  5
DD
330
1F
100
AcDbEntity
  8
0-0
  6
JWW_DASHED1
 62
   120
370
     5
100
AcDbLine
 10
-141.5693262950923
 20
-788.2237922118497
 30
0.0
 11
-69.19651846165252
 21
-715.8509843784125
 31
0.0
  0
LINE
  5
DE
330
1F
100
AcDbEntity
  8
0-0
  6
JWW_DASHED1
 62
   120
370
     5
100
AcDbLine
 10
150.8034815383589
 20
-495.8509843784001
 30
0.0
 11
740.8034815383406
 21
94.14901562158192
 31
0.0
  0
LINE
  5
DF
330
1F
100
AcDbEntity
  8
0-0
  6
JWW_DASHED1
 62
   120
370
     5
100
AcDbLine
 10
-151.4688212302984
 20
-788.2237922118417
 30
0.0
 11
-69.19651846166275
 21
-705.9514894432045
 31
0.0
  0
LINE
  5
E0
330
1F
100
AcDbEntity
  8
0-0
  6
JWW_DASHED1
 62
   120
370
     5
100
AcDbLine
 10
150.8034815383503
 20
-485.951489443192
 30
0.0
 11
740.8034815383338
 21
104.0485105567902
 31
0.0
  0
LINE
  5
E1
330
1F
100
AcDbEntity
  8
0-0
  6
JWW_DASHED1
 62
   120
370
     5
100
AcDbLine
 10
-161.3683161654602
 20
-788.2237922118425
 30
0.0
 11
-69.19651846165934
 21
-696.0519945080387
 31
0.0
  0
LINE
  5
E2
330
1F
100
AcDbEntity
  8
0-0
  6
JWW_DASHED1
 62
   120
370
     5
100
AcDbLine
 10
150.8034815383401
 20
-476.0519945080403
 30
0.0
 11
740.803481538344
 21
113.9480054919635
 31
0.0
  0
LINE
  5
E3
330
1F
100
AcDbEntity
  8
0-0
  6
JWW_DASHED1
 62
   120
370
     5
100
AcDbLine
 10
-171.2678111006868
 20
-788.2237922118527
 30
0.0
 11
-69.19651846165252
 21
-686.1524995728159
 31
0.0
  0
LINE
  5
E4
330
1F
100
AcDbEntity
  8
0-0
  6
JWW_DASHED1
 62
   120
370
     5
100
AcDbLine
 10
150.8034815383606
 20
-466.1524995728035
 30
0.0
 11
740.803481538344
 21
123.8475004271785
 31
0.0
  0
LINE
  5
E5
330
1F
100
AcDbEntity
  8
0-0
  6
JWW_DASHED1
 62
   120
370
     5
100
AcDbLine
 10
-181.1673060358963
 20
-788.2237922118446
 30
0.0
 11
-69.19651846165934
 21
-676.2530046376081
 31
0.0
  0
LINE
  5
E6
330
1F
100
AcDbEntity
  8
0-0
  6
JWW_DASHED1
 62
   120
370
     5
100
AcDbLine
 10
150.803481538352
 20
-456.2530046375957
 30
0.0
 11
740.8034815383355
 21
133.7469953623868
 31
0.0
  0
LINE
  5
E7
330
1F
100
AcDbEntity
  8
0-0
  6
JWW_DASHED1
 62
   120
370
     5
100
AcDbLine
 10
-191.0668009710581
 20
-788.2237922118446
 30
0.0
 11
-69.19651846165593
 21
-666.353509702442
 31
0.0
  0
LINE
  5
E8
330
1F
100
AcDbEntity
  8
0-0
  6
JWW_DASHED1
 62
   120
370
     5
100
AcDbLine
 10
150.8034815383435
 20
-446.3535097024433
 30
0.0
 11
740.8034815383475
 21
143.6464902975601
 31
0.0
  0
LINE
  5
E9
330
1F
100
AcDbEntity
  8
0-0
  6
JWW_DASHED1
 62
   120
370
     5
100
AcDbLine
 10
-200.9662959062847
 20
-788.2237922118557
 30
0.0
 11
-69.1965184616491
 21
-656.4540147672193
 31
0.0
  0
LINE
  5
EA
330
1F
100
AcDbEntity
  8
0-0
  6
JWW_DASHED1
 62
   120
370
     5
100
AcDbLine
 10
150.8034815383623
 20
-436.4540147672068
 30
0.0
 11
740.8034815383457
 21
153.5459852327756
 31
0.0
  0
LINE
  5
EB
330
1F
100
AcDbEntity
  8
0-0
  6
JWW_DASHED1
 62
   120
370
     5
100
AcDbLine
 10
-210.8657908414942
 20
-788.2237922118476
 30
0.0
 11
-69.19651846165934
 21
-646.5545198320115
 31
0.0
  0
LINE
  5
EC
330
1F
100
AcDbEntity
  8
0-0
  6
JWW_DASHED1
 62
   120
370
     5
100
AcDbLine
 10
150.8034815383554
 20
-426.5545198319988
 30
0.0
 11
740.8034815383372
 21
163.4454801679834
 31
0.0
  0
LINE
  5
ED
330
1F
100
AcDbEntity
  8
0-0
  6
JWW_DASHED1
 62
   120
370
     5
100
AcDbLine
 10
-220.765285776656
 20
-788.223792211847
 30
0.0
 11
-69.19651846165252
 21
-636.655024896845
 31
0.0
  0
LINE
  5
EE
330
1F
100
AcDbEntity
  8
0-0
  6
JWW_DASHED1
 62
   120
370
     5
100
AcDbLine
 10
150.8034815383452
 20
-416.6550248968468
 30
0.0
 11
740.8034815383338
 21
173.3449751031414
 31
0.0
  0
LINE
  5
EF
330
1F
100
AcDbEntity
  8
0-0
  6
JWW_DASHED1
 62
   120
370
     5
100
AcDbLine
 10
-230.6647807118689
 20
-788.2237922118429
 30
0.0
 11
-69.19651846165934
 21
-626.7555299616367
 31
0.0
  0
LINE
  5
F0
330
1F
100
AcDbEntity
  8
0-0
  6
JWW_DASHED1
 62
   120
370
     5
100
AcDbLine
 10
150.8034815383367
 20
-406.7555299616382
 30
0.0
 11
740.8034815383406
 21
183.244470038365
 31
0.0
  0
LINE
  5
F1
330
1F
100
AcDbEntity
  8
0-0
  6
JWW_DASHED1
 62
   120
370
     5
100
AcDbLine
 10
-240.5642756470921
 20
-788.2237922118507
 30
0.0
 11
-69.19651846165593
 21
-616.8560350264146
 31
0.0
  0
LINE
  5
F2
330
1F
100
AcDbEntity
  8
0-0
  6
JWW_DASHED1
 62
   120
370
     5
100
AcDbLine
 10
150.8034815383571
 20
-396.8560350264022
 30
0.0
 11
740.8034815383389
 21
193.14396497358
 31
0.0
  0
LINE
  5
F3
330
1F
100
AcDbEntity
  8
0-0
  6
JWW_DASHED1
 62
   120
370
     5
100
AcDbLine
 10
-250.4637705822402
 20
-788.2237922118383
 30
0.0
 11
-69.19651846166616
 21
-606.9565400912654
 31
0.0
  0
LINE
  5
F4
330
1F
100
AcDbEntity
  8
0-0
  6
JWW_DASHED1
 62
   120
370
     5
100
AcDbLine
 10
150.8034815383452
 20
-386.9565400912532
 30
0.0
 11
740.803481538327
 21
203.0434599087295
 31
0.0
  0
LINE
  5
F5
330
1F
100
AcDbEntity
  8
0-0
  6
JWW_DASHED1
 62
   120
370
     5
100
AcDbLine
 10
-260.36326551746
 20
-788.2237922118408
 30
0.0
 11
-69.19651846165934
 21
-597.0570451560401
 31
0.0
  0
LINE
  5
F6
330
1F
100
AcDbEntity
  8
0-0
  6
JWW_DASHED1
 62
   120
370
     5
100
AcDbLine
 10
150.8034815383401
 20
-377.0570451560416
 30
0.0
 11
740.803481538344
 21
212.942954843962
 31
0.0
  0
LINE
  5
F7
330
1F
100
AcDbEntity
  8
0-0
  6
JWW_DASHED1
 62
   120
370
     5
100
AcDbLine
 10
-270.26276045269
 20
-788.2237922118536
 30
0.0
 11
-69.19651846165252
 21
-587.157550220818
 31
0.0
  0
LINE
  5
F8
330
1F
100
AcDbEntity
  8
0-0
  6
JWW_DASHED1
 62
   120
370
     5
100
AcDbLine
 10
150.8034815383589
 20
-367.157550220806
 30
0.0
 11
740.8034815383406
 21
222.8424497791767
 31
0.0
  0
LINE
  5
F9
330
1F
100
AcDbEntity
  8
0-0
  6
JWW_DASHED1
 62
   120
370
     5
100
AcDbLine
 10
-280.1622553878382
 20
-788.2237922118412
 30
0.0
 11
-69.19651846166616
 21
-577.2580552856688
 31
0.0
  0
LINE
  5
FA
330
1F
100
AcDbEntity
  8
0-0
  6
JWW_DASHED1
 62
   120
370
     5
100
AcDbLine
 10
150.8034815383469
 20
-357.2580552856566
 30
0.0
 11
740.8034815383287
 21
232.7419447143257
 31
0.0
  0
LINE
  5
FB
330
1F
100
AcDbEntity
  8
0-0
  6
JWW_DASHED1
 62
   120
370
     5
100
AcDbLine
 10
-290.0617503230579
 20
-788.2237922118429
 30
0.0
 11
-69.19651846165593
 21
-567.3585603504431
 31
0.0
  0
LINE
  5
FC
330
1F
100
AcDbEntity
  8
0-0
  6
JWW_DASHED1
 62
   120
370
     5
100
AcDbLine
 10
150.8034815383418
 20
-347.3585603504449
 30
0.0
 11
740.8034815383457
 21
242.6414396495591
 31
0.0
  0
LINE
  5
FD
330
1F
100
AcDbEntity
  8
0-0
  6
JWW_DASHED1
 62
   120
370
     5
100
AcDbLine
 10
-299.9612452582879
 20
-788.2237922118563
 30
0.0
 11
-69.19651846165252
 21
-557.4590654152214
 31
0.0
  0
LINE
  5
FE
330
1F
100
AcDbEntity
  8
0-0
  6
JWW_DASHED1
 62
   120
370
     5
100
AcDbLine
 10
150.8034815383623
 20
-337.459065415209
 30
0.0
 11
740.803481538344
 21
252.5409345847733
 31
0.0
  0
LINE
  5
FF
330
1F
100
AcDbEntity
  8
0-0
  6
JWW_DASHED1
 62
   120
370
     5
100
AcDbLine
 10
-309.8607401934361
 20
-788.2237922118442
 30
0.0
 11
-69.19651846166275
 21
-547.5595704800724
 31
0.0
  0
LINE
  5
100
330
1F
100
AcDbEntity
  8
0-0
  6
JWW_DASHED1
 62
   120
370
     5
100
AcDbLine
 10
150.8034815383486
 20
-327.55957048006
 30
0.0
 11
740.8034815383304
 21
262.4404295199223
 31
0.0
  0
LINE
  5
101
330
1F
100
AcDbEntity
  8
0-0
  6
JWW_DASHED1
 62
   120
370
     5
100
AcDbLine
 10
-319.7602351286524
 20
-788.2237922118453
 30
0.0
 11
-69.19651846165252
 21
-537.6600755448462
 31
0.0
  0
LINE
  5
102
330
1F
100
AcDbEntity
  8
0-0
  6
JWW_DASHED1
 62
   120
370
     5
100
AcDbLine
 10
150.8034815383452
 20
-317.6600755448475
 30
0.0
 11
740.8034815383321
 21
272.3399244551399
 31
0.0
  0
LINE
  5
103
330
1F
100
AcDbEntity
  8
0-0
  6
JWW_DASHED1
 62
   120
370
     5
100
AcDbLine
 10
-329.6597300638688
 20
-788.2237922118438
 30
0.0
 11
-69.19651846166275
 21
-527.7605806096382
 31
0.0
  0
LINE
  5
104
330
1F
100
AcDbEntity
  8
0-0
  6
JWW_DASHED1
 62
   120
370
     5
100
AcDbLine
 10
150.803481538352
 20
-307.7605806096238
 30
0.0
 11
740.8034815383406
 21
282.2394193903639
 31
0.0
  0
LINE
  5
105
330
1F
100
AcDbEntity
  8
0-0
  6
JWW_DASHED1
 62
   120
370
     5
100
AcDbLine
 10
-339.559224999034
 20
-788.2237922118472
 30
0.0
 11
-69.19651846166275
 21
-517.8610856744758
 31
0.0
  0
LINE
  5
106
330
1F
100
AcDbEntity
  8
0-0
  6
JWW_DASHED1
 62
   120
370
     5
100
AcDbLine
 10
150.8034815383503
 20
-297.8610856744633
 30
0.0
 11
740.8034815383338
 21
292.1389143255189
 31
0.0
  0
LINE
  5
107
330
1F
100
AcDbEntity
  8
0-0
  6
JWW_DASHED1
 62
   120
370
     5
100
AcDbLine
 10
-349.4587199342401
 20
-788.223792211839
 30
0.0
 11
-69.19651846166957
 21
-507.9615907392678
 31
0.0
  0
LINE
  5
108
330
1F
100
AcDbEntity
  8
0-0
  6
JWW_DASHED1
 62
   120
370
     5
100
AcDbLine
 10
150.8034815383418
 20
-287.9615907392551
 30
0.0
 11
740.8034815383253
 21
302.0384092607267
 31
0.0
  0
LINE
  5
109
330
1F
100
AcDbEntity
  8
0-0
  6
JWW_DASHED1
 62
   120
370
     5
100
AcDbLine
 10
-359.3582148694223
 20
-788.2237922118583
 30
0.0
 11
-69.19651846165252
 21
-498.062095804087
 31
0.0
  0
LINE
  5
10A
330
1F
100
AcDbEntity
  8
0-0
  6
JWW_DASHED1
 62
   120
370
     5
100
AcDbLine
 10
150.8034815383623
 20
-278.0620958040745
 30
0.0
 11
740.803481538344
 21
311.9379041959077
 31
0.0
  0
LINE
  5
10B
330
1F
100
AcDbEntity
  8
0-0
  6
JWW_DASHED1
 62
   120
370
     5
100
AcDbLine
 10
-369.2577098046319
 20
-788.22379221185
 30
0.0
 11
-69.19651846165934
 21
-488.1626008688792
 31
0.0
  0
LINE
  5
10C
330
1F
100
AcDbEntity
  8
0-0
  6
JWW_DASHED1
 62
   120
370
     5
100
AcDbLine
 10
150.803481538352
 20
-268.1626008688667
 30
0.0
 11
740.8034815383355
 21
321.8373991311159
 31
0.0
  0
LINE
  5
10D
330
1F
100
AcDbEntity
  8
0-0
  6
JWW_DASHED1
 62
   120
370
     5
100
AcDbLine
 10
-379.157204739838
 20
-788.223792211842
 30
0.0
 11
-69.19651846166616
 21
-478.2631059336711
 31
0.0
  0
LINE
  5
10E
330
1F
100
AcDbEntity
  8
0-0
  6
JWW_DASHED1
 62
   120
370
     5
100
AcDbLine
 10
150.8034815383452
 20
-258.2631059336585
 30
0.0
 11
740.803481538327
 21
331.7368940663233
 31
0.0
  0
LINE
  5
10F
330
1F
100
AcDbEntity
  8
0-0
  6
JWW_DASHED1
 62
   120
370
     5
100
AcDbLine
 10
-389.0566996750032
 20
-788.2237922118454
 30
0.0
 11
-69.19651846166275
 21
-468.3636109985034
 31
0.0
  0
LINE
  5
110
330
1F
100
AcDbEntity
  8
0-0
  6
JWW_DASHED1
 62
   120
370
     5
100
AcDbLine
 10
150.803481538352
 20
-248.3636109984886
 30
0.0
 11
740.8034815383406
 21
341.6363890014987
 31
0.0
  0
LINE
  5
111
330
1F
100
AcDbEntity
  8
0-0
  6
JWW_DASHED1
 62
   120
370
     5
100
AcDbLine
 10
-398.9561946102264
 20
-788.2237922118532
 30
0.0
 11
-69.19651846165934
 21
-458.4641160632825
 31
0.0
  0
LINE
  5
112
330
1F
100
AcDbEntity
  8
0-0
  6
JWW_DASHED1
 62
   120
370
     5
100
AcDbLine
 10
150.8034815383554
 20
-238.4641160632701
 30
0.0
 11
740.8034815383372
 21
351.5358839367121
 31
0.0
  0
LINE
  5
113
330
1F
100
AcDbEntity
  8
0-0
  6
JWW_DASHED1
 62
   120
370
     5
100
AcDbLine
 10
-408.8556895454359
 20
-788.2237922118451
 30
0.0
 11
-69.19651846166616
 21
-448.5646211280745
 31
0.0
  0
LINE
  5
114
330
1F
100
AcDbEntity
  8
0-0
  6
JWW_DASHED1
 62
   120
370
     5
100
AcDbLine
 10
150.8034815383469
 20
-228.5646211280618
 30
0.0
 11
740.8034815383287
 21
361.43537887192
 31
0.0
  0
LINE
  5
115
330
1F
100
AcDbEntity
  8
0-0
  6
JWW_DASHED1
 62
   120
370
     5
100
AcDbLine
 10
-418.7551844806011
 20
-788.2237922118485
 30
0.0
 11
-69.19651846165934
 21
-438.6651261929063
 31
0.0
  0
LINE
  5
116
330
1F
100
AcDbEntity
  8
0-0
  6
JWW_DASHED1
 62
   120
370
     5
100
AcDbLine
 10
150.8034815383384
 20
-218.6651261929077
 30
0.0
 11
740.8034815383423
 21
371.3348738070958
 31
0.0
  0
LINE
  5
117
330
1F
100
AcDbEntity
  8
0-0
  6
JWW_DASHED1
 62
   120
370
     5
100
AcDbLine
 10
-428.6546794158243
 20
-788.2237922118561
 30
0.0
 11
-69.19651846165593
 21
-428.7656312576857
 31
0.0
  0
LINE
  5
118
330
1F
100
AcDbEntity
  8
0-0
  6
JWW_DASHED1
 62
   120
370
     5
100
AcDbLine
 10
150.8034815383571
 20
-208.7656312576735
 30
0.0
 11
740.8034815383406
 21
381.2343687423092
 31
0.0
  0
LINE
  5
119
330
1F
100
AcDbEntity
  8
0-0
  6
JWW_DASHED1
 62
   120
370
     5
100
AcDbLine
 10
-438.5541743510338
 20
-788.223792211848
 30
0.0
 11
-69.19651846166275
 21
-418.8661363224779
 31
0.0
  0
LINE
  5
11A
330
1F
100
AcDbEntity
  8
0-0
  6
JWW_DASHED1
 62
   120
370
     5
100
AcDbLine
 10
150.8034815383486
 20
-198.8661363224652
 30
0.0
 11
740.8034815383304
 21
391.133863677517
 31
0.0
  0
LINE
  5
11B
330
1F
100
AcDbEntity
  8
0-0
  6
JWW_DASHED1
 62
   120
370
     5
100
AcDbLine
 10
-448.4536692861888
 20
-788.2237922118412
 30
0.0
 11
-69.19651846165593
 21
-408.9666413873093
 31
0.0
  0
LINE
  5
11C
330
1F
100
AcDbEntity
  8
0-0
  6
JWW_DASHED1
 62
   120
370
     5
100
AcDbLine
 10
150.8034815383418
 20
-188.9666413873107
 30
0.0
 11
740.8034815383457
 21
401.0333586126928
 31
0.0
  0
LINE
  5
11D
330
1F
100
AcDbEntity
  8
0-0
  6
JWW_DASHED1
 62
   120
370
     5
100
AcDbLine
 10
-458.3531642214222
 20
-788.223792211859
 30
0.0
 11
-69.19651846165252
 21
-399.0671464520891
 31
0.0
  0
LINE
  5
11E
330
1F
100
AcDbEntity
  8
0-0
  6
JWW_DASHED1
 62
   120
370
     5
100
AcDbLine
 10
150.8034815383589
 20
-179.0671464520769
 30
0.0
 11
740.8034815383406
 21
410.9328535479054
 31
0.0
  0
LINE
  5
11F
330
1F
100
AcDbEntity
  8
0-0
  6
JWW_DASHED1
 62
   120
370
     5
100
AcDbLine
 10
-468.2526591566317
 20
-788.2237922118512
 30
0.0
 11
-69.19651846166275
 21
-389.1676515168813
 31
0.0
  0
LINE
  5
120
330
1F
100
AcDbEntity
  8
0-0
  6
JWW_DASHED1
 62
   120
370
     5
100
AcDbLine
 10
150.8034815383503
 20
-169.1676515168686
 30
0.0
 11
740.8034815383338
 21
420.8323484831132
 31
0.0
  0
LINE
  5
121
330
1F
100
AcDbEntity
  8
0-0
  6
JWW_DASHED1
 62
   120
370
     5
100
AcDbLine
 10
-478.1521540917867
 20
-788.2237922118436
 30
0.0
 11
-69.19651846165593
 21
-379.2681565817127
 31
0.0
  0
LINE
  5
122
330
1F
100
AcDbEntity
  8
0-0
  6
JWW_DASHED1
 62
   120
370
     5
100
AcDbLine
 10
150.8034815383435
 20
-159.2681565817141
 30
0.0
 11
740.8034815383475
 21
430.7318434182895
 31
0.0
  0
LINE
  5
123
330
1F
100
AcDbEntity
  8
0-0
  6
JWW_DASHED1
 62
   120
370
     5
100
AcDbLine
 10
-488.0516490270201
 20
-788.2237922118621
 30
0.0
 11
-69.19651846165252
 21
-369.3686616464925
 31
0.0
  0
LINE
  5
124
330
1F
100
AcDbEntity
  8
0-0
  6
JWW_DASHED1
 62
   120
370
     5
100
AcDbLine
 10
150.8034815383623
 20
-149.3686616464802
 30
0.0
 11
740.803481538344
 21
440.631338353502
 31
0.0
  0
LINE
  5
125
330
1F
100
AcDbEntity
  8
0-0
  6
JWW_DASHED1
 62
   120
370
     5
100
AcDbLine
 10
-497.9511439622296
 20
-788.2237922118541
 30
0.0
 11
-69.19651846165934
 21
-359.4691667112846
 31
0.0
  0
LINE
  5
126
330
1F
100
AcDbEntity
  8
0-0
  6
JWW_DASHED1
 62
   120
370
     5
100
AcDbLine
 10
150.803481538352
 20
-139.4691667112724
 30
0.0
 11
740.8034815383355
 21
450.5308332887103
 31
0.0
  0
LINE
  5
127
330
1F
100
AcDbEntity
  8
0-0
  6
JWW_DASHED1
 62
   120
370
     5
100
AcDbLine
 10
-507.8506388973811
 20
-788.2237922118459
 30
0.0
 11
-69.19651846165252
 21
-349.5696717761156
 31
0.0
  0
LINE
  5
128
330
1F
100
AcDbEntity
  8
0-0
  6
JWW_DASHED1
 62
   120
370
     5
100
AcDbLine
 10
150.8034815383452
 20
-129.5696717761174
 30
0.0
 11
740.8034815383338
 21
460.4303282238708
 31
0.0
  0
LINE
  5
129
330
1F
100
AcDbEntity
  8
0-0
  6
JWW_DASHED1
 62
   120
370
     5
100
AcDbLine
 10
-517.7501338326043
 20
-788.2237922118493
 30
0.0
 11
-69.19651846165934
 21
-339.6701768409073
 31
0.0
  0
LINE
  5
12A
330
1F
100
AcDbEntity
  8
0-0
  6
JWW_DASHED1
 62
   120
370
     5
100
AcDbLine
 10
150.8034815383384
 20
-119.6701768409088
 30
0.0
 11
740.8034815383423
 21
470.3298231590944
 31
0.0
  0
LINE
  5
12B
330
1F
100
AcDbEntity
  8
0-0
  6
JWW_DASHED1
 62
   120
370
     5
100
AcDbLine
 10
-527.6496287678275
 20
-788.223792211857
 30
0.0
 11
-69.19651846165934
 21
-329.7706819056884
 31
0.0
  0
LINE
  5
12C
330
1F
100
AcDbEntity
  8
0-0
  6
JWW_DASHED1
 62
   120
370
     5
100
AcDbLine
 10
150.8034815383554
 20
-109.7706819056754
 30
0.0
 11
740.8034815383372
 21
480.2293180943064
 31
0.0
  0
LINE
  5
12D
330
1F
100
AcDbEntity
  8
0-0
  6
JWW_DASHED1
 62
   120
370
     5
100
AcDbLine
 10
-537.5491237029756
 20
-788.2237922118446
 30
0.0
 11
-69.19651846166957
 21
-319.871186970539
 31
0.0
  0
LINE
  5
12E
330
1F
100
AcDbEntity
  8
0-0
  6
JWW_DASHED1
 62
   120
370
     5
100
AcDbLine
 10
150.8034815383418
 20
-99.87118697052637
 30
0.0
 11
740.8034815383253
 21
490.1288130294558
 31
0.0
  0
LINE
  5
12F
330
1F
100
AcDbEntity
  8
0-0
  6
JWW_DASHED1
 62
   120
370
     5
100
AcDbLine
 10
-547.4486186381852
 20
-788.2237922118395
 30
0.0
 11
-69.19651846165934
 21
-309.9716920353112
 31
0.0
  0
LINE
  5
130
330
1F
100
AcDbEntity
  8
0-0
  6
JWW_DASHED1
 62
   120
370
     5
100
AcDbLine
 10
150.8034815383401
 20
-89.97169203531215
 30
0.0
 11
740.803481538344
 21
500.0283079646914
 31
0.0
  0
LINE
  5
131
330
1F
100
AcDbEntity
  8
0-0
  6
JWW_DASHED1
 62
   120
370
     5
100
AcDbLine
 10
-557.348113573364
 20
-788.2237922118557
 30
0.0
 11
-69.19651846165934
 21
-300.0721971001502
 31
0.0
  0
LINE
  5
132
330
1F
100
AcDbEntity
  8
0-0
  6
JWW_DASHED1
 62
   120
370
     5
100
AcDbLine
 10
150.803481538352
 20
-80.072197100138
 30
0.0
 11
740.8034815383355
 21
509.9278028998447
 31
0.0
  0
LINE
  5
133
330
1F
100
AcDbEntity
  8
0-0
  6
JWW_DASHED1
 62
   120
370
     5
100
AcDbLine
 10
-567.2476085085735
 20
-788.2237922118476
 30
0.0
 11
-69.19651846166616
 21
-290.1727021649424
 31
0.0
  0
LINE
  5
134
330
1F
100
AcDbEntity
  8
0-0
  6
JWW_DASHED1
 62
   120
370
     5
100
AcDbLine
 10
150.8034815383452
 20
-70.17270216492975
 30
0.0
 11
740.803481538327
 21
519.8272978350525
 31
0.0
  0
LINE
  5
135
330
1F
100
AcDbEntity
  8
0-0
  6
JWW_DASHED1
 62
   120
370
     5
100
AcDbLine
 10
-577.1471034437831
 20
-788.2237922118417
 30
0.0
 11
-69.19651846165593
 21
-280.2732072297141
 31
0.0
  0
LINE
  5
136
330
1F
100
AcDbEntity
  8
0-0
  6
JWW_DASHED1
 62
   120
370
     5
100
AcDbLine
 10
150.8034815383418
 20
-60.2732072297151
 30
0.0
 11
740.8034815383475
 21
529.7267927702885
 31
0.0
  0
LINE
  5
137
330
1F
100
AcDbEntity
  8
0-0
  6
JWW_DASHED1
 62
   120
370
     5
100
AcDbLine
 10
-587.0465983789619
 20
-788.223792211859
 30
0.0
 11
-69.19651846165934
 21
-270.373712294554
 31
0.0
  0
LINE
  5
138
330
1F
100
AcDbEntity
  8
0-0
  6
JWW_DASHED1
 62
   120
370
     5
100
AcDbLine
 10
150.8034815383554
 20
-50.37371229454095
 30
0.0
 11
740.8034815383372
 21
539.6262877054409
 31
0.0
  0
LINE
  5
139
330
1F
100
AcDbEntity
  8
0-0
  6
JWW_DASHED1
 62
   120
370
     5
100
AcDbLine
 10
-596.9460933141714
 20
-788.2237922118507
 30
0.0
 11
-69.19651846166616
 21
-260.4742173593453
 31
0.0
  0
LINE
  5
13A
330
1F
100
AcDbEntity
  8
0-0
  6
JWW_DASHED1
 62
   120
370
     5
100
AcDbLine
 10
150.8034815383469
 20
-40.47421735933312
 30
0.0
 11
740.8034815383287
 21
549.5257826406491
 31
0.0
  0
LINE
  5
13B
330
1F
100
AcDbEntity
  8
0-0
  6
JWW_DASHED1
 62
   120
370
     5
100
AcDbLine
 10
-606.845588249381
 20
-788.2237922118438
 30
0.0
 11
-69.19651846165252
 21
-250.5747224241171
 31
0.0
  0
LINE
  5
13C
330
1F
100
AcDbEntity
  8
0-0
  6
JWW_DASHED1
 62
   120
370
     5
100
AcDbLine
 10
150.8034815383452
 20
-30.57472242411848
 30
0.0
 11
740.8034815383338
 21
559.4252775758694
 31
0.0
  0
LINE
  5
13D
330
1F
100
AcDbEntity
  8
0-0
  6
JWW_DASHED1
 62
   120
370
     5
100
AcDbLine
 10
-616.7450831845598
 20
-788.2237922118617
 30
0.0
 11
-69.19651846165593
 21
-240.675227488957
 31
0.0
  0
LINE
  5
13E
330
1F
100
AcDbEntity
  8
0-0
  6
JWW_DASHED1
 62
   120
370
     5
100
AcDbLine
 10
150.8034815383571
 20
-20.67522748894476
 30
0.0
 11
740.8034815383406
 21
569.324772511038
 31
0.0
  0
LINE
  5
13F
330
1F
100
AcDbEntity
  8
0-0
  6
JWW_DASHED1
 62
   120
370
     5
100
AcDbLine
 10
-626.6445781197693
 20
-788.2237922118538
 30
0.0
 11
-69.19651846166275
 21
-230.7757325537492
 31
0.0
  0
LINE
  5
140
330
1F
100
AcDbEntity
  8
0-0
  6
JWW_DASHED1
 62
   120
370
     5
100
AcDbLine
 10
150.8034815383486
 20
-10.77573255373693
 30
0.0
 11
740.8034815383304
 21
579.2242674462457
 31
0.0
  0
LINE
  5
141
330
1F
100
AcDbEntity
  8
0-0
  6
JWW_DASHED1
 62
   120
370
     5
100
AcDbLine
 10
-636.5440730549755
 20
-788.2237922118455
 30
0.0
 11
-69.19651846167298
 21
-220.8762376185409
 31
0.0
  0
LINE
  5
142
330
1F
100
AcDbEntity
  8
0-0
  6
JWW_DASHED1
 62
   120
370
     5
100
AcDbLine
 10
150.8034815383401
 20
-0.8762376185286769
 30
0.0
 11
740.8034815383236
 21
589.1237623814536
 31
0.0
  0
LINE
  5
143
330
1F
100
AcDbEntity
  8
0-0
  6
JWW_DASHED1
 62
   120
370
     5
100
AcDbLine
 10
-646.4435679901577
 20
-788.2237922118646
 30
0.0
 11
-69.19651846165252
 21
-210.9767426833604
 31
0.0
  0
LINE
  5
144
330
1F
100
AcDbEntity
  8
0-0
  6
JWW_DASHED1
 62
   120
370
     5
100
AcDbLine
 10
150.8034815383589
 20
9.023257316651865
 30
0.0
 11
740.8034815383423
 21
599.023257316634
 31
0.0
  0
LINE
  5
145
330
1F
100
AcDbEntity
  8
0-0
  6
JWW_DASHED1
 62
   120
370
     5
100
AcDbLine
 10
-656.3430629253672
 20
-788.2237922118566
 30
0.0
 11
-69.19651846166275
 21
-201.0772477481525
 31
0.0
  0
LINE
  5
146
330
1F
100
AcDbEntity
  8
0-0
  6
JWW_DASHED1
 62
   120
370
     5
100
AcDbLine
 10
150.803481538352
 20
18.92275225186012
 30
0.0
 11
740.8034815383338
 21
608.9227522518423
 31
0.0
  0
LINE
  5
147
330
1F
100
AcDbEntity
  8
0-0
  6
JWW_DASHED1
 62
   120
370
     5
100
AcDbLine
 10
-659.1965184616514
 20
-781.1777528129269
 30
0.0
 11
-69.19651846166957
 21
-191.1777528129443
 31
0.0
  0
LINE
  5
148
330
1F
100
AcDbEntity
  8
0-0
  6
JWW_DASHED1
 62
   120
370
     5
100
AcDbLine
 10
150.8034815383418
 20
28.82224718706794
 30
0.0
 11
740.8034815383253
 21
618.8222471870502
 31
0.0
  0
LINE
  5
149
330
1F
100
AcDbEntity
  8
0-0
  6
JWW_DASHED1
 62
   120
370
     5
100
AcDbLine
 10
-659.196518461648
 20
-771.2782578777617
 30
0.0
 11
-69.19651846165934
 21
-181.278257877774
 31
0.0
  0
LINE
  5
14A
330
1F
100
AcDbEntity
  8
0-0
  6
JWW_DASHED1
 62
   120
370
     5
100
AcDbLine
 10
150.8034815383384
 20
38.72174212222461
 30
0.0
 11
740.8034815383406
 21
628.7217421222285
 31
0.0
  0
LINE
  5
14B
330
1F
100
AcDbEntity
  8
0-0
  6
JWW_DASHED1
 62
   120
370
     5
100
AcDbLine
 10
-659.1965184616412
 20
-761.3787629425382
 30
0.0
 11
-69.19651846165934
 21
-171.3787629425555
 31
0.0
  0
LINE
  5
14C
330
1F
100
AcDbEntity
  8
0-0
  6
JWW_DASHED1
 62
   120
370
     5
100
AcDbLine
 10
150.803481538352
 20
48.62123705745674
 30
0.0
 11
740.8034815383355
 21
638.621237057439
 31
0.0
  0
LINE
  5
14D
330
1F
100
AcDbEntity
  8
0-0
  6
JWW_DASHED1
 62
   120
370
     5
100
AcDbLine
 10
-659.1965184616514
 20
-751.4792680073303
 30
0.0
 11
-69.19651846166616
 21
-161.4792680073481
 31
0.0
  0
LINE
  5
14E
330
1F
100
AcDbEntity
  8
0-0
  6
JWW_DASHED1
 62
   120
370
     5
100
AcDbLine
 10
150.8034815383452
 20
58.52073199266457
 30
0.0
 11
740.803481538327
 21
648.5207319926468
 31
0.0
  0
LINE
  5
14F
330
1F
100
AcDbEntity
  8
0-0
  6
JWW_DASHED1
 62
   120
370
     5
100
AcDbLine
 10
-659.196518461648
 20
-741.5797730721649
 30
0.0
 11
-69.19651846165934
 21
-151.5797730721769
 31
0.0
  0
LINE
  5
150
330
1F
100
AcDbEntity
  8
0-0
  6
JWW_DASHED1
 62
   120
370
     5
100
AcDbLine
 10
150.8034815383401
 20
68.42022692782166
 30
0.0
 11
740.803481538344
 21
658.4202269278252
 31
0.0
  0
LINE
  5
151
330
1F
100
AcDbEntity
  8
0-0
  6
JWW_DASHED1
 62
   120
370
     5
100
AcDbLine
 10
-659.1965184616412
 20
-731.6802781369415
 30
0.0
 11
-69.19651846165593
 21
-141.6802781369589
 31
0.0
  0
LINE
  5
152
330
1F
100
AcDbEntity
  8
0-0
  6
JWW_DASHED1
 62
   120
370
     5
100
AcDbLine
 10
150.8034815383554
 20
78.31972186305336
 30
0.0
 11
740.8034815383372
 21
668.3197218630356
 31
0.0
  0
LINE
  5
153
330
1F
100
AcDbEntity
  8
0-0
  6
JWW_DASHED1
 62
   120
370
     5
100
AcDbLine
 10
-659.196518461648
 20
-721.7807832017337
 30
0.0
 11
-69.19651846166616
 21
-131.780783201751
 31
0.0
  0
LINE
  5
154
330
1F
100
AcDbEntity
  8
0-0
  6
JWW_DASHED1
 62
   120
370
     5
100
AcDbLine
 10
150.8034815383469
 20
88.21921679826119
 30
0.0
 11
740.8034815383304
 21
678.2192167982439
 31
0.0
  0
LINE
  5
155
330
1F
100
AcDbEntity
  8
0-0
  6
JWW_DASHED1
 62
   120
370
     5
100
AcDbLine
 10
-659.1965184616616
 20
-711.8812882665839
 30
0.0
 11
-69.19651846165593
 21
-121.8812882665799
 31
0.0
  0
LINE
  5
156
330
1F
100
AcDbEntity
  8
0-0
  6
JWW_DASHED1
 62
   120
370
     5
100
AcDbLine
 10
150.8034815383418
 20
98.1187117334187
 30
0.0
 11
740.8034815383457
 21
688.1187117334218
 31
0.0
  0
LINE
  5
157
330
1F
100
AcDbEntity
  8
0-0
  6
JWW_DASHED1
 62
   120
370
     5
100
AcDbLine
 10
-659.1965184616378
 20
-701.9817933313449
 30
0.0
 11
-69.19651846165593
 21
-111.9817933313627
 31
0.0
  0
LINE
  5
158
330
1F
100
AcDbEntity
  8
0-0
  6
JWW_DASHED1
 62
   120
370
     5
100
AcDbLine
 10
150.8034815383571
 20
108.0182066686496
 30
0.0
 11
740.8034815383406
 21
698.0182066686323
 31
0.0
  0
LINE
  5
159
330
1F
100
AcDbEntity
  8
0-0
  6
JWW_DASHED1
 62
   120
370
     5
100
AcDbLine
 10
-659.1965184616514
 20
-692.0822983961959
 30
0.0
 11
-69.19651846166616
 21
-102.0822983962132
 31
0.0
  0
LINE
  5
15A
330
1F
100
AcDbEntity
  8
0-0
  6
JWW_DASHED1
 62
   120
370
     5
100
AcDbLine
 10
150.8034815383452
 20
117.917701603799
 30
0.0
 11
740.803481538327
 21
707.9177016037812
 31
0.0
  0
LINE
  5
15B
330
1F
100
AcDbEntity
  8
0-0
  6
JWW_DASHED1
 62
   120
370
     5
100
AcDbLine
 10
-659.1965184616582
 20
-682.182803460987
 30
0.0
 11
-69.19651846165252
 21
-92.18280346098368
 31
0.0
  0
LINE
  5
15C
330
1F
100
AcDbEntity
  8
0-0
  6
JWW_DASHED1
 62
   120
370
     5
100
AcDbLine
 10
150.8034815383452
 20
127.8171965390153
 30
0.0
 11
740.8034815383338
 21
717.8171965390031
 31
0.0
  0
LINE
  5
15D
330
1F
100
AcDbEntity
  8
0-0
  6
JWW_DASHED1
 62
   120
370
     5
100
AcDbLine
 10
-659.1965184616514
 20
-672.2833085257632
 30
0.0
 11
-69.19651846166275
 21
-82.283308525775
 31
0.0
  0
LINE
  5
15E
330
1F
100
AcDbEntity
  8
0-0
  6
JWW_DASHED1
 62
   120
370
     5
100
AcDbLine
 10
150.803481538352
 20
137.7166914742389
 30
0.0
 11
740.8034815383406
 21
727.7166914742271
 31
0.0
  0
LINE
  5
15F
330
1F
100
AcDbEntity
  8
0-0
  6
JWW_DASHED1
 62
   120
370
     5
100
AcDbLine
 10
-659.196518461648
 20
-662.3838135905993
 30
0.0
 11
-69.19651846166616
 21
-72.38381359061663
 31
0.0
  0
LINE
  5
160
330
1F
100
AcDbEntity
  8
0-0
  6
JWW_DASHED1
 62
   120
370
     5
100
AcDbLine
 10
150.8034815383469
 20
147.6161864093956
 30
0.0
 11
740.8034815383287
 21
737.6161864093779
 31
0.0
  0
LINE
  5
161
330
1F
100
AcDbEntity
  8
0-0
  6
JWW_DASHED1
 62
   120
370
     5
100
AcDbLine
 10
-659.1965184616548
 20
-652.484318655391
 30
0.0
 11
-69.19651846165934
 21
-62.48431865539303
 31
0.0
  0
LINE
  5
162
330
1F
100
AcDbEntity
  8
0-0
  6
JWW_DASHED1
 62
   120
370
     5
100
AcDbLine
 10
150.8034815383384
 20
157.5156813446034
 30
0.0
 11
740.8034815383202
 21
747.515681344586
 31
0.0
  0
LINE
  5
163
330
1F
100
AcDbEntity
  8
0-0
  6
JWW_DASHED1
 62
   120
370
     5
100
AcDbLine
 10
-659.196518461648
 20
-642.5848237201661
 30
0.0
 11
-69.19651846165934
 21
-52.58482372017838
 31
0.0
  0
LINE
  5
164
330
1F
100
AcDbEntity
  8
0-0
  6
JWW_DASHED1
 62
   120
370
     5
100
AcDbLine
 10
150.8034815383384
 20
167.4151762798206
 30
0.0
 11
740.8034815383423
 21
757.4151762798238
 31
0.0
  0
LINE
  5
165
330
1F
100
AcDbEntity
  8
0-0
  6
JWW_DASHED1
 62
   120
370
     5
100
AcDbLine
 10
-659.1965184616446
 20
-632.6853287850026
 30
0.0
 11
-69.19651846166275
 21
-42.68532878502043
 31
0.0
  0
LINE
  5
166
330
1F
100
AcDbEntity
  8
0-0
  6
JWW_DASHED1
 62
   120
370
     5
100
AcDbLine
 10
150.8034815383486
 20
177.3146712149922
 30
0.0
 11
740.8034815383304
 21
767.3146712149744
 31
0.0
  0
LINE
  5
167
330
1F
100
AcDbEntity
  8
0-0
  6
JWW_DASHED1
 62
   120
370
     5
100
AcDbLine
 10
-659.1965184616548
 20
-622.7858338497948
 30
0.0
 11
-69.19651846167298
 21
-32.78583384981218
 31
0.0
  0
LINE
  5
168
330
1F
100
AcDbEntity
  8
0-0
  6
JWW_DASHED1
 62
   120
370
     5
100
AcDbLine
 10
150.8034815383401
 20
187.2141661502
 30
0.0
 11
740.8034815383236
 21
777.2141661501823
 31
0.0
  0
LINE
  5
169
330
1F
100
AcDbEntity
  8
0-0
  6
JWW_DASHED1
 62
   120
370
     5
100
AcDbLine
 10
-659.1965184616616
 20
-612.886338914585
 30
0.0
 11
-69.19651846165934
 21
-22.88633891458133
 31
0.0
  0
LINE
  5
16A
330
1F
100
AcDbEntity
  8
0-0
  6
JWW_DASHED1
 62
   120
370
     5
100
AcDbLine
 10
150.8034815383418
 20
197.1136610854172
 30
0.0
 11
740.803481538344
 21
787.1136610854207
 31
0.0
  0
LINE
  5
16B
330
1F
100
AcDbEntity
  8
0-0
  6
JWW_DASHED1
 62
   120
370
     5
100
AcDbLine
 10
-659.1965184616446
 20
-602.9868439794061
 30
0.0
 11
-69.19651846166275
 21
-12.98684397942338
 31
0.0
  0
LINE
  5
16C
330
1F
100
AcDbEntity
  8
0-0
  6
JWW_DASHED1
 62
   120
370
     5
100
AcDbLine
 10
150.8034815383503
 20
207.0131560205888
 30
0.0
 11
740.8034815383338
 21
797.013156020571
 31
0.0
  0
LINE
  5
16D
330
1F
100
AcDbEntity
  8
0-0
  6
JWW_DASHED1
 62
   120
370
     5
100
AcDbLine
 10
-659.1965184616514
 20
-593.087349044198
 30
0.0
 11
-69.19651846166957
 21
-3.087349044215557
 31
0.0
  0
LINE
  5
16E
330
1F
100
AcDbEntity
  8
0-0
  6
JWW_DASHED1
 62
   120
370
     5
100
AcDbLine
 10
150.8034815383418
 20
216.9126509557967
 30
0.0
 11
740.8034815383253
 21
806.9126509557789
 31
0.0
  0
LINE
  5
16F
330
1F
100
AcDbEntity
  8
0-0
  6
JWW_DASHED1
 62
   120
370
     5
100
AcDbLine
 10
-659.1965184616582
 20
-583.1878541089883
 30
0.0
 11
-69.19651846165593
 21
6.812145891015717
 31
0.0
  0
LINE
  5
170
330
1F
100
AcDbEntity
  8
0-0
  6
JWW_DASHED1
 62
   120
370
     5
100
AcDbLine
 10
150.8034815383435
 20
226.8121458910139
 30
0.0
 11
740.8034815383475
 21
816.8121458910178
 31
0.0
  0
LINE
  5
171
330
1F
100
AcDbEntity
  8
0-0
  6
JWW_DASHED1
 62
   120
370
     5
100
AcDbLine
 10
-659.1965184616412
 20
-573.2883591738092
 30
0.0
 11
-69.19651846165934
 21
16.71164082617324
 31
0.0
  0
LINE
  5
172
330
1F
100
AcDbEntity
  8
0-0
  6
JWW_DASHED1
 62
   120
370
     5
100
AcDbLine
 10
150.8034815383537
 20
236.7116408261855
 30
0.0
 11
740.8034815383355
 21
826.7116408261677
 31
0.0
  0
LINE
  5
173
330
1F
100
AcDbEntity
  8
0-0
  6
JWW_DASHED1
 62
   120
370
     5
100
AcDbLine
 10
-659.1965184616514
 20
-563.3888642386016
 30
0.0
 11
-69.19651846166616
 21
26.61113576138106
 31
0.0
  0
LINE
  5
174
330
1F
100
AcDbEntity
  8
0-0
  6
JWW_DASHED1
 62
   120
370
     5
100
AcDbLine
 10
150.8034815383452
 20
246.6111357613933
 30
0.0
 11
740.803481538327
 21
836.6111357613755
 31
0.0
  0
LINE
  5
175
330
1F
100
AcDbEntity
  8
0-0
  6
JWW_DASHED1
 62
   120
370
     5
100
AcDbLine
 10
-659.1965184616548
 20
-553.4893693033912
 30
0.0
 11
-69.19651846165252
 21
36.51063069661234
 31
0.0
  0
LINE
  5
176
330
1F
100
AcDbEntity
  8
0-0
  6
JWW_DASHED1
 62
   120
370
     5
100
AcDbLine
 10
150.8034815383452
 20
256.5106306966109
 30
0.0
 11
740.8034815383338
 21
846.5106306965987
 31
0.0
  0
LINE
  5
177
330
1F
100
AcDbEntity
  8
0-0
  6
JWW_DASHED1
 62
   120
370
     5
100
AcDbLine
 10
-659.1965184616412
 20
-543.5898743682128
 30
0.0
 11
-69.19651846165593
 21
46.41012563176986
 31
0.0
  0
LINE
  5
178
330
1F
100
AcDbEntity
  8
0-0
  6
JWW_DASHED1
 62
   120
370
     5
100
AcDbLine
 10
150.8034815383554
 20
266.4101256317821
 30
0.0
 11
740.8034815383372
 21
856.4101256317647
 31
0.0
  0
LINE
  5
179
330
1F
100
AcDbEntity
  8
0-0
  6
JWW_DASHED1
 62
   120
370
     5
100
AcDbLine
 10
-659.196518461648
 20
-533.6903794330048
 30
0.0
 11
-69.19651846166616
 21
56.30962056697769
 31
0.0
  0
LINE
  5
17A
330
1F
100
AcDbEntity
  8
0-0
  6
JWW_DASHED1
 62
   120
370
     5
100
AcDbLine
 10
150.8034815383469
 20
276.3096205669904
 30
0.0
 11
740.8034815383304
 21
866.3096205669722
 31
0.0
  0
LINE
  5
17B
330
1F
100
AcDbEntity
  8
0-0
  6
JWW_DASHED1
 62
   120
370
     5
100
AcDbLine
 10
-659.1965184616548
 20
-523.7908844977969
 30
0.0
 11
-69.19651846167298
 21
66.20911550218551
 31
0.0
  0
LINE
  5
17C
330
1F
100
AcDbEntity
  8
0-0
  6
JWW_DASHED1
 62
   120
370
     5
100
AcDbLine
 10
150.8034815383384
 20
286.2091155021977
 30
0.0
 11
740.8034815383202
 21
876.2091155021803
 31
0.0
  0
LINE
  5
17D
330
1F
100
AcDbEntity
  8
0-0
  6
JWW_DASHED1
 62
   120
370
     5
100
AcDbLine
 10
-659.1965184616378
 20
-513.8913895626162
 30
0.0
 11
-69.19651846165593
 21
76.10861043736648
 31
0.0
  0
LINE
  5
17E
330
1F
100
AcDbEntity
  8
0-0
  6
JWW_DASHED1
 62
   120
370
     5
100
AcDbLine
 10
150.8034815383571
 20
296.1086104373783
 30
0.0
 11
740.8034815383406
 21
886.108610437361
 31
0.0
  0
LINE
  5
17F
330
1F
100
AcDbEntity
  8
0-0
  6
JWW_DASHED1
 62
   120
370
     5
100
AcDbLine
 10
-659.1965184616446
 20
-503.9918946274082
 30
0.0
 11
-69.19651846166275
 21
86.00810537257388
 31
0.0
  0
LINE
  5
180
330
1F
100
AcDbEntity
  8
0-0
  6
JWW_DASHED1
 62
   120
370
     5
100
AcDbLine
 10
150.8034815383486
 20
306.0081053725866
 30
0.0
 11
740.8034815383304
 21
896.0081053725687
 31
0.0
  0
LINE
  5
181
330
1F
100
AcDbEntity
  8
0-0
  6
JWW_DASHED1
 62
   120
370
     5
100
AcDbLine
 10
-659.1965184616548
 20
-494.0923996922295
 30
0.0
 11
-69.19651846165934
 21
95.90760030776849
 31
0.0
  0
LINE
  5
182
330
1F
100
AcDbEntity
  8
0-0
  6
JWW_DASHED1
 62
   120
370
     5
100
AcDbLine
 10
150.8034815383384
 20
315.9076003077649
 30
0.0
 11
740.8034815383202
 21
905.9076003077475
 31
0.0
  0
LINE
  5
183
330
1F
100
AcDbEntity
  8
0-0
  6
JWW_DASHED1
 62
   120
370
     5
100
AcDbLine
 10
-659.196518461648
 20
-484.1929047570324
 30
0.0
 11
-69.19651846165934
 21
105.8070952429554
 31
0.0
  0
LINE
  5
184
330
1F
100
AcDbEntity
  8
0-0
  6
JWW_DASHED1
 62
   120
370
     5
100
AcDbLine
 10
150.8034815383384
 20
325.807095242954
 30
0.0
 11
740.8034815383423
 21
915.8070952429575
 31
0.0
  0
LINE
  5
185
330
1F
100
AcDbEntity
  8
0-0
  6
JWW_DASHED1
 62
   120
370
     5
100
AcDbLine
 10
-659.1965184616446
 20
-474.2934098218115
 30
0.0
 11
-69.19651846165934
 21
115.7065901781709
 31
0.0
  0
LINE
  5
186
330
1F
100
AcDbEntity
  8
0-0
  6
JWW_DASHED1
 62
   120
370
     5
100
AcDbLine
 10
150.803481538352
 20
335.7065901781831
 30
0.0
 11
733.8730991483329
 21
918.7762077881654
 31
0.0
  0
LINE
  5
187
330
1F
100
AcDbEntity
  8
0-0
  6
JWW_DASHED1
 62
   120
370
     5
100
AcDbLine
 10
-659.1965184616548
 20
-464.3939148866623
 30
0.0
 11
-69.19651846167298
 21
125.6060851133199
 31
0.0
  0
LINE
  5
188
330
1F
100
AcDbEntity
  8
0-0
  6
JWW_DASHED1
 62
   120
370
     5
100
AcDbLine
 10
150.8034815383384
 20
345.6060851133321
 30
0.0
 11
723.9736042131848
 21
918.7762077881778
 31
0.0
  0
LINE
  5
189
330
1F
100
AcDbEntity
  8
0-0
  6
JWW_DASHED1
 62
   120
370
     5
100
AcDbLine
 10
-659.1965184616616
 20
-454.4944199514515
 30
0.0
 11
-69.19651846165934
 21
135.5055800485525
 31
0.0
  0
LINE
  5
18A
330
1F
100
AcDbEntity
  8
0-0
  6
JWW_DASHED1
 62
   120
370
     5
100
AcDbLine
 10
150.8034815383418
 20
355.5055800485507
 30
0.0
 11
714.0741092779446
 21
918.7762077881547
 31
0.0
  0
LINE
  5
18B
330
1F
100
AcDbEntity
  8
0-0
  6
JWW_DASHED1
 62
   120
370
     5
100
AcDbLine
 10
-659.1965184616412
 20
-444.5949250162149
 30
0.0
 11
-69.19651846165934
 21
145.4050749837671
 31
0.0
  0
LINE
  5
18C
330
1F
100
AcDbEntity
  8
0-0
  6
JWW_DASHED1
 62
   120
370
     5
100
AcDbLine
 10
150.8034815383537
 20
365.4050749837797
 30
0.0
 11
704.174614342735
 21
918.7762077881623
 31
0.0
  0
LINE
  5
18D
330
1F
100
AcDbEntity
  8
0-0
  6
JWW_DASHED1
 62
   120
370
     5
100
AcDbLine
 10
-659.1965184616548
 20
-434.6954300810657
 30
0.0
 11
-69.19651846167298
 21
155.3045699189165
 31
0.0
  0
LINE
  5
18E
330
1F
100
AcDbEntity
  8
0-0
  6
JWW_DASHED1
 62
   120
370
     5
100
AcDbLine
 10
150.8034815383418
 20
375.3045699189288
 30
0.0
 11
694.2751194075869
 21
918.7762077881747
 31
0.0
  0
LINE
  5
18F
330
1F
100
AcDbEntity
  8
0-0
  6
JWW_DASHED1
 62
   120
370
     5
100
AcDbLine
 10
-659.1965184616582
 20
-424.7959351458545
 30
0.0
 11
-69.19651846165593
 21
165.2040648541491
 31
0.0
  0
LINE
  5
190
330
1F
100
AcDbEntity
  8
0-0
  6
JWW_DASHED1
 62
   120
370
     5
100
AcDbLine
 10
150.8034815383435
 20
385.2040648541476
 30
0.0
 11
684.3756244723484
 21
918.776207788153
 31
0.0
  0
LINE
  5
191
330
1F
100
AcDbEntity
  8
0-0
  6
JWW_DASHED1
 62
   120
370
     5
100
AcDbLine
 10
-659.1965184616412
 20
-414.896440210618
 30
0.0
 11
-69.19651846165593
 21
175.1035597893642
 31
0.0
  0
LINE
  5
192
330
1F
100
AcDbEntity
  8
0-0
  6
JWW_DASHED1
 62
   120
370
     5
100
AcDbLine
 10
150.8034815383554
 20
395.1035597893764
 30
0.0
 11
674.4761295371388
 21
918.7762077881594
 31
0.0
  0
LINE
  5
193
330
1F
100
AcDbEntity
  8
0-0
  6
JWW_DASHED1
 62
   120
370
     5
100
AcDbLine
 10
-659.1965184616514
 20
-404.9969452754695
 30
0.0
 11
-69.19651846166957
 21
185.0030547245132
 31
0.0
  0
LINE
  5
194
330
1F
100
AcDbEntity
  8
0-0
  6
JWW_DASHED1
 62
   120
370
     5
100
AcDbLine
 10
150.8034815383418
 20
405.0030547245254
 30
0.0
 11
664.576634601989
 21
918.7762077881717
 31
0.0
  0
LINE
  5
195
330
1F
100
AcDbEntity
  8
0-0
  6
JWW_DASHED1
 62
   120
370
     5
100
AcDbLine
 10
-659.1965184616582
 20
-395.0974503402574
 30
0.0
 11
-69.19651846165252
 21
194.9025496597461
 31
0.0
  0
LINE
  5
196
330
1F
100
AcDbEntity
  8
0-0
  6
JWW_DASHED1
 62
   120
370
     5
100
AcDbLine
 10
150.8034815383452
 20
414.9025496597447
 30
0.0
 11
654.6771396667658
 21
918.7762077881641
 31
0.0
  0
LINE
  5
197
330
1F
100
AcDbEntity
  8
0-0
  6
JWW_DASHED1
 62
   120
370
     5
100
AcDbLine
 10
-659.196518461648
 20
-385.1979554050334
 30
0.0
 11
-69.19651846165934
 21
204.8020445949544
 31
0.0
  0
LINE
  5
198
330
1F
100
AcDbEntity
  8
0-0
  6
JWW_DASHED1
 62
   120
370
     5
100
AcDbLine
 10
150.803481538352
 20
424.8020445949683
 30
0.0
 11
644.7776447315409
 21
918.7762077881564
 31
0.0
  0
LINE
  5
199
330
1F
100
AcDbEntity
  8
0-0
  6
JWW_DASHED1
 62
   120
370
     5
100
AcDbLine
 10
-659.196518461648
 20
-375.2984604698725
 30
0.0
 11
-69.19651846166616
 21
214.7015395301098
 31
0.0
  0
LINE
  5
19A
330
1F
100
AcDbEntity
  8
0-0
  6
JWW_DASHED1
 62
   120
370
     5
100
AcDbLine
 10
150.8034815383452
 20
434.7015395301224
 30
0.0
 11
634.8781497963911
 21
918.7762077881688
 31
0.0
  0
LINE
  5
19B
330
1F
100
AcDbEntity
  8
0-0
  6
JWW_DASHED1
 62
   120
370
     5
100
AcDbLine
 10
-659.1965184616582
 20
-365.3989655346646
 30
0.0
 11
-69.19651846167639
 21
224.601034465318
 31
0.0
  0
LINE
  5
19C
330
1F
100
AcDbEntity
  8
0-0
  6
JWW_DASHED1
 62
   120
370
     5
100
AcDbLine
 10
150.8034815383367
 20
444.6010344653298
 30
0.0
 11
624.9786548611833
 21
918.7762077881769
 31
0.0
  0
LINE
  5
19D
330
1F
100
AcDbEntity
  8
0-0
  6
JWW_DASHED1
 62
   120
370
     5
100
AcDbLine
 10
-659.196518461648
 20
-355.4994705994368
 30
0.0
 11
-69.19651846165934
 21
234.500529400551
 31
0.0
  0
LINE
  5
19E
330
1F
100
AcDbEntity
  8
0-0
  6
JWW_DASHED1
 62
   120
370
     5
100
AcDbLine
 10
150.8034815383401
 20
454.5005294005496
 30
0.0
 11
615.0791599259464
 21
918.7762077881564
 31
0.0
  0
LINE
  5
19F
330
1F
100
AcDbEntity
  8
0-0
  6
JWW_DASHED1
 62
   120
370
     5
100
AcDbLine
 10
-659.196518461648
 20
-345.5999756642763
 30
0.0
 11
-69.19651846166616
 21
244.4000243357064
 31
0.0
  0
LINE
  5
1A0
330
1F
100
AcDbEntity
  8
0-0
  6
JWW_DASHED1
 62
   120
370
     5
100
AcDbLine
 10
150.8034815383469
 20
464.4000243357186
 30
0.0
 11
605.1796649907932
 21
918.7762077881657
 31
0.0
  0
LINE
  5
1A1
330
1F
100
AcDbEntity
  8
0-0
  6
JWW_DASHED1
 62
   120
370
     5
100
AcDbLine
 10
-659.1965184616548
 20
-335.700480729068
 30
0.0
 11
-69.19651846167298
 21
254.2995192709142
 31
0.0
  0
LINE
  5
1A2
330
1F
100
AcDbEntity
  8
0-0
  6
JWW_DASHED1
 62
   120
370
     5
100
AcDbLine
 10
150.8034815383384
 20
474.2995192709265
 30
0.0
 11
595.2801700555854
 21
918.7762077881739
 31
0.0
  0
LINE
  5
1A3
330
1F
100
AcDbEntity
  8
0-0
  6
JWW_DASHED1
 62
   120
370
     5
100
AcDbLine
 10
-659.1965184616616
 20
-325.8009857938559
 30
0.0
 11
-69.19651846165593
 21
264.199014206148
 31
0.0
  0
LINE
  5
1A4
330
1F
100
AcDbEntity
  8
0-0
  6
JWW_DASHED1
 62
   120
370
     5
100
AcDbLine
 10
150.8034815383418
 20
484.1990142061467
 30
0.0
 11
585.3806751203502
 21
918.7762077881547
 31
0.0
  0
LINE
  5
1A5
330
1F
100
AcDbEntity
  8
0-0
  6
JWW_DASHED1
 62
   120
370
     5
100
AcDbLine
 10
-659.1965184616446
 20
-315.9014908586792
 30
0.0
 11
-69.19651846166275
 21
274.098509141303
 31
0.0
  0
LINE
  5
1A6
330
1F
100
AcDbEntity
  8
0-0
  6
JWW_DASHED1
 62
   120
370
     5
100
AcDbLine
 10
150.8034815383486
 20
494.0985091413157
 30
0.0
 11
575.481180185197
 21
918.7762077881628
 31
0.0
  0
LINE
  5
1A7
330
1F
100
AcDbEntity
  8
0-0
  6
JWW_DASHED1
 62
   120
370
     5
100
AcDbLine
 10
-659.1965184616548
 20
-306.0019959234714
 30
0.0
 11
-69.19651846167298
 21
283.9980040765113
 31
0.0
  0
LINE
  5
1A8
330
1F
100
AcDbEntity
  8
0-0
  6
JWW_DASHED1
 62
   120
370
     5
100
AcDbLine
 10
150.8034815383418
 20
503.9980040765235
 30
0.0
 11
565.5816852499892
 21
918.776207788171
 31
0.0
  0
LINE
  5
1A9
330
1F
100
AcDbEntity
  8
0-0
  6
JWW_DASHED1
 62
   120
370
     5
100
AcDbLine
 10
-659.1965184616582
 20
-296.1025009882588
 30
0.0
 11
-69.19651846165252
 21
293.8974990117447
 31
0.0
  0
LINE
  5
1AA
330
1F
100
AcDbEntity
  8
0-0
  6
JWW_DASHED1
 62
   120
370
     5
100
AcDbLine
 10
150.8034815383452
 20
513.8974990117433
 30
0.0
 11
555.6821903147523
 21
918.7762077881521
 31
0.0
  0
LINE
  5
1AB
330
1F
100
AcDbEntity
  8
0-0
  6
JWW_DASHED1
 62
   120
370
     5
100
AcDbLine
 10
-659.1965184616446
 20
-286.203006053083
 30
0.0
 11
-69.19651846165934
 21
303.7969939468996
 31
0.0
  0
LINE
  5
1AC
330
1F
100
AcDbEntity
  8
0-0
  6
JWW_DASHED1
 62
   120
370
     5
100
AcDbLine
 10
150.803481538352
 20
523.7969939469119
 30
0.0
 11
545.7826953795991
 21
918.7762077881598
 31
0.0
  0
LINE
  5
1AD
330
1F
100
AcDbEntity
  8
0-0
  6
JWW_DASHED1
 62
   120
370
     5
100
AcDbLine
 10
-659.1965184616514
 20
-276.3035111178748
 30
0.0
 11
-69.19651846166957
 21
313.6964888821079
 31
0.0
  0
LINE
  5
1AE
330
1F
100
AcDbEntity
  8
0-0
  6
JWW_DASHED1
 62
   120
370
     5
100
AcDbLine
 10
150.8034815383435
 20
533.6964888821201
 30
0.0
 11
535.8832004443913
 21
918.7762077881675
 31
0.0
  0
LINE
  5
1AF
330
1F
100
AcDbEntity
  8
0-0
  6
JWW_DASHED1
 62
   120
370
     5
100
AcDbLine
 10
-659.1965184616548
 20
-266.4040161826618
 30
0.0
 11
-69.19651846165252
 21
323.5959838173417
 31
0.0
  0
LINE
  5
1B0
330
1F
100
AcDbEntity
  8
0-0
  6
JWW_DASHED1
 62
   120
370
     5
100
AcDbLine
 10
150.8034815383469
 20
543.5959838173403
 30
0.0
 11
525.9837055091664
 21
918.7762077881598
 31
0.0
  0
LINE
  5
1B1
330
1F
100
AcDbEntity
  8
0-0
  6
JWW_DASHED1
 62
   120
370
     5
100
AcDbLine
 10
-659.1965184616412
 20
-256.504521247486
 30
0.0
 11
-69.19651846165934
 21
333.4954787524963
 31
0.0
  0
LINE
  5
1B2
330
1F
100
AcDbEntity
  8
0-0
  6
JWW_DASHED1
 62
   120
370
     5
100
AcDbLine
 10
150.8034815383537
 20
553.4954787525085
 30
0.0
 11
516.0842105740012
 21
918.7762077881564
 31
0.0
  0
LINE
  5
1B3
330
1F
100
AcDbEntity
  8
0-0
  6
JWW_DASHED1
 62
   120
370
     5
100
AcDbLine
 10
-659.196518461648
 20
-246.6050263122781
 30
0.0
 11
-69.19651846166616
 21
343.3949736877045
 31
0.0
  0
LINE
  5
1B4
330
1F
100
AcDbEntity
  8
0-0
  6
JWW_DASHED1
 62
   120
370
     5
100
AcDbLine
 10
150.8034815383452
 20
563.3949736877167
 30
0.0
 11
506.1847156387934
 21
918.7762077881645
 31
0.0
  0
LINE
  5
1B5
330
1F
100
AcDbEntity
  8
0-0
  6
JWW_DASHED1
 62
   120
370
     5
100
AcDbLine
 10
-659.1965184616582
 20
-236.705531377124
 30
0.0
 11
-69.19651846165252
 21
353.2944686228799
 31
0.0
  0
LINE
  5
1B6
330
1F
100
AcDbEntity
  8
0-0
  6
JWW_DASHED1
 62
   120
370
     5
100
AcDbLine
 10
150.8034815383452
 20
573.2944686228785
 30
0.0
 11
496.2852207036179
 21
918.7762077881521
 31
0.0
  0
LINE
  5
1B7
330
1F
100
AcDbEntity
  8
0-0
  6
JWW_DASHED1
 62
   120
370
     5
100
AcDbLine
 10
-659.196518461648
 20
-226.8060364419
 30
0.0
 11
-69.19651846166275
 21
363.1939635580878
 31
0.0
  0
LINE
  5
1B8
330
1F
100
AcDbEntity
  8
0-0
  6
JWW_DASHED1
 62
   120
370
     5
100
AcDbLine
 10
150.803481538352
 20
583.1939635581022
 30
0.0
 11
486.385725768405
 21
918.7762077881534
 31
0.0
  0
LINE
  5
1B9
330
1F
100
AcDbEntity
  8
0-0
  6
JWW_DASHED1
 62
   120
370
     5
100
AcDbLine
 10
-659.196518461648
 20
-216.9065415066815
 30
0.0
 11
-69.19651846166616
 21
373.0934584933007
 31
0.0
  0
LINE
  5
1BA
330
1F
100
AcDbEntity
  8
0-0
  6
JWW_DASHED1
 62
   120
370
     5
100
AcDbLine
 10
150.8034815383469
 20
593.0934584933134
 30
0.0
 11
476.4862308331955
 21
918.7762077881615
 31
0.0
  0
LINE
  5
1BB
330
1F
100
AcDbEntity
  8
0-0
  6
JWW_DASHED1
 62
   120
370
     5
100
AcDbLine
 10
-659.1965184616548
 20
-207.007046571527
 30
0.0
 11
-69.19651846165252
 21
382.9929534284765
 31
0.0
  0
LINE
  5
1BC
330
1F
100
AcDbEntity
  8
0-0
  6
JWW_DASHED1
 62
   120
370
     5
100
AcDbLine
 10
150.8034815383486
 20
602.9929534284752
 30
0.0
 11
466.5867358980303
 21
918.7762077881581
 31
0.0
  0
LINE
  5
1BD
330
1F
100
AcDbEntity
  8
0-0
  6
JWW_DASHED1
 62
   120
370
     5
100
AcDbLine
 10
-659.196518461648
 20
-197.107551636303
 30
0.0
 11
-69.19651846165934
 21
392.8924483636848
 31
0.0
  0
LINE
  5
1BE
330
1F
100
AcDbEntity
  8
0-0
  6
JWW_DASHED1
 62
   120
370
     5
100
AcDbLine
 10
150.8034815383384
 20
612.8924483636833
 30
0.0
 11
456.6872409628139
 21
918.7762077881581
 31
0.0
  0
LINE
  5
1BF
330
1F
100
AcDbEntity
  8
0-0
  6
JWW_DASHED1
 62
   120
370
     5
100
AcDbLine
 10
-659.1965184616446
 20
-187.2080567010849
 30
0.0
 11
-69.19651846166275
 21
402.7919432988978
 31
0.0
  0
LINE
  5
1C0
330
1F
100
AcDbEntity
  8
0-0
  6
JWW_DASHED1
 62
   120
370
     5
100
AcDbLine
 10
150.8034815383486
 20
622.7919432989099
 30
0.0
 11
446.7877460275976
 21
918.7762077881589
 31
0.0
  0
LINE
  5
1C1
330
1F
100
AcDbEntity
  8
0-0
  6
JWW_DASHED1
 62
   120
370
     5
100
AcDbLine
 10
-659.1965184616582
 20
-177.3085617659355
 30
0.0
 11
-69.19651846167639
 21
412.6914382340468
 31
0.0
  0
LINE
  5
1C2
330
1F
100
AcDbEntity
  8
0-0
  6
JWW_DASHED1
 62
   120
370
     5
100
AcDbLine
 10
150.8034815383367
 20
632.691438234059
 30
0.0
 11
436.8882510924494
 21
918.776207788171
 31
0.0
  0
LINE
  5
1C3
330
1F
100
AcDbEntity
  8
0-0
  6
JWW_DASHED1
 62
   120
370
     5
100
AcDbLine
 10
-659.1965184616616
 20
-167.4090668307221
 30
0.0
 11
-69.19651846165593
 21
422.5909331692819
 31
0.0
  0
LINE
  5
1C4
330
1F
100
AcDbEntity
  8
0-0
  6
JWW_DASHED1
 62
   120
370
     5
100
AcDbLine
 10
150.8034815383418
 20
642.59093316928
 30
0.0
 11
426.9887561572177
 21
918.776207788156
 31
0.0
  0
LINE
  5
1C5
330
1F
100
AcDbEntity
  8
0-0
  6
JWW_DASHED1
 62
   120
370
     5
100
AcDbLine
 10
-659.1965184616446
 20
-157.5095718954883
 30
0.0
 11
-69.19651846165934
 21
432.490428104494
 31
0.0
  0
LINE
  5
1C6
330
1F
100
AcDbEntity
  8
0-0
  6
JWW_DASHED1
 62
   120
370
     5
100
AcDbLine
 10
150.803481538352
 20
652.4904281045066
 30
0.0
 11
417.0892612219997
 21
918.7762077881555
 31
0.0
  0
LINE
  5
1C7
330
1F
100
AcDbEntity
  8
0-0
  6
JWW_DASHED1
 62
   120
370
     5
100
AcDbLine
 10
-659.1965184616548
 20
-147.6100769603389
 30
0.0
 11
-69.19651846167298
 21
442.389923039643
 31
0.0
  0
LINE
  5
1C8
330
1F
100
AcDbEntity
  8
0-0
  6
JWW_DASHED1
 62
   120
370
     5
100
AcDbLine
 10
150.8034815383384
 20
662.3899230396556
 30
0.0
 11
407.1897662868515
 21
918.7762077881683
 31
0.0
  0
LINE
  5
1C9
330
1F
100
AcDbEntity
  8
0-0
  6
JWW_DASHED1
 62
   120
370
     5
100
AcDbLine
 10
-659.1965184616582
 20
-137.7105820251251
 30
0.0
 11
-69.19651846165593
 21
452.2894179748785
 31
0.0
  0
LINE
  5
1CA
330
1F
100
AcDbEntity
  8
0-0
  6
JWW_DASHED1
 62
   120
370
     5
100
AcDbLine
 10
150.8034815383435
 20
672.2894179748771
 30
0.0
 11
397.2902713516215
 21
918.7762077881539
 31
0.0
  0
LINE
  5
1CB
330
1F
100
AcDbEntity
  8
0-0
  6
JWW_DASHED1
 62
   120
370
     5
100
AcDbLine
 10
-659.1965184616412
 20
-127.8110870898917
 30
0.0
 11
-69.19651846165934
 21
462.188912910091
 31
0.0
  0
LINE
  5
1CC
330
1F
100
AcDbEntity
  8
0-0
  6
JWW_DASHED1
 62
   120
370
     5
100
AcDbLine
 10
150.8034815383537
 20
682.1889129101032
 30
0.0
 11
387.3907764164035
 21
918.7762077881525
 31
0.0
  0
LINE
  5
1CD
330
1F
100
AcDbEntity
  8
0-0
  6
JWW_DASHED1
 62
   120
370
     5
100
AcDbLine
 10
-659.1965184616548
 20
-117.9115921547422
 30
0.0
 11
-69.19651846167298
 21
472.08840784524
 31
0.0
  0
LINE
  5
1CE
330
1F
100
AcDbEntity
  8
0-0
  6
JWW_DASHED1
 62
   120
370
     5
100
AcDbLine
 10
150.8034815383418
 20
692.0884078452523
 30
0.0
 11
377.4912814812536
 21
918.7762077881649
 31
0.0
  0
LINE
  5
1CF
330
1F
100
AcDbEntity
  8
0-0
  6
JWW_DASHED1
 62
   120
370
     5
100
AcDbLine
 10
-659.1965184616548
 20
-108.012097219528
 30
0.0
 11
-69.19651846165252
 21
481.9879027804751
 31
0.0
  0
LINE
  5
1D0
330
1F
100
AcDbEntity
  8
0-0
  6
JWW_DASHED1
 62
   120
370
     5
100
AcDbLine
 10
150.8034815383469
 20
701.9879027804741
 30
0.0
 11
367.5917865460304
 21
918.7762077881573
 31
0.0
  0
LINE
  5
1D1
330
1F
100
AcDbEntity
  8
0-0
  6
JWW_DASHED1
 62
   120
370
     5
100
AcDbLine
 10
-659.196518461648
 20
-98.11260228430484
 30
0.0
 11
-69.19651846165934
 21
491.8873977156834
 31
0.0
  0
LINE
  5
1D2
330
1F
100
AcDbEntity
  8
0-0
  6
JWW_DASHED1
 62
   120
370
     5
100
AcDbLine
 10
150.8034815383537
 20
711.8873977156977
 30
0.0
 11
357.6922916108056
 21
918.7762077881496
 31
0.0
  0
LINE
  5
1D3
330
1F
100
AcDbEntity
  8
0-0
  6
JWW_DASHED1
 62
   120
370
     5
100
AcDbLine
 10
-659.1965184616514
 20
-88.21310734914562
 30
0.0
 11
-69.19651846166957
 21
501.7868926508362
 31
0.0
  0
LINE
  5
1D4
330
1F
100
AcDbEntity
  8
0-0
  6
JWW_DASHED1
 62
   120
370
     5
100
AcDbLine
 10
150.8034815383435
 20
721.7868926508488
 30
0.0
 11
347.7927966756557
 21
918.776207788162
 31
0.0
  0
LINE
  5
1D5
330
1F
100
AcDbEntity
  8
0-0
  6
JWW_DASHED1
 62
   120
370
     5
100
AcDbLine
 10
-659.1965184616616
 20
-78.31361241393779
 30
0.0
 11
-69.19651846167639
 21
511.6863875860445
 31
0.0
  0
LINE
  5
1D6
330
1F
100
AcDbEntity
  8
0-0
  6
JWW_DASHED1
 62
   120
370
     5
100
AcDbLine
 10
150.803481538335
 20
731.6863875860571
 30
0.0
 11
337.8933017404479
 21
918.77620778817
 31
0.0
  0
LINE
  5
1D7
330
1F
100
AcDbEntity
  8
0-0
  6
JWW_DASHED1
 62
   120
370
     5
100
AcDbLine
 10
-659.196518461648
 20
-68.4141174787078
 30
0.0
 11
-69.19651846165934
 21
521.5858825212804
 31
0.0
  0
LINE
  5
1D8
330
1F
100
AcDbEntity
  8
0-0
  6
JWW_DASHED1
 62
   120
370
     5
100
AcDbLine
 10
150.8034815383401
 20
741.585882521279
 30
0.0
 11
327.9938068052196
 21
918.7762077881576
 31
0.0
  0
LINE
  5
1D9
330
1F
100
AcDbEntity
  8
0-0
  6
JWW_DASHED1
 62
   120
370
     5
100
AcDbLine
 10
-659.196518461648
 20
-58.514622543549
 30
0.0
 11
-69.19651846166616
 21
531.4853774564328
 31
0.0
  0
LINE
  5
1DA
330
1F
100
AcDbEntity
  8
0-0
  6
JWW_DASHED1
 62
   120
370
     5
100
AcDbLine
 10
150.8034815383452
 20
751.4853774564455
 30
0.0
 11
318.0943118700595
 21
918.7762077881589
 31
0.0
  0
LINE
  5
1DB
330
1F
100
AcDbEntity
  8
0-0
  6
JWW_DASHED1
 62
   120
370
     5
100
AcDbLine
 10
-659.1965184616582
 20
-48.61512760834117
 30
0.0
 11
-69.19651846167639
 21
541.384872391641
 31
0.0
  0
LINE
  5
1DC
330
1F
100
AcDbEntity
  8
0-0
  6
JWW_DASHED1
 62
   120
370
     5
100
AcDbLine
 10
150.8034815383367
 20
761.3848723916533
 30
0.0
 11
308.1948169348517
 21
918.7762077881671
 31
0.0
  0
LINE
  5
1DD
330
1F
100
AcDbEntity
  8
0-0
  6
JWW_DASHED1
 62
   120
370
     5
100
AcDbLine
 10
-659.1965184616582
 20
-38.71563267312652
 30
0.0
 11
-69.19651846165593
 21
551.284367326877
 31
0.0
  0
LINE
  5
1DE
330
1F
100
AcDbEntity
  8
0-0
  6
JWW_DASHED1
 62
   120
370
     5
100
AcDbLine
 10
150.8034815383418
 20
771.2843673268756
 30
0.0
 11
298.2953219996217
 21
918.7762077881555
 31
0.0
  0
LINE
  5
1DF
330
1F
100
AcDbEntity
  8
0-0
  6
JWW_DASHED1
 62
   120
370
     5
100
AcDbLine
 10
-659.196518461648
 20
-28.8161377379528
 30
0.0
 11
-69.19651846166616
 21
561.1838622620294
 31
0.0
  0
LINE
  5
1E0
330
1F
100
AcDbEntity
  8
0-0
  6
JWW_DASHED1
 62
   120
370
     5
100
AcDbLine
 10
150.8034815383469
 20
781.1838622620421
 30
0.0
 11
288.3958270644616
 21
918.776207788156
 31
0.0
  0
LINE
  5
1E1
330
1F
100
AcDbEntity
  8
0-0
  6
JWW_DASHED1
 62
   120
370
     5
100
AcDbLine
 10
-659.1965184616548
 20
-18.91664280274455
 30
0.0
 11
-69.19651846167298
 21
571.0833571972377
 31
0.0
  0
LINE
  5
1E2
330
1F
100
AcDbEntity
  8
0-0
  6
JWW_DASHED1
 62
   120
370
     5
100
AcDbLine
 10
150.8034815383384
 20
791.0833571972503
 30
0.0
 11
278.4963321292538
 21
918.7762077881641
 31
0.0
  0
LINE
  5
1E3
330
1F
100
AcDbEntity
  8
0-0
  6
JWW_DASHED1
 62
   120
370
     5
100
AcDbLine
 10
-659.1965184616582
 20
-9.017147867529474
 30
0.0
 11
-69.19651846165252
 21
580.9828521324741
 31
0.0
  0
LINE
  5
1E4
330
1F
100
AcDbEntity
  8
0-0
  6
JWW_DASHED1
 62
   120
370
     5
100
AcDbLine
 10
150.8034815383452
 20
800.9828521324727
 30
0.0
 11
268.5968371940255
 21
918.7762077881534
 31
0.0
  0
LINE
  5
1E5
330
1F
100
AcDbEntity
  8
0-0
  6
JWW_DASHED1
 62
   120
370
     5
100
AcDbLine
 10
-659.1965184616446
 20
0.8823470676438205
 30
0.0
 11
-69.19651846166275
 21
590.882347067626
 31
0.0
  0
LINE
  5
1E6
330
1F
100
AcDbEntity
  8
0-0
  6
JWW_DASHED1
 62
   120
370
     5
100
AcDbLine
 10
150.8034815383486
 20
810.8823470676386
 30
0.0
 11
258.6973422588637
 21
918.776207788153
 31
0.0
  0
LINE
  5
1E7
330
1F
100
AcDbEntity
  8
0-0
  6
JWW_DASHED1
 62
   120
370
     5
100
AcDbLine
 10
-659.1965184616548
 20
10.78184200285207
 30
0.0
 11
-69.19651846167298
 21
600.7818420028343
 31
0.0
  0
LINE
  5
1E8
330
1F
100
AcDbEntity
  8
0-0
  6
JWW_DASHED1
 62
   120
370
     5
100
AcDbLine
 10
150.8034815383418
 20
820.7818420028466
 30
0.0
 11
248.7978473236559
 21
918.7762077881615
 31
0.0
  0
LINE
  5
1E9
330
1F
100
AcDbEntity
  8
0-0
  6
JWW_DASHED1
 62
   120
370
     5
100
AcDbLine
 10
-659.1965184616548
 20
20.68133693806715
 30
0.0
 11
-69.19651846165252
 21
610.6813369380711
 31
0.0
  0
LINE
  5
1EA
330
1F
100
AcDbEntity
  8
0-0
  6
JWW_DASHED1
 62
   120
370
     5
100
AcDbLine
 10
150.8034815383486
 20
830.6813369380698
 30
0.0
 11
238.8983523884311
 21
918.7762077881534
 31
0.0
  0
LINE
  5
1EB
330
1F
100
AcDbEntity
  8
0-0
  6
JWW_DASHED1
 62
   120
370
     5
100
AcDbLine
 10
-659.1965184616446
 20
30.58083187324087
 30
0.0
 11
-69.19651846165934
 21
620.5808318732227
 31
0.0
  0
LINE
  5
1EC
330
1F
100
AcDbEntity
  8
0-0
  6
JWW_DASHED1
 62
   120
370
     5
100
AcDbLine
 10
150.803481538352
 20
840.5808318732353
 30
0.0
 11
228.9988574532659
 21
918.77620778815
 31
0.0
  0
LINE
  5
1ED
330
1F
100
AcDbEntity
  8
0-0
  6
JWW_DASHED1
 62
   120
370
     5
100
AcDbLine
 10
-659.1965184616514
 20
40.48032680844869
 30
0.0
 11
-69.19651846166957
 21
630.480326808431
 31
0.0
  0
LINE
  5
1EE
330
1F
100
AcDbEntity
  8
0-0
  6
JWW_DASHED1
 62
   120
370
     5
100
AcDbLine
 10
150.8034815383435
 20
850.4803268084431
 30
0.0
 11
219.099362518058
 21
918.7762077881581
 31
0.0
  0
LINE
  5
1EF
330
1F
100
AcDbEntity
  8
0-0
  6
JWW_DASHED1
 62
   120
370
     5
100
AcDbLine
 10
-659.1965184616616
 20
50.37982174365652
 30
0.0
 11
-69.19651846167639
 21
640.3798217436392
 31
0.0
  0
LINE
  5
1F0
330
1F
100
AcDbEntity
  8
0-0
  6
JWW_DASHED1
 62
   120
370
     5
100
AcDbLine
 10
150.803481538335
 20
860.3798217436514
 30
0.0
 11
209.1998675828502
 21
918.7762077881662
 31
0.0
  0
LINE
  5
1F1
330
1F
100
AcDbEntity
  8
0-0
  6
JWW_DASHED1
 62
   120
370
     5
100
AcDbLine
 10
-659.196518461648
 20
60.27931667882939
 30
0.0
 11
-69.19651846165934
 21
650.2793166788172
 31
0.0
  0
LINE
  5
1F2
330
1F
100
AcDbEntity
  8
0-0
  6
JWW_DASHED1
 62
   120
370
     5
100
AcDbLine
 10
150.8034815383537
 20
870.2793166788315
 30
0.0
 11
199.3003726476697
 21
918.7762077881471
 31
0.0
  0
LINE
  5
1F3
330
1F
100
AcDbEntity
  8
0-0
  6
JWW_DASHED1
 62
   120
370
     5
100
AcDbLine
 10
-659.196518461648
 20
70.17881161404489
 30
0.0
 11
-69.19651846166616
 21
660.1788116140276
 31
0.0
  0
LINE
  5
1F4
330
1F
100
AcDbEntity
  8
0-0
  6
JWW_DASHED1
 62
   120
370
     5
100
AcDbLine
 10
150.8034815383452
 20
880.1788116140398
 30
0.0
 11
189.4008777124601
 21
918.7762077881551
 31
0.0
  0
LINE
  5
1F5
330
1F
100
AcDbEntity
  8
0-0
  6
JWW_DASHED1
 62
   120
370
     5
100
AcDbLine
 10
-659.1965184616582
 20
80.07830654925314
 30
0.0
 11
-69.19651846167639
 21
670.0783065492353
 31
0.0
  0
LINE
  5
1F6
330
1F
100
AcDbEntity
  8
0-0
  6
JWW_DASHED1
 62
   120
370
     5
100
AcDbLine
 10
150.8034815383367
 20
890.078306549248
 30
0.0
 11
179.5013827772523
 21
918.7762077881632
 31
0.0
  0
LINE
  5
1F7
330
1F
100
AcDbEntity
  8
0-0
  6
JWW_DASHED1
 62
   120
370
     5
100
AcDbLine
 10
-659.196518461648
 20
89.97780148442644
 30
0.0
 11
-69.19651846165934
 21
679.9778014844138
 31
0.0
  0
LINE
  5
1F8
330
1F
100
AcDbEntity
  8
0-0
  6
JWW_DASHED1
 62
   120
370
     5
100
AcDbLine
 10
150.8034815383401
 20
899.9778014844128
 30
0.0
 11
169.6018878420871
 21
918.7762077881594
 31
0.0
  0
LINE
  5
1F9
330
1F
100
AcDbEntity
  8
0-0
  6
JWW_DASHED1
 62
   120
370
     5
100
AcDbLine
 10
-659.196518461648
 20
99.87729641964194
 30
0.0
 11
-69.19651846166616
 21
689.8772964196241
 31
0.0
  0
LINE
  5
1FA
330
1F
100
AcDbEntity
  8
0-0
  6
JWW_DASHED1
 62
   120
370
     5
100
AcDbLine
 10
150.8034815383486
 20
909.8772964196369
 30
0.0
 11
159.7023929068622
 21
918.7762077881521
 31
0.0
  0
LINE
  5
1FB
330
1F
100
AcDbEntity
  8
0-0
  6
JWW_DASHED1
 62
   120
370
     5
100
AcDbLine
 10
-659.1965184616548
 20
109.7767913548498
 30
0.0
 11
-69.19651846167298
 21
699.776791354832
 31
0.0
  0
LINE
  5
1FC
330
1F
100
AcDbEntity
  8
0-0
  6
JWW_DASHED1
 62
   120
370
     5
100
AcDbLine
 10
-659.1965184616616
 20
119.6762862900073
 30
0.0
 11
-69.19651846165593
 21
709.6762862900113
 31
0.0
  0
LINE
  5
1FD
330
1F
100
AcDbEntity
  8
0-0
  6
JWW_DASHED1
 62
   120
370
     5
100
AcDbLine
 10
-659.1965184616446
 20
129.5757812252381
 30
0.0
 11
-69.19651846166275
 21
719.5757812252208
 31
0.0
  0
LINE
  5
1FE
330
1F
100
AcDbEntity
  8
0-0
  6
JWW_DASHED1
 62
   120
370
     5
100
AcDbLine
 10
-659.1965184616548
 20
139.4752761604464
 30
0.0
 11
-69.19651846167298
 21
729.4752761604286
 31
0.0
  0
LINE
  5
1FF
330
1F
100
AcDbEntity
  8
0-0
  6
JWW_DASHED1
 62
   120
370
     5
100
AcDbLine
 10
-659.1965184616582
 20
149.3747710956043
 30
0.0
 11
-69.19651846165252
 21
739.3747710956079
 31
0.0
  0
LINE
  5
200
330
1F
100
AcDbEntity
  8
0-0
  6
JWW_DASHED1
 62
   120
370
     5
100
AcDbLine
 10
-659.1965184616446
 20
159.2742660308352
 30
0.0
 11
-69.19651846165934
 21
749.2742660308174
 31
0.0
  0
LINE
  5
201
330
1F
100
AcDbEntity
  8
0-0
  6
JWW_DASHED1
 62
   120
370
     5
100
AcDbLine
 10
-659.1965184616514
 20
169.173760966043
 30
0.0
 11
-69.19651846166957
 21
759.1737609660256
 31
0.0
  0
LINE
  5
202
330
1F
100
AcDbEntity
  8
0-0
  6
JWW_DASHED1
 62
   120
370
     5
100
AcDbLine
 10
-659.1965184616548
 20
179.0732559012014
 30
0.0
 11
-69.19651846165252
 21
769.0732559012044
 31
0.0
  0
LINE
  5
203
330
1F
100
AcDbEntity
  8
0-0
  6
JWW_DASHED1
 62
   120
370
     5
100
AcDbLine
 10
-659.196518461648
 20
188.972750836425
 30
0.0
 11
-69.19651846165934
 21
778.9727508364127
 31
0.0
  0
LINE
  5
204
330
1F
100
AcDbEntity
  8
0-0
  6
JWW_DASHED1
 62
   120
370
     5
100
AcDbLine
 10
-659.196518461648
 20
198.8722457716396
 30
0.0
 11
-69.19651846166616
 21
788.8722457716219
 31
0.0
  0
LINE
  5
205
330
1F
100
AcDbEntity
  8
0-0
  6
JWW_DASHED1
 62
   120
370
     5
100
AcDbLine
 10
-659.1965184616616
 20
208.771740706789
 30
0.0
 11
-69.1965184616798
 21
798.7717407067709
 31
0.0
  0
LINE
  5
206
330
1F
100
AcDbEntity
  8
0-0
  6
JWW_DASHED1
 62
   120
370
     5
100
AcDbLine
 10
-659.1965184616616
 20
218.6712356420063
 30
0.0
 11
-69.19651846165593
 21
808.6712356420094
 31
0.0
  0
LINE
  5
207
330
1F
100
AcDbEntity
  8
0-0
  6
JWW_DASHED1
 62
   120
370
     5
100
AcDbLine
 10
-659.196518461648
 20
228.5707305772362
 30
0.0
 11
-69.19651846166616
 21
818.5707305772185
 31
0.0
  0
LINE
  5
208
330
1F
100
AcDbEntity
  8
0-0
  6
JWW_DASHED1
 62
   120
370
     5
100
AcDbLine
 10
-659.1965184616616
 20
238.4702255123852
 30
0.0
 11
-69.19651846167639
 21
828.4702255123675
 31
0.0
  0
LINE
  5
209
330
1F
100
AcDbEntity
  8
0-0
  6
JWW_DASHED1
 62
   120
370
     5
100
AcDbLine
 10
-659.1965184616582
 20
248.3697204476029
 30
0.0
 11
-69.19651846165593
 21
838.3697204476064
 31
0.0
  0
LINE
  5
20A
330
1F
100
AcDbEntity
  8
0-0
  6
JWW_DASHED1
 62
   120
370
     5
100
AcDbLine
 10
-659.1965184616446
 20
258.2692153828328
 30
0.0
 11
-69.19651846166275
 21
848.2692153828151
 31
0.0
  0
LINE
  5
20B
330
1F
100
AcDbEntity
  8
0-0
  6
JWW_DASHED1
 62
   120
370
     5
100
AcDbLine
 10
-659.1965184616582
 20
268.1687103179823
 30
0.0
 11
-69.19651846167639
 21
858.168710317964
 31
0.0
  0
LINE
  5
20C
330
1F
100
AcDbEntity
  8
0-0
  6
JWW_DASHED1
 62
   120
370
     5
100
AcDbLine
 10
-659.1965184616548
 20
278.0682052531995
 30
0.0
 11
-69.19651846165252
 21
868.0682052532035
 31
0.0
  0
LINE
  5
20D
330
1F
100
AcDbEntity
  8
0-0
  6
JWW_DASHED1
 62
   120
370
     5
100
AcDbLine
 10
-659.196518461648
 20
287.9677001884239
 30
0.0
 11
-69.19651846165934
 21
877.9677001884113
 31
0.0
  0
LINE
  5
20E
330
1F
100
AcDbEntity
  8
0-0
  6
JWW_DASHED1
 62
   120
370
     5
100
AcDbLine
 10
-659.1965184616548
 20
297.8671951235789
 30
0.0
 11
-69.19651846167298
 21
887.8671951235607
 31
0.0
  0
LINE
  5
20F
330
1F
100
AcDbEntity
  8
0-0
  6
JWW_DASHED1
 62
   120
370
     5
100
AcDbLine
 10
-659.196518461665
 20
307.7666900587863
 30
0.0
 11
-69.19651846166616
 21
897.7666900587848
 31
0.0
  0
LINE
  5
210
330
1F
100
AcDbEntity
  8
0-0
  6
JWW_DASHED1
 62
   120
370
     5
100
AcDbLine
 10
-659.196518461648
 20
317.6661849940206
 30
0.0
 11
-69.19651846165934
 21
907.6661849940083
 31
0.0
  0
LINE
  5
211
330
1F
100
AcDbEntity
  8
0-0
  6
JWW_DASHED1
 62
   120
370
     5
100
AcDbLine
 10
-659.1965184616548
 20
327.5656799291755
 30
0.0
 11
-69.19651846167298
 21
917.5656799291573
 31
0.0
  0
LINE
  5
212
330
1F
100
AcDbEntity
  8
0-0
  6
JWW_DASHED1
 62
   120
370
     5
100
AcDbLine
 10
-659.1965184616616
 20
337.4651748643834
 30
0.0
 11
-77.8854855378664
 21
918.7762077881781
 31
0.0
  0
LINE
  5
213
330
1F
100
AcDbEntity
  8
0-0
  6
JWW_DASHED1
 62
   120
370
     5
100
AcDbLine
 10
-659.196518461648
 20
347.3646697995878
 30
0.0
 11
-87.78498047307593
 21
918.7762077881569
 31
0.0
  0
LINE
  5
214
330
1F
100
AcDbEntity
  8
0-0
  6
JWW_DASHED1
 62
   120
370
     5
100
AcDbLine
 10
-659.1965184616514
 20
357.2641647347722
 30
0.0
 11
-97.68447540825477
 21
918.7762077881671
 31
0.0
  0
LINE
  5
215
330
1F
100
AcDbEntity
  8
0-0
  6
JWW_DASHED1
 62
   120
370
     5
100
AcDbLine
 10
-659.1965184616616
 20
367.16365966998
 30
0.0
 11
-107.5839703434643
 21
918.7762077881752
 31
0.0
  0
LINE
  5
216
330
1F
100
AcDbEntity
  8
0-0
  6
JWW_DASHED1
 62
   120
370
     5
100
AcDbLine
 10
-659.1965184616446
 20
377.0631546051848
 30
0.0
 11
-117.4834652786738
 21
918.7762077881539
 31
0.0
  0
LINE
  5
217
330
1F
100
AcDbEntity
  8
0-0
  6
JWW_DASHED1
 62
   120
370
     5
100
AcDbLine
 10
-659.196518461648
 20
386.9626495403688
 30
0.0
 11
-127.3829602138527
 21
918.7762077881641
 31
0.0
  0
LINE
  5
218
330
1F
100
AcDbEntity
  8
0-0
  6
JWW_DASHED1
 62
   120
370
     5
100
AcDbLine
 10
-659.1965184616582
 20
396.8621444755766
 30
0.0
 11
-137.2824551490622
 21
918.7762077881722
 31
0.0
  0
LINE
  5
219
330
1F
100
AcDbEntity
  8
0-0
  6
JWW_DASHED1
 62
   120
370
     5
100
AcDbLine
 10
-659.1965184616582
 20
406.7616394107367
 30
0.0
 11
-147.181950084241
 21
918.7762077881551
 31
0.0
  0
LINE
  5
21A
330
1F
100
AcDbEntity
  8
0-0
  6
JWW_DASHED1
 62
   120
370
     5
100
AcDbLine
 10
-659.196518461648
 20
416.661134345965
 30
0.0
 11
-157.0814450194506
 21
918.7762077881611
 31
0.0
  0
LINE
  5
21B
330
1F
100
AcDbEntity
  8
0-0
  6
JWW_DASHED1
 62
   120
370
     5
100
AcDbLine
 10
-659.1965184616548
 20
426.5606292811728
 30
0.0
 11
-166.9809399546601
 21
918.7762077881691
 31
0.0
  0
LINE
  5
21C
330
1F
100
AcDbEntity
  8
0-0
  6
JWW_DASHED1
 62
   120
370
     5
100
AcDbLine
 10
-659.1965184616548
 20
436.4601242163337
 30
0.0
 11
-176.8804348898389
 21
918.776207788153
 31
0.0
  0
LINE
  5
21D
330
1F
100
AcDbEntity
  8
0-0
  6
JWW_DASHED1
 62
   120
370
     5
100
AcDbLine
 10
-659.1965184616446
 20
446.359619151562
 30
0.0
 11
-186.7799298250485
 21
918.7762077881581
 31
0.0
  0
LINE
  5
21E
330
1F
100
AcDbEntity
  8
0-0
  6
JWW_DASHED1
 62
   120
370
     5
100
AcDbLine
 10
-659.1965184616548
 20
456.2591140867698
 30
0.0
 11
-196.679424760258
 21
918.7762077881662
 31
0.0
  0
LINE
  5
21F
330
1F
100
AcDbEntity
  8
0-0
  6
JWW_DASHED1
 62
   120
370
     5
100
AcDbLine
 10
-659.1965184616548
 20
466.1586090219304
 30
0.0
 11
-206.5789196954334
 21
918.7762077881508
 31
0.0
  0
LINE
  5
220
330
1F
100
AcDbEntity
  8
0-0
  6
JWW_DASHED1
 62
   120
370
     5
100
AcDbLine
 10
-659.196518461648
 20
476.0581039571539
 30
0.0
 11
-216.4784146306464
 21
918.7762077881551
 31
0.0
  0
LINE
  5
221
330
1F
100
AcDbEntity
  8
0-0
  6
JWW_DASHED1
 62
   120
370
     5
100
AcDbLine
 10
-659.1965184616514
 20
485.957598892366
 30
0.0
 11
-226.3779095658525
 21
918.7762077881632
 31
0.0
  0
LINE
  5
222
330
1F
100
AcDbEntity
  8
0-0
  6
JWW_DASHED1
 62
   120
370
     5
100
AcDbLine
 10
-659.196518461665
 20
495.8570938275154
 30
0.0
 11
-236.277404501004
 21
918.7762077881756
 31
0.0
  0
LINE
  5
223
330
1F
100
AcDbEntity
  8
0-0
  6
JWW_DASHED1
 62
   120
370
     5
100
AcDbLine
 10
-659.1965184616616
 20
505.7565887627356
 30
0.0
 11
-246.1768994362374
 21
918.7762077881569
 31
0.0
  0
LINE
  5
224
330
1F
100
AcDbEntity
  8
0-0
  6
JWW_DASHED1
 62
   120
370
     5
100
AcDbLine
 10
-659.196518461648
 20
515.6560836979631
 30
0.0
 11
-256.0763943714504
 21
918.7762077881603
 31
0.0
  0
LINE
  5
225
330
1F
100
AcDbEntity
  8
0-0
  6
JWW_DASHED1
 62
   120
370
     5
100
AcDbLine
 10
-659.1965184616616
 20
525.5555786331121
 30
0.0
 11
-265.975889306602
 21
918.7762077881725
 31
0.0
  0
LINE
  5
226
330
1F
100
AcDbEntity
  8
0-0
  6
JWW_DASHED1
 62
   120
370
     5
100
AcDbLine
 10
-659.1965184616582
 20
535.4550735683323
 30
0.0
 11
-275.8753842418354
 21
918.7762077881547
 31
0.0
  0
LINE
  5
227
330
1F
100
AcDbEntity
  8
0-0
  6
JWW_DASHED1
 62
   120
370
     5
100
AcDbLine
 10
-659.196518461648
 20
545.3545685035597
 30
0.0
 11
-285.7748791770483
 21
918.7762077881573
 31
0.0
  0
LINE
  5
228
330
1F
100
AcDbEntity
  8
0-0
  6
JWW_DASHED1
 62
   120
370
     5
100
AcDbLine
 10
-659.1965184616582
 20
555.2540634387087
 30
0.0
 11
-295.6743741121999
 21
918.7762077881696
 31
0.0
  0
LINE
  5
229
330
1F
100
AcDbEntity
  8
0-0
  6
JWW_DASHED1
 62
   120
370
     5
100
AcDbLine
 10
-659.1965184616548
 20
565.1535583739293
 30
0.0
 11
-305.5738690474333
 21
918.7762077881525
 31
0.0
  0
LINE
  5
22A
330
1F
100
AcDbEntity
  8
0-0
  6
JWW_DASHED1
 62
   120
370
     5
100
AcDbLine
 10
-659.196518461648
 20
575.0530533091529
 30
0.0
 11
-315.4733639826462
 21
918.7762077881542
 31
0.0
  0
LINE
  5
22B
330
1F
100
AcDbEntity
  8
0-0
  6
JWW_DASHED1
 62
   120
370
     5
100
AcDbLine
 10
-659.1965184616582
 20
584.9525482443053
 30
0.0
 11
-325.3728589177978
 21
918.7762077881666
 31
0.0
  0
LINE
  5
22C
330
1F
100
AcDbEntity
  8
0-0
  6
JWW_DASHED1
 62
   120
370
     5
100
AcDbLine
 10
-659.196518461665
 20
594.8520431795135
 30
0.0
 11
-335.2723538530039
 21
918.7762077881747
 31
0.0
  0
LINE
  5
22D
330
1F
100
AcDbEntity
  8
0-0
  6
JWW_DASHED1
 62
   120
370
     5
100
AcDbLine
 10
-659.1965184616446
 20
604.75153811475
 30
0.0
 11
-345.1718487882441
 21
918.7762077881513
 31
0.0
  0
LINE
  5
22E
330
1F
100
AcDbEntity
  8
0-0
  6
JWW_DASHED1
 62
   120
370
     5
100
AcDbLine
 10
-659.1965184616548
 20
614.6510330499019
 30
0.0
 11
-355.0713437233923
 21
918.7762077881637
 31
0.0
  0
LINE
  5
22F
330
1F
100
AcDbEntity
  8
0-0
  6
JWW_DASHED1
 62
   120
370
     5
100
AcDbLine
 10
-659.1965184616616
 20
624.5505279851102
 30
0.0
 11
-364.9708386586018
 21
918.7762077881717
 31
0.0
  0
LINE
  5
230
330
1F
100
AcDbEntity
  8
0-0
  6
JWW_DASHED1
 62
   120
370
     5
100
AcDbLine
 10
-659.1965184616582
 20
634.4500229203312
 30
0.0
 11
-374.8703335938318
 21
918.7762077881564
 31
0.0
  0
LINE
  5
231
330
1F
100
AcDbEntity
  8
0-0
  6
JWW_DASHED1
 62
   120
370
     5
100
AcDbLine
 10
-659.1965184616548
 20
644.3495178554986
 30
0.0
 11
-384.7698285289902
 21
918.7762077881607
 31
0.0
  0
LINE
  5
232
330
1F
100
AcDbEntity
  8
0-0
  6
JWW_DASHED1
 62
   120
370
     5
100
AcDbLine
 10
-659.1965184616616
 20
654.2490127907064
 30
0.0
 11
-394.6693234641997
 21
918.7762077881688
 31
0.0
  0
LINE
  5
233
330
1F
100
AcDbEntity
  8
0-0
  6
JWW_DASHED1
 62
   120
370
     5
100
AcDbLine
 10
-659.1965184616548
 20
664.1485077259279
 30
0.0
 11
-404.5688183994297
 21
918.7762077881542
 31
0.0
  0
LINE
  5
234
330
1F
100
AcDbEntity
  8
0-0
  6
JWW_DASHED1
 62
   120
370
     5
100
AcDbLine
 10
-659.1965184616514
 20
674.0480026610952
 30
0.0
 11
-414.4683133345881
 21
918.7762077881576
 31
0.0
  0
LINE
  5
235
330
1F
100
AcDbEntity
  8
0-0
  6
JWW_DASHED1
 62
   120
370
     5
100
AcDbLine
 10
-659.1965184616582
 20
683.9474975963035
 30
0.0
 11
-424.3678082697976
 21
918.7762077881657
 31
0.0
  0
LINE
  5
236
330
1F
100
AcDbEntity
  8
0-0
  6
JWW_DASHED1
 62
   120
370
     5
100
AcDbLine
 10
-659.1965184616548
 20
693.8469925315248
 30
0.0
 11
-434.2673032050276
 21
918.7762077881517
 31
0.0
  0
LINE
  5
237
330
1F
100
AcDbEntity
  8
0-0
  6
JWW_DASHED1
 62
   120
370
     5
100
AcDbLine
 10
-659.196518461648
 20
703.7464874666919
 30
0.0
 11
-444.166798140186
 21
918.7762077881547
 31
0.0
  0
LINE
  5
238
330
1F
100
AcDbEntity
  8
0-0
  6
JWW_DASHED1
 62
   120
370
     5
100
AcDbLine
 10
-659.1965184616582
 20
713.6459824019
 30
0.0
 11
-454.0662930753955
 21
918.7762077881628
 31
0.0
  0
LINE
  5
239
330
1F
100
AcDbEntity
  8
0-0
  6
JWW_DASHED1
 62
   120
370
     5
100
AcDbLine
 10
-659.196518461665
 20
723.5454773371079
 30
0.0
 11
-463.9657880106016
 21
918.776207788171
 31
0.0
  0
LINE
  5
23A
330
1F
100
AcDbEntity
  8
0-0
  6
JWW_DASHED1
 62
   120
370
     5
100
AcDbLine
 10
-659.196518461648
 20
733.4449722722867
 30
0.0
 11
-473.8652829457839
 21
918.7762077881517
 31
0.0
  0
LINE
  5
23B
330
1F
100
AcDbEntity
  8
0-0
  6
JWW_DASHED1
 62
   120
370
     5
100
AcDbLine
 10
-659.1965184616548
 20
743.3444672074967
 30
0.0
 11
-483.7647778809934
 21
918.7762077881598
 31
0.0
  0
LINE
  5
23C
330
1F
100
AcDbEntity
  8
0-0
  6
JWW_DASHED1
 62
   120
370
     5
100
AcDbLine
 10
-659.196518461665
 20
753.2439621427045
 30
0.0
 11
-493.6642728161995
 21
918.7762077881675
 31
0.0
  0
LINE
  5
23D
330
1F
100
AcDbEntity
  8
0-0
  6
JWW_DASHED1
 62
   120
370
     5
100
AcDbLine
 10
-659.196518461648
 20
763.1434570778833
 30
0.0
 11
-503.5637677513818
 21
918.7762077881483
 31
0.0
  0
LINE
  5
23E
330
1F
100
AcDbEntity
  8
0-0
  6
JWW_DASHED1
 62
   120
370
     5
100
AcDbLine
 10
-659.1965184616548
 20
773.0429520130933
 30
0.0
 11
-513.4632626865879
 21
918.7762077881564
 31
0.0
  0
LINE
  5
23F
330
1F
100
AcDbEntity
  8
0-0
  6
JWW_DASHED1
 62
   120
370
     5
100
AcDbLine
 10
-659.1965184616616
 20
782.9424469483012
 30
0.0
 11
-523.3627576217974
 21
918.7762077881649
 31
0.0
  0
LINE
  5
240
330
1F
100
AcDbEntity
  8
0-0
  6
JWW_DASHED1
 62
   120
370
     5
100
AcDbLine
 10
-659.1965184616582
 20
792.8419418834646
 30
0.0
 11
-533.262252556966
 21
918.7762077881581
 31
0.0
  0
LINE
  5
241
330
1F
100
AcDbEntity
  8
0-0
  6
JWW_DASHED1
 62
   120
370
     5
100
AcDbLine
 10
-659.1965184616514
 20
802.7414368186899
 30
0.0
 11
-543.1617474921858
 21
918.7762077881539
 31
0.0
  0
LINE
  5
242
330
1F
100
AcDbEntity
  8
0-0
  6
JWW_DASHED1
 62
   120
370
     5
100
AcDbLine
 10
-659.1965184616582
 20
812.6409317538978
 30
0.0
 11
-553.0612424273953
 21
918.776207788162
 31
0.0
  0
LINE
  5
243
330
1F
100
AcDbEntity
  8
0-0
  6
JWW_DASHED1
 62
   120
370
     5
100
AcDbLine
 10
-659.1965184616582
 20
822.5404266890616
 30
0.0
 11
-562.9607373625639
 21
918.776207788156
 31
0.0
  0
LINE
  5
244
330
1F
100
AcDbEntity
  8
0-0
  6
JWW_DASHED1
 62
   120
370
     5
100
AcDbLine
 10
-659.196518461648
 20
832.4399216242865
 30
0.0
 11
-572.8602322977837
 21
918.7762077881505
 31
0.0
  0
LINE
  5
245
330
1F
100
AcDbEntity
  8
0-0
  6
JWW_DASHED1
 62
   120
370
     5
100
AcDbLine
 10
-659.1965184616582
 20
842.3394165594943
 30
0.0
 11
-582.7597272329932
 21
918.7762077881589
 31
0.0
  0
LINE
  5
246
330
1F
100
AcDbEntity
  8
0-0
  6
JWW_DASHED1
 62
   120
370
     5
100
AcDbLine
 10
-659.1965184616548
 20
852.2389114946583
 30
0.0
 11
-592.6592221681584
 21
918.7762077881539
 31
0.0
  0
LINE
  5
247
330
1F
100
AcDbEntity
  8
0-0
  6
JWW_DASHED1
 62
   120
370
     5
100
AcDbLine
 10
-659.196518461648
 20
862.1384064298823
 30
0.0
 11
-602.5587171033816
 21
918.7762077881479
 31
0.0
  0
LINE
  5
248
330
1F
100
AcDbEntity
  8
0-0
  6
JWW_DASHED1
 62
   120
370
     5
100
AcDbLine
 10
-659.1965184616548
 20
872.037901365091
 30
0.0
 11
-612.4582120385911
 21
918.776207788156
 31
0.0
  0
LINE
  5
249
330
1F
100
AcDbEntity
  8
0-0
  6
JWW_DASHED1
 62
   120
370
     5
100
AcDbLine
 10
-659.1965184616685
 20
881.9373963002399
 30
0.0
 11
-622.3577069737393
 21
918.7762077881683
 31
0.0
  0
LINE
  5
24A
330
1F
100
AcDbEntity
  8
0-0
  6
JWW_DASHED1
 62
   120
370
     5
100
AcDbLine
 10
-659.1965184616446
 20
891.8368912354794
 30
0.0
 11
-632.2572019089795
 21
918.7762077881445
 31
0.0
  0
LINE
  5
24B
330
1F
100
AcDbEntity
  8
0-0
  6
JWW_DASHED1
 62
   120
370
     5
100
AcDbLine
 10
-659.1965184616548
 20
901.7363861706872
 30
0.0
 11
-642.156696844189
 21
918.776207788153
 31
0.0
  0
LINE
  5
24C
330
1F
100
AcDbEntity
  8
0-0
  6
JWW_DASHED1
 62
   120
370
     5
100
AcDbLine
 10
-659.196518461665
 20
911.6358811058366
 30
0.0
 11
-652.0561917793372
 21
918.7762077881649
 31
0.0
  0
LWPOLYLINE
  5
24D
330
1F
100
AcDbEntity
  8
寸法
  6
Continuous
 62
     7
370
     9
100
AcDbPolyline
 90
        4
 70
     1
 43
3.0
 10
852.3034815383429
 20
-1187.223792211842
 42
0.4142135623731
 10
850.8034815383429
 20
-1185.723792211842
 42
0.4142135623731
 10
849.3034815383429
 20
-1187.223792211842
 42
0.4142135623731
 10
850.8034815383429
 20
-1188.723792211842
 42
0.4142135623731
  0
LWPOLYLINE
  5
24E
330
1F
100
AcDbEntity
  8
寸法
  6
Continuous
 62
     7
370
     9
100
AcDbPolyline
 90
        4
 70
     1
 43
3.0
 10
1659.303481538344
 20
-1587.223792211843
 42
0.4142135623731
 10
1657.803481538344
 20
-1585.723792211843
 42
0.4142135623731
 10
1656.303481538344
 20
-1587.223792211843
 42
0.4142135623731
 10
1657.803481538344
 20
-1588.723792211843
 42
0.4142135623731
  0
LWPOLYLINE
  5
24F
330
1F
100
AcDbEntity
  8
寸法
  6
Continuous
 62
     7
370
     9
100
AcDbPolyline
 90
        4
 70
     1
 43
3.0
 10
1629.303481538344
 20
-1387.223792211843
 42
0.4142135623731
 10
1627.803481538344
 20
-1385.723792211843
 42
0.4142135623731
 10
1626.303481538344
 20
-1387.223792211843
 42
0.4142135623731
 10
1627.803481538344
 20
-1388.723792211843
 42
0.4142135623731
  0
LWPOLYLINE
  5
250
330
1F
100
AcDbEntity
  8
寸法
  6
Continuous
 62
     7
370
     9
100
AcDbPolyline
 90
        4
 70
     1
 43
3.0
 10
-767.6965184616571
 20
-1187.223792211842
 42
0.4142135623731
 10
-769.1965184616571
 20
-1185.723792211842
 42
0.4142135623731
 10
-770.6965184616571
 20
-1187.223792211842
 42
0.4142135623731
 10
-769.1965184616571
 20
-1188.723792211842
 42
0.4142135623731
  0
LWPOLYLINE
  5
251
330
1F
100
AcDbEntity
  8
寸法
  6
Continuous
 62
     7
370
     9
100
AcDbPolyline
 90
        4
 70
     1
 43
3.0
 10
42.30348153834294
 20
-1187.223792211842
 42
0.4142135623731
 10
40.80348153834294
 20
-1185.723792211842
 42
0.4142135623731
 10
39.30348153834294
 20
-1187.223792211842
 42
0.4142135623731
 10
40.80348153834294
 20
-1188.723792211842
 42
0.4142135623731
  0
LWPOLYLINE
  5
252
330
1F
100
AcDbEntity
  8
寸法
  6
Continuous
 62
     7
370
     9
100
AcDbPolyline
 90
        4
 70
     1
 43
3.0
 10
-1574.696518461656
 20
-1587.223792211844
 42
0.4142135623731
 10
-1576.196518461656
 20
-1585.723792211844
 42
0.4142135623731
 10
-1577.696518461656
 20
-1587.223792211844
 42
0.4142135623731
 10
-1576.196518461656
 20
-1588.723792211843
 42
0.4142135623731
  0
LWPOLYLINE
  5
253
330
1F
100
AcDbEntity
  8
寸法
  6
Continuous
 62
     7
370
     9
100
AcDbPolyline
 90
        4
 70
     1
 43
3.0
 10
-1544.696518461656
 20
-1387.223792211843
 42
0.4142135623731
 10
-1546.196518461656
 20
-1385.723792211843
 42
0.4142135623731
 10
-1547.696518461656
 20
-1387.223792211843
 42
0.4142135623731
 10
-1546.196518461656
 20
-1388.723792211843
 42
0.4142135623731
  0
LINE
  5
254
330
1F
100
AcDbEntity
  8
寸法
  6
Continuous
 62
   120
370
     5
100
AcDbLine
 10
850.8034815383429
 20
-1187.223792211842
 30
0.0
 11
850.8034815383429
 21
-987.2237922118436
 31
0.0
  0
LINE
  5
255
330
1F
100
AcDbEntity
  8
寸法
  6
Continuous
 62
   120
370
     5
100
AcDbLine
 10
1657.803481538344
 20
-1587.223792211843
 30
0.0
 11
1657.803481538344
 21
-987.2237922118436
 31
0.0
  0
LINE
  5
256
330
1F
100
AcDbEntity
  8
寸法
  6
Continuous
 62
   120
370
     5
100
AcDbLine
 10
-1576.196518461656
 20
-1587.223792211844
 30
0.0
 11
1657.803481538344
 21
-1587.223792211843
 31
0.0
  0
LINE
  5
257
330
1F
100
AcDbEntity
  8
寸法
  6
Continuous
 62
   120
370
     5
100
AcDbLine
 10
1627.803481538344
 20
-1387.223792211843
 30
0.0
 11
1627.803481538344
 21
-987.2237922118436
 31
0.0
  0
LINE
  5
258
330
1F
100
AcDbEntity
  8
寸法
  6
Continuous
 62
   120
370
     5
100
AcDbLine
 10
-1546.196518461656
 20
-1387.223792211843
 30
0.0
 11
1627.803481538344
 21
-1387.223792211843
 31
0.0
  0
LINE
  5
259
330
1F
100
AcDbEntity
  8
寸法
  6
Continuous
 62
   120
370
     5
100
AcDbLine
 10
-769.1965184616571
 20
-1187.223792211842
 30
0.0
 11
850.8034815383429
 21
-1187.223792211842
 31
0.0
  0
LINE
  5
25A
330
1F
100
AcDbEntity
  8
寸法
  6
Continuous
 62
   120
370
     5
100
AcDbLine
 10
-769.1965184616571
 20
-1187.223792211842
 30
0.0
 11
-769.1965184616571
 21
-987.2237922118436
 31
0.0
  0
LINE
  5
25B
330
1F
100
AcDbEntity
  8
寸法
  6
Continuous
 62
   120
370
     5
100
AcDbLine
 10
40.80348153834294
 20
-1187.223792211842
 30
0.0
 11
40.80348153834294
 21
-987.2237922118436
 31
0.0
  0
LINE
  5
25C
330
1F
100
AcDbEntity
  8
寸法
  6
Continuous
 62
   120
370
     5
100
AcDbLine
 10
-1576.196518461656
 20
-1587.223792211844
 30
0.0
 11
-1576.196518461656
 21
-987.2237922118436
 31
0.0
  0
LINE
  5
25D
330
1F
100
AcDbEntity
  8
寸法
  6
Continuous
 62
   120
370
     5
100
AcDbLine
 10
-1546.196518461656
 20
-1387.223792211843
 30
0.0
 11
-1546.196518461656
 21
-987.2237922118436
 31
0.0
  0
LWPOLYLINE
  5
25E
330
1F
100
AcDbEntity
  8
寸法
  6
Continuous
 62
     7
370
     9
100
AcDbPolyline
 90
        4
 70
     1
 43
3.0
 10
-2024.696518461657
 20
-937.2237922118429
 42
0.4142135623731
 10
-2026.196518461656
 20
-935.7237922118428
 42
0.4142135623731
 10
-2027.696518461656
 20
-937.2237922118429
 42
0.4142135623731
 10
-2026.196518461656
 20
-938.7237922118429
 42
0.4142135623731
  0
LINE
  5
25F
330
1F
100
AcDbEntity
  8
寸法
  6
Continuous
 62
   120
370
     5
100
AcDbLine
 10
-2026.196518461656
 20
-937.2237922118429
 30
0.0
 11
-1626.196518461657
 21
-937.2237922118429
 31
0.0
  0
LINE
  5
260
330
1F
100
AcDbEntity
  8
寸法
  6
Continuous
 62
   120
370
     5
100
AcDbLine
 10
-2026.196518461656
 20
1097.776207788156
 30
0.0
 11
-2026.196518461656
 21
-937.2237922118429
 31
0.0
  0
LINE
  5
261
330
1F
100
AcDbEntity
  8
寸法
  6
Continuous
 62
   120
370
     5
100
AcDbLine
 10
-2026.196518461656
 20
1097.776207788156
 30
0.0
 11
-1626.196518461657
 21
1097.776207788156
 31
0.0
  0
LWPOLYLINE
  5
262
330
1F
100
AcDbEntity
  8
寸法
  6
Continuous
 62
     7
370
     9
100
AcDbPolyline
 90
        4
 70
     1
 43
3.0
 10
-2024.696518461657
 20
1097.776207788156
 42
0.4142135623731
 10
-2026.196518461656
 20
1099.276207788156
 42
0.4142135623731
 10
-2027.696518461656
 20
1097.776207788156
 42
0.4142135623731
 10
-2026.196518461656
 20
1096.276207788157
 42
0.4142135623731
  0
LINE
  5
263
330
1F
100
AcDbEntity
  8
寸法
  6
Continuous
 62
   120
370
     5
100
AcDbLine
 10
-1826.196518461656
 20
1053.776207788155
 30
0.0
 11
-1626.196518461657
 21
1053.776207788155
 31
0.0
  0
LINE
  5
264
330
1F
100
AcDbEntity
  8
寸法
  6
Continuous
 62
   120
370
     5
100
AcDbLine
 10
-1826.196518461656
 20
1053.776207788155
 30
0.0
 11
-1826.196518461656
 21
-929.2237922118443
 31
0.0
  0
LWPOLYLINE
  5
265
330
1F
100
AcDbEntity
  8
寸法
  6
Continuous
 62
     7
370
     9
100
AcDbPolyline
 90
        4
 70
     1
 43
3.0
 10
-1824.696518461656
 20
1053.776207788155
 42
0.4142135623731
 10
-1826.196518461656
 20
1055.276207788155
 42
0.4142135623731
 10
-1827.696518461656
 20
1053.776207788155
 42
0.4142135623731
 10
-1826.196518461656
 20
1052.276207788156
 42
0.4142135623731
  0
LWPOLYLINE
  5
266
330
1F
100
AcDbEntity
  8
寸法
  6
Continuous
 62
     7
370
     9
100
AcDbPolyline
 90
        4
 70
     1
 43
3.0
 10
-1824.696518461656
 20
-929.2237922118443
 42
0.4142135623731
 10
-1826.196518461656
 20
-927.7237922118443
 42
0.4142135623731
 10
-1827.696518461656
 20
-929.2237922118443
 42
0.4142135623731
 10
-1826.196518461656
 20
-930.7237922118443
 42
0.4142135623731
  0
LINE
  5
267
330
1F
100
AcDbEntity
  8
寸法
  6
Continuous
 62
   120
370
     5
100
AcDbLine
 10
-1826.196518461656
 20
-929.2237922118443
 30
0.0
 11
-1626.196518461657
 21
-929.2237922118443
 31
0.0
  0
MTEXT
  5
268
330
1F
100
AcDbEntity
  8
寸法
  6
Continuous
 62
     7
370
    70
100
AcDbMText
 10
-2041.196518461656
 20
-140.3987922118425
 30
0.0
 40
57.14999999999999
 41
412.5
 46
0.0
 71
     7
 72
     1
  1
{\fＭＳ ゴシック|b0|i0|c128|p49;枠外＝2,035}
 11
6.123031769111886E-17
 21
1.0
 31
0.0
 73
     1
 44
1.0
  0
MTEXT
  5
269
330
1F
100
AcDbEntity
  8
寸法
  6
Continuous
 62
     7
370
    70
100
AcDbMText
 10
-1841.196518461656
 20
-146.8987922118434
 30
0.0
 40
57.14999999999999
 41
412.5
 46
0.0
 71
     7
 72
     1
  1
{\fＭＳ ゴシック|b0|i0|c128|p49;ＤＨ＝1,983}
 11
6.123031769111886E-17
 21
1.0
 31
0.0
 73
     1
 44
1.0
  0
MTEXT
  5
26A
330
1F
100
AcDbEntity
  8
寸法
  6
Continuous
 62
     7
370
   211
100
AcDbMText
 10
-532.9465184616571
 20
-1181.148792211842
 30
0.0
 40
57.15
 41
337.5
 46
0.0
 71
     7
 72
     1
  1
{\fＭＳ ゴシック|b0|i0|c128|p49;ＤＷ＝810}
 73
     1
 44
1.0
  0
MTEXT
  5
26B
330
1F
100
AcDbEntity
  8
寸法
  6
Continuous
 62
     7
370
   211
100
AcDbMText
 10
277.0534815383429
 20
-1181.148792211842
 30
0.0
 40
57.15000000000001
 41
337.5000000000001
 46
0.0
 71
     7
 72
     1
  1
{\fＭＳ ゴシック|b0|i0|c128|p49;ＤＷ＝810}
 73
     1
 44
1.0
  0
MTEXT
  5
26C
330
1F
100
AcDbEntity
  8
寸法
  6
Continuous
 62
     7
370
   211
100
AcDbMText
 10
-165.4465184616571
 20
-1381.148792211843
 30
0.0
 40
57.14999999999999
 41
412.5
 46
0.0
 71
     7
 72
     1
  1
{\fＭＳ ゴシック|b0|i0|c128|p49;枠内＝3,174}
 73
     1
 44
1.0
  0
MTEXT
  5
26D
330
1F
100
AcDbEntity
  8
寸法
  6
Continuous
 62
     7
370
   211
100
AcDbMText
 10
-165.4465184616571
 20
-1581.148792211844
 30
0.0
 40
57.14999999999999
 41
412.5
 46
0.0
 71
     7
 72
     1
  1
{\fＭＳ ゴシック|b0|i0|c128|p49;枠外＝3,234}
 73
     1
 44
1.0
  0
ENDSEC
  0
SECTION
  2
OBJECTS
  0
DICTIONARY
  5
C
330
0
100
AcDbDictionary
281
     1
  3
ACAD_GROUP
350
D
  3
ACAD_LAYOUT
350
1A
  3
ACAD_MATERIAL
350
3B
  3
ACAD_MLEADERSTYLE
350
26F
  3
ACAD_MLINESTYLE
350
17
  3
ACAD_PLOTSETTINGS
350
19
  3
ACAD_PLOTSTYLENAME
350
E
  3
ACAD_TABLESTYLE
350
26E
  3
ACAD_VISUALSTYLE
350
2A
  0
DICTIONARY
  5
D
102
{ACAD_REACTORS
330
C
102
}
330
C
100
AcDbDictionary
281
     1
  0
DICTIONARY
  5
1A
102
{ACAD_REACTORS
330
C
102
}
330
C
100
AcDbDictionary
281
     1
  3
Layout1
350
1E
  3
Layout2
350
26
  3
Model
350
22
  0
DICTIONARY
  5
3B
102
{ACAD_REACTORS
330
C
102
}
330
C
100
AcDbDictionary
281
     1
  3
ByBlock
350
3D
  3
ByLayer
350
3C
  3
Global
350
3E
  0
DICTIONARY
  5
26F
102
{ACAD_REACTORS
330
C
102
}
330
C
100
AcDbDictionary
281
     1
  0
DICTIONARY
  5
17
102
{ACAD_REACTORS
330
C
102
}
330
C
100
AcDbDictionary
281
     1
  3
Standard
350
18
  0
DICTIONARY
  5
19
102
{ACAD_REACTORS
330
C
102
}
330
C
100
AcDbDictionary
281
     1
  0
ACDBDICTIONARYWDFLT
  5
E
102
{ACAD_REACTORS
330
C
102
}
330
C
100
AcDbDictionary
281
     1
  3
Normal
350
F
100
AcDbDictionaryWithDefault
340
F
  0
DICTIONARY
  5
26E
102
{ACAD_REACTORS
330
C
102
}
330
C
100
AcDbDictionary
281
     1
  0
DICTIONARY
  5
2A
102
{ACAD_REACTORS
330
C
102
}
330
C
100
AcDbDictionary
281
     1
  3
2dWireframe
350
2F
  3
3D Hidden
350
31
  3
3dWireframe
350
30
  3
Basic
350
32
  3
Brighten
350
36
  3
ColorChange
350
3A
  3
Conceptual
350
34
  3
Dim
350
35
  3
Facepattern
350
39
  3
Flat
350
2B
  3
FlatWithEdges
350
2C
  3
Gouraud
350
2D
  3
GouraudWithEdges
350
2E
  3
Linepattern
350
38
  3
Realistic
350
33
  3
Thicken
350
37
  0
LAYOUT
  5
1E
102
{ACAD_REACTORS
330
1A
102
}
330
1A
100
AcDbPlotSettings
  1

  2
none_device
  4

  6

 40
0.0
 41
0.0
 42
0.0
 43
0.0
 44
0.0
 45
0.0
 46
0.0
 47
0.0
 48
0.0
 49
0.0
140
0.0
141
0.0
142
1.0
143
1.0
 70
   688
 72
     0
 73
     0
 74
     5
  7

 75
    16
 76
     0
 77
     5
 78
   300
147
1.0
148
0.0
149
0.0
100
AcDbLayout
  1
Layout1
 70
     1
 71
     1
 10
0.0
 20
0.0
 11
420.0
 21
297.0
 12
0.0
 22
0.0
 32
0.0
 14
1.000000000000000E+20
 24
1.000000000000000E+20
 34
1.000000000000000E+20
 15
-1.000000000000000E+20
 25
-1.000000000000000E+20
 35
-1.000000000000000E+20
146
0.0
 13
0.0
 23
0.0
 33
0.0
 16
1.0
 26
0.0
 36
0.0
 17
0.0
 27
1.0
 37
0.0
 76
     0
330
1B
  0
LAYOUT
  5
26
102
{ACAD_REACTORS
330
1A
102
}
330
1A
100
AcDbPlotSettings
  1

  2
none_device
  4

  6

 40
0.0
 41
0.0
 42
0.0
 43
0.0
 44
0.0
 45
0.0
 46
0.0
 47
0.0
 48
0.0
 49
0.0
140
0.0
141
0.0
142
1.0
143
1.0
 70
   688
 72
     0
 73
     0
 74
     5
  7

 75
    16
 76
     0
 77
     5
 78
   300
147
1.0
148
0.0
149
0.0
100
AcDbLayout
  1
Layout2
 70
     1
 71
     2
 10
0.0
 20
0.0
 11
0.0
 21
0.0
 12
0.0
 22
0.0
 32
0.0
 14
0.0
 24
0.0
 34
0.0
 15
0.0
 25
0.0
 35
0.0
146
0.0
 13
0.0
 23
0.0
 33
0.0
 16
1.0
 26
0.0
 36
0.0
 17
0.0
 27
1.0
 37
0.0
 76
     0
330
23
  0
LAYOUT
  5
22
102
{ACAD_REACTORS
330
1A
102
}
330
1A
100
AcDbPlotSettings
  1

  2
none_device
  4

  6

 40
0.0
 41
0.0
 42
0.0
 43
0.0
 44
0.0
 45
0.0
 46
0.0
 47
0.0
 48
0.0
 49
0.0
140
0.0
141
0.0
142
1.0
143
1.0
 70
  1712
 72
     0
 73
     0
 74
     0
  7

 75
     0
 76
     0
 77
     5
 78
   300
147
1.0
148
0.0
149
0.0
100
AcDbLayout
  1
Model
 70
     1
 71
     0
 10
-4455.0
 20
-3150.0
 11
4455.0
 21
3150.0
 12
0.0
 22
0.0
 32
0.0
 14
-4455.0
 24
-3150.0
 34
0.0
 15
4455.0
 25
3150.0
 35
0.0
146
0.0
 13
0.0
 23
0.0
 33
0.0
 16
1.0
 26
0.0
 36
0.0
 17
0.0
 27
1.0
 37
0.0
 76
     0
330
1F
331
29
  0
MATERIAL
  5
3D
102
{ACAD_REACTORS
330
3B
102
}
330
3B
100
AcDbMaterial
  1
ByBlock
 72
     1
 94
      127
  0
MATERIAL
  5
3C
102
{ACAD_REACTORS
330
3B
102
}
330
3B
100
AcDbMaterial
  1
ByLayer
 72
     1
 94
      127
  0
MATERIAL
  5
3E
102
{ACAD_REACTORS
330
3B
102
}
330
3B
100
AcDbMaterial
  1
Global
 72
     1
 94
      127
  0
MLINESTYLE
  5
18
102
{ACAD_REACTORS
330
17
102
}
330
17
100
AcDbMlineStyle
  2
Standard
 70
     0
  3

 62
   256
 51
90.0
 52
90.0
 71
     2
 49
0.5
 62
   256
  6
BYLAYER
 49
-0.5
 62
   256
  6
BYLAYER
  0
ACDBPLACEHOLDER
  5
F
102
{ACAD_REACTORS
330
E
102
}
330
E
  0
VISUALSTYLE
  5
2F
102
{ACAD_REACTORS
330
2A
102
}
330
2A
100
AcDbVisualStyle
  2
2dWireframe
 70
     4
177
     2
291
     0
 71
     0
176
     1
 72
     2
176
     1
 73
     0
176
     1
 90
        0
176
     1
 40
-0.6
176
     1
 41
-30.0
176
     1
 62
     5
 63
     7
421
 16777215
176
     1
 74
     1
176
     1
 91
        4
176
     1
 64
     7
176
     1
 65
   257
176
     1
 75
     1
176
     1
175
     1
176
     1
 42
1.0
176
     1
 92
        0
176
     1
 66
   257
176
     1
 43
1.0
176
     1
 76
     1
176
     1
 77
     6
176
     1
 78
     2
176
     1
 67
     7
176
     1
 79
     5
176
     1
170
     0
176
     1
171
     0
176
     1
290
     0
176
     1
 93
        1
176
     1
 44
0.0
176
     1
173
     0
176
     1
  0
VISUALSTYLE
  5
31
102
{ACAD_REACTORS
330
2A
102
}
330
2A
100
AcDbVisualStyle
  2
3D Hidden
 70
     6
177
     2
291
     0
 71
     1
176
     1
 72
     2
176
     1
 73
     2
176
     1
 90
        0
176
     1
 40
-0.6
176
     1
 41
-30.0
176
     1
 62
     5
 63
     7
421
 16777215
176
     1
 74
     2
176
     1
 91
        2
176
     1
 64
     7
176
     1
 65
   257
176
     1
 75
     2
176
     1
175
     1
176
     1
 42
40.0
176
     1
 92
        0
176
     1
 66
   257
176
     1
 43
1.0
176
     1
 76
     1
176
     1
 77
     6
176
     1
 78
     2
176
     1
 67
     7
176
     1
 79
     3
176
     1
170
     0
176
     1
171
     0
176
     1
290
     0
176
     1
 93
        1
176
     1
 44
0.0
176
     1
173
     0
176
     1
  0
VISUALSTYLE
  5
30
102
{ACAD_REACTORS
330
2A
102
}
330
2A
100
AcDbVisualStyle
  2
3dWireframe
 70
     5
177
     2
291
     0
 71
     0
176
     1
 72
     2
176
     1
 73
     0
176
     1
 90
        0
176
     1
 40
-0.6
176
     1
 41
-30.0
176
     1
 62
     5
 63
     7
421
 16777215
176
     1
 74
     1
176
     1
 91
        4
176
     1
 64
     7
176
     1
 65
   257
176
     1
 75
     1
176
     1
175
     1
176
     1
 42
1.0
176
     1
 92
        0
176
     1
 66
   257
176
     1
 43
1.0
176
     1
 76
     1
176
     1
 77
     6
176
     1
 78
     2
176
     1
 67
     7
176
     1
 79
     5
176
     1
170
     0
176
     1
171
     0
176
     1
290
     0
176
     1
 93
        1
176
     1
 44
0.0
176
     1
173
     0
176
     1
  0
VISUALSTYLE
  5
32
102
{ACAD_REACTORS
330
2A
102
}
330
2A
100
AcDbVisualStyle
  2
Basic
 70
     7
177
     2
291
     1
 71
     1
176
     1
 72
     0
176
     1
 73
     1
176
     1
 90
        0
176
     1
 40
-0.6
176
     1
 41
-30.0
176
     1
 62
     5
 63
     7
421
 16777215
176
     1
 74
     0
176
     1
 91
        4
176
     1
 64
     7
176
     1
 65
   257
176
     1
 75
     1
176
     1
175
     1
176
     1
 42
1.0
176
     1
 92
        8
176
     1
 66
     7
176
     1
 43
1.0
176
     1
 76
     1
176
     1
 77
     6
176
     1
 78
     2
176
     1
 67
     7
176
     1
 79
     5
176
     1
170
     0
176
     1
171
     0
176
     1
290
     0
176
     1
 93
        1
176
     1
 44
0.0
176
     1
173
     0
176
     1
  0
VISUALSTYLE
  5
36
102
{ACAD_REACTORS
330
2A
102
}
330
2A
100
AcDbVisualStyle
  2
Brighten
 70
    12
177
     2
291
     1
 71
     2
176
     1
 72
     2
176
     1
 73
     0
176
     1
 90
        0
176
     1
 40
-0.6
176
     1
 41
-30.0
176
     1
 62
     5
 63
     7
421
 16777215
176
     1
 74
     1
176
     1
 91
        4
176
     1
 64
     7
176
     1
 65
   257
176
     1
 75
     1
176
     1
175
     1
176
     1
 42
1.0
176
     1
 92
        8
176
     1
 66
     7
176
     1
 43
1.0
176
     1
 76
     1
176
     1
 77
     6
176
     1
 78
     2
176
     1
 67
     7
176
     1
 79
     5
176
     1
170
     0
176
     1
171
     0
176
     1
290
     0
176
     1
 93
        1
176
     1
 44
50.0
176
     1
173
     0
176
     1
  0
VISUALSTYLE
  5
3A
102
{ACAD_REACTORS
330
2A
102
}
330
2A
100
AcDbVisualStyle
  2
ColorChange
 70
    16
177
     2
291
     1
 71
     2
176
     1
 72
     2
176
     1
 73
     3
176
     1
 90
        0
176
     1
 40
-0.6
176
     1
 41
-30.0
176
     1
 62
     5
 63
     8
421
  8421504
176
     1
 74
     1
176
     1
 91
        4
176
     1
 64
     7
176
     1
 65
   257
176
     1
 75
     1
176
     1
175
     1
176
     1
 42
1.0
176
     1
 92
        8
176
     1
 66
     8
424
  8421504
176
     1
 43
1.0
176
     1
 76
     1
176
     1
 77
     6
176
     1
 78
     2
176
     1
 67
     7
176
     1
 79
     5
176
     1
170
     0
176
     1
171
     0
176
     1
290
     0
176
     1
 93
        1
176
     1
 44
0.0
176
     1
173
     0
176
     1
  0
VISUALSTYLE
  5
34
102
{ACAD_REACTORS
330
2A
102
}
330
2A
100
AcDbVisualStyle
  2
Conceptual
 70
     9
177
     2
291
     0
 71
     3
176
     1
 72
     2
176
     1
 73
     0
176
     1
 90
        0
176
     1
 40
-0.6
176
     1
 41
-30.0
176
     1
 62
     5
 63
     7
421
 16777215
176
     1
 74
     2
176
     1
 91
        2
176
     1
 64
     7
176
     1
 65
   257
176
     1
 75
     1
176
     1
175
     1
176
     1
 42
40.0
176
     1
 92
        8
176
     1
 66
     7
176
     1
 43
1.0
176
     1
 76
     1
176
     1
 77
     6
176
     1
 78
     2
176
     1
 67
     7
176
     1
 79
     3
176
     1
170
     0
176
     1
171
     0
176
     1
290
     0
176
     1
 93
        1
176
     1
 44
0.0
176
     1
173
     0
176
     1
  0
VISUALSTYLE
  5
35
102
{ACAD_REACTORS
330
2A
102
}
330
2A
100
AcDbVisualStyle
  2
Dim
 70
    11
177
     2
291
     1
 71
     2
176
     1
 72
     2
176
     1
 73
     0
176
     1
 90
        0
176
     1
 40
-0.6
176
     1
 41
-30.0
176
     1
 62
     5
 63
     7
421
 16777215
176
     1
 74
     1
176
     1
 91
        4
176
     1
 64
     7
176
     1
 65
   257
176
     1
 75
     1
176
     1
175
     1
176
     1
 42
1.0
176
     1
 92
        8
176
     1
 66
     7
176
     1
 43
1.0
176
     1
 76
     1
176
     1
 77
     6
176
     1
 78
     2
176
     1
 67
     7
176
     1
 79
     5
176
     1
170
     0
176
     1
171
     0
176
     1
290
     0
176
     1
 93
        1
176
     1
 44
-50.0
176
     1
173
     0
176
     1
  0
VISUALSTYLE
  5
39
102
{ACAD_REACTORS
330
2A
102
}
330
2A
100
AcDbVisualStyle
  2
Facepattern
 70
    15
177
     2
291
     1
 71
     2
176
     1
 72
     2
176
     1
 73
     0
176
     1
 90
        0
176
     1
 40
-0.6
176
     1
 41
-30.0
176
     1
 62
     5
 63
     7
421
 16777215
176
     1
 74
     1
176
     1
 91
        4
176
     1
 64
     7
176
     1
 65
   257
176
     1
 75
     1
176
     1
175
     1
176
     1
 42
1.0
176
     1
 92
        8
176
     1
 66
     7
176
     1
 43
1.0
176
     1
 76
     1
176
     1
 77
     6
176
     1
 78
     2
176
     1
 67
     7
176
     1
 79
     5
176
     1
170
     0
176
     1
171
     0
176
     1
290
     0
176
     1
 93
        1
176
     1
 44
0.0
176
     1
173
     0
176
     1
  0
VISUALSTYLE
  5
2B
102
{ACAD_REACTORS
330
2A
102
}
330
2A
100
AcDbVisualStyle
  2
Flat
 70
     0
177
     2
291
     1
 71
     2
176
     1
 72
     1
176
     1
 73
     1
176
     1
 90
        2
176
     1
 40
-0.6
176
     1
 41
30.0
176
     1
 62
     5
 63
     7
421
 16777215
176
     1
 74
     0
176
     1
 91
        4
176
     1
 64
     7
176
     1
 65
   257
176
     1
 75
     1
176
     1
175
     1
176
     1
 42
1.0
176
     1
 92
        8
176
     1
 66
     7
176
     1
 43
1.0
176
     1
 76
     1
176
     1
 77
     6
176
     1
 78
     2
176
     1
 67
     7
176
     1
 79
     5
176
     1
170
     0
176
     1
171
     0
176
     1
290
     0
176
     1
 93
       13
176
     1
 44
0.0
176
     1
173
     0
176
     1
  0
VISUALSTYLE
  5
2C
102
{ACAD_REACTORS
330
2A
102
}
330
2A
100
AcDbVisualStyle
  2
FlatWithEdges
 70
     1
177
     2
291
     1
 71
     2
176
     1
 72
     1
176
     1
 73
     1
176
     1
 90
        2
176
     1
 40
-0.6
176
     1
 41
30.0
176
     1
 62
     5
 63
     7
421
 16777215
176
     1
 74
     1
176
     1
 91
        4
176
     1
 64
     7
176
     1
 65
   257
176
     1
 75
     1
176
     1
175
     1
176
     1
 42
1.0
176
     1
 92
        0
176
     1
 66
   257
176
     1
 43
1.0
176
     1
 76
     1
176
     1
 77
     6
176
     1
 78
     2
176
     1
 67
     7
176
     1
 79
     5
176
     1
170
     0
176
     1
171
     0
176
     1
290
     0
176
     1
 93
       13
176
     1
 44
0.0
176
     1
173
     0
176
     1
  0
VISUALSTYLE
  5
2D
102
{ACAD_REACTORS
330
2A
102
}
330
2A
100
AcDbVisualStyle
  2
Gouraud
 70
     2
177
     2
291
     1
 71
     2
176
     1
 72
     2
176
     1
 73
     1
176
     1
 90
        2
176
     1
 40
-0.6
176
     1
 41
30.0
176
     1
 62
     5
 63
     7
421
 16777215
176
     1
 74
     0
176
     1
 91
        4
176
     1
 64
     7
176
     1
 65
   257
176
     1
 75
     1
176
     1
175
     1
176
     1
 42
1.0
176
     1
 92
        0
176
     1
 66
     7
176
     1
 43
1.0
176
     1
 76
     1
176
     1
 77
     6
176
     1
 78
     2
176
     1
 67
     7
176
     1
 79
     5
176
     1
170
     0
176
     1
171
     0
176
     1
290
     0
176
     1
 93
       13
176
     1
 44
0.0
176
     1
173
     0
176
     1
  0
VISUALSTYLE
  5
2E
102
{ACAD_REACTORS
330
2A
102
}
330
2A
100
AcDbVisualStyle
  2
GouraudWithEdges
 70
     3
177
     2
291
     1
 71
     2
176
     1
 72
     2
176
     1
 73
     1
176
     1
 90
        2
176
     1
 40
-0.6
176
     1
 41
30.0
176
     1
 62
     5
 63
     7
421
 16777215
176
     1
 74
     1
176
     1
 91
        4
176
     1
 64
     7
176
     1
 65
   257
176
     1
 75
     1
176
     1
175
     1
176
     1
 42
1.0
176
     1
 92
        0
176
     1
 66
   257
176
     1
 43
1.0
176
     1
 76
     1
176
     1
 77
     6
176
     1
 78
     2
176
     1
 67
     7
176
     1
 79
     5
176
     1
170
     0
176
     1
171
     0
176
     1
290
     0
176
     1
 93
       13
176
     1
 44
0.0
176
     1
173
     0
176
     1
  0
VISUALSTYLE
  5
38
102
{ACAD_REACTORS
330
2A
102
}
330
2A
100
AcDbVisualStyle
  2
Linepattern
 70
    14
177
     2
291
     1
 71
     2
176
     1
 72
     2
176
     1
 73
     0
176
     1
 90
        0
176
     1
 40
-0.6
176
     1
 41
-30.0
176
     1
 62
     5
 63
     7
421
 16777215
176
     1
 74
     1
176
     1
 91
        4
176
     1
 64
     7
176
     1
 65
   257
176
     1
 75
     7
176
     1
175
     7
176
     1
 42
1.0
176
     1
 92
        8
176
     1
 66
     7
176
     1
 43
1.0
176
     1
 76
     1
176
     1
 77
     6
176
     1
 78
     2
176
     1
 67
     7
176
     1
 79
     5
176
     1
170
     0
176
     1
171
     0
176
     1
290
     0
176
     1
 93
        1
176
     1
 44
0.0
176
     1
173
     0
176
     1
  0
VISUALSTYLE
  5
33
102
{ACAD_REACTORS
330
2A
102
}
330
2A
100
AcDbVisualStyle
  2
Realistic
 70
     8
177
     2
291
     0
 71
     2
176
     1
 72
     2
176
     1
 73
     0
176
     1
 90
        0
176
     1
 40
-0.6
176
     1
 41
-30.0
176
     1
 62
     5
 63
     7
421
 16777215
176
     1
 74
     1
176
     1
 91
        0
176
     1
 64
     7
176
     1
 65
   257
176
     1
 75
     1
176
     1
175
     1
176
     1
 42
1.0
176
     1
 92
        8
176
     1
 66
     8
424
  7895160
176
     1
 43
1.0
176
     1
 76
     1
176
     1
 77
     6
176
     1
 78
     2
176
     1
 67
     7
176
     1
 79
     5
176
     1
170
     0
176
     1
171
     0
176
     1
290
     0
176
     1
 93
       13
176
     1
 44
0.0
176
     1
173
     0
176
     1
  0
VISUALSTYLE
  5
37
102
{ACAD_REACTORS
330
2A
102
}
330
2A
100
AcDbVisualStyle
  2
Thicken
 70
    13
177
     2
291
     1
 71
     2
176
     1
 72
     2
176
     1
 73
     0
176
     1
 90
        0
176
     1
 40
-0.6
176
     1
 41
-30.0
176
     1
 62
     5
 63
     7
421
 16777215
176
     1
 74
     1
176
     1
 91
        4
176
     1
 64
     7
176
     1
 65
   257
176
     1
 75
     1
176
     1
175
     1
176
     1
 42
1.0
176
     1
 92
       12
176
     1
 66
     7
176
     1
 43
1.0
176
     1
 76
     1
176
     1
 77
     6
176
     1
 78
     2
176
     1
 67
     7
176
     1
 79
     5
176
     1
170
     0
176
     1
171
     0
176
     1
290
     0
176
     1
 93
        1
176
     1
 44
0.0
176
     1
173
     0
176
     1
  0
ENDSEC
  0
EOF
