  0
SECTION
  2
HEADER
  9
$ACADVER
  1
AC1024
  9
$ACADMAINTVER
 70
     6
  9
$DWGCODEPAGE
  3
ANSI_932
  9
$INSBASE
 10
0.0
 20
0.0
 30
0.0
  9
$EXTMIN
 10
-4455.0
 20
-3150.0
 30
0.0
  9
$EXTMAX
 10
4455.0
 20
3150.0
 30
0.0
  9
$LIMMIN
 10
-4455.0
 20
-3150.0
  9
$LIMMAX
 10
4455.0
 20
3150.0
  9
$ORTHOMODE
 70
     0
  9
$REGENMODE
 70
     1
  9
$FILLMODE
 70
     1
  9
$QTEXTMODE
 70
     0
  9
$MIRRTEXT
 70
     1
  9
$LTSCALE
 40
30.0
  9
$ATTMODE
 70
     1
  9
$TEXTSIZE
 40
2.5
  9
$TRACEWID
 40
1.0
  9
$TEXTSTYLE
  7
Standard
  9
$CLAYER
  8
0
  9
$CELTYPE
  6
ByLayer
  9
$CECOLOR
 62
   256
  9
$CELTSCALE
 40
1.0
  9
$DISPSILH
 70
     0
  9
$DIMSCALE
 40
1.0
  9
$DIMASZ
 40
2.5
  9
$DIMEXO
 40
0.625
  9
$DIMDLI
 40
3.75
  9
$DIMRND
 40
0.0
  9
$DIMDLE
 40
0.0
  9
$DIMEXE
 40
1.25
  9
$DIMTP
 40
0.0
  9
$DIMTM
 40
0.0
  9
$DIMTXT
 40
2.5
  9
$DIMCEN
 40
2.5
  9
$DIMTSZ
 40
0.0
  9
$DIMTOL
 70
     0
  9
$DIMLIM
 70
     0
  9
$DIMTIH
 70
     0
  9
$DIMTOH
 70
     0
  9
$DIMSE1
 70
     0
  9
$DIMSE2
 70
     0
  9
$DIMTAD
 70
     1
  9
$DIMZIN
 70
     8
  9
$DIMBLK
  1

  9
$DIMASO
 70
     1
  9
$DIMSHO
 70
     1
  9
$DIMPOST
  1

  9
$DIMAPOST
  1

  9
$DIMALT
 70
     0
  9
$DIMALTD
 70
     3
  9
$DIMALTF
 40
0.03937007874016
  9
$DIMLFAC
 40
1.0
  9
$DIMTOFL
 70
     1
  9
$DIMTVP
 40
0.0
  9
$DIMTIX
 70
     0
  9
$DIMSOXD
 70
     0
  9
$DIMSAH
 70
     0
  9
$DIMBLK1
  1

  9
$DIMBLK2
  1

  9
$DIMSTYLE
  2
ISO-25
  9
$DIMCLRD
 70
     0
  9
$DIMCLRE
 70
     0
  9
$DIMCLRT
 70
     0
  9
$DIMTFAC
 40
1.0
  9
$DIMGAP
 40
0.625
  9
$DIMJUST
 70
     0
  9
$DIMSD1
 70
     0
  9
$DIMSD2
 70
     0
  9
$DIMTOLJ
 70
     0
  9
$DIMTZIN
 70
     8
  9
$DIMALTZ
 70
     0
  9
$DIMALTTZ
 70
     0
  9
$DIMUPT
 70
     0
  9
$DIMDEC
 70
     2
  9
$DIMTDEC
 70
     2
  9
$DIMALTU
 70
     2
  9
$DIMALTTD
 70
     3
  9
$DIMTXSTY
  7
Standard
  9
$DIMAUNIT
 70
     0
  9
$DIMADEC
 70
     0
  9
$DIMALTRND
 40
0.0
  9
$DIMAZIN
 70
     0
  9
$DIMDSEP
 70
    44
  9
$DIMATFIT
 70
     3
  9
$DIMFRAC
 70
     0
  9
$DIMLDRBLK
  1

  9
$DIMLUNIT
 70
     2
  9
$DIMLWD
 70
    -2
  9
$DIMLWE
 70
    -2
  9
$DIMTMOVE
 70
     0
  9
$DIMFXL
 40
1.0
  9
$DIMFXLON
 70
     0
  9
$DIMJOGANG
 40
0.7853981633974483
  9
$DIMTFILL
 70
     0
  9
$DIMTFILLCLR
 70
     0
  9
$DIMARCSYM
 70
     0
  9
$DIMLTYPE
  6

  9
$DIMLTEX1
  6

  9
$DIMLTEX2
  6

  9
$DIMTXTDIRECTION
 70
     0
  9
$LUNITS
 70
     2
  9
$LUPREC
 70
     4
  9
$SKETCHINC
 40
1.0
  9
$FILLETRAD
 40
10.0
  9
$AUNITS
 70
     0
  9
$AUPREC
 70
     0
  9
$MENU
  1
.
  9
$ELEVATION
 40
0.0
  9
$PELEVATION
 40
0.0
  9
$THICKNESS
 40
0.0
  9
$LIMCHECK
 70
     0
  9
$CHAMFERA
 40
10.0
  9
$CHAMFERB
 40
10.0
  9
$CHAMFERC
 40
20.0
  9
$CHAMFERD
 40
0.0
  9
$SKPOLY
 70
     0
  9
$TDCREATE
 40
2457953.400302488
  9
$TDUCREATE
 40
2457953.025302488
  9
$TDUPDATE
 40
2457953.4003025
  9
$TDUUPDATE
 40
2457953.0253025
  9
$TDINDWG
 40
0.0000000116
  9
$TDUSRTIMER
 40
0.0000000116
  9
$USRTIMER
 70
     1
  9
$ANGBASE
 50
0.0
  9
$ANGDIR
 70
     0
  9
$PDMODE
 70
     0
  9
$PDSIZE
 40
0.0
  9
$PLINEWID
 40
0.0
  9
$SPLFRAME
 70
     0
  9
$SPLINETYPE
 70
     6
  9
$SPLINESEGS
 70
     8
  9
$HANDSEED
  5
4F8
  9
$SURFTAB1
 70
     6
  9
$SURFTAB2
 70
     6
  9
$SURFTYPE
 70
     6
  9
$SURFU
 70
     6
  9
$SURFV
 70
     6
  9
$UCSBASE
  2

  9
$UCSNAME
  2

  9
$UCSORG
 10
0.0
 20
0.0
 30
0.0
  9
$UCSXDIR
 10
1.0
 20
0.0
 30
0.0
  9
$UCSYDIR
 10
0.0
 20
1.0
 30
0.0
  9
$UCSORTHOREF
  2

  9
$UCSORTHOVIEW
 70
     0
  9
$UCSORGTOP
 10
0.0
 20
0.0
 30
0.0
  9
$UCSORGBOTTOM
 10
0.0
 20
0.0
 30
0.0
  9
$UCSORGLEFT
 10
0.0
 20
0.0
 30
0.0
  9
$UCSORGRIGHT
 10
0.0
 20
0.0
 30
0.0
  9
$UCSORGFRONT
 10
0.0
 20
0.0
 30
0.0
  9
$UCSORGBACK
 10
0.0
 20
0.0
 30
0.0
  9
$PUCSBASE
  2

  9
$PUCSNAME
  2

  9
$PUCSORG
 10
0.0
 20
0.0
 30
0.0
  9
$PUCSXDIR
 10
1.0
 20
0.0
 30
0.0
  9
$PUCSYDIR
 10
0.0
 20
1.0
 30
0.0
  9
$PUCSORTHOREF
  2

  9
$PUCSORTHOVIEW
 70
     0
  9
$PUCSORGTOP
 10
0.0
 20
0.0
 30
0.0
  9
$PUCSORGBOTTOM
 10
0.0
 20
0.0
 30
0.0
  9
$PUCSORGLEFT
 10
0.0
 20
0.0
 30
0.0
  9
$PUCSORGRIGHT
 10
0.0
 20
0.0
 30
0.0
  9
$PUCSORGFRONT
 10
0.0
 20
0.0
 30
0.0
  9
$PUCSORGBACK
 10
0.0
 20
0.0
 30
0.0
  9
$USERI1
 70
     0
  9
$USERI2
 70
     0
  9
$USERI3
 70
     0
  9
$USERI4
 70
     0
  9
$USERI5
 70
     0
  9
$USERR1
 40
0.0
  9
$USERR2
 40
0.0
  9
$USERR3
 40
0.0
  9
$USERR4
 40
0.0
  9
$USERR5
 40
0.0
  9
$WORLDVIEW
 70
     1
  9
$SHADEDGE
 70
     3
  9
$SHADEDIF
 70
    70
  9
$TILEMODE
 70
     1
  9
$MAXACTVP
 70
    64
  9
$PINSBASE
 10
0.0
 20
0.0
 30
0.0
  9
$PLIMCHECK
 70
     0
  9
$PEXTMIN
 10
1.000000000000000E+20
 20
1.000000000000000E+20
 30
1.000000000000000E+20
  9
$PEXTMAX
 10
-1.000000000000000E+20
 20
-1.000000000000000E+20
 30
-1.000000000000000E+20
  9
$PLIMMIN
 10
0.0
 20
0.0
  9
$PLIMMAX
 10
420.0
 20
297.0
  9
$UNITMODE
 70
     0
  9
$VISRETAIN
 70
     1
  9
$PLINEGEN
 70
     0
  9
$PSLTSCALE
 70
     1
  9
$TREEDEPTH
 70
  3020
  9
$CMLSTYLE
  2
Standard
  9
$CMLJUST
 70
     0
  9
$CMLSCALE
 40
20.0
  9
$PROXYGRAPHICS
 70
     1
  9
$MEASUREMENT
 70
     1
  9
$CELWEIGHT
370
    -1
  9
$ENDCAPS
280
     0
  9
$JOINSTYLE
280
     0
  9
$LWDISPLAY
290
     0
  9
$INSUNITS
 70
     4
  9
$HYPERLINKBASE
  1

  9
$STYLESHEET
  1

  9
$XEDIT
290
     1
  9
$CEPSNTYPE
380
     0
  9
$PSTYLEMODE
290
     1
  9
$FINGERPRINTGUID
  2
{21A7811A-70A8-408C-B66A-6C48C5124491}
  9
$VERSIONGUID
  2
{FAEB1C32-E019-11D5-929B-00C0DF256EC4}
  9
$EXTNAMES
290
     1
  9
$PSVPSCALE
 40
0.0
  9
$OLESTARTUP
290
     0
  9
$SORTENTS
280
   127
  9
$INDEXCTL
280
     0
  9
$HIDETEXT
280
     1
  9
$XCLIPFRAME
280
     2
  9
$HALOGAP
280
     0
  9
$OBSCOLOR
 70
   257
  9
$OBSLTYPE
280
     0
  9
$INTERSECTIONDISPLAY
280
     0
  9
$INTERSECTIONCOLOR
 70
   257
  9
$DIMASSOC
280
     2
  9
$PROJECTNAME
  1

  9
$CAMERADISPLAY
290
     0
  9
$LENSLENGTH
 40
50.0
  9
$CAMERAHEIGHT
 40
0.0
  9
$STEPSPERSEC
 40
2.0
  9
$STEPSIZE
 40
6.0
  9
$3DDWFPREC
 40
2.0
  9
$PSOLWIDTH
 40
5.0
  9
$PSOLHEIGHT
 40
80.0
  9
$LOFTANG1
 40
1.570796326794897
  9
$LOFTANG2
 40
1.570796326794897
  9
$LOFTMAG1
 40
0.0
  9
$LOFTMAG2
 40
0.0
  9
$LOFTPARAM
 70
     7
  9
$LOFTNORMALS
280
     1
  9
$LATITUDE
 40
37.795
  9
$LONGITUDE
 40
-122.394
  9
$NORTHDIRECTION
 40
0.0
  9
$TIMEZONE
 70
 -8000
  9
$LIGHTGLYPHDISPLAY
280
     1
  9
$TILEMODELIGHTSYNCH
280
     1
  9
$SOLIDHIST
280
     1
  9
$SHOWHIST
280
     1
  9
$DWFFRAME
280
     2
  9
$DGNFRAME
280
     2
  9
$REALWORLDSCALE
290
     1
  9
$INTERFERECOLOR
 62
   256
  9
$CSHADOW
280
     0
  9
$SHADOWPLANELOCATION
 40
0.0
  0
ENDSEC
  0
SECTION
  2
CLASSES
  0
CLASS
  1
ACDBDICTIONARYWDFLT
  2
AcDbDictionaryWithDefault
  3
ObjectDBX Classes
 90
        0
 91
        4
280
     0
281
     0
  0
CLASS
  1
VISUALSTYLE
  2
AcDbVisualStyle
  3
ObjectDBX Classes
 90
     4095
 91
        4
280
     0
281
     0
  0
CLASS
  1
MATERIAL
  2
AcDbMaterial
  3
ObjectDBX Classes
 90
     1153
 91
        4
280
     0
281
     0
  0
ENDSEC
  0
SECTION
  2
TABLES
  0
TABLE
  2
VPORT
  5
8
330
0
100
AcDbSymbolTable
 70
     1
  0
VPORT
  5
29
330
8
100
AcDbSymbolTableRecord
100
AcDbViewportTableRecord
  2
*Active
 70
     0
 10
0.0
 20
0.0
 11
1.0
 21
1.0
 12
0.0
 22
0.0
 13
0.0
 23
0.0
 14
10.0
 24
10.0
 15
10.0
 25
10.0
 16
0.0
 26
0.0
 36
1.0
 17
0.0
 27
0.0
 37
0.0
 40
6930.000000000001
 41
1.414285714285714
 42
50.0
 43
0.0
 44
0.0
 50
0.0
 51
0.0
 71
     0
 72
 10000
 73
     1
 74
     3
 75
     0
 76
     0
 77
     0
 78
     0
281
     0
 65
     1
110
0.0
120
0.0
130
0.0
111
1.0
121
0.0
131
0.0
112
0.0
122
1.0
132
0.0
 79
     0
146
0.0
 60
     3
 61
     5
292
     1
282
     1
141
0.0
142
0.0
 63
   250
  0
ENDTAB
  0
TABLE
  2
LTYPE
  5
5
330
0
100
AcDbSymbolTable
 70
     2
  0
LTYPE
  5
14
330
5
100
AcDbSymbolTableRecord
100
AcDbLinetypeTableRecord
  2
ByBlock
 70
     0
  3

 72
    65
 73
     0
 40
0.0
  0
LTYPE
  5
15
330
5
100
AcDbSymbolTableRecord
100
AcDbLinetypeTableRecord
  2
ByLayer
 70
     0
  3

 72
    65
 73
     0
 40
0.0
  0
LTYPE
  5
16
330
5
100
AcDbSymbolTableRecord
100
AcDbLinetypeTableRecord
  2
Continuous
 70
     0
  3
Solid line
 72
    65
 73
     0
 40
0.0
  0
LTYPE
  5
3F
330
5
100
AcDbSymbolTableRecord
100
AcDbLinetypeTableRecord
  2
JWW_DASHED1
 70
     0
  3
-  --  --  --  --  --  --  --  -
 72
    65
 73
     2
 40
1.693333333333333
 49
0.8466666666666667
 74
     0
 49
-0.8466666666666667
 74
     0
  0
ENDTAB
  0
TABLE
  2
LAYER
  5
2
330
0
100
AcDbSymbolTable
 70
     3
  0
LAYER
  5
10
330
2
100
AcDbSymbolTableRecord
100
AcDbLayerTableRecord
  2
0
 70
     0
 62
     7
  6
Continuous
370
    -3
390
F
347
3E
  0
LAYER
  5
40
330
2
100
AcDbSymbolTableRecord
100
AcDbLayerTableRecord
  2
0-0
 70
     0
 62
     7
  6
Continuous
370
    -3
390
F
347
3E
  0
LAYER
  5
41
330
2
100
AcDbSymbolTableRecord
100
AcDbLayerTableRecord
  2
寸法
 70
     0
 62
     7
  6
Continuous
370
    -3
390
F
347
3E
  0
ENDTAB
  0
TABLE
  2
STYLE
  5
3
330
0
100
AcDbSymbolTable
 70
     1
  0
STYLE
  5
11
330
3
100
AcDbSymbolTableRecord
100
AcDbTextStyleTableRecord
  2
Standard
 70
     0
 40
0.0
 41
1.0
 50
0.0
 71
     0
 42
2.5
  3
txt
  4

  0
ENDTAB
  0
TABLE
  2
VIEW
  5
6
330
0
100
AcDbSymbolTable
 70
     0
  0
ENDTAB
  0
TABLE
  2
UCS
  5
7
330
0
100
AcDbSymbolTable
 70
     0
  0
ENDTAB
  0
TABLE
  2
APPID
  5
9
330
0
100
AcDbSymbolTable
 70
     1
  0
APPID
  5
12
330
9
100
AcDbSymbolTableRecord
100
AcDbRegAppTableRecord
  2
ACAD
 70
     0
  0
ENDTAB
  0
TABLE
  2
DIMSTYLE
  5
A
330
0
100
AcDbSymbolTable
 70
     1
100
AcDbDimStyleTable
  0
DIMSTYLE
105
27
330
A
100
AcDbSymbolTableRecord
100
AcDbDimStyleTableRecord
  2
ISO-25
 70
     0
 41
2.5
 42
0.625
 43
3.75
 44
1.25
 73
     0
 74
     0
 77
     1
 78
     8
140
2.5
141
2.5
143
0.03937007874016
147
0.625
171
     3
172
     1
178
     0
271
     2
272
     2
274
     3
278
    44
283
     0
284
     8
340
11
  0
ENDTAB
  0
TABLE
  2
BLOCK_RECORD
  5
1
330
0
100
AcDbSymbolTable
 70
     1
  0
BLOCK_RECORD
  5
1F
330
1
100
AcDbSymbolTableRecord
100
AcDbBlockTableRecord
  2
*Model_Space
340
22
 70
     0
280
     1
281
     0
  0
BLOCK_RECORD
  5
1B
330
1
100
AcDbSymbolTableRecord
100
AcDbBlockTableRecord
  2
*Paper_Space
340
1E
 70
     0
280
     1
281
     0
  0
BLOCK_RECORD
  5
23
330
1
100
AcDbSymbolTableRecord
100
AcDbBlockTableRecord
  2
*Paper_Space0
340
26
 70
     0
280
     1
281
     0
  0
ENDTAB
  0
ENDSEC
  0
SECTION
  2
BLOCKS
  0
BLOCK
  5
20
330
1F
100
AcDbEntity
  8
0
100
AcDbBlockBegin
  2
*Model_Space
 70
     0
 10
0.0
 20
0.0
 30
0.0
  3
*Model_Space
  1

  0
ENDBLK
  5
21
330
1F
100
AcDbEntity
  8
0
100
AcDbBlockEnd
  0
BLOCK
  5
1C
330
1B
100
AcDbEntity
 67
     1
  8
0
100
AcDbBlockBegin
  2
*Paper_Space
 70
     0
 10
0.0
 20
0.0
 30
0.0
  3
*Paper_Space
  1

  0
ENDBLK
  5
1D
330
1B
100
AcDbEntity
 67
     1
  8
0
100
AcDbBlockEnd
  0
BLOCK
  5
24
330
23
100
AcDbEntity
  8
0
100
AcDbBlockBegin
  2
*Paper_Space0
 70
     0
 10
0.0
 20
0.0
 30
0.0
  3
*Paper_Space0
  1

  0
ENDBLK
  5
25
330
23
100
AcDbEntity
  8
0
100
AcDbBlockEnd
  0
ENDSEC
  0
SECTION
  2
ENTITIES
  0
LINE
  5
42
330
1F
100
AcDbEntity
  8
0-0
  6
Continuous
 62
    92
370
    13
100
AcDbLine
 10
-1567.691741501784
 20
-974.3959996945428
 30
0.0
 11
-1597.691741501784
 21
-974.3959996945428
 31
0.0
  0
LINE
  5
43
330
1F
100
AcDbEntity
  8
0-0
  6
Continuous
 62
    92
370
    13
100
AcDbLine
 10
1636.308258498216
 20
-974.3959996945428
 30
0.0
 11
1606.308258498216
 21
-974.3959996945428
 31
0.0
  0
LINE
  5
44
330
1F
100
AcDbEntity
  8
0-0
  6
Continuous
 62
    92
370
    13
100
AcDbLine
 10
-1567.691741501784
 20
1030.604000305457
 30
0.0
 11
1606.308258498216
 21
1030.604000305457
 31
0.0
  0
LINE
  5
45
330
1F
100
AcDbEntity
  8
0-0
  6
Continuous
 62
    92
370
    13
100
AcDbLine
 10
-1597.691741501784
 20
-974.3959996945428
 30
0.0
 11
-1597.691741501784
 21
1060.604000305457
 31
0.0
  0
LINE
  5
46
330
1F
100
AcDbEntity
  8
0-0
  6
Continuous
 62
    92
370
    13
100
AcDbLine
 10
1636.308258498216
 20
-974.3959996945428
 30
0.0
 11
1636.308258498216
 21
1060.604000305457
 31
0.0
  0
LINE
  5
47
330
1F
100
AcDbEntity
  8
0-0
  6
Continuous
 62
    92
370
    13
100
AcDbLine
 10
-1597.691741501784
 20
1060.604000305457
 30
0.0
 11
1636.308258498216
 21
1060.604000305457
 31
0.0
  0
LINE
  5
48
330
1F
100
AcDbEntity
  8
0-0
  6
Continuous
 62
    92
370
    13
100
AcDbLine
 10
-1567.691741501784
 20
-974.3959996945428
 30
0.0
 11
-1567.691741501784
 21
1060.604000305457
 31
0.0
  0
LINE
  5
49
330
1F
100
AcDbEntity
  8
0-0
  6
Continuous
 62
    92
370
    13
100
AcDbLine
 10
1606.308258498216
 20
-974.3959996945428
 30
0.0
 11
1606.308258498216
 21
1060.604000305457
 31
0.0
  0
LINE
  5
4A
330
1F
100
AcDbEntity
  8
0-0
  6
Continuous
 62
    92
370
    13
100
AcDbLine
 10
799.3082584982171
 20
-974.3959996945445
 30
0.0
 11
829.3082584982171
 21
-974.3959996945445
 31
0.0
  0
LINE
  5
4B
330
1F
100
AcDbEntity
  8
0-0
  6
Continuous
 62
    92
370
    13
100
AcDbLine
 10
-790.6917415017846
 20
-974.3959996945445
 30
0.0
 11
-760.6917415017846
 21
-974.3959996945445
 31
0.0
  0
LINE
  5
4C
330
1F
100
AcDbEntity
  8
0-0
  6
Continuous
 62
    92
370
    13
100
AcDbLine
 10
829.3082584982154
 20
1016.604000305456
 30
0.0
 11
19.30825849821545
 21
1016.604000305456
 31
0.0
  0
LINE
  5
4D
330
1F
100
AcDbEntity
  8
0-0
  6
Continuous
 62
    92
370
    13
100
AcDbLine
 10
829.3082584982154
 20
-966.3959996945449
 30
0.0
 11
19.30825849821545
 21
-966.3959996945449
 31
0.0
  0
LINE
  5
4E
330
1F
100
AcDbEntity
  8
0-0
  6
JWW_DASHED1
 62
   120
370
     5
100
AcDbLine
 10
799.3082584982154
 20
-966.3959996945449
 30
0.0
 11
799.3082584982154
 21
1016.604000305456
 31
0.0
  0
LINE
  5
4F
330
1F
100
AcDbEntity
  8
0-0
  6
Continuous
 62
    92
370
    13
100
AcDbLine
 10
829.3082584982154
 20
-966.3959996945449
 30
0.0
 11
829.3082584982154
 21
1016.604000305456
 31
0.0
  0
LINE
  5
50
330
1F
100
AcDbEntity
  8
0-0
  6
Continuous
 62
    92
370
    13
100
AcDbLine
 10
19.30825849821545
 20
-966.3959996945449
 30
0.0
 11
19.30825849821545
 21
1016.604000305456
 31
0.0
  0
LINE
  5
51
330
1F
100
AcDbEntity
  8
0-0
  6
Continuous
 62
    92
370
    13
100
AcDbLine
 10
-790.6917415017846
 20
1016.604000305456
 30
0.0
 11
19.30825849821545
 21
1016.604000305456
 31
0.0
  0
LINE
  5
52
330
1F
100
AcDbEntity
  8
0-0
  6
Continuous
 62
    92
370
    13
100
AcDbLine
 10
-790.6917415017846
 20
-966.3959996945449
 30
0.0
 11
19.30825849821545
 21
-966.3959996945449
 31
0.0
  0
LINE
  5
53
330
1F
100
AcDbEntity
  8
0-0
  6
JWW_DASHED1
 62
   120
370
     5
100
AcDbLine
 10
-760.6917415017846
 20
-966.3959996945449
 30
0.0
 11
-760.6917415017846
 21
1016.604000305456
 31
0.0
  0
LINE
  5
54
330
1F
100
AcDbEntity
  8
0-0
  6
Continuous
 62
    92
370
    13
100
AcDbLine
 10
-790.6917415017846
 20
-966.3959996945449
 30
0.0
 11
-790.6917415017846
 21
1016.604000305456
 31
0.0
  0
LINE
  5
55
330
1F
100
AcDbEntity
  8
0-0
  6
Continuous
 62
     7
370
     9
100
AcDbLine
 10
55.30825849821511
 20
20.70400030545599
 30
0.0
 11
55.30825849821511
 21
-38.49599969454303
 31
0.0
  0
LINE
  5
56
330
1F
100
AcDbEntity
  8
0-0
  6
Continuous
 62
     7
370
     9
100
AcDbLine
 10
85.30825849821511
 20
-38.49599969454303
 30
0.0
 11
85.30825849821511
 21
20.70400030545599
 31
0.0
  0
ARC
  5
57
330
1F
100
AcDbEntity
  8
0-0
  6
Continuous
 62
     7
370
     9
100
AcDbCircle
 10
70.30825849821511
 20
20.70400030545599
 30
0.0
 40
15.0
100
AcDbArc
 50
0.0
 51
180.0
  0
ARC
  5
58
330
1F
100
AcDbEntity
  8
0-0
  6
Continuous
 62
     7
370
     9
100
AcDbCircle
 10
70.30825849821511
 20
-38.49599969454303
 30
0.0
 40
15.0
100
AcDbArc
 50
180.0
 51
0.0
  0
ARC
  5
59
330
1F
100
AcDbEntity
  8
0-0
  6
Continuous
 62
    92
370
    13
100
AcDbCircle
 10
50.80825849821409
 20
-68.39599969454312
 30
0.0
 40
1.5
100
AcDbArc
 50
180.0
 51
270.0
  0
LINE
  5
5A
330
1F
100
AcDbEntity
  8
0-0
  6
Continuous
 62
    92
370
    13
100
AcDbLine
 10
49.30825849821545
 20
-68.39599969454312
 30
0.0
 11
49.30825849821545
 21
50.60400030545608
 31
0.0
  0
LINE
  5
5B
330
1F
100
AcDbEntity
  8
0-0
  6
Continuous
 62
    92
370
    13
100
AcDbLine
 10
50.80825849821409
 20
-69.89599969454602
 30
0.0
 11
89.80825849821613
 21
-69.89599969454602
 31
0.0
  0
ARC
  5
5C
330
1F
100
AcDbEntity
  8
0-0
  6
Continuous
 62
    92
370
    13
100
AcDbCircle
 10
89.80825849821613
 20
-68.39599969454312
 30
0.0
 40
1.5
100
AcDbArc
 50
270.0
 51
0.0
  0
LINE
  5
5D
330
1F
100
AcDbEntity
  8
0-0
  6
Continuous
 62
    92
370
    13
100
AcDbLine
 10
91.30825849821647
 20
-68.39599969454312
 30
0.0
 11
91.30825849821647
 21
50.60400030545608
 31
0.0
  0
ARC
  5
5E
330
1F
100
AcDbEntity
  8
0-0
  6
Continuous
 62
    92
370
    13
100
AcDbCircle
 10
89.80825849821613
 20
50.60400030545608
 30
0.0
 40
1.5
100
AcDbArc
 50
0.0
 51
90.00000000000001
  0
LINE
  5
5F
330
1F
100
AcDbEntity
  8
0-0
  6
Continuous
 62
    92
370
    13
100
AcDbLine
 10
89.80825849821613
 20
52.10400030545642
 30
0.0
 11
50.80825849821409
 21
52.10400030545642
 31
0.0
  0
ARC
  5
60
330
1F
100
AcDbEntity
  8
0-0
  6
Continuous
 62
    92
370
    13
100
AcDbCircle
 10
50.80825849821409
 20
50.60400030545608
 30
0.0
 40
1.5
100
AcDbArc
 50
90.0
 51
180.0
  0
LINE
  5
61
330
1F
100
AcDbEntity
  8
0-0
  6
Continuous
 62
     7
370
     9
100
AcDbLine
 10
-46.6917415017825
 20
20.70400030545599
 30
0.0
 11
-46.6917415017825
 21
-38.49599969454303
 31
0.0
  0
LINE
  5
62
330
1F
100
AcDbEntity
  8
0-0
  6
Continuous
 62
     7
370
     9
100
AcDbLine
 10
-16.6917415017825
 20
-38.49599969454303
 30
0.0
 11
-16.6917415017825
 21
20.70400030545599
 31
0.0
  0
ARC
  5
63
330
1F
100
AcDbEntity
  8
0-0
  6
Continuous
 62
     7
370
     9
100
AcDbCircle
 10
-31.6917415017825
 20
20.70400030545599
 30
0.0
 40
15.0
100
AcDbArc
 50
0.0
 51
180.0
  0
ARC
  5
64
330
1F
100
AcDbEntity
  8
0-0
  6
Continuous
 62
     7
370
     9
100
AcDbCircle
 10
-31.6917415017825
 20
-38.49599969454303
 30
0.0
 40
15.0
100
AcDbArc
 50
180.0
 51
0.0
  0
ARC
  5
65
330
1F
100
AcDbEntity
  8
0-0
  6
Continuous
 62
    92
370
    13
100
AcDbCircle
 10
-51.19174150178182
 20
-68.39599969454312
 30
0.0
 40
1.5
100
AcDbArc
 50
180.0
 51
270.0
  0
LINE
  5
66
330
1F
100
AcDbEntity
  8
0-0
  6
Continuous
 62
    92
370
    13
100
AcDbLine
 10
-52.69174150178216
 20
-68.39599969454312
 30
0.0
 11
-52.69174150178216
 21
50.60400030545608
 31
0.0
  0
LINE
  5
67
330
1F
100
AcDbEntity
  8
0-0
  6
Continuous
 62
    92
370
    13
100
AcDbLine
 10
-51.19174150178182
 20
-69.89599969454602
 30
0.0
 11
-12.19174150178318
 21
-69.89599969454602
 31
0.0
  0
ARC
  5
68
330
1F
100
AcDbEntity
  8
0-0
  6
Continuous
 62
    92
370
    13
100
AcDbCircle
 10
-12.19174150178318
 20
-68.39599969454312
 30
0.0
 40
1.5
100
AcDbArc
 50
270.0
 51
0.0
  0
LINE
  5
69
330
1F
100
AcDbEntity
  8
0-0
  6
Continuous
 62
    92
370
    13
100
AcDbLine
 10
-10.69174150178284
 20
-68.39599969454312
 30
0.0
 11
-10.69174150178284
 21
50.60400030545608
 31
0.0
  0
ARC
  5
6A
330
1F
100
AcDbEntity
  8
0-0
  6
Continuous
 62
    92
370
    13
100
AcDbCircle
 10
-12.19174150178318
 20
50.60400030545608
 30
0.0
 40
1.5
100
AcDbArc
 50
0.0
 51
90.00000000000001
  0
LINE
  5
6B
330
1F
100
AcDbEntity
  8
0-0
  6
Continuous
 62
    92
370
    13
100
AcDbLine
 10
-12.19174150178318
 20
52.10400030545642
 30
0.0
 11
-51.19174150178182
 21
52.10400030545642
 31
0.0
  0
ARC
  5
6C
330
1F
100
AcDbEntity
  8
0-0
  6
Continuous
 62
    92
370
    13
100
AcDbCircle
 10
-51.19174150178182
 20
50.60400030545608
 30
0.0
 40
1.5
100
AcDbArc
 50
90.0
 51
180.0
  0
LINE
  5
6D
330
1F
100
AcDbEntity
  8
0-0
  6
JWW_DASHED1
 62
   120
370
     5
100
AcDbLine
 10
-760.6917415017829
 20
-966.3959996945449
 30
0.0
 11
-760.6917415017829
 21
1030.604000305457
 31
0.0
  0
LINE
  5
6E
330
1F
100
AcDbEntity
  8
0-0
  6
JWW_DASHED1
 62
   120
370
     5
100
AcDbLine
 10
-790.6917415017829
 20
-966.3959996945449
 30
0.0
 11
-790.6917415017829
 21
1030.604000305457
 31
0.0
  0
LINE
  5
6F
330
1F
100
AcDbEntity
  8
0-0
  6
JWW_DASHED1
 62
   120
370
     5
100
AcDbLine
 10
829.3082584982171
 20
-966.3959996945449
 30
0.0
 11
829.3082584982171
 21
1030.604000305457
 31
0.0
  0
LINE
  5
70
330
1F
100
AcDbEntity
  8
0-0
  6
JWW_DASHED1
 62
   120
370
     5
100
AcDbLine
 10
799.3082584982171
 20
-966.3959996945449
 30
0.0
 11
799.3082584982171
 21
1030.604000305457
 31
0.0
  0
LINE
  5
71
330
1F
100
AcDbEntity
  8
0-0
  6
Continuous
 62
    92
370
    13
100
AcDbLine
 10
829.3082584982171
 20
-966.3959996945449
 30
0.0
 11
829.3082584982171
 21
-974.3959996945445
 31
0.0
  0
LINE
  5
72
330
1F
100
AcDbEntity
  8
0-0
  6
Continuous
 62
    92
370
    13
100
AcDbLine
 10
799.3082584982171
 20
-966.3959996945449
 30
0.0
 11
799.3082584982171
 21
-974.3959996945445
 31
0.0
  0
LINE
  5
73
330
1F
100
AcDbEntity
  8
0-0
  6
Continuous
 62
    92
370
    13
100
AcDbLine
 10
-760.6917415017846
 20
-966.3959996945449
 30
0.0
 11
-760.6917415017846
 21
-974.3959996945445
 31
0.0
  0
LINE
  5
74
330
1F
100
AcDbEntity
  8
0-0
  6
Continuous
 62
    92
370
    13
100
AcDbLine
 10
-790.6917415017846
 20
-966.3959996945449
 30
0.0
 11
-790.6917415017846
 21
-974.3959996945445
 31
0.0
  0
LINE
  5
75
330
1F
100
AcDbEntity
  8
0-0
  6
Continuous
 62
    92
370
    13
100
AcDbLine
 10
719.3082584982166
 20
-825.3959996945445
 30
0.0
 11
129.308258498216
 21
-825.3959996945445
 31
0.0
  0
LINE
  5
76
330
1F
100
AcDbEntity
  8
0-0
  6
Continuous
 62
    92
370
    13
100
AcDbLine
 10
-90.69174150178341
 20
-825.3959996945445
 30
0.0
 11
-680.6917415017823
 21
-825.3959996945445
 31
0.0
  0
LINE
  5
77
330
1F
100
AcDbEntity
  8
0-0
  6
Continuous
 62
    92
370
    13
100
AcDbLine
 10
-90.69174150178341
 20
1016.604000305455
 30
0.0
 11
-90.69174150178341
 21
-966.3959996945446
 31
0.0
  0
LINE
  5
78
330
1F
100
AcDbEntity
  8
0-0
  6
Continuous
 62
    92
370
    13
100
AcDbLine
 10
129.308258498216
 20
1016.604000305455
 30
0.0
 11
129.308258498216
 21
-966.3959996945446
 31
0.0
  0
LINE
  5
79
330
1F
100
AcDbEntity
  8
0-0
  6
Continuous
 62
    92
370
    13
100
AcDbLine
 10
719.3082584982166
 20
1016.604000305455
 30
0.0
 11
719.3082584982166
 21
-966.3959996945446
 31
0.0
  0
LINE
  5
7A
330
1F
100
AcDbEntity
  8
0-0
  6
Continuous
 62
    92
370
    13
100
AcDbLine
 10
-680.6917415017823
 20
1016.604000305455
 30
0.0
 11
-680.6917415017823
 21
-966.3959996945446
 31
0.0
  0
LINE
  5
7B
330
1F
100
AcDbEntity
  8
0-0
  6
Continuous
 62
    92
370
    13
100
AcDbLine
 10
-680.6917415017823
 20
881.6040003054549
 30
0.0
 11
-90.69174150178341
 21
881.6040003054549
 31
0.0
  0
LINE
  5
7C
330
1F
100
AcDbEntity
  8
0-0
  6
Continuous
 62
    92
370
    13
100
AcDbLine
 10
129.308258498216
 20
881.6040003054549
 30
0.0
 11
719.3082584982166
 21
881.6040003054549
 31
0.0
  0
LINE
  5
7D
330
1F
100
AcDbEntity
  8
0-0
  6
Continuous
 62
    92
370
    13
100
AcDbLine
 10
-430.6917415017846
 20
881.6040003054549
 30
0.0
 11
-430.6917415017846
 21
-825.3959996945447
 31
0.0
  0
LINE
  5
7E
330
1F
100
AcDbEntity
  8
0-0
  6
Continuous
 62
    92
370
    13
100
AcDbLine
 10
-340.6917415017846
 20
881.6040003054549
 30
0.0
 11
-340.6917415017846
 21
-825.3959996945447
 31
0.0
  0
LINE
  5
7F
330
1F
100
AcDbEntity
  8
0-0
  6
Continuous
 62
    92
370
    13
100
AcDbLine
 10
379.3082584982171
 20
881.6040003054549
 30
0.0
 11
379.3082584982171
 21
-825.3959996945447
 31
0.0
  0
LINE
  5
80
330
1F
100
AcDbEntity
  8
0-0
  6
Continuous
 62
    92
370
    13
100
AcDbLine
 10
469.3082584982171
 20
881.6040003054549
 30
0.0
 11
469.3082584982171
 21
-825.3959996945447
 31
0.0
  0
LINE
  5
81
330
1F
100
AcDbEntity
  8
0-0
  6
JWW_DASHED1
 62
   120
370
     5
100
AcDbLine
 10
-95.18229985170123
 20
-825.3959996945508
 30
0.0
 11
-90.69174150177659
 21
-820.9054413446274
 31
0.0
  0
LINE
  5
82
330
1F
100
AcDbEntity
  8
0-0
  6
JWW_DASHED1
 62
   120
370
     5
100
AcDbLine
 10
-102.2533676649833
 20
-825.395999694547
 30
0.0
 11
-90.69174150178
 21
-813.8343735313463
 31
0.0
  0
LINE
  5
83
330
1F
100
AcDbEntity
  8
0-0
  6
JWW_DASHED1
 62
   120
370
     5
100
AcDbLine
 10
-109.3244354782654
 20
-825.3959996945432
 30
0.0
 11
-90.69174150178682
 21
-806.763305718065
 31
0.0
  0
LINE
  5
84
330
1F
100
AcDbEntity
  8
0-0
  6
JWW_DASHED1
 62
   120
370
     5
100
AcDbLine
 10
-116.395503291544
 20
-825.3959996945393
 30
0.0
 11
-90.69174150179023
 21
-799.6922379047834
 31
0.0
  0
LINE
  5
85
330
1F
100
AcDbEntity
  8
0-0
  6
JWW_DASHED1
 62
   120
370
     5
100
AcDbLine
 10
-123.4665711048295
 20
-825.3959996945357
 30
0.0
 11
-90.69174150179364
 21
-792.6211700915021
 31
0.0
  0
LINE
  5
86
330
1F
100
AcDbEntity
  8
0-0
  6
JWW_DASHED1
 62
   120
370
     5
100
AcDbLine
 10
-130.5376389181218
 20
-825.3959996945453
 30
0.0
 11
-90.69174150178
 21
-785.5501022782043
 31
0.0
  0
LINE
  5
87
330
1F
100
AcDbEntity
  8
0-0
  6
JWW_DASHED1
 62
   120
370
     5
100
AcDbLine
 10
-137.6087067314039
 20
-825.395999694541
 30
0.0
 11
-90.69174150178682
 21
-778.4790344649231
 31
0.0
  0
LINE
  5
88
330
1F
100
AcDbEntity
  8
0-0
  6
JWW_DASHED1
 62
   120
370
     5
100
AcDbLine
 10
-144.679774544686
 20
-825.3959996945367
 30
0.0
 11
-90.69174150179023
 21
-771.4079666516415
 31
0.0
  0
LINE
  5
89
330
1F
100
AcDbEntity
  8
0-0
  6
JWW_DASHED1
 62
   120
370
     5
100
AcDbLine
 10
-151.7508423579271
 20
-825.3959996945479
 30
0.0
 11
-90.69174150178341
 21
-764.336898838404
 31
0.0
  0
LINE
  5
8A
330
1F
100
AcDbEntity
  8
0-0
  6
JWW_DASHED1
 62
   120
370
     5
100
AcDbLine
 10
-158.8219101712092
 20
-825.395999694544
 30
0.0
 11
-90.69174150178682
 21
-757.2658310251225
 31
0.0
  0
LINE
  5
8B
330
1F
100
AcDbEntity
  8
0-0
  6
JWW_DASHED1
 62
   120
370
     5
100
AcDbLine
 10
-165.8929779844912
 20
-825.3959996945401
 30
0.0
 11
-90.69174150179023
 21
-750.1947632118408
 31
0.0
  0
LINE
  5
8C
330
1F
100
AcDbEntity
  8
0-0
  6
JWW_DASHED1
 62
   120
370
     5
100
AcDbLine
 10
-172.9640457977733
 20
-825.3959996945364
 30
0.0
 11
-90.69174150179364
 21
-743.1236953985597
 31
0.0
  0
LINE
  5
8D
330
1F
100
AcDbEntity
  8
0-0
  6
JWW_DASHED1
 62
   120
370
     5
100
AcDbLine
 10
-180.0351136110656
 20
-825.3959996945428
 30
0.0
 11
-90.69174150178341
 21
-736.0526275852616
 31
0.0
  0
LINE
  5
8E
330
1F
100
AcDbEntity
  8
0-0
  6
JWW_DASHED1
 62
   120
370
     5
100
AcDbLine
 10
-187.1061814243443
 20
-825.3959996945387
 30
0.0
 11
-90.69174150178682
 21
-728.9815597719802
 31
0.0
  0
LINE
  5
8F
330
1F
100
AcDbEntity
  8
0-0
  6
JWW_DASHED1
 62
   120
370
     5
100
AcDbLine
 10
-194.1772492376502
 20
-825.3959996945568
 30
0.0
 11
-90.69174150177659
 21
-721.910491958684
 31
0.0
  0
LINE
  5
90
330
1F
100
AcDbEntity
  8
0-0
  6
JWW_DASHED1
 62
   120
370
     5
100
AcDbLine
 10
-201.2483170509289
 20
-825.395999694553
 30
0.0
 11
-90.69174150178
 21
-714.8394241454024
 31
0.0
  0
LINE
  5
91
330
1F
100
AcDbEntity
  8
0-0
  6
JWW_DASHED1
 62
   120
370
     5
100
AcDbLine
 10
-208.3193848642144
 20
-825.3959996945493
 30
0.0
 11
-90.69174150178341
 21
-707.7683563321211
 31
0.0
  0
LINE
  5
92
330
1F
100
AcDbEntity
  8
0-0
  6
JWW_DASHED1
 62
   120
370
     5
100
AcDbLine
 10
-215.390452677435
 20
-825.3959996945413
 30
0.0
 11
-90.69174150179364
 21
-700.6972885188987
 31
0.0
  0
LINE
  5
93
330
1F
100
AcDbEntity
  8
0-0
  6
JWW_DASHED1
 62
   120
370
     5
100
AcDbLine
 10
-222.4615204907239
 20
-825.3959996945448
 30
0.0
 11
-90.69174150178
 21
-693.6262207056013
 31
0.0
  0
LINE
  5
94
330
1F
100
AcDbEntity
  8
0-0
  6
JWW_DASHED1
 62
   120
370
     5
100
AcDbLine
 10
-229.532588304006
 20
-825.3959996945406
 30
0.0
 11
-90.69174150178341
 21
-686.5551528923188
 31
0.0
  0
LINE
  5
95
330
1F
100
AcDbEntity
  8
0-0
  6
JWW_DASHED1
 62
   120
370
     5
100
AcDbLine
 10
-236.6036561172881
 20
-825.3959996945364
 30
0.0
 11
-90.69174150178682
 21
-679.4840850790374
 31
0.0
  0
LINE
  5
96
330
1F
100
AcDbEntity
  8
0-0
  6
JWW_DASHED1
 62
   120
370
     5
100
AcDbLine
 10
-243.674723930594
 20
-825.3959996945576
 30
0.0
 11
-90.69174150177659
 21
-672.4130172657415
 31
0.0
  0
LINE
  5
97
330
1F
100
AcDbEntity
  8
0-0
  6
JWW_DASHED1
 62
   120
370
     5
100
AcDbLine
 10
-250.7457917438761
 20
-825.395999694554
 30
0.0
 11
-90.69174150178
 21
-665.3419494524603
 31
0.0
  0
LINE
  5
98
330
1F
100
AcDbEntity
  8
0-0
  6
JWW_DASHED1
 62
   120
370
     5
100
AcDbLine
 10
-257.8168595571582
 20
-825.39599969455
 30
0.0
 11
-90.69174150178682
 21
-658.2708816391788
 31
0.0
  0
LINE
  5
99
330
1F
100
AcDbEntity
  8
0-0
  6
JWW_DASHED1
 62
   120
370
     5
100
AcDbLine
 10
-264.8879273704368
 20
-825.3959996945462
 30
0.0
 11
-90.69174150179023
 21
-651.1998138258974
 31
0.0
  0
LINE
  5
9A
330
1F
100
AcDbEntity
  8
0-0
  6
JWW_DASHED1
 62
   120
370
     5
100
AcDbLine
 10
-271.9589951837223
 20
-825.3959996945428
 30
0.0
 11
-90.69174150179364
 21
-644.128746012616
 31
0.0
  0
LINE
  5
9B
330
1F
100
AcDbEntity
  8
0-0
  6
JWW_DASHED1
 62
   120
370
     5
100
AcDbLine
 10
-279.0300629969464
 20
-825.3959996945384
 30
0.0
 11
-90.69174150178682
 21
-637.0576781993759
 31
0.0
  0
LINE
  5
9C
330
1F
100
AcDbEntity
  8
0-0
  6
JWW_DASHED1
 62
   120
370
     5
100
AcDbLine
 10
-286.1011308102285
 20
-825.3959996945342
 30
0.0
 11
-90.69174150179023
 21
-629.9866103860948
 31
0.0
  0
LINE
  5
9D
330
1F
100
AcDbEntity
  8
0-0
  6
JWW_DASHED1
 62
   120
370
     5
100
AcDbLine
 10
-293.1721986235378
 20
-825.3959996945584
 30
0.0
 11
-90.69174150178
 21
-622.9155425727994
 31
0.0
  0
LINE
  5
9E
330
1F
100
AcDbEntity
  8
0-0
  6
JWW_DASHED1
 62
   120
370
     5
100
AcDbLine
 10
-300.2432664368199
 20
-825.3959996945549
 30
0.0
 11
-90.69174150178341
 21
-615.8444747595178
 31
0.0
  0
LINE
  5
9F
330
1F
100
AcDbEntity
  8
0-0
  6
JWW_DASHED1
 62
   120
370
     5
100
AcDbLine
 10
-307.314334250102
 20
-825.3959996945508
 30
0.0
 11
-90.69174150178682
 21
-608.7734069462364
 31
0.0
  0
LINE
  5
A0
330
1F
100
AcDbEntity
  8
0-0
  6
JWW_DASHED1
 62
   120
370
     5
100
AcDbLine
 10
-314.385402063384
 20
-825.3959996945472
 30
0.0
 11
-90.69174150179023
 21
-601.7023391329551
 31
0.0
  0
LINE
  5
A1
330
1F
100
AcDbEntity
  8
0-0
  6
JWW_DASHED1
 62
   120
370
     5
100
AcDbLine
 10
-321.4564698766661
 20
-825.3959996945435
 30
0.0
 11
-90.69174150179364
 21
-594.6312713196737
 31
0.0
  0
LINE
  5
A2
330
1F
100
AcDbEntity
  8
0-0
  6
JWW_DASHED1
 62
   120
370
     5
100
AcDbLine
 10
-328.5275376899482
 20
-825.3959996945406
 30
0.0
 11
-90.69174150178
 21
-587.5602035063741
 31
0.0
  0
LINE
  5
A3
330
1F
100
AcDbEntity
  8
0-0
  6
JWW_DASHED1
 62
   120
370
     5
100
AcDbLine
 10
-335.5986055032303
 20
-825.3959996945362
 30
0.0
 11
-90.69174150178682
 21
-580.489135693093
 31
0.0
  0
LINE
  5
A4
330
1F
100
AcDbEntity
  8
0-0
  6
JWW_DASHED1
 62
   120
370
     5
100
AcDbLine
 10
-340.6917415017675
 20
-823.4180678798443
 30
0.0
 11
-90.69174150178
 21
-573.4180678798568
 31
0.0
  0
LINE
  5
A5
330
1F
100
AcDbEntity
  8
0-0
  6
JWW_DASHED1
 62
   120
370
     5
100
AcDbLine
 10
-340.6917415017709
 20
-816.3470000665629
 30
0.0
 11
-90.69174150178341
 21
-566.3470000665752
 31
0.0
  0
LINE
  5
A6
330
1F
100
AcDbEntity
  8
0-0
  6
JWW_DASHED1
 62
   120
370
     5
100
AcDbLine
 10
-340.6917415017778
 20
-809.2759322532816
 30
0.0
 11
-90.69174150178682
 21
-559.2759322532941
 31
0.0
  0
LINE
  5
A7
330
1F
100
AcDbEntity
  8
0-0
  6
JWW_DASHED1
 62
   120
370
     5
100
AcDbLine
 10
-340.6917415017812
 20
-802.2048644400003
 30
0.0
 11
-90.69174150179364
 21
-552.2048644400128
 31
0.0
  0
LINE
  5
A8
330
1F
100
AcDbEntity
  8
0-0
  6
JWW_DASHED1
 62
   120
370
     5
100
AcDbLine
 10
-340.6917415017846
 20
-795.1337966267189
 30
0.0
 11
-90.69174150179705
 21
-545.1337966267312
 31
0.0
  0
LINE
  5
A9
330
1F
100
AcDbEntity
  8
0-0
  6
JWW_DASHED1
 62
   120
370
     5
100
AcDbLine
 10
-340.691741501788
 20
-788.062728813437
 30
0.0
 11
-90.69174150178341
 21
-538.0627288134314
 31
0.0
  0
LINE
  5
AA
330
1F
100
AcDbEntity
  8
0-0
  6
JWW_DASHED1
 62
   120
370
     5
100
AcDbLine
 10
-340.6917415017914
 20
-780.9916610001554
 30
0.0
 11
-90.69174150178682
 21
-530.99166100015
 31
0.0
  0
LINE
  5
AB
330
1F
100
AcDbEntity
  8
0-0
  6
JWW_DASHED1
 62
   120
370
     5
100
AcDbLine
 10
-340.6917415017812
 20
-773.9205931868584
 30
0.0
 11
-90.69174150179023
 21
-523.9205931868686
 31
0.0
  0
LINE
  5
AC
330
1F
100
AcDbEntity
  8
0-0
  6
JWW_DASHED1
 62
   120
370
     5
100
AcDbLine
 10
-340.6917415017709
 20
-766.8495253735614
 30
0.0
 11
-90.69174150178
 21
-516.8495253735741
 31
0.0
  0
LINE
  5
AD
330
1F
100
AcDbEntity
  8
0-0
  6
JWW_DASHED1
 62
   120
370
     5
100
AcDbLine
 10
-340.6917415017778
 20
-759.778457560339
 30
0.0
 11
-90.69174150179023
 21
-509.778457560352
 31
0.0
  0
LINE
  5
AE
330
1F
100
AcDbEntity
  8
0-0
  6
JWW_DASHED1
 62
   120
370
     5
100
AcDbLine
 10
-340.6917415017812
 20
-752.7073897470577
 30
0.0
 11
-90.69174150179364
 21
-502.7073897470703
 31
0.0
  0
LINE
  5
AF
330
1F
100
AcDbEntity
  8
0-0
  6
JWW_DASHED1
 62
   120
370
     5
100
AcDbLine
 10
-340.6917415017846
 20
-745.6363219337766
 30
0.0
 11
-90.69174150178341
 21
-495.6363219337731
 31
0.0
  0
LINE
  5
B0
330
1F
100
AcDbEntity
  8
0-0
  6
JWW_DASHED1
 62
   120
370
     5
100
AcDbLine
 10
-340.691741501788
 20
-738.5652541204945
 30
0.0
 11
-90.69174150178341
 21
-488.5652541204887
 31
0.0
  0
LINE
  5
B1
330
1F
100
AcDbEntity
  8
0-0
  6
JWW_DASHED1
 62
   120
370
     5
100
AcDbLine
 10
-434.5935548891247
 20
-825.395999694543
 30
0.0
 11
-430.6917415017846
 21
-821.4941863072044
 31
0.0
  0
LINE
  5
B2
330
1F
100
AcDbEntity
  8
0-0
  6
JWW_DASHED1
 62
   120
370
     5
100
AcDbLine
 10
-340.6917415017914
 20
-731.4941863072129
 30
0.0
 11
-90.69174150178682
 21
-481.4941863072073
 31
0.0
  0
LINE
  5
B3
330
1F
100
AcDbEntity
  8
0-0
  6
JWW_DASHED1
 62
   120
370
     5
100
AcDbLine
 10
-441.6646227024204
 20
-825.3959996945547
 30
0.0
 11
-430.6917415017709
 21
-814.4231184939069
 31
0.0
  0
LINE
  5
B4
330
1F
100
AcDbEntity
  8
0-0
  6
JWW_DASHED1
 62
   120
370
     5
100
AcDbLine
 10
-340.6917415017675
 20
-724.4231184939007
 30
0.0
 11
-90.69174150178
 21
-474.4231184939133
 31
0.0
  0
LINE
  5
B5
330
1F
100
AcDbEntity
  8
0-0
  6
JWW_DASHED1
 62
   120
370
     5
100
AcDbLine
 10
-448.7356905157025
 20
-825.3959996945513
 30
0.0
 11
-430.6917415017778
 21
-807.3520506806257
 31
0.0
  0
LINE
  5
B6
330
1F
100
AcDbEntity
  8
0-0
  6
JWW_DASHED1
 62
   120
370
     5
100
AcDbLine
 10
-340.6917415017709
 20
-717.3520506806193
 30
0.0
 11
-90.69174150178341
 21
-467.3520506806318
 31
0.0
  0
LINE
  5
B7
330
1F
100
AcDbEntity
  8
0-0
  6
JWW_DASHED1
 62
   120
370
     5
100
AcDbLine
 10
-455.8067583289845
 20
-825.3959996945474
 30
0.0
 11
-430.6917415017812
 21
-800.2809828673443
 31
0.0
  0
LINE
  5
B8
330
1F
100
AcDbEntity
  8
0-0
  6
JWW_DASHED1
 62
   120
370
     5
100
AcDbLine
 10
-340.6917415017743
 20
-710.2809828673379
 30
0.0
 11
-90.69174150178682
 21
-460.2809828673502
 31
0.0
  0
LINE
  5
B9
330
1F
100
AcDbEntity
  8
0-0
  6
JWW_DASHED1
 62
   120
370
     5
100
AcDbLine
 10
-462.8778261422666
 20
-825.3959996945435
 30
0.0
 11
-430.6917415017846
 21
-793.2099150540629
 31
0.0
  0
LINE
  5
BA
330
1F
100
AcDbEntity
  8
0-0
  6
JWW_DASHED1
 62
   120
370
     5
100
AcDbLine
 10
-340.6917415017778
 20
-703.2099150540564
 30
0.0
 11
-90.69174150179023
 21
-453.2099150540689
 31
0.0
  0
LINE
  5
BB
330
1F
100
AcDbEntity
  8
0-0
  6
JWW_DASHED1
 62
   120
370
     5
100
AcDbLine
 10
-469.9488939555009
 20
-825.3959996945487
 30
0.0
 11
-430.6917415017778
 21
-786.1388472408242
 31
0.0
  0
LINE
  5
BC
330
1F
100
AcDbEntity
  8
0-0
  6
JWW_DASHED1
 62
   120
370
     5
100
AcDbLine
 10
-340.6917415017846
 20
-696.1388472408328
 30
0.0
 11
-90.69174150178
 21
-446.138847240827
 31
0.0
  0
LINE
  5
BD
330
1F
100
AcDbEntity
  8
0-0
  6
JWW_DASHED1
 62
   120
370
     5
100
AcDbLine
 10
-477.019961768783
 20
-825.3959996945447
 30
0.0
 11
-430.6917415017812
 21
-779.0677794275429
 31
0.0
  0
LINE
  5
BE
330
1F
100
AcDbEntity
  8
0-0
  6
JWW_DASHED1
 62
   120
370
     5
100
AcDbLine
 10
-340.6917415017914
 20
-689.0677794275516
 30
0.0
 11
-90.69174150178341
 21
-439.0677794275457
 31
0.0
  0
LINE
  5
BF
330
1F
100
AcDbEntity
  8
0-0
  6
JWW_DASHED1
 62
   120
370
     5
100
AcDbLine
 10
-484.0910295820685
 20
-825.395999694544
 30
0.0
 11
-430.6917415017846
 21
-771.9967116142614
 31
0.0
  0
LINE
  5
C0
330
1F
100
AcDbEntity
  8
0-0
  6
JWW_DASHED1
 62
   120
370
     5
100
AcDbLine
 10
-340.6917415017948
 20
-681.9967116142699
 30
0.0
 11
-90.69174150178682
 21
-431.9967116142641
 31
0.0
  0
LINE
  5
C1
330
1F
100
AcDbEntity
  8
0-0
  6
JWW_DASHED1
 62
   120
370
     5
100
AcDbLine
 10
-491.1620973953642
 20
-825.3959996945559
 30
0.0
 11
-430.6917415017743
 21
-764.9256438009648
 31
0.0
  0
LINE
  5
C2
330
1F
100
AcDbEntity
  8
0-0
  6
JWW_DASHED1
 62
   120
370
     5
100
AcDbLine
 10
-340.6917415017675
 20
-674.9256438009584
 30
0.0
 11
-90.69174150178
 21
-424.9256438009705
 31
0.0
  0
LINE
  5
C3
330
1F
100
AcDbEntity
  8
0-0
  6
JWW_DASHED1
 62
   120
370
     5
100
AcDbLine
 10
-498.2331652086463
 20
-825.3959996945521
 30
0.0
 11
-430.6917415017778
 21
-757.8545759876836
 31
0.0
  0
LINE
  5
C4
330
1F
100
AcDbEntity
  8
0-0
  6
JWW_DASHED1
 62
   120
370
     5
100
AcDbLine
 10
-340.6917415017709
 20
-667.854575987677
 30
0.0
 11
-90.69174150178341
 21
-417.8545759876893
 31
0.0
  0
LINE
  5
C5
330
1F
100
AcDbEntity
  8
0-0
  6
JWW_DASHED1
 62
   120
370
     5
100
AcDbLine
 10
-505.3042330219283
 20
-825.3959996945483
 30
0.0
 11
-430.6917415017812
 21
-750.783508174402
 31
0.0
  0
LINE
  5
C6
330
1F
100
AcDbEntity
  8
0-0
  6
JWW_DASHED1
 62
   120
370
     5
100
AcDbLine
 10
-340.6917415017778
 20
-660.7835081743956
 30
0.0
 11
-90.69174150178682
 21
-410.7835081744081
 31
0.0
  0
LINE
  5
C7
330
1F
100
AcDbEntity
  8
0-0
  6
JWW_DASHED1
 62
   120
370
     5
100
AcDbLine
 10
-512.3753008352104
 20
-825.3959996945447
 30
0.0
 11
-430.691741501788
 21
-743.7124403611208
 31
0.0
  0
LINE
  5
C8
330
1F
100
AcDbEntity
  8
0-0
  6
JWW_DASHED1
 62
   120
370
     5
100
AcDbLine
 10
-340.6917415017812
 20
-653.7124403611143
 30
0.0
 11
-90.69174150179364
 21
-403.7124403611264
 31
0.0
  0
LINE
  5
C9
330
1F
100
AcDbEntity
  8
0-0
  6
JWW_DASHED1
 62
   120
370
     5
100
AcDbLine
 10
-519.4463686485027
 20
-825.3959996945513
 30
0.0
 11
-430.6917415017743
 21
-736.6413725478233
 31
0.0
  0
LINE
  5
CA
330
1F
100
AcDbEntity
  8
0-0
  6
JWW_DASHED1
 62
   120
370
     5
100
AcDbLine
 10
-340.6917415017846
 20
-646.6413725478327
 30
0.0
 11
-90.69174150179705
 21
-396.6413725478452
 31
0.0
  0
LINE
  5
CB
330
1F
100
AcDbEntity
  8
0-0
  6
JWW_DASHED1
 62
   120
370
     5
100
AcDbLine
 10
-526.5174364617848
 20
-825.395999694547
 30
0.0
 11
-430.6917415017778
 21
-729.5703047345411
 31
0.0
  0
LINE
  5
CC
330
1F
100
AcDbEntity
  8
0-0
  6
JWW_DASHED1
 62
   120
370
     5
100
AcDbLine
 10
-340.691741501788
 20
-639.5703047345498
 30
0.0
 11
-90.69174150178
 21
-389.5703047345439
 31
0.0
  0
LINE
  5
CD
330
1F
100
AcDbEntity
  8
0-0
  6
JWW_DASHED1
 62
   120
370
     5
100
AcDbLine
 10
-533.588504275043
 20
-825.395999694547
 30
0.0
 11
-430.6917415017846
 21
-722.499236921289
 31
0.0
  0
LINE
  5
CE
330
1F
100
AcDbEntity
  8
0-0
  6
JWW_DASHED1
 62
   120
370
     5
100
AcDbLine
 10
-340.6917415017914
 20
-632.4992369212976
 30
0.0
 11
-90.69174150178682
 21
-382.4992369212922
 31
0.0
  0
LINE
  5
CF
330
1F
100
AcDbEntity
  8
0-0
  6
JWW_DASHED1
 62
   120
370
     5
100
AcDbLine
 10
-540.6595720883114
 20
-825.3959996945568
 30
0.0
 11
-430.6917415017743
 21
-715.4281691080223
 31
0.0
  0
LINE
  5
D0
330
1F
100
AcDbEntity
  8
0-0
  6
JWW_DASHED1
 62
   120
370
     5
100
AcDbLine
 10
-340.6917415017709
 20
-625.4281691080159
 30
0.0
 11
-90.69174150178
 21
-375.4281691080284
 31
0.0
  0
LINE
  5
D1
330
1F
100
AcDbEntity
  8
0-0
  6
JWW_DASHED1
 62
   120
370
     5
100
AcDbLine
 10
-547.73063990159
 20
-825.395999694553
 30
0.0
 11
-430.6917415017812
 21
-708.3571012947409
 31
0.0
  0
LINE
  5
D2
330
1F
100
AcDbEntity
  8
0-0
  6
JWW_DASHED1
 62
   120
370
     5
100
AcDbLine
 10
-340.6917415017743
 20
-618.3571012947347
 30
0.0
 11
-90.69174150178682
 21
-368.3571012947472
 31
0.0
  0
LINE
  5
D3
330
1F
100
AcDbEntity
  8
0-0
  6
JWW_DASHED1
 62
   120
370
     5
100
AcDbLine
 10
-554.8017077148755
 20
-825.3959996945496
 30
0.0
 11
-430.6917415017846
 21
-701.2860334814594
 31
0.0
  0
LINE
  5
D4
330
1F
100
AcDbEntity
  8
0-0
  6
JWW_DASHED1
 62
   120
370
     5
100
AcDbLine
 10
-340.6917415017778
 20
-611.286033481453
 30
0.0
 11
-90.69174150179023
 21
-361.2860334814656
 31
0.0
  0
LINE
  5
D5
330
1F
100
AcDbEntity
  8
0-0
  6
JWW_DASHED1
 62
   120
370
     5
100
AcDbLine
 10
-561.8727755281542
 20
-825.3959996945457
 30
0.0
 11
-430.691741501788
 21
-694.2149656681783
 31
0.0
  0
LINE
  5
D6
330
1F
100
AcDbEntity
  8
0-0
  6
JWW_DASHED1
 62
   120
370
     5
100
AcDbLine
 10
-340.6917415017812
 20
-604.2149656681718
 30
0.0
 11
-90.69174150179364
 21
-354.2149656681843
 31
0.0
  0
LINE
  5
D7
330
1F
100
AcDbEntity
  8
0-0
  6
JWW_DASHED1
 62
   120
370
     5
100
AcDbLine
 10
-568.9438433414431
 20
-825.3959996945489
 30
0.0
 11
-430.6917415017778
 21
-687.1438978548811
 31
0.0
  0
LINE
  5
D8
330
1F
100
AcDbEntity
  8
0-0
  6
JWW_DASHED1
 62
   120
370
     5
100
AcDbLine
 10
-340.6917415017846
 20
-597.1438978548904
 30
0.0
 11
-90.69174150179705
 21
-347.1438978549027
 31
0.0
  0
LINE
  5
D9
330
1F
100
AcDbEntity
  8
0-0
  6
JWW_DASHED1
 62
   120
370
     5
100
AcDbLine
 10
-576.0149111547252
 20
-825.3959996945448
 30
0.0
 11
-430.6917415017778
 21
-680.0728300415983
 31
0.0
  0
LINE
  5
DA
330
1F
100
AcDbEntity
  8
0-0
  6
JWW_DASHED1
 62
   120
370
     5
100
AcDbLine
 10
-340.691741501788
 20
-590.0728300416068
 30
0.0
 11
-90.69174150178
 21
-340.072830041601
 31
0.0
  0
LINE
  5
DB
330
1F
100
AcDbEntity
  8
0-0
  6
JWW_DASHED1
 62
   120
370
     5
100
AcDbLine
 10
-583.0859789680072
 20
-825.3959996945406
 30
0.0
 11
-430.6917415017846
 21
-673.0017622283167
 31
0.0
  0
LINE
  5
DC
330
1F
100
AcDbEntity
  8
0-0
  6
JWW_DASHED1
 62
   120
370
     5
100
AcDbLine
 10
-340.6917415017914
 20
-583.0017622283254
 30
0.0
 11
-90.69174150178682
 21
-333.0017622283198
 31
0.0
  0
LINE
  5
DD
330
1F
100
AcDbEntity
  8
0-0
  6
JWW_DASHED1
 62
   120
370
     5
100
AcDbLine
 10
-590.1570467812995
 20
-825.3959996945466
 30
0.0
 11
-430.691741501788
 21
-665.9306944150354
 31
0.0
  0
LINE
  5
DE
330
1F
100
AcDbEntity
  8
0-0
  6
JWW_DASHED1
 62
   120
370
     5
100
AcDbLine
 10
-340.6917415017812
 20
-575.9306944150283
 30
0.0
 11
-90.69174150179023
 21
-325.9306944150381
 31
0.0
  0
LINE
  5
DF
330
1F
100
AcDbEntity
  8
0-0
  6
JWW_DASHED1
 62
   120
370
     5
100
AcDbLine
 10
-597.2281145945952
 20
-825.3959996945584
 30
0.0
 11
-430.6917415017778
 21
-658.8596266017397
 31
0.0
  0
LINE
  5
E0
330
1F
100
AcDbEntity
  8
0-0
  6
JWW_DASHED1
 62
   120
370
     5
100
AcDbLine
 10
-340.6917415017709
 20
-568.8596266017333
 30
0.0
 11
-90.69174150178341
 21
-318.8596266017458
 31
0.0
  0
LINE
  5
E1
330
1F
100
AcDbEntity
  8
0-0
  6
JWW_DASHED1
 62
   120
370
     5
100
AcDbLine
 10
-604.2991824078193
 20
-825.3959996945504
 30
0.0
 11
-430.6917415017846
 21
-651.7885587885173
 31
0.0
  0
LINE
  5
E2
330
1F
100
AcDbEntity
  8
0-0
  6
JWW_DASHED1
 62
   120
370
     5
100
AcDbLine
 10
-340.6917415017778
 20
-561.788558788511
 30
0.0
 11
-90.69174150179023
 21
-311.788558788523
 31
0.0
  0
LINE
  5
E3
330
1F
100
AcDbEntity
  8
0-0
  6
JWW_DASHED1
 62
   120
370
     5
100
AcDbLine
 10
-611.3702502211014
 20
-825.3959996945466
 30
0.0
 11
-430.6917415017914
 21
-644.7174909752359
 31
0.0
  0
LINE
  5
E4
330
1F
100
AcDbEntity
  8
0-0
  6
JWW_DASHED1
 62
   120
370
     5
100
AcDbLine
 10
-340.6917415017846
 20
-554.7174909752296
 30
0.0
 11
-90.69174150179705
 21
-304.7174909752418
 31
0.0
  0
LINE
  5
E5
330
1F
100
AcDbEntity
  8
0-0
  6
JWW_DASHED1
 62
   120
370
     5
100
AcDbLine
 10
-618.4413180343869
 20
-825.395999694547
 30
0.0
 11
-430.6917415017778
 21
-637.6464231619387
 31
0.0
  0
LINE
  5
E6
330
1F
100
AcDbEntity
  8
0-0
  6
JWW_DASHED1
 62
   120
370
     5
100
AcDbLine
 10
-340.691741501788
 20
-547.6464231619481
 30
0.0
 11
-90.69174150180046
 21
-297.6464231619606
 31
0.0
  0
LINE
  5
E7
330
1F
100
AcDbEntity
  8
0-0
  6
JWW_DASHED1
 62
   120
370
     5
100
AcDbLine
 10
-625.512385847669
 20
-825.3959996945428
 30
0.0
 11
-430.6917415017812
 21
-630.5753553486555
 31
0.0
  0
LINE
  5
E8
330
1F
100
AcDbEntity
  8
0-0
  6
JWW_DASHED1
 62
   120
370
     5
100
AcDbLine
 10
-340.691741501788
 20
-540.5753553486641
 30
0.0
 11
-90.69174150178341
 21
-290.5753553486585
 31
0.0
  0
LINE
  5
E9
330
1F
100
AcDbEntity
  8
0-0
  6
JWW_DASHED1
 62
   120
370
     5
100
AcDbLine
 10
-632.5834536609613
 20
-825.3959996945513
 30
0.0
 11
-430.6917415017846
 21
-623.5042875353741
 31
0.0
  0
LINE
  5
EA
330
1F
100
AcDbEntity
  8
0-0
  6
JWW_DASHED1
 62
   120
370
     5
100
AcDbLine
 10
-340.6917415017914
 20
-533.5042875353827
 30
0.0
 11
-90.69174150178682
 21
-283.5042875353769
 31
0.0
  0
LINE
  5
EB
330
1F
100
AcDbEntity
  8
0-0
  6
JWW_DASHED1
 62
   120
370
     5
100
AcDbLine
 10
-639.6545214742604
 20
-825.3959996945632
 30
0.0
 11
-430.6917415017743
 21
-616.4332197220789
 31
0.0
  0
LINE
  5
EC
330
1F
100
AcDbEntity
  8
0-0
  6
JWW_DASHED1
 62
   120
370
     5
100
AcDbLine
 10
-340.6917415017675
 20
-526.4332197220724
 30
0.0
 11
-90.69174150178
 21
-276.4332197220846
 31
0.0
  0
LINE
  5
ED
330
1F
100
AcDbEntity
  8
0-0
  6
JWW_DASHED1
 62
   120
370
     5
100
AcDbLine
 10
-646.725589287539
 20
-825.3959996945594
 30
0.0
 11
-430.6917415017778
 21
-609.3621519087972
 31
0.0
  0
LINE
  5
EE
330
1F
100
AcDbEntity
  8
0-0
  6
JWW_DASHED1
 62
   120
370
     5
100
AcDbLine
 10
-340.6917415017709
 20
-519.3621519087908
 30
0.0
 11
-90.69174150178341
 21
-269.3621519088033
 31
0.0
  0
LINE
  5
EF
330
1F
100
AcDbEntity
  8
0-0
  6
JWW_DASHED1
 62
   120
370
     5
100
AcDbLine
 10
-653.7966571008211
 20
-825.3959996945557
 30
0.0
 11
-430.6917415017812
 21
-602.291084095516
 31
0.0
  0
LINE
  5
F0
330
1F
100
AcDbEntity
  8
0-0
  6
JWW_DASHED1
 62
   120
370
     5
100
AcDbLine
 10
-340.6917415017778
 20
-512.2910840955096
 30
0.0
 11
-90.69174150178682
 21
-262.2910840955221
 31
0.0
  0
LINE
  5
F1
330
1F
100
AcDbEntity
  8
0-0
  6
JWW_DASHED1
 62
   120
370
     5
100
AcDbLine
 10
-660.8677249141032
 20
-825.3959996945521
 30
0.0
 11
-430.691741501788
 21
-595.2200162822348
 31
0.0
  0
LINE
  5
F2
330
1F
100
AcDbEntity
  8
0-0
  6
JWW_DASHED1
 62
   120
370
     5
100
AcDbLine
 10
-340.6917415017812
 20
-505.220016282228
 30
0.0
 11
-90.69174150179364
 21
-255.2200162822409
 31
0.0
  0
LINE
  5
F3
330
1F
100
AcDbEntity
  8
0-0
  6
JWW_DASHED1
 62
   120
370
     5
100
AcDbLine
 10
-667.9387927273273
 20
-825.3959996945448
 30
0.0
 11
-430.6917415017778
 21
-588.148948468994
 31
0.0
  0
LINE
  5
F4
330
1F
100
AcDbEntity
  8
0-0
  6
JWW_DASHED1
 62
   120
370
     5
100
AcDbLine
 10
-340.6917415017846
 20
-498.1489484690026
 30
0.0
 11
-90.69174150178
 21
-248.1489484689968
 31
0.0
  0
LINE
  5
F5
330
1F
100
AcDbEntity
  8
0-0
  6
JWW_DASHED1
 62
   120
370
     5
100
AcDbLine
 10
-675.0098605406093
 20
-825.3959996945406
 30
0.0
 11
-430.6917415017812
 21
-581.0778806557126
 31
0.0
  0
LINE
  5
F6
330
1F
100
AcDbEntity
  8
0-0
  6
JWW_DASHED1
 62
   120
370
     5
100
AcDbLine
 10
-340.6917415017914
 20
-491.0778806557214
 30
0.0
 11
-90.69174150178341
 21
-241.0778806557155
 31
0.0
  0
LINE
  5
F7
330
1F
100
AcDbEntity
  8
0-0
  6
JWW_DASHED1
 62
   120
370
     5
100
AcDbLine
 10
-680.6917415017755
 20
-824.006812842422
 30
0.0
 11
-430.6917415017846
 21
-574.0068128424311
 31
0.0
  0
LINE
  5
F8
330
1F
100
AcDbEntity
  8
0-0
  6
JWW_DASHED1
 62
   120
370
     5
100
AcDbLine
 10
-340.6917415017948
 20
-484.0068128424397
 30
0.0
 11
-90.69174150178682
 21
-234.0068128424339
 31
0.0
  0
LINE
  5
F9
330
1F
100
AcDbEntity
  8
0-0
  6
JWW_DASHED1
 62
   120
370
     5
100
AcDbLine
 10
-680.6917415017653
 20
-816.9357450291247
 30
0.0
 11
-430.6917415017743
 21
-566.9357450291363
 31
0.0
  0
LINE
  5
FA
330
1F
100
AcDbEntity
  8
0-0
  6
JWW_DASHED1
 62
   120
370
     5
100
AcDbLine
 10
-340.6917415017709
 20
-476.93574502913
 30
0.0
 11
-90.69174150178
 21
-226.9357450291425
 31
0.0
  0
LINE
  5
FB
330
1F
100
AcDbEntity
  8
0-0
  6
JWW_DASHED1
 62
   120
370
     5
100
AcDbLine
 10
-680.6917415017687
 20
-809.8646772158432
 30
0.0
 11
-430.6917415017812
 21
-559.864677215855
 31
0.0
  0
LINE
  5
FC
330
1F
100
AcDbEntity
  8
0-0
  6
JWW_DASHED1
 62
   120
370
     5
100
AcDbLine
 10
-340.6917415017743
 20
-469.8646772158487
 30
0.0
 11
-90.69174150178682
 21
-219.8646772158608
 31
0.0
  0
LINE
  5
FD
330
1F
100
AcDbEntity
  8
0-0
  6
JWW_DASHED1
 62
   120
370
     5
100
AcDbLine
 10
-680.6917415017721
 20
-802.7936094025619
 30
0.0
 11
-430.6917415017846
 21
-552.7936094025735
 31
0.0
  0
LINE
  5
FE
330
1F
100
AcDbEntity
  8
0-0
  6
JWW_DASHED1
 62
   120
370
     5
100
AcDbLine
 10
-340.6917415017778
 20
-462.7936094025671
 30
0.0
 11
-90.69174150179023
 21
-212.7936094025796
 31
0.0
  0
LINE
  5
FF
330
1F
100
AcDbEntity
  8
0-0
  6
JWW_DASHED1
 62
   120
370
     5
100
AcDbLine
 10
-680.6917415017755
 20
-795.7225415892806
 30
0.0
 11
-430.691741501788
 21
-545.7225415892923
 31
0.0
  0
LINE
  5
100
330
1F
100
AcDbEntity
  8
0-0
  6
JWW_DASHED1
 62
   120
370
     5
100
AcDbLine
 10
-340.6917415017812
 20
-455.7225415892859
 30
0.0
 11
-90.69174150179364
 21
-205.7225415892984
 31
0.0
  0
LINE
  5
101
330
1F
100
AcDbEntity
  8
0-0
  6
JWW_DASHED1
 62
   120
370
     5
100
AcDbLine
 10
-680.6917415017823
 20
-788.6514737759994
 30
0.0
 11
-430.6917415017778
 21
-538.6514737759951
 31
0.0
  0
LINE
  5
102
330
1F
100
AcDbEntity
  8
0-0
  6
JWW_DASHED1
 62
   120
370
     5
100
AcDbLine
 10
-340.6917415017846
 20
-448.6514737760047
 30
0.0
 11
-90.69174150179705
 21
-198.6514737760167
 31
0.0
  0
LINE
  5
103
330
1F
100
AcDbEntity
  8
0-0
  6
JWW_DASHED1
 62
   120
370
     5
100
AcDbLine
 10
-680.6917415017823
 20
-781.5804059627174
 30
0.0
 11
-430.6917415017778
 21
-531.5804059627109
 31
0.0
  0
LINE
  5
104
330
1F
100
AcDbEntity
  8
0-0
  6
JWW_DASHED1
 62
   120
370
     5
100
AcDbLine
 10
-340.6917415017846
 20
-441.5804059627196
 30
0.0
 11
-90.69174150178
 21
-191.5804059627138
 31
0.0
  0
LINE
  5
105
330
1F
100
AcDbEntity
  8
0-0
  6
JWW_DASHED1
 62
   120
370
     5
100
AcDbLine
 10
-680.6917415017755
 20
-774.5093381494792
 30
0.0
 11
-430.6917415017846
 21
-524.5093381494883
 31
0.0
  0
LINE
  5
106
330
1F
100
AcDbEntity
  8
0-0
  6
JWW_DASHED1
 62
   120
370
     5
100
AcDbLine
 10
-340.6917415017948
 20
-434.5093381494968
 30
0.0
 11
-90.69174150179023
 21
-184.5093381494914
 31
0.0
  0
LINE
  5
107
330
1F
100
AcDbEntity
  8
0-0
  6
JWW_DASHED1
 62
   120
370
     5
100
AcDbLine
 10
-680.6917415017653
 20
-767.4382703361824
 30
0.0
 11
-430.6917415017778
 21
-517.4382703361938
 31
0.0
  0
LINE
  5
108
330
1F
100
AcDbEntity
  8
0-0
  6
JWW_DASHED1
 62
   120
370
     5
100
AcDbLine
 10
-340.6917415017709
 20
-427.4382703361879
 30
0.0
 11
-90.69174150178341
 21
-177.4382703362004
 31
0.0
  0
LINE
  5
109
330
1F
100
AcDbEntity
  8
0-0
  6
JWW_DASHED1
 62
   120
370
     5
100
AcDbLine
 10
-680.6917415017687
 20
-760.3672025229007
 30
0.0
 11
-430.6917415017812
 21
-510.3672025229126
 31
0.0
  0
LINE
  5
10A
330
1F
100
AcDbEntity
  8
0-0
  6
JWW_DASHED1
 62
   120
370
     5
100
AcDbLine
 10
-340.6917415017743
 20
-420.3672025229062
 30
0.0
 11
-90.69174150178682
 21
-170.3672025229187
 31
0.0
  0
LINE
  5
10B
330
1F
100
AcDbEntity
  8
0-0
  6
JWW_DASHED1
 62
   120
370
     5
100
AcDbLine
 10
-680.6917415017755
 20
-753.2961347096195
 30
0.0
 11
-430.6917415017846
 21
-503.2961347096314
 31
0.0
  0
LINE
  5
10C
330
1F
100
AcDbEntity
  8
0-0
  6
JWW_DASHED1
 62
   120
370
     5
100
AcDbLine
 10
-340.6917415017778
 20
-413.296134709625
 30
0.0
 11
-90.69174150179023
 21
-163.2961347096371
 31
0.0
  0
LINE
  5
10D
330
1F
100
AcDbEntity
  8
0-0
  6
JWW_DASHED1
 62
   120
370
     5
100
AcDbLine
 10
-680.6917415017789
 20
-746.2250668963381
 30
0.0
 11
-430.691741501788
 21
-496.2250668963497
 31
0.0
  0
LINE
  5
10E
330
1F
100
AcDbEntity
  8
0-0
  6
JWW_DASHED1
 62
   120
370
     5
100
AcDbLine
 10
-340.6917415017846
 20
-406.2250668963434
 30
0.0
 11
-90.69174150179364
 21
-156.2250668963559
 31
0.0
  0
LINE
  5
10F
330
1F
100
AcDbEntity
  8
0-0
  6
JWW_DASHED1
 62
   120
370
     5
100
AcDbLine
 10
-680.6917415017823
 20
-739.1539990830569
 30
0.0
 11
-430.6917415017778
 21
-489.1539990830528
 31
0.0
  0
LINE
  5
110
330
1F
100
AcDbEntity
  8
0-0
  6
JWW_DASHED1
 62
   120
370
     5
100
AcDbLine
 10
-340.691741501788
 20
-399.1539990830621
 30
0.0
 11
-90.69174150180046
 21
-149.1539990830746
 31
0.0
  0
LINE
  5
111
330
1F
100
AcDbEntity
  8
0-0
  6
JWW_DASHED1
 62
   120
370
     5
100
AcDbLine
 10
-680.6917415017857
 20
-732.0829312697743
 30
0.0
 11
-430.6917415017778
 21
-482.0829312697681
 31
0.0
  0
LINE
  5
112
330
1F
100
AcDbEntity
  8
0-0
  6
JWW_DASHED1
 62
   120
370
     5
100
AcDbLine
 10
-340.691741501788
 20
-392.0829312697766
 30
0.0
 11
-90.69174150178
 21
-142.0829312697708
 31
0.0
  0
LINE
  5
113
330
1F
100
AcDbEntity
  8
0-0
  6
JWW_DASHED1
 62
   120
370
     5
100
AcDbLine
 10
-680.6917415017891
 20
-725.0118634564932
 30
0.0
 11
-430.6917415017846
 21
-475.0118634564865
 31
0.0
  0
LINE
  5
114
330
1F
100
AcDbEntity
  8
0-0
  6
JWW_DASHED1
 62
   120
370
     5
100
AcDbLine
 10
-340.6917415017914
 20
-385.0118634564955
 30
0.0
 11
-90.69174150178682
 21
-135.0118634564896
 31
0.0
  0
LINE
  5
115
330
1F
100
AcDbEntity
  8
0-0
  6
JWW_DASHED1
 62
   120
370
     5
100
AcDbLine
 10
-680.6917415017755
 20
-717.9407956431958
 30
0.0
 11
-430.691741501788
 21
-467.9407956432053
 31
0.0
  0
LINE
  5
116
330
1F
100
AcDbEntity
  8
0-0
  6
JWW_DASHED1
 62
   120
370
     5
100
AcDbLine
 10
-340.6917415017948
 20
-377.9407956432138
 30
0.0
 11
-90.69174150179023
 21
-127.940795643208
 31
0.0
  0
LINE
  5
117
330
1F
100
AcDbEntity
  8
0-0
  6
JWW_DASHED1
 62
   120
370
     5
100
AcDbLine
 10
-680.6917415017721
 20
-710.8697278299585
 30
0.0
 11
-430.6917415017846
 21
-460.8697278299701
 31
0.0
  0
LINE
  5
118
330
1F
100
AcDbEntity
  8
0-0
  6
JWW_DASHED1
 62
   120
370
     5
100
AcDbLine
 10
-340.6917415017778
 20
-370.8697278299637
 30
0.0
 11
-90.69174150179023
 21
-120.8697278299762
 31
0.0
  0
LINE
  5
119
330
1F
100
AcDbEntity
  8
0-0
  6
JWW_DASHED1
 62
   120
370
     5
100
AcDbLine
 10
-680.6917415017755
 20
-703.7986600166772
 30
0.0
 11
-430.691741501788
 21
-453.7986600166889
 31
0.0
  0
LINE
  5
11A
330
1F
100
AcDbEntity
  8
0-0
  6
JWW_DASHED1
 62
   120
370
     5
100
AcDbLine
 10
-340.6917415017812
 20
-363.7986600166824
 30
0.0
 11
-90.69174150179364
 21
-113.798660016695
 31
0.0
  0
LINE
  5
11B
330
1F
100
AcDbEntity
  8
0-0
  6
JWW_DASHED1
 62
   120
370
     5
100
AcDbLine
 10
-680.6917415017789
 20
-696.7275922033958
 30
0.0
 11
-430.6917415017914
 21
-446.7275922034077
 31
0.0
  0
LINE
  5
11C
330
1F
100
AcDbEntity
  8
0-0
  6
JWW_DASHED1
 62
   120
370
     5
100
AcDbLine
 10
-340.6917415017846
 20
-356.7275922034013
 30
0.0
 11
-90.69174150179705
 21
-106.7275922034133
 31
0.0
  0
LINE
  5
11D
330
1F
100
AcDbEntity
  8
0-0
  6
JWW_DASHED1
 62
   120
370
     5
100
AcDbLine
 10
-680.6917415017823
 20
-689.6565243901143
 30
0.0
 11
-430.6917415017778
 21
-439.6565243901102
 31
0.0
  0
LINE
  5
11E
330
1F
100
AcDbEntity
  8
0-0
  6
JWW_DASHED1
 62
   120
370
     5
100
AcDbLine
 10
-340.691741501788
 20
-349.6565243901196
 30
0.0
 11
-90.69174150180046
 21
-99.65652439013255
 31
0.0
  0
LINE
  5
11F
330
1F
100
AcDbEntity
  8
0-0
  6
JWW_DASHED1
 62
   120
370
     5
100
AcDbLine
 10
-680.6917415017857
 20
-682.5854565768318
 30
0.0
 11
-430.6917415017778
 21
-432.5854565768252
 31
0.0
  0
LINE
  5
120
330
1F
100
AcDbEntity
  8
0-0
  6
JWW_DASHED1
 62
   120
370
     5
100
AcDbLine
 10
-340.691741501788
 20
-342.5854565768337
 30
0.0
 11
-90.69174150178341
 21
-92.5854565768283
 31
0.0
  0
LINE
  5
121
330
1F
100
AcDbEntity
  8
0-0
  6
JWW_DASHED1
 62
   120
370
     5
100
AcDbLine
 10
-680.6917415017755
 20
-675.5143887635345
 30
0.0
 11
-430.6917415017846
 21
-425.5143887635439
 31
0.0
  0
LINE
  5
122
330
1F
100
AcDbEntity
  8
0-0
  6
JWW_DASHED1
 62
   120
370
     5
100
AcDbLine
 10
-340.6917415017914
 20
-335.5143887635525
 30
0.0
 11
-90.69174150178682
 21
-85.51438876354709
 31
0.0
  0
LINE
  5
123
330
1F
100
AcDbEntity
  8
0-0
  6
JWW_DASHED1
 62
   120
370
     5
100
AcDbLine
 10
-680.6917415017653
 20
-668.4433209502388
 30
0.0
 11
-430.6917415017743
 21
-418.4433209502504
 31
0.0
  0
LINE
  5
124
330
1F
100
AcDbEntity
  8
0-0
  6
JWW_DASHED1
 62
   120
370
     5
100
AcDbLine
 10
-340.6917415017709
 20
-328.443320950244
 30
0.0
 11
-90.69174150178
 21
-78.44332095025649
 31
0.0
  0
LINE
  5
125
330
1F
100
AcDbEntity
  8
0-0
  6
JWW_DASHED1
 62
   120
370
     5
100
AcDbLine
 10
-680.6917415017687
 20
-661.3722531369573
 30
0.0
 11
-430.6917415017812
 21
-411.3722531369692
 31
0.0
  0
LINE
  5
126
330
1F
100
AcDbEntity
  8
0-0
  6
JWW_DASHED1
 62
   120
370
     5
100
AcDbLine
 10
-340.6917415017743
 20
-321.3722531369627
 30
0.0
 11
-90.69174150178682
 21
-71.37225313697527
 31
0.0
  0
LINE
  5
127
330
1F
100
AcDbEntity
  8
0-0
  6
JWW_DASHED1
 62
   120
370
     5
100
AcDbLine
 10
-680.6917415017721
 20
-654.3011853236759
 30
0.0
 11
-430.6917415017846
 21
-404.3011853236875
 31
0.0
  0
LINE
  5
128
330
1F
100
AcDbEntity
  8
0-0
  6
JWW_DASHED1
 62
   120
370
     5
100
AcDbLine
 10
-340.6917415017778
 20
-314.3011853236811
 30
0.0
 11
-90.69174150179023
 21
-64.30118532369363
 31
0.0
  0
LINE
  5
129
330
1F
100
AcDbEntity
  8
0-0
  6
JWW_DASHED1
 62
   120
370
     5
100
AcDbLine
 10
-680.6917415017823
 20
-647.2301175104535
 30
0.0
 11
-430.6917415017778
 21
-397.2301175104494
 31
0.0
  0
LINE
  5
12A
330
1F
100
AcDbEntity
  8
0-0
  6
JWW_DASHED1
 62
   120
370
     5
100
AcDbLine
 10
-340.6917415017846
 20
-307.2301175104587
 30
0.0
 11
-90.69174150179705
 21
-57.23011751047125
 31
0.0
  0
LINE
  5
12B
330
1F
100
AcDbEntity
  8
0-0
  6
JWW_DASHED1
 62
   120
370
     5
100
AcDbLine
 10
-680.6917415017823
 20
-640.1590496971703
 30
0.0
 11
-430.6917415017778
 21
-390.1590496971639
 31
0.0
  0
LINE
  5
12C
330
1F
100
AcDbEntity
  8
0-0
  6
JWW_DASHED1
 62
   120
370
     5
100
AcDbLine
 10
-340.6917415017846
 20
-300.1590496971724
 30
0.0
 11
-90.69174150178
 21
-50.15904969716658
 31
0.0
  0
LINE
  5
12D
330
1F
100
AcDbEntity
  8
0-0
  6
JWW_DASHED1
 62
   120
370
     5
100
AcDbLine
 10
-680.6917415017857
 20
-633.0879818838889
 30
0.0
 11
-430.6917415017812
 21
-383.0879818838822
 31
0.0
  0
LINE
  5
12E
330
1F
100
AcDbEntity
  8
0-0
  6
JWW_DASHED1
 62
   120
370
     5
100
AcDbLine
 10
-340.691741501788
 20
-293.0879818838912
 30
0.0
 11
-90.69174150178341
 21
-43.08798188388536
 31
0.0
  0
LINE
  5
12F
330
1F
100
AcDbEntity
  8
0-0
  6
JWW_DASHED1
 62
   120
370
     5
100
AcDbLine
 10
-680.6917415017755
 20
-626.0169140705915
 30
0.0
 11
-430.6917415017846
 21
-376.016914070601
 31
0.0
  0
LINE
  5
130
330
1F
100
AcDbEntity
  8
0-0
  6
JWW_DASHED1
 62
   120
370
     5
100
AcDbLine
 10
-340.6917415017914
 20
-286.0169140706096
 30
0.0
 11
-90.69174150178682
 21
-36.01691407060414
 31
0.0
  0
LINE
  5
131
330
1F
100
AcDbEntity
  8
0-0
  6
JWW_DASHED1
 62
   120
370
     5
100
AcDbLine
 10
-680.6917415017653
 20
-618.9458462572962
 30
0.0
 11
-430.6917415017778
 21
-368.9458462573078
 31
0.0
  0
LINE
  5
132
330
1F
100
AcDbEntity
  8
0-0
  6
JWW_DASHED1
 62
   120
370
     5
100
AcDbLine
 10
-340.6917415017709
 20
-278.9458462573015
 30
0.0
 11
-90.69174150178341
 21
-28.94584625731397
 31
0.0
  0
LINE
  5
133
330
1F
100
AcDbEntity
  8
0-0
  6
JWW_DASHED1
 62
   120
370
     5
100
AcDbLine
 10
-680.6917415017687
 20
-611.874778444015
 30
0.0
 11
-430.6917415017812
 21
-361.8747784440267
 31
0.0
  0
LINE
  5
134
330
1F
100
AcDbEntity
  8
0-0
  6
JWW_DASHED1
 62
   120
370
     5
100
AcDbLine
 10
-340.6917415017743
 20
-271.8747784440203
 30
0.0
 11
-90.69174150178682
 21
-21.87477844403276
 31
0.0
  0
LINE
  5
135
330
1F
100
AcDbEntity
  8
0-0
  6
JWW_DASHED1
 62
   120
370
     5
100
AcDbLine
 10
-680.6917415017755
 20
-604.8037106307338
 30
0.0
 11
-430.6917415017846
 21
-354.803710630745
 31
0.0
  0
LINE
  5
136
330
1F
100
AcDbEntity
  8
0-0
  6
JWW_DASHED1
 62
   120
370
     5
100
AcDbLine
 10
-340.6917415017778
 20
-264.8037106307386
 30
0.0
 11
-90.69174150179023
 21
-14.80371063075111
 31
0.0
  0
LINE
  5
137
330
1F
100
AcDbEntity
  8
0-0
  6
JWW_DASHED1
 62
   120
370
     5
100
AcDbLine
 10
-680.6917415017789
 20
-597.7326428174522
 30
0.0
 11
-430.691741501788
 21
-347.7326428174638
 31
0.0
  0
LINE
  5
138
330
1F
100
AcDbEntity
  8
0-0
  6
JWW_DASHED1
 62
   120
370
     5
100
AcDbLine
 10
-340.6917415017846
 20
-257.7326428174574
 30
0.0
 11
-90.69174150179364
 21
-7.732642817469895
 31
0.0
  0
LINE
  5
139
330
1F
100
AcDbEntity
  8
0-0
  6
JWW_DASHED1
 62
   120
370
     5
100
AcDbLine
 10
-680.6917415017823
 20
-590.6615750041705
 30
0.0
 11
-430.6917415017778
 21
-340.6615750041668
 31
0.0
  0
LINE
  5
13A
330
1F
100
AcDbEntity
  8
0-0
  6
JWW_DASHED1
 62
   120
370
     5
100
AcDbLine
 10
-340.691741501788
 20
-250.6615750041762
 30
0.0
 11
-90.69174150180046
 21
-0.661575004188677
 31
0.0
  0
LINE
  5
13B
330
1F
100
AcDbEntity
  8
0-0
  6
JWW_DASHED1
 62
   120
370
     5
100
AcDbLine
 10
-680.6917415017891
 20
-583.590507190946
 30
0.0
 11
-430.6917415017812
 21
-333.5905071909397
 31
0.0
  0
LINE
  5
13C
330
1F
100
AcDbEntity
  8
0-0
  6
JWW_DASHED1
 62
   120
370
     5
100
AcDbLine
 10
-340.6917415017914
 20
-243.5905071909482
 30
0.0
 11
-90.69174150178341
 21
6.409492809057156
 31
0.0
  0
LINE
  5
13D
330
1F
100
AcDbEntity
  8
0-0
  6
JWW_DASHED1
 62
   120
370
     5
100
AcDbLine
 10
-680.6917415017755
 20
-576.519439377649
 30
0.0
 11
-430.6917415017846
 21
-326.519439377658
 31
0.0
  0
LINE
  5
13E
330
1F
100
AcDbEntity
  8
0-0
  6
JWW_DASHED1
 62
   120
370
     5
100
AcDbLine
 10
-340.6917415017948
 20
-236.5194393776666
 30
0.0
 11
-90.69174150178682
 21
13.4805606223388
 31
0.0
  0
LINE
  5
13F
330
1F
100
AcDbEntity
  8
0-0
  6
JWW_DASHED1
 62
   120
370
     5
100
AcDbLine
 10
-680.6917415017687
 20
-569.4483715643541
 30
0.0
 11
-430.6917415017778
 21
-319.4483715643657
 31
0.0
  0
LINE
  5
140
330
1F
100
AcDbEntity
  8
0-0
  6
JWW_DASHED1
 62
   120
370
     5
100
AcDbLine
 10
-340.6917415017709
 20
-229.448371564359
 30
0.0
 11
-90.69174150178341
 21
20.55162843562854
 31
0.0
  0
LINE
  5
141
330
1F
100
AcDbEntity
  8
0-0
  6
JWW_DASHED1
 62
   120
370
     5
100
AcDbLine
 10
-680.6917415017721
 20
-562.3773037510725
 30
0.0
 11
-430.6917415017812
 21
-312.3773037510841
 31
0.0
  0
LINE
  5
142
330
1F
100
AcDbEntity
  8
0-0
  6
JWW_DASHED1
 62
   120
370
     5
100
AcDbLine
 10
-340.6917415017778
 20
-222.3773037510777
 30
0.0
 11
-90.69174150178682
 21
27.62269624890976
 31
0.0
  0
LINE
  5
143
330
1F
100
AcDbEntity
  8
0-0
  6
JWW_DASHED1
 62
   120
370
     5
100
AcDbLine
 10
-680.6917415017755
 20
-555.3062359377913
 30
0.0
 11
-430.691741501788
 21
-305.3062359378029
 31
0.0
  0
LINE
  5
144
330
1F
100
AcDbEntity
  8
0-0
  6
JWW_DASHED1
 62
   120
370
     5
100
AcDbLine
 10
-340.6917415017812
 20
-215.3062359377965
 30
0.0
 11
-90.69174150179364
 21
34.69376406219098
 31
0.0
  0
LINE
  5
145
330
1F
100
AcDbEntity
  8
0-0
  6
JWW_DASHED1
 62
   120
370
     5
100
AcDbLine
 10
-680.6917415017789
 20
-548.2351681245099
 30
0.0
 11
-430.6917415017914
 21
-298.2351681245217
 31
0.0
  0
LINE
  5
146
330
1F
100
AcDbEntity
  8
0-0
  6
JWW_DASHED1
 62
   120
370
     5
100
AcDbLine
 10
-340.6917415017846
 20
-208.2351681245149
 30
0.0
 11
-90.69174150179705
 21
41.7648318754722
 31
0.0
  0
LINE
  5
147
330
1F
100
AcDbEntity
  8
0-0
  6
JWW_DASHED1
 62
   120
370
     5
100
AcDbLine
 10
-680.6917415017823
 20
-541.1641003112284
 30
0.0
 11
-430.6917415017778
 21
-291.1641003112243
 31
0.0
  0
LINE
  5
148
330
1F
100
AcDbEntity
  8
0-0
  6
JWW_DASHED1
 62
   120
370
     5
100
AcDbLine
 10
-340.691741501788
 20
-201.1641003112337
 30
0.0
 11
-90.69174150180046
 21
48.83589968875384
 31
0.0
  0
LINE
  5
149
330
1F
100
AcDbEntity
  8
0-0
  6
JWW_DASHED1
 62
   120
370
     5
100
AcDbLine
 10
-680.6917415017857
 20
-534.0930324979443
 30
0.0
 11
-430.6917415017778
 21
-284.0930324979379
 31
0.0
  0
LINE
  5
14A
330
1F
100
AcDbEntity
  8
0-0
  6
JWW_DASHED1
 62
   120
370
     5
100
AcDbLine
 10
-340.691741501788
 20
-194.0930324979465
 30
0.0
 11
-90.69174150178
 21
55.90696750205936
 31
0.0
  0
LINE
  5
14B
330
1F
100
AcDbEntity
  8
0-0
  6
JWW_DASHED1
 62
   120
370
     5
100
AcDbLine
 10
-680.6917415017891
 20
-527.021964684663
 30
0.0
 11
-430.6917415017812
 21
-277.0219646846563
 31
0.0
  0
LINE
  5
14C
330
1F
100
AcDbEntity
  8
0-0
  6
JWW_DASHED1
 62
   120
370
     5
100
AcDbLine
 10
-340.6917415017914
 20
-187.0219646846648
 30
0.0
 11
-90.69174150178682
 21
62.97803531534058
 31
0.0
  0
LINE
  5
14D
330
1F
100
AcDbEntity
  8
0-0
  6
JWW_DASHED1
 62
   120
370
     5
100
AcDbLine
 10
-680.6917415017755
 20
-519.9508968713656
 30
0.0
 11
-430.6917415017846
 21
-269.9508968713751
 31
0.0
  0
LINE
  5
14E
330
1F
100
AcDbEntity
  8
0-0
  6
JWW_DASHED1
 62
   120
370
     5
100
AcDbLine
 10
-340.6917415017948
 20
-179.9508968713836
 30
0.0
 11
-90.69174150179023
 21
70.0491031286218
 31
0.0
  0
LINE
  5
14F
330
1F
100
AcDbEntity
  8
0-0
  6
JWW_DASHED1
 62
   120
370
     5
100
AcDbLine
 10
-680.6917415017721
 20
-512.87982905813
 30
0.0
 11
-430.6917415017846
 21
-262.879829058142
 31
0.0
  0
LINE
  5
150
330
1F
100
AcDbEntity
  8
0-0
  6
JWW_DASHED1
 62
   120
370
     5
100
AcDbLine
 10
-340.6917415017778
 20
-172.8798290581356
 30
0.0
 11
-90.69174150179023
 21
77.12017094185228
 31
0.0
  0
LINE
  5
151
330
1F
100
AcDbEntity
  8
0-0
  6
JWW_DASHED1
 62
   120
370
     5
100
AcDbLine
 10
-680.6917415017755
 20
-505.8087612448487
 30
0.0
 11
-430.691741501788
 21
-255.8087612448604
 31
0.0
  0
LINE
  5
152
330
1F
100
AcDbEntity
  8
0-0
  6
JWW_DASHED1
 62
   120
370
     5
100
AcDbLine
 10
-340.6917415017812
 20
-165.808761244854
 30
0.0
 11
-90.69174150179364
 21
84.1912387551335
 31
0.0
  0
LINE
  5
153
330
1F
100
AcDbEntity
  8
0-0
  6
JWW_DASHED1
 62
   120
370
     5
100
AcDbLine
 10
-680.6917415017823
 20
-498.7376934315675
 30
0.0
 11
-430.6917415017914
 21
-248.7376934315792
 31
0.0
  0
LINE
  5
154
330
1F
100
AcDbEntity
  8
0-0
  6
JWW_DASHED1
 62
   120
370
     5
100
AcDbLine
 10
-340.6917415017846
 20
-158.7376934315728
 30
0.0
 11
-90.69174150179705
 21
91.26230656841514
 31
0.0
  0
LINE
  5
155
330
1F
100
AcDbEntity
  8
0-0
  6
JWW_DASHED1
 62
   120
370
     5
100
AcDbLine
 10
-680.6917415017857
 20
-491.6666256182859
 30
0.0
 11
-430.6917415017812
 21
-241.6666256182818
 31
0.0
  0
LINE
  5
156
330
1F
100
AcDbEntity
  8
0-0
  6
JWW_DASHED1
 62
   120
370
     5
100
AcDbLine
 10
-340.6917415017914
 20
-151.6666256182911
 30
0.0
 11
-90.69174150180046
 21
98.33337438169636
 31
0.0
  0
LINE
  5
157
330
1F
100
AcDbEntity
  8
0-0
  6
JWW_DASHED1
 62
   120
370
     5
100
AcDbLine
 10
-680.6917415017857
 20
-484.5955578050017
 30
0.0
 11
-430.6917415017778
 21
-234.595557804995
 31
0.0
  0
LINE
  5
158
330
1F
100
AcDbEntity
  8
0-0
  6
JWW_DASHED1
 62
   120
370
     5
100
AcDbLine
 10
-340.691741501788
 20
-144.5955578050035
 30
0.0
 11
-90.69174150178341
 21
105.4044421950023
 31
0.0
  0
LINE
  5
159
330
1F
100
AcDbEntity
  8
0-0
  6
JWW_DASHED1
 62
   120
370
     5
100
AcDbLine
 10
-680.6917415017755
 20
-477.5244899917043
 30
0.0
 11
-430.6917415017846
 21
-227.5244899917138
 31
0.0
  0
LINE
  5
15A
330
1F
100
AcDbEntity
  8
0-0
  6
JWW_DASHED1
 62
   120
370
     5
100
AcDbLine
 10
-340.6917415017914
 20
-137.5244899917223
 30
0.0
 11
-90.69174150178682
 21
112.4755100082835
 31
0.0
  0
LINE
  5
15B
330
1F
100
AcDbEntity
  8
0-0
  6
JWW_DASHED1
 62
   120
370
     5
100
AcDbLine
 10
-680.6917415017653
 20
-470.4534221784103
 30
0.0
 11
-430.6917415017778
 21
-220.4534221784219
 31
0.0
  0
LINE
  5
15C
330
1F
100
AcDbEntity
  8
0-0
  6
JWW_DASHED1
 62
   120
370
     5
100
AcDbLine
 10
-340.6917415017709
 20
-130.4534221784155
 30
0.0
 11
-90.69174150178341
 21
119.546577821572
 31
0.0
  0
LINE
  5
15D
330
1F
100
AcDbEntity
  8
0-0
  6
JWW_DASHED1
 62
   120
370
     5
100
AcDbLine
 10
-680.6917415017687
 20
-463.382354365129
 30
0.0
 11
-430.6917415017812
 21
-213.3823543651407
 31
0.0
  0
LINE
  5
15E
330
1F
100
AcDbEntity
  8
0-0
  6
JWW_DASHED1
 62
   120
370
     5
100
AcDbLine
 10
-340.6917415017743
 20
-123.3823543651343
 30
0.0
 11
-90.69174150178682
 21
126.6176456348536
 31
0.0
  0
LINE
  5
15F
330
1F
100
AcDbEntity
  8
0-0
  6
JWW_DASHED1
 62
   120
370
     5
100
AcDbLine
 10
-680.6917415017755
 20
-456.3112865518474
 30
0.0
 11
-430.6917415017846
 21
-206.3112865518595
 31
0.0
  0
LINE
  5
160
330
1F
100
AcDbEntity
  8
0-0
  6
JWW_DASHED1
 62
   120
370
     5
100
AcDbLine
 10
-340.6917415017778
 20
-116.3112865518526
 30
0.0
 11
-90.69174150179023
 21
133.6887134481348
 31
0.0
  0
LINE
  5
161
330
1F
100
AcDbEntity
  8
0-0
  6
JWW_DASHED1
 62
   120
370
     5
100
AcDbLine
 10
-680.6917415017823
 20
-449.240218738625
 30
0.0
 11
-430.6917415017948
 21
-199.2402187386367
 31
0.0
  0
LINE
  5
162
330
1F
100
AcDbEntity
  8
0-0
  6
JWW_DASHED1
 62
   120
370
     5
100
AcDbLine
 10
-340.691741501788
 20
-109.2402187386303
 30
0.0
 11
-90.69174150180046
 21
140.7597812613572
 31
0.0
  0
LINE
  5
163
330
1F
100
AcDbEntity
  8
0-0
  6
JWW_DASHED1
 62
   120
370
     5
100
AcDbLine
 10
-680.6917415017857
 20
-442.1691509253434
 30
0.0
 11
-430.6917415017812
 21
-192.1691509253397
 31
0.0
  0
LINE
  5
164
330
1F
100
AcDbEntity
  8
0-0
  6
JWW_DASHED1
 62
   120
370
     5
100
AcDbLine
 10
-340.6917415017914
 20
-102.169150925349
 30
0.0
 11
-90.69174150178682
 21
147.8308490746547
 31
0.0
  0
LINE
  5
165
330
1F
100
AcDbEntity
  8
0-0
  6
JWW_DASHED1
 62
   120
370
     5
100
AcDbLine
 10
-680.6917415017857
 20
-435.0980831120587
 30
0.0
 11
-430.6917415017812
 21
-185.0980831120521
 31
0.0
  0
LINE
  5
166
330
1F
100
AcDbEntity
  8
0-0
  6
JWW_DASHED1
 62
   120
370
     5
100
AcDbLine
 10
-340.691741501788
 20
-95.098083112061
 30
0.0
 11
-90.69174150178341
 21
154.9019168879448
 31
0.0
  0
LINE
  5
167
330
1F
100
AcDbEntity
  8
0-0
  6
JWW_DASHED1
 62
   120
370
     5
100
AcDbLine
 10
-680.6917415017755
 20
-428.0270152987613
 30
0.0
 11
-430.6917415017846
 21
-178.0270152987708
 31
0.0
  0
LINE
  5
168
330
1F
100
AcDbEntity
  8
0-0
  6
JWW_DASHED1
 62
   120
370
     5
100
AcDbLine
 10
-340.6917415017914
 20
-88.02701529877936
 30
0.0
 11
-90.69174150178682
 21
161.9729847012265
 31
0.0
  0
LINE
  5
169
330
1F
100
AcDbEntity
  8
0-0
  6
JWW_DASHED1
 62
   120
370
     5
100
AcDbLine
 10
-680.6917415017687
 20
-420.9559474854677
 30
0.0
 11
-430.6917415017778
 21
-170.9559474854794
 31
0.0
  0
LINE
  5
16A
330
1F
100
AcDbEntity
  8
0-0
  6
JWW_DASHED1
 62
   120
370
     5
100
AcDbLine
 10
-340.6917415017709
 20
-80.95594748547299
 30
0.0
 11
-90.69174150178341
 21
169.0440525145145
 31
0.0
  0
LINE
  5
16B
330
1F
100
AcDbEntity
  8
0-0
  6
JWW_DASHED1
 62
   120
370
     5
100
AcDbLine
 10
-680.6917415017721
 20
-413.8848796721869
 30
0.0
 11
-430.6917415017812
 21
-163.8848796721982
 31
0.0
  0
LINE
  5
16C
330
1F
100
AcDbEntity
  8
0-0
  6
JWW_DASHED1
 62
   120
370
     5
100
AcDbLine
 10
-340.6917415017778
 20
-73.88487967219177
 30
0.0
 11
-90.69174150178682
 21
176.1151203277957
 31
0.0
  0
LINE
  5
16D
330
1F
100
AcDbEntity
  8
0-0
  6
JWW_DASHED1
 62
   120
370
     5
100
AcDbLine
 10
-680.6917415017755
 20
-406.8138118589048
 30
0.0
 11
-430.691741501788
 21
-156.8138118589169
 31
0.0
  0
LINE
  5
16E
330
1F
100
AcDbEntity
  8
0-0
  6
JWW_DASHED1
 62
   120
370
     5
100
AcDbLine
 10
-340.6917415017812
 20
-66.81381185891055
 30
0.0
 11
-90.69174150179364
 21
183.1861881410769
 31
0.0
  0
LINE
  5
16F
330
1F
100
AcDbEntity
  8
0-0
  6
JWW_DASHED1
 62
   120
370
     5
100
AcDbLine
 10
-680.6917415017789
 20
-399.7427440456237
 30
0.0
 11
-430.6917415017914
 21
-149.7427440456353
 31
0.0
  0
LINE
  5
170
330
1F
100
AcDbEntity
  8
0-0
  6
JWW_DASHED1
 62
   120
370
     5
100
AcDbLine
 10
-340.6917415017846
 20
-59.74274404562934
 30
0.0
 11
-90.69174150179705
 21
190.2572559543586
 31
0.0
  0
LINE
  5
171
330
1F
100
AcDbEntity
  8
0-0
  6
JWW_DASHED1
 62
   120
370
     5
100
AcDbLine
 10
-680.6917415017823
 20
-392.6716762323424
 30
0.0
 11
-430.6917415017778
 21
-142.6716762323383
 31
0.0
  0
LINE
  5
172
330
1F
100
AcDbEntity
  8
0-0
  6
JWW_DASHED1
 62
   120
370
     5
100
AcDbLine
 10
-340.691741501788
 20
-52.67167623234769
 30
0.0
 11
-90.69174150180046
 21
197.3283237676398
 31
0.0
  0
LINE
  5
173
330
1F
100
AcDbEntity
  8
0-0
  6
JWW_DASHED1
 62
   120
370
     5
100
AcDbLine
 10
-680.6917415017891
 20
-385.6006084191158
 30
0.0
 11
-430.6917415017812
 21
-135.6006084191095
 31
0.0
  0
LINE
  5
174
330
1F
100
AcDbEntity
  8
0-0
  6
JWW_DASHED1
 62
   120
370
     5
100
AcDbLine
 10
-340.6917415017914
 20
-45.60060841911806
 30
0.0
 11
-90.69174150178341
 21
204.3993915808873
 31
0.0
  0
LINE
  5
175
330
1F
100
AcDbEntity
  8
0-0
  6
JWW_DASHED1
 62
   120
370
     5
100
AcDbLine
 10
-680.6917415017755
 20
-378.5295406058184
 30
0.0
 11
-430.6917415017846
 21
-128.5295406058279
 31
0.0
  0
LINE
  5
176
330
1F
100
AcDbEntity
  8
0-0
  6
JWW_DASHED1
 62
   120
370
     5
100
AcDbLine
 10
-340.6917415017948
 20
-38.52954060583684
 30
0.0
 11
-90.69174150178682
 21
211.4704593941694
 31
0.0
  0
LINE
  5
177
330
1F
100
AcDbEntity
  8
0-0
  6
JWW_DASHED1
 62
   120
370
     5
100
AcDbLine
 10
-680.6917415017687
 20
-371.4584727925252
 30
0.0
 11
-430.6917415017812
 21
-121.4584727925373
 31
0.0
  0
LINE
  5
178
330
1F
100
AcDbEntity
  8
0-0
  6
JWW_DASHED1
 62
   120
370
     5
100
AcDbLine
 10
-340.6917415017743
 20
-31.4584727925309
 30
0.0
 11
-90.69174150178682
 21
218.5415272074566
 31
0.0
  0
LINE
  5
179
330
1F
100
AcDbEntity
  8
0-0
  6
JWW_DASHED1
 62
   120
370
     5
100
AcDbLine
 10
-680.6917415017721
 20
-364.387404979244
 30
0.0
 11
-430.6917415017846
 21
-114.3874049792556
 31
0.0
  0
LINE
  5
17A
330
1F
100
AcDbEntity
  8
0-0
  6
JWW_DASHED1
 62
   120
370
     5
100
AcDbLine
 10
-340.6917415017778
 20
-24.38740497924968
 30
0.0
 11
-90.69174150179023
 21
225.6125950207378
 31
0.0
  0
LINE
  5
17B
330
1F
100
AcDbEntity
  8
0-0
  6
JWW_DASHED1
 62
   120
370
     5
100
AcDbLine
 10
-680.6917415017755
 20
-357.3163371659628
 30
0.0
 11
-430.691741501788
 21
-107.3163371659744
 31
0.0
  0
LINE
  5
17C
330
1F
100
AcDbEntity
  8
0-0
  6
JWW_DASHED1
 62
   120
370
     5
100
AcDbLine
 10
-340.6917415017812
 20
-17.31633716596804
 30
0.0
 11
-90.69174150179364
 21
232.6836628340195
 31
0.0
  0
LINE
  5
17D
330
1F
100
AcDbEntity
  8
0-0
  6
JWW_DASHED1
 62
   120
370
     5
100
AcDbLine
 10
-680.6917415017823
 20
-350.2452693526816
 30
0.0
 11
-430.6917415017914
 21
-100.2452693526932
 31
0.0
  0
LINE
  5
17E
330
1F
100
AcDbEntity
  8
0-0
  6
JWW_DASHED1
 62
   120
370
     5
100
AcDbLine
 10
-340.6917415017846
 20
-10.24526935268682
 30
0.0
 11
-90.69174150179705
 21
239.7547306473011
 31
0.0
  0
LINE
  5
17F
330
1F
100
AcDbEntity
  8
0-0
  6
JWW_DASHED1
 62
   120
370
     5
100
AcDbLine
 10
-680.6917415017857
 20
-343.1742015393999
 30
0.0
 11
-430.6917415017812
 21
-93.1742015393958
 31
0.0
  0
LINE
  5
180
330
1F
100
AcDbEntity
  8
0-0
  6
JWW_DASHED1
 62
   120
370
     5
100
AcDbLine
 10
-340.6917415017914
 20
-3.174201539405175
 30
0.0
 11
-90.69174150180388
 21
246.8257984605823
 31
0.0
  0
LINE
  5
181
330
1F
100
AcDbEntity
  8
0-0
  6
JWW_DASHED1
 62
   120
370
     5
100
AcDbLine
 10
-680.6917415017823
 20
-336.103133726114
 30
0.0
 11
-430.6917415017778
 21
-86.10313372610776
 31
0.0
  0
LINE
  5
182
330
1F
100
AcDbEntity
  8
0-0
  6
JWW_DASHED1
 62
   120
370
     5
100
AcDbLine
 10
-340.6917415017846
 20
3.896866273883717
 30
0.0
 11
-90.69174150178
 21
253.8968662738895
 31
0.0
  0
LINE
  5
183
330
1F
100
AcDbEntity
  8
0-0
  6
JWW_DASHED1
 62
   120
370
     5
100
AcDbLine
 10
-680.6917415017891
 20
-329.0320659128328
 30
0.0
 11
-430.6917415017812
 21
-79.03206591282611
 31
0.0
  0
LINE
  5
184
330
1F
100
AcDbEntity
  8
0-0
  6
JWW_DASHED1
 62
   120
370
     5
100
AcDbLine
 10
-340.6917415017914
 20
10.96793408716536
 30
0.0
 11
-90.69174150178341
 21
260.9679340871708
 31
0.0
  0
LINE
  5
185
330
1F
100
AcDbEntity
  8
0-0
  6
JWW_DASHED1
 62
   120
370
     5
100
AcDbLine
 10
-680.6917415017687
 20
-321.9609980995831
 30
0.0
 11
-430.6917415017812
 21
-71.96099809959478
 31
0.0
  0
LINE
  5
186
330
1F
100
AcDbEntity
  8
0-0
  6
JWW_DASHED1
 62
   120
370
     5
100
AcDbLine
 10
-340.6917415017743
 20
18.03900190041162
 30
0.0
 11
-90.69174150178682
 21
268.0390019003991
 31
0.0
  0
LINE
  5
187
330
1F
100
AcDbEntity
  8
0-0
  6
JWW_DASHED1
 62
   120
370
     5
100
AcDbLine
 10
-680.6917415017755
 20
-314.8899302863019
 30
0.0
 11
-430.6917415017846
 21
-64.88993028631356
 31
0.0
  0
LINE
  5
188
330
1F
100
AcDbEntity
  8
0-0
  6
JWW_DASHED1
 62
   120
370
     5
100
AcDbLine
 10
-340.6917415017778
 20
25.11006971369284
 30
0.0
 11
-90.69174150179023
 21
275.1100697136808
 31
0.0
  0
LINE
  5
189
330
1F
100
AcDbEntity
  8
0-0
  6
JWW_DASHED1
 62
   120
370
     5
100
AcDbLine
 10
-680.6917415017789
 20
-307.8188624730203
 30
0.0
 11
-430.6917415017914
 21
-57.81886247303234
 31
0.0
  0
LINE
  5
18A
330
1F
100
AcDbEntity
  8
0-0
  6
JWW_DASHED1
 62
   120
370
     5
100
AcDbLine
 10
-340.6917415017846
 20
32.18113752697448
 30
0.0
 11
-90.69174150179364
 21
282.1811375269619
 31
0.0
  0
LINE
  5
18B
330
1F
100
AcDbEntity
  8
0-0
  6
JWW_DASHED1
 62
   120
370
     5
100
AcDbLine
 10
-680.6917415017823
 20
-300.747794659739
 30
0.0
 11
-430.6917415017948
 21
-50.7477946597507
 31
0.0
  0
LINE
  5
18C
330
1F
100
AcDbEntity
  8
0-0
  6
JWW_DASHED1
 62
   120
370
     5
100
AcDbLine
 10
-340.691741501788
 20
39.2522053402557
 30
0.0
 11
-90.69174150180046
 21
289.2522053402432
 31
0.0
  0
LINE
  5
18D
330
1F
100
AcDbEntity
  8
0-0
  6
JWW_DASHED1
 62
   120
370
     5
100
AcDbLine
 10
-680.6917415017857
 20
-293.6767268464574
 30
0.0
 11
-430.6917415017812
 21
-43.6767268464537
 31
0.0
  0
LINE
  5
18E
330
1F
100
AcDbEntity
  8
0-0
  6
JWW_DASHED1
 62
   120
370
     5
100
AcDbLine
 10
-340.6917415017914
 20
46.32327315353692
 30
0.0
 11
-90.69174150180388
 21
296.3232731535244
 31
0.0
  0
LINE
  5
18F
330
1F
100
AcDbEntity
  8
0-0
  6
JWW_DASHED1
 62
   120
370
     5
100
AcDbLine
 10
-680.6917415017857
 20
-286.605659033171
 30
0.0
 11
-430.6917415017778
 21
-36.60565903316481
 31
0.0
  0
LINE
  5
190
330
1F
100
AcDbEntity
  8
0-0
  6
JWW_DASHED1
 62
   120
370
     5
100
AcDbLine
 10
-340.691741501788
 20
53.39434096682666
 30
0.0
 11
-90.69174150178
 21
303.394340966832
 31
0.0
  0
LINE
  5
191
330
1F
100
AcDbEntity
  8
0-0
  6
JWW_DASHED1
 62
   120
370
     5
100
AcDbLine
 10
-680.6917415017891
 20
-279.5345912198899
 30
0.0
 11
-430.6917415017846
 21
-29.53459121988317
 31
0.0
  0
LINE
  5
192
330
1F
100
AcDbEntity
  8
0-0
  6
JWW_DASHED1
 62
   120
370
     5
100
AcDbLine
 10
-340.6917415017914
 20
60.46540878010788
 30
0.0
 11
-90.69174150178682
 21
310.4654087801133
 31
0.0
  0
LINE
  5
193
330
1F
100
AcDbEntity
  8
0-0
  6
JWW_DASHED1
 62
   120
370
     5
100
AcDbLine
 10
-680.6917415017755
 20
-272.4635234065925
 30
0.0
 11
-430.691741501788
 21
-22.46352340660195
 31
0.0
  0
LINE
  5
194
330
1F
100
AcDbEntity
  8
0-0
  6
JWW_DASHED1
 62
   120
370
     5
100
AcDbLine
 10
-340.6917415017778
 20
67.5364765934053
 30
0.0
 11
-90.69174150179023
 21
317.5364765933954
 31
0.0
  0
LINE
  5
195
330
1F
100
AcDbEntity
  8
0-0
  6
JWW_DASHED1
 62
   120
370
     5
100
AcDbLine
 10
-680.6917415017721
 20
-265.3924555933006
 30
0.0
 11
-430.6917415017812
 21
-15.39245559331221
 31
0.0
  0
LINE
  5
196
330
1F
100
AcDbEntity
  8
0-0
  6
JWW_DASHED1
 62
   120
370
     5
100
AcDbLine
 10
-340.6917415017778
 20
74.60754440669419
 30
0.0
 11
-90.69174150178682
 21
324.6075444066817
 31
0.0
  0
LINE
  5
197
330
1F
100
AcDbEntity
  8
0-0
  6
JWW_DASHED1
 62
   120
370
     5
100
AcDbLine
 10
-680.6917415017789
 20
-258.3213877800778
 30
0.0
 11
-430.6917415017914
 21
-8.321387780089822
 31
0.0
  0
LINE
  5
198
330
1F
100
AcDbEntity
  8
0-0
  6
JWW_DASHED1
 62
   120
370
     5
100
AcDbLine
 10
-340.6917415017846
 20
81.67861221991657
 30
0.0
 11
-90.69174150179705
 21
331.6786122199045
 31
0.0
  0
LINE
  5
199
330
1F
100
AcDbEntity
  8
0-0
  6
JWW_DASHED1
 62
   120
370
     5
100
AcDbLine
 10
-680.6917415017823
 20
-251.2503199667965
 30
0.0
 11
-430.6917415017948
 21
-1.250319966808178
 31
0.0
  0
LINE
  5
19A
330
1F
100
AcDbEntity
  8
0-0
  6
JWW_DASHED1
 62
   120
370
     5
100
AcDbLine
 10
-340.691741501788
 20
88.74968003319779
 30
0.0
 11
-90.69174150180046
 21
338.7496800331853
 31
0.0
  0
LINE
  5
19B
330
1F
100
AcDbEntity
  8
0-0
  6
JWW_DASHED1
 62
   120
370
     5
100
AcDbLine
 10
-680.6917415017891
 20
-244.1792521535153
 30
0.0
 11
-430.6917415017846
 21
5.820747846488814
 31
0.0
  0
LINE
  5
19C
330
1F
100
AcDbEntity
  8
0-0
  6
JWW_DASHED1
 62
   120
370
     5
100
AcDbLine
 10
-340.6917415017914
 20
95.82074784647943
 30
0.0
 11
-90.69174150179023
 21
345.8207478464827
 31
0.0
  0
LINE
  5
19D
330
1F
100
AcDbEntity
  8
0-0
  6
JWW_DASHED1
 62
   120
370
     5
100
AcDbLine
 10
-680.6917415017857
 20
-237.1081843402285
 30
0.0
 11
-430.6917415017812
 21
12.89181565977813
 31
0.0
  0
LINE
  5
19E
330
1F
100
AcDbEntity
  8
0-0
  6
JWW_DASHED1
 62
   120
370
     5
100
AcDbLine
 10
-340.691741501788
 20
102.8918156597696
 30
0.0
 11
-90.69174150178341
 21
352.891815659775
 31
0.0
  0
LINE
  5
19F
330
1F
100
AcDbEntity
  8
0-0
  6
JWW_DASHED1
 62
   120
370
     5
100
AcDbLine
 10
-680.6917415017755
 20
-230.0371165269316
 30
0.0
 11
-430.6917415017846
 21
19.96288347305935
 31
0.0
  0
LINE
  5
1A0
330
1F
100
AcDbEntity
  8
0-0
  6
JWW_DASHED1
 62
   120
370
     5
100
AcDbLine
 10
-340.6917415017914
 20
109.9628834730508
 30
0.0
 11
-90.69174150178682
 21
359.9628834730566
 31
0.0
  0
LINE
  5
1A1
330
1F
100
AcDbEntity
  8
0-0
  6
JWW_DASHED1
 62
   120
370
     5
100
AcDbLine
 10
-680.6917415017687
 20
-222.9660487136393
 30
0.0
 11
-430.6917415017812
 21
27.03395128634867
 31
0.0
  0
LINE
  5
1A2
330
1F
100
AcDbEntity
  8
0-0
  6
JWW_DASHED1
 62
   120
370
     5
100
AcDbLine
 10
-340.6917415017743
 20
117.0339512863551
 30
0.0
 11
-90.69174150178682
 21
367.0339512863426
 31
0.0
  0
LINE
  5
1A3
330
1F
100
AcDbEntity
  8
0-0
  6
JWW_DASHED1
 62
   120
370
     5
100
AcDbLine
 10
-680.6917415017721
 20
-215.894980900358
 30
0.0
 11
-430.6917415017846
 21
34.10501909963031
 31
0.0
  0
LINE
  5
1A4
330
1F
100
AcDbEntity
  8
0-0
  6
JWW_DASHED1
 62
   120
370
     5
100
AcDbLine
 10
-340.6917415017778
 20
124.1050190996363
 30
0.0
 11
-90.69174150179023
 21
374.1050190996242
 31
0.0
  0
LINE
  5
1A5
330
1F
100
AcDbEntity
  8
0-0
  6
JWW_DASHED1
 62
   120
370
     5
100
AcDbLine
 10
-680.6917415017755
 20
-208.8239130870768
 30
0.0
 11
-430.691741501788
 21
41.17608691291153
 31
0.0
  0
LINE
  5
1A6
330
1F
100
AcDbEntity
  8
0-0
  6
JWW_DASHED1
 62
   120
370
     5
100
AcDbLine
 10
-340.6917415017812
 20
131.1760869129179
 30
0.0
 11
-90.69174150179364
 21
381.1760869129054
 31
0.0
  0
LINE
  5
1A7
330
1F
100
AcDbEntity
  8
0-0
  6
JWW_DASHED1
 62
   120
370
     5
100
AcDbLine
 10
-680.6917415017823
 20
-201.7528452737952
 30
0.0
 11
-430.6917415017914
 21
48.24715472619275
 31
0.0
  0
LINE
  5
1A8
330
1F
100
AcDbEntity
  8
0-0
  6
JWW_DASHED1
 62
   120
370
     5
100
AcDbLine
 10
-340.6917415017846
 20
138.2471547261996
 30
0.0
 11
-90.69174150179705
 21
388.2471547261871
 31
0.0
  0
LINE
  5
1A9
330
1F
100
AcDbEntity
  8
0-0
  6
JWW_DASHED1
 62
   120
370
     5
100
AcDbLine
 10
-680.6917415017823
 20
-194.6817774605668
 30
0.0
 11
-430.6917415017778
 21
55.31822253943943
 31
0.0
  0
LINE
  5
1AA
330
1F
100
AcDbEntity
  8
0-0
  6
JWW_DASHED1
 62
   120
370
     5
100
AcDbLine
 10
-340.6917415017846
 20
145.3182225394305
 30
0.0
 11
-90.69174150178
 21
395.3182225394368
 31
0.0
  0
LINE
  5
1AB
330
1F
100
AcDbEntity
  8
0-0
  6
JWW_DASHED1
 62
   120
370
     5
100
AcDbLine
 10
-680.6917415017891
 20
-187.610709647286
 30
0.0
 11
-430.6917415017812
 21
62.38929035272108
 31
0.0
  0
LINE
  5
1AC
330
1F
100
AcDbEntity
  8
0-0
  6
JWW_DASHED1
 62
   120
370
     5
100
AcDbLine
 10
-340.691741501788
 20
152.3892903527121
 30
0.0
 11
-90.69174150178341
 21
402.3892903527179
 31
0.0
  0
LINE
  5
1AD
330
1F
100
AcDbEntity
  8
0-0
  6
JWW_DASHED1
 62
   120
370
     5
100
AcDbLine
 10
-680.6917415017755
 20
-180.5396418339886
 30
0.0
 11
-430.6917415017846
 21
69.4603581660023
 31
0.0
  0
LINE
  5
1AE
330
1F
100
AcDbEntity
  8
0-0
  6
JWW_DASHED1
 62
   120
370
     5
100
AcDbLine
 10
-340.6917415017914
 20
159.4603581659938
 30
0.0
 11
-90.69174150178682
 21
409.4603581659996
 31
0.0
  0
LINE
  5
1AF
330
1F
100
AcDbEntity
  8
0-0
  6
JWW_DASHED1
 62
   120
370
     5
100
AcDbLine
 10
-680.6917415017687
 20
-173.4685740206972
 30
0.0
 11
-430.6917415017812
 21
76.53142597929119
 31
0.0
  0
LINE
  5
1B0
330
1F
100
AcDbEntity
  8
0-0
  6
JWW_DASHED1
 62
   120
370
     5
100
AcDbLine
 10
-340.6917415017743
 20
166.5314259792976
 30
0.0
 11
-90.69174150178682
 21
416.5314259792851
 31
0.0
  0
LINE
  5
1B1
330
1F
100
AcDbEntity
  8
0-0
  6
JWW_DASHED1
 62
   120
370
     5
100
AcDbLine
 10
-680.6917415017755
 20
-166.3975062074159
 30
0.0
 11
-430.6917415017846
 21
83.6024937925724
 31
0.0
  0
LINE
  5
1B2
330
1F
100
AcDbEntity
  8
0-0
  6
JWW_DASHED1
 62
   120
370
     5
100
AcDbLine
 10
-340.6917415017778
 20
173.6024937925788
 30
0.0
 11
-90.69174150179023
 21
423.6024937925663
 31
0.0
  0
LINE
  5
1B3
330
1F
100
AcDbEntity
  8
0-0
  6
JWW_DASHED1
 62
   120
370
     5
100
AcDbLine
 10
-680.6917415017789
 20
-159.3264383941347
 30
0.0
 11
-430.6917415017914
 21
90.67356160585405
 31
0.0
  0
LINE
  5
1B4
330
1F
100
AcDbEntity
  8
0-0
  6
JWW_DASHED1
 62
   120
370
     5
100
AcDbLine
 10
-340.6917415017846
 20
180.6735616058604
 30
0.0
 11
-90.69174150179364
 21
430.6735616058479
 31
0.0
  0
LINE
  5
1B5
330
1F
100
AcDbEntity
  8
0-0
  6
JWW_DASHED1
 62
   120
370
     5
100
AcDbLine
 10
-680.6917415017823
 20
-152.2553705808531
 30
0.0
 11
-430.6917415017948
 21
97.74462941913526
 31
0.0
  0
LINE
  5
1B6
330
1F
100
AcDbEntity
  8
0-0
  6
JWW_DASHED1
 62
   120
370
     5
100
AcDbLine
 10
-340.691741501788
 20
187.7446294191417
 30
0.0
 11
-90.69174150180046
 21
437.7446294191292
 31
0.0
  0
LINE
  5
1B7
330
1F
100
AcDbEntity
  8
0-0
  6
JWW_DASHED1
 62
   120
370
     5
100
AcDbLine
 10
-680.6917415017857
 20
-145.1843027675714
 30
0.0
 11
-430.6917415017812
 21
104.8156972324323
 31
0.0
  0
LINE
  5
1B8
330
1F
100
AcDbEntity
  8
0-0
  6
JWW_DASHED1
 62
   120
370
     5
100
AcDbLine
 10
-340.6917415017914
 20
194.8156972324233
 30
0.0
 11
-90.69174150180388
 21
444.8156972324103
 31
0.0
  0
LINE
  5
1B9
330
1F
100
AcDbEntity
  8
0-0
  6
JWW_DASHED1
 62
   120
370
     5
100
AcDbLine
 10
-680.6917415017823
 20
-138.1132349542838
 30
0.0
 11
-430.6917415017778
 21
111.8867650457224
 31
0.0
  0
LINE
  5
1BA
330
1F
100
AcDbEntity
  8
0-0
  6
JWW_DASHED1
 62
   120
370
     5
100
AcDbLine
 10
-340.6917415017846
 20
201.8867650457139
 30
0.0
 11
-90.69174150178
 21
451.8867650457193
 31
0.0
  0
LINE
  5
1BB
330
1F
100
AcDbEntity
  8
0-0
  6
JWW_DASHED1
 62
   120
370
     5
100
AcDbLine
 10
-680.6917415017755
 20
-131.0421671410158
 30
0.0
 11
-430.6917415017846
 21
118.9578328589742
 31
0.0
  0
LINE
  5
1BC
330
1F
100
AcDbEntity
  8
0-0
  6
JWW_DASHED1
 62
   120
370
     5
100
AcDbLine
 10
-340.6917415017914
 20
208.9578328589657
 30
0.0
 11
-90.69174150178682
 21
458.9578328589715
 31
0.0
  0
LINE
  5
1BD
330
1F
100
AcDbEntity
  8
0-0
  6
JWW_DASHED1
 62
   120
370
     5
100
AcDbLine
 10
-680.6917415017721
 20
-123.9710993277546
 30
0.0
 11
-430.6917415017846
 21
126.0289006722337
 31
0.0
  0
LINE
  5
1BE
330
1F
100
AcDbEntity
  8
0-0
  6
JWW_DASHED1
 62
   120
370
     5
100
AcDbLine
 10
-340.6917415017778
 20
216.0289006722401
 30
0.0
 11
-90.69174150178682
 21
466.0289006722272
 31
0.0
  0
LINE
  5
1BF
330
1F
100
AcDbEntity
  8
0-0
  6
JWW_DASHED1
 62
   120
370
     5
100
AcDbLine
 10
-680.6917415017755
 20
-116.9000315144734
 30
0.0
 11
-430.691741501788
 21
133.0999684855149
 31
0.0
  0
LINE
  5
1C0
330
1F
100
AcDbEntity
  8
0-0
  6
JWW_DASHED1
 62
   120
370
     5
100
AcDbLine
 10
-340.6917415017812
 20
223.0999684855213
 30
0.0
 11
-90.69174150179364
 21
473.0999684855088
 31
0.0
  0
LINE
  5
1C1
330
1F
100
AcDbEntity
  8
0-0
  6
JWW_DASHED1
 62
   120
370
     5
100
AcDbLine
 10
-680.6917415017789
 20
-109.8289637011918
 30
0.0
 11
-430.6917415017914
 21
140.1710362987961
 31
0.0
  0
LINE
  5
1C2
330
1F
100
AcDbEntity
  8
0-0
  6
JWW_DASHED1
 62
   120
370
     5
100
AcDbLine
 10
-340.6917415017846
 20
230.171036298803
 30
0.0
 11
-90.69174150179705
 21
480.17103629879
 31
0.0
  0
LINE
  5
1C3
330
1F
100
AcDbEntity
  8
0-0
  6
JWW_DASHED1
 62
   120
370
     5
100
AcDbLine
 10
-680.6917415017823
 20
-102.7578958879106
 30
0.0
 11
-430.6917415017948
 21
147.2421041120778
 31
0.0
  0
LINE
  5
1C4
330
1F
100
AcDbEntity
  8
0-0
  6
JWW_DASHED1
 62
   120
370
     5
100
AcDbLine
 10
-340.691741501788
 20
237.2421041120842
 30
0.0
 11
-90.69174150180046
 21
487.2421041120713
 31
0.0
  0
LINE
  5
1C5
330
1F
100
AcDbEntity
  8
0-0
  6
JWW_DASHED1
 62
   120
370
     5
100
AcDbLine
 10
-680.6917415017891
 20
-95.68682807462935
 30
0.0
 11
-430.6917415017846
 21
154.3131719253748
 31
0.0
  0
LINE
  5
1C6
330
1F
100
AcDbEntity
  8
0-0
  6
JWW_DASHED1
 62
   120
370
     5
100
AcDbLine
 10
-340.6917415017914
 20
244.3131719253654
 30
0.0
 11
-90.69174150180388
 21
494.3131719253529
 31
0.0
  0
LINE
  5
1C7
330
1F
100
AcDbEntity
  8
0-0
  6
JWW_DASHED1
 62
   120
370
     5
100
AcDbLine
 10
-680.6917415017857
 20
-88.61576026134131
 30
0.0
 11
-430.6917415017778
 21
161.3842397386654
 31
0.0
  0
LINE
  5
1C8
330
1F
100
AcDbEntity
  8
0-0
  6
JWW_DASHED1
 62
   120
370
     5
100
AcDbLine
 10
-340.691741501788
 20
251.3842397386568
 30
0.0
 11
-90.69174150178
 21
501.3842397386627
 31
0.0
  0
LINE
  5
1C9
330
1F
100
AcDbEntity
  8
0-0
  6
JWW_DASHED1
 62
   120
370
     5
100
AcDbLine
 10
-680.6917415017891
 20
-81.54469244805966
 30
0.0
 11
-430.6917415017812
 21
168.455307551947
 31
0.0
  0
LINE
  5
1CA
330
1F
100
AcDbEntity
  8
0-0
  6
JWW_DASHED1
 62
   120
370
     5
100
AcDbLine
 10
-340.6917415017914
 20
258.4553075519385
 30
0.0
 11
-90.69174150178682
 21
508.4553075519439
 31
0.0
  0
LINE
  5
1CB
330
1F
100
AcDbEntity
  8
0-0
  6
JWW_DASHED1
 62
   120
370
     5
100
AcDbLine
 10
-680.6917415017755
 20
-74.47362463476225
 30
0.0
 11
-430.6917415017846
 21
175.5263753652282
 31
0.0
  0
LINE
  5
1CC
330
1F
100
AcDbEntity
  8
0-0
  6
JWW_DASHED1
 62
   120
370
     5
100
AcDbLine
 10
-340.6917415017778
 20
265.5263753652355
 30
0.0
 11
-90.69174150179023
 21
515.5263753652251
 31
0.0
  0
LINE
  5
1CD
330
1F
100
AcDbEntity
  8
0-0
  6
JWW_DASHED1
 62
   120
370
     5
100
AcDbLine
 10
-680.6917415017755
 20
-67.40255682150192
 30
0.0
 11
-430.6917415017846
 21
182.5974431784869
 31
0.0
  0
LINE
  5
1CE
330
1F
100
AcDbEntity
  8
0-0
  6
JWW_DASHED1
 62
   120
370
     5
100
AcDbLine
 10
-340.6917415017778
 20
272.5974431784932
 30
0.0
 11
-90.69174150179364
 21
522.5974431784803
 31
0.0
  0
LINE
  5
1CF
330
1F
100
AcDbEntity
  8
0-0
  6
JWW_DASHED1
 62
   120
370
     5
100
AcDbLine
 10
-680.6917415017823
 20
-60.33148900824969
 30
0.0
 11
-430.6917415017914
 21
189.6685109917387
 31
0.0
  0
LINE
  5
1D0
330
1F
100
AcDbEntity
  8
0-0
  6
JWW_DASHED1
 62
   120
370
     5
100
AcDbLine
 10
-340.6917415017846
 20
279.6685109917451
 30
0.0
 11
-90.69174150179705
 21
529.6685109917325
 31
0.0
  0
LINE
  5
1D1
330
1F
100
AcDbEntity
  8
0-0
  6
JWW_DASHED1
 62
   120
370
     5
100
AcDbLine
 10
-680.6917415017857
 20
-53.26042119496847
 30
0.0
 11
-430.6917415017982
 21
196.7395788050203
 31
0.0
  0
LINE
  5
1D2
330
1F
100
AcDbEntity
  8
0-0
  6
JWW_DASHED1
 62
   120
370
     5
100
AcDbLine
 10
-340.6917415017914
 20
286.7395788050267
 30
0.0
 11
-90.69174150180046
 21
536.7395788050137
 31
0.0
  0
LINE
  5
1D3
330
1F
100
AcDbEntity
  8
0-0
  6
JWW_DASHED1
 62
   120
370
     5
100
AcDbLine
 10
-680.6917415017891
 20
-46.18935338168683
 30
0.0
 11
-430.6917415017846
 21
203.8106466183173
 31
0.0
  0
LINE
  5
1D4
330
1F
100
AcDbEntity
  8
0-0
  6
JWW_DASHED1
 62
   120
370
     5
100
AcDbLine
 10
-340.6917415017948
 20
293.8106466183079
 30
0.0
 11
-90.69174150180729
 21
543.810646618295
 31
0.0
  0
LINE
  5
1D5
330
1F
100
AcDbEntity
  8
0-0
  6
JWW_DASHED1
 62
   120
370
     5
100
AcDbLine
 10
-680.6917415017857
 20
-39.11828556839836
 30
0.0
 11
-430.6917415017778
 21
210.8817144316079
 31
0.0
  0
LINE
  5
1D6
330
1F
100
AcDbEntity
  8
0-0
  6
JWW_DASHED1
 62
   120
370
     5
100
AcDbLine
 10
-340.691741501788
 20
300.8817144315993
 30
0.0
 11
-90.69174150178341
 21
550.8817144316051
 31
0.0
  0
LINE
  5
1D7
330
1F
100
AcDbEntity
  8
0-0
  6
JWW_DASHED1
 62
   120
370
     5
100
AcDbLine
 10
-680.6917415017755
 20
-32.04721775510095
 30
0.0
 11
-430.6917415017846
 21
217.9527822448895
 31
0.0
  0
LINE
  5
1D8
330
1F
100
AcDbEntity
  8
0-0
  6
JWW_DASHED1
 62
   120
370
     5
100
AcDbLine
 10
-340.6917415017914
 20
307.952782244881
 30
0.0
 11
-90.69174150178682
 21
557.9527822448864
 31
0.0
  0
LINE
  5
1D9
330
1F
100
AcDbEntity
  8
0-0
  6
JWW_DASHED1
 62
   120
370
     5
100
AcDbLine
 10
-680.6917415017687
 20
-24.9761499418112
 30
0.0
 11
-430.6917415017812
 21
225.0238500581771
 31
0.0
  0
LINE
  5
1DA
330
1F
100
AcDbEntity
  8
0-0
  6
JWW_DASHED1
 62
   120
370
     5
100
AcDbLine
 10
-340.6917415017743
 20
315.0238500581835
 30
0.0
 11
-90.69174150178682
 21
565.0238500581711
 31
0.0
  0
LINE
  5
1DB
330
1F
100
AcDbEntity
  8
0-0
  6
JWW_DASHED1
 62
   120
370
     5
100
AcDbLine
 10
-680.6917415017755
 20
-17.90508212852956
 30
0.0
 11
-430.6917415017846
 21
232.0949178714588
 31
0.0
  0
LINE
  5
1DC
330
1F
100
AcDbEntity
  8
0-0
  6
JWW_DASHED1
 62
   120
370
     5
100
AcDbLine
 10
-340.6917415017778
 20
322.0949178714652
 30
0.0
 11
-90.69174150179023
 21
572.0949178714523
 31
0.0
  0
LINE
  5
1DD
330
1F
100
AcDbEntity
  8
0-0
  6
JWW_DASHED1
 62
   120
370
     5
100
AcDbLine
 10
-680.6917415017789
 20
-10.83401431524834
 30
0.0
 11
-430.691741501788
 21
239.16598568474
 31
0.0
  0
LINE
  5
1DE
330
1F
100
AcDbEntity
  8
0-0
  6
JWW_DASHED1
 62
   120
370
     5
100
AcDbLine
 10
-340.6917415017846
 20
329.1659856847464
 30
0.0
 11
-90.69174150179364
 21
579.1659856847339
 31
0.0
  0
LINE
  5
1DF
330
1F
100
AcDbEntity
  8
0-0
  6
JWW_DASHED1
 62
   120
370
     5
100
AcDbLine
 10
-680.6917415017823
 20
-3.762946501967122
 30
0.0
 11
-430.6917415017948
 21
246.2370534980212
 31
0.0
  0
LINE
  5
1E0
330
1F
100
AcDbEntity
  8
0-0
  6
JWW_DASHED1
 62
   120
370
     5
100
AcDbLine
 10
-340.691741501788
 20
336.2370534980276
 30
0.0
 11
-90.69174150180046
 21
586.2370534980151
 31
0.0
  0
LINE
  5
1E1
330
1F
100
AcDbEntity
  8
0-0
  6
JWW_DASHED1
 62
   120
370
     5
100
AcDbLine
 10
-680.6917415017823
 20
3.308121311263363
 30
0.0
 11
-430.6917415017778
 21
253.3081213112696
 31
0.0
  0
LINE
  5
1E2
330
1F
100
AcDbEntity
  8
0-0
  6
JWW_DASHED1
 62
   120
370
     5
100
AcDbLine
 10
-340.6917415017846
 20
343.3081213112611
 30
0.0
 11
-90.69174150178
 21
593.3081213112665
 31
0.0
  0
LINE
  5
1E3
330
1F
100
AcDbEntity
  8
0-0
  6
JWW_DASHED1
 62
   120
370
     5
100
AcDbLine
 10
-680.6917415017857
 20
10.37918912454458
 30
0.0
 11
-430.6917415017812
 21
260.3791891245509
 31
0.0
  0
LINE
  5
1E4
330
1F
100
AcDbEntity
  8
0-0
  6
JWW_DASHED1
 62
   120
370
     5
100
AcDbLine
 10
-340.691741501788
 20
350.3791891245427
 30
0.0
 11
-90.69174150178341
 21
600.3791891245481
 31
0.0
  0
LINE
  5
1E5
330
1F
100
AcDbEntity
  8
0-0
  6
JWW_DASHED1
 62
   120
370
     5
100
AcDbLine
 10
-680.6917415017755
 20
17.450256937842
 30
0.0
 11
-430.6917415017846
 21
267.4502569378325
 31
0.0
  0
LINE
  5
1E6
330
1F
100
AcDbEntity
  8
0-0
  6
JWW_DASHED1
 62
   120
370
     5
100
AcDbLine
 10
-340.6917415017914
 20
357.450256937824
 30
0.0
 11
-90.69174150178682
 21
607.4502569378294
 31
0.0
  0
LINE
  5
1E7
330
1F
100
AcDbEntity
  8
0-0
  6
JWW_DASHED1
 62
   120
370
     5
100
AcDbLine
 10
-680.6917415017721
 20
24.52132475113132
 30
0.0
 11
-430.6917415017846
 21
274.5213247511197
 31
0.0
  0
LINE
  5
1E8
330
1F
100
AcDbEntity
  8
0-0
  6
JWW_DASHED1
 62
   120
370
     5
100
AcDbLine
 10
-340.6917415017778
 20
364.521324751126
 30
0.0
 11
-90.69174150178682
 21
614.5213247511131
 31
0.0
  0
LINE
  5
1E9
330
1F
100
AcDbEntity
  8
0-0
  6
JWW_DASHED1
 62
   120
370
     5
100
AcDbLine
 10
-680.6917415017755
 20
31.59239256441253
 30
0.0
 11
-430.691741501788
 21
281.5923925644009
 31
0.0
  0
LINE
  5
1EA
330
1F
100
AcDbEntity
  8
0-0
  6
JWW_DASHED1
 62
   120
370
     5
100
AcDbLine
 10
-340.6917415017812
 20
371.5923925644073
 30
0.0
 11
-90.69174150179364
 21
621.5923925643948
 31
0.0
  0
LINE
  5
1EB
330
1F
100
AcDbEntity
  8
0-0
  6
JWW_DASHED1
 62
   120
370
     5
100
AcDbLine
 10
-680.6917415017789
 20
38.66346037769418
 30
0.0
 11
-430.6917415017914
 21
288.6634603776826
 31
0.0
  0
LINE
  5
1EC
330
1F
100
AcDbEntity
  8
0-0
  6
JWW_DASHED1
 62
   120
370
     5
100
AcDbLine
 10
-340.6917415017846
 20
378.6634603776889
 30
0.0
 11
-90.69174150179705
 21
628.663460377676
 31
0.0
  0
LINE
  5
1ED
330
1F
100
AcDbEntity
  8
0-0
  6
JWW_DASHED1
 62
   120
370
     5
100
AcDbLine
 10
-680.6917415017823
 20
45.7345281909754
 30
0.0
 11
-430.6917415017948
 21
295.7345281909637
 31
0.0
  0
LINE
  5
1EE
330
1F
100
AcDbEntity
  8
0-0
  6
JWW_DASHED1
 62
   120
370
     5
100
AcDbLine
 10
-340.691741501788
 20
385.7345281909701
 30
0.0
 11
-90.69174150180046
 21
635.7345281909577
 31
0.0
  0
LINE
  5
1EF
330
1F
100
AcDbEntity
  8
0-0
  6
JWW_DASHED1
 62
   120
370
     5
100
AcDbLine
 10
-680.6917415017891
 20
52.80559600425661
 30
0.0
 11
-430.6917415017846
 21
302.8055960042607
 31
0.0
  0
LINE
  5
1F0
330
1F
100
AcDbEntity
  8
0-0
  6
JWW_DASHED1
 62
   120
370
     5
100
AcDbLine
 10
-340.6917415017914
 20
392.8055960042514
 30
0.0
 11
-90.69174150180388
 21
642.8055960042389
 31
0.0
  0
LINE
  5
1F1
330
1F
100
AcDbEntity
  8
0-0
  6
JWW_DASHED1
 62
   120
370
     5
100
AcDbLine
 10
-680.6917415017823
 20
59.87666381754636
 30
0.0
 11
-430.6917415017778
 21
309.8766638175526
 31
0.0
  0
LINE
  5
1F2
330
1F
100
AcDbEntity
  8
0-0
  6
JWW_DASHED1
 62
   120
370
     5
100
AcDbLine
 10
-340.6917415017846
 20
399.8766638175441
 30
0.0
 11
-90.69174150178
 21
649.8766638175495
 31
0.0
  0
LINE
  5
1F3
330
1F
100
AcDbEntity
  8
0-0
  6
JWW_DASHED1
 62
   120
370
     5
100
AcDbLine
 10
-680.6917415017755
 20
66.94773163078494
 30
0.0
 11
-430.6917415017846
 21
316.9477316307754
 31
0.0
  0
LINE
  5
1F4
330
1F
100
AcDbEntity
  8
0-0
  6
JWW_DASHED1
 62
   120
370
     5
100
AcDbLine
 10
-340.6917415017948
 20
406.9477316307665
 30
0.0
 11
-90.69174150178682
 21
656.9477316307723
 31
0.0
  0
LINE
  5
1F5
330
1F
100
AcDbEntity
  8
0-0
  6
JWW_DASHED1
 62
   120
370
     5
100
AcDbLine
 10
-680.6917415017721
 20
74.01879944407384
 30
0.0
 11
-430.6917415017846
 21
324.0187994440622
 31
0.0
  0
LINE
  5
1F6
330
1F
100
AcDbEntity
  8
0-0
  6
JWW_DASHED1
 62
   120
370
     5
100
AcDbLine
 10
-340.6917415017778
 20
414.0187994440681
 30
0.0
 11
-90.69174150179023
 21
664.0187994440556
 31
0.0
  0
LINE
  5
1F7
330
1F
100
AcDbEntity
  8
0-0
  6
JWW_DASHED1
 62
   120
370
     5
100
AcDbLine
 10
-680.6917415017755
 20
81.08986725735505
 30
0.0
 11
-430.691741501788
 21
331.0898672573434
 31
0.0
  0
LINE
  5
1F8
330
1F
100
AcDbEntity
  8
0-0
  6
JWW_DASHED1
 62
   120
370
     5
100
AcDbLine
 10
-340.6917415017812
 20
421.0898672573498
 30
0.0
 11
-90.69174150179364
 21
671.0898672573369
 31
0.0
  0
LINE
  5
1F9
330
1F
100
AcDbEntity
  8
0-0
  6
JWW_DASHED1
 62
   120
370
     5
100
AcDbLine
 10
-680.6917415017823
 20
88.16093507063627
 30
0.0
 11
-430.6917415017914
 21
338.1609350706246
 31
0.0
  0
LINE
  5
1FA
330
1F
100
AcDbEntity
  8
0-0
  6
JWW_DASHED1
 62
   120
370
     5
100
AcDbLine
 10
-340.6917415017846
 20
428.160935070631
 30
0.0
 11
-90.69174150179705
 21
678.1609350706185
 31
0.0
  0
LINE
  5
1FB
330
1F
100
AcDbEntity
  8
0-0
  6
JWW_DASHED1
 62
   120
370
     5
100
AcDbLine
 10
-680.6917415017857
 20
95.23200288391791
 30
0.0
 11
-430.6917415017982
 21
345.2320028839063
 31
0.0
  0
LINE
  5
1FC
330
1F
100
AcDbEntity
  8
0-0
  6
JWW_DASHED1
 62
   120
370
     5
100
AcDbLine
 10
-340.6917415017914
 20
435.2320028839126
 30
0.0
 11
-90.69174150180046
 21
685.2320028839001
 31
0.0
  0
LINE
  5
1FD
330
1F
100
AcDbEntity
  8
0-0
  6
JWW_DASHED1
 62
   120
370
     5
100
AcDbLine
 10
-680.6917415017891
 20
102.3030706971991
 30
0.0
 11
-430.6917415017846
 21
352.3030706972032
 31
0.0
  0
LINE
  5
1FE
330
1F
100
AcDbEntity
  8
0-0
  6
JWW_DASHED1
 62
   120
370
     5
100
AcDbLine
 10
-340.6917415017948
 20
442.3030706971939
 30
0.0
 11
-90.69174150180729
 21
692.3030706971814
 31
0.0
  0
LINE
  5
1FF
330
1F
100
AcDbEntity
  8
0-0
  6
JWW_DASHED1
 62
   120
370
     5
100
AcDbLine
 10
-680.6917415017823
 20
109.3741385104893
 30
0.0
 11
-430.6917415017778
 21
359.3741385104955
 31
0.0
  0
LINE
  5
200
330
1F
100
AcDbEntity
  8
0-0
  6
JWW_DASHED1
 62
   120
370
     5
100
AcDbLine
 10
-340.6917415017846
 20
449.374138510487
 30
0.0
 11
-90.69174150178
 21
699.3741385104925
 31
0.0
  0
LINE
  5
201
330
1F
100
AcDbEntity
  8
0-0
  6
JWW_DASHED1
 62
   120
370
     5
100
AcDbLine
 10
-680.6917415017891
 20
116.4452063237705
 30
0.0
 11
-430.6917415017812
 21
366.4452063237768
 31
0.0
  0
LINE
  5
202
330
1F
100
AcDbEntity
  8
0-0
  6
JWW_DASHED1
 62
   120
370
     5
100
AcDbLine
 10
-340.6917415017914
 20
456.4452063237683
 30
0.0
 11
-90.69174150178341
 21
706.4452063237741
 31
0.0
  0
LINE
  5
203
330
1F
100
AcDbEntity
  8
0-0
  6
JWW_DASHED1
 62
   120
370
     5
100
AcDbLine
 10
-680.6917415017755
 20
123.5162741370679
 30
0.0
 11
-430.6917415017846
 21
373.5162741370584
 31
0.0
  0
LINE
  5
204
330
1F
100
AcDbEntity
  8
0-0
  6
JWW_DASHED1
 62
   120
370
     5
100
AcDbLine
 10
-340.6917415017948
 20
463.5162741370499
 30
0.0
 11
-90.69174150178682
 21
713.5162741370552
 31
0.0
  0
LINE
  5
205
330
1F
100
AcDbEntity
  8
0-0
  6
JWW_DASHED1
 62
   120
370
     5
100
AcDbLine
 10
-680.6917415017789
 20
130.5873419502971
 30
0.0
 11
-430.6917415017914
 21
380.5873419502855
 31
0.0
  0
LINE
  5
206
330
1F
100
AcDbEntity
  8
0-0
  6
JWW_DASHED1
 62
   120
370
     5
100
AcDbLine
 10
-340.6917415017846
 20
470.5873419502923
 30
0.0
 11
-90.69174150179364
 21
720.5873419502793
 31
0.0
  0
LINE
  5
207
330
1F
100
AcDbEntity
  8
0-0
  6
JWW_DASHED1
 62
   120
370
     5
100
AcDbLine
 10
-680.6917415017823
 20
137.6584097635788
 30
0.0
 11
-430.6917415017948
 21
387.6584097635671
 31
0.0
  0
LINE
  5
208
330
1F
100
AcDbEntity
  8
0-0
  6
JWW_DASHED1
 62
   120
370
     5
100
AcDbLine
 10
-340.691741501788
 20
477.6584097635736
 30
0.0
 11
-90.69174150180046
 21
727.658409763561
 31
0.0
  0
LINE
  5
209
330
1F
100
AcDbEntity
  8
0-0
  6
JWW_DASHED1
 62
   120
370
     5
100
AcDbLine
 10
-680.6917415017857
 20
144.72947757686
 30
0.0
 11
-430.6917415017982
 21
394.7294775768484
 31
0.0
  0
LINE
  5
20A
330
1F
100
AcDbEntity
  8
0-0
  6
JWW_DASHED1
 62
   120
370
     5
100
AcDbLine
 10
-340.6917415017914
 20
484.7294775768547
 30
0.0
 11
-90.69174150180388
 21
734.7294775768422
 31
0.0
  0
LINE
  5
20B
330
1F
100
AcDbEntity
  8
0-0
  6
JWW_DASHED1
 62
   120
370
     5
100
AcDbLine
 10
-680.6917415017891
 20
151.8005453901417
 30
0.0
 11
-430.6917415017846
 21
401.8005453901458
 31
0.0
  0
LINE
  5
20C
330
1F
100
AcDbEntity
  8
0-0
  6
JWW_DASHED1
 62
   120
370
     5
100
AcDbLine
 10
-340.6917415017948
 20
491.800545390136
 30
0.0
 11
-90.69174150180729
 21
741.8005453901235
 31
0.0
  0
LINE
  5
20D
330
1F
100
AcDbEntity
  8
0-0
  6
JWW_DASHED1
 62
   120
370
     5
100
AcDbLine
 10
-680.6917415017857
 20
158.8716132034322
 30
0.0
 11
-430.6917415017778
 21
408.8716132034385
 31
0.0
  0
LINE
  5
20E
330
1F
100
AcDbEntity
  8
0-0
  6
JWW_DASHED1
 62
   120
370
     5
100
AcDbLine
 10
-340.691741501788
 20
498.87161320343
 30
0.0
 11
-90.69174150178
 21
748.8716132034353
 31
0.0
  0
LINE
  5
20F
330
1F
100
AcDbEntity
  8
0-0
  6
JWW_DASHED1
 62
   120
370
     5
100
AcDbLine
 10
-680.6917415017755
 20
165.9426810167292
 30
0.0
 11
-430.6917415017846
 21
415.9426810167197
 31
0.0
  0
LINE
  5
210
330
1F
100
AcDbEntity
  8
0-0
  6
JWW_DASHED1
 62
   120
370
     5
100
AcDbLine
 10
-340.6917415017914
 20
505.9426810167112
 30
0.0
 11
-90.69174150178682
 21
755.9426810167166
 31
0.0
  0
LINE
  5
211
330
1F
100
AcDbEntity
  8
0-0
  6
JWW_DASHED1
 62
   120
370
     5
100
AcDbLine
 10
-680.6917415017721
 20
173.0137488300169
 30
0.0
 11
-430.6917415017812
 21
423.0137488300056
 31
0.0
  0
LINE
  5
212
330
1F
100
AcDbEntity
  8
0-0
  6
JWW_DASHED1
 62
   120
370
     5
100
AcDbLine
 10
-340.6917415017778
 20
513.013748830012
 30
0.0
 11
-90.69174150178682
 21
763.0137488299995
 31
0.0
  0
LINE
  5
213
330
1F
100
AcDbEntity
  8
0-0
  6
JWW_DASHED1
 62
   120
370
     5
100
AcDbLine
 10
-680.6917415017755
 20
180.0848166432985
 30
0.0
 11
-430.691741501788
 21
430.0848166432868
 31
0.0
  0
LINE
  5
214
330
1F
100
AcDbEntity
  8
0-0
  6
JWW_DASHED1
 62
   120
370
     5
100
AcDbLine
 10
-340.6917415017812
 20
520.0848166432933
 30
0.0
 11
-90.69174150179364
 21
770.0848166432808
 31
0.0
  0
LINE
  5
215
330
1F
100
AcDbEntity
  8
0-0
  6
JWW_DASHED1
 62
   120
370
     5
100
AcDbLine
 10
-680.6917415017789
 20
187.1558844565801
 30
0.0
 11
-430.6917415017914
 21
437.1558844565685
 31
0.0
  0
LINE
  5
216
330
1F
100
AcDbEntity
  8
0-0
  6
JWW_DASHED1
 62
   120
370
     5
100
AcDbLine
 10
-340.6917415017846
 20
527.1558844565749
 30
0.0
 11
-90.69174150179705
 21
777.1558844565619
 31
0.0
  0
LINE
  5
217
330
1F
100
AcDbEntity
  8
0-0
  6
JWW_DASHED1
 62
   120
370
     5
100
AcDbLine
 10
-680.6917415017891
 20
194.2269522698025
 30
0.0
 11
-430.6917415017846
 21
444.2269522698066
 31
0.0
  0
LINE
  5
218
330
1F
100
AcDbEntity
  8
0-0
  6
JWW_DASHED1
 62
   120
370
     5
100
AcDbLine
 10
-340.6917415017914
 20
534.2269522697973
 30
0.0
 11
-90.69174150180388
 21
784.2269522697848
 31
0.0
  0
LINE
  5
219
330
1F
100
AcDbEntity
  8
0-0
  6
JWW_DASHED1
 62
   120
370
     5
100
AcDbLine
 10
-680.6917415017823
 20
201.2980200830935
 30
0.0
 11
-430.6917415017743
 21
451.2980200830998
 31
0.0
  0
LINE
  5
21A
330
1F
100
AcDbEntity
  8
0-0
  6
JWW_DASHED1
 62
   120
370
     5
100
AcDbLine
 10
-340.6917415017846
 20
541.2980200830913
 30
0.0
 11
-90.69174150178
 21
791.2980200830966
 31
0.0
  0
LINE
  5
21B
330
1F
100
AcDbEntity
  8
0-0
  6
JWW_DASHED1
 62
   120
370
     5
100
AcDbLine
 10
-680.6917415017857
 20
208.3690878963748
 30
0.0
 11
-430.6917415017778
 21
458.3690878963814
 31
0.0
  0
LINE
  5
21C
330
1F
100
AcDbEntity
  8
0-0
  6
JWW_DASHED1
 62
   120
370
     5
100
AcDbLine
 10
-340.691741501788
 20
548.3690878963729
 30
0.0
 11
-90.69174150178341
 21
798.3690878963783
 31
0.0
  0
LINE
  5
21D
330
1F
100
AcDbEntity
  8
0-0
  6
JWW_DASHED1
 62
   120
370
     5
100
AcDbLine
 10
-680.6917415017755
 20
215.4401557096722
 30
0.0
 11
-430.6917415017846
 21
465.4401557096627
 31
0.0
  0
LINE
  5
21E
330
1F
100
AcDbEntity
  8
0-0
  6
JWW_DASHED1
 62
   120
370
     5
100
AcDbLine
 10
-340.6917415017914
 20
555.4401557096542
 30
0.0
 11
-90.69174150178682
 21
805.4401557096595
 31
0.0
  0
LINE
  5
21F
330
1F
100
AcDbEntity
  8
0-0
  6
JWW_DASHED1
 62
   120
370
     5
100
AcDbLine
 10
-680.6917415017721
 20
222.5112235229598
 30
0.0
 11
-430.6917415017846
 21
472.5112235229482
 31
0.0
  0
LINE
  5
220
330
1F
100
AcDbEntity
  8
0-0
  6
JWW_DASHED1
 62
   120
370
     5
100
AcDbLine
 10
-340.6917415017778
 20
562.5112235229545
 30
0.0
 11
-90.69174150179023
 21
812.5112235229416
 31
0.0
  0
LINE
  5
221
330
1F
100
AcDbEntity
  8
0-0
  6
JWW_DASHED1
 62
   120
370
     5
100
AcDbLine
 10
-680.6917415017755
 20
229.582291336241
 30
0.0
 11
-430.691741501788
 21
479.5822913362293
 31
0.0
  0
LINE
  5
222
330
1F
100
AcDbEntity
  8
0-0
  6
JWW_DASHED1
 62
   120
370
     5
100
AcDbLine
 10
-340.6917415017812
 20
569.5822913362358
 30
0.0
 11
-90.69174150179364
 21
819.5822913362233
 31
0.0
  0
LINE
  5
223
330
1F
100
AcDbEntity
  8
0-0
  6
JWW_DASHED1
 62
   120
370
     5
100
AcDbLine
 10
-680.6917415017823
 20
236.6533591495222
 30
0.0
 11
-430.6917415017914
 21
486.6533591495106
 31
0.0
  0
LINE
  5
224
330
1F
100
AcDbEntity
  8
0-0
  6
JWW_DASHED1
 62
   120
370
     5
100
AcDbLine
 10
-340.6917415017846
 20
576.653359149517
 30
0.0
 11
-90.69174150179705
 21
826.6533591495049
 31
0.0
  0
LINE
  5
225
330
1F
100
AcDbEntity
  8
0-0
  6
JWW_DASHED1
 62
   120
370
     5
100
AcDbLine
 10
-680.6917415017857
 20
243.7244269628039
 30
0.0
 11
-430.6917415017982
 21
493.7244269627918
 31
0.0
  0
LINE
  5
226
330
1F
100
AcDbEntity
  8
0-0
  6
JWW_DASHED1
 62
   120
370
     5
100
AcDbLine
 10
-340.6917415017914
 20
583.7244269627986
 30
0.0
 11
-90.69174150180046
 21
833.7244269627861
 31
0.0
  0
LINE
  5
227
330
1F
100
AcDbEntity
  8
0-0
  6
JWW_DASHED1
 62
   120
370
     5
100
AcDbLine
 10
-680.6917415017891
 20
250.7954947760851
 30
0.0
 11
-430.6917415017846
 21
500.7954947760892
 31
0.0
  0
LINE
  5
228
330
1F
100
AcDbEntity
  8
0-0
  6
JWW_DASHED1
 62
   120
370
     5
100
AcDbLine
 10
-340.6917415017948
 20
590.7954947760799
 30
0.0
 11
-90.69174150180729
 21
840.7954947760674
 31
0.0
  0
LINE
  5
229
330
1F
100
AcDbEntity
  8
0-0
  6
JWW_DASHED1
 62
   120
370
     5
100
AcDbLine
 10
-680.6917415017891
 20
257.8665625893173
 30
0.0
 11
-430.6917415017812
 21
507.866562589324
 31
0.0
  0
LINE
  5
22A
330
1F
100
AcDbEntity
  8
0-0
  6
JWW_DASHED1
 62
   120
370
     5
100
AcDbLine
 10
-340.691741501788
 20
597.8665625893154
 30
0.0
 11
-90.69174150178341
 21
847.8665625893212
 31
0.0
  0
LINE
  5
22B
330
1F
100
AcDbEntity
  8
0-0
  6
JWW_DASHED1
 62
   120
370
     5
100
AcDbLine
 10
-680.6917415017755
 20
264.9376304026147
 30
0.0
 11
-430.6917415017846
 21
514.9376304026056
 31
0.0
  0
LINE
  5
22C
330
1F
100
AcDbEntity
  8
0-0
  6
JWW_DASHED1
 62
   120
370
     5
100
AcDbLine
 10
-340.6917415017914
 20
604.937630402597
 30
0.0
 11
-90.69174150178682
 21
854.9376304026025
 31
0.0
  0
LINE
  5
22D
330
1F
100
AcDbEntity
  8
0-0
  6
JWW_DASHED1
 62
   120
370
     5
100
AcDbLine
 10
-680.6917415017755
 20
272.0086982159019
 30
0.0
 11
-430.6917415017846
 21
522.0086982158903
 31
0.0
  0
LINE
  5
22E
330
1F
100
AcDbEntity
  8
0-0
  6
JWW_DASHED1
 62
   120
370
     5
100
AcDbLine
 10
-340.6917415017778
 20
612.0086982158966
 30
0.0
 11
-90.69174150179023
 21
862.0086982158841
 31
0.0
  0
LINE
  5
22F
330
1F
100
AcDbEntity
  8
0-0
  6
JWW_DASHED1
 62
   120
370
     5
100
AcDbLine
 10
-680.6917415017789
 20
279.0797660291835
 30
0.0
 11
-430.6917415017914
 21
529.0797660291714
 31
0.0
  0
LINE
  5
230
330
1F
100
AcDbEntity
  8
0-0
  6
JWW_DASHED1
 62
   120
370
     5
100
AcDbLine
 10
-340.6917415017846
 20
619.0797660291782
 30
0.0
 11
-90.69174150179364
 21
869.0797660291653
 31
0.0
  0
LINE
  5
231
330
1F
100
AcDbEntity
  8
0-0
  6
JWW_DASHED1
 62
   120
370
     5
100
AcDbLine
 10
-680.6917415017823
 20
286.1508338424647
 30
0.0
 11
-430.6917415017948
 21
536.150833842453
 31
0.0
  0
LINE
  5
232
330
1F
100
AcDbEntity
  8
0-0
  6
JWW_DASHED1
 62
   120
370
     5
100
AcDbLine
 10
-340.691741501788
 20
626.1508338424595
 30
0.0
 11
-90.69174150180046
 21
876.150833842447
 31
0.0
  0
LINE
  5
233
330
1F
100
AcDbEntity
  8
0-0
  6
JWW_DASHED1
 62
   120
370
     5
100
AcDbLine
 10
-680.6917415017857
 20
293.2219016557464
 30
0.0
 11
-430.6917415017982
 21
543.2219016557343
 31
0.0
  0
LINE
  5
234
330
1F
100
AcDbEntity
  8
0-0
  6
JWW_DASHED1
 62
   120
370
     5
100
AcDbLine
 10
-340.6917415017914
 20
633.2219016557411
 30
0.0
 11
-92.30964285205673
 21
881.6040003054745
 31
0.0
  0
LINE
  5
235
330
1F
100
AcDbEntity
  8
0-0
  6
JWW_DASHED1
 62
   120
370
     5
100
AcDbLine
 10
-680.6917415017891
 20
300.2929694690276
 30
0.0
 11
-430.6917415017846
 21
550.2929694690313
 31
0.0
  0
LINE
  5
236
330
1F
100
AcDbEntity
  8
0-0
  6
JWW_DASHED1
 62
   120
370
     5
100
AcDbLine
 10
-340.6917415017948
 20
640.2929694690224
 30
0.0
 11
-99.3807106653388
 21
881.6040003054787
 31
0.0
  0
LINE
  5
237
330
1F
100
AcDbEntity
  8
0-0
  6
JWW_DASHED1
 62
   120
370
     5
100
AcDbLine
 10
-680.6917415017823
 20
307.3640372823195
 30
0.0
 11
-430.6917415017778
 21
557.3640372823257
 31
0.0
  0
LINE
  5
238
330
1F
100
AcDbEntity
  8
0-0
  6
JWW_DASHED1
 62
   120
370
     5
100
AcDbLine
 10
-340.6917415017846
 20
647.3640372823172
 30
0.0
 11
-106.4517784786516
 21
881.6040003054515
 31
0.0
  0
LINE
  5
239
330
1F
100
AcDbEntity
  8
0-0
  6
JWW_DASHED1
 62
   120
370
     5
100
AcDbLine
 10
-680.6917415017891
 20
314.4351050956007
 30
0.0
 11
-430.6917415017812
 21
564.4351050956074
 31
0.0
  0
LINE
  5
23A
330
1F
100
AcDbEntity
  8
0-0
  6
JWW_DASHED1
 62
   120
370
     5
100
AcDbLine
 10
-340.6917415017914
 20
654.4351050955988
 30
0.0
 11
-113.5228462919336
 21
881.6040003054558
 31
0.0
  0
LINE
  5
23B
330
1F
100
AcDbEntity
  8
0-0
  6
JWW_DASHED1
 62
   120
370
     5
100
AcDbLine
 10
-680.6917415017755
 20
321.5061729088444
 30
0.0
 11
-430.691741501788
 21
571.5061729088327
 31
0.0
  0
LINE
  5
23C
330
1F
100
AcDbEntity
  8
0-0
  6
JWW_DASHED1
 62
   120
370
     5
100
AcDbLine
 10
-340.6917415017812
 20
661.5061729088392
 30
0.0
 11
-120.5939141051577
 21
881.6040003054626
 31
0.0
  0
LINE
  5
23D
330
1F
100
AcDbEntity
  8
0-0
  6
JWW_DASHED1
 62
   120
370
     5
100
AcDbLine
 10
-680.6917415017789
 20
328.5772407221256
 30
0.0
 11
-430.6917415017914
 21
578.577240722114
 31
0.0
  0
LINE
  5
23E
330
1F
100
AcDbEntity
  8
0-0
  6
JWW_DASHED1
 62
   120
370
     5
100
AcDbLine
 10
-340.6917415017846
 20
668.5772407221203
 30
0.0
 11
-127.6649819184398
 21
881.6040003054663
 31
0.0
  0
LINE
  5
23F
330
1F
100
AcDbEntity
  8
0-0
  6
JWW_DASHED1
 62
   120
370
     5
100
AcDbLine
 10
-680.6917415017823
 20
335.6483085354073
 30
0.0
 11
-430.6917415017948
 21
585.6483085353956
 31
0.0
  0
LINE
  5
240
330
1F
100
AcDbEntity
  8
0-0
  6
JWW_DASHED1
 62
   120
370
     5
100
AcDbLine
 10
-340.691741501788
 20
675.6483085354016
 30
0.0
 11
-134.7360497317185
 21
881.6040003054702
 31
0.0
  0
LINE
  5
241
330
1F
100
AcDbEntity
  8
0-0
  6
JWW_DASHED1
 62
   120
370
     5
100
AcDbLine
 10
-680.6917415017891
 20
342.7193763486885
 30
0.0
 11
-430.6917415017982
 21
592.7193763486769
 31
0.0
  0
LINE
  5
242
330
1F
100
AcDbEntity
  8
0-0
  6
JWW_DASHED1
 62
   120
370
     5
100
AcDbLine
 10
-340.6917415017914
 20
682.7193763486832
 30
0.0
 11
-141.8071175450039
 21
881.6040003054736
 31
0.0
  0
LINE
  5
243
330
1F
100
AcDbEntity
  8
0-0
  6
JWW_DASHED1
 62
   120
370
     5
100
AcDbLine
 10
-680.6917415017925
 20
349.7904441619701
 30
0.0
 11
-430.691741501788
 21
599.7904441619743
 31
0.0
  0
LINE
  5
244
330
1F
100
AcDbEntity
  8
0-0
  6
JWW_DASHED1
 62
   120
370
     5
100
AcDbLine
 10
-340.6917415017982
 20
689.7904441619648
 30
0.0
 11
-148.8781853582826
 21
881.6040003054775
 31
0.0
  0
LINE
  5
245
330
1F
100
AcDbEntity
  8
0-0
  6
JWW_DASHED1
 62
   120
370
     5
100
AcDbLine
 10
-680.6917415017857
 20
356.8615119752624
 30
0.0
 11
-430.6917415017778
 21
606.8615119752687
 31
0.0
  0
LINE
  5
246
330
1F
100
AcDbEntity
  8
0-0
  6
JWW_DASHED1
 62
   120
370
     5
100
AcDbLine
 10
-340.691741501788
 20
696.8615119752601
 30
0.0
 11
-155.9492531715919
 21
881.6040003054541
 31
0.0
  0
LINE
  5
247
330
1F
100
AcDbEntity
  8
0-0
  6
JWW_DASHED1
 62
   120
370
     5
100
AcDbLine
 10
-680.6917415017721
 20
363.9325797885595
 30
0.0
 11
-430.6917415017812
 21
613.9325797885504
 31
0.0
  0
LINE
  5
248
330
1F
100
AcDbEntity
  8
0-0
  6
JWW_DASHED1
 62
   120
370
     5
100
AcDbLine
 10
-340.6917415017914
 20
703.9325797885418
 30
0.0
 11
-163.020320984874
 21
881.6040003054579
 31
0.0
  0
LINE
  5
249
330
1F
100
AcDbEntity
  8
0-0
  6
JWW_DASHED1
 62
   120
370
     5
100
AcDbLine
 10
-680.6917415017721
 20
371.0036476018457
 30
0.0
 11
-430.6917415017846
 21
621.0036476018341
 31
0.0
  0
LINE
  5
24A
330
1F
100
AcDbEntity
  8
0-0
  6
JWW_DASHED1
 62
   120
370
     5
100
AcDbLine
 10
-340.6917415017778
 20
711.00364760184
 30
0.0
 11
-170.0913887981595
 21
881.6040003054575
 31
0.0
  0
LINE
  5
24B
330
1F
100
AcDbEntity
  8
0-0
  6
JWW_DASHED1
 62
   120
370
     5
100
AcDbLine
 10
-680.6917415017755
 20
378.074715415127
 30
0.0
 11
-430.691741501788
 21
628.0747154151153
 31
0.0
  0
LINE
  5
24C
330
1F
100
AcDbEntity
  8
0-0
  6
JWW_DASHED1
 62
   120
370
     5
100
AcDbLine
 10
-340.6917415017812
 20
718.0747154151218
 30
0.0
 11
-177.1624566114416
 21
881.6040003054609
 31
0.0
  0
LINE
  5
24D
330
1F
100
AcDbEntity
  8
0-0
  6
JWW_DASHED1
 62
   120
370
     5
100
AcDbLine
 10
-680.6917415017823
 20
385.1457832284086
 30
0.0
 11
-430.6917415017914
 21
635.145783228397
 31
0.0
  0
LINE
  5
24E
330
1F
100
AcDbEntity
  8
0-0
  6
JWW_DASHED1
 62
   120
370
     5
100
AcDbLine
 10
-340.6917415017846
 20
725.1457832284034
 30
0.0
 11
-184.2335244247236
 21
881.6040003054651
 31
0.0
  0
LINE
  5
24F
330
1F
100
AcDbEntity
  8
0-0
  6
JWW_DASHED1
 62
   120
370
     5
100
AcDbLine
 10
-680.6917415017891
 20
392.2168510416305
 30
0.0
 11
-430.6917415018016
 21
642.2168510416193
 31
0.0
  0
LINE
  5
250
330
1F
100
AcDbEntity
  8
0-0
  6
JWW_DASHED1
 62
   120
370
     5
100
AcDbLine
 10
-340.6917415017948
 20
732.2168510416253
 30
0.0
 11
-191.3045922379477
 21
881.6040003054728
 31
0.0
  0
LINE
  5
251
330
1F
100
AcDbEntity
  8
0-0
  6
JWW_DASHED1
 62
   120
370
     5
100
AcDbLine
 10
-680.6917415017925
 20
399.2879188549122
 30
0.0
 11
-430.691741501788
 21
649.2879188549164
 31
0.0
  0
LINE
  5
252
330
1F
100
AcDbEntity
  8
0-0
  6
JWW_DASHED1
 62
   120
370
     5
100
AcDbLine
 10
-340.6917415017982
 20
739.2879188549069
 30
0.0
 11
-198.3756600512366
 21
881.6040003054677
 31
0.0
  0
LINE
  5
253
330
1F
100
AcDbEntity
  8
0-0
  6
JWW_DASHED1
 62
   120
370
     5
100
AcDbLine
 10
-680.6917415017857
 20
406.3589866682049
 30
0.0
 11
-430.6917415017778
 21
656.3589866682116
 31
0.0
  0
LINE
  5
254
330
1F
100
AcDbEntity
  8
0-0
  6
JWW_DASHED1
 62
   120
370
     5
100
AcDbLine
 10
-340.691741501788
 20
746.3589866682026
 30
0.0
 11
-205.4467278645357
 21
881.6040003054561
 31
0.0
  0
LINE
  5
255
330
1F
100
AcDbEntity
  8
0-0
  6
JWW_DASHED1
 62
   120
370
     5
100
AcDbLine
 10
-680.6917415017755
 20
413.4300544815023
 30
0.0
 11
-430.6917415017846
 21
663.4300544814928
 31
0.0
  0
LINE
  5
256
330
1F
100
AcDbEntity
  8
0-0
  6
JWW_DASHED1
 62
   120
370
     5
100
AcDbLine
 10
-340.6917415017914
 20
753.4300544814844
 30
0.0
 11
-212.5177956778144
 21
881.6040003054604
 31
0.0
  0
LINE
  5
257
330
1F
100
AcDbEntity
  8
0-0
  6
JWW_DASHED1
 62
   120
370
     5
100
AcDbLine
 10
-680.6917415017755
 20
420.5011222947878
 30
0.0
 11
-430.6917415017846
 21
670.5011222947762
 31
0.0
  0
LINE
  5
258
330
1F
100
AcDbEntity
  8
0-0
  6
JWW_DASHED1
 62
   120
370
     5
100
AcDbLine
 10
-340.6917415017778
 20
760.501122294783
 30
0.0
 11
-219.5888634911033
 21
881.6040003054566
 31
0.0
  0
LINE
  5
259
330
1F
100
AcDbEntity
  8
0-0
  6
JWW_DASHED1
 62
   120
370
     5
100
AcDbLine
 10
-680.6917415017789
 20
427.5721901080691
 30
0.0
 11
-430.6917415017914
 21
677.5721901080578
 31
0.0
  0
LINE
  5
25A
330
1F
100
AcDbEntity
  8
0-0
  6
JWW_DASHED1
 62
   120
370
     5
100
AcDbLine
 10
-340.6917415017846
 20
767.5721901080638
 30
0.0
 11
-226.6599313043888
 21
881.60400030546
 31
0.0
  0
LINE
  5
25B
330
1F
100
AcDbEntity
  8
0-0
  6
JWW_DASHED1
 62
   120
370
     5
100
AcDbLine
 10
-680.6917415017823
 20
434.6432579213507
 30
0.0
 11
-430.6917415017948
 21
684.643257921339
 31
0.0
  0
LINE
  5
25C
330
1F
100
AcDbEntity
  8
0-0
  6
JWW_DASHED1
 62
   120
370
     5
100
AcDbLine
 10
-340.691741501788
 20
774.6432579213455
 30
0.0
 11
-233.7309991176674
 21
881.6040003054643
 31
0.0
  0
LINE
  5
25D
330
1F
100
AcDbEntity
  8
0-0
  6
JWW_DASHED1
 62
   120
370
     5
100
AcDbLine
 10
-680.6917415017857
 20
441.7143257346323
 30
0.0
 11
-430.6917415017982
 21
691.7143257346207
 31
0.0
  0
LINE
  5
25E
330
1F
100
AcDbEntity
  8
0-0
  6
JWW_DASHED1
 62
   120
370
     5
100
AcDbLine
 10
-340.6917415017914
 20
781.7143257346266
 30
0.0
 11
-240.8020669309495
 21
881.6040003054677
 31
0.0
  0
LINE
  5
25F
330
1F
100
AcDbEntity
  8
0-0
  6
JWW_DASHED1
 62
   120
370
     5
100
AcDbLine
 10
-680.6917415017891
 20
448.7853935479136
 30
0.0
 11
-430.6917415017846
 21
698.7853935479177
 31
0.0
  0
LINE
  5
260
330
1F
100
AcDbEntity
  8
0-0
  6
JWW_DASHED1
 62
   120
370
     5
100
AcDbLine
 10
-340.6917415017948
 20
788.7853935479084
 30
0.0
 11
-247.8731347442316
 21
881.6040003054716
 31
0.0
  0
LINE
  5
261
330
1F
100
AcDbEntity
  8
0-0
  6
JWW_DASHED1
 62
   120
370
     5
100
AcDbLine
 10
-680.6917415017857
 20
455.8564613611479
 30
0.0
 11
-430.6917415017812
 21
705.8564613611542
 31
0.0
  0
LINE
  5
262
330
1F
100
AcDbEntity
  8
0-0
  6
JWW_DASHED1
 62
   120
370
     5
100
AcDbLine
 10
-340.691741501788
 20
795.8564613611456
 30
0.0
 11
-254.9442025574761
 21
881.6040003054583
 31
0.0
  0
LINE
  5
263
330
1F
100
AcDbEntity
  8
0-0
  6
JWW_DASHED1
 62
   120
370
     5
100
AcDbLine
 10
-680.6917415017755
 20
462.9275291744453
 30
0.0
 11
-430.6917415017846
 21
712.9275291744358
 31
0.0
  0
LINE
  5
264
330
1F
100
AcDbEntity
  8
0-0
  6
JWW_DASHED1
 62
   120
370
     5
100
AcDbLine
 10
-340.6917415017914
 20
802.9275291744273
 30
0.0
 11
-262.0152703707582
 21
881.6040003054626
 31
0.0
  0
LINE
  5
265
330
1F
100
AcDbEntity
  8
0-0
  6
JWW_DASHED1
 62
   120
370
     5
100
AcDbLine
 10
-680.6917415017755
 20
469.9985969877304
 30
0.0
 11
-430.691741501788
 21
719.9985969877187
 31
0.0
  0
LINE
  5
266
330
1F
100
AcDbEntity
  8
0-0
  6
JWW_DASHED1
 62
   120
370
     5
100
AcDbLine
 10
-340.6917415017812
 20
809.9985969877251
 30
0.0
 11
-269.0863381840505
 21
881.6040003054558
 31
0.0
  0
LINE
  5
267
330
1F
100
AcDbEntity
  8
0-0
  6
JWW_DASHED1
 62
   120
370
     5
100
AcDbLine
 10
-680.6917415017789
 20
477.0696648010116
 30
0.0
 11
-430.6917415017914
 21
727.0696648009999
 31
0.0
  0
LINE
  5
268
330
1F
100
AcDbEntity
  8
0-0
  6
JWW_DASHED1
 62
   120
370
     5
100
AcDbLine
 10
-340.6917415017846
 20
817.0696648010063
 30
0.0
 11
-276.1574059973326
 21
881.6040003054592
 31
0.0
  0
LINE
  5
269
330
1F
100
AcDbEntity
  8
0-0
  6
JWW_DASHED1
 62
   120
370
     5
100
AcDbLine
 10
-680.6917415017823
 20
484.1407326142933
 30
0.0
 11
-430.6917415017948
 21
734.1407326142815
 31
0.0
  0
LINE
  5
26A
330
1F
100
AcDbEntity
  8
0-0
  6
JWW_DASHED1
 62
   120
370
     5
100
AcDbLine
 10
-340.691741501788
 20
824.1407326142876
 30
0.0
 11
-283.2284738106113
 21
881.6040003054634
 31
0.0
  0
LINE
  5
26B
330
1F
100
AcDbEntity
  8
0-0
  6
JWW_DASHED1
 62
   120
370
     5
100
AcDbLine
 10
-680.6917415017891
 20
491.2118004275744
 30
0.0
 11
-430.6917415017982
 21
741.2118004275628
 31
0.0
  0
LINE
  5
26C
330
1F
100
AcDbEntity
  8
0-0
  6
JWW_DASHED1
 62
   120
370
     5
100
AcDbLine
 10
-340.6917415017914
 20
831.2118004275692
 30
0.0
 11
-290.2995416238967
 21
881.6040003054668
 31
0.0
  0
LINE
  5
26D
330
1F
100
AcDbEntity
  8
0-0
  6
JWW_DASHED1
 62
   120
370
     5
100
AcDbLine
 10
-680.6917415017925
 20
498.2828682408557
 30
0.0
 11
-430.691741501788
 21
748.2828682408602
 31
0.0
  0
LINE
  5
26E
330
1F
100
AcDbEntity
  8
0-0
  6
JWW_DASHED1
 62
   120
370
     5
100
AcDbLine
 10
-340.6917415017982
 20
838.2828682408503
 30
0.0
 11
-297.3706094371754
 21
881.6040003054707
 31
0.0
  0
LINE
  5
26F
330
1F
100
AcDbEntity
  8
0-0
  6
JWW_DASHED1
 62
   120
370
     5
100
AcDbLine
 10
-680.6917415017823
 20
505.3539360541497
 30
0.0
 11
-430.6917415017778
 21
755.353936054156
 31
0.0
  0
LINE
  5
270
330
1F
100
AcDbEntity
  8
0-0
  6
JWW_DASHED1
 62
   120
370
     5
100
AcDbLine
 10
-340.6917415017846
 20
845.3539360541474
 30
0.0
 11
-304.4416772504745
 21
881.6040003054561
 31
0.0
  0
LINE
  5
271
330
1F
100
AcDbEntity
  8
0-0
  6
JWW_DASHED1
 62
   120
370
     5
100
AcDbLine
 10
-680.6917415017891
 20
512.4250038674309
 30
0.0
 11
-430.6917415017812
 21
762.4250038674371
 31
0.0
  0
LINE
  5
272
330
1F
100
AcDbEntity
  8
0-0
  6
JWW_DASHED1
 62
   120
370
     5
100
AcDbLine
 10
-340.691741501788
 20
852.4250038674286
 30
0.0
 11
-311.5127450637566
 21
881.6040003054604
 31
0.0
  0
LINE
  5
273
330
1F
100
AcDbEntity
  8
0-0
  6
JWW_DASHED1
 62
   120
370
     5
100
AcDbLine
 10
-680.6917415017755
 20
519.4960716806729
 30
0.0
 11
-430.691741501788
 21
769.4960716806609
 31
0.0
  0
LINE
  5
274
330
1F
100
AcDbEntity
  8
0-0
  6
JWW_DASHED1
 62
   120
370
     5
100
AcDbLine
 10
-340.6917415017812
 20
859.4960716806672
 30
0.0
 11
-318.5838128769943
 21
881.6040003054549
 31
0.0
  0
LINE
  5
275
330
1F
100
AcDbEntity
  8
0-0
  6
JWW_DASHED1
 62
   120
370
     5
100
AcDbLine
 10
-680.6917415017823
 20
526.5671394939541
 30
0.0
 11
-430.6917415017914
 21
776.5671394939425
 31
0.0
  0
LINE
  5
276
330
1F
100
AcDbEntity
  8
0-0
  6
JWW_DASHED1
 62
   120
370
     5
100
AcDbLine
 10
-340.6917415017846
 20
866.5671394939488
 30
0.0
 11
-325.6548806902764
 21
881.6040003054583
 31
0.0
  0
LINE
  5
277
330
1F
100
AcDbEntity
  8
0-0
  6
JWW_DASHED1
 62
   120
370
     5
100
AcDbLine
 10
-680.6917415017857
 20
533.6382073072357
 30
0.0
 11
-430.6917415017948
 21
783.6382073072236
 31
0.0
  0
LINE
  5
278
330
1F
100
AcDbEntity
  8
0-0
  6
JWW_DASHED1
 62
   120
370
     5
100
AcDbLine
 10
-340.6917415017914
 20
873.63820730723
 30
0.0
 11
-332.7259485035585
 21
881.6040003054621
 31
0.0
  0
LINE
  5
279
330
1F
100
AcDbEntity
  8
0-0
  6
JWW_DASHED1
 62
   120
370
     5
100
AcDbLine
 10
-680.6917415017891
 20
540.709275120517
 30
0.0
 11
-430.6917415018016
 21
790.7092751205049
 31
0.0
  0
LINE
  5
27A
330
1F
100
AcDbEntity
  8
0-0
  6
JWW_DASHED1
 62
   120
370
     5
100
AcDbLine
 10
-340.6917415017948
 20
880.7092751205113
 30
0.0
 11
-339.7970163168405
 21
881.604000305466
 31
0.0
  0
LINE
  5
27B
330
1F
100
AcDbEntity
  8
0-0
  6
JWW_DASHED1
 62
   120
370
     5
100
AcDbLine
 10
-680.6917415017925
 20
547.7803429337982
 30
0.0
 11
-430.691741501788
 21
797.7803429338023
 31
0.0
  0
LINE
  5
27C
330
1F
100
AcDbEntity
  8
0-0
  6
JWW_DASHED1
 62
   120
370
     5
100
AcDbLine
 10
-680.6917415017823
 20
554.8514107470926
 30
0.0
 11
-430.6917415017778
 21
804.8514107470988
 31
0.0
  0
LINE
  5
27D
330
1F
100
AcDbEntity
  8
0-0
  6
JWW_DASHED1
 62
   120
370
     5
100
AcDbLine
 10
-680.6917415017891
 20
561.9224785603739
 30
0.0
 11
-430.6917415017812
 21
811.9224785603801
 31
0.0
  0
LINE
  5
27E
330
1F
100
AcDbEntity
  8
0-0
  6
JWW_DASHED1
 62
   120
370
     5
100
AcDbLine
 10
-680.6917415017755
 20
568.9935463736713
 30
0.0
 11
-430.6917415017846
 21
818.9935463736617
 31
0.0
  0
LINE
  5
27F
330
1F
100
AcDbEntity
  8
0-0
  6
JWW_DASHED1
 62
   120
370
     5
100
AcDbLine
 10
-680.6917415017789
 20
576.064614186955
 30
0.0
 11
-430.691741501788
 21
826.0646141869433
 31
0.0
  0
LINE
  5
280
330
1F
100
AcDbEntity
  8
0-0
  6
JWW_DASHED1
 62
   120
370
     5
100
AcDbLine
 10
-680.6917415017857
 20
583.1356820001779
 30
0.0
 11
-430.6917415017982
 21
833.1356820001662
 31
0.0
  0
LINE
  5
281
330
1F
100
AcDbEntity
  8
0-0
  6
JWW_DASHED1
 62
   120
370
     5
100
AcDbLine
 10
-680.6917415017891
 20
590.2067498134595
 30
0.0
 11
-430.6917415018016
 21
840.2067498134478
 31
0.0
  0
LINE
  5
282
330
1F
100
AcDbEntity
  8
0-0
  6
JWW_DASHED1
 62
   120
370
     5
100
AcDbLine
 10
-680.691741501796
 20
597.2778176267407
 30
0.0
 11
-430.6917415017914
 21
847.2778176267448
 31
0.0
  0
LINE
  5
283
330
1F
100
AcDbEntity
  8
0-0
  6
JWW_DASHED1
 62
   120
370
     5
100
AcDbLine
 10
-680.6917415017857
 20
604.3488854400351
 30
0.0
 11
-430.6917415017778
 21
854.3488854400414
 31
0.0
  0
LINE
  5
284
330
1F
100
AcDbEntity
  8
0-0
  6
JWW_DASHED1
 62
   120
370
     5
100
AcDbLine
 10
-680.6917415017755
 20
611.4199532533321
 30
0.0
 11
-430.6917415017846
 21
861.419953253323
 31
0.0
  0
LINE
  5
285
330
1F
100
AcDbEntity
  8
0-0
  6
JWW_DASHED1
 62
   120
370
     5
100
AcDbLine
 10
-680.6917415017755
 20
618.4910210666163
 30
0.0
 11
-430.691741501788
 21
868.4910210666046
 31
0.0
  0
LINE
  5
286
330
1F
100
AcDbEntity
  8
0-0
  6
JWW_DASHED1
 62
   120
370
     5
100
AcDbLine
 10
-680.6917415017789
 20
625.5620888798979
 30
0.0
 11
-430.6917415017914
 21
875.5620888798863
 31
0.0
  0
LINE
  5
287
330
1F
100
AcDbEntity
  8
0-0
  6
JWW_DASHED1
 62
   120
370
     5
100
AcDbLine
 10
-680.6917415017823
 20
632.6331566931792
 30
0.0
 11
-431.7208978894972
 21
881.6040003054668
 31
0.0
  0
LINE
  5
288
330
1F
100
AcDbEntity
  8
0-0
  6
JWW_DASHED1
 62
   120
370
     5
100
AcDbLine
 10
-680.6917415017891
 20
639.7042245064604
 30
0.0
 11
-438.7919657027759
 21
881.6040003054707
 31
0.0
  0
LINE
  5
289
330
1F
100
AcDbEntity
  8
0-0
  6
JWW_DASHED1
 62
   120
370
     5
100
AcDbLine
 10
-680.6917415017823
 20
646.7752923196969
 30
0.0
 11
-445.8630335160307
 21
881.604000305448
 31
0.0
  0
LINE
  5
28A
330
1F
100
AcDbEntity
  8
0-0
  6
JWW_DASHED1
 62
   120
370
     5
100
AcDbLine
 10
-680.6917415017857
 20
653.8463601329781
 30
0.0
 11
-452.9341013293127
 21
881.6040003054524
 31
0.0
  0
LINE
  5
28B
330
1F
100
AcDbEntity
  8
0-0
  6
JWW_DASHED1
 62
   120
370
     5
100
AcDbLine
 10
-680.6917415017755
 20
660.9174279462754
 30
0.0
 11
-460.0051691425948
 21
881.6040003054545
 31
0.0
  0
LINE
  5
28C
330
1F
100
AcDbEntity
  8
0-0
  6
JWW_DASHED1
 62
   120
370
     5
100
AcDbLine
 10
-680.6917415017755
 20
667.9884957595589
 30
0.0
 11
-467.0762369558769
 21
881.6040003054583
 31
0.0
  0
LINE
  5
28D
330
1F
100
AcDbEntity
  8
0-0
  6
JWW_DASHED1
 62
   120
370
     5
100
AcDbLine
 10
-680.6917415017823
 20
675.05956357284
 30
0.0
 11
-474.1473047691589
 21
881.6040003054621
 31
0.0
  0
LINE
  5
28E
330
1F
100
AcDbEntity
  8
0-0
  6
JWW_DASHED1
 62
   120
370
     5
100
AcDbLine
 10
-680.6917415017857
 20
682.1306313861216
 30
0.0
 11
-481.218372582441
 21
881.604000305466
 31
0.0
  0
LINE
  5
28F
330
1F
100
AcDbEntity
  8
0-0
  6
JWW_DASHED1
 62
   120
370
     5
100
AcDbLine
 10
-680.6917415017891
 20
689.2016991994029
 30
0.0
 11
-488.2894403957231
 21
881.6040003054694
 31
0.0
  0
LINE
  5
290
330
1F
100
AcDbEntity
  8
0-0
  6
JWW_DASHED1
 62
   120
370
     5
100
AcDbLine
 10
-680.6917415017925
 20
696.2727670126842
 30
0.0
 11
-495.3605082090154
 21
881.6040003054617
 31
0.0
  0
LINE
  5
291
330
1F
100
AcDbEntity
  8
0-0
  6
JWW_DASHED1
 62
   120
370
     5
100
AcDbLine
 10
-680.6917415017823
 20
703.3438348259799
 30
0.0
 11
-502.4315760223111
 21
881.6040003054497
 31
0.0
  0
LINE
  5
292
330
1F
100
AcDbEntity
  8
0-0
  6
JWW_DASHED1
 62
   120
370
     5
100
AcDbLine
 10
-680.6917415017721
 20
710.4149026392479
 30
0.0
 11
-509.5026438355693
 21
881.6040003054515
 31
0.0
  0
LINE
  5
293
330
1F
100
AcDbEntity
  8
0-0
  6
JWW_DASHED1
 62
   120
370
     5
100
AcDbLine
 10
-680.6917415017789
 20
717.4859704525013
 30
0.0
 11
-516.5737116488207
 21
881.6040003054575
 31
0.0
  0
LINE
  5
294
330
1F
100
AcDbEntity
  8
0-0
  6
JWW_DASHED1
 62
   120
370
     5
100
AcDbLine
 10
-680.6917415017823
 20
724.5570382657826
 30
0.0
 11
-523.6447794621027
 21
881.6040003054609
 31
0.0
  0
LINE
  5
295
330
1F
100
AcDbEntity
  8
0-0
  6
JWW_DASHED1
 62
   120
370
     5
100
AcDbLine
 10
-680.6917415017857
 20
731.6281060790639
 30
0.0
 11
-530.7158472753848
 21
881.6040003054648
 31
0.0
  0
LINE
  5
296
330
1F
100
AcDbEntity
  8
0-0
  6
JWW_DASHED1
 62
   120
370
     5
100
AcDbLine
 10
-680.6917415017891
 20
738.6991738923455
 30
0.0
 11
-537.7869150886669
 21
881.6040003054685
 31
0.0
  0
LINE
  5
297
330
1F
100
AcDbEntity
  8
0-0
  6
JWW_DASHED1
 62
   120
370
     5
100
AcDbLine
 10
-680.691741501796
 20
745.7702417056266
 30
0.0
 11
-544.8579829019558
 21
881.6040003054638
 31
0.0
  0
LINE
  5
298
330
1F
100
AcDbEntity
  8
0-0
  6
JWW_DASHED1
 62
   120
370
     5
100
AcDbLine
 10
-680.6917415017823
 20
752.8413095189223
 30
0.0
 11
-551.9290507152549
 21
881.6040003054524
 31
0.0
  0
LINE
  5
299
330
1F
100
AcDbEntity
  8
0-0
  6
JWW_DASHED1
 62
   120
370
     5
100
AcDbLine
 10
-680.6917415017891
 20
759.912377332204
 30
0.0
 11
-559.0001185285336
 21
881.6040003054566
 31
0.0
  0
LINE
  5
29A
330
1F
100
AcDbEntity
  8
0-0
  6
JWW_DASHED1
 62
   120
370
     5
100
AcDbLine
 10
-680.6917415017755
 20
766.983445145501
 30
0.0
 11
-566.0711863418259
 21
881.6040003054519
 31
0.0
  0
LINE
  5
29B
330
1F
100
AcDbEntity
  8
0-0
  6
JWW_DASHED1
 62
   120
370
     5
100
AcDbLine
 10
-680.6917415017823
 20
774.0545129587541
 30
0.0
 11
-573.1422541550772
 21
881.6040003054579
 31
0.0
  0
LINE
  5
29C
330
1F
100
AcDbEntity
  8
0-0
  6
JWW_DASHED1
 62
   120
370
     5
100
AcDbLine
 10
-680.6917415017891
 20
781.1255807720063
 30
0.0
 11
-580.2133219683286
 21
881.6040003054638
 31
0.0
  0
LINE
  5
29D
330
1F
100
AcDbEntity
  8
0-0
  6
JWW_DASHED1
 62
   120
370
     5
100
AcDbLine
 10
-680.6917415017925
 20
788.1966485852876
 30
0.0
 11
-587.2843897816107
 21
881.6040003054677
 31
0.0
  0
LINE
  5
29E
330
1F
100
AcDbEntity
  8
0-0
  6
JWW_DASHED1
 62
   120
370
     5
100
AcDbLine
 10
-680.691741501796
 20
795.2677163985692
 30
0.0
 11
-594.3554575948996
 21
881.604000305466
 31
0.0
  0
LINE
  5
29F
330
1F
100
AcDbEntity
  8
0-0
  6
JWW_DASHED1
 62
   120
370
     5
100
AcDbLine
 10
-680.6917415017857
 20
802.3387842118653
 30
0.0
 11
-601.4265254081953
 21
881.6040003054541
 31
0.0
  0
LINE
  5
2A0
330
1F
100
AcDbEntity
  8
0-0
  6
JWW_DASHED1
 62
   120
370
     5
100
AcDbLine
 10
-680.6917415017721
 20
809.4098520251628
 30
0.0
 11
-608.4975932214876
 21
881.6040003054472
 31
0.0
  0
LINE
  5
2A1
330
1F
100
AcDbEntity
  8
0-0
  6
JWW_DASHED1
 62
   120
370
     5
100
AcDbLine
 10
-680.6917415017755
 20
816.4809198384448
 30
0.0
 11
-615.5686610347697
 21
881.6040003054511
 31
0.0
  0
LINE
  5
2A2
330
1F
100
AcDbEntity
  8
0-0
  6
JWW_DASHED1
 62
   120
370
     5
100
AcDbLine
 10
-680.6917415017823
 20
823.551987651726
 30
0.0
 11
-622.6397288480517
 21
881.6040003054549
 31
0.0
  0
LINE
  5
2A3
330
1F
100
AcDbEntity
  8
0-0
  6
JWW_DASHED1
 62
   120
370
     5
100
AcDbLine
 10
-680.6917415017857
 20
830.6230554650073
 30
0.0
 11
-629.7107966613338
 21
881.6040003054587
 31
0.0
  0
LINE
  5
2A4
330
1F
100
AcDbEntity
  8
0-0
  6
JWW_DASHED1
 62
   120
370
     5
100
AcDbLine
 10
-680.6917415017891
 20
837.6941232782594
 30
0.0
 11
-636.7818644745886
 21
881.6040003054617
 31
0.0
  0
LINE
  5
2A5
330
1F
100
AcDbEntity
  8
0-0
  6
JWW_DASHED1
 62
   120
370
     5
100
AcDbLine
 10
-680.6917415017823
 20
844.7651910915271
 30
0.0
 11
-643.852932287857
 21
881.6040003054524
 31
0.0
  0
LINE
  5
2A6
330
1F
100
AcDbEntity
  8
0-0
  6
JWW_DASHED1
 62
   120
370
     5
100
AcDbLine
 10
-680.6917415017857
 20
851.8362589048082
 30
0.0
 11
-650.9240001011391
 21
881.6040003054566
 31
0.0
  0
LINE
  5
2A7
330
1F
100
AcDbEntity
  8
0-0
  6
JWW_DASHED1
 62
   120
370
     5
100
AcDbLine
 10
-680.6917415017755
 20
858.9073267181057
 30
0.0
 11
-657.9950679144348
 21
881.6040003054463
 31
0.0
  0
LINE
  5
2A8
330
1F
100
AcDbEntity
  8
0-0
  6
JWW_DASHED1
 62
   120
370
     5
100
AcDbLine
 10
-680.6917415017789
 20
865.9783945313873
 30
0.0
 11
-665.0661357277135
 21
881.6040003054502
 31
0.0
  0
LINE
  5
2A9
330
1F
100
AcDbEntity
  8
0-0
  6
JWW_DASHED1
 62
   120
370
     5
100
AcDbLine
 10
-680.6917415017823
 20
873.0494623446685
 30
0.0
 11
-672.1372035409955
 21
881.6040003054536
 31
0.0
  0
LINE
  5
2AA
330
1F
100
AcDbEntity
  8
0-0
  6
JWW_DASHED1
 62
   120
370
     5
100
AcDbLine
 10
-680.6917415017857
 20
880.1205301579498
 30
0.0
 11
-679.2082713542776
 21
881.6040003054575
 31
0.0
  0
LINE
  5
2AB
330
1F
100
AcDbEntity
  8
0-0
  6
JWW_DASHED1
 62
   120
370
     5
100
AcDbLine
 10
714.8177001482987
 20
-825.3959996945508
 30
0.0
 11
719.3082584982234
 21
-820.9054413446274
 31
0.0
  0
LINE
  5
2AC
330
1F
100
AcDbEntity
  8
0-0
  6
JWW_DASHED1
 62
   120
370
     5
100
AcDbLine
 10
707.7466323350167
 20
-825.395999694547
 30
0.0
 11
719.3082584982183
 21
-813.8343735313463
 31
0.0
  0
LINE
  5
2AD
330
1F
100
AcDbEntity
  8
0-0
  6
JWW_DASHED1
 62
   120
370
     5
100
AcDbLine
 10
700.6755645217346
 20
-825.3959996945432
 30
0.0
 11
719.3082584982131
 21
-806.763305718065
 31
0.0
  0
LINE
  5
2AE
330
1F
100
AcDbEntity
  8
0-0
  6
JWW_DASHED1
 62
   120
370
     5
100
AcDbLine
 10
693.6044967084542
 20
-825.3959996945393
 30
0.0
 11
719.3082584982097
 21
-799.6922379047834
 31
0.0
  0
LINE
  5
2AF
330
1F
100
AcDbEntity
  8
0-0
  6
JWW_DASHED1
 62
   120
370
     5
100
AcDbLine
 10
686.5334288951722
 20
-825.3959996945357
 30
0.0
 11
719.3082584982063
 21
-792.6211700915021
 31
0.0
  0
LINE
  5
2B0
330
1F
100
AcDbEntity
  8
0-0
  6
JWW_DASHED1
 62
   120
370
     5
100
AcDbLine
 10
679.4623610818782
 20
-825.3959996945453
 30
0.0
 11
719.3082584982183
 21
-785.5501022782043
 31
0.0
  0
LINE
  5
2B1
330
1F
100
AcDbEntity
  8
0-0
  6
JWW_DASHED1
 62
   120
370
     5
100
AcDbLine
 10
672.3912932685961
 20
-825.395999694541
 30
0.0
 11
719.3082584982131
 21
-778.4790344649231
 31
0.0
  0
LINE
  5
2B2
330
1F
100
AcDbEntity
  8
0-0
  6
JWW_DASHED1
 62
   120
370
     5
100
AcDbLine
 10
665.320225455314
 20
-825.3959996945367
 30
0.0
 11
719.3082584982097
 21
-771.4079666516415
 31
0.0
  0
LINE
  5
2B3
330
1F
100
AcDbEntity
  8
0-0
  6
JWW_DASHED1
 62
   120
370
     5
100
AcDbLine
 10
658.2491576420729
 20
-825.3959996945479
 30
0.0
 11
719.3082584982166
 21
-764.336898838404
 31
0.0
  0
LINE
  5
2B4
330
1F
100
AcDbEntity
  8
0-0
  6
JWW_DASHED1
 62
   120
370
     5
100
AcDbLine
 10
651.1780898287908
 20
-825.395999694544
 30
0.0
 11
719.3082584982131
 21
-757.2658310251225
 31
0.0
  0
LINE
  5
2B5
330
1F
100
AcDbEntity
  8
0-0
  6
JWW_DASHED1
 62
   120
370
     5
100
AcDbLine
 10
644.1070220155087
 20
-825.3959996945401
 30
0.0
 11
719.3082584982097
 21
-750.1947632118408
 31
0.0
  0
LINE
  5
2B6
330
1F
100
AcDbEntity
  8
0-0
  6
JWW_DASHED1
 62
   120
370
     5
100
AcDbLine
 10
637.0359542022267
 20
-825.3959996945364
 30
0.0
 11
719.3082584982046
 21
-743.1236953985597
 31
0.0
  0
LINE
  5
2B7
330
1F
100
AcDbEntity
  8
0-0
  6
JWW_DASHED1
 62
   120
370
     5
100
AcDbLine
 10
629.9648863889361
 20
-825.3959996945428
 30
0.0
 11
719.3082584982166
 21
-736.0526275852616
 31
0.0
  0
LINE
  5
2B8
330
1F
100
AcDbEntity
  8
0-0
  6
JWW_DASHED1
 62
   120
370
     5
100
AcDbLine
 10
622.893818575654
 20
-825.3959996945387
 30
0.0
 11
719.3082584982131
 21
-728.9815597719802
 31
0.0
  0
LINE
  5
2B9
330
1F
100
AcDbEntity
  8
0-0
  6
JWW_DASHED1
 62
   120
370
     5
100
AcDbLine
 10
615.8227507623515
 20
-825.3959996945568
 30
0.0
 11
719.3082584982234
 21
-721.910491958684
 31
0.0
  0
LINE
  5
2BA
330
1F
100
AcDbEntity
  8
0-0
  6
JWW_DASHED1
 62
   120
370
     5
100
AcDbLine
 10
608.7516829490694
 20
-825.395999694553
 30
0.0
 11
719.30825849822
 21
-714.8394241454024
 31
0.0
  0
LINE
  5
2BB
330
1F
100
AcDbEntity
  8
0-0
  6
JWW_DASHED1
 62
   120
370
     5
100
AcDbLine
 10
601.6806151357873
 20
-825.3959996945493
 30
0.0
 11
719.3082584982166
 21
-707.7683563321211
 31
0.0
  0
LINE
  5
2BC
330
1F
100
AcDbEntity
  8
0-0
  6
JWW_DASHED1
 62
   120
370
     5
100
AcDbLine
 10
594.6095473225649
 20
-825.3959996945413
 30
0.0
 11
719.3082584982063
 21
-700.6972885188987
 31
0.0
  0
LINE
  5
2BD
330
1F
100
AcDbEntity
  8
0-0
  6
JWW_DASHED1
 62
   120
370
     5
100
AcDbLine
 10
587.538479509276
 20
-825.3959996945448
 30
0.0
 11
719.30825849822
 21
-693.6262207056013
 31
0.0
  0
LINE
  5
2BE
330
1F
100
AcDbEntity
  8
0-0
  6
JWW_DASHED1
 62
   120
370
     5
100
AcDbLine
 10
580.467411695994
 20
-825.3959996945406
 30
0.0
 11
719.3082584982166
 21
-686.5551528923188
 31
0.0
  0
LINE
  5
2BF
330
1F
100
AcDbEntity
  8
0-0
  6
JWW_DASHED1
 62
   120
370
     5
100
AcDbLine
 10
573.3963438827119
 20
-825.3959996945364
 30
0.0
 11
719.3082584982131
 21
-679.4840850790374
 31
0.0
  0
LINE
  5
2C0
330
1F
100
AcDbEntity
  8
0-0
  6
JWW_DASHED1
 62
   120
370
     5
100
AcDbLine
 10
566.325276069406
 20
-825.3959996945576
 30
0.0
 11
719.3082584982234
 21
-672.4130172657415
 31
0.0
  0
LINE
  5
2C1
330
1F
100
AcDbEntity
  8
0-0
  6
JWW_DASHED1
 62
   120
370
     5
100
AcDbLine
 10
559.2542082561239
 20
-825.395999694554
 30
0.0
 11
719.3082584982183
 21
-665.3419494524603
 31
0.0
  0
LINE
  5
2C2
330
1F
100
AcDbEntity
  8
0-0
  6
JWW_DASHED1
 62
   120
370
     5
100
AcDbLine
 10
552.1831404428418
 20
-825.39599969455
 30
0.0
 11
719.3082584982131
 21
-658.2708816391788
 31
0.0
  0
LINE
  5
2C3
330
1F
100
AcDbEntity
  8
0-0
  6
JWW_DASHED1
 62
   120
370
     5
100
AcDbLine
 10
545.1120726295615
 20
-825.3959996945462
 30
0.0
 11
719.3082584982097
 21
-651.1998138258974
 31
0.0
  0
LINE
  5
2C4
330
1F
100
AcDbEntity
  8
0-0
  6
JWW_DASHED1
 62
   120
370
     5
100
AcDbLine
 10
538.0410048162794
 20
-825.3959996945428
 30
0.0
 11
719.3082584982063
 21
-644.128746012616
 31
0.0
  0
LINE
  5
2C5
330
1F
100
AcDbEntity
  8
0-0
  6
JWW_DASHED1
 62
   120
370
     5
100
AcDbLine
 10
530.9699370030536
 20
-825.3959996945384
 30
0.0
 11
719.3082584982149
 21
-637.0576781993759
 31
0.0
  0
LINE
  5
2C6
330
1F
100
AcDbEntity
  8
0-0
  6
JWW_DASHED1
 62
   120
370
     5
100
AcDbLine
 10
523.8988691897715
 20
-825.3959996945342
 30
0.0
 11
719.3082584982114
 21
-629.9866103860948
 31
0.0
  0
LINE
  5
2C7
330
1F
100
AcDbEntity
  8
0-0
  6
JWW_DASHED1
 62
   120
370
     5
100
AcDbLine
 10
516.8278013764622
 20
-825.3959996945584
 30
0.0
 11
719.30825849822
 21
-622.9155425727994
 31
0.0
  0
LINE
  5
2C8
330
1F
100
AcDbEntity
  8
0-0
  6
JWW_DASHED1
 62
   120
370
     5
100
AcDbLine
 10
509.7567335631801
 20
-825.3959996945549
 30
0.0
 11
719.3082584982166
 21
-615.8444747595178
 31
0.0
  0
LINE
  5
2C9
330
1F
100
AcDbEntity
  8
0-0
  6
JWW_DASHED1
 62
   120
370
     5
100
AcDbLine
 10
502.685665749898
 20
-825.3959996945508
 30
0.0
 11
719.3082584982131
 21
-608.7734069462364
 31
0.0
  0
LINE
  5
2CA
330
1F
100
AcDbEntity
  8
0-0
  6
JWW_DASHED1
 62
   120
370
     5
100
AcDbLine
 10
495.614597936616
 20
-825.3959996945472
 30
0.0
 11
719.308258498208
 21
-601.7023391329551
 31
0.0
  0
LINE
  5
2CB
330
1F
100
AcDbEntity
  8
0-0
  6
JWW_DASHED1
 62
   120
370
     5
100
AcDbLine
 10
488.5435301233339
 20
-825.3959996945435
 30
0.0
 11
719.3082584982046
 21
-594.6312713196737
 31
0.0
  0
LINE
  5
2CC
330
1F
100
AcDbEntity
  8
0-0
  6
JWW_DASHED1
 62
   120
370
     5
100
AcDbLine
 10
481.4724623100518
 20
-825.3959996945406
 30
0.0
 11
719.3082584982183
 21
-587.5602035063741
 31
0.0
  0
LINE
  5
2CD
330
1F
100
AcDbEntity
  8
0-0
  6
JWW_DASHED1
 62
   120
370
     5
100
AcDbLine
 10
474.4013944967714
 20
-825.3959996945362
 30
0.0
 11
719.3082584982149
 21
-580.489135693093
 31
0.0
  0
LINE
  5
2CE
330
1F
100
AcDbEntity
  8
0-0
  6
JWW_DASHED1
 62
   120
370
     5
100
AcDbLine
 10
469.3082584982325
 20
-823.4180678798443
 30
0.0
 11
719.30825849822
 21
-573.4180678798568
 31
0.0
  0
LINE
  5
2CF
330
1F
100
AcDbEntity
  8
0-0
  6
JWW_DASHED1
 62
   120
370
     5
100
AcDbLine
 10
469.3082584982274
 20
-816.3470000665629
 30
0.0
 11
719.3082584982166
 21
-566.3470000665752
 31
0.0
  0
LINE
  5
2D0
330
1F
100
AcDbEntity
  8
0-0
  6
JWW_DASHED1
 62
   120
370
     5
100
AcDbLine
 10
469.3082584982239
 20
-809.2759322532816
 30
0.0
 11
719.3082584982114
 21
-559.2759322532941
 31
0.0
  0
LINE
  5
2D1
330
1F
100
AcDbEntity
  8
0-0
  6
JWW_DASHED1
 62
   120
370
     5
100
AcDbLine
 10
469.3082584982188
 20
-802.2048644400003
 30
0.0
 11
719.3082584982063
 21
-552.2048644400128
 31
0.0
  0
LINE
  5
2D2
330
1F
100
AcDbEntity
  8
0-0
  6
JWW_DASHED1
 62
   120
370
     5
100
AcDbLine
 10
469.3082584982154
 20
-795.1337966267189
 30
0.0
 11
719.3082584982029
 21
-545.1337966267312
 31
0.0
  0
LINE
  5
2D3
330
1F
100
AcDbEntity
  8
0-0
  6
JWW_DASHED1
 62
   120
370
     5
100
AcDbLine
 10
469.308258498212
 20
-788.062728813437
 30
0.0
 11
719.3082584982166
 21
-538.0627288134314
 31
0.0
  0
LINE
  5
2D4
330
1F
100
AcDbEntity
  8
0-0
  6
JWW_DASHED1
 62
   120
370
     5
100
AcDbLine
 10
469.3082584982086
 20
-780.9916610001554
 30
0.0
 11
719.3082584982131
 21
-530.99166100015
 31
0.0
  0
LINE
  5
2D5
330
1F
100
AcDbEntity
  8
0-0
  6
JWW_DASHED1
 62
   120
370
     5
100
AcDbLine
 10
469.3082584982188
 20
-773.9205931868584
 30
0.0
 11
719.3082584982097
 21
-523.9205931868686
 31
0.0
  0
LINE
  5
2D6
330
1F
100
AcDbEntity
  8
0-0
  6
JWW_DASHED1
 62
   120
370
     5
100
AcDbLine
 10
469.3082584982308
 20
-766.8495253735614
 30
0.0
 11
719.3082584982183
 21
-516.8495253735741
 31
0.0
  0
LINE
  5
2D7
330
1F
100
AcDbEntity
  8
0-0
  6
JWW_DASHED1
 62
   120
370
     5
100
AcDbLine
 10
469.3082584982222
 20
-759.778457560339
 30
0.0
 11
719.3082584982097
 21
-509.778457560352
 31
0.0
  0
LINE
  5
2D8
330
1F
100
AcDbEntity
  8
0-0
  6
JWW_DASHED1
 62
   120
370
     5
100
AcDbLine
 10
469.3082584982188
 20
-752.7073897470577
 30
0.0
 11
719.3082584982063
 21
-502.7073897470703
 31
0.0
  0
LINE
  5
2D9
330
1F
100
AcDbEntity
  8
0-0
  6
JWW_DASHED1
 62
   120
370
     5
100
AcDbLine
 10
469.3082584982137
 20
-745.6363219337766
 30
0.0
 11
719.3082584982166
 21
-495.6363219337731
 31
0.0
  0
LINE
  5
2DA
330
1F
100
AcDbEntity
  8
0-0
  6
JWW_DASHED1
 62
   120
370
     5
100
AcDbLine
 10
469.3082584982103
 20
-738.5652541204945
 30
0.0
 11
719.3082584982166
 21
-488.5652541204887
 31
0.0
  0
LINE
  5
2DB
330
1F
100
AcDbEntity
  8
0-0
  6
JWW_DASHED1
 62
   120
370
     5
100
AcDbLine
 10
375.406445110877
 20
-825.395999694543
 30
0.0
 11
379.3082584982154
 21
-821.4941863072044
 31
0.0
  0
LINE
  5
2DC
330
1F
100
AcDbEntity
  8
0-0
  6
JWW_DASHED1
 62
   120
370
     5
100
AcDbLine
 10
469.3082584982069
 20
-731.4941863072129
 30
0.0
 11
719.3082584982131
 21
-481.4941863072073
 31
0.0
  0
LINE
  5
2DD
330
1F
100
AcDbEntity
  8
0-0
  6
JWW_DASHED1
 62
   120
370
     5
100
AcDbLine
 10
368.3353772975796
 20
-825.3959996945547
 30
0.0
 11
379.3082584982274
 21
-814.4231184939069
 31
0.0
  0
LINE
  5
2DE
330
1F
100
AcDbEntity
  8
0-0
  6
JWW_DASHED1
 62
   120
370
     5
100
AcDbLine
 10
469.3082584982325
 20
-724.4231184939007
 30
0.0
 11
719.30825849822
 21
-474.4231184939133
 31
0.0
  0
LINE
  5
2DF
330
1F
100
AcDbEntity
  8
0-0
  6
JWW_DASHED1
 62
   120
370
     5
100
AcDbLine
 10
361.2643094842975
 20
-825.3959996945513
 30
0.0
 11
379.3082584982222
 21
-807.3520506806257
 31
0.0
  0
LINE
  5
2E0
330
1F
100
AcDbEntity
  8
0-0
  6
JWW_DASHED1
 62
   120
370
     5
100
AcDbLine
 10
469.3082584982291
 20
-717.3520506806193
 30
0.0
 11
719.3082584982166
 21
-467.3520506806318
 31
0.0
  0
LINE
  5
2E1
330
1F
100
AcDbEntity
  8
0-0
  6
JWW_DASHED1
 62
   120
370
     5
100
AcDbLine
 10
354.1932416710155
 20
-825.3959996945474
 30
0.0
 11
379.3082584982188
 21
-800.2809828673443
 31
0.0
  0
LINE
  5
2E2
330
1F
100
AcDbEntity
  8
0-0
  6
JWW_DASHED1
 62
   120
370
     5
100
AcDbLine
 10
469.3082584982257
 20
-710.2809828673379
 30
0.0
 11
719.3082584982131
 21
-460.2809828673502
 31
0.0
  0
LINE
  5
2E3
330
1F
100
AcDbEntity
  8
0-0
  6
JWW_DASHED1
 62
   120
370
     5
100
AcDbLine
 10
347.1221738577334
 20
-825.3959996945435
 30
0.0
 11
379.3082584982154
 21
-793.2099150540629
 31
0.0
  0
LINE
  5
2E4
330
1F
100
AcDbEntity
  8
0-0
  6
JWW_DASHED1
 62
   120
370
     5
100
AcDbLine
 10
469.3082584982222
 20
-703.2099150540564
 30
0.0
 11
719.3082584982097
 21
-453.2099150540689
 31
0.0
  0
LINE
  5
2E5
330
1F
100
AcDbEntity
  8
0-0
  6
JWW_DASHED1
 62
   120
370
     5
100
AcDbLine
 10
340.0511060444991
 20
-825.3959996945487
 30
0.0
 11
379.3082584982222
 21
-786.1388472408242
 31
0.0
  0
LINE
  5
2E6
330
1F
100
AcDbEntity
  8
0-0
  6
JWW_DASHED1
 62
   120
370
     5
100
AcDbLine
 10
469.3082584982137
 20
-696.1388472408328
 30
0.0
 11
719.30825849822
 21
-446.138847240827
 31
0.0
  0
LINE
  5
2E7
330
1F
100
AcDbEntity
  8
0-0
  6
JWW_DASHED1
 62
   120
370
     5
100
AcDbLine
 10
332.980038231217
 20
-825.3959996945447
 30
0.0
 11
379.3082584982188
 21
-779.0677794275429
 31
0.0
  0
LINE
  5
2E8
330
1F
100
AcDbEntity
  8
0-0
  6
JWW_DASHED1
 62
   120
370
     5
100
AcDbLine
 10
469.3082584982103
 20
-689.0677794275516
 30
0.0
 11
719.3082584982149
 21
-439.0677794275457
 31
0.0
  0
LINE
  5
2E9
330
1F
100
AcDbEntity
  8
0-0
  6
JWW_DASHED1
 62
   120
370
     5
100
AcDbLine
 10
325.9089704179315
 20
-825.395999694544
 30
0.0
 11
379.3082584982154
 21
-771.9967116142614
 31
0.0
  0
LINE
  5
2EA
330
1F
100
AcDbEntity
  8
0-0
  6
JWW_DASHED1
 62
   120
370
     5
100
AcDbLine
 10
469.3082584982052
 20
-681.9967116142699
 30
0.0
 11
719.3082584982114
 21
-431.9967116142641
 31
0.0
  0
LINE
  5
2EB
330
1F
100
AcDbEntity
  8
0-0
  6
JWW_DASHED1
 62
   120
370
     5
100
AcDbLine
 10
318.8379026046341
 20
-825.3959996945559
 30
0.0
 11
379.3082584982257
 21
-764.9256438009648
 31
0.0
  0
LINE
  5
2EC
330
1F
100
AcDbEntity
  8
0-0
  6
JWW_DASHED1
 62
   120
370
     5
100
AcDbLine
 10
469.3082584982325
 20
-674.9256438009584
 30
0.0
 11
719.30825849822
 21
-424.9256438009705
 31
0.0
  0
LINE
  5
2ED
330
1F
100
AcDbEntity
  8
0-0
  6
JWW_DASHED1
 62
   120
370
     5
100
AcDbLine
 10
311.7668347913537
 20
-825.3959996945521
 30
0.0
 11
379.3082584982222
 21
-757.8545759876836
 31
0.0
  0
LINE
  5
2EE
330
1F
100
AcDbEntity
  8
0-0
  6
JWW_DASHED1
 62
   120
370
     5
100
AcDbLine
 10
469.3082584982274
 20
-667.854575987677
 30
0.0
 11
719.3082584982149
 21
-417.8545759876893
 31
0.0
  0
LINE
  5
2EF
330
1F
100
AcDbEntity
  8
0-0
  6
JWW_DASHED1
 62
   120
370
     5
100
AcDbLine
 10
304.6957669780717
 20
-825.3959996945483
 30
0.0
 11
379.3082584982171
 21
-750.783508174402
 31
0.0
  0
LINE
  5
2F0
330
1F
100
AcDbEntity
  8
0-0
  6
JWW_DASHED1
 62
   120
370
     5
100
AcDbLine
 10
469.3082584982239
 20
-660.7835081743956
 30
0.0
 11
719.3082584982114
 21
-410.7835081744081
 31
0.0
  0
LINE
  5
2F1
330
1F
100
AcDbEntity
  8
0-0
  6
JWW_DASHED1
 62
   120
370
     5
100
AcDbLine
 10
297.6246991647896
 20
-825.3959996945447
 30
0.0
 11
379.3082584982137
 21
-743.7124403611208
 31
0.0
  0
LINE
  5
2F2
330
1F
100
AcDbEntity
  8
0-0
  6
JWW_DASHED1
 62
   120
370
     5
100
AcDbLine
 10
469.3082584982188
 20
-653.7124403611143
 30
0.0
 11
719.3082584982063
 21
-403.7124403611264
 31
0.0
  0
LINE
  5
2F3
330
1F
100
AcDbEntity
  8
0-0
  6
JWW_DASHED1
 62
   120
370
     5
100
AcDbLine
 10
290.5536313514973
 20
-825.3959996945513
 30
0.0
 11
379.3082584982257
 21
-736.6413725478233
 31
0.0
  0
LINE
  5
2F4
330
1F
100
AcDbEntity
  8
0-0
  6
JWW_DASHED1
 62
   120
370
     5
100
AcDbLine
 10
469.3082584982154
 20
-646.6413725478327
 30
0.0
 11
719.3082584982029
 21
-396.6413725478452
 31
0.0
  0
LINE
  5
2F5
330
1F
100
AcDbEntity
  8
0-0
  6
JWW_DASHED1
 62
   120
370
     5
100
AcDbLine
 10
283.4825635382152
 20
-825.395999694547
 30
0.0
 11
379.3082584982222
 21
-729.5703047345411
 31
0.0
  0
LINE
  5
2F6
330
1F
100
AcDbEntity
  8
0-0
  6
JWW_DASHED1
 62
   120
370
     5
100
AcDbLine
 10
469.3082584982137
 20
-639.5703047345498
 30
0.0
 11
719.30825849822
 21
-389.5703047345439
 31
0.0
  0
LINE
  5
2F7
330
1F
100
AcDbEntity
  8
0-0
  6
JWW_DASHED1
 62
   120
370
     5
100
AcDbLine
 10
276.411495724957
 20
-825.395999694547
 30
0.0
 11
379.3082584982154
 21
-722.499236921289
 31
0.0
  0
LINE
  5
2F8
330
1F
100
AcDbEntity
  8
0-0
  6
JWW_DASHED1
 62
   120
370
     5
100
AcDbLine
 10
469.3082584982069
 20
-632.4992369212976
 30
0.0
 11
719.3082584982131
 21
-382.4992369212922
 31
0.0
  0
LINE
  5
2F9
330
1F
100
AcDbEntity
  8
0-0
  6
JWW_DASHED1
 62
   120
370
     5
100
AcDbLine
 10
269.3404279116886
 20
-825.3959996945568
 30
0.0
 11
379.3082584982239
 21
-715.4281691080223
 31
0.0
  0
LINE
  5
2FA
330
1F
100
AcDbEntity
  8
0-0
  6
JWW_DASHED1
 62
   120
370
     5
100
AcDbLine
 10
469.3082584982308
 20
-625.4281691080159
 30
0.0
 11
719.3082584982183
 21
-375.4281691080284
 31
0.0
  0
LINE
  5
2FB
330
1F
100
AcDbEntity
  8
0-0
  6
JWW_DASHED1
 62
   120
370
     5
100
AcDbLine
 10
262.2693600984082
 20
-825.395999694553
 30
0.0
 11
379.3082584982205
 21
-708.3571012947409
 31
0.0
  0
LINE
  5
2FC
330
1F
100
AcDbEntity
  8
0-0
  6
JWW_DASHED1
 62
   120
370
     5
100
AcDbLine
 10
469.3082584982257
 20
-618.3571012947347
 30
0.0
 11
719.3082584982131
 21
-368.3571012947472
 31
0.0
  0
LINE
  5
2FD
330
1F
100
AcDbEntity
  8
0-0
  6
JWW_DASHED1
 62
   120
370
     5
100
AcDbLine
 10
255.1982922851262
 20
-825.3959996945496
 30
0.0
 11
379.3082584982154
 21
-701.2860334814594
 31
0.0
  0
LINE
  5
2FE
330
1F
100
AcDbEntity
  8
0-0
  6
JWW_DASHED1
 62
   120
370
     5
100
AcDbLine
 10
469.3082584982222
 20
-611.286033481453
 30
0.0
 11
719.3082584982097
 21
-361.2860334814656
 31
0.0
  0
LINE
  5
2FF
330
1F
100
AcDbEntity
  8
0-0
  6
JWW_DASHED1
 62
   120
370
     5
100
AcDbLine
 10
248.1272244718441
 20
-825.3959996945457
 30
0.0
 11
379.308258498212
 21
-694.2149656681783
 31
0.0
  0
LINE
  5
300
330
1F
100
AcDbEntity
  8
0-0
  6
JWW_DASHED1
 62
   120
370
     5
100
AcDbLine
 10
469.3082584982188
 20
-604.2149656681718
 30
0.0
 11
719.3082584982063
 21
-354.2149656681843
 31
0.0
  0
LINE
  5
301
330
1F
100
AcDbEntity
  8
0-0
  6
JWW_DASHED1
 62
   120
370
     5
100
AcDbLine
 10
241.0561566585552
 20
-825.3959996945489
 30
0.0
 11
379.3082584982239
 21
-687.1438978548811
 31
0.0
  0
LINE
  5
302
330
1F
100
AcDbEntity
  8
0-0
  6
JWW_DASHED1
 62
   120
370
     5
100
AcDbLine
 10
469.3082584982137
 20
-597.1438978548904
 30
0.0
 11
719.3082584982029
 21
-347.1438978549027
 31
0.0
  0
LINE
  5
303
330
1F
100
AcDbEntity
  8
0-0
  6
JWW_DASHED1
 62
   120
370
     5
100
AcDbLine
 10
233.9850888452749
 20
-825.3959996945448
 30
0.0
 11
379.3082584982205
 21
-680.0728300415983
 31
0.0
  0
LINE
  5
304
330
1F
100
AcDbEntity
  8
0-0
  6
JWW_DASHED1
 62
   120
370
     5
100
AcDbLine
 10
469.308258498212
 20
-590.0728300416068
 30
0.0
 11
719.3082584982183
 21
-340.072830041601
 31
0.0
  0
LINE
  5
305
330
1F
100
AcDbEntity
  8
0-0
  6
JWW_DASHED1
 62
   120
370
     5
100
AcDbLine
 10
226.9140210319928
 20
-825.3959996945406
 30
0.0
 11
379.3082584982171
 21
-673.0017622283167
 31
0.0
  0
LINE
  5
306
330
1F
100
AcDbEntity
  8
0-0
  6
JWW_DASHED1
 62
   120
370
     5
100
AcDbLine
 10
469.3082584982086
 20
-583.0017622283254
 30
0.0
 11
719.3082584982131
 21
-333.0017622283198
 31
0.0
  0
LINE
  5
307
330
1F
100
AcDbEntity
  8
0-0
  6
JWW_DASHED1
 62
   120
370
     5
100
AcDbLine
 10
219.8429532187005
 20
-825.3959996945466
 30
0.0
 11
379.308258498212
 21
-665.9306944150354
 31
0.0
  0
LINE
  5
308
330
1F
100
AcDbEntity
  8
0-0
  6
JWW_DASHED1
 62
   120
370
     5
100
AcDbLine
 10
469.3082584982205
 20
-575.9306944150283
 30
0.0
 11
719.3082584982097
 21
-325.9306944150381
 31
0.0
  0
LINE
  5
309
330
1F
100
AcDbEntity
  8
0-0
  6
JWW_DASHED1
 62
   120
370
     5
100
AcDbLine
 10
212.7718854054048
 20
-825.3959996945584
 30
0.0
 11
379.3082584982222
 21
-658.8596266017397
 31
0.0
  0
LINE
  5
30A
330
1F
100
AcDbEntity
  8
0-0
  6
JWW_DASHED1
 62
   120
370
     5
100
AcDbLine
 10
469.3082584982291
 20
-568.8596266017333
 30
0.0
 11
719.3082584982166
 21
-318.8596266017458
 31
0.0
  0
LINE
  5
30B
330
1F
100
AcDbEntity
  8
0-0
  6
JWW_DASHED1
 62
   120
370
     5
100
AcDbLine
 10
205.7008175921807
 20
-825.3959996945504
 30
0.0
 11
379.3082584982154
 21
-651.7885587885173
 31
0.0
  0
LINE
  5
30C
330
1F
100
AcDbEntity
  8
0-0
  6
JWW_DASHED1
 62
   120
370
     5
100
AcDbLine
 10
469.3082584982205
 20
-561.788558788511
 30
0.0
 11
719.3082584982097
 21
-311.788558788523
 31
0.0
  0
LINE
  5
30D
330
1F
100
AcDbEntity
  8
0-0
  6
JWW_DASHED1
 62
   120
370
     5
100
AcDbLine
 10
198.6297497788986
 20
-825.3959996945466
 30
0.0
 11
379.3082584982103
 21
-644.7174909752359
 31
0.0
  0
LINE
  5
30E
330
1F
100
AcDbEntity
  8
0-0
  6
JWW_DASHED1
 62
   120
370
     5
100
AcDbLine
 10
469.3082584982171
 20
-554.7174909752296
 30
0.0
 11
719.3082584982046
 21
-304.7174909752418
 31
0.0
  0
LINE
  5
30F
330
1F
100
AcDbEntity
  8
0-0
  6
JWW_DASHED1
 62
   120
370
     5
100
AcDbLine
 10
191.5586819656131
 20
-825.395999694547
 30
0.0
 11
379.3082584982222
 21
-637.6464231619387
 31
0.0
  0
LINE
  5
310
330
1F
100
AcDbEntity
  8
0-0
  6
JWW_DASHED1
 62
   120
370
     5
100
AcDbLine
 10
469.308258498212
 20
-547.6464231619481
 30
0.0
 11
719.3082584981995
 21
-297.6464231619606
 31
0.0
  0
LINE
  5
311
330
1F
100
AcDbEntity
  8
0-0
  6
JWW_DASHED1
 62
   120
370
     5
100
AcDbLine
 10
184.4876141523328
 20
-825.3959996945428
 30
0.0
 11
379.3082584982188
 21
-630.5753553486555
 31
0.0
  0
LINE
  5
312
330
1F
100
AcDbEntity
  8
0-0
  6
JWW_DASHED1
 62
   120
370
     5
100
AcDbLine
 10
469.308258498212
 20
-540.5753553486641
 30
0.0
 11
719.3082584982166
 21
-290.5753553486585
 31
0.0
  0
LINE
  5
313
330
1F
100
AcDbEntity
  8
0-0
  6
JWW_DASHED1
 62
   120
370
     5
100
AcDbLine
 10
177.4165463390388
 20
-825.3959996945513
 30
0.0
 11
379.3082584982154
 21
-623.5042875353741
 31
0.0
  0
LINE
  5
314
330
1F
100
AcDbEntity
  8
0-0
  6
JWW_DASHED1
 62
   120
370
     5
100
AcDbLine
 10
469.3082584982069
 20
-533.5042875353827
 30
0.0
 11
719.3082584982131
 21
-283.5042875353769
 31
0.0
  0
LINE
  5
315
330
1F
100
AcDbEntity
  8
0-0
  6
JWW_DASHED1
 62
   120
370
     5
100
AcDbLine
 10
170.3454785257414
 20
-825.3959996945632
 30
0.0
 11
379.3082584982257
 21
-616.4332197220789
 31
0.0
  0
LINE
  5
316
330
1F
100
AcDbEntity
  8
0-0
  6
JWW_DASHED1
 62
   120
370
     5
100
AcDbLine
 10
469.3082584982325
 20
-526.4332197220724
 30
0.0
 11
719.30825849822
 21
-276.4332197220846
 31
0.0
  0
LINE
  5
317
330
1F
100
AcDbEntity
  8
0-0
  6
JWW_DASHED1
 62
   120
370
     5
100
AcDbLine
 10
163.2744107124593
 20
-825.3959996945594
 30
0.0
 11
379.3082584982222
 21
-609.3621519087972
 31
0.0
  0
LINE
  5
318
330
1F
100
AcDbEntity
  8
0-0
  6
JWW_DASHED1
 62
   120
370
     5
100
AcDbLine
 10
469.3082584982291
 20
-519.3621519087908
 30
0.0
 11
719.3082584982166
 21
-269.3621519088033
 31
0.0
  0
LINE
  5
319
330
1F
100
AcDbEntity
  8
0-0
  6
JWW_DASHED1
 62
   120
370
     5
100
AcDbLine
 10
156.2033428991772
 20
-825.3959996945557
 30
0.0
 11
379.3082584982171
 21
-602.291084095516
 31
0.0
  0
LINE
  5
31A
330
1F
100
AcDbEntity
  8
0-0
  6
JWW_DASHED1
 62
   120
370
     5
100
AcDbLine
 10
469.3082584982239
 20
-512.2910840955096
 30
0.0
 11
719.3082584982114
 21
-262.2910840955221
 31
0.0
  0
LINE
  5
31B
330
1F
100
AcDbEntity
  8
0-0
  6
JWW_DASHED1
 62
   120
370
     5
100
AcDbLine
 10
149.1322750858969
 20
-825.3959996945521
 30
0.0
 11
379.3082584982137
 21
-595.2200162822348
 31
0.0
  0
LINE
  5
31C
330
1F
100
AcDbEntity
  8
0-0
  6
JWW_DASHED1
 62
   120
370
     5
100
AcDbLine
 10
469.3082584982188
 20
-505.220016282228
 30
0.0
 11
719.3082584982063
 21
-255.2200162822409
 31
0.0
  0
LINE
  5
31D
330
1F
100
AcDbEntity
  8
0-0
  6
JWW_DASHED1
 62
   120
370
     5
100
AcDbLine
 10
142.0612072726728
 20
-825.3959996945448
 30
0.0
 11
379.3082584982222
 21
-588.148948468994
 31
0.0
  0
LINE
  5
31E
330
1F
100
AcDbEntity
  8
0-0
  6
JWW_DASHED1
 62
   120
370
     5
100
AcDbLine
 10
469.3082584982154
 20
-498.1489484690026
 30
0.0
 11
719.30825849822
 21
-248.1489484689968
 31
0.0
  0
LINE
  5
31F
330
1F
100
AcDbEntity
  8
0-0
  6
JWW_DASHED1
 62
   120
370
     5
100
AcDbLine
 10
134.9901394593907
 20
-825.3959996945406
 30
0.0
 11
379.3082584982188
 21
-581.0778806557126
 31
0.0
  0
LINE
  5
320
330
1F
100
AcDbEntity
  8
0-0
  6
JWW_DASHED1
 62
   120
370
     5
100
AcDbLine
 10
469.3082584982103
 20
-491.0778806557214
 30
0.0
 11
719.3082584982166
 21
-241.0778806557155
 31
0.0
  0
LINE
  5
321
330
1F
100
AcDbEntity
  8
0-0
  6
JWW_DASHED1
 62
   120
370
     5
100
AcDbLine
 10
129.3082584982245
 20
-824.006812842422
 30
0.0
 11
379.3082584982154
 21
-574.0068128424311
 31
0.0
  0
LINE
  5
322
330
1F
100
AcDbEntity
  8
0-0
  6
JWW_DASHED1
 62
   120
370
     5
100
AcDbLine
 10
469.3082584982052
 20
-484.0068128424397
 30
0.0
 11
719.3082584982114
 21
-234.0068128424339
 31
0.0
  0
LINE
  5
323
330
1F
100
AcDbEntity
  8
0-0
  6
JWW_DASHED1
 62
   120
370
     5
100
AcDbLine
 10
129.3082584982348
 20
-816.9357450291247
 30
0.0
 11
379.3082584982239
 21
-566.9357450291363
 31
0.0
  0
LINE
  5
324
330
1F
100
AcDbEntity
  8
0-0
  6
JWW_DASHED1
 62
   120
370
     5
100
AcDbLine
 10
469.3082584982308
 20
-476.93574502913
 30
0.0
 11
719.3082584982183
 21
-226.9357450291425
 31
0.0
  0
LINE
  5
325
330
1F
100
AcDbEntity
  8
0-0
  6
JWW_DASHED1
 62
   120
370
     5
100
AcDbLine
 10
129.3082584982314
 20
-809.8646772158432
 30
0.0
 11
379.3082584982205
 21
-559.864677215855
 31
0.0
  0
LINE
  5
326
330
1F
100
AcDbEntity
  8
0-0
  6
JWW_DASHED1
 62
   120
370
     5
100
AcDbLine
 10
469.3082584982257
 20
-469.8646772158487
 30
0.0
 11
719.3082584982131
 21
-219.8646772158608
 31
0.0
  0
LINE
  5
327
330
1F
100
AcDbEntity
  8
0-0
  6
JWW_DASHED1
 62
   120
370
     5
100
AcDbLine
 10
129.308258498228
 20
-802.7936094025619
 30
0.0
 11
379.3082584982154
 21
-552.7936094025735
 31
0.0
  0
LINE
  5
328
330
1F
100
AcDbEntity
  8
0-0
  6
JWW_DASHED1
 62
   120
370
     5
100
AcDbLine
 10
469.3082584982222
 20
-462.7936094025671
 30
0.0
 11
719.3082584982097
 21
-212.7936094025796
 31
0.0
  0
LINE
  5
329
330
1F
100
AcDbEntity
  8
0-0
  6
JWW_DASHED1
 62
   120
370
     5
100
AcDbLine
 10
129.3082584982245
 20
-795.7225415892806
 30
0.0
 11
379.308258498212
 21
-545.7225415892923
 31
0.0
  0
LINE
  5
32A
330
1F
100
AcDbEntity
  8
0-0
  6
JWW_DASHED1
 62
   120
370
     5
100
AcDbLine
 10
469.3082584982188
 20
-455.7225415892859
 30
0.0
 11
719.3082584982063
 21
-205.7225415892984
 31
0.0
  0
LINE
  5
32B
330
1F
100
AcDbEntity
  8
0-0
  6
JWW_DASHED1
 62
   120
370
     5
100
AcDbLine
 10
129.3082584982194
 20
-788.6514737759994
 30
0.0
 11
379.3082584982239
 21
-538.6514737759951
 31
0.0
  0
LINE
  5
32C
330
1F
100
AcDbEntity
  8
0-0
  6
JWW_DASHED1
 62
   120
370
     5
100
AcDbLine
 10
469.3082584982137
 20
-448.6514737760047
 30
0.0
 11
719.3082584982012
 21
-198.6514737760167
 31
0.0
  0
LINE
  5
32D
330
1F
100
AcDbEntity
  8
0-0
  6
JWW_DASHED1
 62
   120
370
     5
100
AcDbLine
 10
129.308258498216
 20
-781.5804059627174
 30
0.0
 11
379.3082584982222
 21
-531.5804059627109
 31
0.0
  0
LINE
  5
32E
330
1F
100
AcDbEntity
  8
0-0
  6
JWW_DASHED1
 62
   120
370
     5
100
AcDbLine
 10
469.3082584982137
 20
-441.5804059627196
 30
0.0
 11
719.30825849822
 21
-191.5804059627138
 31
0.0
  0
LINE
  5
32F
330
1F
100
AcDbEntity
  8
0-0
  6
JWW_DASHED1
 62
   120
370
     5
100
AcDbLine
 10
129.3082584982228
 20
-774.5093381494792
 30
0.0
 11
379.3082584982137
 21
-524.5093381494883
 31
0.0
  0
LINE
  5
330
330
1F
100
AcDbEntity
  8
0-0
  6
JWW_DASHED1
 62
   120
370
     5
100
AcDbLine
 10
469.3082584982052
 20
-434.5093381494968
 30
0.0
 11
719.3082584982114
 21
-184.5093381494914
 31
0.0
  0
LINE
  5
331
330
1F
100
AcDbEntity
  8
0-0
  6
JWW_DASHED1
 62
   120
370
     5
100
AcDbLine
 10
129.3082584982348
 20
-767.4382703361824
 30
0.0
 11
379.3082584982222
 21
-517.4382703361938
 31
0.0
  0
LINE
  5
332
330
1F
100
AcDbEntity
  8
0-0
  6
JWW_DASHED1
 62
   120
370
     5
100
AcDbLine
 10
469.3082584982291
 20
-427.4382703361879
 30
0.0
 11
719.3082584982166
 21
-177.4382703362004
 31
0.0
  0
LINE
  5
333
330
1F
100
AcDbEntity
  8
0-0
  6
JWW_DASHED1
 62
   120
370
     5
100
AcDbLine
 10
129.3082584982314
 20
-760.3672025229007
 30
0.0
 11
379.3082584982188
 21
-510.3672025229126
 31
0.0
  0
LINE
  5
334
330
1F
100
AcDbEntity
  8
0-0
  6
JWW_DASHED1
 62
   120
370
     5
100
AcDbLine
 10
469.3082584982257
 20
-420.3672025229062
 30
0.0
 11
719.3082584982131
 21
-170.3672025229187
 31
0.0
  0
LINE
  5
335
330
1F
100
AcDbEntity
  8
0-0
  6
JWW_DASHED1
 62
   120
370
     5
100
AcDbLine
 10
129.3082584982263
 20
-753.2961347096195
 30
0.0
 11
379.3082584982154
 21
-503.2961347096314
 31
0.0
  0
LINE
  5
336
330
1F
100
AcDbEntity
  8
0-0
  6
JWW_DASHED1
 62
   120
370
     5
100
AcDbLine
 10
469.3082584982205
 20
-413.296134709625
 30
0.0
 11
719.3082584982097
 21
-163.2961347096371
 31
0.0
  0
LINE
  5
337
330
1F
100
AcDbEntity
  8
0-0
  6
JWW_DASHED1
 62
   120
370
     5
100
AcDbLine
 10
129.3082584982211
 20
-746.2250668963381
 30
0.0
 11
379.3082584982103
 21
-496.2250668963497
 31
0.0
  0
LINE
  5
338
330
1F
100
AcDbEntity
  8
0-0
  6
JWW_DASHED1
 62
   120
370
     5
100
AcDbLine
 10
469.3082584982171
 20
-406.2250668963434
 30
0.0
 11
719.3082584982046
 21
-156.2250668963559
 31
0.0
  0
LINE
  5
339
330
1F
100
AcDbEntity
  8
0-0
  6
JWW_DASHED1
 62
   120
370
     5
100
AcDbLine
 10
129.3082584982177
 20
-739.1539990830569
 30
0.0
 11
379.3082584982222
 21
-489.1539990830528
 31
0.0
  0
LINE
  5
33A
330
1F
100
AcDbEntity
  8
0-0
  6
JWW_DASHED1
 62
   120
370
     5
100
AcDbLine
 10
469.308258498212
 20
-399.1539990830621
 30
0.0
 11
719.3082584981995
 21
-149.1539990830746
 31
0.0
  0
LINE
  5
33B
330
1F
100
AcDbEntity
  8
0-0
  6
JWW_DASHED1
 62
   120
370
     5
100
AcDbLine
 10
129.3082584982143
 20
-732.0829312697743
 30
0.0
 11
379.3082584982222
 21
-482.0829312697681
 31
0.0
  0
LINE
  5
33C
330
1F
100
AcDbEntity
  8
0-0
  6
JWW_DASHED1
 62
   120
370
     5
100
AcDbLine
 10
469.308258498212
 20
-392.0829312697766
 30
0.0
 11
719.3082584982183
 21
-142.0829312697708
 31
0.0
  0
LINE
  5
33D
330
1F
100
AcDbEntity
  8
0-0
  6
JWW_DASHED1
 62
   120
370
     5
100
AcDbLine
 10
129.3082584982109
 20
-725.0118634564932
 30
0.0
 11
379.3082584982171
 21
-475.0118634564865
 31
0.0
  0
LINE
  5
33E
330
1F
100
AcDbEntity
  8
0-0
  6
JWW_DASHED1
 62
   120
370
     5
100
AcDbLine
 10
469.3082584982086
 20
-385.0118634564955
 30
0.0
 11
719.3082584982149
 21
-135.0118634564896
 31
0.0
  0
LINE
  5
33F
330
1F
100
AcDbEntity
  8
0-0
  6
JWW_DASHED1
 62
   120
370
     5
100
AcDbLine
 10
129.3082584982228
 20
-717.9407956431958
 30
0.0
 11
379.3082584982137
 21
-467.9407956432053
 31
0.0
  0
LINE
  5
340
330
1F
100
AcDbEntity
  8
0-0
  6
JWW_DASHED1
 62
   120
370
     5
100
AcDbLine
 10
469.3082584982052
 20
-377.9407956432138
 30
0.0
 11
719.3082584982097
 21
-127.940795643208
 31
0.0
  0
LINE
  5
341
330
1F
100
AcDbEntity
  8
0-0
  6
JWW_DASHED1
 62
   120
370
     5
100
AcDbLine
 10
129.308258498228
 20
-710.8697278299585
 30
0.0
 11
379.3082584982171
 21
-460.8697278299701
 31
0.0
  0
LINE
  5
342
330
1F
100
AcDbEntity
  8
0-0
  6
JWW_DASHED1
 62
   120
370
     5
100
AcDbLine
 10
469.3082584982239
 20
-370.8697278299637
 30
0.0
 11
719.3082584982114
 21
-120.8697278299762
 31
0.0
  0
LINE
  5
343
330
1F
100
AcDbEntity
  8
0-0
  6
JWW_DASHED1
 62
   120
370
     5
100
AcDbLine
 10
129.3082584982245
 20
-703.7986600166772
 30
0.0
 11
379.3082584982137
 21
-453.7986600166889
 31
0.0
  0
LINE
  5
344
330
1F
100
AcDbEntity
  8
0-0
  6
JWW_DASHED1
 62
   120
370
     5
100
AcDbLine
 10
469.3082584982188
 20
-363.7986600166824
 30
0.0
 11
719.3082584982063
 21
-113.798660016695
 31
0.0
  0
LINE
  5
345
330
1F
100
AcDbEntity
  8
0-0
  6
JWW_DASHED1
 62
   120
370
     5
100
AcDbLine
 10
129.3082584982211
 20
-696.7275922033958
 30
0.0
 11
379.3082584982086
 21
-446.7275922034077
 31
0.0
  0
LINE
  5
346
330
1F
100
AcDbEntity
  8
0-0
  6
JWW_DASHED1
 62
   120
370
     5
100
AcDbLine
 10
469.3082584982154
 20
-356.7275922034013
 30
0.0
 11
719.3082584982029
 21
-106.7275922034133
 31
0.0
  0
LINE
  5
347
330
1F
100
AcDbEntity
  8
0-0
  6
JWW_DASHED1
 62
   120
370
     5
100
AcDbLine
 10
129.3082584982177
 20
-689.6565243901143
 30
0.0
 11
379.3082584982205
 21
-439.6565243901102
 31
0.0
  0
LINE
  5
348
330
1F
100
AcDbEntity
  8
0-0
  6
JWW_DASHED1
 62
   120
370
     5
100
AcDbLine
 10
469.308258498212
 20
-349.6565243901196
 30
0.0
 11
719.3082584981995
 21
-99.65652439013255
 31
0.0
  0
LINE
  5
349
330
1F
100
AcDbEntity
  8
0-0
  6
JWW_DASHED1
 62
   120
370
     5
100
AcDbLine
 10
129.3082584982143
 20
-682.5854565768318
 30
0.0
 11
379.3082584982205
 21
-432.5854565768252
 31
0.0
  0
LINE
  5
34A
330
1F
100
AcDbEntity
  8
0-0
  6
JWW_DASHED1
 62
   120
370
     5
100
AcDbLine
 10
469.308258498212
 20
-342.5854565768337
 30
0.0
 11
719.3082584982166
 21
-92.5854565768283
 31
0.0
  0
LINE
  5
34B
330
1F
100
AcDbEntity
  8
0-0
  6
JWW_DASHED1
 62
   120
370
     5
100
AcDbLine
 10
129.3082584982245
 20
-675.5143887635345
 30
0.0
 11
379.3082584982154
 21
-425.5143887635439
 31
0.0
  0
LINE
  5
34C
330
1F
100
AcDbEntity
  8
0-0
  6
JWW_DASHED1
 62
   120
370
     5
100
AcDbLine
 10
469.3082584982086
 20
-335.5143887635525
 30
0.0
 11
719.3082584982131
 21
-85.51438876354709
 31
0.0
  0
LINE
  5
34D
330
1F
100
AcDbEntity
  8
0-0
  6
JWW_DASHED1
 62
   120
370
     5
100
AcDbLine
 10
129.3082584982365
 20
-668.4433209502388
 30
0.0
 11
379.3082584982239
 21
-418.4433209502504
 31
0.0
  0
LINE
  5
34E
330
1F
100
AcDbEntity
  8
0-0
  6
JWW_DASHED1
 62
   120
370
     5
100
AcDbLine
 10
469.3082584982308
 20
-328.443320950244
 30
0.0
 11
719.3082584982183
 21
-78.44332095025649
 31
0.0
  0
LINE
  5
34F
330
1F
100
AcDbEntity
  8
0-0
  6
JWW_DASHED1
 62
   120
370
     5
100
AcDbLine
 10
129.3082584982314
 20
-661.3722531369573
 30
0.0
 11
379.3082584982205
 21
-411.3722531369692
 31
0.0
  0
LINE
  5
350
330
1F
100
AcDbEntity
  8
0-0
  6
JWW_DASHED1
 62
   120
370
     5
100
AcDbLine
 10
469.3082584982257
 20
-321.3722531369627
 30
0.0
 11
719.3082584982131
 21
-71.37225313697527
 31
0.0
  0
LINE
  5
351
330
1F
100
AcDbEntity
  8
0-0
  6
JWW_DASHED1
 62
   120
370
     5
100
AcDbLine
 10
129.308258498228
 20
-654.3011853236759
 30
0.0
 11
379.3082584982154
 21
-404.3011853236875
 31
0.0
  0
LINE
  5
352
330
1F
100
AcDbEntity
  8
0-0
  6
JWW_DASHED1
 62
   120
370
     5
100
AcDbLine
 10
469.3082584982222
 20
-314.3011853236811
 30
0.0
 11
719.3082584982097
 21
-64.30118532369363
 31
0.0
  0
LINE
  5
353
330
1F
100
AcDbEntity
  8
0-0
  6
JWW_DASHED1
 62
   120
370
     5
100
AcDbLine
 10
129.3082584982194
 20
-647.2301175104535
 30
0.0
 11
379.3082584982239
 21
-397.2301175104494
 31
0.0
  0
LINE
  5
354
330
1F
100
AcDbEntity
  8
0-0
  6
JWW_DASHED1
 62
   120
370
     5
100
AcDbLine
 10
469.3082584982137
 20
-307.2301175104587
 30
0.0
 11
719.3082584982012
 21
-57.23011751047125
 31
0.0
  0
LINE
  5
355
330
1F
100
AcDbEntity
  8
0-0
  6
JWW_DASHED1
 62
   120
370
     5
100
AcDbLine
 10
129.3082584982177
 20
-640.1590496971703
 30
0.0
 11
379.3082584982239
 21
-390.1590496971639
 31
0.0
  0
LINE
  5
356
330
1F
100
AcDbEntity
  8
0-0
  6
JWW_DASHED1
 62
   120
370
     5
100
AcDbLine
 10
469.3082584982154
 20
-300.1590496971724
 30
0.0
 11
719.30825849822
 21
-50.15904969716658
 31
0.0
  0
LINE
  5
357
330
1F
100
AcDbEntity
  8
0-0
  6
JWW_DASHED1
 62
   120
370
     5
100
AcDbLine
 10
129.3082584982126
 20
-633.0879818838889
 30
0.0
 11
379.3082584982188
 21
-383.0879818838822
 31
0.0
  0
LINE
  5
358
330
1F
100
AcDbEntity
  8
0-0
  6
JWW_DASHED1
 62
   120
370
     5
100
AcDbLine
 10
469.3082584982103
 20
-293.0879818838912
 30
0.0
 11
719.3082584982166
 21
-43.08798188388536
 31
0.0
  0
LINE
  5
359
330
1F
100
AcDbEntity
  8
0-0
  6
JWW_DASHED1
 62
   120
370
     5
100
AcDbLine
 10
129.3082584982245
 20
-626.0169140705915
 30
0.0
 11
379.3082584982154
 21
-376.016914070601
 31
0.0
  0
LINE
  5
35A
330
1F
100
AcDbEntity
  8
0-0
  6
JWW_DASHED1
 62
   120
370
     5
100
AcDbLine
 10
469.3082584982069
 20
-286.0169140706096
 30
0.0
 11
719.3082584982131
 21
-36.01691407060414
 31
0.0
  0
LINE
  5
35B
330
1F
100
AcDbEntity
  8
0-0
  6
JWW_DASHED1
 62
   120
370
     5
100
AcDbLine
 10
129.3082584982348
 20
-618.9458462572962
 30
0.0
 11
379.3082584982222
 21
-368.9458462573078
 31
0.0
  0
LINE
  5
35C
330
1F
100
AcDbEntity
  8
0-0
  6
JWW_DASHED1
 62
   120
370
     5
100
AcDbLine
 10
469.3082584982291
 20
-278.9458462573015
 30
0.0
 11
719.3082584982166
 21
-28.94584625731397
 31
0.0
  0
LINE
  5
35D
330
1F
100
AcDbEntity
  8
0-0
  6
JWW_DASHED1
 62
   120
370
     5
100
AcDbLine
 10
129.3082584982314
 20
-611.874778444015
 30
0.0
 11
379.3082584982188
 21
-361.8747784440267
 31
0.0
  0
LINE
  5
35E
330
1F
100
AcDbEntity
  8
0-0
  6
JWW_DASHED1
 62
   120
370
     5
100
AcDbLine
 10
469.3082584982257
 20
-271.8747784440203
 30
0.0
 11
719.3082584982131
 21
-21.87477844403276
 31
0.0
  0
LINE
  5
35F
330
1F
100
AcDbEntity
  8
0-0
  6
JWW_DASHED1
 62
   120
370
     5
100
AcDbLine
 10
129.3082584982263
 20
-604.8037106307338
 30
0.0
 11
379.3082584982154
 21
-354.803710630745
 31
0.0
  0
LINE
  5
360
330
1F
100
AcDbEntity
  8
0-0
  6
JWW_DASHED1
 62
   120
370
     5
100
AcDbLine
 10
469.3082584982205
 20
-264.8037106307386
 30
0.0
 11
719.308258498208
 21
-14.80371063075111
 31
0.0
  0
LINE
  5
361
330
1F
100
AcDbEntity
  8
0-0
  6
JWW_DASHED1
 62
   120
370
     5
100
AcDbLine
 10
129.3082584982211
 20
-597.7326428174522
 30
0.0
 11
379.3082584982103
 21
-347.7326428174638
 31
0.0
  0
LINE
  5
362
330
1F
100
AcDbEntity
  8
0-0
  6
JWW_DASHED1
 62
   120
370
     5
100
AcDbLine
 10
469.3082584982171
 20
-257.7326428174574
 30
0.0
 11
719.3082584982046
 21
-7.732642817469895
 31
0.0
  0
LINE
  5
363
330
1F
100
AcDbEntity
  8
0-0
  6
JWW_DASHED1
 62
   120
370
     5
100
AcDbLine
 10
129.3082584982177
 20
-590.6615750041705
 30
0.0
 11
379.3082584982222
 21
-340.6615750041668
 31
0.0
  0
LINE
  5
364
330
1F
100
AcDbEntity
  8
0-0
  6
JWW_DASHED1
 62
   120
370
     5
100
AcDbLine
 10
469.308258498212
 20
-250.6615750041762
 30
0.0
 11
719.3082584981995
 21
-0.661575004188677
 31
0.0
  0
LINE
  5
365
330
1F
100
AcDbEntity
  8
0-0
  6
JWW_DASHED1
 62
   120
370
     5
100
AcDbLine
 10
129.3082584982109
 20
-583.590507190946
 30
0.0
 11
379.3082584982188
 21
-333.5905071909397
 31
0.0
  0
LINE
  5
366
330
1F
100
AcDbEntity
  8
0-0
  6
JWW_DASHED1
 62
   120
370
     5
100
AcDbLine
 10
469.3082584982103
 20
-243.5905071909482
 30
0.0
 11
719.3082584982149
 21
6.409492809057156
 31
0.0
  0
LINE
  5
367
330
1F
100
AcDbEntity
  8
0-0
  6
JWW_DASHED1
 62
   120
370
     5
100
AcDbLine
 10
129.3082584982245
 20
-576.519439377649
 30
0.0
 11
379.3082584982154
 21
-326.519439377658
 31
0.0
  0
LINE
  5
368
330
1F
100
AcDbEntity
  8
0-0
  6
JWW_DASHED1
 62
   120
370
     5
100
AcDbLine
 10
469.3082584982052
 20
-236.5194393776666
 30
0.0
 11
719.3082584982114
 21
13.4805606223388
 31
0.0
  0
LINE
  5
369
330
1F
100
AcDbEntity
  8
0-0
  6
JWW_DASHED1
 62
   120
370
     5
100
AcDbLine
 10
129.3082584982331
 20
-569.4483715643541
 30
0.0
 11
379.3082584982222
 21
-319.4483715643657
 31
0.0
  0
LINE
  5
36A
330
1F
100
AcDbEntity
  8
0-0
  6
JWW_DASHED1
 62
   120
370
     5
100
AcDbLine
 10
469.3082584982274
 20
-229.448371564359
 30
0.0
 11
719.3082584982166
 21
20.55162843562854
 31
0.0
  0
LINE
  5
36B
330
1F
100
AcDbEntity
  8
0-0
  6
JWW_DASHED1
 62
   120
370
     5
100
AcDbLine
 10
129.308258498228
 20
-562.3773037510725
 30
0.0
 11
379.3082584982171
 21
-312.3773037510841
 31
0.0
  0
LINE
  5
36C
330
1F
100
AcDbEntity
  8
0-0
  6
JWW_DASHED1
 62
   120
370
     5
100
AcDbLine
 10
469.3082584982239
 20
-222.3773037510777
 30
0.0
 11
719.3082584982114
 21
27.62269624890976
 31
0.0
  0
LINE
  5
36D
330
1F
100
AcDbEntity
  8
0-0
  6
JWW_DASHED1
 62
   120
370
     5
100
AcDbLine
 10
129.3082584982245
 20
-555.3062359377913
 30
0.0
 11
379.3082584982137
 21
-305.3062359378029
 31
0.0
  0
LINE
  5
36E
330
1F
100
AcDbEntity
  8
0-0
  6
JWW_DASHED1
 62
   120
370
     5
100
AcDbLine
 10
469.3082584982188
 20
-215.3062359377965
 30
0.0
 11
719.3082584982063
 21
34.69376406219098
 31
0.0
  0
LINE
  5
36F
330
1F
100
AcDbEntity
  8
0-0
  6
JWW_DASHED1
 62
   120
370
     5
100
AcDbLine
 10
129.3082584982211
 20
-548.2351681245099
 30
0.0
 11
379.3082584982086
 21
-298.2351681245217
 31
0.0
  0
LINE
  5
370
330
1F
100
AcDbEntity
  8
0-0
  6
JWW_DASHED1
 62
   120
370
     5
100
AcDbLine
 10
469.3082584982154
 20
-208.2351681245149
 30
0.0
 11
719.3082584982029
 21
41.7648318754722
 31
0.0
  0
LINE
  5
371
330
1F
100
AcDbEntity
  8
0-0
  6
JWW_DASHED1
 62
   120
370
     5
100
AcDbLine
 10
129.3082584982177
 20
-541.1641003112284
 30
0.0
 11
379.3082584982205
 21
-291.1641003112243
 31
0.0
  0
LINE
  5
372
330
1F
100
AcDbEntity
  8
0-0
  6
JWW_DASHED1
 62
   120
370
     5
100
AcDbLine
 10
469.308258498212
 20
-201.1641003112337
 30
0.0
 11
719.3082584981995
 21
48.83589968875384
 31
0.0
  0
LINE
  5
373
330
1F
100
AcDbEntity
  8
0-0
  6
JWW_DASHED1
 62
   120
370
     5
100
AcDbLine
 10
129.308258498216
 20
-534.0930324979443
 30
0.0
 11
379.3082584982222
 21
-284.0930324979379
 31
0.0
  0
LINE
  5
374
330
1F
100
AcDbEntity
  8
0-0
  6
JWW_DASHED1
 62
   120
370
     5
100
AcDbLine
 10
469.3082584982137
 20
-194.0930324979465
 30
0.0
 11
719.30825849822
 21
55.90696750205936
 31
0.0
  0
LINE
  5
375
330
1F
100
AcDbEntity
  8
0-0
  6
JWW_DASHED1
 62
   120
370
     5
100
AcDbLine
 10
129.3082584982109
 20
-527.021964684663
 30
0.0
 11
379.3082584982188
 21
-277.0219646846563
 31
0.0
  0
LINE
  5
376
330
1F
100
AcDbEntity
  8
0-0
  6
JWW_DASHED1
 62
   120
370
     5
100
AcDbLine
 10
469.3082584982086
 20
-187.0219646846648
 30
0.0
 11
719.3082584982149
 21
62.97803531534058
 31
0.0
  0
LINE
  5
377
330
1F
100
AcDbEntity
  8
0-0
  6
JWW_DASHED1
 62
   120
370
     5
100
AcDbLine
 10
129.3082584982228
 20
-519.9508968713656
 30
0.0
 11
379.3082584982137
 21
-269.9508968713751
 31
0.0
  0
LINE
  5
378
330
1F
100
AcDbEntity
  8
0-0
  6
JWW_DASHED1
 62
   120
370
     5
100
AcDbLine
 10
469.3082584982052
 20
-179.9508968713836
 30
0.0
 11
719.3082584982097
 21
70.0491031286218
 31
0.0
  0
LINE
  5
379
330
1F
100
AcDbEntity
  8
0-0
  6
JWW_DASHED1
 62
   120
370
     5
100
AcDbLine
 10
129.308258498228
 20
-512.87982905813
 30
0.0
 11
379.3082584982154
 21
-262.879829058142
 31
0.0
  0
LINE
  5
37A
330
1F
100
AcDbEntity
  8
0-0
  6
JWW_DASHED1
 62
   120
370
     5
100
AcDbLine
 10
469.3082584982222
 20
-172.8798290581356
 30
0.0
 11
719.3082584982097
 21
77.12017094185228
 31
0.0
  0
LINE
  5
37B
330
1F
100
AcDbEntity
  8
0-0
  6
JWW_DASHED1
 62
   120
370
     5
100
AcDbLine
 10
129.3082584982245
 20
-505.8087612448487
 30
0.0
 11
379.308258498212
 21
-255.8087612448604
 31
0.0
  0
LINE
  5
37C
330
1F
100
AcDbEntity
  8
0-0
  6
JWW_DASHED1
 62
   120
370
     5
100
AcDbLine
 10
469.3082584982188
 20
-165.808761244854
 30
0.0
 11
719.3082584982063
 21
84.1912387551335
 31
0.0
  0
LINE
  5
37D
330
1F
100
AcDbEntity
  8
0-0
  6
JWW_DASHED1
 62
   120
370
     5
100
AcDbLine
 10
129.3082584982194
 20
-498.7376934315675
 30
0.0
 11
379.3082584982086
 21
-248.7376934315792
 31
0.0
  0
LINE
  5
37E
330
1F
100
AcDbEntity
  8
0-0
  6
JWW_DASHED1
 62
   120
370
     5
100
AcDbLine
 10
469.3082584982137
 20
-158.7376934315728
 30
0.0
 11
719.3082584982029
 21
91.26230656841514
 31
0.0
  0
LINE
  5
37F
330
1F
100
AcDbEntity
  8
0-0
  6
JWW_DASHED1
 62
   120
370
     5
100
AcDbLine
 10
129.3082584982143
 20
-491.6666256182859
 30
0.0
 11
379.3082584982188
 21
-241.6666256182818
 31
0.0
  0
LINE
  5
380
330
1F
100
AcDbEntity
  8
0-0
  6
JWW_DASHED1
 62
   120
370
     5
100
AcDbLine
 10
469.3082584982103
 20
-151.6666256182911
 30
0.0
 11
719.3082584981978
 21
98.33337438169636
 31
0.0
  0
LINE
  5
381
330
1F
100
AcDbEntity
  8
0-0
  6
JWW_DASHED1
 62
   120
370
     5
100
AcDbLine
 10
129.3082584982143
 20
-484.5955578050017
 30
0.0
 11
379.3082584982205
 21
-234.595557804995
 31
0.0
  0
LINE
  5
382
330
1F
100
AcDbEntity
  8
0-0
  6
JWW_DASHED1
 62
   120
370
     5
100
AcDbLine
 10
469.308258498212
 20
-144.5955578050035
 30
0.0
 11
719.3082584982183
 21
105.4044421950023
 31
0.0
  0
LINE
  5
383
330
1F
100
AcDbEntity
  8
0-0
  6
JWW_DASHED1
 62
   120
370
     5
100
AcDbLine
 10
129.3082584982263
 20
-477.5244899917043
 30
0.0
 11
379.3082584982171
 21
-227.5244899917138
 31
0.0
  0
LINE
  5
384
330
1F
100
AcDbEntity
  8
0-0
  6
JWW_DASHED1
 62
   120
370
     5
100
AcDbLine
 10
469.3082584982086
 20
-137.5244899917223
 30
0.0
 11
719.3082584982131
 21
112.4755100082835
 31
0.0
  0
LINE
  5
385
330
1F
100
AcDbEntity
  8
0-0
  6
JWW_DASHED1
 62
   120
370
     5
100
AcDbLine
 10
129.3082584982348
 20
-470.4534221784103
 30
0.0
 11
379.3082584982222
 21
-220.4534221784219
 31
0.0
  0
LINE
  5
386
330
1F
100
AcDbEntity
  8
0-0
  6
JWW_DASHED1
 62
   120
370
     5
100
AcDbLine
 10
469.3082584982291
 20
-130.4534221784155
 30
0.0
 11
719.3082584982166
 21
119.546577821572
 31
0.0
  0
LINE
  5
387
330
1F
100
AcDbEntity
  8
0-0
  6
JWW_DASHED1
 62
   120
370
     5
100
AcDbLine
 10
129.3082584982314
 20
-463.382354365129
 30
0.0
 11
379.3082584982188
 21
-213.3823543651407
 31
0.0
  0
LINE
  5
388
330
1F
100
AcDbEntity
  8
0-0
  6
JWW_DASHED1
 62
   120
370
     5
100
AcDbLine
 10
469.3082584982257
 20
-123.3823543651343
 30
0.0
 11
719.3082584982131
 21
126.6176456348536
 31
0.0
  0
LINE
  5
389
330
1F
100
AcDbEntity
  8
0-0
  6
JWW_DASHED1
 62
   120
370
     5
100
AcDbLine
 10
129.3082584982263
 20
-456.3112865518474
 30
0.0
 11
379.3082584982154
 21
-206.3112865518595
 31
0.0
  0
LINE
  5
38A
330
1F
100
AcDbEntity
  8
0-0
  6
JWW_DASHED1
 62
   120
370
     5
100
AcDbLine
 10
469.3082584982222
 20
-116.3112865518526
 30
0.0
 11
719.308258498208
 21
133.6887134481348
 31
0.0
  0
LINE
  5
38B
330
1F
100
AcDbEntity
  8
0-0
  6
JWW_DASHED1
 62
   120
370
     5
100
AcDbLine
 10
129.3082584982177
 20
-449.240218738625
 30
0.0
 11
379.3082584982069
 21
-199.2402187386367
 31
0.0
  0
LINE
  5
38C
330
1F
100
AcDbEntity
  8
0-0
  6
JWW_DASHED1
 62
   120
370
     5
100
AcDbLine
 10
469.308258498212
 20
-109.2402187386303
 30
0.0
 11
719.3082584981995
 21
140.7597812613572
 31
0.0
  0
LINE
  5
38D
330
1F
100
AcDbEntity
  8
0-0
  6
JWW_DASHED1
 62
   120
370
     5
100
AcDbLine
 10
129.3082584982143
 20
-442.1691509253434
 30
0.0
 11
379.3082584982188
 21
-192.1691509253397
 31
0.0
  0
LINE
  5
38E
330
1F
100
AcDbEntity
  8
0-0
  6
JWW_DASHED1
 62
   120
370
     5
100
AcDbLine
 10
469.3082584982086
 20
-102.169150925349
 30
0.0
 11
719.3082584982131
 21
147.8308490746547
 31
0.0
  0
LINE
  5
38F
330
1F
100
AcDbEntity
  8
0-0
  6
JWW_DASHED1
 62
   120
370
     5
100
AcDbLine
 10
129.3082584982143
 20
-435.0980831120587
 30
0.0
 11
379.3082584982188
 21
-185.0980831120521
 31
0.0
  0
LINE
  5
390
330
1F
100
AcDbEntity
  8
0-0
  6
JWW_DASHED1
 62
   120
370
     5
100
AcDbLine
 10
469.308258498212
 20
-95.098083112061
 30
0.0
 11
719.3082584982166
 21
154.9019168879448
 31
0.0
  0
LINE
  5
391
330
1F
100
AcDbEntity
  8
0-0
  6
JWW_DASHED1
 62
   120
370
     5
100
AcDbLine
 10
129.3082584982245
 20
-428.0270152987613
 30
0.0
 11
379.3082584982154
 21
-178.0270152987708
 31
0.0
  0
LINE
  5
392
330
1F
100
AcDbEntity
  8
0-0
  6
JWW_DASHED1
 62
   120
370
     5
100
AcDbLine
 10
469.3082584982069
 20
-88.02701529877936
 30
0.0
 11
719.3082584982131
 21
161.9729847012265
 31
0.0
  0
LINE
  5
393
330
1F
100
AcDbEntity
  8
0-0
  6
JWW_DASHED1
 62
   120
370
     5
100
AcDbLine
 10
129.3082584982331
 20
-420.9559474854677
 30
0.0
 11
379.3082584982222
 21
-170.9559474854794
 31
0.0
  0
LINE
  5
394
330
1F
100
AcDbEntity
  8
0-0
  6
JWW_DASHED1
 62
   120
370
     5
100
AcDbLine
 10
469.3082584982274
 20
-80.95594748547299
 30
0.0
 11
719.3082584982166
 21
169.0440525145145
 31
0.0
  0
LINE
  5
395
330
1F
100
AcDbEntity
  8
0-0
  6
JWW_DASHED1
 62
   120
370
     5
100
AcDbLine
 10
129.308258498228
 20
-413.8848796721869
 30
0.0
 11
379.3082584982171
 21
-163.8848796721982
 31
0.0
  0
LINE
  5
396
330
1F
100
AcDbEntity
  8
0-0
  6
JWW_DASHED1
 62
   120
370
     5
100
AcDbLine
 10
469.3082584982239
 20
-73.88487967219177
 30
0.0
 11
719.3082584982114
 21
176.1151203277957
 31
0.0
  0
LINE
  5
397
330
1F
100
AcDbEntity
  8
0-0
  6
JWW_DASHED1
 62
   120
370
     5
100
AcDbLine
 10
129.3082584982245
 20
-406.8138118589048
 30
0.0
 11
379.3082584982137
 21
-156.8138118589169
 31
0.0
  0
LINE
  5
398
330
1F
100
AcDbEntity
  8
0-0
  6
JWW_DASHED1
 62
   120
370
     5
100
AcDbLine
 10
469.3082584982188
 20
-66.81381185891055
 30
0.0
 11
719.3082584982063
 21
183.1861881410769
 31
0.0
  0
LINE
  5
399
330
1F
100
AcDbEntity
  8
0-0
  6
JWW_DASHED1
 62
   120
370
     5
100
AcDbLine
 10
129.3082584982211
 20
-399.7427440456237
 30
0.0
 11
379.3082584982086
 21
-149.7427440456353
 31
0.0
  0
LINE
  5
39A
330
1F
100
AcDbEntity
  8
0-0
  6
JWW_DASHED1
 62
   120
370
     5
100
AcDbLine
 10
469.3082584982154
 20
-59.74274404562934
 30
0.0
 11
719.3082584982029
 21
190.2572559543586
 31
0.0
  0
LINE
  5
39B
330
1F
100
AcDbEntity
  8
0-0
  6
JWW_DASHED1
 62
   120
370
     5
100
AcDbLine
 10
129.3082584982177
 20
-392.6716762323424
 30
0.0
 11
379.3082584982205
 21
-142.6716762323383
 31
0.0
  0
LINE
  5
39C
330
1F
100
AcDbEntity
  8
0-0
  6
JWW_DASHED1
 62
   120
370
     5
100
AcDbLine
 10
469.308258498212
 20
-52.67167623234769
 30
0.0
 11
719.3082584981995
 21
197.3283237676398
 31
0.0
  0
LINE
  5
39D
330
1F
100
AcDbEntity
  8
0-0
  6
JWW_DASHED1
 62
   120
370
     5
100
AcDbLine
 10
129.3082584982126
 20
-385.6006084191158
 30
0.0
 11
379.3082584982188
 21
-135.6006084191095
 31
0.0
  0
LINE
  5
39E
330
1F
100
AcDbEntity
  8
0-0
  6
JWW_DASHED1
 62
   120
370
     5
100
AcDbLine
 10
469.3082584982103
 20
-45.60060841911806
 30
0.0
 11
719.3082584982166
 21
204.3993915808873
 31
0.0
  0
LINE
  5
39F
330
1F
100
AcDbEntity
  8
0-0
  6
JWW_DASHED1
 62
   120
370
     5
100
AcDbLine
 10
129.3082584982245
 20
-378.5295406058184
 30
0.0
 11
379.3082584982154
 21
-128.5295406058279
 31
0.0
  0
LINE
  5
3A0
330
1F
100
AcDbEntity
  8
0-0
  6
JWW_DASHED1
 62
   120
370
     5
100
AcDbLine
 10
469.3082584982052
 20
-38.52954060583684
 30
0.0
 11
719.3082584982131
 21
211.4704593941694
 31
0.0
  0
LINE
  5
3A1
330
1F
100
AcDbEntity
  8
0-0
  6
JWW_DASHED1
 62
   120
370
     5
100
AcDbLine
 10
129.3082584982314
 20
-371.4584727925252
 30
0.0
 11
379.3082584982205
 21
-121.4584727925373
 31
0.0
  0
LINE
  5
3A2
330
1F
100
AcDbEntity
  8
0-0
  6
JWW_DASHED1
 62
   120
370
     5
100
AcDbLine
 10
469.3082584982257
 20
-31.4584727925309
 30
0.0
 11
719.3082584982131
 21
218.5415272074566
 31
0.0
  0
LINE
  5
3A3
330
1F
100
AcDbEntity
  8
0-0
  6
JWW_DASHED1
 62
   120
370
     5
100
AcDbLine
 10
129.308258498228
 20
-364.387404979244
 30
0.0
 11
379.3082584982154
 21
-114.3874049792556
 31
0.0
  0
LINE
  5
3A4
330
1F
100
AcDbEntity
  8
0-0
  6
JWW_DASHED1
 62
   120
370
     5
100
AcDbLine
 10
469.3082584982222
 20
-24.38740497924968
 30
0.0
 11
719.3082584982097
 21
225.6125950207378
 31
0.0
  0
LINE
  5
3A5
330
1F
100
AcDbEntity
  8
0-0
  6
JWW_DASHED1
 62
   120
370
     5
100
AcDbLine
 10
129.3082584982245
 20
-357.3163371659628
 30
0.0
 11
379.308258498212
 21
-107.3163371659744
 31
0.0
  0
LINE
  5
3A6
330
1F
100
AcDbEntity
  8
0-0
  6
JWW_DASHED1
 62
   120
370
     5
100
AcDbLine
 10
469.3082584982188
 20
-17.31633716596804
 30
0.0
 11
719.3082584982063
 21
232.6836628340195
 31
0.0
  0
LINE
  5
3A7
330
1F
100
AcDbEntity
  8
0-0
  6
JWW_DASHED1
 62
   120
370
     5
100
AcDbLine
 10
129.3082584982194
 20
-350.2452693526816
 30
0.0
 11
379.3082584982086
 21
-100.2452693526932
 31
0.0
  0
LINE
  5
3A8
330
1F
100
AcDbEntity
  8
0-0
  6
JWW_DASHED1
 62
   120
370
     5
100
AcDbLine
 10
469.3082584982137
 20
-10.24526935268682
 30
0.0
 11
719.3082584982029
 21
239.7547306473011
 31
0.0
  0
LINE
  5
3A9
330
1F
100
AcDbEntity
  8
0-0
  6
JWW_DASHED1
 62
   120
370
     5
100
AcDbLine
 10
129.3082584982143
 20
-343.1742015393999
 30
0.0
 11
379.3082584982188
 21
-93.1742015393958
 31
0.0
  0
LINE
  5
3AA
330
1F
100
AcDbEntity
  8
0-0
  6
JWW_DASHED1
 62
   120
370
     5
100
AcDbLine
 10
469.3082584982103
 20
-3.174201539405175
 30
0.0
 11
719.3082584981978
 21
246.8257984605823
 31
0.0
  0
LINE
  5
3AB
330
1F
100
AcDbEntity
  8
0-0
  6
JWW_DASHED1
 62
   120
370
     5
100
AcDbLine
 10
129.308258498216
 20
-336.103133726114
 30
0.0
 11
379.3082584982222
 21
-86.10313372610776
 31
0.0
  0
LINE
  5
3AC
330
1F
100
AcDbEntity
  8
0-0
  6
JWW_DASHED1
 62
   120
370
     5
100
AcDbLine
 10
469.3082584982137
 20
3.896866273883717
 30
0.0
 11
719.30825849822
 21
253.8968662738895
 31
0.0
  0
LINE
  5
3AD
330
1F
100
AcDbEntity
  8
0-0
  6
JWW_DASHED1
 62
   120
370
     5
100
AcDbLine
 10
129.3082584982109
 20
-329.0320659128328
 30
0.0
 11
379.3082584982188
 21
-79.03206591282611
 31
0.0
  0
LINE
  5
3AE
330
1F
100
AcDbEntity
  8
0-0
  6
JWW_DASHED1
 62
   120
370
     5
100
AcDbLine
 10
469.3082584982086
 20
10.96793408716536
 30
0.0
 11
719.3082584982149
 21
260.9679340871708
 31
0.0
  0
LINE
  5
3AF
330
1F
100
AcDbEntity
  8
0-0
  6
JWW_DASHED1
 62
   120
370
     5
100
AcDbLine
 10
129.3082584982297
 20
-321.9609980995831
 30
0.0
 11
379.3082584982188
 21
-71.96099809959478
 31
0.0
  0
LINE
  5
3B0
330
1F
100
AcDbEntity
  8
0-0
  6
JWW_DASHED1
 62
   120
370
     5
100
AcDbLine
 10
469.3082584982257
 20
18.03900190041162
 30
0.0
 11
719.3082584982131
 21
268.0390019003991
 31
0.0
  0
LINE
  5
3B1
330
1F
100
AcDbEntity
  8
0-0
  6
JWW_DASHED1
 62
   120
370
     5
100
AcDbLine
 10
129.3082584982263
 20
-314.8899302863019
 30
0.0
 11
379.3082584982154
 21
-64.88993028631356
 31
0.0
  0
LINE
  5
3B2
330
1F
100
AcDbEntity
  8
0-0
  6
JWW_DASHED1
 62
   120
370
     5
100
AcDbLine
 10
469.3082584982205
 20
25.11006971369284
 30
0.0
 11
719.308258498208
 21
275.1100697136808
 31
0.0
  0
LINE
  5
3B3
330
1F
100
AcDbEntity
  8
0-0
  6
JWW_DASHED1
 62
   120
370
     5
100
AcDbLine
 10
129.3082584982211
 20
-307.8188624730203
 30
0.0
 11
379.3082584982103
 21
-57.81886247303234
 31
0.0
  0
LINE
  5
3B4
330
1F
100
AcDbEntity
  8
0-0
  6
JWW_DASHED1
 62
   120
370
     5
100
AcDbLine
 10
469.3082584982171
 20
32.18113752697448
 30
0.0
 11
719.3082584982046
 21
282.1811375269619
 31
0.0
  0
LINE
  5
3B5
330
1F
100
AcDbEntity
  8
0-0
  6
JWW_DASHED1
 62
   120
370
     5
100
AcDbLine
 10
129.3082584982177
 20
-300.747794659739
 30
0.0
 11
379.3082584982069
 21
-50.7477946597507
 31
0.0
  0
LINE
  5
3B6
330
1F
100
AcDbEntity
  8
0-0
  6
JWW_DASHED1
 62
   120
370
     5
100
AcDbLine
 10
469.308258498212
 20
39.2522053402557
 30
0.0
 11
719.3082584981995
 21
289.2522053402432
 31
0.0
  0
LINE
  5
3B7
330
1F
100
AcDbEntity
  8
0-0
  6
JWW_DASHED1
 62
   120
370
     5
100
AcDbLine
 10
129.3082584982143
 20
-293.6767268464574
 30
0.0
 11
379.3082584982188
 21
-43.6767268464537
 31
0.0
  0
LINE
  5
3B8
330
1F
100
AcDbEntity
  8
0-0
  6
JWW_DASHED1
 62
   120
370
     5
100
AcDbLine
 10
469.3082584982086
 20
46.32327315353692
 30
0.0
 11
719.3082584981961
 21
296.3232731535244
 31
0.0
  0
LINE
  5
3B9
330
1F
100
AcDbEntity
  8
0-0
  6
JWW_DASHED1
 62
   120
370
     5
100
AcDbLine
 10
129.3082584982143
 20
-286.605659033171
 30
0.0
 11
379.3082584982222
 21
-36.60565903316481
 31
0.0
  0
LINE
  5
3BA
330
1F
100
AcDbEntity
  8
0-0
  6
JWW_DASHED1
 62
   120
370
     5
100
AcDbLine
 10
469.308258498212
 20
53.39434096682666
 30
0.0
 11
719.3082584982183
 21
303.394340966832
 31
0.0
  0
LINE
  5
3BB
330
1F
100
AcDbEntity
  8
0-0
  6
JWW_DASHED1
 62
   120
370
     5
100
AcDbLine
 10
129.3082584982109
 20
-279.5345912198899
 30
0.0
 11
379.3082584982171
 21
-29.53459121988317
 31
0.0
  0
LINE
  5
3BC
330
1F
100
AcDbEntity
  8
0-0
  6
JWW_DASHED1
 62
   120
370
     5
100
AcDbLine
 10
469.3082584982086
 20
60.46540878010788
 30
0.0
 11
719.3082584982131
 21
310.4654087801133
 31
0.0
  0
LINE
  5
3BD
330
1F
100
AcDbEntity
  8
0-0
  6
JWW_DASHED1
 62
   120
370
     5
100
AcDbLine
 10
129.3082584982228
 20
-272.4635234065925
 30
0.0
 11
379.3082584982137
 21
-22.46352340660195
 31
0.0
  0
LINE
  5
3BE
330
1F
100
AcDbEntity
  8
0-0
  6
JWW_DASHED1
 62
   120
370
     5
100
AcDbLine
 10
469.3082584982205
 20
67.5364765934053
 30
0.0
 11
719.3082584982097
 21
317.5364765933954
 31
0.0
  0
LINE
  5
3BF
330
1F
100
AcDbEntity
  8
0-0
  6
JWW_DASHED1
 62
   120
370
     5
100
AcDbLine
 10
129.3082584982297
 20
-265.3924555933006
 30
0.0
 11
379.3082584982171
 21
-15.39245559331221
 31
0.0
  0
LINE
  5
3C0
330
1F
100
AcDbEntity
  8
0-0
  6
JWW_DASHED1
 62
   120
370
     5
100
AcDbLine
 10
469.3082584982239
 20
74.60754440669419
 30
0.0
 11
719.3082584982114
 21
324.6075444066817
 31
0.0
  0
LINE
  5
3C1
330
1F
100
AcDbEntity
  8
0-0
  6
JWW_DASHED1
 62
   120
370
     5
100
AcDbLine
 10
129.3082584982211
 20
-258.3213877800778
 30
0.0
 11
379.3082584982086
 21
-8.321387780089822
 31
0.0
  0
LINE
  5
3C2
330
1F
100
AcDbEntity
  8
0-0
  6
JWW_DASHED1
 62
   120
370
     5
100
AcDbLine
 10
469.3082584982154
 20
81.67861221991657
 30
0.0
 11
719.3082584982029
 21
331.6786122199045
 31
0.0
  0
LINE
  5
3C3
330
1F
100
AcDbEntity
  8
0-0
  6
JWW_DASHED1
 62
   120
370
     5
100
AcDbLine
 10
129.3082584982177
 20
-251.2503199667965
 30
0.0
 11
379.3082584982052
 21
-1.250319966808178
 31
0.0
  0
LINE
  5
3C4
330
1F
100
AcDbEntity
  8
0-0
  6
JWW_DASHED1
 62
   120
370
     5
100
AcDbLine
 10
469.308258498212
 20
88.74968003319779
 30
0.0
 11
719.3082584981995
 21
338.7496800331853
 31
0.0
  0
LINE
  5
3C5
330
1F
100
AcDbEntity
  8
0-0
  6
JWW_DASHED1
 62
   120
370
     5
100
AcDbLine
 10
129.3082584982126
 20
-244.1792521535153
 30
0.0
 11
379.3082584982171
 21
5.820747846488814
 31
0.0
  0
LINE
  5
3C6
330
1F
100
AcDbEntity
  8
0-0
  6
JWW_DASHED1
 62
   120
370
     5
100
AcDbLine
 10
469.3082584982069
 20
95.82074784647943
 30
0.0
 11
719.3082584982097
 21
345.8207478464827
 31
0.0
  0
LINE
  5
3C7
330
1F
100
AcDbEntity
  8
0-0
  6
JWW_DASHED1
 62
   120
370
     5
100
AcDbLine
 10
129.3082584982143
 20
-237.1081843402285
 30
0.0
 11
379.3082584982205
 21
12.89181565977813
 31
0.0
  0
LINE
  5
3C8
330
1F
100
AcDbEntity
  8
0-0
  6
JWW_DASHED1
 62
   120
370
     5
100
AcDbLine
 10
469.308258498212
 20
102.8918156597696
 30
0.0
 11
719.3082584982166
 21
352.891815659775
 31
0.0
  0
LINE
  5
3C9
330
1F
100
AcDbEntity
  8
0-0
  6
JWW_DASHED1
 62
   120
370
     5
100
AcDbLine
 10
129.3082584982245
 20
-230.0371165269316
 30
0.0
 11
379.3082584982154
 21
19.96288347305935
 31
0.0
  0
LINE
  5
3CA
330
1F
100
AcDbEntity
  8
0-0
  6
JWW_DASHED1
 62
   120
370
     5
100
AcDbLine
 10
469.3082584982086
 20
109.9628834730508
 30
0.0
 11
719.3082584982131
 21
359.9628834730566
 31
0.0
  0
LINE
  5
3CB
330
1F
100
AcDbEntity
  8
0-0
  6
JWW_DASHED1
 62
   120
370
     5
100
AcDbLine
 10
129.3082584982314
 20
-222.9660487136393
 30
0.0
 11
379.3082584982205
 21
27.03395128634867
 31
0.0
  0
LINE
  5
3CC
330
1F
100
AcDbEntity
  8
0-0
  6
JWW_DASHED1
 62
   120
370
     5
100
AcDbLine
 10
469.3082584982257
 20
117.0339512863551
 30
0.0
 11
719.3082584982131
 21
367.0339512863426
 31
0.0
  0
LINE
  5
3CD
330
1F
100
AcDbEntity
  8
0-0
  6
JWW_DASHED1
 62
   120
370
     5
100
AcDbLine
 10
129.308258498228
 20
-215.894980900358
 30
0.0
 11
379.3082584982154
 21
34.10501909963031
 31
0.0
  0
LINE
  5
3CE
330
1F
100
AcDbEntity
  8
0-0
  6
JWW_DASHED1
 62
   120
370
     5
100
AcDbLine
 10
469.3082584982222
 20
124.1050190996363
 30
0.0
 11
719.3082584982097
 21
374.1050190996242
 31
0.0
  0
LINE
  5
3CF
330
1F
100
AcDbEntity
  8
0-0
  6
JWW_DASHED1
 62
   120
370
     5
100
AcDbLine
 10
129.3082584982245
 20
-208.8239130870768
 30
0.0
 11
379.308258498212
 21
41.17608691291153
 31
0.0
  0
LINE
  5
3D0
330
1F
100
AcDbEntity
  8
0-0
  6
JWW_DASHED1
 62
   120
370
     5
100
AcDbLine
 10
469.3082584982188
 20
131.1760869129179
 30
0.0
 11
719.3082584982063
 21
381.1760869129054
 31
0.0
  0
LINE
  5
3D1
330
1F
100
AcDbEntity
  8
0-0
  6
JWW_DASHED1
 62
   120
370
     5
100
AcDbLine
 10
129.3082584982194
 20
-201.7528452737952
 30
0.0
 11
379.3082584982086
 21
48.24715472619275
 31
0.0
  0
LINE
  5
3D2
330
1F
100
AcDbEntity
  8
0-0
  6
JWW_DASHED1
 62
   120
370
     5
100
AcDbLine
 10
469.3082584982154
 20
138.2471547261996
 30
0.0
 11
719.3082584982012
 21
388.2471547261871
 31
0.0
  0
LINE
  5
3D3
330
1F
100
AcDbEntity
  8
0-0
  6
JWW_DASHED1
 62
   120
370
     5
100
AcDbLine
 10
129.3082584982177
 20
-194.6817774605668
 30
0.0
 11
379.3082584982239
 21
55.31822253943943
 31
0.0
  0
LINE
  5
3D4
330
1F
100
AcDbEntity
  8
0-0
  6
JWW_DASHED1
 62
   120
370
     5
100
AcDbLine
 10
469.3082584982154
 20
145.3182225394305
 30
0.0
 11
719.30825849822
 21
395.3182225394368
 31
0.0
  0
LINE
  5
3D5
330
1F
100
AcDbEntity
  8
0-0
  6
JWW_DASHED1
 62
   120
370
     5
100
AcDbLine
 10
129.3082584982126
 20
-187.610709647286
 30
0.0
 11
379.3082584982188
 21
62.38929035272108
 31
0.0
  0
LINE
  5
3D6
330
1F
100
AcDbEntity
  8
0-0
  6
JWW_DASHED1
 62
   120
370
     5
100
AcDbLine
 10
469.3082584982103
 20
152.3892903527121
 30
0.0
 11
719.3082584982166
 21
402.3892903527179
 31
0.0
  0
LINE
  5
3D7
330
1F
100
AcDbEntity
  8
0-0
  6
JWW_DASHED1
 62
   120
370
     5
100
AcDbLine
 10
129.3082584982245
 20
-180.5396418339886
 30
0.0
 11
379.3082584982154
 21
69.4603581660023
 31
0.0
  0
LINE
  5
3D8
330
1F
100
AcDbEntity
  8
0-0
  6
JWW_DASHED1
 62
   120
370
     5
100
AcDbLine
 10
469.3082584982069
 20
159.4603581659938
 30
0.0
 11
719.3082584982131
 21
409.4603581659996
 31
0.0
  0
LINE
  5
3D9
330
1F
100
AcDbEntity
  8
0-0
  6
JWW_DASHED1
 62
   120
370
     5
100
AcDbLine
 10
129.3082584982314
 20
-173.4685740206972
 30
0.0
 11
379.3082584982188
 21
76.53142597929119
 31
0.0
  0
LINE
  5
3DA
330
1F
100
AcDbEntity
  8
0-0
  6
JWW_DASHED1
 62
   120
370
     5
100
AcDbLine
 10
469.3082584982257
 20
166.5314259792976
 30
0.0
 11
719.3082584982131
 21
416.5314259792851
 31
0.0
  0
LINE
  5
3DB
330
1F
100
AcDbEntity
  8
0-0
  6
JWW_DASHED1
 62
   120
370
     5
100
AcDbLine
 10
129.3082584982263
 20
-166.3975062074159
 30
0.0
 11
379.3082584982154
 21
83.6024937925724
 31
0.0
  0
LINE
  5
3DC
330
1F
100
AcDbEntity
  8
0-0
  6
JWW_DASHED1
 62
   120
370
     5
100
AcDbLine
 10
469.3082584982205
 20
173.6024937925788
 30
0.0
 11
719.3082584982097
 21
423.6024937925663
 31
0.0
  0
LINE
  5
3DD
330
1F
100
AcDbEntity
  8
0-0
  6
JWW_DASHED1
 62
   120
370
     5
100
AcDbLine
 10
129.3082584982211
 20
-159.3264383941347
 30
0.0
 11
379.3082584982103
 21
90.67356160585405
 31
0.0
  0
LINE
  5
3DE
330
1F
100
AcDbEntity
  8
0-0
  6
JWW_DASHED1
 62
   120
370
     5
100
AcDbLine
 10
469.3082584982171
 20
180.6735616058604
 30
0.0
 11
719.3082584982046
 21
430.6735616058479
 31
0.0
  0
LINE
  5
3DF
330
1F
100
AcDbEntity
  8
0-0
  6
JWW_DASHED1
 62
   120
370
     5
100
AcDbLine
 10
129.3082584982177
 20
-152.2553705808531
 30
0.0
 11
379.3082584982069
 21
97.74462941913526
 31
0.0
  0
LINE
  5
3E0
330
1F
100
AcDbEntity
  8
0-0
  6
JWW_DASHED1
 62
   120
370
     5
100
AcDbLine
 10
469.308258498212
 20
187.7446294191417
 30
0.0
 11
719.3082584981995
 21
437.7446294191292
 31
0.0
  0
LINE
  5
3E1
330
1F
100
AcDbEntity
  8
0-0
  6
JWW_DASHED1
 62
   120
370
     5
100
AcDbLine
 10
129.3082584982143
 20
-145.1843027675714
 30
0.0
 11
379.3082584982188
 21
104.8156972324323
 31
0.0
  0
LINE
  5
3E2
330
1F
100
AcDbEntity
  8
0-0
  6
JWW_DASHED1
 62
   120
370
     5
100
AcDbLine
 10
469.3082584982086
 20
194.8156972324233
 30
0.0
 11
719.3082584981961
 21
444.8156972324103
 31
0.0
  0
LINE
  5
3E3
330
1F
100
AcDbEntity
  8
0-0
  6
JWW_DASHED1
 62
   120
370
     5
100
AcDbLine
 10
129.308258498216
 20
-138.1132349542838
 30
0.0
 11
379.3082584982222
 21
111.8867650457224
 31
0.0
  0
LINE
  5
3E4
330
1F
100
AcDbEntity
  8
0-0
  6
JWW_DASHED1
 62
   120
370
     5
100
AcDbLine
 10
469.3082584982137
 20
201.8867650457139
 30
0.0
 11
719.30825849822
 21
451.8867650457193
 31
0.0
  0
LINE
  5
3E5
330
1F
100
AcDbEntity
  8
0-0
  6
JWW_DASHED1
 62
   120
370
     5
100
AcDbLine
 10
129.3082584982263
 20
-131.0421671410158
 30
0.0
 11
379.3082584982154
 21
118.9578328589742
 31
0.0
  0
LINE
  5
3E6
330
1F
100
AcDbEntity
  8
0-0
  6
JWW_DASHED1
 62
   120
370
     5
100
AcDbLine
 10
469.3082584982086
 20
208.9578328589657
 30
0.0
 11
719.3082584982131
 21
458.9578328589715
 31
0.0
  0
LINE
  5
3E7
330
1F
100
AcDbEntity
  8
0-0
  6
JWW_DASHED1
 62
   120
370
     5
100
AcDbLine
 10
129.308258498228
 20
-123.9710993277546
 30
0.0
 11
379.3082584982171
 21
126.0289006722337
 31
0.0
  0
LINE
  5
3E8
330
1F
100
AcDbEntity
  8
0-0
  6
JWW_DASHED1
 62
   120
370
     5
100
AcDbLine
 10
469.3082584982239
 20
216.0289006722401
 30
0.0
 11
719.3082584982114
 21
466.0289006722272
 31
0.0
  0
LINE
  5
3E9
330
1F
100
AcDbEntity
  8
0-0
  6
JWW_DASHED1
 62
   120
370
     5
100
AcDbLine
 10
129.3082584982245
 20
-116.9000315144734
 30
0.0
 11
379.3082584982137
 21
133.0999684855149
 31
0.0
  0
LINE
  5
3EA
330
1F
100
AcDbEntity
  8
0-0
  6
JWW_DASHED1
 62
   120
370
     5
100
AcDbLine
 10
469.3082584982188
 20
223.0999684855213
 30
0.0
 11
719.3082584982063
 21
473.0999684855088
 31
0.0
  0
LINE
  5
3EB
330
1F
100
AcDbEntity
  8
0-0
  6
JWW_DASHED1
 62
   120
370
     5
100
AcDbLine
 10
129.3082584982211
 20
-109.8289637011918
 30
0.0
 11
379.3082584982086
 21
140.1710362987961
 31
0.0
  0
LINE
  5
3EC
330
1F
100
AcDbEntity
  8
0-0
  6
JWW_DASHED1
 62
   120
370
     5
100
AcDbLine
 10
469.3082584982154
 20
230.171036298803
 30
0.0
 11
719.3082584982029
 21
480.17103629879
 31
0.0
  0
LINE
  5
3ED
330
1F
100
AcDbEntity
  8
0-0
  6
JWW_DASHED1
 62
   120
370
     5
100
AcDbLine
 10
129.308258498216
 20
-102.7578958879106
 30
0.0
 11
379.3082584982052
 21
147.2421041120778
 31
0.0
  0
LINE
  5
3EE
330
1F
100
AcDbEntity
  8
0-0
  6
JWW_DASHED1
 62
   120
370
     5
100
AcDbLine
 10
469.308258498212
 20
237.2421041120842
 30
0.0
 11
719.3082584981995
 21
487.2421041120713
 31
0.0
  0
LINE
  5
3EF
330
1F
100
AcDbEntity
  8
0-0
  6
JWW_DASHED1
 62
   120
370
     5
100
AcDbLine
 10
129.3082584982126
 20
-95.68682807462935
 30
0.0
 11
379.3082584982171
 21
154.3131719253748
 31
0.0
  0
LINE
  5
3F0
330
1F
100
AcDbEntity
  8
0-0
  6
JWW_DASHED1
 62
   120
370
     5
100
AcDbLine
 10
469.3082584982069
 20
244.3131719253654
 30
0.0
 11
719.3082584981944
 21
494.3131719253529
 31
0.0
  0
LINE
  5
3F1
330
1F
100
AcDbEntity
  8
0-0
  6
JWW_DASHED1
 62
   120
370
     5
100
AcDbLine
 10
129.3082584982143
 20
-88.61576026134131
 30
0.0
 11
379.3082584982222
 21
161.3842397386654
 31
0.0
  0
LINE
  5
3F2
330
1F
100
AcDbEntity
  8
0-0
  6
JWW_DASHED1
 62
   120
370
     5
100
AcDbLine
 10
469.3082584982137
 20
251.3842397386568
 30
0.0
 11
719.30825849822
 21
501.3842397386627
 31
0.0
  0
LINE
  5
3F3
330
1F
100
AcDbEntity
  8
0-0
  6
JWW_DASHED1
 62
   120
370
     5
100
AcDbLine
 10
129.3082584982109
 20
-81.54469244805966
 30
0.0
 11
379.3082584982171
 21
168.455307551947
 31
0.0
  0
LINE
  5
3F4
330
1F
100
AcDbEntity
  8
0-0
  6
JWW_DASHED1
 62
   120
370
     5
100
AcDbLine
 10
469.3082584982086
 20
258.4553075519385
 30
0.0
 11
719.3082584982149
 21
508.4553075519439
 31
0.0
  0
LINE
  5
3F5
330
1F
100
AcDbEntity
  8
0-0
  6
JWW_DASHED1
 62
   120
370
     5
100
AcDbLine
 10
129.3082584982228
 20
-74.47362463476225
 30
0.0
 11
379.3082584982137
 21
175.5263753652282
 31
0.0
  0
LINE
  5
3F6
330
1F
100
AcDbEntity
  8
0-0
  6
JWW_DASHED1
 62
   120
370
     5
100
AcDbLine
 10
469.3082584982205
 20
265.5263753652355
 30
0.0
 11
719.3082584982097
 21
515.5263753652251
 31
0.0
  0
LINE
  5
3F7
330
1F
100
AcDbEntity
  8
0-0
  6
JWW_DASHED1
 62
   120
370
     5
100
AcDbLine
 10
129.3082584982245
 20
-67.40255682150192
 30
0.0
 11
379.3082584982137
 21
182.5974431784869
 31
0.0
  0
LINE
  5
3F8
330
1F
100
AcDbEntity
  8
0-0
  6
JWW_DASHED1
 62
   120
370
     5
100
AcDbLine
 10
469.3082584982205
 20
272.5974431784932
 30
0.0
 11
719.308258498208
 21
522.5974431784803
 31
0.0
  0
LINE
  5
3F9
330
1F
100
AcDbEntity
  8
0-0
  6
JWW_DASHED1
 62
   120
370
     5
100
AcDbLine
 10
129.3082584982194
 20
-60.33148900824969
 30
0.0
 11
379.3082584982086
 21
189.6685109917387
 31
0.0
  0
LINE
  5
3FA
330
1F
100
AcDbEntity
  8
0-0
  6
JWW_DASHED1
 62
   120
370
     5
100
AcDbLine
 10
469.3082584982137
 20
279.6685109917451
 30
0.0
 11
719.3082584982012
 21
529.6685109917325
 31
0.0
  0
LINE
  5
3FB
330
1F
100
AcDbEntity
  8
0-0
  6
JWW_DASHED1
 62
   120
370
     5
100
AcDbLine
 10
129.3082584982143
 20
-53.26042119496847
 30
0.0
 11
379.3082584982035
 21
196.7395788050203
 31
0.0
  0
LINE
  5
3FC
330
1F
100
AcDbEntity
  8
0-0
  6
JWW_DASHED1
 62
   120
370
     5
100
AcDbLine
 10
469.3082584982103
 20
286.7395788050267
 30
0.0
 11
719.3082584981978
 21
536.7395788050137
 31
0.0
  0
LINE
  5
3FD
330
1F
100
AcDbEntity
  8
0-0
  6
JWW_DASHED1
 62
   120
370
     5
100
AcDbLine
 10
129.3082584982109
 20
-46.18935338168683
 30
0.0
 11
379.3082584982154
 21
203.8106466183173
 31
0.0
  0
LINE
  5
3FE
330
1F
100
AcDbEntity
  8
0-0
  6
JWW_DASHED1
 62
   120
370
     5
100
AcDbLine
 10
469.3082584982052
 20
293.8106466183079
 30
0.0
 11
719.3082584981927
 21
543.810646618295
 31
0.0
  0
LINE
  5
3FF
330
1F
100
AcDbEntity
  8
0-0
  6
JWW_DASHED1
 62
   120
370
     5
100
AcDbLine
 10
129.3082584982143
 20
-39.11828556839836
 30
0.0
 11
379.3082584982205
 21
210.8817144316079
 31
0.0
  0
LINE
  5
400
330
1F
100
AcDbEntity
  8
0-0
  6
JWW_DASHED1
 62
   120
370
     5
100
AcDbLine
 10
469.308258498212
 20
300.8817144315993
 30
0.0
 11
719.3082584982183
 21
550.8817144316051
 31
0.0
  0
LINE
  5
401
330
1F
100
AcDbEntity
  8
0-0
  6
JWW_DASHED1
 62
   120
370
     5
100
AcDbLine
 10
129.3082584982263
 20
-32.04721775510095
 30
0.0
 11
379.3082584982171
 21
217.9527822448895
 31
0.0
  0
LINE
  5
402
330
1F
100
AcDbEntity
  8
0-0
  6
JWW_DASHED1
 62
   120
370
     5
100
AcDbLine
 10
469.3082584982086
 20
307.952782244881
 30
0.0
 11
719.3082584982131
 21
557.9527822448864
 31
0.0
  0
LINE
  5
403
330
1F
100
AcDbEntity
  8
0-0
  6
JWW_DASHED1
 62
   120
370
     5
100
AcDbLine
 10
129.3082584982314
 20
-24.9761499418112
 30
0.0
 11
379.3082584982188
 21
225.0238500581771
 31
0.0
  0
LINE
  5
404
330
1F
100
AcDbEntity
  8
0-0
  6
JWW_DASHED1
 62
   120
370
     5
100
AcDbLine
 10
469.3082584982257
 20
315.0238500581835
 30
0.0
 11
719.3082584982131
 21
565.0238500581711
 31
0.0
  0
LINE
  5
405
330
1F
100
AcDbEntity
  8
0-0
  6
JWW_DASHED1
 62
   120
370
     5
100
AcDbLine
 10
129.3082584982263
 20
-17.90508212852956
 30
0.0
 11
379.3082584982154
 21
232.0949178714588
 31
0.0
  0
LINE
  5
406
330
1F
100
AcDbEntity
  8
0-0
  6
JWW_DASHED1
 62
   120
370
     5
100
AcDbLine
 10
469.3082584982205
 20
322.0949178714652
 30
0.0
 11
719.3082584982097
 21
572.0949178714523
 31
0.0
  0
LINE
  5
407
330
1F
100
AcDbEntity
  8
0-0
  6
JWW_DASHED1
 62
   120
370
     5
100
AcDbLine
 10
129.3082584982211
 20
-10.83401431524834
 30
0.0
 11
379.3082584982103
 21
239.16598568474
 31
0.0
  0
LINE
  5
408
330
1F
100
AcDbEntity
  8
0-0
  6
JWW_DASHED1
 62
   120
370
     5
100
AcDbLine
 10
469.3082584982171
 20
329.1659856847464
 30
0.0
 11
719.3082584982046
 21
579.1659856847339
 31
0.0
  0
LINE
  5
409
330
1F
100
AcDbEntity
  8
0-0
  6
JWW_DASHED1
 62
   120
370
     5
100
AcDbLine
 10
129.3082584982177
 20
-3.762946501967122
 30
0.0
 11
379.3082584982069
 21
246.2370534980212
 31
0.0
  0
LINE
  5
40A
330
1F
100
AcDbEntity
  8
0-0
  6
JWW_DASHED1
 62
   120
370
     5
100
AcDbLine
 10
469.308258498212
 20
336.2370534980276
 30
0.0
 11
719.3082584981995
 21
586.2370534980151
 31
0.0
  0
LINE
  5
40B
330
1F
100
AcDbEntity
  8
0-0
  6
JWW_DASHED1
 62
   120
370
     5
100
AcDbLine
 10
129.3082584982177
 20
3.308121311263363
 30
0.0
 11
379.3082584982239
 21
253.3081213112696
 31
0.0
  0
LINE
  5
40C
330
1F
100
AcDbEntity
  8
0-0
  6
JWW_DASHED1
 62
   120
370
     5
100
AcDbLine
 10
469.3082584982154
 20
343.3081213112611
 30
0.0
 11
719.3082584982217
 21
593.3081213112665
 31
0.0
  0
LINE
  5
40D
330
1F
100
AcDbEntity
  8
0-0
  6
JWW_DASHED1
 62
   120
370
     5
100
AcDbLine
 10
129.3082584982143
 20
10.37918912454458
 30
0.0
 11
379.3082584982188
 21
260.3791891245509
 31
0.0
  0
LINE
  5
40E
330
1F
100
AcDbEntity
  8
0-0
  6
JWW_DASHED1
 62
   120
370
     5
100
AcDbLine
 10
469.308258498212
 20
350.3791891245427
 30
0.0
 11
719.3082584982166
 21
600.3791891245481
 31
0.0
  0
LINE
  5
40F
330
1F
100
AcDbEntity
  8
0-0
  6
JWW_DASHED1
 62
   120
370
     5
100
AcDbLine
 10
129.3082584982245
 20
17.450256937842
 30
0.0
 11
379.3082584982154
 21
267.4502569378325
 31
0.0
  0
LINE
  5
410
330
1F
100
AcDbEntity
  8
0-0
  6
JWW_DASHED1
 62
   120
370
     5
100
AcDbLine
 10
469.3082584982069
 20
357.450256937824
 30
0.0
 11
719.3082584982131
 21
607.4502569378294
 31
0.0
  0
LINE
  5
411
330
1F
100
AcDbEntity
  8
0-0
  6
JWW_DASHED1
 62
   120
370
     5
100
AcDbLine
 10
129.308258498228
 20
24.52132475113132
 30
0.0
 11
379.3082584982171
 21
274.5213247511197
 31
0.0
  0
LINE
  5
412
330
1F
100
AcDbEntity
  8
0-0
  6
JWW_DASHED1
 62
   120
370
     5
100
AcDbLine
 10
469.3082584982239
 20
364.521324751126
 30
0.0
 11
719.3082584982114
 21
614.5213247511131
 31
0.0
  0
LINE
  5
413
330
1F
100
AcDbEntity
  8
0-0
  6
JWW_DASHED1
 62
   120
370
     5
100
AcDbLine
 10
129.3082584982245
 20
31.59239256441253
 30
0.0
 11
379.3082584982137
 21
281.5923925644009
 31
0.0
  0
LINE
  5
414
330
1F
100
AcDbEntity
  8
0-0
  6
JWW_DASHED1
 62
   120
370
     5
100
AcDbLine
 10
469.3082584982188
 20
371.5923925644073
 30
0.0
 11
719.3082584982063
 21
621.5923925643948
 31
0.0
  0
LINE
  5
415
330
1F
100
AcDbEntity
  8
0-0
  6
JWW_DASHED1
 62
   120
370
     5
100
AcDbLine
 10
129.3082584982211
 20
38.66346037769418
 30
0.0
 11
379.3082584982086
 21
288.6634603776826
 31
0.0
  0
LINE
  5
416
330
1F
100
AcDbEntity
  8
0-0
  6
JWW_DASHED1
 62
   120
370
     5
100
AcDbLine
 10
469.3082584982154
 20
378.6634603776889
 30
0.0
 11
719.3082584982029
 21
628.663460377676
 31
0.0
  0
LINE
  5
417
330
1F
100
AcDbEntity
  8
0-0
  6
JWW_DASHED1
 62
   120
370
     5
100
AcDbLine
 10
129.3082584982177
 20
45.7345281909754
 30
0.0
 11
379.3082584982052
 21
295.7345281909637
 31
0.0
  0
LINE
  5
418
330
1F
100
AcDbEntity
  8
0-0
  6
JWW_DASHED1
 62
   120
370
     5
100
AcDbLine
 10
469.308258498212
 20
385.7345281909701
 30
0.0
 11
719.3082584981995
 21
635.7345281909577
 31
0.0
  0
LINE
  5
419
330
1F
100
AcDbEntity
  8
0-0
  6
JWW_DASHED1
 62
   120
370
     5
100
AcDbLine
 10
129.3082584982126
 20
52.80559600425661
 30
0.0
 11
379.3082584982171
 21
302.8055960042607
 31
0.0
  0
LINE
  5
41A
330
1F
100
AcDbEntity
  8
0-0
  6
JWW_DASHED1
 62
   120
370
     5
100
AcDbLine
 10
469.3082584982069
 20
392.8055960042514
 30
0.0
 11
719.3082584981944
 21
642.8055960042389
 31
0.0
  0
LINE
  5
41B
330
1F
100
AcDbEntity
  8
0-0
  6
JWW_DASHED1
 62
   120
370
     5
100
AcDbLine
 10
129.308258498216
 20
59.87666381754636
 30
0.0
 11
379.3082584982222
 21
309.8766638175526
 31
0.0
  0
LINE
  5
41C
330
1F
100
AcDbEntity
  8
0-0
  6
JWW_DASHED1
 62
   120
370
     5
100
AcDbLine
 10
469.3082584982154
 20
399.8766638175441
 30
0.0
 11
719.30825849822
 21
649.8766638175495
 31
0.0
  0
LINE
  5
41D
330
1F
100
AcDbEntity
  8
0-0
  6
JWW_DASHED1
 62
   120
370
     5
100
AcDbLine
 10
129.3082584982245
 20
66.94773163078494
 30
0.0
 11
379.3082584982154
 21
316.9477316307754
 31
0.0
  0
LINE
  5
41E
330
1F
100
AcDbEntity
  8
0-0
  6
JWW_DASHED1
 62
   120
370
     5
100
AcDbLine
 10
469.3082584982052
 20
406.9477316307665
 30
0.0
 11
719.3082584982114
 21
656.9477316307723
 31
0.0
  0
LINE
  5
41F
330
1F
100
AcDbEntity
  8
0-0
  6
JWW_DASHED1
 62
   120
370
     5
100
AcDbLine
 10
129.308258498228
 20
74.01879944407384
 30
0.0
 11
379.3082584982154
 21
324.0187994440622
 31
0.0
  0
LINE
  5
420
330
1F
100
AcDbEntity
  8
0-0
  6
JWW_DASHED1
 62
   120
370
     5
100
AcDbLine
 10
469.3082584982222
 20
414.0187994440681
 30
0.0
 11
719.3082584982097
 21
664.0187994440556
 31
0.0
  0
LINE
  5
421
330
1F
100
AcDbEntity
  8
0-0
  6
JWW_DASHED1
 62
   120
370
     5
100
AcDbLine
 10
129.3082584982228
 20
81.08986725735505
 30
0.0
 11
379.308258498212
 21
331.0898672573434
 31
0.0
  0
LINE
  5
422
330
1F
100
AcDbEntity
  8
0-0
  6
JWW_DASHED1
 62
   120
370
     5
100
AcDbLine
 10
469.3082584982188
 20
421.0898672573498
 30
0.0
 11
719.3082584982063
 21
671.0898672573369
 31
0.0
  0
LINE
  5
423
330
1F
100
AcDbEntity
  8
0-0
  6
JWW_DASHED1
 62
   120
370
     5
100
AcDbLine
 10
129.3082584982194
 20
88.16093507063627
 30
0.0
 11
379.3082584982086
 21
338.1609350706246
 31
0.0
  0
LINE
  5
424
330
1F
100
AcDbEntity
  8
0-0
  6
JWW_DASHED1
 62
   120
370
     5
100
AcDbLine
 10
469.3082584982137
 20
428.160935070631
 30
0.0
 11
719.3082584982012
 21
678.1609350706185
 31
0.0
  0
LINE
  5
425
330
1F
100
AcDbEntity
  8
0-0
  6
JWW_DASHED1
 62
   120
370
     5
100
AcDbLine
 10
129.3082584982143
 20
95.23200288391791
 30
0.0
 11
379.3082584982035
 21
345.2320028839063
 31
0.0
  0
LINE
  5
426
330
1F
100
AcDbEntity
  8
0-0
  6
JWW_DASHED1
 62
   120
370
     5
100
AcDbLine
 10
469.3082584982103
 20
435.2320028839126
 30
0.0
 11
719.3082584981978
 21
685.2320028839001
 31
0.0
  0
LINE
  5
427
330
1F
100
AcDbEntity
  8
0-0
  6
JWW_DASHED1
 62
   120
370
     5
100
AcDbLine
 10
129.3082584982109
 20
102.3030706971991
 30
0.0
 11
379.3082584982154
 21
352.3030706972032
 31
0.0
  0
LINE
  5
428
330
1F
100
AcDbEntity
  8
0-0
  6
JWW_DASHED1
 62
   120
370
     5
100
AcDbLine
 10
469.3082584982052
 20
442.3030706971939
 30
0.0
 11
719.3082584981927
 21
692.3030706971814
 31
0.0
  0
LINE
  5
429
330
1F
100
AcDbEntity
  8
0-0
  6
JWW_DASHED1
 62
   120
370
     5
100
AcDbLine
 10
129.308258498216
 20
109.3741385104893
 30
0.0
 11
379.3082584982222
 21
359.3741385104955
 31
0.0
  0
LINE
  5
42A
330
1F
100
AcDbEntity
  8
0-0
  6
JWW_DASHED1
 62
   120
370
     5
100
AcDbLine
 10
469.3082584982137
 20
449.374138510487
 30
0.0
 11
719.30825849822
 21
699.3741385104925
 31
0.0
  0
LINE
  5
42B
330
1F
100
AcDbEntity
  8
0-0
  6
JWW_DASHED1
 62
   120
370
     5
100
AcDbLine
 10
129.3082584982109
 20
116.4452063237705
 30
0.0
 11
379.3082584982188
 21
366.4452063237768
 31
0.0
  0
LINE
  5
42C
330
1F
100
AcDbEntity
  8
0-0
  6
JWW_DASHED1
 62
   120
370
     5
100
AcDbLine
 10
469.3082584982086
 20
456.4452063237683
 30
0.0
 11
719.3082584982149
 21
706.4452063237741
 31
0.0
  0
LINE
  5
42D
330
1F
100
AcDbEntity
  8
0-0
  6
JWW_DASHED1
 62
   120
370
     5
100
AcDbLine
 10
129.3082584982245
 20
123.5162741370679
 30
0.0
 11
379.3082584982137
 21
373.5162741370584
 31
0.0
  0
LINE
  5
42E
330
1F
100
AcDbEntity
  8
0-0
  6
JWW_DASHED1
 62
   120
370
     5
100
AcDbLine
 10
469.3082584982052
 20
463.5162741370499
 30
0.0
 11
719.3082584982114
 21
713.5162741370552
 31
0.0
  0
LINE
  5
42F
330
1F
100
AcDbEntity
  8
0-0
  6
JWW_DASHED1
 62
   120
370
     5
100
AcDbLine
 10
129.3082584982211
 20
130.5873419502971
 30
0.0
 11
379.3082584982103
 21
380.5873419502855
 31
0.0
  0
LINE
  5
430
330
1F
100
AcDbEntity
  8
0-0
  6
JWW_DASHED1
 62
   120
370
     5
100
AcDbLine
 10
469.3082584982171
 20
470.5873419502923
 30
0.0
 11
719.3082584982046
 21
720.5873419502793
 31
0.0
  0
LINE
  5
431
330
1F
100
AcDbEntity
  8
0-0
  6
JWW_DASHED1
 62
   120
370
     5
100
AcDbLine
 10
129.3082584982177
 20
137.6584097635788
 30
0.0
 11
379.3082584982052
 21
387.6584097635671
 31
0.0
  0
LINE
  5
432
330
1F
100
AcDbEntity
  8
0-0
  6
JWW_DASHED1
 62
   120
370
     5
100
AcDbLine
 10
469.308258498212
 20
477.6584097635736
 30
0.0
 11
719.3082584981995
 21
727.658409763561
 31
0.0
  0
LINE
  5
433
330
1F
100
AcDbEntity
  8
0-0
  6
JWW_DASHED1
 62
   120
370
     5
100
AcDbLine
 10
129.3082584982143
 20
144.72947757686
 30
0.0
 11
379.3082584982018
 21
394.7294775768484
 31
0.0
  0
LINE
  5
434
330
1F
100
AcDbEntity
  8
0-0
  6
JWW_DASHED1
 62
   120
370
     5
100
AcDbLine
 10
469.3082584982086
 20
484.7294775768547
 30
0.0
 11
719.3082584981961
 21
734.7294775768422
 31
0.0
  0
LINE
  5
435
330
1F
100
AcDbEntity
  8
0-0
  6
JWW_DASHED1
 62
   120
370
     5
100
AcDbLine
 10
129.3082584982092
 20
151.8005453901417
 30
0.0
 11
379.3082584982137
 21
401.8005453901458
 31
0.0
  0
LINE
  5
436
330
1F
100
AcDbEntity
  8
0-0
  6
JWW_DASHED1
 62
   120
370
     5
100
AcDbLine
 10
469.3082584982052
 20
491.800545390136
 30
0.0
 11
719.3082584981927
 21
741.8005453901235
 31
0.0
  0
LINE
  5
437
330
1F
100
AcDbEntity
  8
0-0
  6
JWW_DASHED1
 62
   120
370
     5
100
AcDbLine
 10
129.3082584982143
 20
158.8716132034322
 30
0.0
 11
379.3082584982222
 21
408.8716132034385
 31
0.0
  0
LINE
  5
438
330
1F
100
AcDbEntity
  8
0-0
  6
JWW_DASHED1
 62
   120
370
     5
100
AcDbLine
 10
469.308258498212
 20
498.87161320343
 30
0.0
 11
719.3082584982183
 21
748.8716132034353
 31
0.0
  0
LINE
  5
439
330
1F
100
AcDbEntity
  8
0-0
  6
JWW_DASHED1
 62
   120
370
     5
100
AcDbLine
 10
129.3082584982263
 20
165.9426810167292
 30
0.0
 11
379.3082584982171
 21
415.9426810167197
 31
0.0
  0
LINE
  5
43A
330
1F
100
AcDbEntity
  8
0-0
  6
JWW_DASHED1
 62
   120
370
     5
100
AcDbLine
 10
469.3082584982086
 20
505.9426810167112
 30
0.0
 11
719.3082584982149
 21
755.9426810167166
 31
0.0
  0
LINE
  5
43B
330
1F
100
AcDbEntity
  8
0-0
  6
JWW_DASHED1
 62
   120
370
     5
100
AcDbLine
 10
129.308258498228
 20
173.0137488300169
 30
0.0
 11
379.3082584982171
 21
423.0137488300056
 31
0.0
  0
LINE
  5
43C
330
1F
100
AcDbEntity
  8
0-0
  6
JWW_DASHED1
 62
   120
370
     5
100
AcDbLine
 10
469.3082584982239
 20
513.013748830012
 30
0.0
 11
719.3082584982114
 21
763.0137488299995
 31
0.0
  0
LINE
  5
43D
330
1F
100
AcDbEntity
  8
0-0
  6
JWW_DASHED1
 62
   120
370
     5
100
AcDbLine
 10
129.3082584982245
 20
180.0848166432985
 30
0.0
 11
379.3082584982137
 21
430.0848166432868
 31
0.0
  0
LINE
  5
43E
330
1F
100
AcDbEntity
  8
0-0
  6
JWW_DASHED1
 62
   120
370
     5
100
AcDbLine
 10
469.3082584982188
 20
520.0848166432933
 30
0.0
 11
719.3082584982063
 21
770.0848166432808
 31
0.0
  0
LINE
  5
43F
330
1F
100
AcDbEntity
  8
0-0
  6
JWW_DASHED1
 62
   120
370
     5
100
AcDbLine
 10
129.3082584982211
 20
187.1558844565801
 30
0.0
 11
379.3082584982086
 21
437.1558844565685
 31
0.0
  0
LINE
  5
440
330
1F
100
AcDbEntity
  8
0-0
  6
JWW_DASHED1
 62
   120
370
     5
100
AcDbLine
 10
469.3082584982154
 20
527.1558844565749
 30
0.0
 11
719.3082584982029
 21
777.1558844565619
 31
0.0
  0
LINE
  5
441
330
1F
100
AcDbEntity
  8
0-0
  6
JWW_DASHED1
 62
   120
370
     5
100
AcDbLine
 10
129.3082584982126
 20
194.2269522698025
 30
0.0
 11
379.3082584982171
 21
444.2269522698066
 31
0.0
  0
LINE
  5
442
330
1F
100
AcDbEntity
  8
0-0
  6
JWW_DASHED1
 62
   120
370
     5
100
AcDbLine
 10
469.3082584982069
 20
534.2269522697973
 30
0.0
 11
719.3082584981944
 21
784.2269522697848
 31
0.0
  0
LINE
  5
443
330
1F
100
AcDbEntity
  8
0-0
  6
JWW_DASHED1
 62
   120
370
     5
100
AcDbLine
 10
129.3082584982177
 20
201.2980200830935
 30
0.0
 11
379.3082584982239
 21
451.2980200830998
 31
0.0
  0
LINE
  5
444
330
1F
100
AcDbEntity
  8
0-0
  6
JWW_DASHED1
 62
   120
370
     5
100
AcDbLine
 10
469.3082584982154
 20
541.2980200830913
 30
0.0
 11
719.3082584982217
 21
791.2980200830966
 31
0.0
  0
LINE
  5
445
330
1F
100
AcDbEntity
  8
0-0
  6
JWW_DASHED1
 62
   120
370
     5
100
AcDbLine
 10
129.3082584982143
 20
208.3690878963748
 30
0.0
 11
379.3082584982205
 21
458.3690878963814
 31
0.0
  0
LINE
  5
446
330
1F
100
AcDbEntity
  8
0-0
  6
JWW_DASHED1
 62
   120
370
     5
100
AcDbLine
 10
469.308258498212
 20
548.3690878963729
 30
0.0
 11
719.3082584982166
 21
798.3690878963783
 31
0.0
  0
LINE
  5
447
330
1F
100
AcDbEntity
  8
0-0
  6
JWW_DASHED1
 62
   120
370
     5
100
AcDbLine
 10
129.3082584982245
 20
215.4401557096722
 30
0.0
 11
379.3082584982154
 21
465.4401557096627
 31
0.0
  0
LINE
  5
448
330
1F
100
AcDbEntity
  8
0-0
  6
JWW_DASHED1
 62
   120
370
     5
100
AcDbLine
 10
469.3082584982086
 20
555.4401557096542
 30
0.0
 11
719.3082584982131
 21
805.4401557096595
 31
0.0
  0
LINE
  5
449
330
1F
100
AcDbEntity
  8
0-0
  6
JWW_DASHED1
 62
   120
370
     5
100
AcDbLine
 10
129.308258498228
 20
222.5112235229598
 30
0.0
 11
379.3082584982154
 21
472.5112235229482
 31
0.0
  0
LINE
  5
44A
330
1F
100
AcDbEntity
  8
0-0
  6
JWW_DASHED1
 62
   120
370
     5
100
AcDbLine
 10
469.3082584982222
 20
562.5112235229545
 30
0.0
 11
719.3082584982097
 21
812.5112235229416
 31
0.0
  0
LINE
  5
44B
330
1F
100
AcDbEntity
  8
0-0
  6
JWW_DASHED1
 62
   120
370
     5
100
AcDbLine
 10
129.3082584982245
 20
229.582291336241
 30
0.0
 11
379.308258498212
 21
479.5822913362293
 31
0.0
  0
LINE
  5
44C
330
1F
100
AcDbEntity
  8
0-0
  6
JWW_DASHED1
 62
   120
370
     5
100
AcDbLine
 10
469.3082584982188
 20
569.5822913362358
 30
0.0
 11
719.3082584982063
 21
819.5822913362233
 31
0.0
  0
LINE
  5
44D
330
1F
100
AcDbEntity
  8
0-0
  6
JWW_DASHED1
 62
   120
370
     5
100
AcDbLine
 10
129.3082584982194
 20
236.6533591495222
 30
0.0
 11
379.3082584982086
 21
486.6533591495106
 31
0.0
  0
LINE
  5
44E
330
1F
100
AcDbEntity
  8
0-0
  6
JWW_DASHED1
 62
   120
370
     5
100
AcDbLine
 10
469.3082584982137
 20
576.653359149517
 30
0.0
 11
719.3082584982029
 21
826.6533591495049
 31
0.0
  0
LINE
  5
44F
330
1F
100
AcDbEntity
  8
0-0
  6
JWW_DASHED1
 62
   120
370
     5
100
AcDbLine
 10
129.3082584982143
 20
243.7244269628039
 30
0.0
 11
379.3082584982035
 21
493.7244269627918
 31
0.0
  0
LINE
  5
450
330
1F
100
AcDbEntity
  8
0-0
  6
JWW_DASHED1
 62
   120
370
     5
100
AcDbLine
 10
469.3082584982103
 20
583.7244269627986
 30
0.0
 11
719.3082584981978
 21
833.7244269627861
 31
0.0
  0
LINE
  5
451
330
1F
100
AcDbEntity
  8
0-0
  6
JWW_DASHED1
 62
   120
370
     5
100
AcDbLine
 10
129.3082584982109
 20
250.7954947760851
 30
0.0
 11
379.3082584982154
 21
500.7954947760892
 31
0.0
  0
LINE
  5
452
330
1F
100
AcDbEntity
  8
0-0
  6
JWW_DASHED1
 62
   120
370
     5
100
AcDbLine
 10
469.3082584982052
 20
590.7954947760799
 30
0.0
 11
719.3082584981927
 21
840.7954947760674
 31
0.0
  0
LINE
  5
453
330
1F
100
AcDbEntity
  8
0-0
  6
JWW_DASHED1
 62
   120
370
     5
100
AcDbLine
 10
129.3082584982126
 20
257.8665625893173
 30
0.0
 11
379.3082584982188
 21
507.866562589324
 31
0.0
  0
LINE
  5
454
330
1F
100
AcDbEntity
  8
0-0
  6
JWW_DASHED1
 62
   120
370
     5
100
AcDbLine
 10
469.3082584982103
 20
597.8665625893154
 30
0.0
 11
719.3082584982166
 21
847.8665625893212
 31
0.0
  0
LINE
  5
455
330
1F
100
AcDbEntity
  8
0-0
  6
JWW_DASHED1
 62
   120
370
     5
100
AcDbLine
 10
129.3082584982245
 20
264.9376304026147
 30
0.0
 11
379.3082584982154
 21
514.9376304026056
 31
0.0
  0
LINE
  5
456
330
1F
100
AcDbEntity
  8
0-0
  6
JWW_DASHED1
 62
   120
370
     5
100
AcDbLine
 10
469.3082584982069
 20
604.937630402597
 30
0.0
 11
719.3082584982131
 21
854.9376304026025
 31
0.0
  0
LINE
  5
457
330
1F
100
AcDbEntity
  8
0-0
  6
JWW_DASHED1
 62
   120
370
     5
100
AcDbLine
 10
129.3082584982263
 20
272.0086982159019
 30
0.0
 11
379.3082584982154
 21
522.0086982158903
 31
0.0
  0
LINE
  5
458
330
1F
100
AcDbEntity
  8
0-0
  6
JWW_DASHED1
 62
   120
370
     5
100
AcDbLine
 10
469.3082584982205
 20
612.0086982158966
 30
0.0
 11
719.308258498208
 21
862.0086982158841
 31
0.0
  0
LINE
  5
459
330
1F
100
AcDbEntity
  8
0-0
  6
JWW_DASHED1
 62
   120
370
     5
100
AcDbLine
 10
129.3082584982211
 20
279.0797660291835
 30
0.0
 11
379.3082584982103
 21
529.0797660291714
 31
0.0
  0
LINE
  5
45A
330
1F
100
AcDbEntity
  8
0-0
  6
JWW_DASHED1
 62
   120
370
     5
100
AcDbLine
 10
469.3082584982171
 20
619.0797660291782
 30
0.0
 11
719.3082584982046
 21
869.0797660291653
 31
0.0
  0
LINE
  5
45B
330
1F
100
AcDbEntity
  8
0-0
  6
JWW_DASHED1
 62
   120
370
     5
100
AcDbLine
 10
129.3082584982177
 20
286.1508338424647
 30
0.0
 11
379.3082584982069
 21
536.150833842453
 31
0.0
  0
LINE
  5
45C
330
1F
100
AcDbEntity
  8
0-0
  6
JWW_DASHED1
 62
   120
370
     5
100
AcDbLine
 10
469.308258498212
 20
626.1508338424595
 30
0.0
 11
719.3082584981995
 21
876.150833842447
 31
0.0
  0
LINE
  5
45D
330
1F
100
AcDbEntity
  8
0-0
  6
JWW_DASHED1
 62
   120
370
     5
100
AcDbLine
 10
129.3082584982143
 20
293.2219016557464
 30
0.0
 11
379.3082584982018
 21
543.2219016557343
 31
0.0
  0
LINE
  5
45E
330
1F
100
AcDbEntity
  8
0-0
  6
JWW_DASHED1
 62
   120
370
     5
100
AcDbLine
 10
469.3082584982086
 20
633.2219016557411
 30
0.0
 11
717.6903571479432
 21
881.6040003054745
 31
0.0
  0
LINE
  5
45F
330
1F
100
AcDbEntity
  8
0-0
  6
JWW_DASHED1
 62
   120
370
     5
100
AcDbLine
 10
129.3082584982092
 20
300.2929694690276
 30
0.0
 11
379.3082584982137
 21
550.2929694690313
 31
0.0
  0
LINE
  5
460
330
1F
100
AcDbEntity
  8
0-0
  6
JWW_DASHED1
 62
   120
370
     5
100
AcDbLine
 10
469.3082584982052
 20
640.2929694690224
 30
0.0
 11
710.6192893346612
 21
881.6040003054787
 31
0.0
  0
LINE
  5
461
330
1F
100
AcDbEntity
  8
0-0
  6
JWW_DASHED1
 62
   120
370
     5
100
AcDbLine
 10
129.308258498216
 20
307.3640372823195
 30
0.0
 11
379.3082584982222
 21
557.3640372823257
 31
0.0
  0
LINE
  5
462
330
1F
100
AcDbEntity
  8
0-0
  6
JWW_DASHED1
 62
   120
370
     5
100
AcDbLine
 10
469.3082584982137
 20
647.3640372823172
 30
0.0
 11
703.5482215213484
 21
881.6040003054515
 31
0.0
  0
LINE
  5
463
330
1F
100
AcDbEntity
  8
0-0
  6
JWW_DASHED1
 62
   120
370
     5
100
AcDbLine
 10
129.3082584982126
 20
314.4351050956007
 30
0.0
 11
379.3082584982188
 21
564.4351050956074
 31
0.0
  0
LINE
  5
464
330
1F
100
AcDbEntity
  8
0-0
  6
JWW_DASHED1
 62
   120
370
     5
100
AcDbLine
 10
469.3082584982103
 20
654.4351050955988
 30
0.0
 11
696.477153708068
 21
881.6040003054558
 31
0.0
  0
LINE
  5
465
330
1F
100
AcDbEntity
  8
0-0
  6
JWW_DASHED1
 62
   120
370
     5
100
AcDbLine
 10
129.3082584982245
 20
321.5061729088444
 30
0.0
 11
379.3082584982137
 21
571.5061729088327
 31
0.0
  0
LINE
  5
466
330
1F
100
AcDbEntity
  8
0-0
  6
JWW_DASHED1
 62
   120
370
     5
100
AcDbLine
 10
469.3082584982188
 20
661.5061729088392
 30
0.0
 11
689.4060858948422
 21
881.6040003054626
 31
0.0
  0
LINE
  5
467
330
1F
100
AcDbEntity
  8
0-0
  6
JWW_DASHED1
 62
   120
370
     5
100
AcDbLine
 10
129.3082584982211
 20
328.5772407221256
 30
0.0
 11
379.3082584982086
 21
578.577240722114
 31
0.0
  0
LINE
  5
468
330
1F
100
AcDbEntity
  8
0-0
  6
JWW_DASHED1
 62
   120
370
     5
100
AcDbLine
 10
469.3082584982154
 20
668.5772407221203
 30
0.0
 11
682.3350180815619
 21
881.6040003054663
 31
0.0
  0
LINE
  5
469
330
1F
100
AcDbEntity
  8
0-0
  6
JWW_DASHED1
 62
   120
370
     5
100
AcDbLine
 10
129.3082584982177
 20
335.6483085354073
 30
0.0
 11
379.3082584982052
 21
585.6483085353956
 31
0.0
  0
LINE
  5
46A
330
1F
100
AcDbEntity
  8
0-0
  6
JWW_DASHED1
 62
   120
370
     5
100
AcDbLine
 10
469.308258498212
 20
675.6483085354016
 30
0.0
 11
675.2639502682798
 21
881.6040003054702
 31
0.0
  0
LINE
  5
46B
330
1F
100
AcDbEntity
  8
0-0
  6
JWW_DASHED1
 62
   120
370
     5
100
AcDbLine
 10
129.3082584982126
 20
342.7193763486885
 30
0.0
 11
379.3082584982018
 21
592.7193763486769
 31
0.0
  0
LINE
  5
46C
330
1F
100
AcDbEntity
  8
0-0
  6
JWW_DASHED1
 62
   120
370
     5
100
AcDbLine
 10
469.3082584982069
 20
682.7193763486832
 30
0.0
 11
668.1928824549977
 21
881.6040003054736
 31
0.0
  0
LINE
  5
46D
330
1F
100
AcDbEntity
  8
0-0
  6
JWW_DASHED1
 62
   120
370
     5
100
AcDbLine
 10
129.3082584982075
 20
349.7904441619701
 30
0.0
 11
379.308258498212
 21
599.7904441619743
 31
0.0
  0
LINE
  5
46E
330
1F
100
AcDbEntity
  8
0-0
  6
JWW_DASHED1
 62
   120
370
     5
100
AcDbLine
 10
469.3082584982035
 20
689.7904441619648
 30
0.0
 11
661.1218146417174
 21
881.6040003054775
 31
0.0
  0
LINE
  5
46F
330
1F
100
AcDbEntity
  8
0-0
  6
JWW_DASHED1
 62
   120
370
     5
100
AcDbLine
 10
129.3082584982143
 20
356.8615119752624
 30
0.0
 11
379.3082584982222
 21
606.8615119752687
 31
0.0
  0
LINE
  5
470
330
1F
100
AcDbEntity
  8
0-0
  6
JWW_DASHED1
 62
   120
370
     5
100
AcDbLine
 10
469.3082584982137
 20
696.8615119752601
 30
0.0
 11
654.050746828408
 21
881.6040003054541
 31
0.0
  0
LINE
  5
471
330
1F
100
AcDbEntity
  8
0-0
  6
JWW_DASHED1
 62
   120
370
     5
100
AcDbLine
 10
129.308258498228
 20
363.9325797885595
 30
0.0
 11
379.3082584982171
 21
613.9325797885504
 31
0.0
  0
LINE
  5
472
330
1F
100
AcDbEntity
  8
0-0
  6
JWW_DASHED1
 62
   120
370
     5
100
AcDbLine
 10
469.3082584982086
 20
703.9325797885418
 30
0.0
 11
646.979679015126
 21
881.6040003054579
 31
0.0
  0
LINE
  5
473
330
1F
100
AcDbEntity
  8
0-0
  6
JWW_DASHED1
 62
   120
370
     5
100
AcDbLine
 10
129.308258498228
 20
371.0036476018457
 30
0.0
 11
379.3082584982154
 21
621.0036476018341
 31
0.0
  0
LINE
  5
474
330
1F
100
AcDbEntity
  8
0-0
  6
JWW_DASHED1
 62
   120
370
     5
100
AcDbLine
 10
469.3082584982222
 20
711.00364760184
 30
0.0
 11
639.9086112018405
 21
881.6040003054575
 31
0.0
  0
LINE
  5
475
330
1F
100
AcDbEntity
  8
0-0
  6
JWW_DASHED1
 62
   120
370
     5
100
AcDbLine
 10
129.3082584982245
 20
378.074715415127
 30
0.0
 11
379.308258498212
 21
628.0747154151153
 31
0.0
  0
LINE
  5
476
330
1F
100
AcDbEntity
  8
0-0
  6
JWW_DASHED1
 62
   120
370
     5
100
AcDbLine
 10
469.3082584982188
 20
718.0747154151218
 30
0.0
 11
632.8375433885584
 21
881.6040003054609
 31
0.0
  0
LINE
  5
477
330
1F
100
AcDbEntity
  8
0-0
  6
JWW_DASHED1
 62
   120
370
     5
100
AcDbLine
 10
129.3082584982194
 20
385.1457832284086
 30
0.0
 11
379.3082584982086
 21
635.145783228397
 31
0.0
  0
LINE
  5
478
330
1F
100
AcDbEntity
  8
0-0
  6
JWW_DASHED1
 62
   120
370
     5
100
AcDbLine
 10
469.3082584982154
 20
725.1457832284034
 30
0.0
 11
625.7664755752763
 21
881.6040003054651
 31
0.0
  0
LINE
  5
479
330
1F
100
AcDbEntity
  8
0-0
  6
JWW_DASHED1
 62
   120
370
     5
100
AcDbLine
 10
129.3082584982109
 20
392.2168510416305
 30
0.0
 11
379.3082584981984
 21
642.2168510416193
 31
0.0
  0
LINE
  5
47A
330
1F
100
AcDbEntity
  8
0-0
  6
JWW_DASHED1
 62
   120
370
     5
100
AcDbLine
 10
469.3082584982052
 20
732.2168510416253
 30
0.0
 11
618.695407762054
 21
881.6040003054728
 31
0.0
  0
LINE
  5
47B
330
1F
100
AcDbEntity
  8
0-0
  6
JWW_DASHED1
 62
   120
370
     5
100
AcDbLine
 10
129.3082584982075
 20
399.2879188549122
 30
0.0
 11
379.308258498212
 21
649.2879188549164
 31
0.0
  0
LINE
  5
47C
330
1F
100
AcDbEntity
  8
0-0
  6
JWW_DASHED1
 62
   120
370
     5
100
AcDbLine
 10
469.3082584982018
 20
739.2879188549069
 30
0.0
 11
611.6243399487633
 21
881.6040003054677
 31
0.0
  0
LINE
  5
47D
330
1F
100
AcDbEntity
  8
0-0
  6
JWW_DASHED1
 62
   120
370
     5
100
AcDbLine
 10
129.3082584982143
 20
406.3589866682049
 30
0.0
 11
379.3082584982205
 21
656.3589866682116
 31
0.0
  0
LINE
  5
47E
330
1F
100
AcDbEntity
  8
0-0
  6
JWW_DASHED1
 62
   120
370
     5
100
AcDbLine
 10
469.308258498212
 20
746.3589866682026
 30
0.0
 11
604.5532721354659
 21
881.6040003054561
 31
0.0
  0
LINE
  5
47F
330
1F
100
AcDbEntity
  8
0-0
  6
JWW_DASHED1
 62
   120
370
     5
100
AcDbLine
 10
129.3082584982263
 20
413.4300544815023
 30
0.0
 11
379.3082584982171
 21
663.4300544814928
 31
0.0
  0
LINE
  5
480
330
1F
100
AcDbEntity
  8
0-0
  6
JWW_DASHED1
 62
   120
370
     5
100
AcDbLine
 10
469.3082584982086
 20
753.4300544814844
 30
0.0
 11
597.4822043221839
 21
881.6040003054604
 31
0.0
  0
LINE
  5
481
330
1F
100
AcDbEntity
  8
0-0
  6
JWW_DASHED1
 62
   120
370
     5
100
AcDbLine
 10
129.3082584982263
 20
420.5011222947878
 30
0.0
 11
379.3082584982154
 21
670.5011222947762
 31
0.0
  0
LINE
  5
482
330
1F
100
AcDbEntity
  8
0-0
  6
JWW_DASHED1
 62
   120
370
     5
100
AcDbLine
 10
469.3082584982222
 20
760.501122294783
 30
0.0
 11
590.411136508895
 21
881.6040003054566
 31
0.0
  0
LINE
  5
483
330
1F
100
AcDbEntity
  8
0-0
  6
JWW_DASHED1
 62
   120
370
     5
100
AcDbLine
 10
129.3082584982211
 20
427.5721901080691
 30
0.0
 11
379.3082584982103
 21
677.5721901080578
 31
0.0
  0
LINE
  5
484
330
1F
100
AcDbEntity
  8
0-0
  6
JWW_DASHED1
 62
   120
370
     5
100
AcDbLine
 10
469.3082584982171
 20
767.5721901080638
 30
0.0
 11
583.3400686956129
 21
881.60400030546
 31
0.0
  0
LINE
  5
485
330
1F
100
AcDbEntity
  8
0-0
  6
JWW_DASHED1
 62
   120
370
     5
100
AcDbLine
 10
129.3082584982177
 20
434.6432579213507
 30
0.0
 11
379.3082584982069
 21
684.643257921339
 31
0.0
  0
LINE
  5
486
330
1F
100
AcDbEntity
  8
0-0
  6
JWW_DASHED1
 62
   120
370
     5
100
AcDbLine
 10
469.308258498212
 20
774.6432579213455
 30
0.0
 11
576.2690008823325
 21
881.6040003054643
 31
0.0
  0
LINE
  5
487
330
1F
100
AcDbEntity
  8
0-0
  6
JWW_DASHED1
 62
   120
370
     5
100
AcDbLine
 10
129.3082584982143
 20
441.7143257346323
 30
0.0
 11
379.3082584982018
 21
691.7143257346207
 31
0.0
  0
LINE
  5
488
330
1F
100
AcDbEntity
  8
0-0
  6
JWW_DASHED1
 62
   120
370
     5
100
AcDbLine
 10
469.3082584982086
 20
781.7143257346266
 30
0.0
 11
569.1979330690505
 21
881.6040003054677
 31
0.0
  0
LINE
  5
489
330
1F
100
AcDbEntity
  8
0-0
  6
JWW_DASHED1
 62
   120
370
     5
100
AcDbLine
 10
129.3082584982109
 20
448.7853935479136
 30
0.0
 11
379.3082584982137
 21
698.7853935479177
 31
0.0
  0
LINE
  5
48A
330
1F
100
AcDbEntity
  8
0-0
  6
JWW_DASHED1
 62
   120
370
     5
100
AcDbLine
 10
469.3082584982052
 20
788.7853935479084
 30
0.0
 11
562.1268652557684
 21
881.6040003054716
 31
0.0
  0
LINE
  5
48B
330
1F
100
AcDbEntity
  8
0-0
  6
JWW_DASHED1
 62
   120
370
     5
100
AcDbLine
 10
129.3082584982143
 20
455.8564613611479
 30
0.0
 11
379.3082584982188
 21
705.8564613611542
 31
0.0
  0
LINE
  5
48C
330
1F
100
AcDbEntity
  8
0-0
  6
JWW_DASHED1
 62
   120
370
     5
100
AcDbLine
 10
469.308258498212
 20
795.8564613611456
 30
0.0
 11
555.0557974425238
 21
881.6040003054583
 31
0.0
  0
LINE
  5
48D
330
1F
100
AcDbEntity
  8
0-0
  6
JWW_DASHED1
 62
   120
370
     5
100
AcDbLine
 10
129.3082584982245
 20
462.9275291744453
 30
0.0
 11
379.3082584982154
 21
712.9275291744358
 31
0.0
  0
LINE
  5
48E
330
1F
100
AcDbEntity
  8
0-0
  6
JWW_DASHED1
 62
   120
370
     5
100
AcDbLine
 10
469.3082584982069
 20
802.9275291744273
 30
0.0
 11
547.9847296292418
 21
881.6040003054626
 31
0.0
  0
LINE
  5
48F
330
1F
100
AcDbEntity
  8
0-0
  6
JWW_DASHED1
 62
   120
370
     5
100
AcDbLine
 10
129.3082584982245
 20
469.9985969877304
 30
0.0
 11
379.3082584982137
 21
719.9985969877187
 31
0.0
  0
LINE
  5
490
330
1F
100
AcDbEntity
  8
0-0
  6
JWW_DASHED1
 62
   120
370
     5
100
AcDbLine
 10
469.3082584982188
 20
809.9985969877251
 30
0.0
 11
540.9136618159495
 21
881.6040003054558
 31
0.0
  0
LINE
  5
491
330
1F
100
AcDbEntity
  8
0-0
  6
JWW_DASHED1
 62
   120
370
     5
100
AcDbLine
 10
129.3082584982211
 20
477.0696648010116
 30
0.0
 11
379.3082584982086
 21
727.0696648009999
 31
0.0
  0
LINE
  5
492
330
1F
100
AcDbEntity
  8
0-0
  6
JWW_DASHED1
 62
   120
370
     5
100
AcDbLine
 10
469.3082584982154
 20
817.0696648010063
 30
0.0
 11
533.8425940026674
 21
881.6040003054592
 31
0.0
  0
LINE
  5
493
330
1F
100
AcDbEntity
  8
0-0
  6
JWW_DASHED1
 62
   120
370
     5
100
AcDbLine
 10
129.3082584982177
 20
484.1407326142933
 30
0.0
 11
379.3082584982052
 21
734.1407326142815
 31
0.0
  0
LINE
  5
494
330
1F
100
AcDbEntity
  8
0-0
  6
JWW_DASHED1
 62
   120
370
     5
100
AcDbLine
 10
469.308258498212
 20
824.1407326142876
 30
0.0
 11
526.771526189387
 21
881.6040003054634
 31
0.0
  0
LINE
  5
495
330
1F
100
AcDbEntity
  8
0-0
  6
JWW_DASHED1
 62
   120
370
     5
100
AcDbLine
 10
129.3082584982126
 20
491.2118004275744
 30
0.0
 11
379.3082584982018
 21
741.2118004275628
 31
0.0
  0
LINE
  5
496
330
1F
100
AcDbEntity
  8
0-0
  6
JWW_DASHED1
 62
   120
370
     5
100
AcDbLine
 10
469.3082584982069
 20
831.2118004275692
 30
0.0
 11
519.700458376105
 21
881.6040003054668
 31
0.0
  0
LINE
  5
497
330
1F
100
AcDbEntity
  8
0-0
  6
JWW_DASHED1
 62
   120
370
     5
100
AcDbLine
 10
129.3082584982075
 20
498.2828682408557
 30
0.0
 11
379.308258498212
 21
748.2828682408602
 31
0.0
  0
LINE
  5
498
330
1F
100
AcDbEntity
  8
0-0
  6
JWW_DASHED1
 62
   120
370
     5
100
AcDbLine
 10
469.3082584982035
 20
838.2828682408503
 30
0.0
 11
512.6293905628229
 21
881.6040003054707
 31
0.0
  0
LINE
  5
499
330
1F
100
AcDbEntity
  8
0-0
  6
JWW_DASHED1
 62
   120
370
     5
100
AcDbLine
 10
129.308258498216
 20
505.3539360541497
 30
0.0
 11
379.3082584982222
 21
755.353936054156
 31
0.0
  0
LINE
  5
49A
330
1F
100
AcDbEntity
  8
0-0
  6
JWW_DASHED1
 62
   120
370
     5
100
AcDbLine
 10
469.3082584982154
 20
845.3539360541474
 30
0.0
 11
505.5583227495238
 21
881.6040003054561
 31
0.0
  0
LINE
  5
49B
330
1F
100
AcDbEntity
  8
0-0
  6
JWW_DASHED1
 62
   120
370
     5
100
AcDbLine
 10
129.3082584982126
 20
512.4250038674309
 30
0.0
 11
379.3082584982188
 21
762.4250038674371
 31
0.0
  0
LINE
  5
49C
330
1F
100
AcDbEntity
  8
0-0
  6
JWW_DASHED1
 62
   120
370
     5
100
AcDbLine
 10
469.3082584982103
 20
852.4250038674286
 30
0.0
 11
498.4872549362434
 21
881.6040003054604
 31
0.0
  0
LINE
  5
49D
330
1F
100
AcDbEntity
  8
0-0
  6
JWW_DASHED1
 62
   120
370
     5
100
AcDbLine
 10
129.3082584982245
 20
519.4960716806729
 30
0.0
 11
379.308258498212
 21
769.4960716806609
 31
0.0
  0
LINE
  5
49E
330
1F
100
AcDbEntity
  8
0-0
  6
JWW_DASHED1
 62
   120
370
     5
100
AcDbLine
 10
469.3082584982188
 20
859.4960716806672
 30
0.0
 11
491.4161871230057
 21
881.6040003054549
 31
0.0
  0
LINE
  5
49F
330
1F
100
AcDbEntity
  8
0-0
  6
JWW_DASHED1
 62
   120
370
     5
100
AcDbLine
 10
129.3082584982194
 20
526.5671394939541
 30
0.0
 11
379.3082584982086
 21
776.5671394939425
 31
0.0
  0
LINE
  5
4A0
330
1F
100
AcDbEntity
  8
0-0
  6
JWW_DASHED1
 62
   120
370
     5
100
AcDbLine
 10
469.3082584982137
 20
866.5671394939488
 30
0.0
 11
484.3451193097236
 21
881.6040003054583
 31
0.0
  0
LINE
  5
4A1
330
1F
100
AcDbEntity
  8
0-0
  6
JWW_DASHED1
 62
   120
370
     5
100
AcDbLine
 10
129.3082584982143
 20
533.6382073072357
 30
0.0
 11
379.3082584982035
 21
783.6382073072236
 31
0.0
  0
LINE
  5
4A2
330
1F
100
AcDbEntity
  8
0-0
  6
JWW_DASHED1
 62
   120
370
     5
100
AcDbLine
 10
469.3082584982103
 20
873.63820730723
 30
0.0
 11
477.2740514964415
 21
881.6040003054621
 31
0.0
  0
LINE
  5
4A3
330
1F
100
AcDbEntity
  8
0-0
  6
JWW_DASHED1
 62
   120
370
     5
100
AcDbLine
 10
129.3082584982109
 20
540.709275120517
 30
0.0
 11
379.3082584981984
 21
790.7092751205049
 31
0.0
  0
LINE
  5
4A4
330
1F
100
AcDbEntity
  8
0-0
  6
JWW_DASHED1
 62
   120
370
     5
100
AcDbLine
 10
469.3082584982052
 20
880.7092751205113
 30
0.0
 11
470.2029836831595
 21
881.604000305466
 31
0.0
  0
LINE
  5
4A5
330
1F
100
AcDbEntity
  8
0-0
  6
JWW_DASHED1
 62
   120
370
     5
100
AcDbLine
 10
129.3082584982075
 20
547.7803429337982
 30
0.0
 11
379.308258498212
 21
797.7803429338023
 31
0.0
  0
LINE
  5
4A6
330
1F
100
AcDbEntity
  8
0-0
  6
JWW_DASHED1
 62
   120
370
     5
100
AcDbLine
 10
129.308258498216
 20
554.8514107470926
 30
0.0
 11
379.3082584982222
 21
804.8514107470988
 31
0.0
  0
LINE
  5
4A7
330
1F
100
AcDbEntity
  8
0-0
  6
JWW_DASHED1
 62
   120
370
     5
100
AcDbLine
 10
129.3082584982109
 20
561.9224785603739
 30
0.0
 11
379.3082584982188
 21
811.9224785603801
 31
0.0
  0
LINE
  5
4A8
330
1F
100
AcDbEntity
  8
0-0
  6
JWW_DASHED1
 62
   120
370
     5
100
AcDbLine
 10
129.3082584982245
 20
568.9935463736713
 30
0.0
 11
379.3082584982137
 21
818.9935463736617
 31
0.0
  0
LINE
  5
4A9
330
1F
100
AcDbEntity
  8
0-0
  6
JWW_DASHED1
 62
   120
370
     5
100
AcDbLine
 10
129.3082584982211
 20
576.064614186955
 30
0.0
 11
379.3082584982103
 21
826.0646141869433
 31
0.0
  0
LINE
  5
4AA
330
1F
100
AcDbEntity
  8
0-0
  6
JWW_DASHED1
 62
   120
370
     5
100
AcDbLine
 10
129.3082584982143
 20
583.1356820001779
 30
0.0
 11
379.3082584982018
 21
833.1356820001662
 31
0.0
  0
LINE
  5
4AB
330
1F
100
AcDbEntity
  8
0-0
  6
JWW_DASHED1
 62
   120
370
     5
100
AcDbLine
 10
129.3082584982109
 20
590.2067498134595
 30
0.0
 11
379.3082584981984
 21
840.2067498134478
 31
0.0
  0
LINE
  5
4AC
330
1F
100
AcDbEntity
  8
0-0
  6
JWW_DASHED1
 62
   120
370
     5
100
AcDbLine
 10
129.3082584982058
 20
597.2778176267407
 30
0.0
 11
379.3082584982103
 21
847.2778176267448
 31
0.0
  0
LINE
  5
4AD
330
1F
100
AcDbEntity
  8
0-0
  6
JWW_DASHED1
 62
   120
370
     5
100
AcDbLine
 10
129.3082584982143
 20
604.3488854400351
 30
0.0
 11
379.3082584982205
 21
854.3488854400414
 31
0.0
  0
LINE
  5
4AE
330
1F
100
AcDbEntity
  8
0-0
  6
JWW_DASHED1
 62
   120
370
     5
100
AcDbLine
 10
129.3082584982263
 20
611.4199532533321
 30
0.0
 11
379.3082584982171
 21
861.419953253323
 31
0.0
  0
LINE
  5
4AF
330
1F
100
AcDbEntity
  8
0-0
  6
JWW_DASHED1
 62
   120
370
     5
100
AcDbLine
 10
129.3082584982245
 20
618.4910210666163
 30
0.0
 11
379.3082584982137
 21
868.4910210666046
 31
0.0
  0
LINE
  5
4B0
330
1F
100
AcDbEntity
  8
0-0
  6
JWW_DASHED1
 62
   120
370
     5
100
AcDbLine
 10
129.3082584982211
 20
625.5620888798979
 30
0.0
 11
379.3082584982086
 21
875.5620888798863
 31
0.0
  0
LINE
  5
4B1
330
1F
100
AcDbEntity
  8
0-0
  6
JWW_DASHED1
 62
   120
370
     5
100
AcDbLine
 10
129.3082584982177
 20
632.6331566931792
 30
0.0
 11
378.2791021105045
 21
881.6040003054668
 31
0.0
  0
LINE
  5
4B2
330
1F
100
AcDbEntity
  8
0-0
  6
JWW_DASHED1
 62
   120
370
     5
100
AcDbLine
 10
129.3082584982126
 20
639.7042245064604
 30
0.0
 11
371.2080342972224
 21
881.6040003054707
 31
0.0
  0
LINE
  5
4B3
330
1F
100
AcDbEntity
  8
0-0
  6
JWW_DASHED1
 62
   120
370
     5
100
AcDbLine
 10
129.3082584982177
 20
646.7752923196969
 30
0.0
 11
364.1369664839693
 21
881.604000305448
 31
0.0
  0
LINE
  5
4B4
330
1F
100
AcDbEntity
  8
0-0
  6
JWW_DASHED1
 62
   120
370
     5
100
AcDbLine
 10
129.3082584982143
 20
653.8463601329781
 30
0.0
 11
357.0658986706873
 21
881.6040003054524
 31
0.0
  0
LINE
  5
4B5
330
1F
100
AcDbEntity
  8
0-0
  6
JWW_DASHED1
 62
   120
370
     5
100
AcDbLine
 10
129.3082584982245
 20
660.9174279462754
 30
0.0
 11
349.9948308574052
 21
881.6040003054545
 31
0.0
  0
LINE
  5
4B6
330
1F
100
AcDbEntity
  8
0-0
  6
JWW_DASHED1
 62
   120
370
     5
100
AcDbLine
 10
129.3082584982245
 20
667.9884957595589
 30
0.0
 11
342.9237630441231
 21
881.6040003054583
 31
0.0
  0
LINE
  5
4B7
330
1F
100
AcDbEntity
  8
0-0
  6
JWW_DASHED1
 62
   120
370
     5
100
AcDbLine
 10
129.3082584982194
 20
675.05956357284
 30
0.0
 11
335.8526952308411
 21
881.6040003054621
 31
0.0
  0
LINE
  5
4B8
330
1F
100
AcDbEntity
  8
0-0
  6
JWW_DASHED1
 62
   120
370
     5
100
AcDbLine
 10
129.3082584982143
 20
682.1306313861216
 30
0.0
 11
328.781627417559
 21
881.604000305466
 31
0.0
  0
LINE
  5
4B9
330
1F
100
AcDbEntity
  8
0-0
  6
JWW_DASHED1
 62
   120
370
     5
100
AcDbLine
 10
129.3082584982109
 20
689.2016991994029
 30
0.0
 11
321.7105596042769
 21
881.6040003054694
 31
0.0
  0
LINE
  5
4BA
330
1F
100
AcDbEntity
  8
0-0
  6
JWW_DASHED1
 62
   120
370
     5
100
AcDbLine
 10
129.3082584982075
 20
696.2727670126842
 30
0.0
 11
314.6394917909846
 21
881.6040003054617
 31
0.0
  0
LINE
  5
4BB
330
1F
100
AcDbEntity
  8
0-0
  6
JWW_DASHED1
 62
   120
370
     5
100
AcDbLine
 10
129.3082584982177
 20
703.3438348259799
 30
0.0
 11
307.5684239776872
 21
881.6040003054497
 31
0.0
  0
LINE
  5
4BC
330
1F
100
AcDbEntity
  8
0-0
  6
JWW_DASHED1
 62
   120
370
     5
100
AcDbLine
 10
129.308258498228
 20
710.4149026392479
 30
0.0
 11
300.4973561644307
 21
881.6040003054515
 31
0.0
  0
LINE
  5
4BD
330
1F
100
AcDbEntity
  8
0-0
  6
JWW_DASHED1
 62
   120
370
     5
100
AcDbLine
 10
129.3082584982211
 20
717.4859704525013
 30
0.0
 11
293.4262883511793
 21
881.6040003054575
 31
0.0
  0
LINE
  5
4BE
330
1F
100
AcDbEntity
  8
0-0
  6
JWW_DASHED1
 62
   120
370
     5
100
AcDbLine
 10
129.3082584982177
 20
724.5570382657826
 30
0.0
 11
286.3552205378973
 21
881.6040003054609
 31
0.0
  0
LINE
  5
4BF
330
1F
100
AcDbEntity
  8
0-0
  6
JWW_DASHED1
 62
   120
370
     5
100
AcDbLine
 10
129.3082584982143
 20
731.6281060790639
 30
0.0
 11
279.2841527246152
 21
881.6040003054648
 31
0.0
  0
LINE
  5
4C0
330
1F
100
AcDbEntity
  8
0-0
  6
JWW_DASHED1
 62
   120
370
     5
100
AcDbLine
 10
129.3082584982092
 20
738.6991738923455
 30
0.0
 11
272.2130849113331
 21
881.6040003054685
 31
0.0
  0
LINE
  5
4C1
330
1F
100
AcDbEntity
  8
0-0
  6
JWW_DASHED1
 62
   120
370
     5
100
AcDbLine
 10
129.3082584982058
 20
745.7702417056266
 30
0.0
 11
265.1420170980425
 21
881.6040003054638
 31
0.0
  0
LINE
  5
4C2
330
1F
100
AcDbEntity
  8
0-0
  6
JWW_DASHED1
 62
   120
370
     5
100
AcDbLine
 10
129.308258498216
 20
752.8413095189223
 30
0.0
 11
258.0709492847451
 21
881.6040003054524
 31
0.0
  0
LINE
  5
4C3
330
1F
100
AcDbEntity
  8
0-0
  6
JWW_DASHED1
 62
   120
370
     5
100
AcDbLine
 10
129.3082584982126
 20
759.912377332204
 30
0.0
 11
250.9998814714648
 21
881.6040003054566
 31
0.0
  0
LINE
  5
4C4
330
1F
100
AcDbEntity
  8
0-0
  6
JWW_DASHED1
 62
   120
370
     5
100
AcDbLine
 10
129.3082584982245
 20
766.983445145501
 30
0.0
 11
243.9288136581742
 21
881.6040003054519
 31
0.0
  0
LINE
  5
4C5
330
1F
100
AcDbEntity
  8
0-0
  6
JWW_DASHED1
 62
   120
370
     5
100
AcDbLine
 10
129.3082584982177
 20
774.0545129587541
 30
0.0
 11
236.8577458449228
 21
881.6040003054579
 31
0.0
  0
LINE
  5
4C6
330
1F
100
AcDbEntity
  8
0-0
  6
JWW_DASHED1
 62
   120
370
     5
100
AcDbLine
 10
129.3082584982126
 20
781.1255807720063
 30
0.0
 11
229.7866780316697
 21
881.6040003054638
 31
0.0
  0
LINE
  5
4C7
330
1F
100
AcDbEntity
  8
0-0
  6
JWW_DASHED1
 62
   120
370
     5
100
AcDbLine
 10
129.3082584982075
 20
788.1966485852876
 30
0.0
 11
222.7156102183893
 21
881.6040003054677
 31
0.0
  0
LINE
  5
4C8
330
1F
100
AcDbEntity
  8
0-0
  6
JWW_DASHED1
 62
   120
370
     5
100
AcDbLine
 10
129.3082584982041
 20
795.2677163985692
 30
0.0
 11
215.6445424051005
 21
881.604000305466
 31
0.0
  0
LINE
  5
4C9
330
1F
100
AcDbEntity
  8
0-0
  6
JWW_DASHED1
 62
   120
370
     5
100
AcDbLine
 10
129.3082584982143
 20
802.3387842118653
 30
0.0
 11
208.5734745918047
 21
881.6040003054541
 31
0.0
  0
LINE
  5
4CA
330
1F
100
AcDbEntity
  8
0-0
  6
JWW_DASHED1
 62
   120
370
     5
100
AcDbLine
 10
129.308258498228
 20
809.4098520251628
 30
0.0
 11
201.5024067785124
 21
881.6040003054472
 31
0.0
  0
LINE
  5
4CB
330
1F
100
AcDbEntity
  8
0-0
  6
JWW_DASHED1
 62
   120
370
     5
100
AcDbLine
 10
129.3082584982245
 20
816.4809198384448
 30
0.0
 11
194.4313389652304
 21
881.6040003054511
 31
0.0
  0
LINE
  5
4CC
330
1F
100
AcDbEntity
  8
0-0
  6
JWW_DASHED1
 62
   120
370
     5
100
AcDbLine
 10
129.3082584982194
 20
823.551987651726
 30
0.0
 11
187.3602711519483
 21
881.6040003054549
 31
0.0
  0
LINE
  5
4CD
330
1F
100
AcDbEntity
  8
0-0
  6
JWW_DASHED1
 62
   120
370
     5
100
AcDbLine
 10
129.3082584982143
 20
830.6230554650073
 30
0.0
 11
180.2892033386662
 21
881.6040003054587
 31
0.0
  0
LINE
  5
4CE
330
1F
100
AcDbEntity
  8
0-0
  6
JWW_DASHED1
 62
   120
370
     5
100
AcDbLine
 10
129.3082584982092
 20
837.6941232782594
 30
0.0
 11
173.2181355254114
 21
881.6040003054617
 31
0.0
  0
LINE
  5
4CF
330
1F
100
AcDbEntity
  8
0-0
  6
JWW_DASHED1
 62
   120
370
     5
100
AcDbLine
 10
129.3082584982177
 20
844.7651910915271
 30
0.0
 11
166.147067712143
 21
881.6040003054524
 31
0.0
  0
LINE
  5
4D0
330
1F
100
AcDbEntity
  8
0-0
  6
JWW_DASHED1
 62
   120
370
     5
100
AcDbLine
 10
129.3082584982143
 20
851.8362589048082
 30
0.0
 11
159.0759998988626
 21
881.6040003054566
 31
0.0
  0
LINE
  5
4D1
330
1F
100
AcDbEntity
  8
0-0
  6
JWW_DASHED1
 62
   120
370
     5
100
AcDbLine
 10
129.3082584982263
 20
858.9073267181057
 30
0.0
 11
152.0049320855669
 21
881.6040003054463
 31
0.0
  0
LINE
  5
4D2
330
1F
100
AcDbEntity
  8
0-0
  6
JWW_DASHED1
 62
   120
370
     5
100
AcDbLine
 10
129.3082584982211
 20
865.9783945313873
 30
0.0
 11
144.9338642722849
 21
881.6040003054502
 31
0.0
  0
LINE
  5
4D3
330
1F
100
AcDbEntity
  8
0-0
  6
JWW_DASHED1
 62
   120
370
     5
100
AcDbLine
 10
129.3082584982177
 20
873.0494623446685
 30
0.0
 11
137.8627964590028
 21
881.6040003054536
 31
0.0
  0
LINE
  5
4D4
330
1F
100
AcDbEntity
  8
0-0
  6
JWW_DASHED1
 62
   120
370
     5
100
AcDbLine
 10
129.3082584982143
 20
880.1205301579498
 30
0.0
 11
130.7917286457224
 21
881.6040003054575
 31
0.0
  0
LWPOLYLINE
  5
4D5
330
1F
100
AcDbEntity
  8
寸法
  6
Continuous
 62
     7
370
     9
100
AcDbPolyline
 90
        4
 70
     1
 43
3.0
 10
830.8082584982154
 20
-1224.395999694542
 42
0.4142135623731
 10
829.3082584982154
 20
-1222.895999694542
 42
0.4142135623731
 10
827.8082584982154
 20
-1224.395999694542
 42
0.4142135623731
 10
829.3082584982154
 20
-1225.895999694542
 42
0.4142135623731
  0
LWPOLYLINE
  5
4D6
330
1F
100
AcDbEntity
  8
寸法
  6
Continuous
 62
     7
370
     9
100
AcDbPolyline
 90
        4
 70
     1
 43
3.0
 10
1637.808258498216
 20
-1624.395999694543
 42
0.4142135623731
 10
1636.308258498216
 20
-1622.895999694543
 42
0.4142135623731
 10
1634.808258498217
 20
-1624.395999694543
 42
0.4142135623731
 10
1636.308258498216
 20
-1625.895999694542
 42
0.4142135623731
  0
LWPOLYLINE
  5
4D7
330
1F
100
AcDbEntity
  8
寸法
  6
Continuous
 62
     7
370
     9
100
AcDbPolyline
 90
        4
 70
     1
 43
3.0
 10
1607.808258498216
 20
-1424.395999694543
 42
0.4142135623731
 10
1606.308258498216
 20
-1422.895999694543
 42
0.4142135623731
 10
1604.808258498217
 20
-1424.395999694543
 42
0.4142135623731
 10
1606.308258498216
 20
-1425.895999694543
 42
0.4142135623731
  0
LWPOLYLINE
  5
4D8
330
1F
100
AcDbEntity
  8
寸法
  6
Continuous
 62
     7
370
     9
100
AcDbPolyline
 90
        4
 70
     1
 43
3.0
 10
-789.1917415017846
 20
-1224.395999694542
 42
0.4142135623731
 10
-790.6917415017846
 20
-1222.895999694542
 42
0.4142135623731
 10
-792.1917415017846
 20
-1224.395999694542
 42
0.4142135623731
 10
-790.6917415017846
 20
-1225.895999694542
 42
0.4142135623731
  0
LWPOLYLINE
  5
4D9
330
1F
100
AcDbEntity
  8
寸法
  6
Continuous
 62
     7
370
     9
100
AcDbPolyline
 90
        4
 70
     1
 43
3.0
 10
20.80825849821545
 20
-1224.395999694542
 42
0.4142135623731
 10
19.30825849821545
 20
-1222.895999694542
 42
0.4142135623731
 10
17.80825849821545
 20
-1224.395999694542
 42
0.4142135623731
 10
19.30825849821545
 20
-1225.895999694542
 42
0.4142135623731
  0
LWPOLYLINE
  5
4DA
330
1F
100
AcDbEntity
  8
寸法
  6
Continuous
 62
     7
370
     9
100
AcDbPolyline
 90
        4
 70
     1
 43
3.0
 10
-1596.191741501784
 20
-1624.395999694543
 42
0.4142135623731
 10
-1597.691741501784
 20
-1622.895999694543
 42
0.4142135623731
 10
-1599.191741501784
 20
-1624.395999694543
 42
0.4142135623731
 10
-1597.691741501784
 20
-1625.895999694543
 42
0.4142135623731
  0
LWPOLYLINE
  5
4DB
330
1F
100
AcDbEntity
  8
寸法
  6
Continuous
 62
     7
370
     9
100
AcDbPolyline
 90
        4
 70
     1
 43
3.0
 10
-1566.191741501784
 20
-1424.395999694543
 42
0.4142135623731
 10
-1567.691741501784
 20
-1422.895999694543
 42
0.4142135623731
 10
-1569.191741501784
 20
-1424.395999694543
 42
0.4142135623731
 10
-1567.691741501784
 20
-1425.895999694543
 42
0.4142135623731
  0
LINE
  5
4DC
330
1F
100
AcDbEntity
  8
寸法
  6
Continuous
 62
   120
370
     5
100
AcDbLine
 10
829.3082584982154
 20
-1224.395999694542
 30
0.0
 11
829.3082584982154
 21
-1024.395999694543
 31
0.0
  0
LINE
  5
4DD
330
1F
100
AcDbEntity
  8
寸法
  6
Continuous
 62
   120
370
     5
100
AcDbLine
 10
1636.308258498216
 20
-1624.395999694543
 30
0.0
 11
1636.308258498216
 21
-1024.395999694543
 31
0.0
  0
LINE
  5
4DE
330
1F
100
AcDbEntity
  8
寸法
  6
Continuous
 62
   120
370
     5
100
AcDbLine
 10
-1597.691741501784
 20
-1624.395999694543
 30
0.0
 11
1636.308258498216
 21
-1624.395999694543
 31
0.0
  0
LINE
  5
4DF
330
1F
100
AcDbEntity
  8
寸法
  6
Continuous
 62
   120
370
     5
100
AcDbLine
 10
1606.308258498216
 20
-1424.395999694543
 30
0.0
 11
1606.308258498216
 21
-1024.395999694543
 31
0.0
  0
LINE
  5
4E0
330
1F
100
AcDbEntity
  8
寸法
  6
Continuous
 62
   120
370
     5
100
AcDbLine
 10
-1567.691741501784
 20
-1424.395999694543
 30
0.0
 11
1606.308258498216
 21
-1424.395999694543
 31
0.0
  0
LINE
  5
4E1
330
1F
100
AcDbEntity
  8
寸法
  6
Continuous
 62
   120
370
     5
100
AcDbLine
 10
-790.6917415017846
 20
-1224.395999694542
 30
0.0
 11
829.3082584982154
 21
-1224.395999694542
 31
0.0
  0
LINE
  5
4E2
330
1F
100
AcDbEntity
  8
寸法
  6
Continuous
 62
   120
370
     5
100
AcDbLine
 10
-790.6917415017846
 20
-1224.395999694542
 30
0.0
 11
-790.6917415017846
 21
-1024.395999694543
 31
0.0
  0
LINE
  5
4E3
330
1F
100
AcDbEntity
  8
寸法
  6
Continuous
 62
   120
370
     5
100
AcDbLine
 10
19.30825849821545
 20
-1224.395999694542
 30
0.0
 11
19.30825849821545
 21
-1024.395999694543
 31
0.0
  0
LINE
  5
4E4
330
1F
100
AcDbEntity
  8
寸法
  6
Continuous
 62
   120
370
     5
100
AcDbLine
 10
-1597.691741501784
 20
-1624.395999694543
 30
0.0
 11
-1597.691741501784
 21
-1024.395999694543
 31
0.0
  0
LINE
  5
4E5
330
1F
100
AcDbEntity
  8
寸法
  6
Continuous
 62
   120
370
     5
100
AcDbLine
 10
-1567.691741501784
 20
-1424.395999694543
 30
0.0
 11
-1567.691741501784
 21
-1024.395999694543
 31
0.0
  0
LWPOLYLINE
  5
4E6
330
1F
100
AcDbEntity
  8
寸法
  6
Continuous
 62
     7
370
     9
100
AcDbPolyline
 90
        4
 70
     1
 43
3.0
 10
-2046.191741501784
 20
-974.3959996945428
 42
0.4142135623731
 10
-2047.691741501784
 20
-972.8959996945429
 42
0.4142135623731
 10
-2049.191741501784
 20
-974.3959996945428
 42
0.4142135623731
 10
-2047.691741501784
 20
-975.8959996945428
 42
0.4142135623731
  0
LINE
  5
4E7
330
1F
100
AcDbEntity
  8
寸法
  6
Continuous
 62
   120
370
     5
100
AcDbLine
 10
-2047.691741501784
 20
-974.3959996945428
 30
0.0
 11
-1647.691741501784
 21
-974.3959996945428
 31
0.0
  0
LINE
  5
4E8
330
1F
100
AcDbEntity
  8
寸法
  6
Continuous
 62
   120
370
     5
100
AcDbLine
 10
-2047.691741501784
 20
1060.604000305457
 30
0.0
 11
-2047.691741501784
 21
-974.3959996945428
 31
0.0
  0
LINE
  5
4E9
330
1F
100
AcDbEntity
  8
寸法
  6
Continuous
 62
   120
370
     5
100
AcDbLine
 10
-2047.691741501784
 20
1060.604000305457
 30
0.0
 11
-1647.691741501784
 21
1060.604000305457
 31
0.0
  0
LWPOLYLINE
  5
4EA
330
1F
100
AcDbEntity
  8
寸法
  6
Continuous
 62
     7
370
     9
100
AcDbPolyline
 90
        4
 70
     1
 43
3.0
 10
-2046.191741501784
 20
1060.604000305457
 42
0.4142135623731
 10
-2047.691741501784
 20
1062.104000305457
 42
0.4142135623731
 10
-2049.191741501784
 20
1060.604000305457
 42
0.4142135623731
 10
-2047.691741501784
 20
1059.104000305457
 42
0.4142135623731
  0
LINE
  5
4EB
330
1F
100
AcDbEntity
  8
寸法
  6
Continuous
 62
   120
370
     5
100
AcDbLine
 10
-1847.691741501783
 20
1016.604000305456
 30
0.0
 11
-1647.691741501784
 21
1016.604000305456
 31
0.0
  0
LINE
  5
4EC
330
1F
100
AcDbEntity
  8
寸法
  6
Continuous
 62
   120
370
     5
100
AcDbLine
 10
-1847.691741501783
 20
1016.604000305456
 30
0.0
 11
-1847.691741501783
 21
-966.3959996945441
 31
0.0
  0
LWPOLYLINE
  5
4ED
330
1F
100
AcDbEntity
  8
寸法
  6
Continuous
 62
     7
370
     9
100
AcDbPolyline
 90
        4
 70
     1
 43
3.0
 10
-1846.191741501783
 20
1016.604000305456
 42
0.4142135623731
 10
-1847.691741501783
 20
1018.104000305456
 42
0.4142135623731
 10
-1849.191741501783
 20
1016.604000305456
 42
0.4142135623731
 10
-1847.691741501783
 20
1015.104000305456
 42
0.4142135623731
  0
LWPOLYLINE
  5
4EE
330
1F
100
AcDbEntity
  8
寸法
  6
Continuous
 62
     7
370
     9
100
AcDbPolyline
 90
        4
 70
     1
 43
3.0
 10
-1846.191741501783
 20
-966.3959996945441
 42
0.4142135623731
 10
-1847.691741501783
 20
-964.8959996945441
 42
0.4142135623731
 10
-1849.191741501783
 20
-966.3959996945441
 42
0.4142135623731
 10
-1847.691741501783
 20
-967.895999694544
 42
0.4142135623731
  0
LINE
  5
4EF
330
1F
100
AcDbEntity
  8
寸法
  6
Continuous
 62
   120
370
     5
100
AcDbLine
 10
-1847.691741501783
 20
-966.3959996945441
 30
0.0
 11
-1647.691741501784
 21
-966.3959996945441
 31
0.0
  0
MTEXT
  5
4F0
330
1F
100
AcDbEntity
  8
寸法
  6
Continuous
 62
     7
370
    70
100
AcDbMText
 10
-2062.691741501784
 20
-177.5709996945423
 30
0.0
 40
57.14999999999999
 41
412.5
 46
0.0
 71
     7
 72
     1
  1
{\fＭＳ ゴシック|b0|i0|c128|p49;枠外＝2,035}
 11
6.123031769111886E-17
 21
1.0
 31
0.0
 73
     1
 44
1.0
  0
MTEXT
  5
4F1
330
1F
100
AcDbEntity
  8
寸法
  6
Continuous
 62
     7
370
    70
100
AcDbMText
 10
-1862.691741501783
 20
-184.0709996945432
 30
0.0
 40
57.14999999999999
 41
412.5
 46
0.0
 71
     7
 72
     1
  1
{\fＭＳ ゴシック|b0|i0|c128|p49;ＤＨ＝1,983}
 11
6.123031769111886E-17
 21
1.0
 31
0.0
 73
     1
 44
1.0
  0
MTEXT
  5
4F2
330
1F
100
AcDbEntity
  8
寸法
  6
Continuous
 62
     7
370
   211
100
AcDbMText
 10
-554.4417415017846
 20
-1218.320999694542
 30
0.0
 40
57.15
 41
337.5
 46
0.0
 71
     7
 72
     1
  1
{\fＭＳ ゴシック|b0|i0|c128|p49;ＤＷ＝810}
 73
     1
 44
1.0
  0
MTEXT
  5
4F3
330
1F
100
AcDbEntity
  8
寸法
  6
Continuous
 62
     7
370
   211
100
AcDbMText
 10
255.5582584982154
 20
-1218.320999694542
 30
0.0
 40
57.15000000000001
 41
337.5000000000001
 46
0.0
 71
     7
 72
     1
  1
{\fＭＳ ゴシック|b0|i0|c128|p49;ＤＷ＝810}
 73
     1
 44
1.0
  0
MTEXT
  5
4F4
330
1F
100
AcDbEntity
  8
寸法
  6
Continuous
 62
     7
370
   211
100
AcDbMText
 10
-186.9417415017845
 20
-1418.320999694543
 30
0.0
 40
57.14999999999999
 41
412.5
 46
0.0
 71
     7
 72
     1
  1
{\fＭＳ ゴシック|b0|i0|c128|p49;枠内＝3,174}
 73
     1
 44
1.0
  0
MTEXT
  5
4F5
330
1F
100
AcDbEntity
  8
寸法
  6
Continuous
 62
     7
370
   211
100
AcDbMText
 10
-186.9417415017845
 20
-1618.320999694543
 30
0.0
 40
57.14999999999999
 41
412.5
 46
0.0
 71
     7
 72
     1
  1
{\fＭＳ ゴシック|b0|i0|c128|p49;枠外＝3,234}
 73
     1
 44
1.0
  0
ENDSEC
  0
SECTION
  2
OBJECTS
  0
DICTIONARY
  5
C
330
0
100
AcDbDictionary
281
     1
  3
ACAD_GROUP
350
D
  3
ACAD_LAYOUT
350
1A
  3
ACAD_MATERIAL
350
3B
  3
ACAD_MLEADERSTYLE
350
4F7
  3
ACAD_MLINESTYLE
350
17
  3
ACAD_PLOTSETTINGS
350
19
  3
ACAD_PLOTSTYLENAME
350
E
  3
ACAD_TABLESTYLE
350
4F6
  3
ACAD_VISUALSTYLE
350
2A
  0
DICTIONARY
  5
D
102
{ACAD_REACTORS
330
C
102
}
330
C
100
AcDbDictionary
281
     1
  0
DICTIONARY
  5
1A
102
{ACAD_REACTORS
330
C
102
}
330
C
100
AcDbDictionary
281
     1
  3
Layout1
350
1E
  3
Layout2
350
26
  3
Model
350
22
  0
DICTIONARY
  5
3B
102
{ACAD_REACTORS
330
C
102
}
330
C
100
AcDbDictionary
281
     1
  3
ByBlock
350
3D
  3
ByLayer
350
3C
  3
Global
350
3E
  0
DICTIONARY
  5
4F7
102
{ACAD_REACTORS
330
C
102
}
330
C
100
AcDbDictionary
281
     1
  0
DICTIONARY
  5
17
102
{ACAD_REACTORS
330
C
102
}
330
C
100
AcDbDictionary
281
     1
  3
Standard
350
18
  0
DICTIONARY
  5
19
102
{ACAD_REACTORS
330
C
102
}
330
C
100
AcDbDictionary
281
     1
  0
ACDBDICTIONARYWDFLT
  5
E
102
{ACAD_REACTORS
330
C
102
}
330
C
100
AcDbDictionary
281
     1
  3
Normal
350
F
100
AcDbDictionaryWithDefault
340
F
  0
DICTIONARY
  5
4F6
102
{ACAD_REACTORS
330
C
102
}
330
C
100
AcDbDictionary
281
     1
  0
DICTIONARY
  5
2A
102
{ACAD_REACTORS
330
C
102
}
330
C
100
AcDbDictionary
281
     1
  3
2dWireframe
350
2F
  3
3D Hidden
350
31
  3
3dWireframe
350
30
  3
Basic
350
32
  3
Brighten
350
36
  3
ColorChange
350
3A
  3
Conceptual
350
34
  3
Dim
350
35
  3
Facepattern
350
39
  3
Flat
350
2B
  3
FlatWithEdges
350
2C
  3
Gouraud
350
2D
  3
GouraudWithEdges
350
2E
  3
Linepattern
350
38
  3
Realistic
350
33
  3
Thicken
350
37
  0
LAYOUT
  5
1E
102
{ACAD_REACTORS
330
1A
102
}
330
1A
100
AcDbPlotSettings
  1

  2
none_device
  4

  6

 40
0.0
 41
0.0
 42
0.0
 43
0.0
 44
0.0
 45
0.0
 46
0.0
 47
0.0
 48
0.0
 49
0.0
140
0.0
141
0.0
142
1.0
143
1.0
 70
   688
 72
     0
 73
     0
 74
     5
  7

 75
    16
 76
     0
 77
     5
 78
   300
147
1.0
148
0.0
149
0.0
100
AcDbLayout
  1
Layout1
 70
     1
 71
     1
 10
0.0
 20
0.0
 11
420.0
 21
297.0
 12
0.0
 22
0.0
 32
0.0
 14
1.000000000000000E+20
 24
1.000000000000000E+20
 34
1.000000000000000E+20
 15
-1.000000000000000E+20
 25
-1.000000000000000E+20
 35
-1.000000000000000E+20
146
0.0
 13
0.0
 23
0.0
 33
0.0
 16
1.0
 26
0.0
 36
0.0
 17
0.0
 27
1.0
 37
0.0
 76
     0
330
1B
  0
LAYOUT
  5
26
102
{ACAD_REACTORS
330
1A
102
}
330
1A
100
AcDbPlotSettings
  1

  2
none_device
  4

  6

 40
0.0
 41
0.0
 42
0.0
 43
0.0
 44
0.0
 45
0.0
 46
0.0
 47
0.0
 48
0.0
 49
0.0
140
0.0
141
0.0
142
1.0
143
1.0
 70
   688
 72
     0
 73
     0
 74
     5
  7

 75
    16
 76
     0
 77
     5
 78
   300
147
1.0
148
0.0
149
0.0
100
AcDbLayout
  1
Layout2
 70
     1
 71
     2
 10
0.0
 20
0.0
 11
0.0
 21
0.0
 12
0.0
 22
0.0
 32
0.0
 14
0.0
 24
0.0
 34
0.0
 15
0.0
 25
0.0
 35
0.0
146
0.0
 13
0.0
 23
0.0
 33
0.0
 16
1.0
 26
0.0
 36
0.0
 17
0.0
 27
1.0
 37
0.0
 76
     0
330
23
  0
LAYOUT
  5
22
102
{ACAD_REACTORS
330
1A
102
}
330
1A
100
AcDbPlotSettings
  1

  2
none_device
  4

  6

 40
0.0
 41
0.0
 42
0.0
 43
0.0
 44
0.0
 45
0.0
 46
0.0
 47
0.0
 48
0.0
 49
0.0
140
0.0
141
0.0
142
1.0
143
1.0
 70
  1712
 72
     0
 73
     0
 74
     0
  7

 75
     0
 76
     0
 77
     5
 78
   300
147
1.0
148
0.0
149
0.0
100
AcDbLayout
  1
Model
 70
     1
 71
     0
 10
-4455.0
 20
-3150.0
 11
4455.0
 21
3150.0
 12
0.0
 22
0.0
 32
0.0
 14
-4455.0
 24
-3150.0
 34
0.0
 15
4455.0
 25
3150.0
 35
0.0
146
0.0
 13
0.0
 23
0.0
 33
0.0
 16
1.0
 26
0.0
 36
0.0
 17
0.0
 27
1.0
 37
0.0
 76
     0
330
1F
331
29
  0
MATERIAL
  5
3D
102
{ACAD_REACTORS
330
3B
102
}
330
3B
100
AcDbMaterial
  1
ByBlock
 72
     1
 94
      127
  0
MATERIAL
  5
3C
102
{ACAD_REACTORS
330
3B
102
}
330
3B
100
AcDbMaterial
  1
ByLayer
 72
     1
 94
      127
  0
MATERIAL
  5
3E
102
{ACAD_REACTORS
330
3B
102
}
330
3B
100
AcDbMaterial
  1
Global
 72
     1
 94
      127
  0
MLINESTYLE
  5
18
102
{ACAD_REACTORS
330
17
102
}
330
17
100
AcDbMlineStyle
  2
Standard
 70
     0
  3

 62
   256
 51
90.0
 52
90.0
 71
     2
 49
0.5
 62
   256
  6
BYLAYER
 49
-0.5
 62
   256
  6
BYLAYER
  0
ACDBPLACEHOLDER
  5
F
102
{ACAD_REACTORS
330
E
102
}
330
E
  0
VISUALSTYLE
  5
2F
102
{ACAD_REACTORS
330
2A
102
}
330
2A
100
AcDbVisualStyle
  2
2dWireframe
 70
     4
177
     2
291
     0
 71
     0
176
     1
 72
     2
176
     1
 73
     0
176
     1
 90
        0
176
     1
 40
-0.6
176
     1
 41
-30.0
176
     1
 62
     5
 63
     7
421
 16777215
176
     1
 74
     1
176
     1
 91
        4
176
     1
 64
     7
176
     1
 65
   257
176
     1
 75
     1
176
     1
175
     1
176
     1
 42
1.0
176
     1
 92
        0
176
     1
 66
   257
176
     1
 43
1.0
176
     1
 76
     1
176
     1
 77
     6
176
     1
 78
     2
176
     1
 67
     7
176
     1
 79
     5
176
     1
170
     0
176
     1
171
     0
176
     1
290
     0
176
     1
 93
        1
176
     1
 44
0.0
176
     1
173
     0
176
     1
  0
VISUALSTYLE
  5
31
102
{ACAD_REACTORS
330
2A
102
}
330
2A
100
AcDbVisualStyle
  2
3D Hidden
 70
     6
177
     2
291
     0
 71
     1
176
     1
 72
     2
176
     1
 73
     2
176
     1
 90
        0
176
     1
 40
-0.6
176
     1
 41
-30.0
176
     1
 62
     5
 63
     7
421
 16777215
176
     1
 74
     2
176
     1
 91
        2
176
     1
 64
     7
176
     1
 65
   257
176
     1
 75
     2
176
     1
175
     1
176
     1
 42
40.0
176
     1
 92
        0
176
     1
 66
   257
176
     1
 43
1.0
176
     1
 76
     1
176
     1
 77
     6
176
     1
 78
     2
176
     1
 67
     7
176
     1
 79
     3
176
     1
170
     0
176
     1
171
     0
176
     1
290
     0
176
     1
 93
        1
176
     1
 44
0.0
176
     1
173
     0
176
     1
  0
VISUALSTYLE
  5
30
102
{ACAD_REACTORS
330
2A
102
}
330
2A
100
AcDbVisualStyle
  2
3dWireframe
 70
     5
177
     2
291
     0
 71
     0
176
     1
 72
     2
176
     1
 73
     0
176
     1
 90
        0
176
     1
 40
-0.6
176
     1
 41
-30.0
176
     1
 62
     5
 63
     7
421
 16777215
176
     1
 74
     1
176
     1
 91
        4
176
     1
 64
     7
176
     1
 65
   257
176
     1
 75
     1
176
     1
175
     1
176
     1
 42
1.0
176
     1
 92
        0
176
     1
 66
   257
176
     1
 43
1.0
176
     1
 76
     1
176
     1
 77
     6
176
     1
 78
     2
176
     1
 67
     7
176
     1
 79
     5
176
     1
170
     0
176
     1
171
     0
176
     1
290
     0
176
     1
 93
        1
176
     1
 44
0.0
176
     1
173
     0
176
     1
  0
VISUALSTYLE
  5
32
102
{ACAD_REACTORS
330
2A
102
}
330
2A
100
AcDbVisualStyle
  2
Basic
 70
     7
177
     2
291
     1
 71
     1
176
     1
 72
     0
176
     1
 73
     1
176
     1
 90
        0
176
     1
 40
-0.6
176
     1
 41
-30.0
176
     1
 62
     5
 63
     7
421
 16777215
176
     1
 74
     0
176
     1
 91
        4
176
     1
 64
     7
176
     1
 65
   257
176
     1
 75
     1
176
     1
175
     1
176
     1
 42
1.0
176
     1
 92
        8
176
     1
 66
     7
176
     1
 43
1.0
176
     1
 76
     1
176
     1
 77
     6
176
     1
 78
     2
176
     1
 67
     7
176
     1
 79
     5
176
     1
170
     0
176
     1
171
     0
176
     1
290
     0
176
     1
 93
        1
176
     1
 44
0.0
176
     1
173
     0
176
     1
  0
VISUALSTYLE
  5
36
102
{ACAD_REACTORS
330
2A
102
}
330
2A
100
AcDbVisualStyle
  2
Brighten
 70
    12
177
     2
291
     1
 71
     2
176
     1
 72
     2
176
     1
 73
     0
176
     1
 90
        0
176
     1
 40
-0.6
176
     1
 41
-30.0
176
     1
 62
     5
 63
     7
421
 16777215
176
     1
 74
     1
176
     1
 91
        4
176
     1
 64
     7
176
     1
 65
   257
176
     1
 75
     1
176
     1
175
     1
176
     1
 42
1.0
176
     1
 92
        8
176
     1
 66
     7
176
     1
 43
1.0
176
     1
 76
     1
176
     1
 77
     6
176
     1
 78
     2
176
     1
 67
     7
176
     1
 79
     5
176
     1
170
     0
176
     1
171
     0
176
     1
290
     0
176
     1
 93
        1
176
     1
 44
50.0
176
     1
173
     0
176
     1
  0
VISUALSTYLE
  5
3A
102
{ACAD_REACTORS
330
2A
102
}
330
2A
100
AcDbVisualStyle
  2
ColorChange
 70
    16
177
     2
291
     1
 71
     2
176
     1
 72
     2
176
     1
 73
     3
176
     1
 90
        0
176
     1
 40
-0.6
176
     1
 41
-30.0
176
     1
 62
     5
 63
     8
421
  8421504
176
     1
 74
     1
176
     1
 91
        4
176
     1
 64
     7
176
     1
 65
   257
176
     1
 75
     1
176
     1
175
     1
176
     1
 42
1.0
176
     1
 92
        8
176
     1
 66
     8
424
  8421504
176
     1
 43
1.0
176
     1
 76
     1
176
     1
 77
     6
176
     1
 78
     2
176
     1
 67
     7
176
     1
 79
     5
176
     1
170
     0
176
     1
171
     0
176
     1
290
     0
176
     1
 93
        1
176
     1
 44
0.0
176
     1
173
     0
176
     1
  0
VISUALSTYLE
  5
34
102
{ACAD_REACTORS
330
2A
102
}
330
2A
100
AcDbVisualStyle
  2
Conceptual
 70
     9
177
     2
291
     0
 71
     3
176
     1
 72
     2
176
     1
 73
     0
176
     1
 90
        0
176
     1
 40
-0.6
176
     1
 41
-30.0
176
     1
 62
     5
 63
     7
421
 16777215
176
     1
 74
     2
176
     1
 91
        2
176
     1
 64
     7
176
     1
 65
   257
176
     1
 75
     1
176
     1
175
     1
176
     1
 42
40.0
176
     1
 92
        8
176
     1
 66
     7
176
     1
 43
1.0
176
     1
 76
     1
176
     1
 77
     6
176
     1
 78
     2
176
     1
 67
     7
176
     1
 79
     3
176
     1
170
     0
176
     1
171
     0
176
     1
290
     0
176
     1
 93
        1
176
     1
 44
0.0
176
     1
173
     0
176
     1
  0
VISUALSTYLE
  5
35
102
{ACAD_REACTORS
330
2A
102
}
330
2A
100
AcDbVisualStyle
  2
Dim
 70
    11
177
     2
291
     1
 71
     2
176
     1
 72
     2
176
     1
 73
     0
176
     1
 90
        0
176
     1
 40
-0.6
176
     1
 41
-30.0
176
     1
 62
     5
 63
     7
421
 16777215
176
     1
 74
     1
176
     1
 91
        4
176
     1
 64
     7
176
     1
 65
   257
176
     1
 75
     1
176
     1
175
     1
176
     1
 42
1.0
176
     1
 92
        8
176
     1
 66
     7
176
     1
 43
1.0
176
     1
 76
     1
176
     1
 77
     6
176
     1
 78
     2
176
     1
 67
     7
176
     1
 79
     5
176
     1
170
     0
176
     1
171
     0
176
     1
290
     0
176
     1
 93
        1
176
     1
 44
-50.0
176
     1
173
     0
176
     1
  0
VISUALSTYLE
  5
39
102
{ACAD_REACTORS
330
2A
102
}
330
2A
100
AcDbVisualStyle
  2
Facepattern
 70
    15
177
     2
291
     1
 71
     2
176
     1
 72
     2
176
     1
 73
     0
176
     1
 90
        0
176
     1
 40
-0.6
176
     1
 41
-30.0
176
     1
 62
     5
 63
     7
421
 16777215
176
     1
 74
     1
176
     1
 91
        4
176
     1
 64
     7
176
     1
 65
   257
176
     1
 75
     1
176
     1
175
     1
176
     1
 42
1.0
176
     1
 92
        8
176
     1
 66
     7
176
     1
 43
1.0
176
     1
 76
     1
176
     1
 77
     6
176
     1
 78
     2
176
     1
 67
     7
176
     1
 79
     5
176
     1
170
     0
176
     1
171
     0
176
     1
290
     0
176
     1
 93
        1
176
     1
 44
0.0
176
     1
173
     0
176
     1
  0
VISUALSTYLE
  5
2B
102
{ACAD_REACTORS
330
2A
102
}
330
2A
100
AcDbVisualStyle
  2
Flat
 70
     0
177
     2
291
     1
 71
     2
176
     1
 72
     1
176
     1
 73
     1
176
     1
 90
        2
176
     1
 40
-0.6
176
     1
 41
30.0
176
     1
 62
     5
 63
     7
421
 16777215
176
     1
 74
     0
176
     1
 91
        4
176
     1
 64
     7
176
     1
 65
   257
176
     1
 75
     1
176
     1
175
     1
176
     1
 42
1.0
176
     1
 92
        8
176
     1
 66
     7
176
     1
 43
1.0
176
     1
 76
     1
176
     1
 77
     6
176
     1
 78
     2
176
     1
 67
     7
176
     1
 79
     5
176
     1
170
     0
176
     1
171
     0
176
     1
290
     0
176
     1
 93
       13
176
     1
 44
0.0
176
     1
173
     0
176
     1
  0
VISUALSTYLE
  5
2C
102
{ACAD_REACTORS
330
2A
102
}
330
2A
100
AcDbVisualStyle
  2
FlatWithEdges
 70
     1
177
     2
291
     1
 71
     2
176
     1
 72
     1
176
     1
 73
     1
176
     1
 90
        2
176
     1
 40
-0.6
176
     1
 41
30.0
176
     1
 62
     5
 63
     7
421
 16777215
176
     1
 74
     1
176
     1
 91
        4
176
     1
 64
     7
176
     1
 65
   257
176
     1
 75
     1
176
     1
175
     1
176
     1
 42
1.0
176
     1
 92
        0
176
     1
 66
   257
176
     1
 43
1.0
176
     1
 76
     1
176
     1
 77
     6
176
     1
 78
     2
176
     1
 67
     7
176
     1
 79
     5
176
     1
170
     0
176
     1
171
     0
176
     1
290
     0
176
     1
 93
       13
176
     1
 44
0.0
176
     1
173
     0
176
     1
  0
VISUALSTYLE
  5
2D
102
{ACAD_REACTORS
330
2A
102
}
330
2A
100
AcDbVisualStyle
  2
Gouraud
 70
     2
177
     2
291
     1
 71
     2
176
     1
 72
     2
176
     1
 73
     1
176
     1
 90
        2
176
     1
 40
-0.6
176
     1
 41
30.0
176
     1
 62
     5
 63
     7
421
 16777215
176
     1
 74
     0
176
     1
 91
        4
176
     1
 64
     7
176
     1
 65
   257
176
     1
 75
     1
176
     1
175
     1
176
     1
 42
1.0
176
     1
 92
        0
176
     1
 66
     7
176
     1
 43
1.0
176
     1
 76
     1
176
     1
 77
     6
176
     1
 78
     2
176
     1
 67
     7
176
     1
 79
     5
176
     1
170
     0
176
     1
171
     0
176
     1
290
     0
176
     1
 93
       13
176
     1
 44
0.0
176
     1
173
     0
176
     1
  0
VISUALSTYLE
  5
2E
102
{ACAD_REACTORS
330
2A
102
}
330
2A
100
AcDbVisualStyle
  2
GouraudWithEdges
 70
     3
177
     2
291
     1
 71
     2
176
     1
 72
     2
176
     1
 73
     1
176
     1
 90
        2
176
     1
 40
-0.6
176
     1
 41
30.0
176
     1
 62
     5
 63
     7
421
 16777215
176
     1
 74
     1
176
     1
 91
        4
176
     1
 64
     7
176
     1
 65
   257
176
     1
 75
     1
176
     1
175
     1
176
     1
 42
1.0
176
     1
 92
        0
176
     1
 66
   257
176
     1
 43
1.0
176
     1
 76
     1
176
     1
 77
     6
176
     1
 78
     2
176
     1
 67
     7
176
     1
 79
     5
176
     1
170
     0
176
     1
171
     0
176
     1
290
     0
176
     1
 93
       13
176
     1
 44
0.0
176
     1
173
     0
176
     1
  0
VISUALSTYLE
  5
38
102
{ACAD_REACTORS
330
2A
102
}
330
2A
100
AcDbVisualStyle
  2
Linepattern
 70
    14
177
     2
291
     1
 71
     2
176
     1
 72
     2
176
     1
 73
     0
176
     1
 90
        0
176
     1
 40
-0.6
176
     1
 41
-30.0
176
     1
 62
     5
 63
     7
421
 16777215
176
     1
 74
     1
176
     1
 91
        4
176
     1
 64
     7
176
     1
 65
   257
176
     1
 75
     7
176
     1
175
     7
176
     1
 42
1.0
176
     1
 92
        8
176
     1
 66
     7
176
     1
 43
1.0
176
     1
 76
     1
176
     1
 77
     6
176
     1
 78
     2
176
     1
 67
     7
176
     1
 79
     5
176
     1
170
     0
176
     1
171
     0
176
     1
290
     0
176
     1
 93
        1
176
     1
 44
0.0
176
     1
173
     0
176
     1
  0
VISUALSTYLE
  5
33
102
{ACAD_REACTORS
330
2A
102
}
330
2A
100
AcDbVisualStyle
  2
Realistic
 70
     8
177
     2
291
     0
 71
     2
176
     1
 72
     2
176
     1
 73
     0
176
     1
 90
        0
176
     1
 40
-0.6
176
     1
 41
-30.0
176
     1
 62
     5
 63
     7
421
 16777215
176
     1
 74
     1
176
     1
 91
        0
176
     1
 64
     7
176
     1
 65
   257
176
     1
 75
     1
176
     1
175
     1
176
     1
 42
1.0
176
     1
 92
        8
176
     1
 66
     8
424
  7895160
176
     1
 43
1.0
176
     1
 76
     1
176
     1
 77
     6
176
     1
 78
     2
176
     1
 67
     7
176
     1
 79
     5
176
     1
170
     0
176
     1
171
     0
176
     1
290
     0
176
     1
 93
       13
176
     1
 44
0.0
176
     1
173
     0
176
     1
  0
VISUALSTYLE
  5
37
102
{ACAD_REACTORS
330
2A
102
}
330
2A
100
AcDbVisualStyle
  2
Thicken
 70
    13
177
     2
291
     1
 71
     2
176
     1
 72
     2
176
     1
 73
     0
176
     1
 90
        0
176
     1
 40
-0.6
176
     1
 41
-30.0
176
     1
 62
     5
 63
     7
421
 16777215
176
     1
 74
     1
176
     1
 91
        4
176
     1
 64
     7
176
     1
 65
   257
176
     1
 75
     1
176
     1
175
     1
176
     1
 42
1.0
176
     1
 92
       12
176
     1
 66
     7
176
     1
 43
1.0
176
     1
 76
     1
176
     1
 77
     6
176
     1
 78
     2
176
     1
 67
     7
176
     1
 79
     5
176
     1
170
     0
176
     1
171
     0
176
     1
290
     0
176
     1
 93
        1
176
     1
 44
0.0
176
     1
173
     0
176
     1
  0
ENDSEC
  0
EOF
