  0
SECTION
  2
HEADER
  9
$ACADVER
  1
AC1024
  9
$ACADMAINTVER
 70
     6
  9
$DWGCODEPAGE
  3
ANSI_932
  9
$INSBASE
 10
0.0
 20
0.0
 30
0.0
  9
$EXTMIN
 10
-4455.0
 20
-3150.0
 30
0.0
  9
$EXTMAX
 10
4455.0
 20
3150.0
 30
0.0
  9
$LIMMIN
 10
-4455.0
 20
-3150.0
  9
$LIMMAX
 10
4455.0
 20
3150.0
  9
$ORTHOMODE
 70
     0
  9
$REGENMODE
 70
     1
  9
$FILLMODE
 70
     1
  9
$QTEXTMODE
 70
     0
  9
$MIRRTEXT
 70
     1
  9
$LTSCALE
 40
30.0
  9
$ATTMODE
 70
     1
  9
$TEXTSIZE
 40
2.5
  9
$TRACEWID
 40
1.0
  9
$TEXTSTYLE
  7
Standard
  9
$CLAYER
  8
0
  9
$CELTYPE
  6
ByLayer
  9
$CECOLOR
 62
   256
  9
$CELTSCALE
 40
1.0
  9
$DISPSILH
 70
     0
  9
$DIMSCALE
 40
1.0
  9
$DIMASZ
 40
2.5
  9
$DIMEXO
 40
0.625
  9
$DIMDLI
 40
3.75
  9
$DIMRND
 40
0.0
  9
$DIMDLE
 40
0.0
  9
$DIMEXE
 40
1.25
  9
$DIMTP
 40
0.0
  9
$DIMTM
 40
0.0
  9
$DIMTXT
 40
2.5
  9
$DIMCEN
 40
2.5
  9
$DIMTSZ
 40
0.0
  9
$DIMTOL
 70
     0
  9
$DIMLIM
 70
     0
  9
$DIMTIH
 70
     0
  9
$DIMTOH
 70
     0
  9
$DIMSE1
 70
     0
  9
$DIMSE2
 70
     0
  9
$DIMTAD
 70
     1
  9
$DIMZIN
 70
     8
  9
$DIMBLK
  1

  9
$DIMASO
 70
     1
  9
$DIMSHO
 70
     1
  9
$DIMPOST
  1

  9
$DIMAPOST
  1

  9
$DIMALT
 70
     0
  9
$DIMALTD
 70
     3
  9
$DIMALTF
 40
0.03937007874016
  9
$DIMLFAC
 40
1.0
  9
$DIMTOFL
 70
     1
  9
$DIMTVP
 40
0.0
  9
$DIMTIX
 70
     0
  9
$DIMSOXD
 70
     0
  9
$DIMSAH
 70
     0
  9
$DIMBLK1
  1

  9
$DIMBLK2
  1

  9
$DIMSTYLE
  2
ISO-25
  9
$DIMCLRD
 70
     0
  9
$DIMCLRE
 70
     0
  9
$DIMCLRT
 70
     0
  9
$DIMTFAC
 40
1.0
  9
$DIMGAP
 40
0.625
  9
$DIMJUST
 70
     0
  9
$DIMSD1
 70
     0
  9
$DIMSD2
 70
     0
  9
$DIMTOLJ
 70
     0
  9
$DIMTZIN
 70
     8
  9
$DIMALTZ
 70
     0
  9
$DIMALTTZ
 70
     0
  9
$DIMUPT
 70
     0
  9
$DIMDEC
 70
     2
  9
$DIMTDEC
 70
     2
  9
$DIMALTU
 70
     2
  9
$DIMALTTD
 70
     3
  9
$DIMTXSTY
  7
Standard
  9
$DIMAUNIT
 70
     0
  9
$DIMADEC
 70
     0
  9
$DIMALTRND
 40
0.0
  9
$DIMAZIN
 70
     0
  9
$DIMDSEP
 70
    44
  9
$DIMATFIT
 70
     3
  9
$DIMFRAC
 70
     0
  9
$DIMLDRBLK
  1

  9
$DIMLUNIT
 70
     2
  9
$DIMLWD
 70
    -2
  9
$DIMLWE
 70
    -2
  9
$DIMTMOVE
 70
     0
  9
$DIMFXL
 40
1.0
  9
$DIMFXLON
 70
     0
  9
$DIMJOGANG
 40
0.7853981633974483
  9
$DIMTFILL
 70
     0
  9
$DIMTFILLCLR
 70
     0
  9
$DIMARCSYM
 70
     0
  9
$DIMLTYPE
  6

  9
$DIMLTEX1
  6

  9
$DIMLTEX2
  6

  9
$DIMTXTDIRECTION
 70
     0
  9
$LUNITS
 70
     2
  9
$LUPREC
 70
     4
  9
$SKETCHINC
 40
1.0
  9
$FILLETRAD
 40
10.0
  9
$AUNITS
 70
     0
  9
$AUPREC
 70
     0
  9
$MENU
  1
.
  9
$ELEVATION
 40
0.0
  9
$PELEVATION
 40
0.0
  9
$THICKNESS
 40
0.0
  9
$LIMCHECK
 70
     0
  9
$CHAMFERA
 40
10.0
  9
$CHAMFERB
 40
10.0
  9
$CHAMFERC
 40
20.0
  9
$CHAMFERD
 40
0.0
  9
$SKPOLY
 70
     0
  9
$TDCREATE
 40
2457953.400299768
  9
$TDUCREATE
 40
2457953.025299768
  9
$TDUPDATE
 40
2457953.40029978
  9
$TDUUPDATE
 40
2457953.02529978
  9
$TDINDWG
 40
0.0000000116
  9
$TDUSRTIMER
 40
0.0000000116
  9
$USRTIMER
 70
     1
  9
$ANGBASE
 50
0.0
  9
$ANGDIR
 70
     0
  9
$PDMODE
 70
     0
  9
$PDSIZE
 40
0.0
  9
$PLINEWID
 40
0.0
  9
$SPLFRAME
 70
     0
  9
$SPLINETYPE
 70
     6
  9
$SPLINESEGS
 70
     8
  9
$HANDSEED
  5
260
  9
$SURFTAB1
 70
     6
  9
$SURFTAB2
 70
     6
  9
$SURFTYPE
 70
     6
  9
$SURFU
 70
     6
  9
$SURFV
 70
     6
  9
$UCSBASE
  2

  9
$UCSNAME
  2

  9
$UCSORG
 10
0.0
 20
0.0
 30
0.0
  9
$UCSXDIR
 10
1.0
 20
0.0
 30
0.0
  9
$UCSYDIR
 10
0.0
 20
1.0
 30
0.0
  9
$UCSORTHOREF
  2

  9
$UCSORTHOVIEW
 70
     0
  9
$UCSORGTOP
 10
0.0
 20
0.0
 30
0.0
  9
$UCSORGBOTTOM
 10
0.0
 20
0.0
 30
0.0
  9
$UCSORGLEFT
 10
0.0
 20
0.0
 30
0.0
  9
$UCSORGRIGHT
 10
0.0
 20
0.0
 30
0.0
  9
$UCSORGFRONT
 10
0.0
 20
0.0
 30
0.0
  9
$UCSORGBACK
 10
0.0
 20
0.0
 30
0.0
  9
$PUCSBASE
  2

  9
$PUCSNAME
  2

  9
$PUCSORG
 10
0.0
 20
0.0
 30
0.0
  9
$PUCSXDIR
 10
1.0
 20
0.0
 30
0.0
  9
$PUCSYDIR
 10
0.0
 20
1.0
 30
0.0
  9
$PUCSORTHOREF
  2

  9
$PUCSORTHOVIEW
 70
     0
  9
$PUCSORGTOP
 10
0.0
 20
0.0
 30
0.0
  9
$PUCSORGBOTTOM
 10
0.0
 20
0.0
 30
0.0
  9
$PUCSORGLEFT
 10
0.0
 20
0.0
 30
0.0
  9
$PUCSORGRIGHT
 10
0.0
 20
0.0
 30
0.0
  9
$PUCSORGFRONT
 10
0.0
 20
0.0
 30
0.0
  9
$PUCSORGBACK
 10
0.0
 20
0.0
 30
0.0
  9
$USERI1
 70
     0
  9
$USERI2
 70
     0
  9
$USERI3
 70
     0
  9
$USERI4
 70
     0
  9
$USERI5
 70
     0
  9
$USERR1
 40
0.0
  9
$USERR2
 40
0.0
  9
$USERR3
 40
0.0
  9
$USERR4
 40
0.0
  9
$USERR5
 40
0.0
  9
$WORLDVIEW
 70
     1
  9
$SHADEDGE
 70
     3
  9
$SHADEDIF
 70
    70
  9
$TILEMODE
 70
     1
  9
$MAXACTVP
 70
    64
  9
$PINSBASE
 10
0.0
 20
0.0
 30
0.0
  9
$PLIMCHECK
 70
     0
  9
$PEXTMIN
 10
1.000000000000000E+20
 20
1.000000000000000E+20
 30
1.000000000000000E+20
  9
$PEXTMAX
 10
-1.000000000000000E+20
 20
-1.000000000000000E+20
 30
-1.000000000000000E+20
  9
$PLIMMIN
 10
0.0
 20
0.0
  9
$PLIMMAX
 10
420.0
 20
297.0
  9
$UNITMODE
 70
     0
  9
$VISRETAIN
 70
     1
  9
$PLINEGEN
 70
     0
  9
$PSLTSCALE
 70
     1
  9
$TREEDEPTH
 70
  3020
  9
$CMLSTYLE
  2
Standard
  9
$CMLJUST
 70
     0
  9
$CMLSCALE
 40
20.0
  9
$PROXYGRAPHICS
 70
     1
  9
$MEASUREMENT
 70
     1
  9
$CELWEIGHT
370
    -1
  9
$ENDCAPS
280
     0
  9
$JOINSTYLE
280
     0
  9
$LWDISPLAY
290
     0
  9
$INSUNITS
 70
     4
  9
$HYPERLINKBASE
  1

  9
$STYLESHEET
  1

  9
$XEDIT
290
     1
  9
$CEPSNTYPE
380
     0
  9
$PSTYLEMODE
290
     1
  9
$FINGERPRINTGUID
  2
{B043C277-9346-457A-97E8-E094D4FA6176}
  9
$VERSIONGUID
  2
{FAEB1C32-E019-11D5-929B-00C0DF256EC4}
  9
$EXTNAMES
290
     1
  9
$PSVPSCALE
 40
0.0
  9
$OLESTARTUP
290
     0
  9
$SORTENTS
280
   127
  9
$INDEXCTL
280
     0
  9
$HIDETEXT
280
     1
  9
$XCLIPFRAME
280
     2
  9
$HALOGAP
280
     0
  9
$OBSCOLOR
 70
   257
  9
$OBSLTYPE
280
     0
  9
$INTERSECTIONDISPLAY
280
     0
  9
$INTERSECTIONCOLOR
 70
   257
  9
$DIMASSOC
280
     2
  9
$PROJECTNAME
  1

  9
$CAMERADISPLAY
290
     0
  9
$LENSLENGTH
 40
50.0
  9
$CAMERAHEIGHT
 40
0.0
  9
$STEPSPERSEC
 40
2.0
  9
$STEPSIZE
 40
6.0
  9
$3DDWFPREC
 40
2.0
  9
$PSOLWIDTH
 40
5.0
  9
$PSOLHEIGHT
 40
80.0
  9
$LOFTANG1
 40
1.570796326794897
  9
$LOFTANG2
 40
1.570796326794897
  9
$LOFTMAG1
 40
0.0
  9
$LOFTMAG2
 40
0.0
  9
$LOFTPARAM
 70
     7
  9
$LOFTNORMALS
280
     1
  9
$LATITUDE
 40
37.795
  9
$LONGITUDE
 40
-122.394
  9
$NORTHDIRECTION
 40
0.0
  9
$TIMEZONE
 70
 -8000
  9
$LIGHTGLYPHDISPLAY
280
     1
  9
$TILEMODELIGHTSYNCH
280
     1
  9
$SOLIDHIST
280
     1
  9
$SHOWHIST
280
     1
  9
$DWFFRAME
280
     2
  9
$DGNFRAME
280
     2
  9
$REALWORLDSCALE
290
     1
  9
$INTERFERECOLOR
 62
   256
  9
$CSHADOW
280
     0
  9
$SHADOWPLANELOCATION
 40
0.0
  0
ENDSEC
  0
SECTION
  2
CLASSES
  0
CLASS
  1
ACDBDICTIONARYWDFLT
  2
AcDbDictionaryWithDefault
  3
ObjectDBX Classes
 90
        0
 91
        4
280
     0
281
     0
  0
CLASS
  1
VISUALSTYLE
  2
AcDbVisualStyle
  3
ObjectDBX Classes
 90
     4095
 91
        4
280
     0
281
     0
  0
CLASS
  1
MATERIAL
  2
AcDbMaterial
  3
ObjectDBX Classes
 90
     1153
 91
        4
280
     0
281
     0
  0
ENDSEC
  0
SECTION
  2
TABLES
  0
TABLE
  2
VPORT
  5
8
330
0
100
AcDbSymbolTable
 70
     1
  0
VPORT
  5
29
330
8
100
AcDbSymbolTableRecord
100
AcDbViewportTableRecord
  2
*Active
 70
     0
 10
0.0
 20
0.0
 11
1.0
 21
1.0
 12
0.0
 22
0.0
 13
0.0
 23
0.0
 14
10.0
 24
10.0
 15
10.0
 25
10.0
 16
0.0
 26
0.0
 36
1.0
 17
0.0
 27
0.0
 37
0.0
 40
6930.000000000001
 41
1.414285714285714
 42
50.0
 43
0.0
 44
0.0
 50
0.0
 51
0.0
 71
     0
 72
 10000
 73
     1
 74
     3
 75
     0
 76
     0
 77
     0
 78
     0
281
     0
 65
     1
110
0.0
120
0.0
130
0.0
111
1.0
121
0.0
131
0.0
112
0.0
122
1.0
132
0.0
 79
     0
146
0.0
 60
     3
 61
     5
292
     1
282
     1
141
0.0
142
0.0
 63
   250
  0
ENDTAB
  0
TABLE
  2
LTYPE
  5
5
330
0
100
AcDbSymbolTable
 70
     2
  0
LTYPE
  5
14
330
5
100
AcDbSymbolTableRecord
100
AcDbLinetypeTableRecord
  2
ByBlock
 70
     0
  3

 72
    65
 73
     0
 40
0.0
  0
LTYPE
  5
15
330
5
100
AcDbSymbolTableRecord
100
AcDbLinetypeTableRecord
  2
ByLayer
 70
     0
  3

 72
    65
 73
     0
 40
0.0
  0
LTYPE
  5
16
330
5
100
AcDbSymbolTableRecord
100
AcDbLinetypeTableRecord
  2
Continuous
 70
     0
  3
Solid line
 72
    65
 73
     0
 40
0.0
  0
LTYPE
  5
3F
330
5
100
AcDbSymbolTableRecord
100
AcDbLinetypeTableRecord
  2
JWW_DASHED1
 70
     0
  3
-  --  --  --  --  --  --  --  -
 72
    65
 73
     2
 40
1.693333333333333
 49
0.8466666666666667
 74
     0
 49
-0.8466666666666667
 74
     0
  0
ENDTAB
  0
TABLE
  2
LAYER
  5
2
330
0
100
AcDbSymbolTable
 70
     4
  0
LAYER
  5
10
330
2
100
AcDbSymbolTableRecord
100
AcDbLayerTableRecord
  2
0
 70
     0
 62
     7
  6
Continuous
370
    -3
390
F
347
3E
  0
LAYER
  5
40
330
2
100
AcDbSymbolTableRecord
100
AcDbLayerTableRecord
  2
0-0
 70
     0
 62
     7
  6
Continuous
370
    -3
390
F
347
3E
  0
LAYER
  5
41
330
2
100
AcDbSymbolTableRecord
100
AcDbLayerTableRecord
  2
文字
 70
     0
 62
     7
  6
Continuous
370
    -3
390
F
347
3E
  0
LAYER
  5
42
330
2
100
AcDbSymbolTableRecord
100
AcDbLayerTableRecord
  2
寸法
 70
     0
 62
     7
  6
Continuous
370
    -3
390
F
347
3E
  0
ENDTAB
  0
TABLE
  2
STYLE
  5
3
330
0
100
AcDbSymbolTable
 70
     1
  0
STYLE
  5
11
330
3
100
AcDbSymbolTableRecord
100
AcDbTextStyleTableRecord
  2
Standard
 70
     0
 40
0.0
 41
1.0
 50
0.0
 71
     0
 42
2.5
  3
txt
  4

  0
ENDTAB
  0
TABLE
  2
VIEW
  5
6
330
0
100
AcDbSymbolTable
 70
     0
  0
ENDTAB
  0
TABLE
  2
UCS
  5
7
330
0
100
AcDbSymbolTable
 70
     0
  0
ENDTAB
  0
TABLE
  2
APPID
  5
9
330
0
100
AcDbSymbolTable
 70
     1
  0
APPID
  5
12
330
9
100
AcDbSymbolTableRecord
100
AcDbRegAppTableRecord
  2
ACAD
 70
     0
  0
ENDTAB
  0
TABLE
  2
DIMSTYLE
  5
A
330
0
100
AcDbSymbolTable
 70
     1
100
AcDbDimStyleTable
  0
DIMSTYLE
105
27
330
A
100
AcDbSymbolTableRecord
100
AcDbDimStyleTableRecord
  2
ISO-25
 70
     0
 41
2.5
 42
0.625
 43
3.75
 44
1.25
 73
     0
 74
     0
 77
     1
 78
     8
140
2.5
141
2.5
143
0.03937007874016
147
0.625
171
     3
172
     1
178
     0
271
     2
272
     2
274
     3
278
    44
283
     0
284
     8
340
11
  0
ENDTAB
  0
TABLE
  2
BLOCK_RECORD
  5
1
330
0
100
AcDbSymbolTable
 70
     1
  0
BLOCK_RECORD
  5
1F
330
1
100
AcDbSymbolTableRecord
100
AcDbBlockTableRecord
  2
*Model_Space
340
22
 70
     0
280
     1
281
     0
  0
BLOCK_RECORD
  5
1B
330
1
100
AcDbSymbolTableRecord
100
AcDbBlockTableRecord
  2
*Paper_Space
340
1E
 70
     0
280
     1
281
     0
  0
BLOCK_RECORD
  5
23
330
1
100
AcDbSymbolTableRecord
100
AcDbBlockTableRecord
  2
*Paper_Space0
340
26
 70
     0
280
     1
281
     0
  0
ENDTAB
  0
ENDSEC
  0
SECTION
  2
BLOCKS
  0
BLOCK
  5
20
330
1F
100
AcDbEntity
  8
0
100
AcDbBlockBegin
  2
*Model_Space
 70
     0
 10
0.0
 20
0.0
 30
0.0
  3
*Model_Space
  1

  0
ENDBLK
  5
21
330
1F
100
AcDbEntity
  8
0
100
AcDbBlockEnd
  0
BLOCK
  5
1C
330
1B
100
AcDbEntity
 67
     1
  8
0
100
AcDbBlockBegin
  2
*Paper_Space
 70
     0
 10
0.0
 20
0.0
 30
0.0
  3
*Paper_Space
  1

  0
ENDBLK
  5
1D
330
1B
100
AcDbEntity
 67
     1
  8
0
100
AcDbBlockEnd
  0
BLOCK
  5
24
330
23
100
AcDbEntity
  8
0
100
AcDbBlockBegin
  2
*Paper_Space0
 70
     0
 10
0.0
 20
0.0
 30
0.0
  3
*Paper_Space0
  1

  0
ENDBLK
  5
25
330
23
100
AcDbEntity
  8
0
100
AcDbBlockEnd
  0
ENDSEC
  0
SECTION
  2
ENTITIES
  0
LINE
  5
43
330
1F
100
AcDbEntity
  8
0-0
  6
Continuous
 62
    92
370
    13
100
AcDbLine
 10
-1541.105868667363
 20
-1237.683735615898
 30
0.0
 11
-1571.105868667363
 21
-1237.683735615898
 31
0.0
  0
LINE
  5
44
330
1F
100
AcDbEntity
  8
0-0
  6
Continuous
 62
    92
370
    13
100
AcDbLine
 10
1662.894131332637
 20
-1237.683735615898
 30
0.0
 11
1632.894131332637
 21
-1237.683735615898
 31
0.0
  0
LINE
  5
45
330
1F
100
AcDbEntity
  8
0-0
  6
Continuous
 62
    92
370
    13
100
AcDbLine
 10
-1541.105868667363
 20
767.3162643841017
 30
0.0
 11
1632.894131332637
 21
767.3162643841017
 31
0.0
  0
LINE
  5
46
330
1F
100
AcDbEntity
  8
0-0
  6
Continuous
 62
    92
370
    13
100
AcDbLine
 10
-1571.105868667363
 20
-1237.683735615898
 30
0.0
 11
-1571.105868667363
 21
797.3162643841017
 31
0.0
  0
LINE
  5
47
330
1F
100
AcDbEntity
  8
0-0
  6
Continuous
 62
    92
370
    13
100
AcDbLine
 10
1662.894131332637
 20
-1237.683735615898
 30
0.0
 11
1662.894131332637
 21
797.3162643841017
 31
0.0
  0
LINE
  5
48
330
1F
100
AcDbEntity
  8
0-0
  6
Continuous
 62
    92
370
    13
100
AcDbLine
 10
-1571.105868667363
 20
797.3162643841017
 30
0.0
 11
1662.894131332637
 21
797.3162643841017
 31
0.0
  0
LINE
  5
49
330
1F
100
AcDbEntity
  8
0-0
  6
Continuous
 62
    92
370
    13
100
AcDbLine
 10
-1541.105868667363
 20
-1237.683735615898
 30
0.0
 11
-1541.105868667363
 21
797.3162643841017
 31
0.0
  0
LINE
  5
4A
330
1F
100
AcDbEntity
  8
0-0
  6
Continuous
 62
    92
370
    13
100
AcDbLine
 10
1632.894131332637
 20
-1237.683735615898
 30
0.0
 11
1632.894131332637
 21
797.3162643841017
 31
0.0
  0
LINE
  5
4B
330
1F
100
AcDbEntity
  8
0-0
  6
Continuous
 62
    92
370
    13
100
AcDbLine
 10
825.8941313326376
 20
-1237.683735615899
 30
0.0
 11
855.8941313326376
 21
-1237.683735615899
 31
0.0
  0
LINE
  5
4C
330
1F
100
AcDbEntity
  8
0-0
  6
Continuous
 62
    92
370
    13
100
AcDbLine
 10
-764.1058686673641
 20
-1237.683735615899
 30
0.0
 11
-734.1058686673641
 21
-1237.683735615899
 31
0.0
  0
LINE
  5
4D
330
1F
100
AcDbEntity
  8
0-0
  6
Continuous
 62
    92
370
    13
100
AcDbLine
 10
855.8941313326359
 20
753.3162643841008
 30
0.0
 11
45.89413133263591
 21
753.3162643841008
 31
0.0
  0
LINE
  5
4E
330
1F
100
AcDbEntity
  8
0-0
  6
Continuous
 62
    92
370
    13
100
AcDbLine
 10
855.8941313326359
 20
-1229.6837356159
 30
0.0
 11
45.89413133263591
 21
-1229.6837356159
 31
0.0
  0
LINE
  5
4F
330
1F
100
AcDbEntity
  8
0-0
  6
JWW_DASHED1
 62
   120
370
     5
100
AcDbLine
 10
825.8941313326359
 20
-1229.6837356159
 30
0.0
 11
825.8941313326359
 21
753.3162643841008
 31
0.0
  0
LINE
  5
50
330
1F
100
AcDbEntity
  8
0-0
  6
Continuous
 62
    92
370
    13
100
AcDbLine
 10
855.8941313326359
 20
-1229.6837356159
 30
0.0
 11
855.8941313326359
 21
753.3162643841008
 31
0.0
  0
LINE
  5
51
330
1F
100
AcDbEntity
  8
0-0
  6
Continuous
 62
    92
370
    13
100
AcDbLine
 10
45.89413133263591
 20
-1229.6837356159
 30
0.0
 11
45.89413133263591
 21
753.3162643841008
 31
0.0
  0
LINE
  5
52
330
1F
100
AcDbEntity
  8
0-0
  6
Continuous
 62
    92
370
    13
100
AcDbLine
 10
-764.1058686673641
 20
753.3162643841008
 30
0.0
 11
45.89413133263591
 21
753.3162643841008
 31
0.0
  0
LINE
  5
53
330
1F
100
AcDbEntity
  8
0-0
  6
Continuous
 62
    92
370
    13
100
AcDbLine
 10
-764.1058686673641
 20
-1229.6837356159
 30
0.0
 11
45.89413133263591
 21
-1229.6837356159
 31
0.0
  0
LINE
  5
54
330
1F
100
AcDbEntity
  8
0-0
  6
JWW_DASHED1
 62
   120
370
     5
100
AcDbLine
 10
-734.1058686673641
 20
-1229.6837356159
 30
0.0
 11
-734.1058686673641
 21
753.3162643841008
 31
0.0
  0
LINE
  5
55
330
1F
100
AcDbEntity
  8
0-0
  6
Continuous
 62
    92
370
    13
100
AcDbLine
 10
-764.1058686673641
 20
-1229.6837356159
 30
0.0
 11
-764.1058686673641
 21
753.3162643841008
 31
0.0
  0
LINE
  5
56
330
1F
100
AcDbEntity
  8
0-0
  6
Continuous
 62
     7
370
     9
100
AcDbLine
 10
81.89413133263557
 20
-242.5837356158989
 30
0.0
 11
81.89413133263557
 21
-301.783735615898
 31
0.0
  0
LINE
  5
57
330
1F
100
AcDbEntity
  8
0-0
  6
Continuous
 62
     7
370
     9
100
AcDbLine
 10
111.8941313326356
 20
-301.783735615898
 30
0.0
 11
111.8941313326356
 21
-242.5837356158989
 31
0.0
  0
ARC
  5
58
330
1F
100
AcDbEntity
  8
0-0
  6
Continuous
 62
     7
370
     9
100
AcDbCircle
 10
96.89413133263557
 20
-242.5837356158989
 30
0.0
 40
15.0
100
AcDbArc
 50
0.0
 51
180.0
  0
ARC
  5
59
330
1F
100
AcDbEntity
  8
0-0
  6
Continuous
 62
     7
370
     9
100
AcDbCircle
 10
96.89413133263557
 20
-301.783735615898
 30
0.0
 40
15.0
100
AcDbArc
 50
180.0
 51
0.0
  0
ARC
  5
5A
330
1F
100
AcDbEntity
  8
0-0
  6
Continuous
 62
    92
370
    13
100
AcDbCircle
 10
77.39413133263454
 20
-331.6837356158981
 30
0.0
 40
1.5
100
AcDbArc
 50
180.0
 51
270.0
  0
LINE
  5
5B
330
1F
100
AcDbEntity
  8
0-0
  6
Continuous
 62
    92
370
    13
100
AcDbLine
 10
75.89413133263591
 20
-331.6837356158981
 30
0.0
 11
75.89413133263591
 21
-212.6837356158988
 31
0.0
  0
LINE
  5
5C
330
1F
100
AcDbEntity
  8
0-0
  6
Continuous
 62
    92
370
    13
100
AcDbLine
 10
77.39413133263454
 20
-333.1837356159009
 30
0.0
 11
116.3941313326366
 21
-333.1837356159009
 31
0.0
  0
ARC
  5
5D
330
1F
100
AcDbEntity
  8
0-0
  6
Continuous
 62
    92
370
    13
100
AcDbCircle
 10
116.3941313326366
 20
-331.6837356158981
 30
0.0
 40
1.5
100
AcDbArc
 50
270.0
 51
0.0
  0
LINE
  5
5E
330
1F
100
AcDbEntity
  8
0-0
  6
Continuous
 62
    92
370
    13
100
AcDbLine
 10
117.8941313326369
 20
-331.6837356158981
 30
0.0
 11
117.8941313326369
 21
-212.6837356158988
 31
0.0
  0
ARC
  5
5F
330
1F
100
AcDbEntity
  8
0-0
  6
Continuous
 62
    92
370
    13
100
AcDbCircle
 10
116.3941313326366
 20
-212.6837356158988
 30
0.0
 40
1.5
100
AcDbArc
 50
0.0
 51
90.00000000000001
  0
LINE
  5
60
330
1F
100
AcDbEntity
  8
0-0
  6
Continuous
 62
    92
370
    13
100
AcDbLine
 10
116.3941313326366
 20
-211.1837356158985
 30
0.0
 11
77.39413133263454
 21
-211.1837356158985
 31
0.0
  0
ARC
  5
61
330
1F
100
AcDbEntity
  8
0-0
  6
Continuous
 62
    92
370
    13
100
AcDbCircle
 10
77.39413133263454
 20
-212.6837356158988
 30
0.0
 40
1.5
100
AcDbArc
 50
90.0
 51
180.0
  0
LINE
  5
62
330
1F
100
AcDbEntity
  8
0-0
  6
Continuous
 62
     7
370
     9
100
AcDbLine
 10
-20.10586866736205
 20
-242.5837356158989
 30
0.0
 11
-20.10586866736205
 21
-301.783735615898
 31
0.0
  0
LINE
  5
63
330
1F
100
AcDbEntity
  8
0-0
  6
Continuous
 62
     7
370
     9
100
AcDbLine
 10
9.894131332637954
 20
-301.783735615898
 30
0.0
 11
9.894131332637954
 21
-242.5837356158989
 31
0.0
  0
ARC
  5
64
330
1F
100
AcDbEntity
  8
0-0
  6
Continuous
 62
     7
370
     9
100
AcDbCircle
 10
-5.105868667362046
 20
-242.5837356158989
 30
0.0
 40
15.0
100
AcDbArc
 50
0.0
 51
180.0
  0
ARC
  5
65
330
1F
100
AcDbEntity
  8
0-0
  6
Continuous
 62
     7
370
     9
100
AcDbCircle
 10
-5.105868667362046
 20
-301.783735615898
 30
0.0
 40
15.0
100
AcDbArc
 50
180.0
 51
0.0
  0
ARC
  5
66
330
1F
100
AcDbEntity
  8
0-0
  6
Continuous
 62
    92
370
    13
100
AcDbCircle
 10
-24.60586866736136
 20
-331.6837356158981
 30
0.0
 40
1.5
100
AcDbArc
 50
180.0
 51
270.0
  0
LINE
  5
67
330
1F
100
AcDbEntity
  8
0-0
  6
Continuous
 62
    92
370
    13
100
AcDbLine
 10
-26.1058686673617
 20
-331.6837356158981
 30
0.0
 11
-26.1058686673617
 21
-212.6837356158988
 31
0.0
  0
LINE
  5
68
330
1F
100
AcDbEntity
  8
0-0
  6
Continuous
 62
    92
370
    13
100
AcDbLine
 10
-24.60586866736136
 20
-333.1837356159009
 30
0.0
 11
14.39413133263727
 21
-333.1837356159009
 31
0.0
  0
ARC
  5
69
330
1F
100
AcDbEntity
  8
0-0
  6
Continuous
 62
    92
370
    13
100
AcDbCircle
 10
14.39413133263727
 20
-331.6837356158981
 30
0.0
 40
1.5
100
AcDbArc
 50
270.0
 51
0.0
  0
LINE
  5
6A
330
1F
100
AcDbEntity
  8
0-0
  6
Continuous
 62
    92
370
    13
100
AcDbLine
 10
15.89413133263761
 20
-331.6837356158981
 30
0.0
 11
15.89413133263761
 21
-212.6837356158988
 31
0.0
  0
ARC
  5
6B
330
1F
100
AcDbEntity
  8
0-0
  6
Continuous
 62
    92
370
    13
100
AcDbCircle
 10
14.39413133263727
 20
-212.6837356158988
 30
0.0
 40
1.5
100
AcDbArc
 50
0.0
 51
90.00000000000001
  0
LINE
  5
6C
330
1F
100
AcDbEntity
  8
0-0
  6
Continuous
 62
    92
370
    13
100
AcDbLine
 10
14.39413133263727
 20
-211.1837356158985
 30
0.0
 11
-24.60586866736136
 21
-211.1837356158985
 31
0.0
  0
ARC
  5
6D
330
1F
100
AcDbEntity
  8
0-0
  6
Continuous
 62
    92
370
    13
100
AcDbCircle
 10
-24.60586866736136
 20
-212.6837356158988
 30
0.0
 40
1.5
100
AcDbArc
 50
90.0
 51
180.0
  0
LINE
  5
6E
330
1F
100
AcDbEntity
  8
0-0
  6
JWW_DASHED1
 62
   120
370
     5
100
AcDbLine
 10
-734.1058686673624
 20
-1229.6837356159
 30
0.0
 11
-734.1058686673624
 21
767.3162643841017
 31
0.0
  0
LINE
  5
6F
330
1F
100
AcDbEntity
  8
0-0
  6
JWW_DASHED1
 62
   120
370
     5
100
AcDbLine
 10
-764.1058686673624
 20
-1229.6837356159
 30
0.0
 11
-764.1058686673624
 21
767.3162643841017
 31
0.0
  0
LINE
  5
70
330
1F
100
AcDbEntity
  8
0-0
  6
JWW_DASHED1
 62
   120
370
     5
100
AcDbLine
 10
855.8941313326376
 20
-1229.6837356159
 30
0.0
 11
855.8941313326376
 21
767.3162643841017
 31
0.0
  0
LINE
  5
71
330
1F
100
AcDbEntity
  8
0-0
  6
JWW_DASHED1
 62
   120
370
     5
100
AcDbLine
 10
825.8941313326376
 20
-1229.6837356159
 30
0.0
 11
825.8941313326376
 21
767.3162643841017
 31
0.0
  0
LINE
  5
72
330
1F
100
AcDbEntity
  8
0-0
  6
Continuous
 62
    92
370
    13
100
AcDbLine
 10
855.8941313326376
 20
-1229.6837356159
 30
0.0
 11
855.8941313326376
 21
-1237.683735615899
 31
0.0
  0
LINE
  5
73
330
1F
100
AcDbEntity
  8
0-0
  6
Continuous
 62
    92
370
    13
100
AcDbLine
 10
825.8941313326376
 20
-1229.6837356159
 30
0.0
 11
825.8941313326376
 21
-1237.683735615899
 31
0.0
  0
LINE
  5
74
330
1F
100
AcDbEntity
  8
0-0
  6
Continuous
 62
    92
370
    13
100
AcDbLine
 10
-734.1058686673641
 20
-1229.6837356159
 30
0.0
 11
-734.1058686673641
 21
-1237.683735615899
 31
0.0
  0
LINE
  5
75
330
1F
100
AcDbEntity
  8
0-0
  6
Continuous
 62
    92
370
    13
100
AcDbLine
 10
-764.1058686673641
 20
-1229.6837356159
 30
0.0
 11
-764.1058686673641
 21
-1237.683735615899
 31
0.0
  0
LINE
  5
76
330
1F
100
AcDbEntity
  8
0-0
  6
Continuous
 62
    92
370
    13
100
AcDbLine
 10
745.894131332637
 20
-1088.683735615899
 30
0.0
 11
155.8941313326365
 21
-1088.683735615899
 31
0.0
  0
LINE
  5
77
330
1F
100
AcDbEntity
  8
0-0
  6
Continuous
 62
    92
370
    13
100
AcDbLine
 10
-64.10586866736296
 20
-1088.683735615899
 30
0.0
 11
-654.1058686673618
 21
-1088.683735615899
 31
0.0
  0
LINE
  5
78
330
1F
100
AcDbEntity
  8
0-0
  6
Continuous
 62
    92
370
    13
100
AcDbLine
 10
-64.10586866736296
 20
753.3162643841008
 30
0.0
 11
-64.10586866736296
 21
-1229.683735615899
 31
0.0
  0
LINE
  5
79
330
1F
100
AcDbEntity
  8
0-0
  6
Continuous
 62
    92
370
    13
100
AcDbLine
 10
155.8941313326365
 20
753.3162643841008
 30
0.0
 11
155.8941313326365
 21
-1229.683735615899
 31
0.0
  0
LINE
  5
7A
330
1F
100
AcDbEntity
  8
0-0
  6
Continuous
 62
    92
370
    13
100
AcDbLine
 10
745.894131332637
 20
753.3162643841008
 30
0.0
 11
745.894131332637
 21
-1229.683735615899
 31
0.0
  0
LINE
  5
7B
330
1F
100
AcDbEntity
  8
0-0
  6
Continuous
 62
    92
370
    13
100
AcDbLine
 10
-654.1058686673618
 20
753.3162643841008
 30
0.0
 11
-654.1058686673618
 21
-1229.683735615899
 31
0.0
  0
LINE
  5
7C
330
1F
100
AcDbEntity
  8
0-0
  6
Continuous
 62
    92
370
    13
100
AcDbLine
 10
-654.1058686673618
 20
618.3162643841008
 30
0.0
 11
-64.10586866736296
 21
618.3162643841008
 31
0.0
  0
LINE
  5
7D
330
1F
100
AcDbEntity
  8
0-0
  6
Continuous
 62
    92
370
    13
100
AcDbLine
 10
155.8941313326365
 20
618.3162643841008
 30
0.0
 11
745.894131332637
 21
618.3162643841008
 31
0.0
  0
LINE
  5
7E
330
1F
100
AcDbEntity
  8
0-0
  6
Continuous
 62
    92
370
    13
100
AcDbLine
 10
-64.10586866736296
 20
-356.6837356158992
 30
0.0
 11
-654.1058686673618
 21
-356.6837356158992
 31
0.0
  0
LINE
  5
7F
330
1F
100
AcDbEntity
  8
0-0
  6
Continuous
 62
    92
370
    13
100
AcDbLine
 10
-64.10586866736296
 20
-486.6837356158994
 30
0.0
 11
-654.1058686673618
 21
-486.6837356158994
 31
0.0
  0
LINE
  5
80
330
1F
100
AcDbEntity
  8
0-0
  6
JWW_DASHED1
 62
   120
370
     5
100
AcDbLine
 10
-67.39043971960129
 20
-356.6837356158936
 30
0.0
 11
-64.10586866736637
 21
-353.3991645636604
 31
0.0
  0
LINE
  5
81
330
1F
100
AcDbEntity
  8
0-0
  6
JWW_DASHED1
 62
   120
370
     5
100
AcDbLine
 10
-74.46150753147819
 20
-356.6837356159039
 30
0.0
 11
-64.10586866735613
 21
-346.328096751784
 31
0.0
  0
LINE
  5
82
330
1F
100
AcDbEntity
  8
0-0
  6
JWW_DASHED1
 62
   120
370
     5
100
AcDbLine
 10
-81.53257534333804
 20
-356.6837356158979
 30
0.0
 11
-64.10586866736296
 21
-339.2570289399232
 31
0.0
  0
LINE
  5
83
330
1F
100
AcDbEntity
  8
0-0
  6
JWW_DASHED1
 62
   120
370
     5
100
AcDbLine
 10
-88.60364315519789
 20
-356.6837356158919
 30
0.0
 11
-64.10586866736978
 21
-332.1859611280616
 31
0.0
  0
LINE
  5
84
330
1F
100
AcDbEntity
  8
0-0
  6
JWW_DASHED1
 62
   120
370
     5
100
AcDbLine
 10
-95.67471096707479
 20
-356.6837356159017
 30
0.0
 11
-64.10586866735954
 21
-325.1148933161857
 31
0.0
  0
LINE
  5
85
330
1F
100
AcDbEntity
  8
0-0
  6
JWW_DASHED1
 62
   120
370
     5
100
AcDbLine
 10
-102.745778778938
 20
-356.6837356158962
 30
0.0
 11
-64.10586866736637
 21
-318.0438255043249
 31
0.0
  0
LINE
  5
86
330
1F
100
AcDbEntity
  8
0-0
  6
JWW_DASHED1
 62
   120
370
     5
100
AcDbLine
 10
-109.8168465907979
 20
-356.6837356158902
 30
0.0
 11
-64.10586866736978
 21
-310.9727576924633
 31
0.0
  0
LINE
  5
87
330
1F
100
AcDbEntity
  8
0-0
  6
JWW_DASHED1
 62
   120
370
     5
100
AcDbLine
 10
-116.8879144026714
 20
-356.6837356159
 30
0.0
 11
-64.10586866735954
 21
-303.9016898805874
 31
0.0
  0
LINE
  5
88
330
1F
100
AcDbEntity
  8
0-0
  6
JWW_DASHED1
 62
   120
370
     5
100
AcDbLine
 10
-123.9589822145346
 20
-356.6837356158941
 30
0.0
 11
-64.10586866736637
 21
-296.8306220687266
 31
0.0
  0
LINE
  5
89
330
1F
100
AcDbEntity
  8
0-0
  6
JWW_DASHED1
 62
   120
370
     5
100
AcDbLine
 10
-131.0300500264115
 20
-356.6837356159043
 30
0.0
 11
-64.10586866735613
 21
-289.7595542568502
 31
0.0
  0
LINE
  5
8A
330
1F
100
AcDbEntity
  8
0-0
  6
JWW_DASHED1
 62
   120
370
     5
100
AcDbLine
 10
-138.1011178382714
 20
-356.6837356158983
 30
0.0
 11
-64.10586866736296
 21
-282.6884864449895
 31
0.0
  0
LINE
  5
8B
330
1F
100
AcDbEntity
  8
0-0
  6
JWW_DASHED1
 62
   120
370
     5
100
AcDbLine
 10
-145.1721856501449
 20
-356.683735615906
 30
0.0
 11
-64.10586866735272
 21
-275.6174186331129
 31
0.0
  0
LINE
  5
8C
330
1F
100
AcDbEntity
  8
0-0
  6
JWW_DASHED1
 62
   120
370
     5
100
AcDbLine
 10
-152.2432534620081
 20
-356.6837356159022
 30
0.0
 11
-64.10586866735954
 21
-268.5463508212518
 31
0.0
  0
LINE
  5
8D
330
1F
100
AcDbEntity
  8
0-0
  6
JWW_DASHED1
 62
   120
370
     5
100
AcDbLine
 10
-159.3143212738714
 20
-356.6837356158962
 30
0.0
 11
-64.10586866736296
 21
-261.4752830093898
 31
0.0
  0
LINE
  5
8E
330
1F
100
AcDbEntity
  8
0-0
  6
JWW_DASHED1
 62
   120
370
     5
100
AcDbLine
 10
-166.3853890857449
 20
-356.6837356159034
 30
0.0
 11
-64.10586866735613
 21
-254.4042151975147
 31
0.0
  0
LINE
  5
8F
330
1F
100
AcDbEntity
  8
0-0
  6
JWW_DASHED1
 62
   120
370
     5
100
AcDbLine
 10
-173.4564568976081
 20
-356.6837356159004
 30
0.0
 11
-64.10586866735954
 21
-247.333147385654
 31
0.0
  0
LINE
  5
90
330
1F
100
AcDbEntity
  8
0-0
  6
JWW_DASHED1
 62
   120
370
     5
100
AcDbLine
 10
-180.527524709468
 20
-356.6837356158945
 30
0.0
 11
-64.10586866736637
 21
-240.2620795737911
 31
0.0
  0
LINE
  5
91
330
1F
100
AcDbEntity
  8
0-0
  6
JWW_DASHED1
 62
   120
370
     5
100
AcDbLine
 10
-187.5985925213449
 20
-356.6837356159043
 30
0.0
 11
-64.10586866735613
 21
-233.1910117619164
 31
0.0
  0
LINE
  5
92
330
1F
100
AcDbEntity
  8
0-0
  6
JWW_DASHED1
 62
   120
370
     5
100
AcDbLine
 10
-194.6696603331775
 20
-356.6837356158962
 30
0.0
 11
-64.10586866736637
 21
-226.1199439500851
 31
0.0
  0
LINE
  5
93
330
1F
100
AcDbEntity
  8
0-0
  6
JWW_DASHED1
 62
   120
370
     5
100
AcDbLine
 10
-201.7407281450237
 20
-356.6837356159043
 30
0.0
 11
-64.10586866735613
 21
-219.048876138238
 31
0.0
  0
LINE
  5
94
330
1F
100
AcDbEntity
  8
0-0
  6
JWW_DASHED1
 62
   120
370
     5
100
AcDbLine
 10
-208.8117959568835
 20
-356.6837356158983
 30
0.0
 11
-64.10586866736296
 21
-211.9778083263773
 31
0.0
  0
LINE
  5
95
330
1F
100
AcDbEntity
  8
0-0
  6
JWW_DASHED1
 62
   120
370
     5
100
AcDbLine
 10
-215.882863768757
 20
-356.6837356159039
 30
0.0
 11
-64.10586866735272
 21
-204.9067405145009
 31
0.0
  0
LINE
  5
96
330
1F
100
AcDbEntity
  8
0-0
  6
JWW_DASHED1
 62
   120
370
     5
100
AcDbLine
 10
-222.9539315806203
 20
-356.6837356159022
 30
0.0
 11
-64.10586866735954
 21
-197.8356727026402
 31
0.0
  0
LINE
  5
97
330
1F
100
AcDbEntity
  8
0-0
  6
JWW_DASHED1
 62
   120
370
     5
100
AcDbLine
 10
-230.0249993924835
 20
-356.6837356158962
 30
0.0
 11
-64.10586866736296
 21
-190.7646048907769
 31
0.0
  0
LINE
  5
98
330
1F
100
AcDbEntity
  8
0-0
  6
JWW_DASHED1
 62
   120
370
     5
100
AcDbLine
 10
-237.0960672043536
 20
-356.6837356159017
 30
0.0
 11
-64.10586866735272
 21
-183.6935370789026
 31
0.0
  0
LINE
  5
99
330
1F
100
AcDbEntity
  8
0-0
  6
JWW_DASHED1
 62
   120
370
     5
100
AcDbLine
 10
-244.1671350162203
 20
-356.6837356159
 30
0.0
 11
-64.10586866735954
 21
-176.6224692670419
 31
0.0
  0
LINE
  5
9A
330
1F
100
AcDbEntity
  8
0-0
  6
JWW_DASHED1
 62
   120
370
     5
100
AcDbLine
 10
-251.2382028280801
 20
-356.6837356158945
 30
0.0
 11
-64.10586866736296
 21
-169.5514014551782
 31
0.0
  0
LINE
  5
9B
330
1F
100
AcDbEntity
  8
0-0
  6
JWW_DASHED1
 62
   120
370
     5
100
AcDbLine
 10
-258.309270639957
 20
-356.6837356159043
 30
0.0
 11
-64.10586866735613
 21
-162.4803336433042
 31
0.0
  0
LINE
  5
9C
330
1F
100
AcDbEntity
  8
0-0
  6
JWW_DASHED1
 62
   120
370
     5
100
AcDbLine
 10
-265.3803384518169
 20
-356.6837356158983
 30
0.0
 11
-64.10586866736296
 21
-155.4092658314435
 31
0.0
  0
LINE
  5
9D
330
1F
100
AcDbEntity
  8
0-0
  6
JWW_DASHED1
 62
   120
370
     5
100
AcDbLine
 10
-272.4514062636767
 20
-356.6837356158924
 30
0.0
 11
-64.10586866736637
 21
-148.3381980195794
 31
0.0
  0
LINE
  5
9E
330
1F
100
AcDbEntity
  8
0-0
  6
JWW_DASHED1
 62
   120
370
     5
100
AcDbLine
 10
-279.5224740755536
 20
-356.6837356159026
 30
0.0
 11
-64.10586866735954
 21
-141.2671302077059
 31
0.0
  0
LINE
  5
9F
330
1F
100
AcDbEntity
  8
0-0
  6
JWW_DASHED1
 62
   120
370
     5
100
AcDbLine
 10
-286.5935418874169
 20
-356.6837356158966
 30
0.0
 11
-64.10586866736637
 21
-134.1960623958457
 31
0.0
  0
LINE
  5
A0
330
1F
100
AcDbEntity
  8
0-0
  6
JWW_DASHED1
 62
   120
370
     5
100
AcDbLine
 10
-293.6646096992768
 20
-356.6837356158907
 30
0.0
 11
-64.10586866736637
 21
-127.1249945839811
 31
0.0
  0
LINE
  5
A1
330
1F
100
AcDbEntity
  8
0-0
  6
JWW_DASHED1
 62
   120
370
     5
100
AcDbLine
 10
-300.7356775111537
 20
-356.6837356159004
 30
0.0
 11
-64.10586866735954
 21
-120.0539267721085
 31
0.0
  0
LINE
  5
A2
330
1F
100
AcDbEntity
  8
0-0
  6
JWW_DASHED1
 62
   120
370
     5
100
AcDbLine
 10
-307.8067453230135
 20
-356.6837356158945
 30
0.0
 11
-64.10586866736637
 21
-112.9828589602478
 31
0.0
  0
LINE
  5
A3
330
1F
100
AcDbEntity
  8
0-0
  6
JWW_DASHED1
 62
   120
370
     5
100
AcDbLine
 10
-314.8778131348904
 20
-356.6837356159043
 30
0.0
 11
-64.10586866735613
 21
-105.9117911483709
 31
0.0
  0
LINE
  5
A4
330
1F
100
AcDbEntity
  8
0-0
  6
JWW_DASHED1
 62
   120
370
     5
100
AcDbLine
 10
-321.9488809467503
 20
-356.6837356158987
 30
0.0
 11
-64.10586866736296
 21
-98.8407233365102
 31
0.0
  0
LINE
  5
A5
330
1F
100
AcDbEntity
  8
0-0
  6
JWW_DASHED1
 62
   120
370
     5
100
AcDbLine
 10
-329.0199487586101
 20
-356.6837356158928
 30
0.0
 11
-64.10586866736637
 21
-91.7696555246495
 31
0.0
  0
LINE
  5
A6
330
1F
100
AcDbEntity
  8
0-0
  6
JWW_DASHED1
 62
   120
370
     5
100
AcDbLine
 10
-336.091016570487
 20
-356.6837356159026
 30
0.0
 11
-64.10586866735954
 21
-84.69858771277259
 31
0.0
  0
LINE
  5
A7
330
1F
100
AcDbEntity
  8
0-0
  6
JWW_DASHED1
 62
   120
370
     5
100
AcDbLine
 10
-343.1620843823503
 20
-356.6837356158966
 30
0.0
 11
-64.10586866736296
 21
-77.62751990091189
 31
0.0
  0
LINE
  5
A8
330
1F
100
AcDbEntity
  8
0-0
  6
JWW_DASHED1
 62
   120
370
     5
100
AcDbLine
 10
-350.2331521942169
 20
-356.6837356158992
 30
0.0
 11
-64.10586866735272
 21
-70.55645208903499
 31
0.0
  0
LINE
  5
A9
330
1F
100
AcDbEntity
  8
0-0
  6
JWW_DASHED1
 62
   120
370
     5
100
AcDbLine
 10
-357.304220006087
 20
-356.6837356159009
 30
0.0
 11
-64.10586866735954
 21
-63.48538427717472
 31
0.0
  0
LINE
  5
AA
330
1F
100
AcDbEntity
  8
0-0
  6
JWW_DASHED1
 62
   120
370
     5
100
AcDbLine
 10
-364.3752878179469
 20
-356.6837356158949
 30
0.0
 11
-64.10586866735954
 21
-56.41431646530933
 31
0.0
  0
LINE
  5
AB
330
1F
100
AcDbEntity
  8
0-0
  6
JWW_DASHED1
 62
   120
370
     5
100
AcDbLine
 10
-371.4463556298238
 20
-356.6837356159047
 30
0.0
 11
-64.10586866735613
 21
-49.34324865343712
 31
0.0
  0
LINE
  5
AC
330
1F
100
AcDbEntity
  8
0-0
  6
JWW_DASHED1
 62
   120
370
     5
100
AcDbLine
 10
-378.5174234416836
 20
-356.6837356158987
 30
0.0
 11
-64.10586866736296
 21
-42.27218084157641
 31
0.0
  0
LINE
  5
AD
330
1F
100
AcDbEntity
  8
0-0
  6
JWW_DASHED1
 62
   120
370
     5
100
AcDbLine
 10
-385.5884912535435
 20
-356.6837356158928
 30
0.0
 11
-64.10586866736296
 21
-35.2011130297106
 31
0.0
  0
LINE
  5
AE
330
1F
100
AcDbEntity
  8
0-0
  6
JWW_DASHED1
 62
   120
370
     5
100
AcDbLine
 10
-392.6595590654238
 20
-356.683735615903
 30
0.0
 11
-64.10586866735954
 21
-28.13004521783924
 31
0.0
  0
LINE
  5
AF
330
1F
100
AcDbEntity
  8
0-0
  6
JWW_DASHED1
 62
   120
370
     5
100
AcDbLine
 10
-399.7306268772836
 20
-356.683735615897
 30
0.0
 11
-64.10586866736296
 21
-21.05897740597854
 31
0.0
  0
LINE
  5
B0
330
1F
100
AcDbEntity
  8
0-0
  6
JWW_DASHED1
 62
   120
370
     5
100
AcDbLine
 10
-406.8016946891435
 20
-356.6837356158911
 30
0.0
 11
-64.10586866736296
 21
-13.98790959411187
 31
0.0
  0
LINE
  5
B1
330
1F
100
AcDbEntity
  8
0-0
  6
JWW_DASHED1
 62
   120
370
     5
100
AcDbLine
 10
-413.8727625010204
 20
-356.6837356159009
 30
0.0
 11
-64.10586866735954
 21
-6.916841782240937
 31
0.0
  0
LINE
  5
B2
330
1F
100
AcDbEntity
  8
0-0
  6
JWW_DASHED1
 62
   120
370
     5
100
AcDbLine
 10
-420.9438303128802
 20
-356.6837356158949
 30
0.0
 11
-64.10586866736637
 21
0.1542260296197639
 31
0.0
  0
LINE
  5
B3
330
1F
100
AcDbEntity
  8
0-0
  6
JWW_DASHED1
 62
   120
370
     5
100
AcDbLine
 10
-428.0148981247401
 20
-356.683735615889
 30
0.0
 11
-64.10586866736637
 21
7.225293841486433
 31
0.0
  0
LINE
  5
B4
330
1F
100
AcDbEntity
  8
0-0
  6
JWW_DASHED1
 62
   120
370
     5
100
AcDbLine
 10
-435.085965936617
 20
-356.6837356158992
 30
0.0
 11
-64.10586866736296
 21
14.29636165335737
 31
0.0
  0
LINE
  5
B5
330
1F
100
AcDbEntity
  8
0-0
  6
JWW_DASHED1
 62
   120
370
     5
100
AcDbLine
 10
-442.1570337484802
 20
-356.6837356158932
 30
0.0
 11
-64.10586866736637
 21
21.36742946521807
 31
0.0
  0
LINE
  5
B6
330
1F
100
AcDbEntity
  8
0-0
  6
JWW_DASHED1
 62
   120
370
     5
100
AcDbLine
 10
-449.2281015603571
 20
-356.6837356159034
 30
0.0
 11
-64.10586866735954
 21
28.43849727709454
 31
0.0
  0
LINE
  5
B7
330
1F
100
AcDbEntity
  8
0-0
  6
JWW_DASHED1
 62
   120
370
     5
100
AcDbLine
 10
-456.299169372217
 20
-356.6837356158975
 30
0.0
 11
-64.10586866736296
 21
35.50956508895567
 31
0.0
  0
LINE
  5
B8
330
1F
100
AcDbEntity
  8
0-0
  6
JWW_DASHED1
 62
   120
370
     5
100
AcDbLine
 10
-463.3702371840836
 20
-356.6837356158966
 30
0.0
 11
-64.10586866735272
 21
42.58063290083172
 31
0.0
  0
LINE
  5
B9
330
1F
100
AcDbEntity
  8
0-0
  6
JWW_DASHED1
 62
   120
370
     5
100
AcDbLine
 10
-470.4413049959537
 20
-356.6837356159013
 30
0.0
 11
-64.10586866735954
 21
49.65170071269284
 31
0.0
  0
LINE
  5
BA
330
1F
100
AcDbEntity
  8
0-0
  6
JWW_DASHED1
 62
   120
370
     5
100
AcDbLine
 10
-477.5123728078136
 20
-356.6837356158953
 30
0.0
 11
-64.10586866735954
 21
56.72276852455994
 31
0.0
  0
LINE
  5
BB
330
1F
100
AcDbEntity
  8
0-0
  6
JWW_DASHED1
 62
   120
370
     5
100
AcDbLine
 10
-484.5834406196802
 20
-356.6837356158941
 30
0.0
 11
-64.10586866735613
 21
63.79383633643002
 31
0.0
  0
LINE
  5
BC
330
1F
100
AcDbEntity
  8
0-0
  6
JWW_DASHED1
 62
   120
370
     5
100
AcDbLine
 10
-491.6545084315503
 20
-356.6837356158992
 30
0.0
 11
-64.10586866735954
 21
70.86490414829072
 31
0.0
  0
LINE
  5
BD
330
1F
100
AcDbEntity
  8
0-0
  6
JWW_DASHED1
 62
   120
370
     5
100
AcDbLine
 10
-498.7255762434136
 20
-356.6837356158932
 30
0.0
 11
-64.10586866735954
 21
77.93597196015867
 31
0.0
  0
LINE
  5
BE
330
1F
100
AcDbEntity
  8
0-0
  6
JWW_DASHED1
 62
   120
370
     5
100
AcDbLine
 10
-505.7966440552905
 20
-356.6837356159034
 30
0.0
 11
-64.10586866735613
 21
85.00703977202832
 31
0.0
  0
LINE
  5
BF
330
1F
100
AcDbEntity
  8
0-0
  6
JWW_DASHED1
 62
   120
370
     5
100
AcDbLine
 10
-512.8677118671503
 20
-356.6837356158975
 30
0.0
 11
-64.10586866736296
 21
92.07810758388902
 31
0.0
  0
LINE
  5
C0
330
1F
100
AcDbEntity
  8
0-0
  6
JWW_DASHED1
 62
   120
370
     5
100
AcDbLine
 10
-519.9387796790102
 20
-356.6837356158915
 30
0.0
 11
-64.10586866736296
 21
99.1491753957574
 31
0.0
  0
LINE
  5
C1
330
1F
100
AcDbEntity
  8
0-0
  6
JWW_DASHED1
 62
   120
370
     5
100
AcDbLine
 10
-527.0098474908871
 20
-356.6837356159017
 30
0.0
 11
-64.10586866735954
 21
106.2202432076262
 31
0.0
  0
LINE
  5
C2
330
1F
100
AcDbEntity
  8
0-0
  6
JWW_DASHED1
 62
   120
370
     5
100
AcDbLine
 10
-534.0809153027469
 20
-356.6837356158958
 30
0.0
 11
-64.10586866736637
 21
113.2913110194869
 31
0.0
  0
LINE
  5
C3
330
1F
100
AcDbEntity
  8
0-0
  6
JWW_DASHED1
 62
   120
370
     5
100
AcDbLine
 10
-541.1519831146102
 20
-356.6837356158898
 30
0.0
 11
-64.10586866736296
 21
120.3623788313557
 31
0.0
  0
LINE
  5
C4
330
1F
100
AcDbEntity
  8
0-0
  6
JWW_DASHED1
 62
   120
370
     5
100
AcDbLine
 10
-548.2230509264837
 20
-356.6837356158996
 30
0.0
 11
-64.10586866735954
 21
127.4334466432241
 31
0.0
  0
LINE
  5
C5
330
1F
100
AcDbEntity
  8
0-0
  6
JWW_DASHED1
 62
   120
370
     5
100
AcDbLine
 10
-555.2941187383469
 20
-356.6837356158936
 30
0.0
 11
-64.10586866736637
 21
134.5045144550852
 31
0.0
  0
LINE
  5
C6
330
1F
100
AcDbEntity
  8
0-0
  6
JWW_DASHED1
 62
   120
370
     5
100
AcDbLine
 10
-562.3651865502238
 20
-356.6837356159039
 30
0.0
 11
-64.10586866735613
 21
141.5755822669617
 31
0.0
  0
LINE
  5
C7
330
1F
100
AcDbEntity
  8
0-0
  6
JWW_DASHED1
 62
   120
370
     5
100
AcDbLine
 10
-569.4362543620837
 20
-356.6837356158979
 30
0.0
 11
-64.10586866736296
 21
148.6466500788224
 31
0.0
  0
LINE
  5
C8
330
1F
100
AcDbEntity
  8
0-0
  6
JWW_DASHED1
 62
   120
370
     5
100
AcDbLine
 10
-576.5073221739435
 20
-356.6837356158919
 30
0.0
 11
-64.10586866736978
 21
155.7177178906831
 31
0.0
  0
LINE
  5
C9
330
1F
100
AcDbEntity
  8
0-0
  6
JWW_DASHED1
 62
   120
370
     5
100
AcDbLine
 10
-583.5783899857897
 20
-356.6837356158996
 30
0.0
 11
-64.10586866735954
 21
162.7887857025306
 31
0.0
  0
LINE
  5
CA
330
1F
100
AcDbEntity
  8
0-0
  6
JWW_DASHED1
 62
   120
370
     5
100
AcDbLine
 10
-590.6494577976223
 20
-356.6837356158915
 30
0.0
 11
-64.10586866735954
 21
169.8598535143704
 31
0.0
  0
LINE
  5
CB
330
1F
100
AcDbEntity
  8
0-0
  6
JWW_DASHED1
 62
   120
370
     5
100
AcDbLine
 10
-597.7205256094992
 20
-356.6837356159017
 30
0.0
 11
-64.10586866735954
 21
176.9309213262387
 31
0.0
  0
LINE
  5
CC
330
1F
100
AcDbEntity
  8
0-0
  6
JWW_DASHED1
 62
   120
370
     5
100
AcDbLine
 10
-604.791593421359
 20
-356.6837356158958
 30
0.0
 11
-64.10586866736637
 21
184.001989138099
 31
0.0
  0
LINE
  5
CD
330
1F
100
AcDbEntity
  8
0-0
  6
JWW_DASHED1
 62
   120
370
     5
100
AcDbLine
 10
-611.8626612332223
 20
-356.6837356158898
 30
0.0
 11
-64.10586866736296
 21
191.0730569499687
 31
0.0
  0
LINE
  5
CE
330
1F
100
AcDbEntity
  8
0-0
  6
JWW_DASHED1
 62
   120
370
     5
100
AcDbLine
 10
-618.9337290450958
 20
-356.6837356158996
 30
0.0
 11
-64.10586866735954
 21
198.1441247618362
 31
0.0
  0
LINE
  5
CF
330
1F
100
AcDbEntity
  8
0-0
  6
JWW_DASHED1
 62
   120
370
     5
100
AcDbLine
 10
-626.004796856959
 20
-356.6837356158936
 30
0.0
 11
-64.10586866736637
 21
205.2151925736973
 31
0.0
  0
LINE
  5
D0
330
1F
100
AcDbEntity
  8
0-0
  6
JWW_DASHED1
 62
   120
370
     5
100
AcDbLine
 10
-633.0758646688189
 20
-356.6837356158881
 30
0.0
 11
-64.10586866736296
 21
212.2862603855674
 31
0.0
  0
LINE
  5
D1
330
1F
100
AcDbEntity
  8
0-0
  6
JWW_DASHED1
 62
   120
370
     5
100
AcDbLine
 10
-640.1469324806958
 20
-356.6837356158979
 30
0.0
 11
-64.10586866736296
 21
219.3573281974345
 31
0.0
  0
LINE
  5
D2
330
1F
100
AcDbEntity
  8
0-0
  6
JWW_DASHED1
 62
   120
370
     5
100
AcDbLine
 10
-647.2180002925556
 20
-356.6837356158915
 30
0.0
 11
-64.10586866736978
 21
226.4283960092952
 31
0.0
  0
LINE
  5
D3
330
1F
100
AcDbEntity
  8
0-0
  6
JWW_DASHED1
 62
   120
370
     5
100
AcDbLine
 10
-654.1058686673618
 20
-356.5005361788293
 30
0.0
 11
-64.10586866735954
 21
233.4994638211721
 31
0.0
  0
LINE
  5
D4
330
1F
100
AcDbEntity
  8
0-0
  6
JWW_DASHED1
 62
   120
370
     5
100
AcDbLine
 10
-654.1058686673653
 20
-349.4294683669686
 30
0.0
 11
-64.10586866736637
 21
240.5705316330328
 31
0.0
  0
LINE
  5
D5
330
1F
100
AcDbEntity
  8
0-0
  6
JWW_DASHED1
 62
   120
370
     5
100
AcDbLine
 10
-654.1058686673721
 20
-342.3584005551079
 30
0.0
 11
-64.10586866735613
 21
247.6415994449093
 31
0.0
  0
LINE
  5
D6
330
1F
100
AcDbEntity
  8
0-0
  6
JWW_DASHED1
 62
   120
370
     5
100
AcDbLine
 10
-654.1058686673618
 20
-335.287332743231
 30
0.0
 11
-64.10586866735954
 21
254.7126672567704
 31
0.0
  0
LINE
  5
D7
330
1F
100
AcDbEntity
  8
0-0
  6
JWW_DASHED1
 62
   120
370
     5
100
AcDbLine
 10
-654.1058686673687
 20
-328.2162649313699
 30
0.0
 11
-64.10586866735613
 21
261.7837350686405
 31
0.0
  0
LINE
  5
D8
330
1F
100
AcDbEntity
  8
0-0
  6
JWW_DASHED1
 62
   120
370
     5
100
AcDbLine
 10
-654.1058686673755
 20
-321.1451971195096
 30
0.0
 11
-64.10586866735613
 21
268.8548028805076
 31
0.0
  0
LINE
  5
D9
330
1F
100
AcDbEntity
  8
0-0
  6
JWW_DASHED1
 62
   120
370
     5
100
AcDbLine
 10
-654.1058686673653
 20
-314.0741293076331
 30
0.0
 11
-64.10586866736296
 21
275.9258706923679
 31
0.0
  0
LINE
  5
DA
330
1F
100
AcDbEntity
  8
0-0
  6
JWW_DASHED1
 62
   120
370
     5
100
AcDbLine
 10
-654.1058686673687
 20
-307.0030614957716
 30
0.0
 11
-64.10586866735954
 21
282.9969385042392
 31
0.0
  0
LINE
  5
DB
330
1F
100
AcDbEntity
  8
0-0
  6
JWW_DASHED1
 62
   120
370
     5
100
AcDbLine
 10
-654.1058686673618
 20
-299.9319936838959
 30
0.0
 11
-64.10586866735954
 21
290.0680063161054
 31
0.0
  0
LINE
  5
DC
330
1F
100
AcDbEntity
  8
0-0
  6
JWW_DASHED1
 62
   120
370
     5
100
AcDbLine
 10
-654.1058686673653
 20
-292.8609258720353
 30
0.0
 11
-64.10586866736637
 21
297.1390741279666
 31
0.0
  0
LINE
  5
DD
330
1F
100
AcDbEntity
  8
0-0
  6
JWW_DASHED1
 62
   120
370
     5
100
AcDbLine
 10
-654.1058686673721
 20
-285.7898580601728
 30
0.0
 11
-64.10586866735954
 21
304.210141939838
 31
0.0
  0
LINE
  5
DE
330
1F
100
AcDbEntity
  8
0-0
  6
JWW_DASHED1
 62
   120
370
     5
100
AcDbLine
 10
-654.1058686673618
 20
-278.7187902482976
 30
0.0
 11
-64.10586866735954
 21
311.2812097517037
 31
0.0
  0
LINE
  5
DF
330
1F
100
AcDbEntity
  8
0-0
  6
JWW_DASHED1
 62
   120
370
     5
100
AcDbLine
 10
-654.1058686673687
 20
-271.647722436437
 30
0.0
 11
-64.10586866736637
 21
318.3522775635645
 31
0.0
  0
LINE
  5
E0
330
1F
100
AcDbEntity
  8
0-0
  6
JWW_DASHED1
 62
   120
370
     5
100
AcDbLine
 10
-654.1058686673721
 20
-264.5766546245745
 30
0.0
 11
-64.10586866735954
 21
325.4233453754363
 31
0.0
  0
LINE
  5
E1
330
1F
100
AcDbEntity
  8
0-0
  6
JWW_DASHED1
 62
   120
370
     5
100
AcDbLine
 10
-654.1058686673653
 20
-257.5055868126993
 30
0.0
 11
-64.10586866736296
 21
332.494413187302
 31
0.0
  0
LINE
  5
E2
330
1F
100
AcDbEntity
  8
0-0
  6
JWW_DASHED1
 62
   120
370
     5
100
AcDbLine
 10
-654.1058686673687
 20
-250.4345190008387
 30
0.0
 11
-64.10586866736978
 21
339.5654809991628
 31
0.0
  0
LINE
  5
E3
330
1F
100
AcDbEntity
  8
0-0
  6
JWW_DASHED1
 62
   120
370
     5
100
AcDbLine
 10
-654.1058686673618
 20
-243.3634511889622
 30
0.0
 11
-64.10586866735954
 21
346.6365488110388
 31
0.0
  0
LINE
  5
E4
330
1F
100
AcDbEntity
  8
0-0
  6
JWW_DASHED1
 62
   120
370
     5
100
AcDbLine
 10
-654.1058686673653
 20
-236.2923833771011
 30
0.0
 11
-64.10586866736637
 21
353.7076166228999
 31
0.0
  0
LINE
  5
E5
330
1F
100
AcDbEntity
  8
0-0
  6
JWW_DASHED1
 62
   120
370
     5
100
AcDbLine
 10
-654.1058686673721
 20
-229.2213155652408
 30
0.0
 11
-64.10586866735272
 21
360.7786844347764
 31
0.0
  0
LINE
  5
E6
330
1F
100
AcDbEntity
  8
0-0
  6
JWW_DASHED1
 62
   120
370
     5
100
AcDbLine
 10
-654.1058686673618
 20
-222.1502477533639
 30
0.0
 11
-64.10586866735954
 21
367.8497522466375
 31
0.0
  0
LINE
  5
E7
330
1F
100
AcDbEntity
  8
0-0
  6
JWW_DASHED1
 62
   120
370
     5
100
AcDbLine
 10
-654.1058686673653
 20
-215.0791799415011
 30
0.0
 11
-64.10586866735272
 21
374.9208200585102
 31
0.0
  0
LINE
  5
E8
330
1F
100
AcDbEntity
  8
0-0
  6
JWW_DASHED1
 62
   120
370
     5
100
AcDbLine
 10
-654.1058686673755
 20
-208.0081121296425
 30
0.0
 11
-64.10586866735613
 21
381.9918878703747
 31
0.0
  0
LINE
  5
E9
330
1F
100
AcDbEntity
  8
0-0
  6
JWW_DASHED1
 62
   120
370
     5
100
AcDbLine
 10
-654.1058686673618
 20
-200.937044317766
 30
0.0
 11
-64.10586866736296
 21
389.0629556822354
 31
0.0
  0
LINE
  5
EA
330
1F
100
AcDbEntity
  8
0-0
  6
JWW_DASHED1
 62
   120
370
     5
100
AcDbLine
 10
-654.1058686673687
 20
-193.8659765059028
 30
0.0
 11
-64.10586866735613
 21
396.1340234941081
 31
0.0
  0
LINE
  5
EB
330
1F
100
AcDbEntity
  8
0-0
  6
JWW_DASHED1
 62
   120
370
     5
100
AcDbLine
 10
-654.1058686673584
 20
-186.7949086940284
 30
0.0
 11
-64.10586866735954
 21
403.205091305973
 31
0.0
  0
LINE
  5
EC
330
1F
100
AcDbEntity
  8
0-0
  6
JWW_DASHED1
 62
   120
370
     5
100
AcDbLine
 10
-654.1058686673653
 20
-179.7238408821677
 30
0.0
 11
-64.10586866736296
 21
410.2761591178337
 31
0.0
  0
LINE
  5
ED
330
1F
100
AcDbEntity
  8
0-0
  6
JWW_DASHED1
 62
   120
370
     5
100
AcDbLine
 10
-654.1058686673687
 20
-172.652773070304
 30
0.0
 11
-64.10586866735954
 21
417.3472269297068
 31
0.0
  0
LINE
  5
EE
330
1F
100
AcDbEntity
  8
0-0
  6
JWW_DASHED1
 62
   120
370
     5
100
AcDbLine
 10
-654.1058686673618
 20
-165.5817052584305
 30
0.0
 11
-64.10586866735954
 21
424.4182947415709
 31
0.0
  0
LINE
  5
EF
330
1F
100
AcDbEntity
  8
0-0
  6
JWW_DASHED1
 62
   120
370
     5
100
AcDbLine
 10
-654.1058686673687
 20
-158.5106374465694
 30
0.0
 11
-64.10586866736637
 21
431.4893625534316
 31
0.0
  0
LINE
  5
F0
330
1F
100
AcDbEntity
  8
0-0
  6
JWW_DASHED1
 62
   120
370
     5
100
AcDbLine
 10
-654.1058686673687
 20
-151.4395696347057
 30
0.0
 11
-64.10586866735954
 21
438.5604303653055
 31
0.0
  0
LINE
  5
F1
330
1F
100
AcDbEntity
  8
0-0
  6
JWW_DASHED1
 62
   120
370
     5
100
AcDbLine
 10
-654.1058686673618
 20
-144.3685018228322
 30
0.0
 11
-64.10586866736296
 21
445.6314981771692
 31
0.0
  0
LINE
  5
F2
330
1F
100
AcDbEntity
  8
0-0
  6
JWW_DASHED1
 62
   120
370
     5
100
AcDbLine
 10
-654.1058686673687
 20
-137.2974340109715
 30
0.0
 11
-64.10586866736637
 21
452.7025659890295
 31
0.0
  0
LINE
  5
F3
330
1F
100
AcDbEntity
  8
0-0
  6
JWW_DASHED1
 62
   120
370
     5
100
AcDbLine
 10
-654.1058686673721
 20
-130.226366199107
 30
0.0
 11
-64.10586866735954
 21
459.7736338009038
 31
0.0
  0
LINE
  5
F4
330
1F
100
AcDbEntity
  8
0-0
  6
JWW_DASHED1
 62
   120
370
     5
100
AcDbLine
 10
-654.1058686673653
 20
-123.1552983872344
 30
0.0
 11
-64.10586866736296
 21
466.844701612767
 31
0.0
  0
LINE
  5
F5
330
1F
100
AcDbEntity
  8
0-0
  6
JWW_DASHED1
 62
   120
370
     5
100
AcDbLine
 10
-654.1058686673721
 20
-116.0842305753732
 30
0.0
 11
-64.10586866736978
 21
473.9157694246278
 31
0.0
  0
LINE
  5
F6
330
1F
100
AcDbEntity
  8
0-0
  6
JWW_DASHED1
 62
   120
370
     5
100
AcDbLine
 10
-654.1058686673618
 20
-109.0131627634968
 30
0.0
 11
-64.10586866735954
 21
480.9868372365047
 31
0.0
  0
LINE
  5
F7
330
1F
100
AcDbEntity
  8
0-0
  6
JWW_DASHED1
 62
   120
370
     5
100
AcDbLine
 10
-654.1058686673687
 20
-101.9420949516361
 30
0.0
 11
-64.10586866736637
 21
488.0579050483653
 31
0.0
  0
LINE
  5
F8
330
1F
100
AcDbEntity
  8
0-0
  6
JWW_DASHED1
 62
   120
370
     5
100
AcDbLine
 10
-654.1058686673721
 20
-94.87102713977535
 30
0.0
 11
-64.10586866735613
 21
495.1289728602422
 31
0.0
  0
LINE
  5
F9
330
1F
100
AcDbEntity
  8
0-0
  6
JWW_DASHED1
 62
   120
370
     5
100
AcDbLine
 10
-654.1058686673618
 20
-87.79995932789888
 30
0.0
 11
-64.10586866736296
 21
502.200040672103
 31
0.0
  0
LINE
  5
FA
330
1F
100
AcDbEntity
  8
0-0
  6
JWW_DASHED1
 62
   120
370
     5
100
AcDbLine
 10
-654.1058686673653
 20
-80.72889151603349
 30
0.0
 11
-64.10586866735272
 21
509.2711084839773
 31
0.0
  0
LINE
  5
FB
330
1F
100
AcDbEntity
  8
0-0
  6
JWW_DASHED1
 62
   120
370
     5
100
AcDbLine
 10
-654.1058686673755
 20
-73.65782370417705
 30
0.0
 11
-64.10586866735954
 21
516.3421762958397
 31
0.0
  0
LINE
  5
FC
330
1F
100
AcDbEntity
  8
0-0
  6
JWW_DASHED1
 62
   120
370
     5
100
AcDbLine
 10
-654.1058686673653
 20
-66.58675589230057
 30
0.0
 11
-64.10586866736296
 21
523.4132441077008
 31
0.0
  0
LINE
  5
FD
330
1F
100
AcDbEntity
  8
0-0
  6
JWW_DASHED1
 62
   120
370
     5
100
AcDbLine
 10
-654.1058686673653
 20
-59.51568808043518
 30
0.0
 11
-64.10586866735613
 21
530.4843119195756
 31
0.0
  0
LINE
  5
FE
330
1F
100
AcDbEntity
  8
0-0
  6
JWW_DASHED1
 62
   120
370
     5
100
AcDbLine
 10
-654.1058686673618
 20
-52.4446202685634
 30
0.0
 11
-64.10586866735954
 21
537.555379731438
 31
0.0
  0
LINE
  5
FF
330
1F
100
AcDbEntity
  8
0-0
  6
JWW_DASHED1
 62
   120
370
     5
100
AcDbLine
 10
-654.1058686673687
 20
-45.37355245670227
 30
0.0
 11
-64.10586866736637
 21
544.6264475432987
 31
0.0
  0
LINE
  5
100
330
1F
100
AcDbEntity
  8
0-0
  6
JWW_DASHED1
 62
   120
370
     5
100
AcDbLine
 10
-654.1058686673687
 20
-38.30248464486587
 30
0.0
 11
-64.10586866735954
 21
551.6975153551449
 31
0.0
  0
LINE
  5
101
330
1F
100
AcDbEntity
  8
0-0
  6
JWW_DASHED1
 62
   120
370
     5
100
AcDbLine
 10
-654.1058686673687
 20
-31.23141683302393
 30
0.0
 11
-64.10586866736637
 21
558.7685831669775
 31
0.0
  0
LINE
  5
102
330
1F
100
AcDbEntity
  8
0-0
  6
JWW_DASHED1
 62
   120
370
     5
100
AcDbLine
 10
-654.1058686673721
 20
-24.16034902116323
 30
0.0
 11
-64.10586866735613
 21
565.8396509788544
 31
0.0
  0
LINE
  5
103
330
1F
100
AcDbEntity
  8
0-0
  6
JWW_DASHED1
 62
   120
370
     5
100
AcDbLine
 10
-654.1058686673618
 20
-17.08928120928675
 30
0.0
 11
-64.10586866736296
 21
572.9107187907151
 31
0.0
  0
LINE
  5
104
330
1F
100
AcDbEntity
  8
0-0
  6
JWW_DASHED1
 62
   120
370
     5
100
AcDbLine
 10
-654.1058686673618
 20
-10.01821339742008
 30
0.0
 11
-64.10586866735272
 21
579.9817866025908
 31
0.0
  0
LINE
  5
105
330
1F
100
AcDbEntity
  8
0-0
  6
JWW_DASHED1
 62
   120
370
     5
100
AcDbLine
 10
-654.1058686673755
 20
-2.947145585564925
 30
0.0
 11
-64.10586866735954
 21
587.0528544144522
 31
0.0
  0
LINE
  5
106
330
1F
100
AcDbEntity
  8
0-0
  6
JWW_DASHED1
 62
   120
370
     5
100
AcDbLine
 10
-654.1058686673653
 20
4.123922226311549
 30
0.0
 11
-64.10586866736296
 21
594.1239222263125
 31
0.0
  0
LINE
  5
107
330
1F
100
AcDbEntity
  8
0-0
  6
JWW_DASHED1
 62
   120
370
     5
100
AcDbLine
 10
-654.1058686673653
 20
11.19499003817864
 30
0.0
 11
-64.10586866735272
 21
601.1949900381894
 31
0.0
  0
LINE
  5
108
330
1F
100
AcDbEntity
  8
0-0
  6
JWW_DASHED1
 62
   120
370
     5
100
AcDbLine
 10
-654.1058686673618
 20
18.26605785004872
 30
0.0
 11
-64.10586866735954
 21
608.2660578500502
 31
0.0
  0
LINE
  5
109
330
1F
100
AcDbEntity
  8
0-0
  6
JWW_DASHED1
 62
   120
370
     5
100
AcDbLine
 10
-654.1058686673687
 20
25.33712566190985
 30
0.0
 11
-64.10586866736637
 21
615.3371256619108
 31
0.0
  0
LINE
  5
10A
330
1F
100
AcDbEntity
  8
0-0
  6
JWW_DASHED1
 62
   120
370
     5
100
AcDbLine
 10
-654.1058686673653
 20
32.40819347377695
 30
0.0
 11
-68.19779775704816
 21
618.3162643840949
 31
0.0
  0
LINE
  5
10B
330
1F
100
AcDbEntity
  8
0-0
  6
JWW_DASHED1
 62
   120
370
     5
100
AcDbLine
 10
-654.1058686673618
 20
39.47926128564703
 30
0.0
 11
-75.26886556890801
 21
618.3162643841008
 31
0.0
  0
LINE
  5
10C
330
1F
100
AcDbEntity
  8
0-0
  6
JWW_DASHED1
 62
   120
370
     5
100
AcDbLine
 10
-654.1058686673687
 20
46.55032909750773
 30
0.0
 11
-82.33993338077127
 21
618.3162643841068
 31
0.0
  0
LINE
  5
10D
330
1F
100
AcDbEntity
  8
0-0
  6
JWW_DASHED1
 62
   120
370
     5
100
AcDbLine
 10
-654.1058686673687
 20
53.62139690937525
 30
0.0
 11
-89.41100119264817
 21
618.3162643840966
 31
0.0
  0
LINE
  5
10E
330
1F
100
AcDbEntity
  8
0-0
  6
JWW_DASHED1
 62
   120
370
     5
100
AcDbLine
 10
-654.1058686673653
 20
60.69246472124533
 30
0.0
 11
-96.48206900450802
 21
618.3162643841025
 31
0.0
  0
LINE
  5
10F
330
1F
100
AcDbEntity
  8
0-0
  6
JWW_DASHED1
 62
   120
370
     5
100
AcDbLine
 10
-654.1058686673721
 20
67.76353253310603
 30
0.0
 11
-103.5531368163679
 21
618.3162643841085
 31
0.0
  0
LINE
  5
110
330
1F
100
AcDbEntity
  8
0-0
  6
JWW_DASHED1
 62
   120
370
     5
100
AcDbLine
 10
-654.1058686673618
 20
74.8346003449825
 30
0.0
 11
-110.6242046282448
 21
618.3162643840983
 31
0.0
  0
LINE
  5
111
330
1F
100
AcDbEntity
  8
0-0
  6
JWW_DASHED1
 62
   120
370
     5
100
AcDbLine
 10
-654.1058686673687
 20
81.9056681568432
 30
0.0
 11
-117.6952724401046
 21
618.3162643841042
 31
0.0
  0
LINE
  5
112
330
1F
100
AcDbEntity
  8
0-0
  6
JWW_DASHED1
 62
   120
370
     5
100
AcDbLine
 10
-654.1058686673721
 20
88.9767359687039
 30
0.0
 11
-124.7663402519679
 21
618.3162643841102
 31
0.0
  0
LINE
  5
113
330
1F
100
AcDbEntity
  8
0-0
  6
JWW_DASHED1
 62
   120
370
     5
100
AcDbLine
 10
-654.1058686673618
 20
96.04780378058081
 30
0.0
 11
-131.8374080638414
 21
618.3162643841
 31
0.0
  0
LINE
  5
114
330
1F
100
AcDbEntity
  8
0-0
  6
JWW_DASHED1
 62
   120
370
     5
100
AcDbLine
 10
-654.1058686673687
 20
103.1188715924415
 30
0.0
 11
-138.9084758757046
 21
618.3162643841064
 31
0.0
  0
LINE
  5
115
330
1F
100
AcDbEntity
  8
0-0
  6
JWW_DASHED1
 62
   120
370
     5
100
AcDbLine
 10
-654.1058686673755
 20
110.1899394043022
 30
0.0
 11
-145.9795436875781
 21
618.3162643840988
 31
0.0
  0
LINE
  5
116
330
1F
100
AcDbEntity
  8
0-0
  6
JWW_DASHED1
 62
   120
370
     5
100
AcDbLine
 10
-654.1058686673653
 20
117.2610072161787
 30
0.0
 11
-153.0506114994414
 21
618.3162643841022
 31
0.0
  0
LINE
  5
117
330
1F
100
AcDbEntity
  8
0-0
  6
JWW_DASHED1
 62
   120
370
     5
100
AcDbLine
 10
-654.1058686673618
 20
124.3320750280475
 30
0.0
 11
-160.1216793113183
 21
618.3162643840923
 31
0.0
  0
LINE
  5
118
330
1F
100
AcDbEntity
  8
0-0
  6
JWW_DASHED1
 62
   120
370
     5
100
AcDbLine
 10
-654.1058686673618
 20
131.4031428399163
 30
0.0
 11
-167.1927471231781
 21
618.3162643840983
 31
0.0
  0
LINE
  5
119
330
1F
100
AcDbEntity
  8
0-0
  6
JWW_DASHED1
 62
   120
370
     5
100
AcDbLine
 10
-654.1058686673653
 20
138.474210651777
 30
0.0
 11
-174.263814935038
 21
618.3162643841042
 31
0.0
  0
LINE
  5
11A
330
1F
100
AcDbEntity
  8
0-0
  6
JWW_DASHED1
 62
   120
370
     5
100
AcDbLine
 10
-654.1058686673653
 20
145.5452784636458
 30
0.0
 11
-181.3348827469149
 21
618.316264384094
 31
0.0
  0
LINE
  5
11B
330
1F
100
AcDbEntity
  8
0-0
  6
JWW_DASHED1
 62
   120
370
     5
100
AcDbLine
 10
-654.1058686673618
 20
152.6163462755146
 30
0.0
 11
-188.4059505587747
 21
618.3162643841
 31
0.0
  0
LINE
  5
11C
330
1F
100
AcDbEntity
  8
0-0
  6
JWW_DASHED1
 62
   120
370
     5
100
AcDbLine
 10
-654.1058686673687
 20
159.6874140873753
 30
0.0
 11
-195.477018370638
 21
618.3162643841059
 31
0.0
  0
LINE
  5
11D
330
1F
100
AcDbEntity
  8
0-0
  6
JWW_DASHED1
 62
   120
370
     5
100
AcDbLine
 10
-654.1058686673653
 20
166.7584818992445
 30
0.0
 11
-202.5480861825149
 21
618.3162643840961
 31
0.0
  0
LINE
  5
11E
330
1F
100
AcDbEntity
  8
0-0
  6
JWW_DASHED1
 62
   120
370
     5
100
AcDbLine
 10
-654.1058686673653
 20
173.8295497111125
 30
0.0
 11
-209.6191539943747
 21
618.3162643841017
 31
0.0
  0
LINE
  5
11F
330
1F
100
AcDbEntity
  8
0-0
  6
JWW_DASHED1
 62
   120
370
     5
100
AcDbLine
 10
-654.1058686673687
 20
180.9006175229732
 30
0.0
 11
-216.6902218062346
 21
618.3162643841076
 31
0.0
  0
LINE
  5
120
330
1F
100
AcDbEntity
  8
0-0
  6
JWW_DASHED1
 62
   120
370
     5
100
AcDbLine
 10
-654.1058686673687
 20
187.9716853348428
 30
0.0
 11
-223.7612896181115
 21
618.3162643840978
 31
0.0
  0
LINE
  5
121
330
1F
100
AcDbEntity
  8
0-0
  6
JWW_DASHED1
 62
   120
370
     5
100
AcDbLine
 10
-654.1058686673653
 20
195.0427531467103
 30
0.0
 11
-230.8323574299747
 21
618.3162643841038
 31
0.0
  0
LINE
  5
122
330
1F
100
AcDbEntity
  8
0-0
  6
JWW_DASHED1
 62
   120
370
     5
100
AcDbLine
 10
-654.1058686673721
 20
202.1138209585715
 30
0.0
 11
-237.9034252418346
 21
618.3162643841098
 31
0.0
  0
LINE
  5
123
330
1F
100
AcDbEntity
  8
0-0
  6
JWW_DASHED1
 62
   120
370
     5
100
AcDbLine
 10
-654.1058686673618
 20
209.1848887704479
 30
0.0
 11
-244.9744930537081
 21
618.3162643841
 31
0.0
  0
LINE
  5
124
330
1F
100
AcDbEntity
  8
0-0
  6
JWW_DASHED1
 62
   120
370
     5
100
AcDbLine
 10
-654.1058686673687
 20
216.2559565823086
 30
0.0
 11
-252.0455608655713
 21
618.3162643841059
 31
0.0
  0
LINE
  5
125
330
1F
100
AcDbEntity
  8
0-0
  6
JWW_DASHED1
 62
   120
370
     5
100
AcDbLine
 10
-654.1058686673755
 20
223.3270243941693
 30
0.0
 11
-259.1166286774414
 21
618.3162643841008
 31
0.0
  0
LINE
  5
126
330
1F
100
AcDbEntity
  8
0-0
  6
JWW_DASHED1
 62
   120
370
     5
100
AcDbLine
 10
-654.1058686673653
 20
230.3980922060462
 30
0.0
 11
-266.1876964893081
 21
618.3162643841017
 31
0.0
  0
LINE
  5
127
330
1F
100
AcDbEntity
  8
0-0
  6
JWW_DASHED1
 62
   120
370
     5
100
AcDbLine
 10
-654.1058686673618
 20
237.4691600179163
 30
0.0
 11
-273.258764301185
 21
618.3162643840915
 31
0.0
  0
LINE
  5
128
330
1F
100
AcDbEntity
  8
0-0
  6
JWW_DASHED1
 62
   120
370
     5
100
AcDbLine
 10
-654.1058686673755
 20
244.5402278297676
 30
0.0
 11
-280.3298321130414
 21
618.3162643841034
 31
0.0
  0
LINE
  5
129
330
1F
100
AcDbEntity
  8
0-0
  6
JWW_DASHED1
 62
   120
370
     5
100
AcDbLine
 10
-654.1058686673653
 20
251.6112956416441
 30
0.0
 11
-287.4008999249081
 21
618.3162643841034
 31
0.0
  0
LINE
  5
12A
330
1F
100
AcDbEntity
  8
0-0
  6
JWW_DASHED1
 62
   120
370
     5
100
AcDbLine
 10
-654.1058686673618
 20
258.6823634535151
 30
0.0
 11
-294.4719677367816
 21
618.3162643840935
 31
0.0
  0
LINE
  5
12B
330
1F
100
AcDbEntity
  8
0-0
  6
JWW_DASHED1
 62
   120
370
     5
100
AcDbLine
 10
-654.1058686673618
 20
265.7534312653813
 30
0.0
 11
-301.5430355486449
 21
618.3162643840996
 31
0.0
  0
LINE
  5
12C
330
1F
100
AcDbEntity
  8
0-0
  6
JWW_DASHED1
 62
   120
370
     5
100
AcDbLine
 10
-654.1058686673687
 20
272.8244990772424
 30
0.0
 11
-308.6141033605047
 21
618.3162643841056
 31
0.0
  0
LINE
  5
12D
330
1F
100
AcDbEntity
  8
0-0
  6
JWW_DASHED1
 62
   120
370
     5
100
AcDbLine
 10
-654.1058686673618
 20
279.8955668891134
 30
0.0
 11
-315.6851711723816
 21
618.3162643840957
 31
0.0
  0
LINE
  5
12E
330
1F
100
AcDbEntity
  8
0-0
  6
JWW_DASHED1
 62
   120
370
     5
100
AcDbLine
 10
-654.1058686673618
 20
286.9666347009796
 30
0.0
 11
-322.7562389842415
 21
618.3162643841017
 31
0.0
  0
LINE
  5
12F
330
1F
100
AcDbEntity
  8
0-0
  6
JWW_DASHED1
 62
   120
370
     5
100
AcDbLine
 10
-654.1058686673687
 20
294.0377025128403
 30
0.0
 11
-329.8273067961013
 21
618.3162643841076
 31
0.0
  0
LINE
  5
130
330
1F
100
AcDbEntity
  8
0-0
  6
JWW_DASHED1
 62
   120
370
     5
100
AcDbLine
 10
-654.1058686673653
 20
301.1087703247117
 30
0.0
 11
-336.8983746079782
 21
618.3162643840974
 31
0.0
  0
LINE
  5
131
330
1F
100
AcDbEntity
  8
0-0
  6
JWW_DASHED1
 62
   120
370
     5
100
AcDbLine
 10
-654.1058686673653
 20
308.1798381365779
 30
0.0
 11
-343.9694424198415
 21
618.3162643841034
 31
0.0
  0
LINE
  5
132
330
1F
100
AcDbEntity
  8
0-0
  6
JWW_DASHED1
 62
   120
370
     5
100
AcDbLine
 10
-654.1058686673721
 20
315.2509059484386
 30
0.0
 11
-351.0405102317013
 21
618.3162643841093
 31
0.0
  0
LINE
  5
133
330
1F
100
AcDbEntity
  8
0-0
  6
JWW_DASHED1
 62
   120
370
     5
100
AcDbLine
 10
-654.1058686673618
 20
322.3219737603151
 30
0.0
 11
-358.1115780435782
 21
618.3162643840991
 31
0.0
  0
LINE
  5
134
330
1F
100
AcDbEntity
  8
0-0
  6
JWW_DASHED1
 62
   120
370
     5
100
AcDbLine
 10
-654.1058686673687
 20
329.3930415721762
 30
0.0
 11
-365.1826458554381
 21
618.3162643841051
 31
0.0
  0
LINE
  5
135
330
1F
100
AcDbEntity
  8
0-0
  6
JWW_DASHED1
 62
   120
370
     5
100
AcDbLine
 10
-654.1058686673755
 20
336.4641093840369
 30
0.0
 11
-372.2537136672979
 21
618.316264384111
 31
0.0
  0
LINE
  5
136
330
1F
100
AcDbEntity
  8
0-0
  6
JWW_DASHED1
 62
   120
370
     5
100
AcDbLine
 10
-654.1058686673618
 20
343.5351771959134
 30
0.0
 11
-379.3247814791748
 21
618.3162643841013
 31
0.0
  0
LINE
  5
137
330
1F
100
AcDbEntity
  8
0-0
  6
JWW_DASHED1
 62
   120
370
     5
100
AcDbLine
 10
-654.1058686673721
 20
350.6062450077446
 30
0.0
 11
-386.3958492910074
 21
618.3162643841093
 31
0.0
  0
LINE
  5
138
330
1F
100
AcDbEntity
  8
0-0
  6
JWW_DASHED1
 62
   120
370
     5
100
AcDbLine
 10
-654.1058686673653
 20
357.6773128195917
 30
0.0
 11
-393.4669171028536
 21
618.3162643841017
 31
0.0
  0
LINE
  5
139
330
1F
100
AcDbEntity
  8
0-0
  6
JWW_DASHED1
 62
   120
370
     5
100
AcDbLine
 10
-654.1058686673687
 20
364.7483806314524
 30
0.0
 11
-400.5379849147134
 21
618.3162643841076
 31
0.0
  0
LINE
  5
13A
330
1F
100
AcDbEntity
  8
0-0
  6
JWW_DASHED1
 62
   120
370
     5
100
AcDbLine
 10
-654.1058686673653
 20
371.8194484433251
 30
0.0
 11
-407.6090527265903
 21
618.3162643840974
 31
0.0
  0
LINE
  5
13B
330
1F
100
AcDbEntity
  8
0-0
  6
JWW_DASHED1
 62
   120
370
     5
100
AcDbLine
 10
-654.1058686673653
 20
378.8905162551901
 30
0.0
 11
-414.6801205384536
 21
618.3162643841034
 31
0.0
  0
LINE
  5
13C
330
1F
100
AcDbEntity
  8
0-0
  6
JWW_DASHED1
 62
   120
370
     5
100
AcDbLine
 10
-654.1058686673721
 20
385.9615840670507
 30
0.0
 11
-421.7511883503134
 21
618.3162643841093
 31
0.0
  0
LINE
  5
13D
330
1F
100
AcDbEntity
  8
0-0
  6
JWW_DASHED1
 62
   120
370
     5
100
AcDbLine
 10
-654.1058686673653
 20
393.0326518789234
 30
0.0
 11
-428.8222561621903
 21
618.3162643840991
 31
0.0
  0
LINE
  5
13E
330
1F
100
AcDbEntity
  8
0-0
  6
JWW_DASHED1
 62
   120
370
     5
100
AcDbLine
 10
-654.1058686673687
 20
400.1037196907884
 30
0.0
 11
-435.8933239740502
 21
618.3162643841051
 31
0.0
  0
LINE
  5
13F
330
1F
100
AcDbEntity
  8
0-0
  6
JWW_DASHED1
 62
   120
370
     5
100
AcDbLine
 10
-654.1058686673721
 20
407.174787502649
 30
0.0
 11
-442.96439178591
 21
618.316264384111
 31
0.0
  0
LINE
  5
140
330
1F
100
AcDbEntity
  8
0-0
  6
JWW_DASHED1
 62
   120
370
     5
100
AcDbLine
 10
-654.1058686673618
 20
414.2458553145255
 30
0.0
 11
-450.0354595977869
 21
618.3162643841013
 31
0.0
  0
LINE
  5
141
330
1F
100
AcDbEntity
  8
0-0
  6
JWW_DASHED1
 62
   120
370
     5
100
AcDbLine
 10
-654.1058686673687
 20
421.3169231263857
 30
0.0
 11
-457.1065274096468
 21
618.3162643841072
 31
0.0
  0
LINE
  5
142
330
1F
100
AcDbEntity
  8
0-0
  6
JWW_DASHED1
 62
   120
370
     5
100
AcDbLine
 10
-654.1058686673755
 20
428.3879909382465
 30
0.0
 11
-464.1775952215135
 21
618.3162643841076
 31
0.0
  0
LINE
  5
143
330
1F
100
AcDbEntity
  8
0-0
  6
JWW_DASHED1
 62
   120
370
     5
100
AcDbLine
 10
-654.1058686673653
 20
435.4590587501234
 30
0.0
 11
-471.2486630333869
 21
618.316264384103
 31
0.0
  0
LINE
  5
144
330
1F
100
AcDbEntity
  8
0-0
  6
JWW_DASHED1
 62
   120
370
     5
100
AcDbLine
 10
-654.1058686673584
 20
442.5301265619969
 30
0.0
 11
-478.3197308452604
 21
618.3162643840932
 31
0.0
  0
LINE
  5
145
330
1F
100
AcDbEntity
  8
0-0
  6
JWW_DASHED1
 62
   120
370
     5
100
AcDbLine
 10
-654.1058686673755
 20
449.6011943738448
 30
0.0
 11
-485.3907986571135
 21
618.3162643841102
 31
0.0
  0
LINE
  5
146
330
1F
100
AcDbEntity
  8
0-0
  6
JWW_DASHED1
 62
   120
370
     5
100
AcDbLine
 10
-654.1058686673687
 20
456.6722621857217
 30
0.0
 11
-492.4618664689835
 21
618.3162643841051
 31
0.0
  0
LINE
  5
147
330
1F
100
AcDbEntity
  8
0-0
  6
JWW_DASHED1
 62
   120
370
     5
100
AcDbLine
 10
-654.1058686673618
 20
463.7433299975956
 30
0.0
 11
-499.5329342808604
 21
618.3162643840949
 31
0.0
  0
LINE
  5
148
330
1F
100
AcDbEntity
  8
0-0
  6
JWW_DASHED1
 62
   120
370
     5
100
AcDbLine
 10
-654.1058686673618
 20
470.8143978094589
 30
0.0
 11
-506.6040020927203
 21
618.3162643841008
 31
0.0
  0
LINE
  5
149
330
1F
100
AcDbEntity
  8
0-0
  6
JWW_DASHED1
 62
   120
370
     5
100
AcDbLine
 10
-654.1058686673687
 20
477.8854656213196
 30
0.0
 11
-513.6750699045801
 21
618.3162643841068
 31
0.0
  0
LINE
  5
14A
330
1F
100
AcDbEntity
  8
0-0
  6
JWW_DASHED1
 62
   120
370
     5
100
AcDbLine
 10
-654.1058686673618
 20
484.9565334331943
 30
0.0
 11
-520.7461377164605
 21
618.3162643840966
 31
0.0
  0
LINE
  5
14B
330
1F
100
AcDbEntity
  8
0-0
  6
JWW_DASHED1
 62
   120
370
     5
100
AcDbLine
 10
-654.1058686673653
 20
492.0276012450568
 30
0.0
 11
-527.8172055283203
 21
618.3162643841025
 31
0.0
  0
LINE
  5
14C
330
1F
100
AcDbEntity
  8
0-0
  6
JWW_DASHED1
 62
   120
370
     5
100
AcDbLine
 10
-654.1058686673721
 20
499.0986690569179
 30
0.0
 11
-534.8882733401801
 21
618.3162643841085
 31
0.0
  0
LINE
  5
14D
330
1F
100
AcDbEntity
  8
0-0
  6
JWW_DASHED1
 62
   120
370
     5
100
AcDbLine
 10
-654.1058686673618
 20
506.1697368687926
 30
0.0
 11
-541.959341152057
 21
618.3162643840988
 31
0.0
  0
LINE
  5
14E
330
1F
100
AcDbEntity
  8
0-0
  6
JWW_DASHED1
 62
   120
370
     5
100
AcDbLine
 10
-654.1058686673687
 20
513.2408046806551
 30
0.0
 11
-549.0304089639169
 21
618.3162643841042
 31
0.0
  0
LINE
  5
14F
330
1F
100
AcDbEntity
  8
0-0
  6
JWW_DASHED1
 62
   120
370
     5
100
AcDbLine
 10
-654.1058686673721
 20
520.3118724925157
 30
0.0
 11
-556.1014767757802
 21
618.3162643841106
 31
0.0
  0
LINE
  5
150
330
1F
100
AcDbEntity
  8
0-0
  6
JWW_DASHED1
 62
   120
370
     5
100
AcDbLine
 10
-654.1058686673618
 20
527.3829403043926
 30
0.0
 11
-563.1725445876536
 21
618.3162643841008
 31
0.0
  0
LINE
  5
151
330
1F
100
AcDbEntity
  8
0-0
  6
JWW_DASHED1
 62
   120
370
     5
100
AcDbLine
 10
-654.1058686673687
 20
534.4540081162534
 30
0.0
 11
-570.2436123995169
 21
618.3162643841068
 31
0.0
  0
LINE
  5
152
330
1F
100
AcDbEntity
  8
0-0
  6
JWW_DASHED1
 62
   120
370
     5
100
AcDbLine
 10
-654.1058686673755
 20
541.525075928114
 30
0.0
 11
-577.3146802113802
 21
618.3162643841102
 31
0.0
  0
LINE
  5
153
330
1F
100
AcDbEntity
  8
0-0
  6
JWW_DASHED1
 62
   120
370
     5
100
AcDbLine
 10
-654.1058686673653
 20
548.5961437399909
 30
0.0
 11
-584.3857480232537
 21
618.3162643841025
 31
0.0
  0
LINE
  5
154
330
1F
100
AcDbEntity
  8
0-0
  6
JWW_DASHED1
 62
   120
370
     5
100
AcDbLine
 10
-654.105868667355
 20
555.6672115518661
 30
0.0
 11
-591.4568158351306
 21
618.3162643840923
 31
0.0
  0
LINE
  5
155
330
1F
100
AcDbEntity
  8
0-0
  6
JWW_DASHED1
 62
   120
370
     5
100
AcDbLine
 10
-654.1058686673755
 20
562.7382793637123
 30
0.0
 11
-598.5278836469768
 21
618.3162643841127
 31
0.0
  0
LINE
  5
156
330
1F
100
AcDbEntity
  8
0-0
  6
JWW_DASHED1
 62
   120
370
     5
100
AcDbLine
 10
-654.1058686673687
 20
569.8093471755884
 30
0.0
 11
-605.5989514588503
 21
618.3162643841042
 31
0.0
  0
LINE
  5
157
330
1F
100
AcDbEntity
  8
0-0
  6
JWW_DASHED1
 62
   120
370
     5
100
AcDbLine
 10
-654.1058686673584
 20
576.8804149874649
 30
0.0
 11
-612.6700192707272
 21
618.3162643840949
 31
0.0
  0
LINE
  5
158
330
1F
100
AcDbEntity
  8
0-0
  6
JWW_DASHED1
 62
   120
370
     5
100
AcDbLine
 10
-654.1058686673618
 20
583.951482799326
 30
0.0
 11
-619.741087082587
 21
618.3162643841004
 31
0.0
  0
LINE
  5
159
330
1F
100
AcDbEntity
  8
0-0
  6
JWW_DASHED1
 62
   120
370
     5
100
AcDbLine
 10
-654.1058686673687
 20
591.0225506111872
 30
0.0
 11
-626.8121548944503
 21
618.3162643841064
 31
0.0
  0
LINE
  5
15A
330
1F
100
AcDbEntity
  8
0-0
  6
JWW_DASHED1
 62
   120
370
     5
100
AcDbLine
 10
-654.1058686673584
 20
598.0936184230632
 30
0.0
 11
-633.8832227063272
 21
618.3162643840966
 31
0.0
  0
LINE
  5
15B
330
1F
100
AcDbEntity
  8
0-0
  6
JWW_DASHED1
 62
   120
370
     5
100
AcDbLine
 10
-654.1058686673653
 20
605.1646862349243
 30
0.0
 11
-640.954290518187
 21
618.3162643841025
 31
0.0
  0
LINE
  5
15C
330
1F
100
AcDbEntity
  8
0-0
  6
JWW_DASHED1
 62
   120
370
     5
100
AcDbLine
 10
-654.1058686673687
 20
612.235754046785
 30
0.0
 11
-648.0253583300469
 21
618.3162643841085
 31
0.0
  0
LINE
  5
15D
330
1F
100
AcDbEntity
  8
0-0
  6
Continuous
 62
    92
370
    13
100
AcDbLine
 10
745.8941313326387
 20
-356.6837356158992
 30
0.0
 11
155.8941313326365
 21
-356.6837356158992
 31
0.0
  0
LINE
  5
15E
330
1F
100
AcDbEntity
  8
0-0
  6
Continuous
 62
    92
370
    13
100
AcDbLine
 10
745.8941313326387
 20
-486.6837356158994
 30
0.0
 11
155.8941313326365
 21
-486.6837356158994
 31
0.0
  0
LINE
  5
15F
330
1F
100
AcDbEntity
  8
0-0
  6
JWW_DASHED1
 62
   120
370
     5
100
AcDbLine
 10
742.6095602803987
 20
-356.6837356158936
 30
0.0
 11
745.8941313326336
 21
-353.3991645636604
 31
0.0
  0
LINE
  5
160
330
1F
100
AcDbEntity
  8
0-0
  6
JWW_DASHED1
 62
   120
370
     5
100
AcDbLine
 10
735.5384924685218
 20
-356.6837356159039
 30
0.0
 11
745.8941313326438
 21
-346.328096751784
 31
0.0
  0
LINE
  5
161
330
1F
100
AcDbEntity
  8
0-0
  6
JWW_DASHED1
 62
   120
370
     5
100
AcDbLine
 10
728.4674246566619
 20
-356.6837356158979
 30
0.0
 11
745.894131332637
 21
-339.2570289399232
 31
0.0
  0
LINE
  5
162
330
1F
100
AcDbEntity
  8
0-0
  6
JWW_DASHED1
 62
   120
370
     5
100
AcDbLine
 10
721.3963568448021
 20
-356.6837356158919
 30
0.0
 11
745.8941313326319
 21
-332.1859611280616
 31
0.0
  0
LINE
  5
163
330
1F
100
AcDbEntity
  8
0-0
  6
JWW_DASHED1
 62
   120
370
     5
100
AcDbLine
 10
714.3252890329252
 20
-356.6837356159017
 30
0.0
 11
745.8941313326404
 21
-325.1148933161857
 31
0.0
  0
LINE
  5
164
330
1F
100
AcDbEntity
  8
0-0
  6
JWW_DASHED1
 62
   120
370
     5
100
AcDbLine
 10
707.2542212210636
 20
-356.6837356158962
 30
0.0
 11
745.8941313326353
 21
-318.0438255043249
 31
0.0
  0
LINE
  5
165
330
1F
100
AcDbEntity
  8
0-0
  6
JWW_DASHED1
 62
   120
370
     5
100
AcDbLine
 10
700.1831534092021
 20
-356.6837356158902
 30
0.0
 11
745.8941313326302
 21
-310.9727576924633
 31
0.0
  0
LINE
  5
166
330
1F
100
AcDbEntity
  8
0-0
  6
JWW_DASHED1
 62
   120
370
     5
100
AcDbLine
 10
693.1120855973269
 20
-356.6837356159
 30
0.0
 11
745.8941313326387
 21
-303.9016898805874
 31
0.0
  0
LINE
  5
167
330
1F
100
AcDbEntity
  8
0-0
  6
JWW_DASHED1
 62
   120
370
     5
100
AcDbLine
 10
686.0410177854653
 20
-356.6837356158941
 30
0.0
 11
745.8941313326336
 21
-296.8306220687266
 31
0.0
  0
LINE
  5
168
330
1F
100
AcDbEntity
  8
0-0
  6
JWW_DASHED1
 62
   120
370
     5
100
AcDbLine
 10
678.9699499735884
 20
-356.6837356159043
 30
0.0
 11
745.8941313326438
 21
-289.7595542568502
 31
0.0
  0
LINE
  5
169
330
1F
100
AcDbEntity
  8
0-0
  6
JWW_DASHED1
 62
   120
370
     5
100
AcDbLine
 10
671.8988821617286
 20
-356.6837356158983
 30
0.0
 11
745.894131332637
 21
-282.6884864449895
 31
0.0
  0
LINE
  5
16A
330
1F
100
AcDbEntity
  8
0-0
  6
JWW_DASHED1
 62
   120
370
     5
100
AcDbLine
 10
664.8278143498551
 20
-356.683735615906
 30
0.0
 11
745.8941313326472
 21
-275.6174186331129
 31
0.0
  0
LINE
  5
16B
330
1F
100
AcDbEntity
  8
0-0
  6
JWW_DASHED1
 62
   120
370
     5
100
AcDbLine
 10
657.7567465379918
 20
-356.6837356159022
 30
0.0
 11
745.8941313326404
 21
-268.5463508212518
 31
0.0
  0
LINE
  5
16C
330
1F
100
AcDbEntity
  8
0-0
  6
JWW_DASHED1
 62
   120
370
     5
100
AcDbLine
 10
650.6856787261303
 20
-356.6837356158962
 30
0.0
 11
745.894131332637
 21
-261.4752830093898
 31
0.0
  0
LINE
  5
16D
330
1F
100
AcDbEntity
  8
0-0
  6
JWW_DASHED1
 62
   120
370
     5
100
AcDbLine
 10
643.6146109142568
 20
-356.6837356159034
 30
0.0
 11
745.8941313326455
 21
-254.4042151975147
 31
0.0
  0
LINE
  5
16E
330
1F
100
AcDbEntity
  8
0-0
  6
JWW_DASHED1
 62
   120
370
     5
100
AcDbLine
 10
636.5435431023935
 20
-356.6837356159004
 30
0.0
 11
745.8941313326404
 21
-247.333147385654
 31
0.0
  0
LINE
  5
16F
330
1F
100
AcDbEntity
  8
0-0
  6
JWW_DASHED1
 62
   120
370
     5
100
AcDbLine
 10
629.472475290532
 20
-356.6837356158945
 30
0.0
 11
745.8941313326353
 21
-240.2620795737911
 31
0.0
  0
LINE
  5
170
330
1F
100
AcDbEntity
  8
0-0
  6
JWW_DASHED1
 62
   120
370
     5
100
AcDbLine
 10
622.4014074786551
 20
-356.6837356159043
 30
0.0
 11
745.8941313326438
 21
-233.1910117619164
 31
0.0
  0
LINE
  5
171
330
1F
100
AcDbEntity
  8
0-0
  6
JWW_DASHED1
 62
   120
370
     5
100
AcDbLine
 10
615.3303396668242
 20
-356.6837356158962
 30
0.0
 11
745.8941313326353
 21
-226.1199439500851
 31
0.0
  0
LINE
  5
172
330
1F
100
AcDbEntity
  8
0-0
  6
JWW_DASHED1
 62
   120
370
     5
100
AcDbLine
 10
608.2592718549763
 20
-356.6837356159043
 30
0.0
 11
745.8941313326438
 21
-219.048876138238
 31
0.0
  0
LINE
  5
173
330
1F
100
AcDbEntity
  8
0-0
  6
JWW_DASHED1
 62
   120
370
     5
100
AcDbLine
 10
601.1882040431165
 20
-356.6837356158983
 30
0.0
 11
745.894131332637
 21
-211.9778083263773
 31
0.0
  0
LINE
  5
174
330
1F
100
AcDbEntity
  8
0-0
  6
JWW_DASHED1
 62
   120
370
     5
100
AcDbLine
 10
594.117136231243
 20
-356.6837356159039
 30
0.0
 11
745.8941313326472
 21
-204.9067405145009
 31
0.0
  0
LINE
  5
175
330
1F
100
AcDbEntity
  8
0-0
  6
JWW_DASHED1
 62
   120
370
     5
100
AcDbLine
 10
587.0460684193797
 20
-356.6837356159022
 30
0.0
 11
745.8941313326404
 21
-197.8356727026402
 31
0.0
  0
LINE
  5
176
330
1F
100
AcDbEntity
  8
0-0
  6
JWW_DASHED1
 62
   120
370
     5
100
AcDbLine
 10
579.9750006075182
 20
-356.6837356158962
 30
0.0
 11
745.894131332637
 21
-190.7646048907769
 31
0.0
  0
LINE
  5
177
330
1F
100
AcDbEntity
  8
0-0
  6
JWW_DASHED1
 62
   120
370
     5
100
AcDbLine
 10
572.9039327956464
 20
-356.6837356159017
 30
0.0
 11
745.8941313326455
 21
-183.6935370789026
 31
0.0
  0
LINE
  5
178
330
1F
100
AcDbEntity
  8
0-0
  6
JWW_DASHED1
 62
   120
370
     5
100
AcDbLine
 10
565.8328649837814
 20
-356.6837356159
 30
0.0
 11
745.8941313326404
 21
-176.6224692670419
 31
0.0
  0
LINE
  5
179
330
1F
100
AcDbEntity
  8
0-0
  6
JWW_DASHED1
 62
   120
370
     5
100
AcDbLine
 10
558.7617971719199
 20
-356.6837356158945
 30
0.0
 11
745.894131332637
 21
-169.5514014551782
 31
0.0
  0
LINE
  5
17A
330
1F
100
AcDbEntity
  8
0-0
  6
JWW_DASHED1
 62
   120
370
     5
100
AcDbLine
 10
551.690729360043
 20
-356.6837356159043
 30
0.0
 11
745.8941313326438
 21
-162.4803336433042
 31
0.0
  0
LINE
  5
17B
330
1F
100
AcDbEntity
  8
0-0
  6
JWW_DASHED1
 62
   120
370
     5
100
AcDbLine
 10
544.6196615481831
 20
-356.6837356158983
 30
0.0
 11
745.894131332637
 21
-155.4092658314435
 31
0.0
  0
LINE
  5
17C
330
1F
100
AcDbEntity
  8
0-0
  6
JWW_DASHED1
 62
   120
370
     5
100
AcDbLine
 10
537.5485937363215
 20
-356.6837356158924
 30
0.0
 11
745.8941313326353
 21
-148.3381980195794
 31
0.0
  0
LINE
  5
17D
330
1F
100
AcDbEntity
  8
0-0
  6
JWW_DASHED1
 62
   120
370
     5
100
AcDbLine
 10
530.4775259244464
 20
-356.6837356159026
 30
0.0
 11
745.8941313326421
 21
-141.2671302077059
 31
0.0
  0
LINE
  5
17E
330
1F
100
AcDbEntity
  8
0-0
  6
JWW_DASHED1
 62
   120
370
     5
100
AcDbLine
 10
523.4064581125848
 20
-356.6837356158966
 30
0.0
 11
745.8941313326353
 21
-134.1960623958457
 31
0.0
  0
LINE
  5
17F
330
1F
100
AcDbEntity
  8
0-0
  6
JWW_DASHED1
 62
   120
370
     5
100
AcDbLine
 10
516.3353903007232
 20
-356.6837356158907
 30
0.0
 11
745.8941313326336
 21
-127.1249945839811
 31
0.0
  0
LINE
  5
180
330
1F
100
AcDbEntity
  8
0-0
  6
JWW_DASHED1
 62
   120
370
     5
100
AcDbLine
 10
509.2643224888463
 20
-356.6837356159004
 30
0.0
 11
745.8941313326404
 21
-120.0539267721085
 31
0.0
  0
LINE
  5
181
330
1F
100
AcDbEntity
  8
0-0
  6
JWW_DASHED1
 62
   120
370
     5
100
AcDbLine
 10
502.1932546769865
 20
-356.6837356158945
 30
0.0
 11
745.8941313326336
 21
-112.9828589602478
 31
0.0
  0
LINE
  5
182
330
1F
100
AcDbEntity
  8
0-0
  6
JWW_DASHED1
 62
   120
370
     5
100
AcDbLine
 10
495.1221868651096
 20
-356.6837356159043
 30
0.0
 11
745.8941313326438
 21
-105.9117911483709
 31
0.0
  0
LINE
  5
183
330
1F
100
AcDbEntity
  8
0-0
  6
JWW_DASHED1
 62
   120
370
     5
100
AcDbLine
 10
488.0511190532497
 20
-356.6837356158987
 30
0.0
 11
745.894131332637
 21
-98.8407233365102
 31
0.0
  0
LINE
  5
184
330
1F
100
AcDbEntity
  8
0-0
  6
JWW_DASHED1
 62
   120
370
     5
100
AcDbLine
 10
480.9800512413882
 20
-356.6837356158928
 30
0.0
 11
745.8941313326319
 21
-91.7696555246495
 31
0.0
  0
LINE
  5
185
330
1F
100
AcDbEntity
  8
0-0
  6
JWW_DASHED1
 62
   120
370
     5
100
AcDbLine
 10
473.9089834295113
 20
-356.6837356159026
 30
0.0
 11
745.8941313326421
 21
-84.69858771277259
 31
0.0
  0
LINE
  5
186
330
1F
100
AcDbEntity
  8
0-0
  6
JWW_DASHED1
 62
   120
370
     5
100
AcDbLine
 10
466.8379156176514
 20
-356.6837356158966
 30
0.0
 11
745.8941313326353
 21
-77.62751990091189
 31
0.0
  0
LINE
  5
187
330
1F
100
AcDbEntity
  8
0-0
  6
JWW_DASHED1
 62
   120
370
     5
100
AcDbLine
 10
459.7668478057831
 20
-356.6837356158992
 30
0.0
 11
745.8941313326455
 21
-70.55645208903499
 31
0.0
  0
LINE
  5
188
330
1F
100
AcDbEntity
  8
0-0
  6
JWW_DASHED1
 62
   120
370
     5
100
AcDbLine
 10
452.695779993913
 20
-356.6837356159009
 30
0.0
 11
745.8941313326404
 21
-63.48538427717472
 31
0.0
  0
LINE
  5
189
330
1F
100
AcDbEntity
  8
0-0
  6
JWW_DASHED1
 62
   120
370
     5
100
AcDbLine
 10
445.6247121820531
 20
-356.6837356158949
 30
0.0
 11
745.8941313326387
 21
-56.41431646530933
 31
0.0
  0
LINE
  5
18A
330
1F
100
AcDbEntity
  8
0-0
  6
JWW_DASHED1
 62
   120
370
     5
100
AcDbLine
 10
438.5536443701762
 20
-356.6837356159047
 30
0.0
 11
745.8941313326438
 21
-49.34324865343712
 31
0.0
  0
LINE
  5
18B
330
1F
100
AcDbEntity
  8
0-0
  6
JWW_DASHED1
 62
   120
370
     5
100
AcDbLine
 10
431.4825765583164
 20
-356.6837356158987
 30
0.0
 11
745.894131332637
 21
-42.27218084157641
 31
0.0
  0
LINE
  5
18C
330
1F
100
AcDbEntity
  8
0-0
  6
JWW_DASHED1
 62
   120
370
     5
100
AcDbLine
 10
424.4115087464548
 20
-356.6837356158928
 30
0.0
 11
745.894131332637
 21
-35.2011130297106
 31
0.0
  0
LINE
  5
18D
330
1F
100
AcDbEntity
  8
0-0
  6
JWW_DASHED1
 62
   120
370
     5
100
AcDbLine
 10
417.3404409345779
 20
-356.683735615903
 30
0.0
 11
745.8941313326421
 21
-28.13004521783924
 31
0.0
  0
LINE
  5
18E
330
1F
100
AcDbEntity
  8
0-0
  6
JWW_DASHED1
 62
   120
370
     5
100
AcDbLine
 10
410.2693731227164
 20
-356.683735615897
 30
0.0
 11
745.894131332637
 21
-21.05897740597854
 31
0.0
  0
LINE
  5
18F
330
1F
100
AcDbEntity
  8
0-0
  6
JWW_DASHED1
 62
   120
370
     5
100
AcDbLine
 10
403.1983053108565
 20
-356.6837356158911
 30
0.0
 11
745.8941313326353
 21
-13.98790959411187
 31
0.0
  0
LINE
  5
190
330
1F
100
AcDbEntity
  8
0-0
  6
JWW_DASHED1
 62
   120
370
     5
100
AcDbLine
 10
396.1272374989796
 20
-356.6837356159009
 30
0.0
 11
745.8941313326404
 21
-6.916841782240937
 31
0.0
  0
LINE
  5
191
330
1F
100
AcDbEntity
  8
0-0
  6
JWW_DASHED1
 62
   120
370
     5
100
AcDbLine
 10
389.0561696871198
 20
-356.6837356158949
 30
0.0
 11
745.8941313326336
 21
0.1542260296197639
 31
0.0
  0
LINE
  5
192
330
1F
100
AcDbEntity
  8
0-0
  6
JWW_DASHED1
 62
   120
370
     5
100
AcDbLine
 10
381.9851018752582
 20
-356.683735615889
 30
0.0
 11
745.8941313326336
 21
7.225293841486433
 31
0.0
  0
LINE
  5
193
330
1F
100
AcDbEntity
  8
0-0
  6
JWW_DASHED1
 62
   120
370
     5
100
AcDbLine
 10
374.914034063383
 20
-356.6837356158992
 30
0.0
 11
745.8941313326387
 21
14.29636165335737
 31
0.0
  0
LINE
  5
194
330
1F
100
AcDbEntity
  8
0-0
  6
JWW_DASHED1
 62
   120
370
     5
100
AcDbLine
 10
367.8429662515215
 20
-356.6837356158932
 30
0.0
 11
745.8941313326319
 21
21.36742946521807
 31
0.0
  0
LINE
  5
195
330
1F
100
AcDbEntity
  8
0-0
  6
JWW_DASHED1
 62
   120
370
     5
100
AcDbLine
 10
360.7718984396446
 20
-356.6837356159034
 30
0.0
 11
745.8941313326421
 21
28.43849727709454
 31
0.0
  0
LINE
  5
196
330
1F
100
AcDbEntity
  8
0-0
  6
JWW_DASHED1
 62
   120
370
     5
100
AcDbLine
 10
353.700830627783
 20
-356.6837356158975
 30
0.0
 11
745.894131332637
 21
35.50956508895567
 31
0.0
  0
LINE
  5
197
330
1F
100
AcDbEntity
  8
0-0
  6
JWW_DASHED1
 62
   120
370
     5
100
AcDbLine
 10
346.6297628159181
 20
-356.6837356158966
 30
0.0
 11
745.8941313326472
 21
42.58063290083172
 31
0.0
  0
LINE
  5
198
330
1F
100
AcDbEntity
  8
0-0
  6
JWW_DASHED1
 62
   120
370
     5
100
AcDbLine
 10
339.5586950040463
 20
-356.6837356159013
 30
0.0
 11
745.8941313326404
 21
49.65170071269284
 31
0.0
  0
LINE
  5
199
330
1F
100
AcDbEntity
  8
0-0
  6
JWW_DASHED1
 62
   120
370
     5
100
AcDbLine
 10
332.4876271921864
 20
-356.6837356158953
 30
0.0
 11
745.8941313326404
 21
56.72276852455994
 31
0.0
  0
LINE
  5
19A
330
1F
100
AcDbEntity
  8
0-0
  6
JWW_DASHED1
 62
   120
370
     5
100
AcDbLine
 10
325.4165593803198
 20
-356.6837356158941
 30
0.0
 11
745.8941313326438
 21
63.79383633643002
 31
0.0
  0
LINE
  5
19B
330
1F
100
AcDbEntity
  8
0-0
  6
JWW_DASHED1
 62
   120
370
     5
100
AcDbLine
 10
318.345491568448
 20
-356.6837356158992
 30
0.0
 11
745.8941313326387
 21
70.86490414829072
 31
0.0
  0
LINE
  5
19C
330
1F
100
AcDbEntity
  8
0-0
  6
JWW_DASHED1
 62
   120
370
     5
100
AcDbLine
 10
311.2744237565881
 20
-356.6837356158932
 30
0.0
 11
745.8941313326404
 21
77.93597196015867
 31
0.0
  0
LINE
  5
19D
330
1F
100
AcDbEntity
  8
0-0
  6
JWW_DASHED1
 62
   120
370
     5
100
AcDbLine
 10
304.2033559447112
 20
-356.6837356159034
 30
0.0
 11
745.8941313326421
 21
85.00703977202832
 31
0.0
  0
LINE
  5
19E
330
1F
100
AcDbEntity
  8
0-0
  6
JWW_DASHED1
 62
   120
370
     5
100
AcDbLine
 10
297.1322881328497
 20
-356.6837356158975
 30
0.0
 11
745.894131332637
 21
92.07810758388902
 31
0.0
  0
LINE
  5
19F
330
1F
100
AcDbEntity
  8
0-0
  6
JWW_DASHED1
 62
   120
370
     5
100
AcDbLine
 10
290.0612203209898
 20
-356.6837356158915
 30
0.0
 11
745.8941313326387
 21
99.1491753957574
 31
0.0
  0
LINE
  5
1A0
330
1F
100
AcDbEntity
  8
0-0
  6
JWW_DASHED1
 62
   120
370
     5
100
AcDbLine
 10
282.9901525091129
 20
-356.6837356159017
 30
0.0
 11
745.8941313326404
 21
106.2202432076262
 31
0.0
  0
LINE
  5
1A1
330
1F
100
AcDbEntity
  8
0-0
  6
JWW_DASHED1
 62
   120
370
     5
100
AcDbLine
 10
275.9190846972531
 20
-356.6837356158958
 30
0.0
 11
745.8941313326336
 21
113.2913110194869
 31
0.0
  0
LINE
  5
1A2
330
1F
100
AcDbEntity
  8
0-0
  6
JWW_DASHED1
 62
   120
370
     5
100
AcDbLine
 10
268.8480168853915
 20
-356.6837356158898
 30
0.0
 11
745.894131332637
 21
120.3623788313557
 31
0.0
  0
LINE
  5
1A3
330
1F
100
AcDbEntity
  8
0-0
  6
JWW_DASHED1
 62
   120
370
     5
100
AcDbLine
 10
261.7769490735146
 20
-356.6837356158996
 30
0.0
 11
745.8941313326387
 21
127.4334466432241
 31
0.0
  0
LINE
  5
1A4
330
1F
100
AcDbEntity
  8
0-0
  6
JWW_DASHED1
 62
   120
370
     5
100
AcDbLine
 10
254.7058812616531
 20
-356.6837356158936
 30
0.0
 11
745.8941313326336
 21
134.5045144550852
 31
0.0
  0
LINE
  5
1A5
330
1F
100
AcDbEntity
  8
0-0
  6
JWW_DASHED1
 62
   120
370
     5
100
AcDbLine
 10
247.6348134497762
 20
-356.6837356159039
 30
0.0
 11
745.8941313326438
 21
141.5755822669617
 31
0.0
  0
LINE
  5
1A6
330
1F
100
AcDbEntity
  8
0-0
  6
JWW_DASHED1
 62
   120
370
     5
100
AcDbLine
 10
240.5637456379164
 20
-356.6837356158979
 30
0.0
 11
745.894131332637
 21
148.6466500788224
 31
0.0
  0
LINE
  5
1A7
330
1F
100
AcDbEntity
  8
0-0
  6
JWW_DASHED1
 62
   120
370
     5
100
AcDbLine
 10
233.4926778260565
 20
-356.6837356158919
 30
0.0
 11
745.8941313326302
 21
155.7177178906831
 31
0.0
  0
LINE
  5
1A8
330
1F
100
AcDbEntity
  8
0-0
  6
JWW_DASHED1
 62
   120
370
     5
100
AcDbLine
 10
226.4216100142086
 20
-356.6837356158996
 30
0.0
 11
745.8941313326387
 21
162.7887857025306
 31
0.0
  0
LINE
  5
1A9
330
1F
100
AcDbEntity
  8
0-0
  6
JWW_DASHED1
 62
   120
370
     5
100
AcDbLine
 10
219.3505422023777
 20
-356.6837356158915
 30
0.0
 11
745.8941313326404
 21
169.8598535143704
 31
0.0
  0
LINE
  5
1AA
330
1F
100
AcDbEntity
  8
0-0
  6
JWW_DASHED1
 62
   120
370
     5
100
AcDbLine
 10
212.2794743905008
 20
-356.6837356159017
 30
0.0
 11
745.8941313326404
 21
176.9309213262387
 31
0.0
  0
LINE
  5
1AB
330
1F
100
AcDbEntity
  8
0-0
  6
JWW_DASHED1
 62
   120
370
     5
100
AcDbLine
 10
205.208406578641
 20
-356.6837356158958
 30
0.0
 11
745.8941313326336
 21
184.001989138099
 31
0.0
  0
LINE
  5
1AC
330
1F
100
AcDbEntity
  8
0-0
  6
JWW_DASHED1
 62
   120
370
     5
100
AcDbLine
 10
198.1373387667794
 20
-356.6837356158898
 30
0.0
 11
745.894131332637
 21
191.0730569499687
 31
0.0
  0
LINE
  5
1AD
330
1F
100
AcDbEntity
  8
0-0
  6
JWW_DASHED1
 62
   120
370
     5
100
AcDbLine
 10
191.0662709549025
 20
-356.6837356158996
 30
0.0
 11
745.8941313326387
 21
198.1441247618362
 31
0.0
  0
LINE
  5
1AE
330
1F
100
AcDbEntity
  8
0-0
  6
JWW_DASHED1
 62
   120
370
     5
100
AcDbLine
 10
183.995203143041
 20
-356.6837356158936
 30
0.0
 11
745.8941313326336
 21
205.2151925736973
 31
0.0
  0
LINE
  5
1AF
330
1F
100
AcDbEntity
  8
0-0
  6
JWW_DASHED1
 62
   120
370
     5
100
AcDbLine
 10
176.9241353311811
 20
-356.6837356158881
 30
0.0
 11
745.894131332637
 21
212.2862603855674
 31
0.0
  0
LINE
  5
1B0
330
1F
100
AcDbEntity
  8
0-0
  6
JWW_DASHED1
 62
   120
370
     5
100
AcDbLine
 10
169.8530675193042
 20
-356.6837356158979
 30
0.0
 11
745.894131332637
 21
219.3573281974345
 31
0.0
  0
LINE
  5
1B1
330
1F
100
AcDbEntity
  8
0-0
  6
JWW_DASHED1
 62
   120
370
     5
100
AcDbLine
 10
162.7819997074444
 20
-356.6837356158915
 30
0.0
 11
745.8941313326302
 21
226.4283960092952
 31
0.0
  0
LINE
  5
1B2
330
1F
100
AcDbEntity
  8
0-0
  6
JWW_DASHED1
 62
   120
370
     5
100
AcDbLine
 10
155.8941313326399
 20
-356.5005361788293
 30
0.0
 11
745.8941313326404
 21
233.4994638211721
 31
0.0
  0
LINE
  5
1B3
330
1F
100
AcDbEntity
  8
0-0
  6
JWW_DASHED1
 62
   120
370
     5
100
AcDbLine
 10
155.8941313326331
 20
-349.4294683669686
 30
0.0
 11
745.8941313326353
 21
240.5705316330328
 31
0.0
  0
LINE
  5
1B4
330
1F
100
AcDbEntity
  8
0-0
  6
JWW_DASHED1
 62
   120
370
     5
100
AcDbLine
 10
155.8941313326279
 20
-342.3584005551079
 30
0.0
 11
745.8941313326438
 21
247.6415994449093
 31
0.0
  0
LINE
  5
1B5
330
1F
100
AcDbEntity
  8
0-0
  6
JWW_DASHED1
 62
   120
370
     5
100
AcDbLine
 10
155.8941313326382
 20
-335.287332743231
 30
0.0
 11
745.8941313326387
 21
254.7126672567704
 31
0.0
  0
LINE
  5
1B6
330
1F
100
AcDbEntity
  8
0-0
  6
JWW_DASHED1
 62
   120
370
     5
100
AcDbLine
 10
155.8941313326314
 20
-328.2162649313699
 30
0.0
 11
745.8941313326438
 21
261.7837350686405
 31
0.0
  0
LINE
  5
1B7
330
1F
100
AcDbEntity
  8
0-0
  6
JWW_DASHED1
 62
   120
370
     5
100
AcDbLine
 10
155.8941313326262
 20
-321.1451971195096
 30
0.0
 11
745.8941313326438
 21
268.8548028805076
 31
0.0
  0
LINE
  5
1B8
330
1F
100
AcDbEntity
  8
0-0
  6
JWW_DASHED1
 62
   120
370
     5
100
AcDbLine
 10
155.8941313326348
 20
-314.0741293076331
 30
0.0
 11
745.894131332637
 21
275.9258706923679
 31
0.0
  0
LINE
  5
1B9
330
1F
100
AcDbEntity
  8
0-0
  6
JWW_DASHED1
 62
   120
370
     5
100
AcDbLine
 10
155.8941313326314
 20
-307.0030614957716
 30
0.0
 11
745.8941313326404
 21
282.9969385042392
 31
0.0
  0
LINE
  5
1BA
330
1F
100
AcDbEntity
  8
0-0
  6
JWW_DASHED1
 62
   120
370
     5
100
AcDbLine
 10
155.8941313326399
 20
-299.9319936838959
 30
0.0
 11
745.8941313326404
 21
290.0680063161054
 31
0.0
  0
LINE
  5
1BB
330
1F
100
AcDbEntity
  8
0-0
  6
JWW_DASHED1
 62
   120
370
     5
100
AcDbLine
 10
155.8941313326348
 20
-292.8609258720353
 30
0.0
 11
745.8941313326353
 21
297.1390741279666
 31
0.0
  0
LINE
  5
1BC
330
1F
100
AcDbEntity
  8
0-0
  6
JWW_DASHED1
 62
   120
370
     5
100
AcDbLine
 10
155.8941313326297
 20
-285.7898580601728
 30
0.0
 11
745.8941313326404
 21
304.210141939838
 31
0.0
  0
LINE
  5
1BD
330
1F
100
AcDbEntity
  8
0-0
  6
JWW_DASHED1
 62
   120
370
     5
100
AcDbLine
 10
155.8941313326382
 20
-278.7187902482976
 30
0.0
 11
745.8941313326404
 21
311.2812097517037
 31
0.0
  0
LINE
  5
1BE
330
1F
100
AcDbEntity
  8
0-0
  6
JWW_DASHED1
 62
   120
370
     5
100
AcDbLine
 10
155.8941313326314
 20
-271.647722436437
 30
0.0
 11
745.8941313326336
 21
318.3522775635645
 31
0.0
  0
LINE
  5
1BF
330
1F
100
AcDbEntity
  8
0-0
  6
JWW_DASHED1
 62
   120
370
     5
100
AcDbLine
 10
155.8941313326279
 20
-264.5766546245745
 30
0.0
 11
745.8941313326387
 21
325.4233453754363
 31
0.0
  0
LINE
  5
1C0
330
1F
100
AcDbEntity
  8
0-0
  6
JWW_DASHED1
 62
   120
370
     5
100
AcDbLine
 10
155.8941313326365
 20
-257.5055868126993
 30
0.0
 11
745.894131332637
 21
332.494413187302
 31
0.0
  0
LINE
  5
1C1
330
1F
100
AcDbEntity
  8
0-0
  6
JWW_DASHED1
 62
   120
370
     5
100
AcDbLine
 10
155.8941313326297
 20
-250.4345190008387
 30
0.0
 11
745.8941313326319
 21
339.5654809991628
 31
0.0
  0
LINE
  5
1C2
330
1F
100
AcDbEntity
  8
0-0
  6
JWW_DASHED1
 62
   120
370
     5
100
AcDbLine
 10
155.8941313326399
 20
-243.3634511889622
 30
0.0
 11
745.8941313326404
 21
346.6365488110388
 31
0.0
  0
LINE
  5
1C3
330
1F
100
AcDbEntity
  8
0-0
  6
JWW_DASHED1
 62
   120
370
     5
100
AcDbLine
 10
155.8941313326348
 20
-236.2923833771011
 30
0.0
 11
745.8941313326353
 21
353.7076166228999
 31
0.0
  0
LINE
  5
1C4
330
1F
100
AcDbEntity
  8
0-0
  6
JWW_DASHED1
 62
   120
370
     5
100
AcDbLine
 10
155.8941313326279
 20
-229.2213155652408
 30
0.0
 11
745.8941313326455
 21
360.7786844347764
 31
0.0
  0
LINE
  5
1C5
330
1F
100
AcDbEntity
  8
0-0
  6
JWW_DASHED1
 62
   120
370
     5
100
AcDbLine
 10
155.8941313326382
 20
-222.1502477533639
 30
0.0
 11
745.8941313326404
 21
367.8497522466375
 31
0.0
  0
LINE
  5
1C6
330
1F
100
AcDbEntity
  8
0-0
  6
JWW_DASHED1
 62
   120
370
     5
100
AcDbLine
 10
155.8941313326348
 20
-215.0791799415011
 30
0.0
 11
745.8941313326455
 21
374.9208200585102
 31
0.0
  0
LINE
  5
1C7
330
1F
100
AcDbEntity
  8
0-0
  6
JWW_DASHED1
 62
   120
370
     5
100
AcDbLine
 10
155.8941313326262
 20
-208.0081121296425
 30
0.0
 11
745.8941313326438
 21
381.9918878703747
 31
0.0
  0
LINE
  5
1C8
330
1F
100
AcDbEntity
  8
0-0
  6
JWW_DASHED1
 62
   120
370
     5
100
AcDbLine
 10
155.8941313326365
 20
-200.937044317766
 30
0.0
 11
745.894131332637
 21
389.0629556822354
 31
0.0
  0
LINE
  5
1C9
330
1F
100
AcDbEntity
  8
0-0
  6
JWW_DASHED1
 62
   120
370
     5
100
AcDbLine
 10
155.8941313326331
 20
-193.8659765059028
 30
0.0
 11
745.8941313326438
 21
396.1340234941081
 31
0.0
  0
LINE
  5
1CA
330
1F
100
AcDbEntity
  8
0-0
  6
JWW_DASHED1
 62
   120
370
     5
100
AcDbLine
 10
155.8941313326399
 20
-186.7949086940284
 30
0.0
 11
745.8941313326421
 21
403.205091305973
 31
0.0
  0
LINE
  5
1CB
330
1F
100
AcDbEntity
  8
0-0
  6
JWW_DASHED1
 62
   120
370
     5
100
AcDbLine
 10
155.8941313326348
 20
-179.7238408821677
 30
0.0
 11
745.8941313326353
 21
410.2761591178337
 31
0.0
  0
LINE
  5
1CC
330
1F
100
AcDbEntity
  8
0-0
  6
JWW_DASHED1
 62
   120
370
     5
100
AcDbLine
 10
155.8941313326314
 20
-172.652773070304
 30
0.0
 11
745.8941313326421
 21
417.3472269297068
 31
0.0
  0
LINE
  5
1CD
330
1F
100
AcDbEntity
  8
0-0
  6
JWW_DASHED1
 62
   120
370
     5
100
AcDbLine
 10
155.8941313326382
 20
-165.5817052584305
 30
0.0
 11
745.8941313326404
 21
424.4182947415709
 31
0.0
  0
LINE
  5
1CE
330
1F
100
AcDbEntity
  8
0-0
  6
JWW_DASHED1
 62
   120
370
     5
100
AcDbLine
 10
155.8941313326331
 20
-158.5106374465694
 30
0.0
 11
745.8941313326336
 21
431.4893625534316
 31
0.0
  0
LINE
  5
1CF
330
1F
100
AcDbEntity
  8
0-0
  6
JWW_DASHED1
 62
   120
370
     5
100
AcDbLine
 10
155.8941313326297
 20
-151.4395696347057
 30
0.0
 11
745.8941313326404
 21
438.5604303653055
 31
0.0
  0
LINE
  5
1D0
330
1F
100
AcDbEntity
  8
0-0
  6
JWW_DASHED1
 62
   120
370
     5
100
AcDbLine
 10
155.8941313326365
 20
-144.3685018228322
 30
0.0
 11
745.894131332637
 21
445.6314981771692
 31
0.0
  0
LINE
  5
1D1
330
1F
100
AcDbEntity
  8
0-0
  6
JWW_DASHED1
 62
   120
370
     5
100
AcDbLine
 10
155.8941313326314
 20
-137.2974340109715
 30
0.0
 11
745.8941313326319
 21
452.7025659890295
 31
0.0
  0
LINE
  5
1D2
330
1F
100
AcDbEntity
  8
0-0
  6
JWW_DASHED1
 62
   120
370
     5
100
AcDbLine
 10
155.8941313326279
 20
-130.226366199107
 30
0.0
 11
745.8941313326404
 21
459.7736338009038
 31
0.0
  0
LINE
  5
1D3
330
1F
100
AcDbEntity
  8
0-0
  6
JWW_DASHED1
 62
   120
370
     5
100
AcDbLine
 10
155.8941313326348
 20
-123.1552983872344
 30
0.0
 11
745.894131332637
 21
466.844701612767
 31
0.0
  0
LINE
  5
1D4
330
1F
100
AcDbEntity
  8
0-0
  6
JWW_DASHED1
 62
   120
370
     5
100
AcDbLine
 10
155.8941313326279
 20
-116.0842305753732
 30
0.0
 11
745.8941313326302
 21
473.9157694246278
 31
0.0
  0
LINE
  5
1D5
330
1F
100
AcDbEntity
  8
0-0
  6
JWW_DASHED1
 62
   120
370
     5
100
AcDbLine
 10
155.8941313326382
 20
-109.0131627634968
 30
0.0
 11
745.8941313326404
 21
480.9868372365047
 31
0.0
  0
LINE
  5
1D6
330
1F
100
AcDbEntity
  8
0-0
  6
JWW_DASHED1
 62
   120
370
     5
100
AcDbLine
 10
155.8941313326331
 20
-101.9420949516361
 30
0.0
 11
745.8941313326336
 21
488.0579050483653
 31
0.0
  0
LINE
  5
1D7
330
1F
100
AcDbEntity
  8
0-0
  6
JWW_DASHED1
 62
   120
370
     5
100
AcDbLine
 10
155.8941313326279
 20
-94.87102713977535
 30
0.0
 11
745.8941313326438
 21
495.1289728602422
 31
0.0
  0
LINE
  5
1D8
330
1F
100
AcDbEntity
  8
0-0
  6
JWW_DASHED1
 62
   120
370
     5
100
AcDbLine
 10
155.8941313326365
 20
-87.79995932789888
 30
0.0
 11
745.8941313326387
 21
502.200040672103
 31
0.0
  0
LINE
  5
1D9
330
1F
100
AcDbEntity
  8
0-0
  6
JWW_DASHED1
 62
   120
370
     5
100
AcDbLine
 10
155.8941313326348
 20
-80.72889151603349
 30
0.0
 11
745.8941313326472
 21
509.2711084839773
 31
0.0
  0
LINE
  5
1DA
330
1F
100
AcDbEntity
  8
0-0
  6
JWW_DASHED1
 62
   120
370
     5
100
AcDbLine
 10
155.8941313326245
 20
-73.65782370417705
 30
0.0
 11
745.8941313326421
 21
516.3421762958397
 31
0.0
  0
LINE
  5
1DB
330
1F
100
AcDbEntity
  8
0-0
  6
JWW_DASHED1
 62
   120
370
     5
100
AcDbLine
 10
155.8941313326348
 20
-66.58675589230057
 30
0.0
 11
745.894131332637
 21
523.4132441077008
 31
0.0
  0
LINE
  5
1DC
330
1F
100
AcDbEntity
  8
0-0
  6
JWW_DASHED1
 62
   120
370
     5
100
AcDbLine
 10
155.8941313326348
 20
-59.51568808043518
 30
0.0
 11
745.8941313326438
 21
530.4843119195756
 31
0.0
  0
LINE
  5
1DD
330
1F
100
AcDbEntity
  8
0-0
  6
JWW_DASHED1
 62
   120
370
     5
100
AcDbLine
 10
155.8941313326382
 20
-52.4446202685634
 30
0.0
 11
745.8941313326404
 21
537.555379731438
 31
0.0
  0
LINE
  5
1DE
330
1F
100
AcDbEntity
  8
0-0
  6
JWW_DASHED1
 62
   120
370
     5
100
AcDbLine
 10
155.8941313326331
 20
-45.37355245670227
 30
0.0
 11
745.8941313326336
 21
544.6264475432987
 31
0.0
  0
LINE
  5
1DF
330
1F
100
AcDbEntity
  8
0-0
  6
JWW_DASHED1
 62
   120
370
     5
100
AcDbLine
 10
155.8941313326314
 20
-38.30248464486587
 30
0.0
 11
745.8941313326404
 21
551.6975153551449
 31
0.0
  0
LINE
  5
1E0
330
1F
100
AcDbEntity
  8
0-0
  6
JWW_DASHED1
 62
   120
370
     5
100
AcDbLine
 10
155.8941313326331
 20
-31.23141683302393
 30
0.0
 11
745.8941313326336
 21
558.7685831669775
 31
0.0
  0
LINE
  5
1E1
330
1F
100
AcDbEntity
  8
0-0
  6
JWW_DASHED1
 62
   120
370
     5
100
AcDbLine
 10
155.8941313326279
 20
-24.16034902116323
 30
0.0
 11
745.8941313326438
 21
565.8396509788544
 31
0.0
  0
LINE
  5
1E2
330
1F
100
AcDbEntity
  8
0-0
  6
JWW_DASHED1
 62
   120
370
     5
100
AcDbLine
 10
155.8941313326365
 20
-17.08928120928675
 30
0.0
 11
745.8941313326387
 21
572.9107187907151
 31
0.0
  0
LINE
  5
1E3
330
1F
100
AcDbEntity
  8
0-0
  6
JWW_DASHED1
 62
   120
370
     5
100
AcDbLine
 10
155.8941313326365
 20
-10.01821339742008
 30
0.0
 11
745.8941313326472
 21
579.9817866025908
 31
0.0
  0
LINE
  5
1E4
330
1F
100
AcDbEntity
  8
0-0
  6
JWW_DASHED1
 62
   120
370
     5
100
AcDbLine
 10
155.8941313326245
 20
-2.947145585564925
 30
0.0
 11
745.8941313326421
 21
587.0528544144522
 31
0.0
  0
LINE
  5
1E5
330
1F
100
AcDbEntity
  8
0-0
  6
JWW_DASHED1
 62
   120
370
     5
100
AcDbLine
 10
155.8941313326348
 20
4.123922226311549
 30
0.0
 11
745.894131332637
 21
594.1239222263125
 31
0.0
  0
LINE
  5
1E6
330
1F
100
AcDbEntity
  8
0-0
  6
JWW_DASHED1
 62
   120
370
     5
100
AcDbLine
 10
155.8941313326348
 20
11.19499003817864
 30
0.0
 11
745.8941313326472
 21
601.1949900381894
 31
0.0
  0
LINE
  5
1E7
330
1F
100
AcDbEntity
  8
0-0
  6
JWW_DASHED1
 62
   120
370
     5
100
AcDbLine
 10
155.8941313326382
 20
18.26605785004872
 30
0.0
 11
745.8941313326404
 21
608.2660578500502
 31
0.0
  0
LINE
  5
1E8
330
1F
100
AcDbEntity
  8
0-0
  6
JWW_DASHED1
 62
   120
370
     5
100
AcDbLine
 10
155.8941313326331
 20
25.33712566190985
 30
0.0
 11
745.8941313326336
 21
615.3371256619108
 31
0.0
  0
LINE
  5
1E9
330
1F
100
AcDbEntity
  8
0-0
  6
JWW_DASHED1
 62
   120
370
     5
100
AcDbLine
 10
155.8941313326331
 20
32.40819347377695
 30
0.0
 11
741.8022022429518
 21
618.3162643840949
 31
0.0
  0
LINE
  5
1EA
330
1F
100
AcDbEntity
  8
0-0
  6
JWW_DASHED1
 62
   120
370
     5
100
AcDbLine
 10
155.8941313326365
 20
39.47926128564703
 30
0.0
 11
734.7311344310903
 21
618.3162643841008
 31
0.0
  0
LINE
  5
1EB
330
1F
100
AcDbEntity
  8
0-0
  6
JWW_DASHED1
 62
   120
370
     5
100
AcDbLine
 10
155.8941313326314
 20
46.55032909750773
 30
0.0
 11
727.6600666192304
 21
618.3162643841068
 31
0.0
  0
LINE
  5
1EC
330
1F
100
AcDbEntity
  8
0-0
  6
JWW_DASHED1
 62
   120
370
     5
100
AcDbLine
 10
155.8941313326314
 20
53.62139690937525
 30
0.0
 11
720.5889988073535
 21
618.3162643840966
 31
0.0
  0
LINE
  5
1ED
330
1F
100
AcDbEntity
  8
0-0
  6
JWW_DASHED1
 62
   120
370
     5
100
AcDbLine
 10
155.8941313326348
 20
60.69246472124533
 30
0.0
 11
713.517930995492
 21
618.3162643841025
 31
0.0
  0
LINE
  5
1EE
330
1F
100
AcDbEntity
  8
0-0
  6
JWW_DASHED1
 62
   120
370
     5
100
AcDbLine
 10
155.8941313326297
 20
67.76353253310603
 30
0.0
 11
706.4468631836321
 21
618.3162643841085
 31
0.0
  0
LINE
  5
1EF
330
1F
100
AcDbEntity
  8
0-0
  6
JWW_DASHED1
 62
   120
370
     5
100
AcDbLine
 10
155.8941313326382
 20
74.8346003449825
 30
0.0
 11
699.3757953717552
 21
618.3162643840983
 31
0.0
  0
LINE
  5
1F0
330
1F
100
AcDbEntity
  8
0-0
  6
JWW_DASHED1
 62
   120
370
     5
100
AcDbLine
 10
155.8941313326331
 20
81.9056681568432
 30
0.0
 11
692.3047275598954
 21
618.3162643841042
 31
0.0
  0
LINE
  5
1F1
330
1F
100
AcDbEntity
  8
0-0
  6
JWW_DASHED1
 62
   120
370
     5
100
AcDbLine
 10
155.8941313326279
 20
88.9767359687039
 30
0.0
 11
685.2336597480338
 21
618.3162643841102
 31
0.0
  0
LINE
  5
1F2
330
1F
100
AcDbEntity
  8
0-0
  6
JWW_DASHED1
 62
   120
370
     5
100
AcDbLine
 10
155.8941313326382
 20
96.04780378058081
 30
0.0
 11
678.1625919361569
 21
618.3162643841
 31
0.0
  0
LINE
  5
1F3
330
1F
100
AcDbEntity
  8
0-0
  6
JWW_DASHED1
 62
   120
370
     5
100
AcDbLine
 10
155.8941313326314
 20
103.1188715924415
 30
0.0
 11
671.0915241242953
 21
618.3162643841064
 31
0.0
  0
LINE
  5
1F4
330
1F
100
AcDbEntity
  8
0-0
  6
JWW_DASHED1
 62
   120
370
     5
100
AcDbLine
 10
155.8941313326245
 20
110.1899394043022
 30
0.0
 11
664.0204563124219
 21
618.3162643840988
 31
0.0
  0
LINE
  5
1F5
330
1F
100
AcDbEntity
  8
0-0
  6
JWW_DASHED1
 62
   120
370
     5
100
AcDbLine
 10
155.8941313326348
 20
117.2610072161787
 30
0.0
 11
656.9493885005586
 21
618.3162643841022
 31
0.0
  0
LINE
  5
1F6
330
1F
100
AcDbEntity
  8
0-0
  6
JWW_DASHED1
 62
   120
370
     5
100
AcDbLine
 10
155.8941313326382
 20
124.3320750280475
 30
0.0
 11
649.8783206886817
 21
618.3162643840923
 31
0.0
  0
LINE
  5
1F7
330
1F
100
AcDbEntity
  8
0-0
  6
JWW_DASHED1
 62
   120
370
     5
100
AcDbLine
 10
155.8941313326399
 20
131.4031428399163
 30
0.0
 11
642.8072528768218
 21
618.3162643840983
 31
0.0
  0
LINE
  5
1F8
330
1F
100
AcDbEntity
  8
0-0
  6
JWW_DASHED1
 62
   120
370
     5
100
AcDbLine
 10
155.8941313326331
 20
138.474210651777
 30
0.0
 11
635.7361850649603
 21
618.3162643841042
 31
0.0
  0
LINE
  5
1F9
330
1F
100
AcDbEntity
  8
0-0
  6
JWW_DASHED1
 62
   120
370
     5
100
AcDbLine
 10
155.8941313326348
 20
145.5452784636458
 30
0.0
 11
628.6651172530851
 21
618.316264384094
 31
0.0
  0
LINE
  5
1FA
330
1F
100
AcDbEntity
  8
0-0
  6
JWW_DASHED1
 62
   120
370
     5
100
AcDbLine
 10
155.8941313326382
 20
152.6163462755146
 30
0.0
 11
621.5940494412235
 21
618.3162643841
 31
0.0
  0
LINE
  5
1FB
330
1F
100
AcDbEntity
  8
0-0
  6
JWW_DASHED1
 62
   120
370
     5
100
AcDbLine
 10
155.8941313326314
 20
159.6874140873753
 30
0.0
 11
614.522981629362
 21
618.3162643841059
 31
0.0
  0
LINE
  5
1FC
330
1F
100
AcDbEntity
  8
0-0
  6
JWW_DASHED1
 62
   120
370
     5
100
AcDbLine
 10
155.8941313326348
 20
166.7584818992445
 30
0.0
 11
607.4519138174851
 21
618.3162643840961
 31
0.0
  0
LINE
  5
1FD
330
1F
100
AcDbEntity
  8
0-0
  6
JWW_DASHED1
 62
   120
370
     5
100
AcDbLine
 10
155.8941313326348
 20
173.8295497111125
 30
0.0
 11
600.3808460056252
 21
618.3162643841017
 31
0.0
  0
LINE
  5
1FE
330
1F
100
AcDbEntity
  8
0-0
  6
JWW_DASHED1
 62
   120
370
     5
100
AcDbLine
 10
155.8941313326297
 20
180.9006175229732
 30
0.0
 11
593.3097781937654
 21
618.3162643841076
 31
0.0
  0
LINE
  5
1FF
330
1F
100
AcDbEntity
  8
0-0
  6
JWW_DASHED1
 62
   120
370
     5
100
AcDbLine
 10
155.8941313326331
 20
187.9716853348428
 30
0.0
 11
586.2387103818885
 21
618.3162643840978
 31
0.0
  0
LINE
  5
200
330
1F
100
AcDbEntity
  8
0-0
  6
JWW_DASHED1
 62
   120
370
     5
100
AcDbLine
 10
155.8941313326348
 20
195.0427531467103
 30
0.0
 11
579.1676425700269
 21
618.3162643841038
 31
0.0
  0
LINE
  5
201
330
1F
100
AcDbEntity
  8
0-0
  6
JWW_DASHED1
 62
   120
370
     5
100
AcDbLine
 10
155.8941313326279
 20
202.1138209585715
 30
0.0
 11
572.0965747581654
 21
618.3162643841098
 31
0.0
  0
LINE
  5
202
330
1F
100
AcDbEntity
  8
0-0
  6
JWW_DASHED1
 62
   120
370
     5
100
AcDbLine
 10
155.8941313326382
 20
209.1848887704479
 30
0.0
 11
565.0255069462902
 21
618.3162643841
 31
0.0
  0
LINE
  5
203
330
1F
100
AcDbEntity
  8
0-0
  6
JWW_DASHED1
 62
   120
370
     5
100
AcDbLine
 10
155.8941313326314
 20
216.2559565823086
 30
0.0
 11
557.9544391344286
 21
618.3162643841059
 31
0.0
  0
LINE
  5
204
330
1F
100
AcDbEntity
  8
0-0
  6
JWW_DASHED1
 62
   120
370
     5
100
AcDbLine
 10
155.8941313326262
 20
223.3270243941693
 30
0.0
 11
550.8833713225586
 21
618.3162643841008
 31
0.0
  0
LINE
  5
205
330
1F
100
AcDbEntity
  8
0-0
  6
JWW_DASHED1
 62
   120
370
     5
100
AcDbLine
 10
155.8941313326365
 20
230.3980922060462
 30
0.0
 11
543.8123035106919
 21
618.3162643841017
 31
0.0
  0
LINE
  5
206
330
1F
100
AcDbEntity
  8
0-0
  6
JWW_DASHED1
 62
   120
370
     5
100
AcDbLine
 10
155.8941313326399
 20
237.4691600179163
 30
0.0
 11
536.741235698815
 21
618.3162643840915
 31
0.0
  0
LINE
  5
207
330
1F
100
AcDbEntity
  8
0-0
  6
JWW_DASHED1
 62
   120
370
     5
100
AcDbLine
 10
155.8941313326245
 20
244.5402278297676
 30
0.0
 11
529.6701678869603
 21
618.3162643841034
 31
0.0
  0
LINE
  5
208
330
1F
100
AcDbEntity
  8
0-0
  6
JWW_DASHED1
 62
   120
370
     5
100
AcDbLine
 10
155.8941313326348
 20
251.6112956416441
 30
0.0
 11
522.5991000750936
 21
618.3162643841034
 31
0.0
  0
LINE
  5
209
330
1F
100
AcDbEntity
  8
0-0
  6
JWW_DASHED1
 62
   120
370
     5
100
AcDbLine
 10
155.8941313326382
 20
258.6823634535151
 30
0.0
 11
515.5280322632167
 21
618.3162643840935
 31
0.0
  0
LINE
  5
20A
330
1F
100
AcDbEntity
  8
0-0
  6
JWW_DASHED1
 62
   120
370
     5
100
AcDbLine
 10
155.8941313326382
 20
265.7534312653813
 30
0.0
 11
508.4569644513551
 21
618.3162643840996
 31
0.0
  0
LINE
  5
20B
330
1F
100
AcDbEntity
  8
0-0
  6
JWW_DASHED1
 62
   120
370
     5
100
AcDbLine
 10
155.8941313326314
 20
272.8244990772424
 30
0.0
 11
501.3858966394953
 21
618.3162643841056
 31
0.0
  0
LINE
  5
20C
330
1F
100
AcDbEntity
  8
0-0
  6
JWW_DASHED1
 62
   120
370
     5
100
AcDbLine
 10
155.8941313326365
 20
279.8955668891134
 30
0.0
 11
494.3148288276184
 21
618.3162643840957
 31
0.0
  0
LINE
  5
20D
330
1F
100
AcDbEntity
  8
0-0
  6
JWW_DASHED1
 62
   120
370
     5
100
AcDbLine
 10
155.8941313326365
 20
286.9666347009796
 30
0.0
 11
487.2437610157585
 21
618.3162643841017
 31
0.0
  0
LINE
  5
20E
330
1F
100
AcDbEntity
  8
0-0
  6
JWW_DASHED1
 62
   120
370
     5
100
AcDbLine
 10
155.8941313326314
 20
294.0377025128403
 30
0.0
 11
480.172693203897
 21
618.3162643841076
 31
0.0
  0
LINE
  5
20F
330
1F
100
AcDbEntity
  8
0-0
  6
JWW_DASHED1
 62
   120
370
     5
100
AcDbLine
 10
155.8941313326348
 20
301.1087703247117
 30
0.0
 11
473.1016253920218
 21
618.3162643840974
 31
0.0
  0
LINE
  5
210
330
1F
100
AcDbEntity
  8
0-0
  6
JWW_DASHED1
 62
   120
370
     5
100
AcDbLine
 10
155.8941313326348
 20
308.1798381365779
 30
0.0
 11
466.0305575801602
 21
618.3162643841034
 31
0.0
  0
LINE
  5
211
330
1F
100
AcDbEntity
  8
0-0
  6
JWW_DASHED1
 62
   120
370
     5
100
AcDbLine
 10
155.8941313326279
 20
315.2509059484386
 30
0.0
 11
458.9594897682987
 21
618.3162643841093
 31
0.0
  0
LINE
  5
212
330
1F
100
AcDbEntity
  8
0-0
  6
JWW_DASHED1
 62
   120
370
     5
100
AcDbLine
 10
155.8941313326382
 20
322.3219737603151
 30
0.0
 11
451.8884219564218
 21
618.3162643840991
 31
0.0
  0
LINE
  5
213
330
1F
100
AcDbEntity
  8
0-0
  6
JWW_DASHED1
 62
   120
370
     5
100
AcDbLine
 10
155.8941313326314
 20
329.3930415721762
 30
0.0
 11
444.8173541445619
 21
618.3162643841051
 31
0.0
  0
LINE
  5
214
330
1F
100
AcDbEntity
  8
0-0
  6
JWW_DASHED1
 62
   120
370
     5
100
AcDbLine
 10
155.8941313326262
 20
336.4641093840369
 30
0.0
 11
437.7462863327021
 21
618.316264384111
 31
0.0
  0
LINE
  5
215
330
1F
100
AcDbEntity
  8
0-0
  6
JWW_DASHED1
 62
   120
370
     5
100
AcDbLine
 10
155.8941313326365
 20
343.5351771959134
 30
0.0
 11
430.6752185208252
 21
618.3162643841013
 31
0.0
  0
LINE
  5
216
330
1F
100
AcDbEntity
  8
0-0
  6
JWW_DASHED1
 62
   120
370
     5
100
AcDbLine
 10
155.8941313326279
 20
350.6062450077446
 30
0.0
 11
423.6041507089926
 21
618.3162643841093
 31
0.0
  0
LINE
  5
217
330
1F
100
AcDbEntity
  8
0-0
  6
JWW_DASHED1
 62
   120
370
     5
100
AcDbLine
 10
155.8941313326365
 20
357.6773128195917
 30
0.0
 11
416.5330828971464
 21
618.3162643841017
 31
0.0
  0
LINE
  5
218
330
1F
100
AcDbEntity
  8
0-0
  6
JWW_DASHED1
 62
   120
370
     5
100
AcDbLine
 10
155.8941313326314
 20
364.7483806314524
 30
0.0
 11
409.4620150852849
 21
618.3162643841076
 31
0.0
  0
LINE
  5
219
330
1F
100
AcDbEntity
  8
0-0
  6
JWW_DASHED1
 62
   120
370
     5
100
AcDbLine
 10
155.8941313326365
 20
371.8194484433251
 30
0.0
 11
402.3909472734097
 21
618.3162643840974
 31
0.0
  0
LINE
  5
21A
330
1F
100
AcDbEntity
  8
0-0
  6
JWW_DASHED1
 62
   120
370
     5
100
AcDbLine
 10
155.8941313326348
 20
378.8905162551901
 30
0.0
 11
395.3198794615481
 21
618.3162643841034
 31
0.0
  0
LINE
  5
21B
330
1F
100
AcDbEntity
  8
0-0
  6
JWW_DASHED1
 62
   120
370
     5
100
AcDbLine
 10
155.8941313326279
 20
385.9615840670507
 30
0.0
 11
388.2488116496866
 21
618.3162643841093
 31
0.0
  0
LINE
  5
21C
330
1F
100
AcDbEntity
  8
0-0
  6
JWW_DASHED1
 62
   120
370
     5
100
AcDbLine
 10
155.8941313326348
 20
393.0326518789234
 30
0.0
 11
381.1777438378097
 21
618.3162643840991
 31
0.0
  0
LINE
  5
21D
330
1F
100
AcDbEntity
  8
0-0
  6
JWW_DASHED1
 62
   120
370
     5
100
AcDbLine
 10
155.8941313326314
 20
400.1037196907884
 30
0.0
 11
374.1066760259498
 21
618.3162643841051
 31
0.0
  0
LINE
  5
21E
330
1F
100
AcDbEntity
  8
0-0
  6
JWW_DASHED1
 62
   120
370
     5
100
AcDbLine
 10
155.8941313326262
 20
407.174787502649
 30
0.0
 11
367.03560821409
 21
618.316264384111
 31
0.0
  0
LINE
  5
21F
330
1F
100
AcDbEntity
  8
0-0
  6
JWW_DASHED1
 62
   120
370
     5
100
AcDbLine
 10
155.8941313326365
 20
414.2458553145255
 30
0.0
 11
359.9645404022131
 21
618.3162643841013
 31
0.0
  0
LINE
  5
220
330
1F
100
AcDbEntity
  8
0-0
  6
JWW_DASHED1
 62
   120
370
     5
100
AcDbLine
 10
155.8941313326314
 20
421.3169231263857
 30
0.0
 11
352.8934725903515
 21
618.3162643841072
 31
0.0
  0
LINE
  5
221
330
1F
100
AcDbEntity
  8
0-0
  6
JWW_DASHED1
 62
   120
370
     5
100
AcDbLine
 10
155.8941313326245
 20
428.3879909382465
 30
0.0
 11
345.8224047784865
 21
618.3162643841076
 31
0.0
  0
LINE
  5
222
330
1F
100
AcDbEntity
  8
0-0
  6
JWW_DASHED1
 62
   120
370
     5
100
AcDbLine
 10
155.8941313326348
 20
435.4590587501234
 30
0.0
 11
338.7513369666131
 21
618.316264384103
 31
0.0
  0
LINE
  5
223
330
1F
100
AcDbEntity
  8
0-0
  6
JWW_DASHED1
 62
   120
370
     5
100
AcDbLine
 10
155.8941313326416
 20
442.5301265619969
 30
0.0
 11
331.6802691547379
 21
618.3162643840932
 31
0.0
  0
LINE
  5
224
330
1F
100
AcDbEntity
  8
0-0
  6
JWW_DASHED1
 62
   120
370
     5
100
AcDbLine
 10
155.8941313326228
 20
449.6011943738448
 30
0.0
 11
324.6092013428882
 21
618.3162643841102
 31
0.0
  0
LINE
  5
225
330
1F
100
AcDbEntity
  8
0-0
  6
JWW_DASHED1
 62
   120
370
     5
100
AcDbLine
 10
155.8941313326331
 20
456.6722621857217
 30
0.0
 11
317.5381335310165
 21
618.3162643841051
 31
0.0
  0
LINE
  5
226
330
1F
100
AcDbEntity
  8
0-0
  6
JWW_DASHED1
 62
   120
370
     5
100
AcDbLine
 10
155.8941313326399
 20
463.7433299975956
 30
0.0
 11
310.4670657191396
 21
618.3162643840949
 31
0.0
  0
LINE
  5
227
330
1F
100
AcDbEntity
  8
0-0
  6
JWW_DASHED1
 62
   120
370
     5
100
AcDbLine
 10
155.8941313326365
 20
470.8143978094589
 30
0.0
 11
303.3959979072797
 21
618.3162643841008
 31
0.0
  0
LINE
  5
228
330
1F
100
AcDbEntity
  8
0-0
  6
JWW_DASHED1
 62
   120
370
     5
100
AcDbLine
 10
155.8941313326314
 20
477.8854656213196
 30
0.0
 11
296.3249300954182
 21
618.3162643841068
 31
0.0
  0
LINE
  5
229
330
1F
100
AcDbEntity
  8
0-0
  6
JWW_DASHED1
 62
   120
370
     5
100
AcDbLine
 10
155.8941313326382
 20
484.9565334331943
 30
0.0
 11
289.2538622835413
 21
618.3162643840966
 31
0.0
  0
LINE
  5
22A
330
1F
100
AcDbEntity
  8
0-0
  6
JWW_DASHED1
 62
   120
370
     5
100
AcDbLine
 10
155.8941313326348
 20
492.0276012450568
 30
0.0
 11
282.1827944716797
 21
618.3162643841025
 31
0.0
  0
LINE
  5
22B
330
1F
100
AcDbEntity
  8
0-0
  6
JWW_DASHED1
 62
   120
370
     5
100
AcDbLine
 10
155.8941313326279
 20
499.0986690569179
 30
0.0
 11
275.1117266598199
 21
618.3162643841085
 31
0.0
  0
LINE
  5
22C
330
1F
100
AcDbEntity
  8
0-0
  6
JWW_DASHED1
 62
   120
370
     5
100
AcDbLine
 10
155.8941313326382
 20
506.1697368687926
 30
0.0
 11
268.040658847943
 21
618.3162643840988
 31
0.0
  0
LINE
  5
22D
330
1F
100
AcDbEntity
  8
0-0
  6
JWW_DASHED1
 62
   120
370
     5
100
AcDbLine
 10
155.8941313326331
 20
513.2408046806551
 30
0.0
 11
260.9695910360831
 21
618.3162643841042
 31
0.0
  0
LINE
  5
22E
330
1F
100
AcDbEntity
  8
0-0
  6
JWW_DASHED1
 62
   120
370
     5
100
AcDbLine
 10
155.8941313326279
 20
520.3118724925157
 30
0.0
 11
253.8985232242216
 21
618.3162643841106
 31
0.0
  0
LINE
  5
22F
330
1F
100
AcDbEntity
  8
0-0
  6
JWW_DASHED1
 62
   120
370
     5
100
AcDbLine
 10
155.8941313326365
 20
527.3829403043926
 30
0.0
 11
246.8274554123447
 21
618.3162643841008
 31
0.0
  0
LINE
  5
230
330
1F
100
AcDbEntity
  8
0-0
  6
JWW_DASHED1
 62
   120
370
     5
100
AcDbLine
 10
155.8941313326314
 20
534.4540081162534
 30
0.0
 11
239.7563876004848
 21
618.3162643841068
 31
0.0
  0
LINE
  5
231
330
1F
100
AcDbEntity
  8
0-0
  6
JWW_DASHED1
 62
   120
370
     5
100
AcDbLine
 10
155.8941313326245
 20
541.525075928114
 30
0.0
 11
232.6853197886216
 21
618.3162643841102
 31
0.0
  0
LINE
  5
232
330
1F
100
AcDbEntity
  8
0-0
  6
JWW_DASHED1
 62
   120
370
     5
100
AcDbLine
 10
155.8941313326348
 20
548.5961437399909
 30
0.0
 11
225.6142519767464
 21
618.3162643841025
 31
0.0
  0
LINE
  5
233
330
1F
100
AcDbEntity
  8
0-0
  6
JWW_DASHED1
 62
   120
370
     5
100
AcDbLine
 10
155.894131332645
 20
555.6672115518661
 30
0.0
 11
218.5431841648695
 21
618.3162643840923
 31
0.0
  0
LINE
  5
234
330
1F
100
AcDbEntity
  8
0-0
  6
JWW_DASHED1
 62
   120
370
     5
100
AcDbLine
 10
155.8941313326228
 20
562.7382793637123
 30
0.0
 11
211.4721163530233
 21
618.3162643841127
 31
0.0
  0
LINE
  5
235
330
1F
100
AcDbEntity
  8
0-0
  6
JWW_DASHED1
 62
   120
370
     5
100
AcDbLine
 10
155.8941313326331
 20
569.8093471755884
 30
0.0
 11
204.4010485411498
 21
618.3162643841042
 31
0.0
  0
LINE
  5
236
330
1F
100
AcDbEntity
  8
0-0
  6
JWW_DASHED1
 62
   120
370
     5
100
AcDbLine
 10
155.8941313326416
 20
576.8804149874649
 30
0.0
 11
197.3299807292729
 21
618.3162643840949
 31
0.0
  0
LINE
  5
237
330
1F
100
AcDbEntity
  8
0-0
  6
JWW_DASHED1
 62
   120
370
     5
100
AcDbLine
 10
155.8941313326382
 20
583.951482799326
 30
0.0
 11
190.2589129174113
 21
618.3162643841004
 31
0.0
  0
LINE
  5
238
330
1F
100
AcDbEntity
  8
0-0
  6
JWW_DASHED1
 62
   120
370
     5
100
AcDbLine
 10
155.8941313326314
 20
591.0225506111872
 30
0.0
 11
183.1878451055498
 21
618.3162643841064
 31
0.0
  0
LINE
  5
239
330
1F
100
AcDbEntity
  8
0-0
  6
JWW_DASHED1
 62
   120
370
     5
100
AcDbLine
 10
155.8941313326416
 20
598.0936184230632
 30
0.0
 11
176.1167772936746
 21
618.3162643840966
 31
0.0
  0
LINE
  5
23A
330
1F
100
AcDbEntity
  8
0-0
  6
JWW_DASHED1
 62
   120
370
     5
100
AcDbLine
 10
155.8941313326348
 20
605.1646862349243
 30
0.0
 11
169.045709481813
 21
618.3162643841025
 31
0.0
  0
LINE
  5
23B
330
1F
100
AcDbEntity
  8
0-0
  6
JWW_DASHED1
 62
   120
370
     5
100
AcDbLine
 10
155.8941313326297
 20
612.235754046785
 30
0.0
 11
161.9746416699532
 21
618.3162643841085
 31
0.0
  0
MTEXT
  5
23C
330
1F
100
AcDbEntity
  8
文字
  6
Continuous
 62
     7
370
     9
100
AcDbMText
 10
-2699.105617619045
 20
1171.549382697805
 30
0.0
 40
45.71999999999998
 41
1620.0
 46
0.0
 71
     7
 72
     1
  1
{\fＭＳ ゴシック|b0|i0|c128|p49;※ＣＨは縦木目柄、ＣＹは横木目柄のデザインとなります。}
 73
     1
 44
1.0
  0
LWPOLYLINE
  5
23D
330
1F
100
AcDbEntity
  8
寸法
  6
Continuous
 62
     7
370
     9
100
AcDbPolyline
 90
        4
 70
     1
 43
3.0
 10
857.3941313326359
 20
-1487.683735615897
 42
0.4142135623731
 10
855.8941313326359
 20
-1486.183735615897
 42
0.4142135623731
 10
854.3941313326359
 20
-1487.683735615897
 42
0.4142135623731
 10
855.8941313326359
 20
-1489.183735615897
 42
0.4142135623731
  0
LWPOLYLINE
  5
23E
330
1F
100
AcDbEntity
  8
寸法
  6
Continuous
 62
     7
370
     9
100
AcDbPolyline
 90
        4
 70
     1
 43
3.0
 10
1664.394131332637
 20
-1887.683735615897
 42
0.4142135623731
 10
1662.894131332637
 20
-1886.183735615898
 42
0.4142135623731
 10
1661.394131332637
 20
-1887.683735615897
 42
0.4142135623731
 10
1662.894131332637
 20
-1889.183735615897
 42
0.4142135623731
  0
LWPOLYLINE
  5
23F
330
1F
100
AcDbEntity
  8
寸法
  6
Continuous
 62
     7
370
     9
100
AcDbPolyline
 90
        4
 70
     1
 43
3.0
 10
1634.394131332637
 20
-1687.683735615897
 42
0.4142135623731
 10
1632.894131332637
 20
-1686.183735615898
 42
0.4142135623731
 10
1631.394131332637
 20
-1687.683735615897
 42
0.4142135623731
 10
1632.894131332637
 20
-1689.183735615897
 42
0.4142135623731
  0
LWPOLYLINE
  5
240
330
1F
100
AcDbEntity
  8
寸法
  6
Continuous
 62
     7
370
     9
100
AcDbPolyline
 90
        4
 70
     1
 43
3.0
 10
-762.6058686673641
 20
-1487.683735615897
 42
0.4142135623731
 10
-764.1058686673641
 20
-1486.183735615897
 42
0.4142135623731
 10
-765.6058686673641
 20
-1487.683735615897
 42
0.4142135623731
 10
-764.1058686673641
 20
-1489.183735615897
 42
0.4142135623731
  0
LWPOLYLINE
  5
241
330
1F
100
AcDbEntity
  8
寸法
  6
Continuous
 62
     7
370
     9
100
AcDbPolyline
 90
        4
 70
     1
 43
3.0
 10
47.39413133263591
 20
-1487.683735615897
 42
0.4142135623731
 10
45.89413133263591
 20
-1486.183735615897
 42
0.4142135623731
 10
44.39413133263591
 20
-1487.683735615897
 42
0.4142135623731
 10
45.89413133263591
 20
-1489.183735615897
 42
0.4142135623731
  0
LWPOLYLINE
  5
242
330
1F
100
AcDbEntity
  8
寸法
  6
Continuous
 62
     7
370
     9
100
AcDbPolyline
 90
        4
 70
     1
 43
3.0
 10
-1569.605868667363
 20
-1887.683735615898
 42
0.4142135623731
 10
-1571.105868667363
 20
-1886.183735615898
 42
0.4142135623731
 10
-1572.605868667363
 20
-1887.683735615898
 42
0.4142135623731
 10
-1571.105868667363
 20
-1889.183735615898
 42
0.4142135623731
  0
LWPOLYLINE
  5
243
330
1F
100
AcDbEntity
  8
寸法
  6
Continuous
 62
     7
370
     9
100
AcDbPolyline
 90
        4
 70
     1
 43
3.0
 10
-1539.605868667363
 20
-1687.683735615897
 42
0.4142135623731
 10
-1541.105868667363
 20
-1686.183735615898
 42
0.4142135623731
 10
-1542.605868667363
 20
-1687.683735615897
 42
0.4142135623731
 10
-1541.105868667363
 20
-1689.183735615897
 42
0.4142135623731
  0
LINE
  5
244
330
1F
100
AcDbEntity
  8
寸法
  6
Continuous
 62
   120
370
     5
100
AcDbLine
 10
855.8941313326359
 20
-1487.683735615897
 30
0.0
 11
855.8941313326359
 21
-1287.683735615898
 31
0.0
  0
LINE
  5
245
330
1F
100
AcDbEntity
  8
寸法
  6
Continuous
 62
   120
370
     5
100
AcDbLine
 10
1662.894131332637
 20
-1887.683735615897
 30
0.0
 11
1662.894131332637
 21
-1287.683735615898
 31
0.0
  0
LINE
  5
246
330
1F
100
AcDbEntity
  8
寸法
  6
Continuous
 62
   120
370
     5
100
AcDbLine
 10
-1571.105868667363
 20
-1887.683735615898
 30
0.0
 11
1662.894131332637
 21
-1887.683735615897
 31
0.0
  0
LINE
  5
247
330
1F
100
AcDbEntity
  8
寸法
  6
Continuous
 62
   120
370
     5
100
AcDbLine
 10
1632.894131332637
 20
-1687.683735615897
 30
0.0
 11
1632.894131332637
 21
-1287.683735615898
 31
0.0
  0
LINE
  5
248
330
1F
100
AcDbEntity
  8
寸法
  6
Continuous
 62
   120
370
     5
100
AcDbLine
 10
-1541.105868667363
 20
-1687.683735615897
 30
0.0
 11
1632.894131332637
 21
-1687.683735615897
 31
0.0
  0
LINE
  5
249
330
1F
100
AcDbEntity
  8
寸法
  6
Continuous
 62
   120
370
     5
100
AcDbLine
 10
-764.1058686673641
 20
-1487.683735615897
 30
0.0
 11
855.8941313326359
 21
-1487.683735615897
 31
0.0
  0
LINE
  5
24A
330
1F
100
AcDbEntity
  8
寸法
  6
Continuous
 62
   120
370
     5
100
AcDbLine
 10
-764.1058686673641
 20
-1487.683735615897
 30
0.0
 11
-764.1058686673641
 21
-1287.683735615898
 31
0.0
  0
LINE
  5
24B
330
1F
100
AcDbEntity
  8
寸法
  6
Continuous
 62
   120
370
     5
100
AcDbLine
 10
45.89413133263591
 20
-1487.683735615897
 30
0.0
 11
45.89413133263591
 21
-1287.683735615898
 31
0.0
  0
LINE
  5
24C
330
1F
100
AcDbEntity
  8
寸法
  6
Continuous
 62
   120
370
     5
100
AcDbLine
 10
-1571.105868667363
 20
-1887.683735615898
 30
0.0
 11
-1571.105868667363
 21
-1287.683735615898
 31
0.0
  0
LINE
  5
24D
330
1F
100
AcDbEntity
  8
寸法
  6
Continuous
 62
   120
370
     5
100
AcDbLine
 10
-1541.105868667363
 20
-1687.683735615897
 30
0.0
 11
-1541.105868667363
 21
-1287.683735615898
 31
0.0
  0
LWPOLYLINE
  5
24E
330
1F
100
AcDbEntity
  8
寸法
  6
Continuous
 62
     7
370
     9
100
AcDbPolyline
 90
        4
 70
     1
 43
3.0
 10
-2019.605868667363
 20
-1237.683735615898
 42
0.4142135623731
 10
-2021.105868667363
 20
-1236.183735615898
 42
0.4142135623731
 10
-2022.605868667363
 20
-1237.683735615898
 42
0.4142135623731
 10
-2021.105868667363
 20
-1239.183735615898
 42
0.4142135623731
  0
LINE
  5
24F
330
1F
100
AcDbEntity
  8
寸法
  6
Continuous
 62
   120
370
     5
100
AcDbLine
 10
-2021.105868667363
 20
-1237.683735615898
 30
0.0
 11
-1621.105868667364
 21
-1237.683735615898
 31
0.0
  0
LINE
  5
250
330
1F
100
AcDbEntity
  8
寸法
  6
Continuous
 62
   120
370
     5
100
AcDbLine
 10
-2021.105868667363
 20
797.3162643841017
 30
0.0
 11
-2021.105868667363
 21
-1237.683735615898
 31
0.0
  0
LINE
  5
251
330
1F
100
AcDbEntity
  8
寸法
  6
Continuous
 62
   120
370
     5
100
AcDbLine
 10
-2021.105868667363
 20
797.3162643841017
 30
0.0
 11
-1621.105868667364
 21
797.3162643841017
 31
0.0
  0
LWPOLYLINE
  5
252
330
1F
100
AcDbEntity
  8
寸法
  6
Continuous
 62
     7
370
     9
100
AcDbPolyline
 90
        4
 70
     1
 43
3.0
 10
-2019.605868667363
 20
797.3162643841017
 42
0.4142135623731
 10
-2021.105868667363
 20
798.8162643841017
 42
0.4142135623731
 10
-2022.605868667363
 20
797.3162643841017
 42
0.4142135623731
 10
-2021.105868667363
 20
795.8162643841017
 42
0.4142135623731
  0
LINE
  5
253
330
1F
100
AcDbEntity
  8
寸法
  6
Continuous
 62
   120
370
     5
100
AcDbLine
 10
-1821.105868667363
 20
753.3162643841008
 30
0.0
 11
-1621.105868667364
 21
753.3162643841008
 31
0.0
  0
LINE
  5
254
330
1F
100
AcDbEntity
  8
寸法
  6
Continuous
 62
   120
370
     5
100
AcDbLine
 10
-1821.105868667363
 20
753.3162643841008
 30
0.0
 11
-1821.105868667363
 21
-1229.683735615899
 31
0.0
  0
LWPOLYLINE
  5
255
330
1F
100
AcDbEntity
  8
寸法
  6
Continuous
 62
     7
370
     9
100
AcDbPolyline
 90
        4
 70
     1
 43
3.0
 10
-1819.605868667363
 20
753.3162643841008
 42
0.4142135623731
 10
-1821.105868667363
 20
754.8162643841008
 42
0.4142135623731
 10
-1822.605868667363
 20
753.3162643841008
 42
0.4142135623731
 10
-1821.105868667363
 20
751.8162643841008
 42
0.4142135623731
  0
LWPOLYLINE
  5
256
330
1F
100
AcDbEntity
  8
寸法
  6
Continuous
 62
     7
370
     9
100
AcDbPolyline
 90
        4
 70
     1
 43
3.0
 10
-1819.605868667363
 20
-1229.683735615899
 42
0.4142135623731
 10
-1821.105868667363
 20
-1228.183735615899
 42
0.4142135623731
 10
-1822.605868667363
 20
-1229.683735615899
 42
0.4142135623731
 10
-1821.105868667363
 20
-1231.183735615899
 42
0.4142135623731
  0
LINE
  5
257
330
1F
100
AcDbEntity
  8
寸法
  6
Continuous
 62
   120
370
     5
100
AcDbLine
 10
-1821.105868667363
 20
-1229.683735615899
 30
0.0
 11
-1621.105868667364
 21
-1229.683735615899
 31
0.0
  0
MTEXT
  5
258
330
1F
100
AcDbEntity
  8
寸法
  6
Continuous
 62
     7
370
    70
100
AcDbMText
 10
-2036.105868667363
 20
-440.8587356158973
 30
0.0
 40
57.14999999999999
 41
412.5
 46
0.0
 71
     7
 72
     1
  1
{\fＭＳ ゴシック|b0|i0|c128|p49;枠外＝2,035}
 11
6.123031769111886E-17
 21
1.0
 31
0.0
 73
     1
 44
1.0
  0
MTEXT
  5
259
330
1F
100
AcDbEntity
  8
寸法
  6
Continuous
 62
     7
370
    70
100
AcDbMText
 10
-1836.105868667363
 20
-447.3587356158982
 30
0.0
 40
57.14999999999999
 41
412.5
 46
0.0
 71
     7
 72
     1
  1
{\fＭＳ ゴシック|b0|i0|c128|p49;ＤＨ＝1,983}
 11
6.123031769111886E-17
 21
1.0
 31
0.0
 73
     1
 44
1.0
  0
MTEXT
  5
25A
330
1F
100
AcDbEntity
  8
寸法
  6
Continuous
 62
     7
370
   211
100
AcDbMText
 10
-527.8558686673641
 20
-1481.608735615897
 30
0.0
 40
57.15
 41
337.5
 46
0.0
 71
     7
 72
     1
  1
{\fＭＳ ゴシック|b0|i0|c128|p49;ＤＷ＝810}
 73
     1
 44
1.0
  0
MTEXT
  5
25B
330
1F
100
AcDbEntity
  8
寸法
  6
Continuous
 62
     7
370
   211
100
AcDbMText
 10
282.1441313326359
 20
-1481.608735615897
 30
0.0
 40
57.15000000000001
 41
337.5000000000001
 46
0.0
 71
     7
 72
     1
  1
{\fＭＳ ゴシック|b0|i0|c128|p49;ＤＷ＝810}
 73
     1
 44
1.0
  0
MTEXT
  5
25C
330
1F
100
AcDbEntity
  8
寸法
  6
Continuous
 62
     7
370
   211
100
AcDbMText
 10
-160.3558686673641
 20
-1681.608735615897
 30
0.0
 40
57.14999999999999
 41
412.5
 46
0.0
 71
     7
 72
     1
  1
{\fＭＳ ゴシック|b0|i0|c128|p49;枠内＝3,174}
 73
     1
 44
1.0
  0
MTEXT
  5
25D
330
1F
100
AcDbEntity
  8
寸法
  6
Continuous
 62
     7
370
   211
100
AcDbMText
 10
-160.3558686673641
 20
-1881.608735615898
 30
0.0
 40
57.14999999999999
 41
412.5
 46
0.0
 71
     7
 72
     1
  1
{\fＭＳ ゴシック|b0|i0|c128|p49;枠外＝3,234}
 73
     1
 44
1.0
  0
ENDSEC
  0
SECTION
  2
OBJECTS
  0
DICTIONARY
  5
C
330
0
100
AcDbDictionary
281
     1
  3
ACAD_GROUP
350
D
  3
ACAD_LAYOUT
350
1A
  3
ACAD_MATERIAL
350
3B
  3
ACAD_MLEADERSTYLE
350
25F
  3
ACAD_MLINESTYLE
350
17
  3
ACAD_PLOTSETTINGS
350
19
  3
ACAD_PLOTSTYLENAME
350
E
  3
ACAD_TABLESTYLE
350
25E
  3
ACAD_VISUALSTYLE
350
2A
  0
DICTIONARY
  5
D
102
{ACAD_REACTORS
330
C
102
}
330
C
100
AcDbDictionary
281
     1
  0
DICTIONARY
  5
1A
102
{ACAD_REACTORS
330
C
102
}
330
C
100
AcDbDictionary
281
     1
  3
Layout1
350
1E
  3
Layout2
350
26
  3
Model
350
22
  0
DICTIONARY
  5
3B
102
{ACAD_REACTORS
330
C
102
}
330
C
100
AcDbDictionary
281
     1
  3
ByBlock
350
3D
  3
ByLayer
350
3C
  3
Global
350
3E
  0
DICTIONARY
  5
25F
102
{ACAD_REACTORS
330
C
102
}
330
C
100
AcDbDictionary
281
     1
  0
DICTIONARY
  5
17
102
{ACAD_REACTORS
330
C
102
}
330
C
100
AcDbDictionary
281
     1
  3
Standard
350
18
  0
DICTIONARY
  5
19
102
{ACAD_REACTORS
330
C
102
}
330
C
100
AcDbDictionary
281
     1
  0
ACDBDICTIONARYWDFLT
  5
E
102
{ACAD_REACTORS
330
C
102
}
330
C
100
AcDbDictionary
281
     1
  3
Normal
350
F
100
AcDbDictionaryWithDefault
340
F
  0
DICTIONARY
  5
25E
102
{ACAD_REACTORS
330
C
102
}
330
C
100
AcDbDictionary
281
     1
  0
DICTIONARY
  5
2A
102
{ACAD_REACTORS
330
C
102
}
330
C
100
AcDbDictionary
281
     1
  3
2dWireframe
350
2F
  3
3D Hidden
350
31
  3
3dWireframe
350
30
  3
Basic
350
32
  3
Brighten
350
36
  3
ColorChange
350
3A
  3
Conceptual
350
34
  3
Dim
350
35
  3
Facepattern
350
39
  3
Flat
350
2B
  3
FlatWithEdges
350
2C
  3
Gouraud
350
2D
  3
GouraudWithEdges
350
2E
  3
Linepattern
350
38
  3
Realistic
350
33
  3
Thicken
350
37
  0
LAYOUT
  5
1E
102
{ACAD_REACTORS
330
1A
102
}
330
1A
100
AcDbPlotSettings
  1

  2
none_device
  4

  6

 40
0.0
 41
0.0
 42
0.0
 43
0.0
 44
0.0
 45
0.0
 46
0.0
 47
0.0
 48
0.0
 49
0.0
140
0.0
141
0.0
142
1.0
143
1.0
 70
   688
 72
     0
 73
     0
 74
     5
  7

 75
    16
 76
     0
 77
     5
 78
   300
147
1.0
148
0.0
149
0.0
100
AcDbLayout
  1
Layout1
 70
     1
 71
     1
 10
0.0
 20
0.0
 11
420.0
 21
297.0
 12
0.0
 22
0.0
 32
0.0
 14
1.000000000000000E+20
 24
1.000000000000000E+20
 34
1.000000000000000E+20
 15
-1.000000000000000E+20
 25
-1.000000000000000E+20
 35
-1.000000000000000E+20
146
0.0
 13
0.0
 23
0.0
 33
0.0
 16
1.0
 26
0.0
 36
0.0
 17
0.0
 27
1.0
 37
0.0
 76
     0
330
1B
  0
LAYOUT
  5
26
102
{ACAD_REACTORS
330
1A
102
}
330
1A
100
AcDbPlotSettings
  1

  2
none_device
  4

  6

 40
0.0
 41
0.0
 42
0.0
 43
0.0
 44
0.0
 45
0.0
 46
0.0
 47
0.0
 48
0.0
 49
0.0
140
0.0
141
0.0
142
1.0
143
1.0
 70
   688
 72
     0
 73
     0
 74
     5
  7

 75
    16
 76
     0
 77
     5
 78
   300
147
1.0
148
0.0
149
0.0
100
AcDbLayout
  1
Layout2
 70
     1
 71
     2
 10
0.0
 20
0.0
 11
0.0
 21
0.0
 12
0.0
 22
0.0
 32
0.0
 14
0.0
 24
0.0
 34
0.0
 15
0.0
 25
0.0
 35
0.0
146
0.0
 13
0.0
 23
0.0
 33
0.0
 16
1.0
 26
0.0
 36
0.0
 17
0.0
 27
1.0
 37
0.0
 76
     0
330
23
  0
LAYOUT
  5
22
102
{ACAD_REACTORS
330
1A
102
}
330
1A
100
AcDbPlotSettings
  1

  2
none_device
  4

  6

 40
0.0
 41
0.0
 42
0.0
 43
0.0
 44
0.0
 45
0.0
 46
0.0
 47
0.0
 48
0.0
 49
0.0
140
0.0
141
0.0
142
1.0
143
1.0
 70
  1712
 72
     0
 73
     0
 74
     0
  7

 75
     0
 76
     0
 77
     5
 78
   300
147
1.0
148
0.0
149
0.0
100
AcDbLayout
  1
Model
 70
     1
 71
     0
 10
-4455.0
 20
-3150.0
 11
4455.0
 21
3150.0
 12
0.0
 22
0.0
 32
0.0
 14
-4455.0
 24
-3150.0
 34
0.0
 15
4455.0
 25
3150.0
 35
0.0
146
0.0
 13
0.0
 23
0.0
 33
0.0
 16
1.0
 26
0.0
 36
0.0
 17
0.0
 27
1.0
 37
0.0
 76
     0
330
1F
331
29
  0
MATERIAL
  5
3D
102
{ACAD_REACTORS
330
3B
102
}
330
3B
100
AcDbMaterial
  1
ByBlock
 72
     1
 94
      127
  0
MATERIAL
  5
3C
102
{ACAD_REACTORS
330
3B
102
}
330
3B
100
AcDbMaterial
  1
ByLayer
 72
     1
 94
      127
  0
MATERIAL
  5
3E
102
{ACAD_REACTORS
330
3B
102
}
330
3B
100
AcDbMaterial
  1
Global
 72
     1
 94
      127
  0
MLINESTYLE
  5
18
102
{ACAD_REACTORS
330
17
102
}
330
17
100
AcDbMlineStyle
  2
Standard
 70
     0
  3

 62
   256
 51
90.0
 52
90.0
 71
     2
 49
0.5
 62
   256
  6
BYLAYER
 49
-0.5
 62
   256
  6
BYLAYER
  0
ACDBPLACEHOLDER
  5
F
102
{ACAD_REACTORS
330
E
102
}
330
E
  0
VISUALSTYLE
  5
2F
102
{ACAD_REACTORS
330
2A
102
}
330
2A
100
AcDbVisualStyle
  2
2dWireframe
 70
     4
177
     2
291
     0
 71
     0
176
     1
 72
     2
176
     1
 73
     0
176
     1
 90
        0
176
     1
 40
-0.6
176
     1
 41
-30.0
176
     1
 62
     5
 63
     7
421
 16777215
176
     1
 74
     1
176
     1
 91
        4
176
     1
 64
     7
176
     1
 65
   257
176
     1
 75
     1
176
     1
175
     1
176
     1
 42
1.0
176
     1
 92
        0
176
     1
 66
   257
176
     1
 43
1.0
176
     1
 76
     1
176
     1
 77
     6
176
     1
 78
     2
176
     1
 67
     7
176
     1
 79
     5
176
     1
170
     0
176
     1
171
     0
176
     1
290
     0
176
     1
 93
        1
176
     1
 44
0.0
176
     1
173
     0
176
     1
  0
VISUALSTYLE
  5
31
102
{ACAD_REACTORS
330
2A
102
}
330
2A
100
AcDbVisualStyle
  2
3D Hidden
 70
     6
177
     2
291
     0
 71
     1
176
     1
 72
     2
176
     1
 73
     2
176
     1
 90
        0
176
     1
 40
-0.6
176
     1
 41
-30.0
176
     1
 62
     5
 63
     7
421
 16777215
176
     1
 74
     2
176
     1
 91
        2
176
     1
 64
     7
176
     1
 65
   257
176
     1
 75
     2
176
     1
175
     1
176
     1
 42
40.0
176
     1
 92
        0
176
     1
 66
   257
176
     1
 43
1.0
176
     1
 76
     1
176
     1
 77
     6
176
     1
 78
     2
176
     1
 67
     7
176
     1
 79
     3
176
     1
170
     0
176
     1
171
     0
176
     1
290
     0
176
     1
 93
        1
176
     1
 44
0.0
176
     1
173
     0
176
     1
  0
VISUALSTYLE
  5
30
102
{ACAD_REACTORS
330
2A
102
}
330
2A
100
AcDbVisualStyle
  2
3dWireframe
 70
     5
177
     2
291
     0
 71
     0
176
     1
 72
     2
176
     1
 73
     0
176
     1
 90
        0
176
     1
 40
-0.6
176
     1
 41
-30.0
176
     1
 62
     5
 63
     7
421
 16777215
176
     1
 74
     1
176
     1
 91
        4
176
     1
 64
     7
176
     1
 65
   257
176
     1
 75
     1
176
     1
175
     1
176
     1
 42
1.0
176
     1
 92
        0
176
     1
 66
   257
176
     1
 43
1.0
176
     1
 76
     1
176
     1
 77
     6
176
     1
 78
     2
176
     1
 67
     7
176
     1
 79
     5
176
     1
170
     0
176
     1
171
     0
176
     1
290
     0
176
     1
 93
        1
176
     1
 44
0.0
176
     1
173
     0
176
     1
  0
VISUALSTYLE
  5
32
102
{ACAD_REACTORS
330
2A
102
}
330
2A
100
AcDbVisualStyle
  2
Basic
 70
     7
177
     2
291
     1
 71
     1
176
     1
 72
     0
176
     1
 73
     1
176
     1
 90
        0
176
     1
 40
-0.6
176
     1
 41
-30.0
176
     1
 62
     5
 63
     7
421
 16777215
176
     1
 74
     0
176
     1
 91
        4
176
     1
 64
     7
176
     1
 65
   257
176
     1
 75
     1
176
     1
175
     1
176
     1
 42
1.0
176
     1
 92
        8
176
     1
 66
     7
176
     1
 43
1.0
176
     1
 76
     1
176
     1
 77
     6
176
     1
 78
     2
176
     1
 67
     7
176
     1
 79
     5
176
     1
170
     0
176
     1
171
     0
176
     1
290
     0
176
     1
 93
        1
176
     1
 44
0.0
176
     1
173
     0
176
     1
  0
VISUALSTYLE
  5
36
102
{ACAD_REACTORS
330
2A
102
}
330
2A
100
AcDbVisualStyle
  2
Brighten
 70
    12
177
     2
291
     1
 71
     2
176
     1
 72
     2
176
     1
 73
     0
176
     1
 90
        0
176
     1
 40
-0.6
176
     1
 41
-30.0
176
     1
 62
     5
 63
     7
421
 16777215
176
     1
 74
     1
176
     1
 91
        4
176
     1
 64
     7
176
     1
 65
   257
176
     1
 75
     1
176
     1
175
     1
176
     1
 42
1.0
176
     1
 92
        8
176
     1
 66
     7
176
     1
 43
1.0
176
     1
 76
     1
176
     1
 77
     6
176
     1
 78
     2
176
     1
 67
     7
176
     1
 79
     5
176
     1
170
     0
176
     1
171
     0
176
     1
290
     0
176
     1
 93
        1
176
     1
 44
50.0
176
     1
173
     0
176
     1
  0
VISUALSTYLE
  5
3A
102
{ACAD_REACTORS
330
2A
102
}
330
2A
100
AcDbVisualStyle
  2
ColorChange
 70
    16
177
     2
291
     1
 71
     2
176
     1
 72
     2
176
     1
 73
     3
176
     1
 90
        0
176
     1
 40
-0.6
176
     1
 41
-30.0
176
     1
 62
     5
 63
     8
421
  8421504
176
     1
 74
     1
176
     1
 91
        4
176
     1
 64
     7
176
     1
 65
   257
176
     1
 75
     1
176
     1
175
     1
176
     1
 42
1.0
176
     1
 92
        8
176
     1
 66
     8
424
  8421504
176
     1
 43
1.0
176
     1
 76
     1
176
     1
 77
     6
176
     1
 78
     2
176
     1
 67
     7
176
     1
 79
     5
176
     1
170
     0
176
     1
171
     0
176
     1
290
     0
176
     1
 93
        1
176
     1
 44
0.0
176
     1
173
     0
176
     1
  0
VISUALSTYLE
  5
34
102
{ACAD_REACTORS
330
2A
102
}
330
2A
100
AcDbVisualStyle
  2
Conceptual
 70
     9
177
     2
291
     0
 71
     3
176
     1
 72
     2
176
     1
 73
     0
176
     1
 90
        0
176
     1
 40
-0.6
176
     1
 41
-30.0
176
     1
 62
     5
 63
     7
421
 16777215
176
     1
 74
     2
176
     1
 91
        2
176
     1
 64
     7
176
     1
 65
   257
176
     1
 75
     1
176
     1
175
     1
176
     1
 42
40.0
176
     1
 92
        8
176
     1
 66
     7
176
     1
 43
1.0
176
     1
 76
     1
176
     1
 77
     6
176
     1
 78
     2
176
     1
 67
     7
176
     1
 79
     3
176
     1
170
     0
176
     1
171
     0
176
     1
290
     0
176
     1
 93
        1
176
     1
 44
0.0
176
     1
173
     0
176
     1
  0
VISUALSTYLE
  5
35
102
{ACAD_REACTORS
330
2A
102
}
330
2A
100
AcDbVisualStyle
  2
Dim
 70
    11
177
     2
291
     1
 71
     2
176
     1
 72
     2
176
     1
 73
     0
176
     1
 90
        0
176
     1
 40
-0.6
176
     1
 41
-30.0
176
     1
 62
     5
 63
     7
421
 16777215
176
     1
 74
     1
176
     1
 91
        4
176
     1
 64
     7
176
     1
 65
   257
176
     1
 75
     1
176
     1
175
     1
176
     1
 42
1.0
176
     1
 92
        8
176
     1
 66
     7
176
     1
 43
1.0
176
     1
 76
     1
176
     1
 77
     6
176
     1
 78
     2
176
     1
 67
     7
176
     1
 79
     5
176
     1
170
     0
176
     1
171
     0
176
     1
290
     0
176
     1
 93
        1
176
     1
 44
-50.0
176
     1
173
     0
176
     1
  0
VISUALSTYLE
  5
39
102
{ACAD_REACTORS
330
2A
102
}
330
2A
100
AcDbVisualStyle
  2
Facepattern
 70
    15
177
     2
291
     1
 71
     2
176
     1
 72
     2
176
     1
 73
     0
176
     1
 90
        0
176
     1
 40
-0.6
176
     1
 41
-30.0
176
     1
 62
     5
 63
     7
421
 16777215
176
     1
 74
     1
176
     1
 91
        4
176
     1
 64
     7
176
     1
 65
   257
176
     1
 75
     1
176
     1
175
     1
176
     1
 42
1.0
176
     1
 92
        8
176
     1
 66
     7
176
     1
 43
1.0
176
     1
 76
     1
176
     1
 77
     6
176
     1
 78
     2
176
     1
 67
     7
176
     1
 79
     5
176
     1
170
     0
176
     1
171
     0
176
     1
290
     0
176
     1
 93
        1
176
     1
 44
0.0
176
     1
173
     0
176
     1
  0
VISUALSTYLE
  5
2B
102
{ACAD_REACTORS
330
2A
102
}
330
2A
100
AcDbVisualStyle
  2
Flat
 70
     0
177
     2
291
     1
 71
     2
176
     1
 72
     1
176
     1
 73
     1
176
     1
 90
        2
176
     1
 40
-0.6
176
     1
 41
30.0
176
     1
 62
     5
 63
     7
421
 16777215
176
     1
 74
     0
176
     1
 91
        4
176
     1
 64
     7
176
     1
 65
   257
176
     1
 75
     1
176
     1
175
     1
176
     1
 42
1.0
176
     1
 92
        8
176
     1
 66
     7
176
     1
 43
1.0
176
     1
 76
     1
176
     1
 77
     6
176
     1
 78
     2
176
     1
 67
     7
176
     1
 79
     5
176
     1
170
     0
176
     1
171
     0
176
     1
290
     0
176
     1
 93
       13
176
     1
 44
0.0
176
     1
173
     0
176
     1
  0
VISUALSTYLE
  5
2C
102
{ACAD_REACTORS
330
2A
102
}
330
2A
100
AcDbVisualStyle
  2
FlatWithEdges
 70
     1
177
     2
291
     1
 71
     2
176
     1
 72
     1
176
     1
 73
     1
176
     1
 90
        2
176
     1
 40
-0.6
176
     1
 41
30.0
176
     1
 62
     5
 63
     7
421
 16777215
176
     1
 74
     1
176
     1
 91
        4
176
     1
 64
     7
176
     1
 65
   257
176
     1
 75
     1
176
     1
175
     1
176
     1
 42
1.0
176
     1
 92
        0
176
     1
 66
   257
176
     1
 43
1.0
176
     1
 76
     1
176
     1
 77
     6
176
     1
 78
     2
176
     1
 67
     7
176
     1
 79
     5
176
     1
170
     0
176
     1
171
     0
176
     1
290
     0
176
     1
 93
       13
176
     1
 44
0.0
176
     1
173
     0
176
     1
  0
VISUALSTYLE
  5
2D
102
{ACAD_REACTORS
330
2A
102
}
330
2A
100
AcDbVisualStyle
  2
Gouraud
 70
     2
177
     2
291
     1
 71
     2
176
     1
 72
     2
176
     1
 73
     1
176
     1
 90
        2
176
     1
 40
-0.6
176
     1
 41
30.0
176
     1
 62
     5
 63
     7
421
 16777215
176
     1
 74
     0
176
     1
 91
        4
176
     1
 64
     7
176
     1
 65
   257
176
     1
 75
     1
176
     1
175
     1
176
     1
 42
1.0
176
     1
 92
        0
176
     1
 66
     7
176
     1
 43
1.0
176
     1
 76
     1
176
     1
 77
     6
176
     1
 78
     2
176
     1
 67
     7
176
     1
 79
     5
176
     1
170
     0
176
     1
171
     0
176
     1
290
     0
176
     1
 93
       13
176
     1
 44
0.0
176
     1
173
     0
176
     1
  0
VISUALSTYLE
  5
2E
102
{ACAD_REACTORS
330
2A
102
}
330
2A
100
AcDbVisualStyle
  2
GouraudWithEdges
 70
     3
177
     2
291
     1
 71
     2
176
     1
 72
     2
176
     1
 73
     1
176
     1
 90
        2
176
     1
 40
-0.6
176
     1
 41
30.0
176
     1
 62
     5
 63
     7
421
 16777215
176
     1
 74
     1
176
     1
 91
        4
176
     1
 64
     7
176
     1
 65
   257
176
     1
 75
     1
176
     1
175
     1
176
     1
 42
1.0
176
     1
 92
        0
176
     1
 66
   257
176
     1
 43
1.0
176
     1
 76
     1
176
     1
 77
     6
176
     1
 78
     2
176
     1
 67
     7
176
     1
 79
     5
176
     1
170
     0
176
     1
171
     0
176
     1
290
     0
176
     1
 93
       13
176
     1
 44
0.0
176
     1
173
     0
176
     1
  0
VISUALSTYLE
  5
38
102
{ACAD_REACTORS
330
2A
102
}
330
2A
100
AcDbVisualStyle
  2
Linepattern
 70
    14
177
     2
291
     1
 71
     2
176
     1
 72
     2
176
     1
 73
     0
176
     1
 90
        0
176
     1
 40
-0.6
176
     1
 41
-30.0
176
     1
 62
     5
 63
     7
421
 16777215
176
     1
 74
     1
176
     1
 91
        4
176
     1
 64
     7
176
     1
 65
   257
176
     1
 75
     7
176
     1
175
     7
176
     1
 42
1.0
176
     1
 92
        8
176
     1
 66
     7
176
     1
 43
1.0
176
     1
 76
     1
176
     1
 77
     6
176
     1
 78
     2
176
     1
 67
     7
176
     1
 79
     5
176
     1
170
     0
176
     1
171
     0
176
     1
290
     0
176
     1
 93
        1
176
     1
 44
0.0
176
     1
173
     0
176
     1
  0
VISUALSTYLE
  5
33
102
{ACAD_REACTORS
330
2A
102
}
330
2A
100
AcDbVisualStyle
  2
Realistic
 70
     8
177
     2
291
     0
 71
     2
176
     1
 72
     2
176
     1
 73
     0
176
     1
 90
        0
176
     1
 40
-0.6
176
     1
 41
-30.0
176
     1
 62
     5
 63
     7
421
 16777215
176
     1
 74
     1
176
     1
 91
        0
176
     1
 64
     7
176
     1
 65
   257
176
     1
 75
     1
176
     1
175
     1
176
     1
 42
1.0
176
     1
 92
        8
176
     1
 66
     8
424
  7895160
176
     1
 43
1.0
176
     1
 76
     1
176
     1
 77
     6
176
     1
 78
     2
176
     1
 67
     7
176
     1
 79
     5
176
     1
170
     0
176
     1
171
     0
176
     1
290
     0
176
     1
 93
       13
176
     1
 44
0.0
176
     1
173
     0
176
     1
  0
VISUALSTYLE
  5
37
102
{ACAD_REACTORS
330
2A
102
}
330
2A
100
AcDbVisualStyle
  2
Thicken
 70
    13
177
     2
291
     1
 71
     2
176
     1
 72
     2
176
     1
 73
     0
176
     1
 90
        0
176
     1
 40
-0.6
176
     1
 41
-30.0
176
     1
 62
     5
 63
     7
421
 16777215
176
     1
 74
     1
176
     1
 91
        4
176
     1
 64
     7
176
     1
 65
   257
176
     1
 75
     1
176
     1
175
     1
176
     1
 42
1.0
176
     1
 92
       12
176
     1
 66
     7
176
     1
 43
1.0
176
     1
 76
     1
176
     1
 77
     6
176
     1
 78
     2
176
     1
 67
     7
176
     1
 79
     5
176
     1
170
     0
176
     1
171
     0
176
     1
290
     0
176
     1
 93
        1
176
     1
 44
0.0
176
     1
173
     0
176
     1
  0
ENDSEC
  0
EOF
