  0
SECTION
  2
HEADER
  9
$ACADVER
  1
AC1024
  9
$ACADMAINTVER
 70
     6
  9
$DWGCODEPAGE
  3
ANSI_932
  9
$INSBASE
 10
0.0
 20
0.0
 30
0.0
  9
$EXTMIN
 10
-4455.0
 20
-3150.0
 30
0.0
  9
$EXTMAX
 10
4455.0
 20
3150.0
 30
0.0
  9
$LIMMIN
 10
-4455.0
 20
-3150.0
  9
$LIMMAX
 10
4455.0
 20
3150.0
  9
$ORTHOMODE
 70
     0
  9
$REGENMODE
 70
     1
  9
$FILLMODE
 70
     1
  9
$QTEXTMODE
 70
     0
  9
$MIRRTEXT
 70
     1
  9
$LTSCALE
 40
30.0
  9
$ATTMODE
 70
     1
  9
$TEXTSIZE
 40
2.5
  9
$TRACEWID
 40
1.0
  9
$TEXTSTYLE
  7
Standard
  9
$CLAYER
  8
0
  9
$CELTYPE
  6
ByLayer
  9
$CECOLOR
 62
   256
  9
$CELTSCALE
 40
1.0
  9
$DISPSILH
 70
     0
  9
$DIMSCALE
 40
1.0
  9
$DIMASZ
 40
2.5
  9
$DIMEXO
 40
0.625
  9
$DIMDLI
 40
3.75
  9
$DIMRND
 40
0.0
  9
$DIMDLE
 40
0.0
  9
$DIMEXE
 40
1.25
  9
$DIMTP
 40
0.0
  9
$DIMTM
 40
0.0
  9
$DIMTXT
 40
2.5
  9
$DIMCEN
 40
2.5
  9
$DIMTSZ
 40
0.0
  9
$DIMTOL
 70
     0
  9
$DIMLIM
 70
     0
  9
$DIMTIH
 70
     0
  9
$DIMTOH
 70
     0
  9
$DIMSE1
 70
     0
  9
$DIMSE2
 70
     0
  9
$DIMTAD
 70
     1
  9
$DIMZIN
 70
     8
  9
$DIMBLK
  1

  9
$DIMASO
 70
     1
  9
$DIMSHO
 70
     1
  9
$DIMPOST
  1

  9
$DIMAPOST
  1

  9
$DIMALT
 70
     0
  9
$DIMALTD
 70
     3
  9
$DIMALTF
 40
0.03937007874016
  9
$DIMLFAC
 40
1.0
  9
$DIMTOFL
 70
     1
  9
$DIMTVP
 40
0.0
  9
$DIMTIX
 70
     0
  9
$DIMSOXD
 70
     0
  9
$DIMSAH
 70
     0
  9
$DIMBLK1
  1

  9
$DIMBLK2
  1

  9
$DIMSTYLE
  2
ISO-25
  9
$DIMCLRD
 70
     0
  9
$DIMCLRE
 70
     0
  9
$DIMCLRT
 70
     0
  9
$DIMTFAC
 40
1.0
  9
$DIMGAP
 40
0.625
  9
$DIMJUST
 70
     0
  9
$DIMSD1
 70
     0
  9
$DIMSD2
 70
     0
  9
$DIMTOLJ
 70
     0
  9
$DIMTZIN
 70
     8
  9
$DIMALTZ
 70
     0
  9
$DIMALTTZ
 70
     0
  9
$DIMUPT
 70
     0
  9
$DIMDEC
 70
     2
  9
$DIMTDEC
 70
     2
  9
$DIMALTU
 70
     2
  9
$DIMALTTD
 70
     3
  9
$DIMTXSTY
  7
Standard
  9
$DIMAUNIT
 70
     0
  9
$DIMADEC
 70
     0
  9
$DIMALTRND
 40
0.0
  9
$DIMAZIN
 70
     0
  9
$DIMDSEP
 70
    44
  9
$DIMATFIT
 70
     3
  9
$DIMFRAC
 70
     0
  9
$DIMLDRBLK
  1

  9
$DIMLUNIT
 70
     2
  9
$DIMLWD
 70
    -2
  9
$DIMLWE
 70
    -2
  9
$DIMTMOVE
 70
     0
  9
$DIMFXL
 40
1.0
  9
$DIMFXLON
 70
     0
  9
$DIMJOGANG
 40
0.7853981633974483
  9
$DIMTFILL
 70
     0
  9
$DIMTFILLCLR
 70
     0
  9
$DIMARCSYM
 70
     0
  9
$DIMLTYPE
  6

  9
$DIMLTEX1
  6

  9
$DIMLTEX2
  6

  9
$DIMTXTDIRECTION
 70
     0
  9
$LUNITS
 70
     2
  9
$LUPREC
 70
     4
  9
$SKETCHINC
 40
1.0
  9
$FILLETRAD
 40
10.0
  9
$AUNITS
 70
     0
  9
$AUPREC
 70
     0
  9
$MENU
  1
.
  9
$ELEVATION
 40
0.0
  9
$PELEVATION
 40
0.0
  9
$THICKNESS
 40
0.0
  9
$LIMCHECK
 70
     0
  9
$CHAMFERA
 40
10.0
  9
$CHAMFERB
 40
10.0
  9
$CHAMFERC
 40
20.0
  9
$CHAMFERD
 40
0.0
  9
$SKPOLY
 70
     0
  9
$TDCREATE
 40
2457913.586667974
  9
$TDUCREATE
 40
2457913.211667974
  9
$TDUPDATE
 40
2457913.586667986
  9
$TDUUPDATE
 40
2457913.211667986
  9
$TDINDWG
 40
0.0000000116
  9
$TDUSRTIMER
 40
0.0000000116
  9
$USRTIMER
 70
     1
  9
$ANGBASE
 50
0.0
  9
$ANGDIR
 70
     0
  9
$PDMODE
 70
     0
  9
$PDSIZE
 40
0.0
  9
$PLINEWID
 40
0.0
  9
$SPLFRAME
 70
     0
  9
$SPLINETYPE
 70
     6
  9
$SPLINESEGS
 70
     8
  9
$HANDSEED
  5
2B0
  9
$SURFTAB1
 70
     6
  9
$SURFTAB2
 70
     6
  9
$SURFTYPE
 70
     6
  9
$SURFU
 70
     6
  9
$SURFV
 70
     6
  9
$UCSBASE
  2

  9
$UCSNAME
  2

  9
$UCSORG
 10
0.0
 20
0.0
 30
0.0
  9
$UCSXDIR
 10
1.0
 20
0.0
 30
0.0
  9
$UCSYDIR
 10
0.0
 20
1.0
 30
0.0
  9
$UCSORTHOREF
  2

  9
$UCSORTHOVIEW
 70
     0
  9
$UCSORGTOP
 10
0.0
 20
0.0
 30
0.0
  9
$UCSORGBOTTOM
 10
0.0
 20
0.0
 30
0.0
  9
$UCSORGLEFT
 10
0.0
 20
0.0
 30
0.0
  9
$UCSORGRIGHT
 10
0.0
 20
0.0
 30
0.0
  9
$UCSORGFRONT
 10
0.0
 20
0.0
 30
0.0
  9
$UCSORGBACK
 10
0.0
 20
0.0
 30
0.0
  9
$PUCSBASE
  2

  9
$PUCSNAME
  2

  9
$PUCSORG
 10
0.0
 20
0.0
 30
0.0
  9
$PUCSXDIR
 10
1.0
 20
0.0
 30
0.0
  9
$PUCSYDIR
 10
0.0
 20
1.0
 30
0.0
  9
$PUCSORTHOREF
  2

  9
$PUCSORTHOVIEW
 70
     0
  9
$PUCSORGTOP
 10
0.0
 20
0.0
 30
0.0
  9
$PUCSORGBOTTOM
 10
0.0
 20
0.0
 30
0.0
  9
$PUCSORGLEFT
 10
0.0
 20
0.0
 30
0.0
  9
$PUCSORGRIGHT
 10
0.0
 20
0.0
 30
0.0
  9
$PUCSORGFRONT
 10
0.0
 20
0.0
 30
0.0
  9
$PUCSORGBACK
 10
0.0
 20
0.0
 30
0.0
  9
$USERI1
 70
     0
  9
$USERI2
 70
     0
  9
$USERI3
 70
     0
  9
$USERI4
 70
     0
  9
$USERI5
 70
     0
  9
$USERR1
 40
0.0
  9
$USERR2
 40
0.0
  9
$USERR3
 40
0.0
  9
$USERR4
 40
0.0
  9
$USERR5
 40
0.0
  9
$WORLDVIEW
 70
     1
  9
$SHADEDGE
 70
     3
  9
$SHADEDIF
 70
    70
  9
$TILEMODE
 70
     1
  9
$MAXACTVP
 70
    64
  9
$PINSBASE
 10
0.0
 20
0.0
 30
0.0
  9
$PLIMCHECK
 70
     0
  9
$PEXTMIN
 10
1.000000000000000E+20
 20
1.000000000000000E+20
 30
1.000000000000000E+20
  9
$PEXTMAX
 10
-1.000000000000000E+20
 20
-1.000000000000000E+20
 30
-1.000000000000000E+20
  9
$PLIMMIN
 10
0.0
 20
0.0
  9
$PLIMMAX
 10
420.0
 20
297.0
  9
$UNITMODE
 70
     0
  9
$VISRETAIN
 70
     1
  9
$PLINEGEN
 70
     0
  9
$PSLTSCALE
 70
     1
  9
$TREEDEPTH
 70
  3020
  9
$CMLSTYLE
  2
Standard
  9
$CMLJUST
 70
     0
  9
$CMLSCALE
 40
20.0
  9
$PROXYGRAPHICS
 70
     1
  9
$MEASUREMENT
 70
     1
  9
$CELWEIGHT
370
    -1
  9
$ENDCAPS
280
     0
  9
$JOINSTYLE
280
     0
  9
$LWDISPLAY
290
     0
  9
$INSUNITS
 70
     4
  9
$HYPERLINKBASE
  1

  9
$STYLESHEET
  1

  9
$XEDIT
290
     1
  9
$CEPSNTYPE
380
     0
  9
$PSTYLEMODE
290
     1
  9
$FINGERPRINTGUID
  2
{CE944555-4A61-4ECB-A150-B6DA4FDA628A}
  9
$VERSIONGUID
  2
{FAEB1C32-E019-11D5-929B-00C0DF256EC4}
  9
$EXTNAMES
290
     1
  9
$PSVPSCALE
 40
0.0
  9
$OLESTARTUP
290
     0
  9
$SORTENTS
280
   127
  9
$INDEXCTL
280
     0
  9
$HIDETEXT
280
     1
  9
$XCLIPFRAME
280
     2
  9
$HALOGAP
280
     0
  9
$OBSCOLOR
 70
   257
  9
$OBSLTYPE
280
     0
  9
$INTERSECTIONDISPLAY
280
     0
  9
$INTERSECTIONCOLOR
 70
   257
  9
$DIMASSOC
280
     2
  9
$PROJECTNAME
  1

  9
$CAMERADISPLAY
290
     0
  9
$LENSLENGTH
 40
50.0
  9
$CAMERAHEIGHT
 40
0.0
  9
$STEPSPERSEC
 40
2.0
  9
$STEPSIZE
 40
6.0
  9
$3DDWFPREC
 40
2.0
  9
$PSOLWIDTH
 40
5.0
  9
$PSOLHEIGHT
 40
80.0
  9
$LOFTANG1
 40
1.570796326794897
  9
$LOFTANG2
 40
1.570796326794897
  9
$LOFTMAG1
 40
0.0
  9
$LOFTMAG2
 40
0.0
  9
$LOFTPARAM
 70
     7
  9
$LOFTNORMALS
280
     1
  9
$LATITUDE
 40
37.795
  9
$LONGITUDE
 40
-122.394
  9
$NORTHDIRECTION
 40
0.0
  9
$TIMEZONE
 70
 -8000
  9
$LIGHTGLYPHDISPLAY
280
     1
  9
$TILEMODELIGHTSYNCH
280
     1
  9
$SOLIDHIST
280
     1
  9
$SHOWHIST
280
     1
  9
$DWFFRAME
280
     2
  9
$DGNFRAME
280
     2
  9
$REALWORLDSCALE
290
     1
  9
$INTERFERECOLOR
 62
   256
  9
$CSHADOW
280
     0
  9
$SHADOWPLANELOCATION
 40
0.0
  0
ENDSEC
  0
SECTION
  2
CLASSES
  0
CLASS
  1
ACDBDICTIONARYWDFLT
  2
AcDbDictionaryWithDefault
  3
ObjectDBX Classes
 90
        0
 91
        4
280
     0
281
     0
  0
CLASS
  1
VISUALSTYLE
  2
AcDbVisualStyle
  3
ObjectDBX Classes
 90
     4095
 91
        4
280
     0
281
     0
  0
CLASS
  1
MATERIAL
  2
AcDbMaterial
  3
ObjectDBX Classes
 90
     1153
 91
        4
280
     0
281
     0
  0
ENDSEC
  0
SECTION
  2
TABLES
  0
TABLE
  2
VPORT
  5
8
330
0
100
AcDbSymbolTable
 70
     1
  0
VPORT
  5
29
330
8
100
AcDbSymbolTableRecord
100
AcDbViewportTableRecord
  2
*Active
 70
     0
 10
0.0
 20
0.0
 11
1.0
 21
1.0
 12
0.0
 22
0.0
 13
0.0
 23
0.0
 14
10.0
 24
10.0
 15
10.0
 25
10.0
 16
0.0
 26
0.0
 36
1.0
 17
0.0
 27
0.0
 37
0.0
 40
6930.000000000001
 41
1.414285714285714
 42
50.0
 43
0.0
 44
0.0
 50
0.0
 51
0.0
 71
     0
 72
 10000
 73
     1
 74
     3
 75
     0
 76
     0
 77
     0
 78
     0
281
     0
 65
     1
110
0.0
120
0.0
130
0.0
111
1.0
121
0.0
131
0.0
112
0.0
122
1.0
132
0.0
 79
     0
146
0.0
 60
     3
 61
     5
292
     1
282
     1
141
0.0
142
0.0
 63
   250
  0
ENDTAB
  0
TABLE
  2
LTYPE
  5
5
330
0
100
AcDbSymbolTable
 70
     2
  0
LTYPE
  5
14
330
5
100
AcDbSymbolTableRecord
100
AcDbLinetypeTableRecord
  2
ByBlock
 70
     0
  3

 72
    65
 73
     0
 40
0.0
  0
LTYPE
  5
15
330
5
100
AcDbSymbolTableRecord
100
AcDbLinetypeTableRecord
  2
ByLayer
 70
     0
  3

 72
    65
 73
     0
 40
0.0
  0
LTYPE
  5
16
330
5
100
AcDbSymbolTableRecord
100
AcDbLinetypeTableRecord
  2
Continuous
 70
     0
  3
Solid line
 72
    65
 73
     0
 40
0.0
  0
LTYPE
  5
3F
330
5
100
AcDbSymbolTableRecord
100
AcDbLinetypeTableRecord
  2
JWW_DASHED1
 70
     0
  3
-  --  --  --  --  --  --  --  -
 72
    65
 73
     2
 40
1.693333333333333
 49
0.8466666666666667
 74
     0
 49
-0.8466666666666667
 74
     0
  0
ENDTAB
  0
TABLE
  2
LAYER
  5
2
330
0
100
AcDbSymbolTable
 70
     3
  0
LAYER
  5
10
330
2
100
AcDbSymbolTableRecord
100
AcDbLayerTableRecord
  2
0
 70
     0
 62
     7
  6
Continuous
370
    -3
390
F
347
3E
  0
LAYER
  5
40
330
2
100
AcDbSymbolTableRecord
100
AcDbLayerTableRecord
  2
0-0
 70
     0
 62
     7
  6
Continuous
370
    -3
390
F
347
3E
  0
LAYER
  5
41
330
2
100
AcDbSymbolTableRecord
100
AcDbLayerTableRecord
  2
寸法
 70
     0
 62
     7
  6
Continuous
370
    -3
390
F
347
3E
  0
ENDTAB
  0
TABLE
  2
STYLE
  5
3
330
0
100
AcDbSymbolTable
 70
     1
  0
STYLE
  5
11
330
3
100
AcDbSymbolTableRecord
100
AcDbTextStyleTableRecord
  2
Standard
 70
     0
 40
0.0
 41
1.0
 50
0.0
 71
     0
 42
2.5
  3
txt
  4

  0
ENDTAB
  0
TABLE
  2
VIEW
  5
6
330
0
100
AcDbSymbolTable
 70
     0
  0
ENDTAB
  0
TABLE
  2
UCS
  5
7
330
0
100
AcDbSymbolTable
 70
     0
  0
ENDTAB
  0
TABLE
  2
APPID
  5
9
330
0
100
AcDbSymbolTable
 70
     1
  0
APPID
  5
12
330
9
100
AcDbSymbolTableRecord
100
AcDbRegAppTableRecord
  2
ACAD
 70
     0
  0
ENDTAB
  0
TABLE
  2
DIMSTYLE
  5
A
330
0
100
AcDbSymbolTable
 70
     1
100
AcDbDimStyleTable
  0
DIMSTYLE
105
27
330
A
100
AcDbSymbolTableRecord
100
AcDbDimStyleTableRecord
  2
ISO-25
 70
     0
 41
2.5
 42
0.625
 43
3.75
 44
1.25
 73
     0
 74
     0
 77
     1
 78
     8
140
2.5
141
2.5
143
0.03937007874016
147
0.625
171
     3
172
     1
178
     0
271
     2
272
     2
274
     3
278
    44
283
     0
284
     8
340
11
  0
ENDTAB
  0
TABLE
  2
BLOCK_RECORD
  5
1
330
0
100
AcDbSymbolTable
 70
     1
  0
BLOCK_RECORD
  5
1F
330
1
100
AcDbSymbolTableRecord
100
AcDbBlockTableRecord
  2
*Model_Space
340
22
 70
     0
280
     1
281
     0
  0
BLOCK_RECORD
  5
1B
330
1
100
AcDbSymbolTableRecord
100
AcDbBlockTableRecord
  2
*Paper_Space
340
1E
 70
     0
280
     1
281
     0
  0
BLOCK_RECORD
  5
23
330
1
100
AcDbSymbolTableRecord
100
AcDbBlockTableRecord
  2
*Paper_Space0
340
26
 70
     0
280
     1
281
     0
  0
ENDTAB
  0
ENDSEC
  0
SECTION
  2
BLOCKS
  0
BLOCK
  5
20
330
1F
100
AcDbEntity
  8
0
100
AcDbBlockBegin
  2
*Model_Space
 70
     0
 10
0.0
 20
0.0
 30
0.0
  3
*Model_Space
  1

  0
ENDBLK
  5
21
330
1F
100
AcDbEntity
  8
0
100
AcDbBlockEnd
  0
BLOCK
  5
1C
330
1B
100
AcDbEntity
 67
     1
  8
0
100
AcDbBlockBegin
  2
*Paper_Space
 70
     0
 10
0.0
 20
0.0
 30
0.0
  3
*Paper_Space
  1

  0
ENDBLK
  5
1D
330
1B
100
AcDbEntity
 67
     1
  8
0
100
AcDbBlockEnd
  0
BLOCK
  5
24
330
23
100
AcDbEntity
  8
0
100
AcDbBlockBegin
  2
*Paper_Space0
 70
     0
 10
0.0
 20
0.0
 30
0.0
  3
*Paper_Space0
  1

  0
ENDBLK
  5
25
330
23
100
AcDbEntity
  8
0
100
AcDbBlockEnd
  0
ENDSEC
  0
SECTION
  2
ENTITIES
  0
LINE
  5
42
330
1F
100
AcDbEntity
  8
0-0
  6
JWW_DASHED1
 62
   120
370
     5
100
AcDbLine
 10
480.4223645988791
 20
-919.7943960370161
 30
0.0
 11
483.422364598879
 21
-919.7943960370161
 31
0.0
  0
LINE
  5
43
330
1F
100
AcDbEntity
  8
0-0
  6
JWW_DASHED1
 62
   120
370
     5
100
AcDbLine
 10
483.422364598879
 20
-919.7943960370161
 30
0.0
 11
483.422364598879
 21
1063.205603962984
 31
0.0
  0
LINE
  5
44
330
1F
100
AcDbEntity
  8
0-0
  6
JWW_DASHED1
 62
   120
370
     5
100
AcDbLine
 10
480.4223645988791
 20
1063.205603962984
 30
0.0
 11
483.422364598879
 21
1063.205603962984
 31
0.0
  0
LINE
  5
45
330
1F
100
AcDbEntity
  8
0-0
  6
JWW_DASHED1
 62
   120
370
     5
100
AcDbLine
 10
-326.577635401121
 20
1063.205603962984
 30
0.0
 11
-326.577635401121
 21
1059.205603962984
 31
0.0
  0
LINE
  5
46
330
1F
100
AcDbEntity
  8
0-0
  6
Continuous
 62
    92
370
    13
100
AcDbLine
 10
-326.577635401121
 20
1063.205603962984
 30
0.0
 11
-326.577635401121
 21
-919.7943960370161
 31
0.0
  0
LINE
  5
47
330
1F
100
AcDbEntity
  8
0-0
  6
Continuous
 62
    92
370
    13
100
AcDbLine
 10
480.4223645988791
 20
1063.205603962984
 30
0.0
 11
-326.577635401121
 21
1063.205603962984
 31
0.0
  0
LINE
  5
48
330
1F
100
AcDbEntity
  8
0-0
  6
Continuous
 62
    92
370
    13
100
AcDbLine
 10
480.4223645988791
 20
-919.7943960370161
 30
0.0
 11
-326.577635401121
 21
-919.7943960370161
 31
0.0
  0
LINE
  5
49
330
1F
100
AcDbEntity
  8
0-0
  6
JWW_DASHED1
 62
   120
370
     5
100
AcDbLine
 10
-326.577635401121
 20
-928.2943960370161
 30
0.0
 11
-326.577635401121
 21
1076.705603962983
 31
0.0
  0
LINE
  5
4A
330
1F
100
AcDbEntity
  8
0-0
  6
JWW_DASHED1
 62
   120
370
     5
100
AcDbLine
 10
-296.577635401121
 20
-928.2943960370161
 30
0.0
 11
-296.577635401121
 21
1076.705603962983
 31
0.0
  0
LINE
  5
4B
330
1F
100
AcDbEntity
  8
0-0
  6
Continuous
 62
    92
370
    13
100
AcDbLine
 10
-1133.577635401122
 20
-928.2943960370161
 30
0.0
 11
-1133.577635401122
 21
1106.705603962983
 31
0.0
  0
LINE
  5
4C
330
1F
100
AcDbEntity
  8
0-0
  6
Continuous
 62
    92
370
    13
100
AcDbLine
 10
510.4223645988791
 20
-928.2943960370161
 30
0.0
 11
510.4223645988791
 21
1106.705603962983
 31
0.0
  0
LINE
  5
4D
330
1F
100
AcDbEntity
  8
0-0
  6
Continuous
 62
    92
370
    13
100
AcDbLine
 10
-1103.577635401122
 20
1076.705603962983
 30
0.0
 11
480.4223645988791
 21
1076.705603962983
 31
0.0
  0
LINE
  5
4E
330
1F
100
AcDbEntity
  8
0-0
  6
Continuous
 62
    92
370
    13
100
AcDbLine
 10
-1133.577635401122
 20
1106.705603962983
 30
0.0
 11
510.4223645988791
 21
1106.705603962983
 31
0.0
  0
ARC
  5
4F
330
1F
100
AcDbEntity
  8
0-0
  6
Continuous
 62
    92
370
    13
100
AcDbCircle
 10
451.9223645988795
 20
100.7056039629826
 30
0.0
 40
1.5
100
AcDbArc
 50
0.0
 51
90.0
  0
LINE
  5
50
330
1F
100
AcDbEntity
  8
0-0
  6
Continuous
 62
    92
370
    13
100
AcDbLine
 10
412.92236459888
 20
102.2056039629838
 30
0.0
 11
451.9223645988795
 21
102.2056039629838
 31
0.0
  0
ARC
  5
51
330
1F
100
AcDbEntity
  8
0-0
  6
Continuous
 62
    92
370
    13
100
AcDbCircle
 10
412.92236459888
 20
100.7056039629826
 30
0.0
 40
1.5
100
AcDbArc
 50
89.99999999999999
 51
180.0
  0
LINE
  5
52
330
1F
100
AcDbEntity
  8
0-0
  6
Continuous
 62
    92
370
    13
100
AcDbLine
 10
411.4223645988797
 20
-18.29439603701577
 30
0.0
 11
411.4223645988797
 21
100.7056039629826
 31
0.0
  0
ARC
  5
53
330
1F
100
AcDbEntity
  8
0-0
  6
Continuous
 62
    92
370
    13
100
AcDbCircle
 10
412.92236459888
 20
-18.29439603701577
 30
0.0
 40
1.5
100
AcDbArc
 50
180.0
 51
270.0
  0
LINE
  5
54
330
1F
100
AcDbEntity
  8
0-0
  6
Continuous
 62
    92
370
    13
100
AcDbLine
 10
451.9223645988795
 20
-19.79439603701696
 30
0.0
 11
412.92236459888
 21
-19.79439603701696
 31
0.0
  0
LINE
  5
55
330
1F
100
AcDbEntity
  8
0-0
  6
Continuous
 62
    92
370
    13
100
AcDbLine
 10
453.422364598879
 20
-18.29439603701577
 30
0.0
 11
453.422364598879
 21
100.7056039629826
 31
0.0
  0
ARC
  5
56
330
1F
100
AcDbEntity
  8
0-0
  6
Continuous
 62
    92
370
    13
100
AcDbCircle
 10
451.9223645988795
 20
-18.29439603701577
 30
0.0
 40
1.5
100
AcDbArc
 50
270.0
 51
0.0
  0
ARC
  5
57
330
1F
100
AcDbEntity
  8
0-0
  6
Continuous
 62
     7
370
     9
100
AcDbCircle
 10
432.4223645988793
 20
11.60560396298433
 30
0.0
 40
15.0
100
AcDbArc
 50
180.0
 51
0.0
  0
ARC
  5
58
330
1F
100
AcDbEntity
  8
0-0
  6
Continuous
 62
     7
370
     9
100
AcDbCircle
 10
432.4223645988793
 20
70.8056039629825
 30
0.0
 40
15.0
100
AcDbArc
 50
0.0
 51
180.0
  0
LINE
  5
59
330
1F
100
AcDbEntity
  8
0-0
  6
Continuous
 62
     7
370
     9
100
AcDbLine
 10
417.4223645988793
 20
11.60560396298433
 30
0.0
 11
417.4223645988793
 21
70.8056039629825
 31
0.0
  0
LINE
  5
5A
330
1F
100
AcDbEntity
  8
0-0
  6
Continuous
 62
     7
370
     9
100
AcDbLine
 10
447.4223645988793
 20
70.8056039629825
 30
0.0
 11
447.4223645988793
 21
11.60560396298433
 31
0.0
  0
LINE
  5
5B
330
1F
100
AcDbEntity
  8
0-0
  6
Continuous
 62
    92
370
    13
100
AcDbLine
 10
-1133.577635401122
 20
-928.2943960370161
 30
0.0
 11
-1103.577635401122
 21
-928.2943960370161
 31
0.0
  0
LINE
  5
5C
330
1F
100
AcDbEntity
  8
0-0
  6
Continuous
 62
    92
370
    13
100
AcDbLine
 10
-1103.577635401122
 20
-928.2943960370161
 30
0.0
 11
-1103.577635401122
 21
1076.705603962983
 31
0.0
  0
LINE
  5
5D
330
1F
100
AcDbEntity
  8
0-0
  6
Continuous
 62
    92
370
    13
100
AcDbLine
 10
480.4223645988791
 20
-928.2943960370161
 30
0.0
 11
510.4223645988791
 21
-928.2943960370161
 31
0.0
  0
LINE
  5
5E
330
1F
100
AcDbEntity
  8
0-0
  6
Continuous
 62
    92
370
    13
100
AcDbLine
 10
480.4223645988791
 20
-928.2943960370161
 30
0.0
 11
480.4223645988791
 21
1076.705603962983
 31
0.0
  0
LINE
  5
5F
330
1F
100
AcDbEntity
  8
0-0
  6
JWW_DASHED1
 62
   120
370
     5
100
AcDbLine
 10
-326.577635401121
 20
-928.2943960370161
 30
0.0
 11
-296.577635401121
 21
-928.2943960370161
 31
0.0
  0
LINE
  5
60
330
1F
100
AcDbEntity
  8
0-0
  6
JWW_DASHED1
 62
   120
370
     5
100
AcDbLine
 10
-216.5776354011307
 20
903.6938320632391
 30
0.0
 11
-192.2839216282181
 21
927.987545836153
 31
0.0
  0
LINE
  5
61
330
1F
100
AcDbEntity
  8
0-0
  6
Continuous
 62
    92
370
    13
100
AcDbLine
 10
373.4223645988784
 20
-779.0124541638468
 30
0.0
 11
-216.5776354011204
 21
-779.0124541638468
 31
0.0
  0
LINE
  5
62
330
1F
100
AcDbEntity
  8
0-0
  6
Continuous
 62
    92
370
    13
100
AcDbLine
 10
-216.5776354011204
 20
927.987545836153
 30
0.0
 11
373.4223645988784
 21
927.987545836153
 31
0.0
  0
LINE
  5
63
330
1F
100
AcDbEntity
  8
0-0
  6
Continuous
 62
    92
370
    13
100
AcDbLine
 10
33.42236459887899
 20
927.987545836153
 30
0.0
 11
33.42236459887899
 21
-779.0124541638469
 31
0.0
  0
LINE
  5
64
330
1F
100
AcDbEntity
  8
0-0
  6
Continuous
 62
    92
370
    13
100
AcDbLine
 10
123.422364598879
 20
927.987545836153
 30
0.0
 11
123.422364598879
 21
-779.0124541638469
 31
0.0
  0
LINE
  5
65
330
1F
100
AcDbEntity
  8
0-0
  6
JWW_DASHED1
 62
   120
370
     5
100
AcDbLine
 10
370.5288459806696
 20
-779.0124541638339
 30
0.0
 11
373.4223645988631
 21
-776.11893554564
 31
0.0
  0
LINE
  5
66
330
1F
100
AcDbEntity
  8
0-0
  6
JWW_DASHED1
 62
   120
370
     5
100
AcDbLine
 10
363.4577781687927
 20
-779.0124541638442
 30
0.0
 11
373.4223645988733
 21
-769.0478677337634
 31
0.0
  0
LINE
  5
67
330
1F
100
AcDbEntity
  8
0-0
  6
JWW_DASHED1
 62
   120
370
     5
100
AcDbLine
 10
356.3867103569158
 20
-779.0124541638531
 30
0.0
 11
373.4223645988818
 21
-761.9767999218872
 31
0.0
  0
LINE
  5
68
330
1F
100
AcDbEntity
  8
0-0
  6
JWW_DASHED1
 62
   120
370
     5
100
AcDbLine
 10
349.3156425450696
 20
-779.0124541638331
 30
0.0
 11
373.4223645988613
 21
-754.9057321100415
 31
0.0
  0
LINE
  5
69
330
1F
100
AcDbEntity
  8
0-0
  6
JWW_DASHED1
 62
   120
370
     5
100
AcDbLine
 10
342.2445747331927
 20
-779.0124541638434
 30
0.0
 11
373.4223645988716
 21
-747.8346642981652
 31
0.0
  0
LINE
  5
6A
330
1F
100
AcDbEntity
  8
0-0
  6
JWW_DASHED1
 62
   120
370
     5
100
AcDbLine
 10
335.1735069213158
 20
-779.0124541638536
 30
0.0
 11
373.4223645988801
 21
-740.7635964862889
 31
0.0
  0
LINE
  5
6B
330
1F
100
AcDbEntity
  8
0-0
  6
JWW_DASHED1
 62
   120
370
     5
100
AcDbLine
 10
328.1024391094423
 20
-779.0124541638608
 30
0.0
 11
373.4223645988903
 21
-733.6925286744124
 31
0.0
  0
LINE
  5
6C
330
1F
100
AcDbEntity
  8
0-0
  6
JWW_DASHED1
 62
   120
370
     5
100
AcDbLine
 10
321.0313712975944
 20
-779.0124541638422
 30
0.0
 11
373.4223645988699
 21
-726.621460862567
 31
0.0
  0
LINE
  5
6D
330
1F
100
AcDbEntity
  8
0-0
  6
JWW_DASHED1
 62
   120
370
     5
100
AcDbLine
 10
313.9603034857175
 20
-779.0124541638526
 30
0.0
 11
373.4223645988801
 21
-719.5503930506903
 31
0.0
  0
LINE
  5
6E
330
1F
100
AcDbEntity
  8
0-0
  6
JWW_DASHED1
 62
   120
370
     5
100
AcDbLine
 10
306.889235673844
 20
-779.0124541638585
 30
0.0
 11
373.4223645988886
 21
-712.4793252388141
 31
0.0
  0
LINE
  5
6F
330
1F
100
AcDbEntity
  8
0-0
  6
JWW_DASHED1
 62
   120
370
     5
100
AcDbLine
 10
299.8181678619944
 20
-779.0124541638414
 30
0.0
 11
373.4223645988682
 21
-705.4082574269686
 31
0.0
  0
LINE
  5
70
330
1F
100
AcDbEntity
  8
0-0
  6
JWW_DASHED1
 62
   120
370
     5
100
AcDbLine
 10
292.7471000501175
 20
-779.0124541638517
 30
0.0
 11
373.4223645988784
 21
-698.3371896150917
 31
0.0
  0
LINE
  5
71
330
1F
100
AcDbEntity
  8
0-0
  6
JWW_DASHED1
 62
   120
370
     5
100
AcDbLine
 10
285.6760322382474
 20
-779.012454163856
 30
0.0
 11
373.4223645988869
 21
-691.2661218032162
 31
0.0
  0
LINE
  5
72
330
1F
100
AcDbEntity
  8
0-0
  6
JWW_DASHED1
 62
   120
370
     5
100
AcDbLine
 10
278.6049644263961
 20
-779.0124541638405
 30
0.0
 11
373.4223645988665
 21
-684.1950539913704
 31
0.0
  0
LINE
  5
73
330
1F
100
AcDbEntity
  8
0-0
  6
JWW_DASHED1
 62
   120
370
     5
100
AcDbLine
 10
271.5338966145192
 20
-779.0124541638505
 30
0.0
 11
373.4223645988767
 21
-677.1239861794937
 31
0.0
  0
LINE
  5
74
330
1F
100
AcDbEntity
  8
0-0
  6
JWW_DASHED1
 62
   120
370
     5
100
AcDbLine
 10
264.4628288026491
 20
-779.0124541638539
 30
0.0
 11
373.4223645988852
 21
-670.0529183676176
 31
0.0
  0
LINE
  5
75
330
1F
100
AcDbEntity
  8
0-0
  6
JWW_DASHED1
 62
   120
370
     5
100
AcDbLine
 10
257.3917609907961
 20
-779.0124541638395
 30
0.0
 11
373.4223645988648
 21
-662.981850555772
 31
0.0
  0
LINE
  5
76
330
1F
100
AcDbEntity
  8
0-0
  6
JWW_DASHED1
 62
   120
370
     5
100
AcDbLine
 10
250.3206931789192
 20
-779.0124541638497
 30
0.0
 11
373.422364598875
 21
-655.9107827438951
 31
0.0
  0
LINE
  5
77
330
1F
100
AcDbEntity
  8
0-0
  6
JWW_DASHED1
 62
   120
370
     5
100
AcDbLine
 10
243.2496253670508
 20
-779.0124541638517
 30
0.0
 11
373.4223645988835
 21
-648.83971493202
 31
0.0
  0
LINE
  5
78
330
1F
100
AcDbEntity
  8
0-0
  6
JWW_DASHED1
 62
   120
370
     5
100
AcDbLine
 10
236.1785575551978
 20
-779.0124541638384
 30
0.0
 11
373.4223645988631
 21
-641.7686471201738
 31
0.0
  0
LINE
  5
79
330
1F
100
AcDbEntity
  8
0-0
  6
JWW_DASHED1
 62
   120
370
     5
100
AcDbLine
 10
229.1074897433209
 20
-779.0124541638486
 30
0.0
 11
373.4223645988733
 21
-634.6975793082971
 31
0.0
  0
LINE
  5
7A
330
1F
100
AcDbEntity
  8
0-0
  6
JWW_DASHED1
 62
   120
370
     5
100
AcDbLine
 10
222.0364219314542
 20
-779.0124541638494
 30
0.0
 11
373.4223645988818
 21
-627.6265114964219
 31
0.0
  0
LINE
  5
7B
330
1F
100
AcDbEntity
  8
0-0
  6
JWW_DASHED1
 62
   120
370
     5
100
AcDbLine
 10
214.9653541195773
 20
-779.0124541638593
 30
0.0
 11
373.4223645988903
 21
-620.5554436845453
 31
0.0
  0
LINE
  5
7C
330
1F
100
AcDbEntity
  8
0-0
  6
JWW_DASHED1
 62
   120
370
     5
100
AcDbLine
 10
207.8942863077209
 20
-779.012454163848
 30
0.0
 11
373.4223645988716
 21
-613.484375872699
 31
0.0
  0
LINE
  5
7D
330
1F
100
AcDbEntity
  8
0-0
  6
JWW_DASHED1
 62
   120
370
     5
100
AcDbLine
 10
200.823218495844
 20
-779.0124541638583
 30
0.0
 11
373.4223645988784
 21
-606.4133080608239
 31
0.0
  0
LINE
  5
7E
330
1F
100
AcDbEntity
  8
0-0
  6
JWW_DASHED1
 62
   120
370
     5
100
AcDbLine
 10
193.752150683979
 20
-779.012454163857
 30
0.0
 11
373.4223645988886
 21
-599.3422402489474
 31
0.0
  0
LINE
  5
7F
330
1F
100
AcDbEntity
  8
0-0
  6
JWW_DASHED1
 62
   120
370
     5
100
AcDbLine
 10
186.6810828721226
 20
-779.0124541638469
 30
0.0
 11
373.4223645988699
 21
-592.2711724371005
 31
0.0
  0
LINE
  5
80
330
1F
100
AcDbEntity
  8
0-0
  6
JWW_DASHED1
 62
   120
370
     5
100
AcDbLine
 10
179.6100150602457
 20
-779.0124541638571
 30
0.0
 11
373.4223645988784
 21
-585.2001046252238
 31
0.0
  0
LINE
  5
81
330
1F
100
AcDbEntity
  8
0-0
  6
JWW_DASHED1
 62
   120
370
     5
100
AcDbLine
 10
172.5389472483807
 20
-779.0124541638548
 30
0.0
 11
373.4223645988869
 21
-578.1290368133491
 31
0.0
  0
LINE
  5
82
330
1F
100
AcDbEntity
  8
0-0
  6
JWW_DASHED1
 62
   120
370
     5
100
AcDbLine
 10
165.4678794365243
 20
-779.012454163846
 30
0.0
 11
373.4223645988682
 21
-571.0579690015024
 31
0.0
  0
LINE
  5
83
330
1F
100
AcDbEntity
  8
0-0
  6
JWW_DASHED1
 62
   120
370
     5
100
AcDbLine
 10
158.3968116246474
 20
-779.0124541638562
 30
0.0
 11
373.4223645988767
 21
-563.9869011896255
 31
0.0
  0
LINE
  5
84
330
1F
100
AcDbEntity
  8
0-0
  6
JWW_DASHED1
 62
   120
370
     5
100
AcDbLine
 10
151.3257438127842
 20
-779.0124541638525
 30
0.0
 11
373.4223645988852
 21
-556.9158333777508
 31
0.0
  0
LINE
  5
85
330
1F
100
AcDbEntity
  8
0-0
  6
JWW_DASHED1
 62
   120
370
     5
100
AcDbLine
 10
144.2546760009243
 20
-779.0124541638451
 30
0.0
 11
373.4223645988648
 21
-549.8447655659041
 31
0.0
  0
LINE
  5
86
330
1F
100
AcDbEntity
  8
0-0
  6
JWW_DASHED1
 62
   120
370
     5
100
AcDbLine
 10
137.1836081890474
 20
-779.0124541638553
 30
0.0
 11
373.422364598875
 21
-542.7736977540272
 31
0.0
  0
LINE
  5
87
330
1F
100
AcDbEntity
  8
0-0
  6
JWW_DASHED1
 62
   120
370
     5
100
AcDbLine
 10
130.1125403771859
 20
-779.0124541638502
 30
0.0
 11
373.4223645988835
 21
-535.7026299421528
 31
0.0
  0
LINE
  5
88
330
1F
100
AcDbEntity
  8
0-0
  6
JWW_DASHED1
 62
   120
370
     5
100
AcDbLine
 10
123.4223645988722
 20
-778.6315621302967
 30
0.0
 11
373.4223645988648
 21
-528.6315621303058
 31
0.0
  0
LINE
  5
89
330
1F
100
AcDbEntity
  8
0-0
  6
JWW_DASHED1
 62
   120
370
     5
100
AcDbLine
 10
123.4223645988824
 20
-771.5604943184203
 30
0.0
 11
373.4223645988733
 21
-521.5604943184289
 31
0.0
  0
LINE
  5
8A
330
1F
100
AcDbEntity
  8
0-0
  6
JWW_DASHED1
 62
   120
370
     5
100
AcDbLine
 10
123.4223645988773
 20
-764.4894265065594
 30
0.0
 11
373.4223645988818
 21
-514.4894265065549
 31
0.0
  0
LINE
  5
8B
330
1F
100
AcDbEntity
  8
0-0
  6
JWW_DASHED1
 62
   120
370
     5
100
AcDbLine
 10
123.4223645988705
 20
-757.4183586946987
 30
0.0
 11
373.4223645988613
 21
-507.4183586947075
 31
0.0
  0
LINE
  5
8C
330
1F
100
AcDbEntity
  8
0-0
  6
JWW_DASHED1
 62
   120
370
     5
100
AcDbLine
 10
123.4223645988807
 20
-750.3472908828218
 30
0.0
 11
373.4223645988716
 21
-500.3472908828306
 31
0.0
  0
LINE
  5
8D
330
1F
100
AcDbEntity
  8
0-0
  6
JWW_DASHED1
 62
   120
370
     5
100
AcDbLine
 10
123.4223645988858
 20
-743.2762230710043
 30
0.0
 11
373.4223645988784
 21
-493.2762230710129
 31
0.0
  0
LINE
  5
8E
330
1F
100
AcDbEntity
  8
0-0
  6
JWW_DASHED1
 62
   120
370
     5
100
AcDbLine
 10
123.4223645988807
 20
-736.2051552591438
 30
0.0
 11
373.4223645988852
 21
-486.2051552591391
 31
0.0
  0
LINE
  5
8F
330
1F
100
AcDbEntity
  8
0-0
  6
JWW_DASHED1
 62
   120
370
     5
100
AcDbLine
 10
123.4223645988756
 20
-729.1340874472827
 30
0.0
 11
373.4223645988665
 21
-479.1340874472912
 31
0.0
  0
LINE
  5
90
330
1F
100
AcDbEntity
  8
0-0
  6
JWW_DASHED1
 62
   120
370
     5
100
AcDbLine
 10
123.4223645988841
 20
-722.063019635406
 30
0.0
 11
373.4223645988767
 21
-472.0630196354147
 31
0.0
  0
LINE
  5
91
330
1F
100
AcDbEntity
  8
0-0
  6
JWW_DASHED1
 62
   120
370
     5
100
AcDbLine
 10
123.422364598879
 20
-714.9919518235457
 30
0.0
 11
373.4223645988835
 21
-464.9919518235409
 31
0.0
  0
LINE
  5
92
330
1F
100
AcDbEntity
  8
0-0
  6
JWW_DASHED1
 62
   120
370
     5
100
AcDbLine
 10
123.4223645988739
 20
-707.9208840116844
 30
0.0
 11
373.4223645988648
 21
-457.920884011693
 31
0.0
  0
LINE
  5
93
330
1F
100
AcDbEntity
  8
0-0
  6
JWW_DASHED1
 62
   120
370
     5
100
AcDbLine
 10
123.4223645988824
 20
-700.8498161998077
 30
0.0
 11
373.422364598875
 21
-450.8498161998164
 31
0.0
  0
LINE
  5
94
330
1F
100
AcDbEntity
  8
0-0
  6
JWW_DASHED1
 62
   120
370
     5
100
AcDbLine
 10
123.4223645988773
 20
-693.7787483879476
 30
0.0
 11
373.4223645988818
 21
-443.7787483879429
 31
0.0
  0
LINE
  5
95
330
1F
100
AcDbEntity
  8
0-0
  6
JWW_DASHED1
 62
   120
370
     5
100
AcDbLine
 10
31.11759101110706
 20
-779.0124541638511
 30
0.0
 11
33.42236459887899
 21
-776.7076805760778
 31
0.0
  0
LINE
  5
96
330
1F
100
AcDbEntity
  8
0-0
  6
JWW_DASHED1
 62
   120
370
     5
100
AcDbLine
 10
123.4223645988722
 20
-686.7076805760861
 30
0.0
 11
373.4223645988631
 21
-436.707680576095
 31
0.0
  0
LINE
  5
97
330
1F
100
AcDbEntity
  8
0-0
  6
JWW_DASHED1
 62
   120
370
     5
100
AcDbLine
 10
24.04652319924551
 20
-779.0124541638451
 30
0.0
 11
33.42236459887388
 21
-769.6366127642167
 31
0.0
  0
LINE
  5
98
330
1F
100
AcDbEntity
  8
0-0
  6
JWW_DASHED1
 62
   120
370
     5
100
AcDbLine
 10
123.4223645988807
 20
-679.6366127642094
 30
0.0
 11
373.4223645988733
 21
-429.6366127642181
 31
0.0
  0
LINE
  5
99
330
1F
100
AcDbEntity
  8
0-0
  6
JWW_DASHED1
 62
   120
370
     5
100
AcDbLine
 10
16.9754553873686
 20
-779.0124541638551
 30
0.0
 11
33.42236459888411
 21
-762.5655449523404
 31
0.0
  0
LINE
  5
9A
330
1F
100
AcDbEntity
  8
0-0
  6
JWW_DASHED1
 62
   120
370
     5
100
AcDbLine
 10
123.4223645988739
 20
-672.5655449523496
 30
0.0
 11
373.4223645988801
 21
-422.5655449523446
 31
0.0
  0
LINE
  5
9B
330
1F
100
AcDbEntity
  8
0-0
  6
JWW_DASHED1
 62
   120
370
     5
100
AcDbLine
 10
9.904387575493407
 20
-779.0124541638634
 30
0.0
 11
33.42236459889434
 21
-755.4944771404636
 31
0.0
  0
LINE
  5
9C
330
1F
100
AcDbEntity
  8
0-0
  6
JWW_DASHED1
 62
   120
370
     5
100
AcDbLine
 10
123.4223645988841
 20
-665.4944771404731
 30
0.0
 11
373.4223645988886
 21
-415.4944771404681
 31
0.0
  0
LINE
  5
9D
330
1F
100
AcDbEntity
  8
0-0
  6
JWW_DASHED1
 62
   120
370
     5
100
AcDbLine
 10
2.833319763647202
 20
-779.0124541638429
 30
0.0
 11
33.42236459887217
 21
-748.4234093286185
 31
0.0
  0
LINE
  5
9E
330
1F
100
AcDbEntity
  8
0-0
  6
JWW_DASHED1
 62
   120
370
     5
100
AcDbLine
 10
123.422364598879
 20
-658.4234093286111
 30
0.0
 11
373.4223645988716
 21
-408.4234093286198
 31
0.0
  0
LINE
  5
9F
330
1F
100
AcDbEntity
  8
0-0
  6
JWW_DASHED1
 62
   120
370
     5
100
AcDbLine
 10
-4.237748048227994
 20
-779.0124541638526
 30
0.0
 11
33.4223645988824
 21
-741.3523415167421
 31
0.0
  0
LINE
  5
A0
330
1F
100
AcDbEntity
  8
0-0
  6
JWW_DASHED1
 62
   120
370
     5
100
AcDbLine
 10
123.4223645988892
 20
-651.3523415167344
 30
0.0
 11
373.4223645988818
 21
-401.3523415167433
 31
0.0
  0
LINE
  5
A1
330
1F
100
AcDbEntity
  8
0-0
  6
JWW_DASHED1
 62
   120
370
     5
100
AcDbLine
 10
-11.30881586010148
 20
-779.0124541638596
 30
0.0
 11
33.42236459889093
 21
-734.2812737048658
 31
0.0
  0
LINE
  5
A2
330
1F
100
AcDbEntity
  8
0-0
  6
JWW_DASHED1
 62
   120
370
     5
100
AcDbLine
 10
123.4223645988824
 20
-644.2812737048748
 30
0.0
 11
373.4223645988869
 21
-394.2812737048702
 31
0.0
  0
LINE
  5
A3
330
1F
100
AcDbEntity
  8
0-0
  6
JWW_DASHED1
 62
   120
370
     5
100
AcDbLine
 10
-18.37988367194939
 20
-779.0124541638407
 30
0.0
 11
33.42236459887047
 21
-727.2102058930201
 31
0.0
  0
LINE
  5
A4
330
1F
100
AcDbEntity
  8
0-0
  6
JWW_DASHED1
 62
   120
370
     5
100
AcDbLine
 10
123.4223645988773
 20
-637.2102058930128
 30
0.0
 11
373.4223645988699
 21
-387.2102058930215
 31
0.0
  0
LINE
  5
A5
330
1F
100
AcDbEntity
  8
0-0
  6
JWW_DASHED1
 62
   120
370
     5
100
AcDbLine
 10
-25.45095148382629
 20
-779.0124541638505
 30
0.0
 11
33.4223645988807
 21
-720.1391380811438
 31
0.0
  0
LINE
  5
A6
330
1F
100
AcDbEntity
  8
0-0
  6
JWW_DASHED1
 62
   120
370
     5
100
AcDbLine
 10
123.4223645988875
 20
-630.1391380811361
 30
0.0
 11
373.4223645988784
 21
-380.1391380811449
 31
0.0
  0
LINE
  5
A7
330
1F
100
AcDbEntity
  8
0-0
  6
JWW_DASHED1
 62
   120
370
     5
100
AcDbLine
 10
-32.5220192957032
 20
-779.0124541638604
 30
0.0
 11
33.42236459888922
 21
-713.0680702692678
 31
0.0
  0
LINE
  5
A8
330
1F
100
AcDbEntity
  8
0-0
  6
JWW_DASHED1
 62
   120
370
     5
100
AcDbLine
 10
123.4223645988807
 20
-623.0680702692766
 30
0.0
 11
373.4223645988852
 21
-373.0680702692719
 31
0.0
  0
LINE
  5
A9
330
1F
100
AcDbEntity
  8
0-0
  6
JWW_DASHED1
 62
   120
370
     5
100
AcDbLine
 10
-39.5930871075477
 20
-779.0124541638384
 30
0.0
 11
33.42236459886876
 21
-705.9970024574219
 31
0.0
  0
LINE
  5
AA
330
1F
100
AcDbEntity
  8
0-0
  6
JWW_DASHED1
 62
   120
370
     5
100
AcDbLine
 10
123.4223645988756
 20
-615.9970024574145
 30
0.0
 11
373.4223645988682
 21
-365.9970024574232
 31
0.0
  0
LINE
  5
AB
330
1F
100
AcDbEntity
  8
0-0
  6
JWW_DASHED1
 62
   120
370
     5
100
AcDbLine
 10
-46.6641549194246
 20
-779.0124541638482
 30
0.0
 11
33.42236459887899
 21
-698.9259346455455
 31
0.0
  0
LINE
  5
AC
330
1F
100
AcDbEntity
  8
0-0
  6
JWW_DASHED1
 62
   120
370
     5
100
AcDbLine
 10
123.4223645988858
 20
-608.9259346455381
 30
0.0
 11
373.4223645988784
 21
-358.9259346455462
 31
0.0
  0
LINE
  5
AD
330
1F
100
AcDbEntity
  8
0-0
  6
JWW_DASHED1
 62
   120
370
     5
100
AcDbLine
 10
-53.7352227313015
 20
-779.0124541638579
 30
0.0
 11
33.42236459888752
 21
-691.8548668336695
 31
0.0
  0
LINE
  5
AE
330
1F
100
AcDbEntity
  8
0-0
  6
JWW_DASHED1
 62
   120
370
     5
100
AcDbLine
 10
123.422364598879
 20
-601.8548668336786
 30
0.0
 11
373.4223645988835
 21
-351.8548668336741
 31
0.0
  0
LINE
  5
AF
330
1F
100
AcDbEntity
  8
0-0
  6
JWW_DASHED1
 62
   120
370
     5
100
AcDbLine
 10
-60.806290543146
 20
-779.0124541638361
 30
0.0
 11
33.42236459886706
 21
-684.7837990218236
 31
0.0
  0
LINE
  5
B0
330
1F
100
AcDbEntity
  8
0-0
  6
JWW_DASHED1
 62
   120
370
     5
100
AcDbLine
 10
123.4223645988739
 20
-594.7837990218162
 30
0.0
 11
373.4223645988665
 21
-344.7837990218248
 31
0.0
  0
LINE
  5
B1
330
1F
100
AcDbEntity
  8
0-0
  6
JWW_DASHED1
 62
   120
370
     5
100
AcDbLine
 10
-67.8773583550212
 20
-779.012454163846
 30
0.0
 11
33.42236459887729
 21
-677.7127312099467
 31
0.0
  0
LINE
  5
B2
330
1F
100
AcDbEntity
  8
0-0
  6
JWW_DASHED1
 62
   120
370
     5
100
AcDbLine
 10
123.4223645988841
 20
-587.7127312099398
 30
0.0
 11
373.4223645988767
 21
-337.7127312099479
 31
0.0
  0
LINE
  5
B3
330
1F
100
AcDbEntity
  8
0-0
  6
JWW_DASHED1
 62
   120
370
     5
100
AcDbLine
 10
-74.9484261668981
 20
-779.0124541638559
 30
0.0
 11
33.42236459888581
 21
-670.6416633980715
 31
0.0
  0
LINE
  5
B4
330
1F
100
AcDbEntity
  8
0-0
  6
JWW_DASHED1
 62
   120
370
     5
100
AcDbLine
 10
123.4223645988773
 20
-580.6416633980806
 30
0.0
 11
373.4223645988818
 21
-330.6416633980758
 31
0.0
  0
LINE
  5
B5
330
1F
100
AcDbEntity
  8
0-0
  6
JWW_DASHED1
 62
   120
370
     5
100
AcDbLine
 10
-82.01949397875113
 20
-779.0124541638423
 30
0.0
 11
33.4223645988807
 21
-663.5705955862096
 31
0.0
  0
LINE
  5
B6
330
1F
100
AcDbEntity
  8
0-0
  6
JWW_DASHED1
 62
   120
370
     5
100
AcDbLine
 10
123.4223645988722
 20
-573.5705955862179
 30
0.0
 11
373.4223645988648
 21
-323.5705955862265
 31
0.0
  0
LINE
  5
B7
330
1F
100
AcDbEntity
  8
0-0
  6
JWW_DASHED1
 62
   120
370
     5
100
AcDbLine
 10
-89.0905617906195
 20
-779.0124541638437
 30
0.0
 11
33.42236459887558
 21
-656.4995277743488
 31
0.0
  0
LINE
  5
B8
330
1F
100
AcDbEntity
  8
0-0
  6
JWW_DASHED1
 62
   120
370
     5
100
AcDbLine
 10
123.4223645988824
 20
-566.4995277743412
 30
0.0
 11
373.422364598875
 21
-316.49952777435
 31
0.0
  0
LINE
  5
B9
330
1F
100
AcDbEntity
  8
0-0
  6
JWW_DASHED1
 62
   120
370
     5
100
AcDbLine
 10
-96.1616296024964
 20
-779.0124541638536
 30
0.0
 11
33.42236459888411
 21
-649.4284599624732
 31
0.0
  0
LINE
  5
BA
330
1F
100
AcDbEntity
  8
0-0
  6
JWW_DASHED1
 62
   120
370
     5
100
AcDbLine
 10
123.4223645988756
 20
-559.4284599624826
 30
0.0
 11
373.4223645988801
 21
-309.4284599624779
 31
0.0
  0
LINE
  5
BB
330
1F
100
AcDbEntity
  8
0-0
  6
JWW_DASHED1
 62
   120
370
     5
100
AcDbLine
 10
-103.2326974143648
 20
-779.0124541638545
 30
0.0
 11
33.42236459889434
 21
-642.3573921505968
 31
0.0
  0
LINE
  5
BC
330
1F
100
AcDbEntity
  8
0-0
  6
JWW_DASHED1
 62
   120
370
     5
100
AcDbLine
 10
123.4223645988841
 20
-552.357392150606
 30
0.0
 11
373.4223645988733
 21
-302.3573921506172
 31
0.0
  0
LINE
  5
BD
330
1F
100
AcDbEntity
  8
0-0
  6
JWW_DASHED1
 62
   120
370
     5
100
AcDbLine
 10
-110.3037652262178
 20
-779.0124541638417
 30
0.0
 11
33.42236459887388
 21
-635.2863243387505
 31
0.0
  0
LINE
  5
BE
330
1F
100
AcDbEntity
  8
0-0
  6
JWW_DASHED1
 62
   120
370
     5
100
AcDbLine
 10
123.4223645988807
 20
-545.2863243387429
 30
0.0
 11
373.4223645988716
 21
-295.2863243387517
 31
0.0
  0
LINE
  5
BF
330
1F
100
AcDbEntity
  8
0-0
  6
JWW_DASHED1
 62
   120
370
     5
100
AcDbLine
 10
-117.3748330380947
 20
-779.0124541638511
 30
0.0
 11
33.4223645988824
 21
-628.2152565268751
 31
0.0
  0
LINE
  5
C0
330
1F
100
AcDbEntity
  8
0-0
  6
JWW_DASHED1
 62
   120
370
     5
100
AcDbLine
 10
123.4223645988892
 20
-538.2152565268688
 30
0.0
 11
373.4223645988784
 21
-288.2152565268796
 31
0.0
  0
LINE
  5
C1
330
1F
100
AcDbEntity
  8
0-0
  6
JWW_DASHED1
 62
   120
370
     5
100
AcDbLine
 10
-124.4459008499597
 20
-779.0124541638511
 30
0.0
 11
33.42236459889264
 21
-621.1441887149987
 31
0.0
  0
LINE
  5
C2
330
1F
100
AcDbEntity
  8
0-0
  6
JWW_DASHED1
 62
   120
370
     5
100
AcDbLine
 10
123.4223645988824
 20
-531.1441887150077
 30
0.0
 11
373.4223645988869
 21
-281.1441887150031
 31
0.0
  0
LINE
  5
C3
330
1F
100
AcDbEntity
  8
0-0
  6
JWW_DASHED1
 62
   120
370
     5
100
AcDbLine
 10
-131.5169686618144
 20
-779.0124541638392
 30
0.0
 11
33.42236459887217
 21
-614.0731209031522
 31
0.0
  0
LINE
  5
C4
330
1F
100
AcDbEntity
  8
0-0
  6
JWW_DASHED1
 62
   120
370
     5
100
AcDbLine
 10
123.422364598879
 20
-524.0731209031449
 30
0.0
 11
373.4223645988699
 21
-274.0731209031534
 31
0.0
  0
LINE
  5
C5
330
1F
100
AcDbEntity
  8
0-0
  6
JWW_DASHED1
 62
   120
370
     5
100
AcDbLine
 10
-138.5880364736913
 20
-779.012454163849
 30
0.0
 11
33.4223645988824
 21
-607.0020530912756
 31
0.0
  0
LINE
  5
C6
330
1F
100
AcDbEntity
  8
0-0
  6
JWW_DASHED1
 62
   120
370
     5
100
AcDbLine
 10
123.4223645988892
 20
-517.002053091268
 30
0.0
 11
373.4223645988801
 21
-267.002053091277
 31
0.0
  0
LINE
  5
C7
330
1F
100
AcDbEntity
  8
0-0
  6
JWW_DASHED1
 62
   120
370
     5
100
AcDbLine
 10
-145.6591042855682
 20
-779.0124541638585
 30
0.0
 11
33.42236459889093
 21
-599.9309852794006
 31
0.0
  0
LINE
  5
C8
330
1F
100
AcDbEntity
  8
0-0
  6
JWW_DASHED1
 62
   120
370
     5
100
AcDbLine
 10
123.4223645988807
 20
-509.9309852794095
 30
0.0
 11
373.4223645988852
 21
-259.9309852794048
 31
0.0
  0
LINE
  5
C9
330
1F
100
AcDbEntity
  8
0-0
  6
JWW_DASHED1
 62
   120
370
     5
100
AcDbLine
 10
-152.7301720974127
 20
-779.0124541638369
 30
0.0
 11
33.42236459887047
 21
-592.8599174675539
 31
0.0
  0
LINE
  5
CA
330
1F
100
AcDbEntity
  8
0-0
  6
JWW_DASHED1
 62
   120
370
     5
100
AcDbLine
 10
123.4223645988773
 20
-502.8599174675465
 30
0.0
 11
373.4223645988682
 21
-252.8599174675551
 31
0.0
  0
LINE
  5
CB
330
1F
100
AcDbEntity
  8
0-0
  6
JWW_DASHED1
 62
   120
370
     5
100
AcDbLine
 10
-159.8012399092896
 20
-779.0124541638468
 30
0.0
 11
33.4223645988807
 21
-585.7888496556772
 31
0.0
  0
LINE
  5
CC
330
1F
100
AcDbEntity
  8
0-0
  6
JWW_DASHED1
 62
   120
370
     5
100
AcDbLine
 10
123.4223645988875
 20
-495.7888496556696
 30
0.0
 11
373.4223645988784
 21
-245.7888496556787
 31
0.0
  0
LINE
  5
CD
330
1F
100
AcDbEntity
  8
0-0
  6
JWW_DASHED1
 62
   120
370
     5
100
AcDbLine
 10
-166.8723077211665
 20
-779.0124541638565
 30
0.0
 11
33.42236459888752
 21
-578.7177818438025
 31
0.0
  0
LINE
  5
CE
330
1F
100
AcDbEntity
  8
0-0
  6
JWW_DASHED1
 62
   120
370
     5
100
AcDbLine
 10
123.422364598879
 20
-488.7177818438117
 30
0.0
 11
373.4223645988835
 21
-238.7177818438069
 31
0.0
  0
LINE
  5
CF
330
1F
100
AcDbEntity
  8
0-0
  6
JWW_DASHED1
 62
   120
370
     5
100
AcDbLine
 10
-173.943375533011
 20
-779.0124541638348
 30
0.0
 11
33.42236459886876
 21
-571.6467140319554
 31
0.0
  0
LINE
  5
D0
330
1F
100
AcDbEntity
  8
0-0
  6
JWW_DASHED1
 62
   120
370
     5
100
AcDbLine
 10
123.4223645988756
 20
-481.6467140319482
 30
0.0
 11
373.4223645988665
 21
-231.6467140319568
 31
0.0
  0
LINE
  5
D1
330
1F
100
AcDbEntity
  8
0-0
  6
JWW_DASHED1
 62
   120
370
     5
100
AcDbLine
 10
-181.0144433448879
 20
-779.0124541638446
 30
0.0
 11
33.42236459887899
 21
-564.575646220079
 31
0.0
  0
LINE
  5
D2
330
1F
100
AcDbEntity
  8
0-0
  6
JWW_DASHED1
 62
   120
370
     5
100
AcDbLine
 10
123.4223645988858
 20
-474.5756462200715
 30
0.0
 11
373.4223645988767
 21
-224.5756462200804
 31
0.0
  0
LINE
  5
D3
330
1F
100
AcDbEntity
  8
0-0
  6
JWW_DASHED1
 62
   120
370
     5
100
AcDbLine
 10
-188.0855111567631
 20
-779.0124541638544
 30
0.0
 11
33.42236459888581
 21
-557.5045784082045
 31
0.0
  0
LINE
  5
D4
330
1F
100
AcDbEntity
  8
0-0
  6
JWW_DASHED1
 62
   120
370
     5
100
AcDbLine
 10
123.4223645988773
 20
-467.5045784082136
 30
0.0
 11
373.4223645988818
 21
-217.5045784082086
 31
0.0
  0
LINE
  5
D5
330
1F
100
AcDbEntity
  8
0-0
  6
JWW_DASHED1
 62
   120
370
     5
100
AcDbLine
 10
-195.1565789686093
 20
-779.0124541638339
 30
0.0
 11
33.4223645988824
 21
-550.4335105963414
 31
0.0
  0
LINE
  5
D6
330
1F
100
AcDbEntity
  8
0-0
  6
JWW_DASHED1
 62
   120
370
     5
100
AcDbLine
 10
123.4223645988739
 20
-460.4335105963497
 30
0.0
 11
373.4223645988648
 21
-210.4335105963586
 31
0.0
  0
LINE
  5
D7
330
1F
100
AcDbEntity
  8
0-0
  6
JWW_DASHED1
 62
   120
370
     5
100
AcDbLine
 10
-202.2276467804845
 20
-779.0124541638422
 30
0.0
 11
33.42236459887729
 21
-543.3624427844805
 31
0.0
  0
LINE
  5
D8
330
1F
100
AcDbEntity
  8
0-0
  6
JWW_DASHED1
 62
   120
370
     5
100
AcDbLine
 10
123.4223645988841
 20
-453.362442784473
 30
0.0
 11
373.422364598875
 21
-203.3624427844821
 31
0.0
  0
LINE
  5
D9
330
1F
100
AcDbEntity
  8
0-0
  6
JWW_DASHED1
 62
   120
370
     5
100
AcDbLine
 10
-209.2987145923017
 20
-779.0124541638477
 30
0.0
 11
33.4223645988824
 21
-536.291374972663
 31
0.0
  0
LINE
  5
DA
330
1F
100
AcDbEntity
  8
0-0
  6
JWW_DASHED1
 62
   120
370
     5
100
AcDbLine
 10
123.4223645988892
 20
-446.2913749726554
 30
0.0
 11
373.4223645988818
 21
-196.291374972664
 31
0.0
  0
LINE
  5
DB
330
1F
100
AcDbEntity
  8
0-0
  6
JWW_DASHED1
 62
   120
370
     5
100
AcDbLine
 10
-216.3697824041786
 20
-779.0124541638573
 30
0.0
 11
33.42236459888922
 21
-529.2203071607887
 31
0.0
  0
LINE
  5
DC
330
1F
100
AcDbEntity
  8
0-0
  6
JWW_DASHED1
 62
   120
370
     5
100
AcDbLine
 10
123.4223645988807
 20
-439.2203071607974
 30
0.0
 11
373.4223645988852
 21
-189.2203071607931
 31
0.0
  0
LINE
  5
DD
330
1F
100
AcDbEntity
  8
0-0
  6
JWW_DASHED1
 62
   120
370
     5
100
AcDbLine
 10
-216.5776354011358
 20
-772.1492393489483
 30
0.0
 11
33.42236459887047
 21
-522.1492393489413
 31
0.0
  0
LINE
  5
DE
330
1F
100
AcDbEntity
  8
0-0
  6
JWW_DASHED1
 62
   120
370
     5
100
AcDbLine
 10
123.4223645988773
 20
-432.1492393489339
 30
0.0
 11
373.4223645988699
 21
-182.1492393489426
 31
0.0
  0
LINE
  5
DF
330
1F
100
AcDbEntity
  8
0-0
  6
JWW_DASHED1
 62
   120
370
     5
100
AcDbLine
 10
-216.5776354011273
 20
-765.0781715370719
 30
0.0
 11
33.4223645988807
 21
-515.0781715370647
 31
0.0
  0
LINE
  5
E0
330
1F
100
AcDbEntity
  8
0-0
  6
JWW_DASHED1
 62
   120
370
     5
100
AcDbLine
 10
123.4223645988875
 20
-425.0781715370575
 30
0.0
 11
373.4223645988801
 21
-175.0781715370657
 31
0.0
  0
LINE
  5
E1
330
1F
100
AcDbEntity
  8
0-0
  6
JWW_DASHED1
 62
   120
370
     5
100
AcDbLine
 10
-216.577635401117
 20
-758.0071037251952
 30
0.0
 11
33.42236459888752
 21
-508.0071037251904
 31
0.0
  0
LINE
  5
E2
330
1F
100
AcDbEntity
  8
0-0
  6
JWW_DASHED1
 62
   120
370
     5
100
AcDbLine
 10
123.422364598879
 20
-418.0071037251998
 30
0.0
 11
373.4223645988835
 21
-168.0071037251948
 31
0.0
  0
LINE
  5
E3
330
1F
100
AcDbEntity
  8
0-0
  6
JWW_DASHED1
 62
   120
370
     5
100
AcDbLine
 10
-216.5776354011375
 20
-750.9360359133499
 30
0.0
 11
33.42236459886876
 21
-500.9360359133429
 31
0.0
  0
LINE
  5
E4
330
1F
100
AcDbEntity
  8
0-0
  6
JWW_DASHED1
 62
   120
370
     5
100
AcDbLine
 10
123.4223645988773
 20
-410.9360359133352
 30
0.0
 11
373.4223645988682
 21
-160.9360359133443
 31
0.0
  0
LINE
  5
E5
330
1F
100
AcDbEntity
  8
0-0
  6
JWW_DASHED1
 62
   120
370
     5
100
AcDbLine
 10
-216.577635401129
 20
-743.8649681014736
 30
0.0
 11
33.42236459887899
 21
-493.8649681014664
 31
0.0
  0
LINE
  5
E6
330
1F
100
AcDbEntity
  8
0-0
  6
JWW_DASHED1
 62
   120
370
     5
100
AcDbLine
 10
123.4223645988858
 20
-403.8649681014592
 30
0.0
 11
373.4223645988784
 21
-153.8649681014674
 31
0.0
  0
LINE
  5
E7
330
1F
100
AcDbEntity
  8
0-0
  6
JWW_DASHED1
 62
   120
370
     5
100
AcDbLine
 10
-216.5776354011187
 20
-736.7939002895972
 30
0.0
 11
33.42236459888581
 21
-486.7939002895925
 31
0.0
  0
LINE
  5
E8
330
1F
100
AcDbEntity
  8
0-0
  6
JWW_DASHED1
 62
   120
370
     5
100
AcDbLine
 10
123.4223645988773
 20
-396.7939002896015
 30
0.0
 11
373.4223645988818
 21
-146.7939002895969
 31
0.0
  0
LINE
  5
E9
330
1F
100
AcDbEntity
  8
0-0
  6
JWW_DASHED1
 62
   120
370
     5
100
AcDbLine
 10
-216.5776354011392
 20
-729.7228324777517
 30
0.0
 11
33.4223645988824
 21
-479.7228324777288
 31
0.0
  0
LINE
  5
EA
330
1F
100
AcDbEntity
  8
0-0
  6
JWW_DASHED1
 62
   120
370
     5
100
AcDbLine
 10
123.4223645988756
 20
-389.7228324777369
 30
0.0
 11
373.4223645988665
 21
-139.722832477746
 31
0.0
  0
LINE
  5
EB
330
1F
100
AcDbEntity
  8
0-0
  6
JWW_DASHED1
 62
   120
370
     5
100
AcDbLine
 10
-216.5776354011307
 20
-722.6517646658752
 30
0.0
 11
33.42236459887729
 21
-472.6517646658681
 31
0.0
  0
LINE
  5
EC
330
1F
100
AcDbEntity
  8
0-0
  6
JWW_DASHED1
 62
   120
370
     5
100
AcDbLine
 10
123.4223645988841
 20
-382.6517646658609
 30
0.0
 11
373.4223645988767
 21
-132.6517646658691
 31
0.0
  0
LINE
  5
ED
330
1F
100
AcDbEntity
  8
0-0
  6
JWW_DASHED1
 62
   120
370
     5
100
AcDbLine
 10
-216.5776354011204
 20
-715.5806968539989
 30
0.0
 11
33.42236459888411
 21
-465.5806968539942
 31
0.0
  0
LINE
  5
EE
330
1F
100
AcDbEntity
  8
0-0
  6
JWW_DASHED1
 62
   120
370
     5
100
AcDbLine
 10
123.4223645988756
 20
-375.5806968540036
 30
0.0
 11
373.4223645988801
 21
-125.5806968539986
 31
0.0
  0
LINE
  5
EF
330
1F
100
AcDbEntity
  8
0-0
  6
JWW_DASHED1
 62
   120
370
     5
100
AcDbLine
 10
-216.5776354011409
 20
-708.5096290421536
 30
0.0
 11
33.4223645988807
 21
-458.5096290421305
 31
0.0
  0
LINE
  5
F0
330
1F
100
AcDbEntity
  8
0-0
  6
JWW_DASHED1
 62
   120
370
     5
100
AcDbLine
 10
123.4223645988739
 20
-368.5096290421386
 30
0.0
 11
373.4223645988648
 21
-118.5096290421477
 31
0.0
  0
LINE
  5
F1
330
1F
100
AcDbEntity
  8
0-0
  6
JWW_DASHED1
 62
   120
370
     5
100
AcDbLine
 10
-216.5776354011324
 20
-701.438561230277
 30
0.0
 11
33.42236459887558
 21
-451.4385612302698
 31
0.0
  0
LINE
  5
F2
330
1F
100
AcDbEntity
  8
0-0
  6
JWW_DASHED1
 62
   120
370
     5
100
AcDbLine
 10
123.4223645988824
 20
-361.4385612302626
 30
0.0
 11
373.422364598875
 21
-111.4385612302708
 31
0.0
  0
LINE
  5
F3
330
1F
100
AcDbEntity
  8
0-0
  6
JWW_DASHED1
 62
   120
370
     5
100
AcDbLine
 10
-216.5776354011221
 20
-694.3674934184008
 30
0.0
 11
33.4223645988824
 21
-444.3674934183964
 31
0.0
  0
LINE
  5
F4
330
1F
100
AcDbEntity
  8
0-0
  6
JWW_DASHED1
 62
   120
370
     5
100
AcDbLine
 10
123.4223645988739
 20
-354.3674934184057
 30
0.0
 11
373.4223645988784
 21
-104.3674934184007
 31
0.0
  0
LINE
  5
F5
330
1F
100
AcDbEntity
  8
0-0
  6
JWW_DASHED1
 62
   120
370
     5
100
AcDbLine
 10
-216.577635401129
 20
-687.2964256065402
 30
0.0
 11
33.42236459889264
 21
-437.2964256065198
 31
0.0
  0
LINE
  5
F6
330
1F
100
AcDbEntity
  8
0-0
  6
JWW_DASHED1
 62
   120
370
     5
100
AcDbLine
 10
123.4223645988841
 20
-347.2964256065288
 30
0.0
 11
373.4223645988886
 21
-97.29642560652425
 31
0.0
  0
LINE
  5
F7
330
1F
100
AcDbEntity
  8
0-0
  6
JWW_DASHED1
 62
   120
370
     5
100
AcDbLine
 10
-216.5776354011341
 20
-680.2253577946786
 30
0.0
 11
33.42236459887388
 21
-430.2253577946709
 31
0.0
  0
LINE
  5
F8
330
1F
100
AcDbEntity
  8
0-0
  6
JWW_DASHED1
 62
   120
370
     5
100
AcDbLine
 10
123.4223645988807
 20
-340.2253577946643
 30
0.0
 11
373.4223645988733
 21
-90.2253577946725
 31
0.0
  0
LINE
  5
F9
330
1F
100
AcDbEntity
  8
0-0
  6
JWW_DASHED1
 62
   120
370
     5
100
AcDbLine
 10
-216.5776354011238
 20
-673.154289982802
 30
0.0
 11
33.42236459888411
 21
-423.154289982795
 31
0.0
  0
LINE
  5
FA
330
1F
100
AcDbEntity
  8
0-0
  6
JWW_DASHED1
 62
   120
370
     5
100
AcDbLine
 10
123.4223645988909
 20
-333.1542899827874
 30
0.0
 11
373.4223645988818
 21
-83.15428998279603
 31
0.0
  0
LINE
  5
FB
330
1F
100
AcDbEntity
  8
0-0
  6
JWW_DASHED1
 62
   120
370
     5
100
AcDbLine
 10
-216.5776354011307
 20
-666.0832221709421
 30
0.0
 11
33.42236459889093
 21
-416.0832221709215
 31
0.0
  0
LINE
  5
FC
330
1F
100
AcDbEntity
  8
0-0
  6
JWW_DASHED1
 62
   120
370
     5
100
AcDbLine
 10
123.4223645988807
 20
-326.0832221709309
 30
0.0
 11
373.4223645988852
 21
-76.08322217092595
 31
0.0
  0
LINE
  5
FD
330
1F
100
AcDbEntity
  8
0-0
  6
JWW_DASHED1
 62
   120
370
     5
100
AcDbLine
 10
-216.5776354011358
 20
-659.0121543590803
 30
0.0
 11
33.42236459887217
 21
-409.0121543590732
 31
0.0
  0
LINE
  5
FE
330
1F
100
AcDbEntity
  8
0-0
  6
JWW_DASHED1
 62
   120
370
     5
100
AcDbLine
 10
123.422364598879
 20
-319.012154359066
 30
0.0
 11
373.4223645988716
 21
-69.01215435907463
 31
0.0
  0
LINE
  5
FF
330
1F
100
AcDbEntity
  8
0-0
  6
JWW_DASHED1
 62
   120
370
     5
100
AcDbLine
 10
-216.5776354011255
 20
-651.9410865472037
 30
0.0
 11
33.4223645988824
 21
-401.9410865471967
 31
0.0
  0
LINE
  5
100
330
1F
100
AcDbEntity
  8
0-0
  6
JWW_DASHED1
 62
   120
370
     5
100
AcDbLine
 10
123.4223645988892
 20
-311.9410865471891
 30
0.0
 11
373.4223645988801
 21
-61.94108654719773
 31
0.0
  0
LINE
  5
101
330
1F
100
AcDbEntity
  8
0-0
  6
JWW_DASHED1
 62
   120
370
     5
100
AcDbLine
 10
-216.577635401117
 20
-644.8700187353282
 30
0.0
 11
33.42236459888752
 21
-394.8700187353236
 31
0.0
  0
LINE
  5
102
330
1F
100
AcDbEntity
  8
0-0
  6
JWW_DASHED1
 62
   120
370
     5
100
AcDbLine
 10
123.422364598879
 20
-304.8700187353326
 30
0.0
 11
373.4223645988835
 21
-54.87001873532765
 31
0.0
  0
LINE
  5
103
330
1F
100
AcDbEntity
  8
0-0
  6
JWW_DASHED1
 62
   120
370
     5
100
AcDbLine
 10
-216.5776354011375
 20
-637.798950923482
 30
0.0
 11
33.42236459887047
 21
-387.7989509234745
 31
0.0
  0
LINE
  5
104
330
1F
100
AcDbEntity
  8
0-0
  6
JWW_DASHED1
 62
   120
370
     5
100
AcDbLine
 10
123.4223645988773
 20
-297.7989509234677
 30
0.0
 11
373.4223645988699
 21
-47.79895092347591
 31
0.0
  0
LINE
  5
105
330
1F
100
AcDbEntity
  8
0-0
  6
JWW_DASHED1
 62
   120
370
     5
100
AcDbLine
 10
-216.5776354011273
 20
-630.7278831116054
 30
0.0
 11
33.4223645988807
 21
-380.7278831115984
 31
0.0
  0
LINE
  5
106
330
1F
100
AcDbEntity
  8
0-0
  6
JWW_DASHED1
 62
   120
370
     5
100
AcDbLine
 10
123.4223645988875
 20
-290.7278831115908
 30
0.0
 11
373.4223645988784
 21
-40.72788311159943
 31
0.0
  0
LINE
  5
107
330
1F
100
AcDbEntity
  8
0-0
  6
JWW_DASHED1
 62
   120
370
     5
100
AcDbLine
 10
-216.5776354011187
 20
-623.6568152997302
 30
0.0
 11
33.42236459888581
 21
-373.6568152997253
 31
0.0
  0
LINE
  5
108
330
1F
100
AcDbEntity
  8
0-0
  6
JWW_DASHED1
 62
   120
370
     5
100
AcDbLine
 10
123.4223645988773
 20
-283.6568152997343
 30
0.0
 11
373.4223645988818
 21
-33.65681529972978
 31
0.0
  0
LINE
  5
109
330
1F
100
AcDbEntity
  8
0-0
  6
JWW_DASHED1
 62
   120
370
     5
100
AcDbLine
 10
-216.5776354011392
 20
-616.5857474878837
 30
0.0
 11
33.42236459886876
 21
-366.5857474878766
 31
0.0
  0
LINE
  5
10A
330
1F
100
AcDbEntity
  8
0-0
  6
JWW_DASHED1
 62
   120
370
     5
100
AcDbLine
 10
123.4223645988756
 20
-276.5857474878694
 30
0.0
 11
373.4223645988665
 21
-26.58574748787803
 31
0.0
  0
LINE
  5
10B
330
1F
100
AcDbEntity
  8
0-0
  6
JWW_DASHED1
 62
   120
370
     5
100
AcDbLine
 10
-216.577635401129
 20
-609.5146796760071
 30
0.0
 11
33.42236459887899
 21
-359.5146796760001
 31
0.0
  0
LINE
  5
10C
330
1F
100
AcDbEntity
  8
0-0
  6
JWW_DASHED1
 62
   120
370
     5
100
AcDbLine
 10
123.4223645988858
 20
-269.5146796759925
 30
0.0
 11
373.4223645988767
 21
-19.51467967600113
 31
0.0
  0
LINE
  5
10D
330
1F
100
AcDbEntity
  8
0-0
  6
JWW_DASHED1
 62
   120
370
     5
100
AcDbLine
 10
-216.5776354011204
 20
-602.4436118641321
 30
0.0
 11
33.42236459888411
 21
-352.4436118641275
 31
0.0
  0
LINE
  5
10E
330
1F
100
AcDbEntity
  8
0-0
  6
JWW_DASHED1
 62
   120
370
     5
100
AcDbLine
 10
123.4223645988756
 20
-262.4436118641365
 30
0.0
 11
373.4223645988801
 21
-12.44361186413148
 31
0.0
  0
LINE
  5
10F
330
1F
100
AcDbEntity
  8
0-0
  6
JWW_DASHED1
 62
   120
370
     5
100
AcDbLine
 10
-216.5776354011409
 20
-595.3725440522854
 30
0.0
 11
33.4223645988824
 21
-345.3725440522625
 31
0.0
  0
LINE
  5
110
330
1F
100
AcDbEntity
  8
0-0
  6
JWW_DASHED1
 62
   120
370
     5
100
AcDbLine
 10
123.4223645988739
 20
-255.3725440522706
 30
0.0
 11
373.4223645988665
 21
-5.372544052279302
 31
0.0
  0
LINE
  5
111
330
1F
100
AcDbEntity
  8
0-0
  6
JWW_DASHED1
 62
   120
370
     5
100
AcDbLine
 10
-216.5776354011307
 20
-588.3014762404088
 30
0.0
 11
33.42236459887729
 21
-338.3014762404018
 31
0.0
  0
LINE
  5
112
330
1F
100
AcDbEntity
  8
0-0
  6
JWW_DASHED1
 62
   120
370
     5
100
AcDbLine
 10
123.4223645988841
 20
-248.3014762403942
 30
0.0
 11
373.422364598875
 21
1.698523759597172
 31
0.0
  0
LINE
  5
113
330
1F
100
AcDbEntity
  8
0-0
  6
JWW_DASHED1
 62
   120
370
     5
100
AcDbLine
 10
-216.5776354011221
 20
-581.2304084285339
 30
0.0
 11
33.4223645988824
 21
-331.2304084285292
 31
0.0
  0
LINE
  5
114
330
1F
100
AcDbEntity
  8
0-0
  6
JWW_DASHED1
 62
   120
370
     5
100
AcDbLine
 10
123.4223645988739
 20
-241.2304084285386
 30
0.0
 11
373.4223645988784
 21
8.7695915714664
 31
0.0
  0
LINE
  5
115
330
1F
100
AcDbEntity
  8
0-0
  6
JWW_DASHED1
 62
   120
370
     5
100
AcDbLine
 10
-216.5776354011426
 20
-574.1593406166871
 30
0.0
 11
33.4223645988807
 21
-324.1593406166642
 31
0.0
  0
LINE
  5
116
330
1F
100
AcDbEntity
  8
0-0
  6
JWW_DASHED1
 62
   120
370
     5
100
AcDbLine
 10
123.4223645988722
 20
-234.1593406166728
 30
0.0
 11
373.4223645988648
 21
15.84065938331857
 31
0.0
  0
LINE
  5
117
330
1F
100
AcDbEntity
  8
0-0
  6
JWW_DASHED1
 62
   120
370
     5
100
AcDbLine
 10
-216.5776354011324
 20
-567.0882728048105
 30
0.0
 11
33.42236459887558
 21
-317.0882728048035
 31
0.0
  0
LINE
  5
118
330
1F
100
AcDbEntity
  8
0-0
  6
JWW_DASHED1
 62
   120
370
     5
100
AcDbLine
 10
123.4223645988824
 20
-227.0882728047958
 30
0.0
 11
373.4223645988733
 21
22.91172719519547
 31
0.0
  0
LINE
  5
119
330
1F
100
AcDbEntity
  8
0-0
  6
JWW_DASHED1
 62
   120
370
     5
100
AcDbLine
 10
-216.5776354011238
 20
-560.0172049929358
 30
0.0
 11
33.4223645988807
 21
-310.0172049929309
 31
0.0
  0
LINE
  5
11A
330
1F
100
AcDbEntity
  8
0-0
  6
JWW_DASHED1
 62
   120
370
     5
100
AcDbLine
 10
123.4223645988875
 20
-220.0172049929241
 30
0.0
 11
373.4223645988767
 21
29.9827950070647
 31
0.0
  0
LINE
  5
11B
330
1F
100
AcDbEntity
  8
0-0
  6
JWW_DASHED1
 62
   120
370
     5
100
AcDbLine
 10
-216.5776354011307
 20
-552.9461371810752
 30
0.0
 11
33.42236459889093
 21
-302.9461371810544
 31
0.0
  0
LINE
  5
11C
330
1F
100
AcDbEntity
  8
0-0
  6
JWW_DASHED1
 62
   120
370
     5
100
AcDbLine
 10
123.4223645988807
 20
-212.9461371810638
 30
0.0
 11
373.4223645988869
 21
37.05386281894118
 31
0.0
  0
LINE
  5
11D
330
1F
100
AcDbEntity
  8
0-0
  6
JWW_DASHED1
 62
   120
370
     5
100
AcDbLine
 10
-216.5776354011341
 20
-545.8750693692122
 30
0.0
 11
33.42236459887388
 21
-295.8750693692052
 31
0.0
  0
LINE
  5
11E
330
1F
100
AcDbEntity
  8
0-0
  6
JWW_DASHED1
 62
   120
370
     5
100
AcDbLine
 10
123.4223645988807
 20
-205.8750693691975
 30
0.0
 11
373.4223645988716
 21
44.12493063079335
 31
0.0
  0
LINE
  5
11F
330
1F
100
AcDbEntity
  8
0-0
  6
JWW_DASHED1
 62
   120
370
     5
100
AcDbLine
 10
-216.5776354011238
 20
-538.8040015573355
 30
0.0
 11
33.42236459888411
 21
-288.8040015573283
 31
0.0
  0
LINE
  5
120
330
1F
100
AcDbEntity
  8
0-0
  6
JWW_DASHED1
 62
   120
370
     5
100
AcDbLine
 10
123.4223645988909
 20
-198.8040015573206
 30
0.0
 11
373.4223645988818
 21
51.19599844267025
 31
0.0
  0
LINE
  5
121
330
1F
100
AcDbEntity
  8
0-0
  6
JWW_DASHED1
 62
   120
370
     5
100
AcDbLine
 10
-216.5776354011324
 20
-531.7329337454769
 30
0.0
 11
33.42236459888922
 21
-281.7329337454565
 31
0.0
  0
LINE
  5
122
330
1F
100
AcDbEntity
  8
0-0
  6
JWW_DASHED1
 62
   120
370
     5
100
AcDbLine
 10
123.422364598879
 20
-191.7329337454655
 30
0.0
 11
373.4223645988852
 21
58.26706625453948
 31
0.0
  0
LINE
  5
123
330
1F
100
AcDbEntity
  8
0-0
  6
JWW_DASHED1
 62
   120
370
     5
100
AcDbLine
 10
-216.5776354011358
 20
-524.6618659336139
 30
0.0
 11
33.42236459887217
 21
-274.6618659336069
 31
0.0
  0
LINE
  5
124
330
1F
100
AcDbEntity
  8
0-0
  6
JWW_DASHED1
 62
   120
370
     5
100
AcDbLine
 10
123.422364598879
 20
-184.6618659335992
 30
0.0
 11
373.4223645988699
 21
65.33813406639209
 31
0.0
  0
LINE
  5
125
330
1F
100
AcDbEntity
  8
0-0
  6
JWW_DASHED1
 62
   120
370
     5
100
AcDbLine
 10
-216.5776354011255
 20
-517.5907981217372
 30
0.0
 11
33.4223645988824
 21
-267.59079812173
 31
0.0
  0
LINE
  5
126
330
1F
100
AcDbEntity
  8
0-0
  6
JWW_DASHED1
 62
   120
370
     5
100
AcDbLine
 10
123.4223645988892
 20
-177.5907981217228
 30
0.0
 11
373.4223645988801
 21
72.40920187826856
 31
0.0
  0
LINE
  5
127
330
1F
100
AcDbEntity
  8
0-0
  6
JWW_DASHED1
 62
   120
370
     5
100
AcDbLine
 10
-216.577635401117
 20
-510.5197303098632
 30
0.0
 11
33.42236459888752
 21
-260.5197303098586
 31
0.0
  0
LINE
  5
128
330
1F
100
AcDbEntity
  8
0-0
  6
JWW_DASHED1
 62
   120
370
     5
100
AcDbLine
 10
123.4223645988773
 20
-170.5197303098676
 30
0.0
 11
373.4223645988818
 21
79.48026969013736
 31
0.0
  0
LINE
  5
129
330
1F
100
AcDbEntity
  8
0-0
  6
JWW_DASHED1
 62
   120
370
     5
100
AcDbLine
 10
-216.5776354011375
 20
-503.4486624980155
 30
0.0
 11
33.42236459887047
 21
-253.4486624980086
 31
0.0
  0
LINE
  5
12A
330
1F
100
AcDbEntity
  8
0-0
  6
JWW_DASHED1
 62
   120
370
     5
100
AcDbLine
 10
123.4223645988773
 20
-163.4486624980009
 30
0.0
 11
373.4223645988682
 21
86.55133750199039
 31
0.0
  0
LINE
  5
12B
330
1F
100
AcDbEntity
  8
0-0
  6
JWW_DASHED1
 62
   120
370
     5
100
AcDbLine
 10
-216.5776354011273
 20
-496.3775946861388
 30
0.0
 11
33.4223645988807
 21
-246.3775946861317
 31
0.0
  0
LINE
  5
12C
330
1F
100
AcDbEntity
  8
0-0
  6
JWW_DASHED1
 62
   120
370
     5
100
AcDbLine
 10
123.4223645988875
 20
-156.3775946861245
 30
0.0
 11
373.4223645988784
 21
93.62240531386686
 31
0.0
  0
LINE
  5
12D
330
1F
100
AcDbEntity
  8
0-0
  6
JWW_DASHED1
 62
   120
370
     5
100
AcDbLine
 10
-216.5776354011204
 20
-489.3065268742649
 30
0.0
 11
33.42236459888411
 21
-239.3065268742603
 31
0.0
  0
LINE
  5
12E
330
1F
100
AcDbEntity
  8
0-0
  6
JWW_DASHED1
 62
   120
370
     5
100
AcDbLine
 10
123.4223645988756
 20
-149.3065268742693
 30
0.0
 11
373.4223645988818
 21
100.6934731257357
 31
0.0
  0
LINE
  5
12F
330
1F
100
AcDbEntity
  8
0-0
  6
JWW_DASHED1
 62
   120
370
     5
100
AcDbLine
 10
-216.5776354011392
 20
-482.2354590624172
 30
0.0
 11
33.42236459886876
 21
-232.2354590624103
 31
0.0
  0
LINE
  5
130
330
1F
100
AcDbEntity
  8
0-0
  6
JWW_DASHED1
 62
   120
370
     5
100
AcDbLine
 10
123.4223645988756
 20
-142.2354590624026
 30
0.0
 11
373.4223645988665
 21
107.7645409375883
 31
0.0
  0
LINE
  5
131
330
1F
100
AcDbEntity
  8
0-0
  6
JWW_DASHED1
 62
   120
370
     5
100
AcDbLine
 10
-216.577635401129
 20
-475.1643912505407
 30
0.0
 11
33.42236459887899
 21
-225.1643912505334
 31
0.0
  0
LINE
  5
132
330
1F
100
AcDbEntity
  8
0-0
  6
JWW_DASHED1
 62
   120
370
     5
100
AcDbLine
 10
123.4223645988858
 20
-135.1643912505257
 30
0.0
 11
373.4223645988767
 21
114.8356087494652
 31
0.0
  0
LINE
  5
133
330
1F
100
AcDbEntity
  8
0-0
  6
JWW_DASHED1
 62
   120
370
     5
100
AcDbLine
 10
-216.5776354011221
 20
-468.0933234386668
 30
0.0
 11
33.4223645988824
 21
-218.0933234386621
 31
0.0
  0
LINE
  5
134
330
1F
100
AcDbEntity
  8
0-0
  6
JWW_DASHED1
 62
   120
370
     5
100
AcDbLine
 10
123.4223645988739
 20
-128.093323438671
 30
0.0
 11
373.4223645988784
 21
121.9066765613335
 31
0.0
  0
LINE
  5
135
330
1F
100
AcDbEntity
  8
0-0
  6
JWW_DASHED1
 62
   120
370
     5
100
AcDbLine
 10
-216.5776354011409
 20
-461.0222556268191
 30
0.0
 11
33.4223645988824
 21
-211.0222556267962
 31
0.0
  0
LINE
  5
136
330
1F
100
AcDbEntity
  8
0-0
  6
JWW_DASHED1
 62
   120
370
     5
100
AcDbLine
 10
123.4223645988739
 20
-121.0222556268043
 30
0.0
 11
373.4223645988648
 21
128.9777443731866
 31
0.0
  0
LINE
  5
137
330
1F
100
AcDbEntity
  8
0-0
  6
JWW_DASHED1
 62
   120
370
     5
100
AcDbLine
 10
-216.5776354011307
 20
-453.9511878149422
 30
0.0
 11
33.42236459887729
 21
-203.9511878149355
 31
0.0
  0
LINE
  5
138
330
1F
100
AcDbEntity
  8
0-0
  6
JWW_DASHED1
 62
   120
370
     5
100
AcDbLine
 10
123.4223645988841
 20
-113.9511878149279
 30
0.0
 11
373.422364598875
 21
136.0488121850635
 31
0.0
  0
LINE
  5
139
330
1F
100
AcDbEntity
  8
0-0
  6
JWW_DASHED1
 62
   120
370
     5
100
AcDbLine
 10
-216.5776354011238
 20
-446.8801200030685
 30
0.0
 11
33.4223645988807
 21
-196.8801200030642
 31
0.0
  0
LINE
  5
13A
330
1F
100
AcDbEntity
  8
0-0
  6
JWW_DASHED1
 62
   120
370
     5
100
AcDbLine
 10
123.4223645988722
 20
-106.8801200030731
 30
0.0
 11
373.4223645988767
 21
143.1198799969314
 31
0.0
  0
LINE
  5
13B
330
1F
100
AcDbEntity
  8
0-0
  6
JWW_DASHED1
 62
   120
370
     5
100
AcDbLine
 10
-216.577635401129
 20
-439.809052191208
 30
0.0
 11
33.42236459889093
 21
-189.8090521911873
 31
0.0
  0
LINE
  5
13C
330
1F
100
AcDbEntity
  8
0-0
  6
JWW_DASHED1
 62
   120
370
     5
100
AcDbLine
 10
123.4223645988824
 20
-99.80905219119666
 30
0.0
 11
373.4223645988716
 21
150.1909478087925
 31
0.0
  0
LINE
  5
13D
330
1F
100
AcDbEntity
  8
0-0
  6
JWW_DASHED1
 62
   120
370
     5
100
AcDbLine
 10
-216.5776354011324
 20
-432.7379843793444
 30
0.0
 11
33.42236459887388
 21
-182.7379843793372
 31
0.0
  0
LINE
  5
13E
330
1F
100
AcDbEntity
  8
0-0
  6
JWW_DASHED1
 62
   120
370
     5
100
AcDbLine
 10
123.4223645988824
 20
-92.73798437932956
 30
0.0
 11
373.4223645988733
 21
157.2620156206618
 31
0.0
  0
LINE
  5
13F
330
1F
100
AcDbEntity
  8
0-0
  6
JWW_DASHED1
 62
   120
370
     5
100
AcDbLine
 10
-216.5776354011255
 20
-425.6669165674709
 30
0.0
 11
33.42236459887899
 21
-175.6669165674659
 31
0.0
  0
LINE
  5
140
330
1F
100
AcDbEntity
  8
0-0
  6
JWW_DASHED1
 62
   120
370
     5
100
AcDbLine
 10
123.4223645988858
 20
-85.66691656745948
 30
0.0
 11
373.422364598875
 21
164.3330834325293
 31
0.0
  0
LINE
  5
141
330
1F
100
AcDbEntity
  8
0-0
  6
JWW_DASHED1
 62
   120
370
     5
100
AcDbLine
 10
-216.577635401117
 20
-418.5958487556238
 30
0.0
 11
33.42236459888752
 21
-168.5958487556188
 31
0.0
  0
LINE
  5
142
330
1F
100
AcDbEntity
  8
0-0
  6
JWW_DASHED1
 62
   120
370
     5
100
AcDbLine
 10
123.4223645988773
 20
-78.5958487556282
 30
0.0
 11
373.4223645988818
 21
171.4041512443772
 31
0.0
  0
LINE
  5
143
330
1F
100
AcDbEntity
  8
0-0
  6
JWW_DASHED1
 62
   120
370
     5
100
AcDbLine
 10
-216.5776354011375
 20
-411.5247809438048
 30
0.0
 11
33.42236459886876
 21
-161.5247809437973
 31
0.0
  0
LINE
  5
144
330
1F
100
AcDbEntity
  8
0-0
  6
JWW_DASHED1
 62
   120
370
     5
100
AcDbLine
 10
123.4223645988756
 20
-71.52478094379009
 30
0.0
 11
373.4223645988682
 21
178.4752190562012
 31
0.0
  0
LINE
  5
145
330
1F
100
AcDbEntity
  8
0-0
  6
JWW_DASHED1
 62
   120
370
     5
100
AcDbLine
 10
-216.577635401129
 20
-404.4537131319279
 30
0.0
 11
33.42236459887899
 21
-154.4537131319209
 31
0.0
  0
LINE
  5
146
330
1F
100
AcDbEntity
  8
0-0
  6
JWW_DASHED1
 62
   120
370
     5
100
AcDbLine
 10
123.4223645988858
 20
-64.45371313191362
 30
0.0
 11
373.4223645988767
 21
185.5462868680773
 31
0.0
  0
LINE
  5
147
330
1F
100
AcDbEntity
  8
0-0
  6
JWW_DASHED1
 62
   120
370
     5
100
AcDbLine
 10
-216.5776354011221
 20
-397.3826453200549
 30
0.0
 11
33.4223645988824
 21
-147.3826453200504
 31
0.0
  0
LINE
  5
148
330
1F
100
AcDbEntity
  8
0-0
  6
JWW_DASHED1
 62
   120
370
     5
100
AcDbLine
 10
123.4223645988739
 20
-57.38264532005889
 30
0.0
 11
373.4223645988784
 21
192.6173546799457
 31
0.0
  0
LINE
  5
149
330
1F
100
AcDbEntity
  8
0-0
  6
JWW_DASHED1
 62
   120
370
     5
100
AcDbLine
 10
-216.5776354011409
 20
-390.3115775082065
 30
0.0
 11
33.4223645988824
 21
-140.3115775081837
 31
0.0
  0
LINE
  5
14A
330
1F
100
AcDbEntity
  8
0-0
  6
JWW_DASHED1
 62
   120
370
     5
100
AcDbLine
 10
123.4223645988739
 20
-50.3115775081918
 30
0.0
 11
373.4223645988665
 21
199.6884224917995
 31
0.0
  0
LINE
  5
14B
330
1F
100
AcDbEntity
  8
0-0
  6
JWW_DASHED1
 62
   120
370
     5
100
AcDbLine
 10
-216.5776354011307
 20
-383.2405096963296
 30
0.0
 11
33.42236459887729
 21
-133.2405096963226
 31
0.0
  0
LINE
  5
14C
330
1F
100
AcDbEntity
  8
0-0
  6
JWW_DASHED1
 62
   120
370
     5
100
AcDbLine
 10
123.4223645988841
 20
-43.24050969631532
 30
0.0
 11
373.422364598875
 21
206.759490303676
 31
0.0
  0
LINE
  5
14D
330
1F
100
AcDbEntity
  8
0-0
  6
JWW_DASHED1
 62
   120
370
     5
100
AcDbLine
 10
-216.5776354011238
 20
-376.1694418844571
 30
0.0
 11
33.4223645988807
 21
-126.1694418844521
 31
0.0
  0
LINE
  5
14E
330
1F
100
AcDbEntity
  8
0-0
  6
JWW_DASHED1
 62
   120
370
     5
100
AcDbLine
 10
123.4223645988722
 20
-36.16944188446144
 30
0.0
 11
373.4223645988767
 21
213.8305581155431
 31
0.0
  0
LINE
  5
14F
330
1F
100
AcDbEntity
  8
0-0
  6
JWW_DASHED1
 62
   120
370
     5
100
AcDbLine
 10
-216.5776354011307
 20
-369.0983740725963
 30
0.0
 11
33.42236459889093
 21
-119.0983740725756
 31
0.0
  0
LINE
  5
150
330
1F
100
AcDbEntity
  8
0-0
  6
JWW_DASHED1
 62
   120
370
     5
100
AcDbLine
 10
123.4223645988824
 20
-29.09837407258454
 30
0.0
 11
373.4223645988716
 21
220.9016259274047
 31
0.0
  0
LINE
  5
151
330
1F
100
AcDbEntity
  8
0-0
  6
JWW_DASHED1
 62
   120
370
     5
100
AcDbLine
 10
-216.5776354011324
 20
-362.0273062607313
 30
0.0
 11
33.42236459887558
 21
-112.0273062607247
 31
0.0
  0
LINE
  5
152
330
1F
100
AcDbEntity
  8
0-0
  6
JWW_DASHED1
 62
   120
370
     5
100
AcDbLine
 10
123.4223645988824
 20
-22.02730626071702
 30
0.0
 11
373.422364598875
 21
227.9726937392747
 31
0.0
  0
LINE
  5
153
330
1F
100
AcDbEntity
  8
0-0
  6
JWW_DASHED1
 62
   120
370
     5
100
AcDbLine
 10
-216.5776354011255
 20
-354.9562384488588
 30
0.0
 11
33.42236459887899
 21
-104.9562384488542
 31
0.0
  0
LINE
  5
154
330
1F
100
AcDbEntity
  8
0-0
  6
JWW_DASHED1
 62
   120
370
     5
100
AcDbLine
 10
123.4223645988858
 20
-14.95623844884737
 30
0.0
 11
373.422364598875
 21
235.0437615511414
 31
0.0
  0
LINE
  5
155
330
1F
100
AcDbEntity
  8
0-0
  6
JWW_DASHED1
 62
   120
370
     5
100
AcDbLine
 10
-216.5776354011324
 20
-347.885170636998
 30
0.0
 11
33.42236459888922
 21
-97.88517063697728
 31
0.0
  0
LINE
  5
156
330
1F
100
AcDbEntity
  8
0-0
  6
JWW_DASHED1
 62
   120
370
     5
100
AcDbLine
 10
123.4223645988807
 20
-7.885170636986665
 30
0.0
 11
373.4223645988852
 21
242.1148293630183
 31
0.0
  0
LINE
  5
157
330
1F
100
AcDbEntity
  8
0-0
  6
JWW_DASHED1
 62
   120
370
     5
100
AcDbLine
 10
-216.5776354011341
 20
-340.814102825133
 30
0.0
 11
33.42236459887388
 21
-90.81410282512638
 31
0.0
  0
LINE
  5
158
330
1F
100
AcDbEntity
  8
0-0
  6
JWW_DASHED1
 62
   120
370
     5
100
AcDbLine
 10
123.4223645988807
 20
-0.8141028251187166
 30
0.0
 11
373.4223645988716
 21
249.1858971748726
 31
0.0
  0
LINE
  5
159
330
1F
100
AcDbEntity
  8
0-0
  6
JWW_DASHED1
 62
   120
370
     5
100
AcDbLine
 10
-216.5776354011238
 20
-333.7430350132566
 30
0.0
 11
33.42236459888411
 21
-83.74303501324948
 31
0.0
  0
LINE
  5
15A
330
1F
100
AcDbEntity
  8
0-0
  6
JWW_DASHED1
 62
   120
370
     5
100
AcDbLine
 10
123.4223645988909
 20
6.256964986757758
 30
0.0
 11
373.4223645988818
 21
256.2569649867491
 31
0.0
  0
LINE
  5
15B
330
1F
100
AcDbEntity
  8
0-0
  6
JWW_DASHED1
 62
   120
370
     5
100
AcDbLine
 10
-216.577635401117
 20
-326.6719672013839
 30
0.0
 11
33.42236459888752
 21
-76.6719672013794
 31
0.0
  0
LINE
  5
15C
330
1F
100
AcDbEntity
  8
0-0
  6
JWW_DASHED1
 62
   120
370
     5
100
AcDbLine
 10
123.4223645988773
 20
13.32803279861164
 30
0.0
 11
373.4223645988818
 21
263.3280327986166
 31
0.0
  0
LINE
  5
15D
330
1F
100
AcDbEntity
  8
0-0
  6
JWW_DASHED1
 62
   120
370
     5
100
AcDbLine
 10
-216.5776354011358
 20
-319.6008993895347
 30
0.0
 11
33.42236459887217
 21
-69.60089938952808
 31
0.0
  0
LINE
  5
15E
330
1F
100
AcDbEntity
  8
0-0
  6
JWW_DASHED1
 62
   120
370
     5
100
AcDbLine
 10
123.422364598879
 20
20.39910061047959
 30
0.0
 11
373.4223645988716
 21
270.3991006104714
 31
0.0
  0
LINE
  5
15F
330
1F
100
AcDbEntity
  8
0-0
  6
JWW_DASHED1
 62
   120
370
     5
100
AcDbLine
 10
-216.5776354011255
 20
-312.5298315776583
 30
0.0
 11
33.4223645988824
 21
-62.52983157765119
 31
0.0
  0
LINE
  5
160
330
1F
100
AcDbEntity
  8
0-0
  6
JWW_DASHED1
 62
   120
370
     5
100
AcDbLine
 10
123.4223645988892
 20
27.47016842235606
 30
0.0
 11
373.4223645988801
 21
277.4701684223474
 31
0.0
  0
LINE
  5
161
330
1F
100
AcDbEntity
  8
0-0
  6
JWW_DASHED1
 62
   120
370
     5
100
AcDbLine
 10
-216.5776354011204
 20
-305.458763765786
 30
0.0
 11
33.42236459888411
 21
-55.45876376578153
 31
0.0
  0
LINE
  5
162
330
1F
100
AcDbEntity
  8
0-0
  6
JWW_DASHED1
 62
   120
370
     5
100
AcDbLine
 10
123.4223645988756
 20
34.54123623420951
 30
0.0
 11
373.4223645988801
 21
284.5412362342145
 31
0.0
  0
LINE
  5
163
330
1F
100
AcDbEntity
  8
0-0
  6
JWW_DASHED1
 62
   120
370
     5
100
AcDbLine
 10
-216.5776354011375
 20
-298.3876959539364
 30
0.0
 11
33.42236459887047
 21
-48.38769595392979
 31
0.0
  0
LINE
  5
164
330
1F
100
AcDbEntity
  8
0-0
  6
JWW_DASHED1
 62
   120
370
     5
100
AcDbLine
 10
123.4223645988773
 20
41.61230404607789
 30
0.0
 11
373.4223645988699
 21
291.6123040460697
 31
0.0
  0
LINE
  5
165
330
1F
100
AcDbEntity
  8
0-0
  6
JWW_DASHED1
 62
   120
370
     5
100
AcDbLine
 10
-216.5776354011273
 20
-291.31662814206
 30
0.0
 11
33.4223645988807
 21
-41.31662814205288
 31
0.0
  0
LINE
  5
166
330
1F
100
AcDbEntity
  8
0-0
  6
JWW_DASHED1
 62
   120
370
     5
100
AcDbLine
 10
123.4223645988875
 20
48.68337185795479
 30
0.0
 11
373.4223645988784
 21
298.6833718579457
 31
0.0
  0
LINE
  5
167
330
1F
100
AcDbEntity
  8
0-0
  6
JWW_DASHED1
 62
   120
370
     5
100
AcDbLine
 10
-216.5776354011221
 20
-284.2455603301877
 30
0.0
 11
33.42236459888411
 21
-34.24556033018323
 31
0.0
  0
LINE
  5
168
330
1F
100
AcDbEntity
  8
0-0
  6
JWW_DASHED1
 62
   120
370
     5
100
AcDbLine
 10
123.4223645988739
 20
55.75443966980782
 30
0.0
 11
373.4223645988784
 21
305.7544396698124
 31
0.0
  0
LINE
  5
169
330
1F
100
AcDbEntity
  8
0-0
  6
JWW_DASHED1
 62
   120
370
     5
100
AcDbLine
 10
-216.5776354011392
 20
-277.1744925183381
 30
0.0
 11
33.42236459888411
 21
-27.17449251831571
 31
0.0
  0
LINE
  5
16A
330
1F
100
AcDbEntity
  8
0-0
  6
JWW_DASHED1
 62
   120
370
     5
100
AcDbLine
 10
123.4223645988756
 20
62.82550748167619
 30
0.0
 11
373.4223645988682
 21
312.8255074816675
 31
0.0
  0
LINE
  5
16B
330
1F
100
AcDbEntity
  8
0-0
  6
JWW_DASHED1
 62
   120
370
     5
100
AcDbLine
 10
-216.577635401129
 20
-270.1034247064617
 30
0.0
 11
33.42236459887899
 21
-20.10342470645458
 31
0.0
  0
LINE
  5
16C
330
1F
100
AcDbEntity
  8
0-0
  6
JWW_DASHED1
 62
   120
370
     5
100
AcDbLine
 10
123.4223645988858
 20
69.8965752935531
 30
0.0
 11
373.4223645988767
 21
319.8965752935444
 31
0.0
  0
LINE
  5
16D
330
1F
100
AcDbEntity
  8
0-0
  6
JWW_DASHED1
 62
   120
370
     5
100
AcDbLine
 10
-216.5776354011238
 20
-263.0323568945899
 30
0.0
 11
33.4223645988807
 21
-13.03235689458493
 31
0.0
  0
LINE
  5
16E
330
1F
100
AcDbEntity
  8
0-0
  6
JWW_DASHED1
 62
   120
370
     5
100
AcDbLine
 10
123.4223645988722
 20
76.9676431054057
 30
0.0
 11
373.4223645988767
 21
326.9676431054107
 31
0.0
  0
LINE
  5
16F
330
1F
100
AcDbEntity
  8
0-0
  6
JWW_DASHED1
 62
   120
370
     5
100
AcDbLine
 10
-216.5776354011409
 20
-255.9612890827398
 30
0.0
 11
33.4223645988824
 21
-5.961289082717407
 31
0.0
  0
LINE
  5
170
330
1F
100
AcDbEntity
  8
0-0
  6
JWW_DASHED1
 62
   120
370
     5
100
AcDbLine
 10
123.4223645988739
 20
84.0387109172745
 30
0.0
 11
373.4223645988648
 21
334.0387109172654
 31
0.0
  0
LINE
  5
171
330
1F
100
AcDbEntity
  8
0-0
  6
JWW_DASHED1
 62
   120
370
     5
100
AcDbLine
 10
-216.5776354011307
 20
-248.8902212708634
 30
0.0
 11
33.42236459887729
 21
1.10977872914372
 31
0.0
  0
LINE
  5
172
330
1F
100
AcDbEntity
  8
0-0
  6
JWW_DASHED1
 62
   120
370
     5
100
AcDbLine
 10
123.4223645988841
 20
91.10977872915097
 30
0.0
 11
373.422364598875
 21
341.1097787291423
 31
0.0
  0
LINE
  5
173
330
1F
100
AcDbEntity
  8
0-0
  6
JWW_DASHED1
 62
   120
370
     5
100
AcDbLine
 10
-216.5776354011255
 20
-241.8191534589916
 30
0.0
 11
33.42236459887899
 21
8.180846541012947
 31
0.0
  0
LINE
  5
174
330
1F
100
AcDbEntity
  8
0-0
  6
JWW_DASHED1
 62
   120
370
     5
100
AcDbLine
 10
123.4223645988705
 20
98.180846541004
 30
0.0
 11
373.422364598875
 21
348.180846541009
 31
0.0
  0
LINE
  5
175
330
1F
100
AcDbEntity
  8
0-0
  6
JWW_DASHED1
 62
   120
370
     5
100
AcDbLine
 10
-216.5776354011307
 20
-234.7480856471309
 30
0.0
 11
33.42236459888922
 21
15.25191435288942
 31
0.0
  0
LINE
  5
176
330
1F
100
AcDbEntity
  8
0-0
  6
JWW_DASHED1
 62
   120
370
     5
100
AcDbLine
 10
123.4223645988807
 20
105.2519143528805
 30
0.0
 11
373.4223645988852
 21
355.251914352885
 31
0.0
  0
LINE
  5
177
330
1F
100
AcDbEntity
  8
0-0
  6
JWW_DASHED1
 62
   120
370
     5
100
AcDbLine
 10
-216.5776354011324
 20
-227.6770178352651
 30
0.0
 11
33.42236459887558
 21
22.32298216474202
 31
0.0
  0
LINE
  5
178
330
1F
100
AcDbEntity
  8
0-0
  6
JWW_DASHED1
 62
   120
370
     5
100
AcDbLine
 10
123.4223645988824
 20
112.3229821647493
 30
0.0
 11
373.4223645988733
 21
362.3229821647406
 31
0.0
  0
LINE
  5
179
330
1F
100
AcDbEntity
  8
0-0
  6
JWW_DASHED1
 62
   120
370
     5
100
AcDbLine
 10
-216.5776354011221
 20
-220.6059500233886
 30
0.0
 11
33.42236459888411
 21
29.3940499766185
 31
0.0
  0
LINE
  5
17A
330
1F
100
AcDbEntity
  8
0-0
  6
JWW_DASHED1
 62
   120
370
     5
100
AcDbLine
 10
123.4223645988926
 20
119.3940499766262
 30
0.0
 11
373.4223645988835
 21
369.3940499766175
 31
0.0
  0
LINE
  5
17B
330
1F
100
AcDbEntity
  8
0-0
  6
JWW_DASHED1
 62
   120
370
     5
100
AcDbLine
 10
-216.5776354011341
 20
-213.5348822115326
 30
0.0
 11
33.42236459888752
 21
36.46511778848772
 31
0.0
  0
LINE
  5
17C
330
1F
100
AcDbEntity
  8
0-0
  6
JWW_DASHED1
 62
   120
370
     5
100
AcDbLine
 10
123.4223645988773
 20
126.4651177884784
 30
0.0
 11
373.4223645988835
 21
376.4651177884833
 31
0.0
  0
LINE
  5
17D
330
1F
100
AcDbEntity
  8
0-0
  6
JWW_DASHED1
 62
   120
370
     5
100
AcDbLine
 10
-216.5776354011341
 20
-206.4638143996668
 30
0.0
 11
33.42236459887388
 21
43.53618560034032
 31
0.0
  0
LINE
  5
17E
330
1F
100
AcDbEntity
  8
0-0
  6
JWW_DASHED1
 62
   120
370
     5
100
AcDbLine
 10
123.4223645988807
 20
133.536185600348
 30
0.0
 11
373.4223645988716
 21
383.5361856003389
 31
0.0
  0
LINE
  5
17F
330
1F
100
AcDbEntity
  8
0-0
  6
JWW_DASHED1
 62
   120
370
     5
100
AcDbLine
 10
-216.5776354011238
 20
-199.3927465877899
 30
0.0
 11
33.42236459888411
 21
50.60725341221723
 31
0.0
  0
LINE
  5
180
330
1F
100
AcDbEntity
  8
0-0
  6
JWW_DASHED1
 62
   120
370
     5
100
AcDbLine
 10
123.4223645988909
 20
140.6072534122245
 30
0.0
 11
373.4223645988818
 21
390.6072534122158
 31
0.0
  0
LINE
  5
181
330
1F
100
AcDbEntity
  8
0-0
  6
JWW_DASHED1
 62
   120
370
     5
100
AcDbLine
 10
-216.5776354011187
 20
-192.3216787759189
 30
0.0
 11
33.42236459888581
 21
57.6783212240856
 31
0.0
  0
LINE
  5
182
330
1F
100
AcDbEntity
  8
0-0
  6
JWW_DASHED1
 62
   120
370
     5
100
AcDbLine
 10
123.4223645988773
 20
147.6783212240767
 30
0.0
 11
373.4223645988818
 21
397.6783212240816
 31
0.0
  0
LINE
  5
183
330
1F
100
AcDbEntity
  8
0-0
  6
JWW_DASHED1
 62
   120
370
     5
100
AcDbLine
 10
-216.5776354011358
 20
-185.2506109640685
 30
0.0
 11
33.42236459887217
 21
64.74938903593863
 31
0.0
  0
LINE
  5
184
330
1F
100
AcDbEntity
  8
0-0
  6
JWW_DASHED1
 62
   120
370
     5
100
AcDbLine
 10
123.422364598879
 20
154.7493890359459
 30
0.0
 11
373.4223645988699
 21
404.7493890359372
 31
0.0
  0
LINE
  5
185
330
1F
100
AcDbEntity
  8
0-0
  6
JWW_DASHED1
 62
   120
370
     5
100
AcDbLine
 10
-216.5776354011255
 20
-178.179543152192
 30
0.0
 11
33.4223645988824
 21
71.82045684781554
 31
0.0
  0
LINE
  5
186
330
1F
100
AcDbEntity
  8
0-0
  6
JWW_DASHED1
 62
   120
370
     5
100
AcDbLine
 10
123.4223645988892
 20
161.8204568478228
 30
0.0
 11
373.4223645988801
 21
411.8204568478141
 31
0.0
  0
LINE
  5
187
330
1F
100
AcDbEntity
  8
0-0
  6
JWW_DASHED1
 62
   120
370
     5
100
AcDbLine
 10
-216.5776354011204
 20
-171.1084753403206
 30
0.0
 11
33.42236459888411
 21
78.89152465968391
 31
0.0
  0
LINE
  5
188
330
1F
100
AcDbEntity
  8
0-0
  6
JWW_DASHED1
 62
   120
370
     5
100
AcDbLine
 10
123.4223645988739
 20
168.8915246596745
 30
0.0
 11
373.4223645988784
 21
418.8915246596795
 31
0.0
  0
LINE
  5
189
330
1F
100
AcDbEntity
  8
0-0
  6
JWW_DASHED1
 62
   120
370
     5
100
AcDbLine
 10
-216.5776354011375
 20
-164.0374075284702
 30
0.0
 11
33.42236459887047
 21
85.96259247153694
 31
0.0
  0
LINE
  5
18A
330
1F
100
AcDbEntity
  8
0-0
  6
JWW_DASHED1
 62
   120
370
     5
100
AcDbLine
 10
123.4223645988773
 20
175.9625924715442
 30
0.0
 11
373.4223645988682
 21
425.9625924715355
 31
0.0
  0
LINE
  5
18B
330
1F
100
AcDbEntity
  8
0-0
  6
JWW_DASHED1
 62
   120
370
     5
100
AcDbLine
 10
-216.5776354011273
 20
-156.9663397165933
 30
0.0
 11
33.4223645988807
 21
93.03366028341341
 31
0.0
  0
LINE
  5
18C
330
1F
100
AcDbEntity
  8
0-0
  6
JWW_DASHED1
 62
   120
370
     5
100
AcDbLine
 10
123.4223645988875
 20
183.0336602834207
 30
0.0
 11
373.4223645988784
 21
433.0336602834124
 31
0.0
  0
LINE
  5
18D
330
1F
100
AcDbEntity
  8
0-0
  6
JWW_DASHED1
 62
   120
370
     5
100
AcDbLine
 10
-216.5776354011238
 20
-149.8952719047228
 30
0.0
 11
33.4223645988807
 21
100.1047280952818
 31
0.0
  0
LINE
  5
18E
330
1F
100
AcDbEntity
  8
0-0
  6
JWW_DASHED1
 62
   120
370
     5
100
AcDbLine
 10
123.4223645988722
 20
190.1047280952728
 30
0.0
 11
373.4223645988767
 21
440.1047280952778
 31
0.0
  0
LINE
  5
18F
330
1F
100
AcDbEntity
  8
0-0
  6
JWW_DASHED1
 62
   120
370
     5
100
AcDbLine
 10
-216.5776354011392
 20
-142.8242040928719
 30
0.0
 11
33.42236459888411
 21
107.175795907151
 31
0.0
  0
LINE
  5
190
330
1F
100
AcDbEntity
  8
0-0
  6
JWW_DASHED1
 62
   120
370
     5
100
AcDbLine
 10
123.4223645988756
 20
197.1757959071425
 30
0.0
 11
373.4223645988665
 21
447.1757959071338
 31
0.0
  0
LINE
  5
191
330
1F
100
AcDbEntity
  8
0-0
  6
JWW_DASHED1
 62
   120
370
     5
100
AcDbLine
 10
-216.577635401129
 20
-135.753136280995
 30
0.0
 11
33.42236459887729
 21
114.2468637190117
 31
0.0
  0
LINE
  5
192
330
1F
100
AcDbEntity
  8
0-0
  6
JWW_DASHED1
 62
   120
370
     5
100
AcDbLine
 10
123.4223645988858
 20
204.2468637190194
 30
0.0
 11
373.4223645988767
 21
454.2468637190107
 31
0.0
  0
LINE
  5
193
330
1F
100
AcDbEntity
  8
0-0
  6
JWW_DASHED1
 62
   120
370
     5
100
AcDbLine
 10
-216.5776354011255
 20
-128.6820684691249
 30
0.0
 11
33.4223645988807
 21
121.3179315308801
 31
0.0
  0
LINE
  5
194
330
1F
100
AcDbEntity
  8
0-0
  6
JWW_DASHED1
 62
   120
370
     5
100
AcDbLine
 10
123.4223645988705
 20
211.3179315308707
 30
0.0
 11
373.422364598875
 21
461.3179315308757
 31
0.0
  0
LINE
  5
195
330
1F
100
AcDbEntity
  8
0-0
  6
JWW_DASHED1
 62
   120
370
     5
100
AcDbLine
 10
-216.5776354011307
 20
-121.6110006572638
 30
0.0
 11
33.42236459888922
 21
128.3889993427566
 31
0.0
  0
LINE
  5
196
330
1F
100
AcDbEntity
  8
0-0
  6
JWW_DASHED1
 62
   120
370
     5
100
AcDbLine
 10
123.4223645988807
 20
218.3889993427476
 30
0.0
 11
373.4223645988699
 21
468.3889993427364
 31
0.0
  0
LINE
  5
197
330
1F
100
AcDbEntity
  8
0-0
  6
JWW_DASHED1
 62
   120
370
     5
100
AcDbLine
 10
-216.5776354011307
 20
-114.5399328453971
 30
0.0
 11
33.42236459887729
 21
135.46006715461
 31
0.0
  0
LINE
  5
198
330
1F
100
AcDbEntity
  8
0-0
  6
JWW_DASHED1
 62
   120
370
     5
100
AcDbLine
 10
123.4223645988841
 20
225.4600671546177
 30
0.0
 11
373.422364598875
 21
475.460067154609
 31
0.0
  0
LINE
  5
199
330
1F
100
AcDbEntity
  8
0-0
  6
JWW_DASHED1
 62
   120
370
     5
100
AcDbLine
 10
-216.5776354011273
 20
-107.4688650335266
 30
0.0
 11
33.42236459887729
 21
142.531134966478
 31
0.0
  0
LINE
  5
19A
330
1F
100
AcDbEntity
  8
0-0
  6
JWW_DASHED1
 62
   120
370
     5
100
AcDbLine
 10
123.4223645988841
 20
232.5311349664848
 30
0.0
 11
373.4223645988733
 21
482.531134966474
 31
0.0
  0
LINE
  5
19B
330
1F
100
AcDbEntity
  8
0-0
  6
JWW_DASHED1
 62
   120
370
     5
100
AcDbLine
 10
-216.5776354011324
 20
-100.3977972216659
 30
0.0
 11
33.42236459888752
 21
149.6022027783549
 31
0.0
  0
LINE
  5
19C
330
1F
100
AcDbEntity
  8
0-0
  6
JWW_DASHED1
 62
   120
370
     5
100
AcDbLine
 10
123.422364598879
 20
239.6022027783455
 30
0.0
 11
373.4223645988835
 21
489.60220277835
 31
0.0
  0
LINE
  5
19D
330
1F
100
AcDbEntity
  8
0-0
  6
JWW_DASHED1
 62
   120
370
     5
100
AcDbLine
 10
-216.5776354011324
 20
-93.32672940979879
 30
0.0
 11
33.42236459887558
 21
156.6732705902087
 31
0.0
  0
LINE
  5
19E
330
1F
100
AcDbEntity
  8
0-0
  6
JWW_DASHED1
 62
   120
370
     5
100
AcDbLine
 10
123.4223645988824
 20
246.673270590216
 30
0.0
 11
373.4223645988733
 21
496.6732705902073
 31
0.0
  0
LINE
  5
19F
330
1F
100
AcDbEntity
  8
0-0
  6
JWW_DASHED1
 62
   120
370
     5
100
AcDbLine
 10
-216.5776354011221
 20
-86.25566159792189
 30
0.0
 11
33.42236459888411
 21
163.7443384020848
 31
0.0
  0
LINE
  5
1A0
330
1F
100
AcDbEntity
  8
0-0
  6
JWW_DASHED1
 62
   120
370
     5
100
AcDbLine
 10
123.4223645988926
 20
253.7443384020925
 30
0.0
 11
373.4223645988835
 21
503.7443384020834
 31
0.0
  0
LINE
  5
1A1
330
1F
100
AcDbEntity
  8
0-0
  6
JWW_DASHED1
 62
   120
370
     5
100
AcDbLine
 10
-216.5776354011187
 20
-79.1845937860518
 30
0.0
 11
33.42236459888581
 21
170.8154062139532
 31
0.0
  0
LINE
  5
1A2
330
1F
100
AcDbEntity
  8
0-0
  6
JWW_DASHED1
 62
   120
370
     5
100
AcDbLine
 10
123.4223645988773
 20
260.8154062139438
 30
0.0
 11
373.4223645988818
 21
510.8154062139483
 31
0.0
  0
LINE
  5
1A3
330
1F
100
AcDbEntity
  8
0-0
  6
JWW_DASHED1
 62
   120
370
     5
100
AcDbLine
 10
-216.5776354011341
 20
-72.11352597420048
 30
0.0
 11
33.42236459887388
 21
177.8864740258066
 31
0.0
  0
LINE
  5
1A4
330
1F
100
AcDbEntity
  8
0-0
  6
JWW_DASHED1
 62
   120
370
     5
100
AcDbLine
 10
123.4223645988807
 20
267.8864740258139
 30
0.0
 11
373.4223645988716
 21
517.8864740258056
 31
0.0
  0
LINE
  5
1A5
330
1F
100
AcDbEntity
  8
0-0
  6
JWW_DASHED1
 62
   120
370
     5
100
AcDbLine
 10
-216.5776354011238
 20
-65.04245816232358
 30
0.0
 11
33.4223645988824
 21
184.9575418376831
 31
0.0
  0
LINE
  5
1A6
330
1F
100
AcDbEntity
  8
0-0
  6
JWW_DASHED1
 62
   120
370
     5
100
AcDbLine
 10
123.4223645988909
 20
274.9575418376908
 30
0.0
 11
373.4223645988818
 21
524.9575418376821
 31
0.0
  0
LINE
  5
1A7
330
1F
100
AcDbEntity
  8
0-0
  6
JWW_DASHED1
 62
   120
370
     5
100
AcDbLine
 10
-216.5776354011204
 20
-57.97139035045394
 30
0.0
 11
33.42236459888411
 21
192.028609649551
 31
0.0
  0
LINE
  5
1A8
330
1F
100
AcDbEntity
  8
0-0
  6
JWW_DASHED1
 62
   120
370
     5
100
AcDbLine
 10
123.4223645988756
 20
282.0286096495421
 30
0.0
 11
373.4223645988801
 21
532.0286096495466
 31
0.0
  0
LINE
  5
1A9
330
1F
100
AcDbEntity
  8
0-0
  6
JWW_DASHED1
 62
   120
370
     5
100
AcDbLine
 10
-216.5776354011358
 20
-50.90032253860219
 30
0.0
 11
33.42236459887047
 21
199.0996774614049
 31
0.0
  0
LINE
  5
1AA
330
1F
100
AcDbEntity
  8
0-0
  6
JWW_DASHED1
 62
   120
370
     5
100
AcDbLine
 10
123.422364598879
 20
289.0996774614126
 30
0.0
 11
373.4223645988699
 21
539.0996774614039
 31
0.0
  0
LINE
  5
1AB
330
1F
100
AcDbEntity
  8
0-0
  6
JWW_DASHED1
 62
   120
370
     5
100
AcDbLine
 10
-216.5776354011255
 20
-43.82925472672529
 30
0.0
 11
33.4223645988807
 21
206.1707452732814
 31
0.0
  0
LINE
  5
1AC
330
1F
100
AcDbEntity
  8
0-0
  6
JWW_DASHED1
 62
   120
370
     5
100
AcDbLine
 10
123.4223645988892
 20
296.1707452732891
 30
0.0
 11
373.4223645988801
 21
546.1707452732799
 31
0.0
  0
LINE
  5
1AD
330
1F
100
AcDbEntity
  8
0-0
  6
JWW_DASHED1
 62
   120
370
     5
100
AcDbLine
 10
-216.5776354011221
 20
-36.75818691485564
 30
0.0
 11
33.4223645988824
 21
213.2418130851489
 31
0.0
  0
LINE
  5
1AE
330
1F
100
AcDbEntity
  8
0-0
  6
JWW_DASHED1
 62
   120
370
     5
100
AcDbLine
 10
123.4223645988722
 20
303.2418130851395
 30
0.0
 11
373.4223645988784
 21
553.2418130851449
 31
0.0
  0
LINE
  5
1AF
330
1F
100
AcDbEntity
  8
0-0
  6
JWW_DASHED1
 62
   120
370
     5
100
AcDbLine
 10
-216.5776354011392
 20
-29.6871191030333
 30
0.0
 11
33.42236459888411
 21
220.3128808969896
 31
0.0
  0
LINE
  5
1B0
330
1F
100
AcDbEntity
  8
0-0
  6
JWW_DASHED1
 62
   120
370
     5
100
AcDbLine
 10
123.4223645988756
 20
310.3128808969815
 30
0.0
 11
373.4223645988818
 21
560.3128808969885
 31
0.0
  0
LINE
  5
1B1
330
1F
100
AcDbEntity
  8
0-0
  6
JWW_DASHED1
 62
   120
370
     5
100
AcDbLine
 10
-216.5776354011324
 20
-22.61605129118625
 30
0.0
 11
33.42236459887558
 21
227.3839487088209
 31
0.0
  0
LINE
  5
1B2
330
1F
100
AcDbEntity
  8
0-0
  6
JWW_DASHED1
 62
   120
370
     5
100
AcDbLine
 10
123.4223645988824
 20
317.3839487088285
 30
0.0
 11
373.422364598875
 21
567.3839487088198
 31
0.0
  0
LINE
  5
1B3
330
1F
100
AcDbEntity
  8
0-0
  6
JWW_DASHED1
 62
   120
370
     5
100
AcDbLine
 10
-216.5776354011221
 20
-15.54498347930934
 30
0.0
 11
33.42236459888581
 21
234.4550165206978
 31
0.0
  0
LINE
  5
1B4
330
1F
100
AcDbEntity
  8
0-0
  6
JWW_DASHED1
 62
   120
370
     5
100
AcDbLine
 10
123.4223645988926
 20
324.4550165207054
 30
0.0
 11
373.4223645988835
 21
574.4550165206963
 31
0.0
  0
LINE
  5
1B5
330
1F
100
AcDbEntity
  8
0-0
  6
JWW_DASHED1
 62
   120
370
     5
100
AcDbLine
 10
-216.5776354011341
 20
-8.473915667455891
 30
0.0
 11
33.42236459888581
 21
241.5260843325653
 31
0.0
  0
LINE
  5
1B6
330
1F
100
AcDbEntity
  8
0-0
  6
JWW_DASHED1
 62
   120
370
     5
100
AcDbLine
 10
123.4223645988773
 20
331.5260843325555
 30
0.0
 11
373.4223645988818
 21
581.5260843325605
 31
0.0
  0
LINE
  5
1B7
330
1F
100
AcDbEntity
  8
0-0
  6
JWW_DASHED1
 62
   120
370
     5
100
AcDbLine
 10
-216.5776354011341
 20
-1.402847855587943
 30
0.0
 11
33.42236459887388
 21
248.5971521444192
 31
0.0
  0
LINE
  5
1B8
330
1F
100
AcDbEntity
  8
0-0
  6
JWW_DASHED1
 62
   120
370
     5
100
AcDbLine
 10
123.4223645988807
 20
338.5971521444268
 30
0.0
 11
373.4223645988716
 21
588.5971521444177
 31
0.0
  0
LINE
  5
1B9
330
1F
100
AcDbEntity
  8
0-0
  6
JWW_DASHED1
 62
   120
370
     5
100
AcDbLine
 10
-216.5776354011238
 20
5.668219956288958
 30
0.0
 11
33.42236459888411
 21
255.6682199562961
 31
0.0
  0
LINE
  5
1BA
330
1F
100
AcDbEntity
  8
0-0
  6
JWW_DASHED1
 62
   120
370
     5
100
AcDbLine
 10
123.4223645988909
 20
345.6682199563037
 30
0.0
 11
373.4223645988818
 21
595.6682199562946
 31
0.0
  0
LINE
  5
1BB
330
1F
100
AcDbEntity
  8
0-0
  6
JWW_DASHED1
 62
   120
370
     5
100
AcDbLine
 10
-216.5776354011204
 20
12.73928776815819
 30
0.0
 11
33.42236459888411
 21
262.7392877681627
 31
0.0
  0
LINE
  5
1BC
330
1F
100
AcDbEntity
  8
0-0
  6
JWW_DASHED1
 62
   120
370
     5
100
AcDbLine
 10
123.4223645988739
 20
352.7392877681538
 30
0.0
 11
373.4223645988801
 21
602.7392877681586
 31
0.0
  0
LINE
  5
1BD
330
1F
100
AcDbEntity
  8
0-0
  6
JWW_DASHED1
 62
   120
370
     5
100
AcDbLine
 10
-216.5776354011358
 20
19.81035558001036
 30
0.0
 11
33.42236459887217
 21
269.8103555800175
 31
0.0
  0
LINE
  5
1BE
330
1F
100
AcDbEntity
  8
0-0
  6
JWW_DASHED1
 62
   120
370
     5
100
AcDbLine
 10
123.422364598879
 20
359.8103555800251
 30
0.0
 11
373.4223645988699
 21
609.810355580016
 31
0.0
  0
LINE
  5
1BF
330
1F
100
AcDbEntity
  8
0-0
  6
JWW_DASHED1
 62
   120
370
     5
100
AcDbLine
 10
-216.5776354011255
 20
26.88142339188726
 30
0.0
 11
33.4223645988824
 21
276.8814233918944
 31
0.0
  0
LINE
  5
1C0
330
1F
100
AcDbEntity
  8
0-0
  6
JWW_DASHED1
 62
   120
370
     5
100
AcDbLine
 10
123.4223645988892
 20
366.881423391902
 30
0.0
 11
373.4223645988801
 21
616.8814233918929
 31
0.0
  0
LINE
  5
1C1
330
1F
100
AcDbEntity
  8
0-0
  6
JWW_DASHED1
 62
   120
370
     5
100
AcDbLine
 10
-216.5776354011238
 20
33.95249120375606
 30
0.0
 11
33.4223645988824
 21
283.952491203761
 31
0.0
  0
LINE
  5
1C2
330
1F
100
AcDbEntity
  8
0-0
  6
JWW_DASHED1
 62
   120
370
     5
100
AcDbLine
 10
123.4223645988722
 20
373.9524912037517
 30
0.0
 11
373.4223645988784
 21
623.9524912037571
 31
0.0
  0
LINE
  5
1C3
330
1F
100
AcDbEntity
  8
0-0
  6
JWW_DASHED1
 62
   120
370
     5
100
AcDbLine
 10
-216.5776354011375
 20
41.02355901560866
 30
0.0
 11
33.42236459888581
 21
291.023559015632
 31
0.0
  0
LINE
  5
1C4
330
1F
100
AcDbEntity
  8
0-0
  6
JWW_DASHED1
 62
   120
370
     5
100
AcDbLine
 10
123.4223645988773
 20
381.0235590156234
 30
0.0
 11
373.4223645988682
 21
631.0235590156143
 31
0.0
  0
LINE
  5
1C5
330
1F
100
AcDbEntity
  8
0-0
  6
JWW_DASHED1
 62
   120
370
     5
100
AcDbLine
 10
-216.5776354011273
 20
48.09462682748556
 30
0.0
 11
33.4223645988807
 21
298.0946268274927
 31
0.0
  0
LINE
  5
1C6
330
1F
100
AcDbEntity
  8
0-0
  6
JWW_DASHED1
 62
   120
370
     5
100
AcDbLine
 10
123.4223645988875
 20
388.0946268274998
 30
0.0
 11
373.4223645988784
 21
638.0946268274912
 31
0.0
  0
LINE
  5
1C7
330
1F
100
AcDbEntity
  8
0-0
  6
JWW_DASHED1
 62
   120
370
     5
100
AcDbLine
 10
-216.5776354011255
 20
55.16569463935436
 30
0.0
 11
33.4223645988807
 21
305.1656946393593
 31
0.0
  0
LINE
  5
1C8
330
1F
100
AcDbEntity
  8
0-0
  6
JWW_DASHED1
 62
   120
370
     5
100
AcDbLine
 10
123.4223645988705
 20
395.16569463935
 30
0.0
 11
373.422364598875
 21
645.1656946393545
 31
0.0
  0
LINE
  5
1C9
330
1F
100
AcDbEntity
  8
0-0
  6
JWW_DASHED1
 62
   120
370
     5
100
AcDbLine
 10
-216.5776354011392
 20
62.23676245120696
 30
0.0
 11
33.42236459888411
 21
312.2367624512303
 31
0.0
  0
LINE
  5
1CA
330
1F
100
AcDbEntity
  8
0-0
  6
JWW_DASHED1
 62
   120
370
     5
100
AcDbLine
 10
123.4223645988756
 20
402.2367624512218
 30
0.0
 11
373.4223645988682
 21
652.236762451213
 31
0.0
  0
LINE
  5
1CB
330
1F
100
AcDbEntity
  8
0-0
  6
JWW_DASHED1
 62
   120
370
     5
100
AcDbLine
 10
-216.577635401129
 20
69.30783026308387
 30
0.0
 11
33.42236459887899
 21
319.307830263091
 31
0.0
  0
LINE
  5
1CC
330
1F
100
AcDbEntity
  8
0-0
  6
JWW_DASHED1
 62
   120
370
     5
100
AcDbLine
 10
123.4223645988858
 20
409.3078302630981
 30
0.0
 11
373.4223645988767
 21
659.3078302630895
 31
0.0
  0
LINE
  5
1CD
330
1F
100
AcDbEntity
  8
0-0
  6
JWW_DASHED1
 62
   120
370
     5
100
AcDbLine
 10
-216.5776354011273
 20
76.37889807495267
 30
0.0
 11
33.42236459887729
 21
326.3788980749572
 31
0.0
  0
LINE
  5
1CE
330
1F
100
AcDbEntity
  8
0-0
  6
JWW_DASHED1
 62
   120
370
     5
100
AcDbLine
 10
123.4223645988688
 20
416.3788980749483
 30
0.0
 11
373.4223645988733
 21
666.3788980749528
 31
0.0
  0
LINE
  5
1CF
330
1F
100
AcDbEntity
  8
0-0
  6
JWW_DASHED1
 62
   120
370
     5
100
AcDbLine
 10
-216.5776354011324
 20
83.44996588681337
 30
0.0
 11
33.42236459888752
 21
333.4499658868337
 31
0.0
  0
LINE
  5
1D0
330
1F
100
AcDbEntity
  8
0-0
  6
JWW_DASHED1
 62
   120
370
     5
100
AcDbLine
 10
123.422364598879
 20
423.4499658868247
 30
0.0
 11
373.4223645988835
 21
673.4499658868297
 31
0.0
  0
LINE
  5
1D1
330
1F
100
AcDbEntity
  8
0-0
  6
JWW_DASHED1
 62
   120
370
     5
100
AcDbLine
 10
-216.5776354011307
 20
90.52103369868175
 30
0.0
 11
33.42236459887729
 21
340.5210336986893
 31
0.0
  0
LINE
  5
1D2
330
1F
100
AcDbEntity
  8
0-0
  6
JWW_DASHED1
 62
   120
370
     5
100
AcDbLine
 10
123.4223645988841
 20
430.521033698697
 30
0.0
 11
373.422364598875
 21
680.5210336986878
 31
0.0
  0
LINE
  5
1D3
330
1F
100
AcDbEntity
  8
0-0
  6
JWW_DASHED1
 62
   120
370
     5
100
AcDbLine
 10
-216.5776354011204
 20
97.59210151055865
 30
0.0
 11
33.42236459888752
 21
347.5921015105657
 31
0.0
  0
LINE
  5
1D4
330
1F
100
AcDbEntity
  8
0-0
  6
JWW_DASHED1
 62
   120
370
     5
100
AcDbLine
 10
123.4223645988943
 20
437.592101510573
 30
0.0
 11
373.4223645988852
 21
687.5921015105647
 31
0.0
  0
LINE
  5
1D5
330
1F
100
AcDbEntity
  8
0-0
  6
JWW_DASHED1
 62
   120
370
     5
100
AcDbLine
 10
-216.5776354011341
 20
104.6631693224112
 30
0.0
 11
33.42236459888581
 21
354.663169322432
 31
0.0
  0
LINE
  5
1D6
330
1F
100
AcDbEntity
  8
0-0
  6
JWW_DASHED1
 62
   120
370
     5
100
AcDbLine
 10
123.4223645988773
 20
444.6631693224226
 30
0.0
 11
373.4223645988818
 21
694.6631693224276
 31
0.0
  0
LINE
  5
1D7
330
1F
100
AcDbEntity
  8
0-0
  6
JWW_DASHED1
 62
   120
370
     5
100
AcDbLine
 10
-216.5776354011324
 20
111.7342371342805
 30
0.0
 11
33.42236459887388
 21
361.7342371342871
 31
0.0
  0
LINE
  5
1D8
330
1F
100
AcDbEntity
  8
0-0
  6
JWW_DASHED1
 62
   120
370
     5
100
AcDbLine
 10
123.4223645988824
 20
451.7342371342947
 30
0.0
 11
373.4223645988733
 21
701.7342371342861
 31
0.0
  0
LINE
  5
1D9
330
1F
100
AcDbEntity
  8
0-0
  6
JWW_DASHED1
 62
   120
370
     5
100
AcDbLine
 10
-216.5776354011221
 20
118.8053049461565
 30
0.0
 11
33.42236459888411
 21
368.805304946164
 31
0.0
  0
LINE
  5
1DA
330
1F
100
AcDbEntity
  8
0-0
  6
JWW_DASHED1
 62
   120
370
     5
100
AcDbLine
 10
123.4223645988926
 20
458.8053049461713
 30
0.0
 11
373.4223645988835
 21
708.805304946163
 31
0.0
  0
LINE
  5
1DB
330
1F
100
AcDbEntity
  8
0-0
  6
JWW_DASHED1
 62
   120
370
     5
100
AcDbLine
 10
-216.5776354011204
 20
125.8763727580253
 30
0.0
 11
33.42236459888411
 21
375.8763727580298
 31
0.0
  0
LINE
  5
1DC
330
1F
100
AcDbEntity
  8
0-0
  6
JWW_DASHED1
 62
   120
370
     5
100
AcDbLine
 10
123.4223645988756
 20
465.8763727580209
 30
0.0
 11
373.4223645988801
 21
715.8763727580254
 31
0.0
  0
LINE
  5
1DD
330
1F
100
AcDbEntity
  8
0-0
  6
JWW_DASHED1
 62
   120
370
     5
100
AcDbLine
 10
-216.5776354011341
 20
132.9474405698788
 30
0.0
 11
33.42236459887388
 21
382.9474405698859
 31
0.0
  0
LINE
  5
1DE
330
1F
100
AcDbEntity
  8
0-0
  6
JWW_DASHED1
 62
   120
370
     5
100
AcDbLine
 10
123.4223645988807
 20
472.9474405698936
 30
0.0
 11
373.4223645988716
 21
722.9474405698844
 31
0.0
  0
LINE
  5
1DF
330
1F
100
AcDbEntity
  8
0-0
  6
JWW_DASHED1
 62
   120
370
     5
100
AcDbLine
 10
-216.5776354011238
 20
140.0185083817553
 30
0.0
 11
33.4223645988824
 21
390.0185083817619
 31
0.0
  0
LINE
  5
1E0
330
1F
100
AcDbEntity
  8
0-0
  6
JWW_DASHED1
 62
   120
370
     5
100
AcDbLine
 10
123.4223645988909
 20
480.0185083817696
 30
0.0
 11
373.4223645988818
 21
730.0185083817613
 31
0.0
  0
LINE
  5
1E1
330
1F
100
AcDbEntity
  8
0-0
  6
JWW_DASHED1
 62
   120
370
     5
100
AcDbLine
 10
-216.5776354011221
 20
147.0895761936232
 30
0.0
 11
33.4223645988824
 21
397.0895761936277
 31
0.0
  0
LINE
  5
1E2
330
1F
100
AcDbEntity
  8
0-0
  6
JWW_DASHED1
 62
   120
370
     5
100
AcDbLine
 10
123.4223645988739
 20
487.0895761936188
 30
0.0
 11
373.4223645988784
 21
737.0895761936238
 31
0.0
  0
LINE
  5
1E3
330
1F
100
AcDbEntity
  8
0-0
  6
JWW_DASHED1
 62
   120
370
     5
100
AcDbLine
 10
-216.5776354011358
 20
154.1606440054771
 30
0.0
 11
33.42236459887217
 21
404.1606440054842
 31
0.0
  0
LINE
  5
1E4
330
1F
100
AcDbEntity
  8
0-0
  6
JWW_DASHED1
 62
   120
370
     5
100
AcDbLine
 10
123.422364598879
 20
494.1606440054919
 30
0.0
 11
373.4223645988699
 21
744.1606440054827
 31
0.0
  0
LINE
  5
1E5
330
1F
100
AcDbEntity
  8
0-0
  6
JWW_DASHED1
 62
   120
370
     5
100
AcDbLine
 10
-216.5776354011255
 20
161.2317118173536
 30
0.0
 11
33.4223645988807
 21
411.2317118173606
 31
0.0
  0
LINE
  5
1E6
330
1F
100
AcDbEntity
  8
0-0
  6
JWW_DASHED1
 62
   120
370
     5
100
AcDbLine
 10
123.4223645988892
 20
501.2317118173679
 30
0.0
 11
373.4223645988801
 21
751.2317118173593
 31
0.0
  0
LINE
  5
1E7
330
1F
100
AcDbEntity
  8
0-0
  6
JWW_DASHED1
 62
   120
370
     5
100
AcDbLine
 10
-216.5776354011238
 20
168.3027796292215
 30
0.0
 11
33.4223645988807
 21
418.3027796292261
 31
0.0
  0
LINE
  5
1E8
330
1F
100
AcDbEntity
  8
0-0
  6
JWW_DASHED1
 62
   120
370
     5
100
AcDbLine
 10
123.4223645988705
 20
508.3027796292171
 30
0.0
 11
373.4223645988767
 21
758.302779629222
 31
0.0
  0
LINE
  5
1E9
330
1F
100
AcDbEntity
  8
0-0
  6
JWW_DASHED1
 62
   120
370
     5
100
AcDbLine
 10
-216.5776354011375
 20
175.3738474410754
 30
0.0
 11
33.42236459888581
 21
425.3738474410982
 31
0.0
  0
LINE
  5
1EA
330
1F
100
AcDbEntity
  8
0-0
  6
JWW_DASHED1
 62
   120
370
     5
100
AcDbLine
 10
123.4223645988773
 20
515.3738474410901
 30
0.0
 11
373.4223645988682
 21
765.373847441081
 31
0.0
  0
LINE
  5
1EB
330
1F
100
AcDbEntity
  8
0-0
  6
JWW_DASHED1
 62
   120
370
     5
100
AcDbLine
 10
-216.5776354011273
 20
182.4449152529519
 30
0.0
 11
33.4223645988807
 21
432.4449152529589
 31
0.0
  0
LINE
  5
1EC
330
1F
100
AcDbEntity
  8
0-0
  6
JWW_DASHED1
 62
   120
370
     5
100
AcDbLine
 10
123.4223645988875
 20
522.4449152529662
 30
0.0
 11
373.4223645988784
 21
772.4449152529579
 31
0.0
  0
LINE
  5
1ED
330
1F
100
AcDbEntity
  8
0-0
  6
JWW_DASHED1
 62
   120
370
     5
100
AcDbLine
 10
-216.5776354011273
 20
189.5159830648194
 30
0.0
 11
33.42236459887899
 21
439.5159830648244
 31
0.0
  0
LINE
  5
1EE
330
1F
100
AcDbEntity
  8
0-0
  6
JWW_DASHED1
 62
   120
370
     5
100
AcDbLine
 10
123.4223645988688
 20
529.5159830648149
 30
0.0
 11
373.4223645988733
 21
779.5159830648195
 31
0.0
  0
LINE
  5
1EF
330
1F
100
AcDbEntity
  8
0-0
  6
JWW_DASHED1
 62
   120
370
     5
100
AcDbLine
 10
-216.5776354011392
 20
196.5870508766737
 30
0.0
 11
33.42236459888411
 21
446.5870508766961
 31
0.0
  0
LINE
  5
1F0
330
1F
100
AcDbEntity
  8
0-0
  6
JWW_DASHED1
 62
   120
370
     5
100
AcDbLine
 10
123.4223645988756
 20
536.5870508766881
 30
0.0
 11
373.4223645988665
 21
786.5870508766793
 31
0.0
  0
LINE
  5
1F1
330
1F
100
AcDbEntity
  8
0-0
  6
JWW_DASHED1
 62
   120
370
     5
100
AcDbLine
 10
-216.577635401129
 20
203.6581186885502
 30
0.0
 11
33.42236459887729
 21
453.6581186885568
 31
0.0
  0
LINE
  5
1F2
330
1F
100
AcDbEntity
  8
0-0
  6
JWW_DASHED1
 62
   120
370
     5
100
AcDbLine
 10
123.4223645988858
 20
543.6581186885645
 30
0.0
 11
373.4223645988767
 21
793.6581186885562
 31
0.0
  0
LINE
  5
1F3
330
1F
100
AcDbEntity
  8
0-0
  6
JWW_DASHED1
 62
   120
370
     5
100
AcDbLine
 10
-216.577635401129
 20
210.7291865004177
 30
0.0
 11
33.42236459887729
 21
460.7291865004227
 31
0.0
  0
LINE
  5
1F4
330
1F
100
AcDbEntity
  8
0-0
  6
JWW_DASHED1
 62
   120
370
     5
100
AcDbLine
 10
123.4223645988824
 20
550.7291865004286
 30
0.0
 11
373.4223645988716
 21
800.7291865004182
 31
0.0
  0
LINE
  5
1F5
330
1F
100
AcDbEntity
  8
0-0
  6
JWW_DASHED1
 62
   120
370
     5
100
AcDbLine
 10
-216.5776354011341
 20
217.8002543122784
 30
0.0
 11
33.42236459888581
 21
467.8002543122987
 31
0.0
  0
LINE
  5
1F6
330
1F
100
AcDbEntity
  8
0-0
  6
JWW_DASHED1
 62
   120
370
     5
100
AcDbLine
 10
123.4223645988773
 20
557.8002543122901
 30
0.0
 11
373.4223645988818
 21
807.8002543122947
 31
0.0
  0
LINE
  5
1F7
330
1F
100
AcDbEntity
  8
0-0
  6
JWW_DASHED1
 62
   120
370
     5
100
AcDbLine
 10
-216.5776354011307
 20
224.8713221241485
 30
0.0
 11
33.42236459887558
 21
474.8713221241555
 31
0.0
  0
LINE
  5
1F8
330
1F
100
AcDbEntity
  8
0-0
  6
JWW_DASHED1
 62
   120
370
     5
100
AcDbLine
 10
123.4223645988841
 20
564.8713221241628
 30
0.0
 11
373.422364598875
 21
814.8713221241545
 31
0.0
  0
LINE
  5
1F9
330
1F
100
AcDbEntity
  8
0-0
  6
JWW_DASHED1
 62
   120
370
     5
100
AcDbLine
 10
-216.5776354011204
 20
231.9423899360249
 30
0.0
 11
33.42236459888581
 21
481.942389936032
 31
0.0
  0
LINE
  5
1FA
330
1F
100
AcDbEntity
  8
0-0
  6
JWW_DASHED1
 62
   120
370
     5
100
AcDbLine
 10
123.4223645988943
 20
571.9423899360397
 30
0.0
 11
373.4223645988852
 21
821.9423899360311
 31
0.0
  0
LINE
  5
1FB
330
1F
100
AcDbEntity
  8
0-0
  6
JWW_DASHED1
 62
   120
370
     5
100
AcDbLine
 10
-216.5776354011358
 20
239.0134577478767
 30
0.0
 11
33.42236459888411
 21
489.013457747897
 31
0.0
  0
LINE
  5
1FC
330
1F
100
AcDbEntity
  8
0-0
  6
JWW_DASHED1
 62
   120
370
     5
100
AcDbLine
 10
123.4223645988756
 20
579.0134577478875
 30
0.0
 11
373.4223645988801
 21
829.0134577478926
 31
0.0
  0
LINE
  5
1FD
330
1F
100
AcDbEntity
  8
0-0
  6
JWW_DASHED1
 62
   120
370
     5
100
AcDbLine
 10
-216.5776354011324
 20
246.0845255597468
 30
0.0
 11
33.42236459887388
 21
496.0845255597534
 31
0.0
  0
LINE
  5
1FE
330
1F
100
AcDbEntity
  8
0-0
  6
JWW_DASHED1
 62
   120
370
     5
100
AcDbLine
 10
123.4223645988824
 20
586.084525559761
 30
0.0
 11
373.4223645988733
 21
836.0845255597528
 31
0.0
  0
LINE
  5
1FF
330
1F
100
AcDbEntity
  8
0-0
  6
JWW_DASHED1
 62
   120
370
     5
100
AcDbLine
 10
-216.5776354011221
 20
253.1555933716232
 30
0.0
 11
33.42236459888411
 21
503.1555933716303
 31
0.0
  0
LINE
  5
200
330
1F
100
AcDbEntity
  8
0-0
  6
JWW_DASHED1
 62
   120
370
     5
100
AcDbLine
 10
123.4223645988926
 20
593.1555933716379
 30
0.0
 11
373.4223645988835
 21
843.1555933716288
 31
0.0
  0
LINE
  5
201
330
1F
100
AcDbEntity
  8
0-0
  6
JWW_DASHED1
 62
   120
370
     5
100
AcDbLine
 10
-216.5776354011221
 20
260.2266611834899
 30
0.0
 11
33.4223645988824
 21
510.2266611834953
 31
0.0
  0
LINE
  5
202
330
1F
100
AcDbEntity
  8
0-0
  6
JWW_DASHED1
 62
   120
370
     5
100
AcDbLine
 10
123.4223645988739
 20
600.2266611834859
 30
0.0
 11
373.4223645988784
 21
850.2266611834909
 31
0.0
  0
LINE
  5
203
330
1F
100
AcDbEntity
  8
0-0
  6
JWW_DASHED1
 62
   120
370
     5
100
AcDbLine
 10
-216.5776354011341
 20
267.297728995345
 30
0.0
 11
33.42236459887217
 21
517.2977289953521
 31
0.0
  0
LINE
  5
204
330
1F
100
AcDbEntity
  8
0-0
  6
JWW_DASHED1
 62
   120
370
     5
100
AcDbLine
 10
123.4223645988807
 20
607.2977289953594
 30
0.0
 11
373.4223645988716
 21
857.2977289953511
 31
0.0
  0
LINE
  5
205
330
1F
100
AcDbEntity
  8
0-0
  6
JWW_DASHED1
 62
   120
370
     5
100
AcDbLine
 10
-216.5776354011238
 20
274.3687968072215
 30
0.0
 11
33.4223645988824
 21
524.3687968072286
 31
0.0
  0
LINE
  5
206
330
1F
100
AcDbEntity
  8
0-0
  6
JWW_DASHED1
 62
   120
370
     5
100
AcDbLine
 10
123.4223645988909
 20
614.3687968072363
 30
0.0
 11
373.4223645988818
 21
864.3687968072272
 31
0.0
  0
LINE
  5
207
330
1F
100
AcDbEntity
  8
0-0
  6
JWW_DASHED1
 62
   120
370
     5
100
AcDbLine
 10
-216.5776354011238
 20
281.4398646190886
 30
0.0
 11
33.4223645988807
 21
531.4398646190936
 31
0.0
  0
LINE
  5
208
330
1F
100
AcDbEntity
  8
0-0
  6
JWW_DASHED1
 62
   120
370
     5
100
AcDbLine
 10
123.4223645988722
 20
621.4398646190841
 30
0.0
 11
373.4223645988767
 21
871.4398646190887
 31
0.0
  0
LINE
  5
209
330
1F
100
AcDbEntity
  8
0-0
  6
JWW_DASHED1
 62
   120
370
     5
100
AcDbLine
 10
-216.5776354011358
 20
288.5109324309433
 30
0.0
 11
33.42236459887047
 21
538.51093243095
 31
0.0
  0
LINE
  5
20A
330
1F
100
AcDbEntity
  8
0-0
  6
JWW_DASHED1
 62
   120
370
     5
100
AcDbLine
 10
123.422364598879
 20
628.5109324309576
 30
0.0
 11
373.4223645988699
 21
878.5109324309494
 31
0.0
  0
LINE
  5
20B
330
1F
100
AcDbEntity
  8
0-0
  6
JWW_DASHED1
 62
   120
370
     5
100
AcDbLine
 10
-216.5776354011255
 20
295.5820002428198
 30
0.0
 11
33.4223645988807
 21
545.5820002428269
 31
0.0
  0
LINE
  5
20C
330
1F
100
AcDbEntity
  8
0-0
  6
JWW_DASHED1
 62
   120
370
     5
100
AcDbLine
 10
123.4223645988892
 20
635.5820002428345
 30
0.0
 11
373.4223645988801
 21
885.5820002428254
 31
0.0
  0
LINE
  5
20D
330
1F
100
AcDbEntity
  8
0-0
  6
JWW_DASHED1
 62
   120
370
     5
100
AcDbLine
 10
-216.5776354011255
 20
302.6530680546865
 30
0.0
 11
33.42236459887899
 21
552.6530680546915
 31
0.0
  0
LINE
  5
20E
330
1F
100
AcDbEntity
  8
0-0
  6
JWW_DASHED1
 62
   120
370
     5
100
AcDbLine
 10
123.4223645988705
 20
642.6530680546821
 30
0.0
 11
373.422364598875
 21
892.6530680546871
 31
0.0
  0
LINE
  5
20F
330
1F
100
AcDbEntity
  8
0-0
  6
JWW_DASHED1
 62
   120
370
     5
100
AcDbLine
 10
-216.5776354011375
 20
309.7241358665416
 30
0.0
 11
33.42236459888581
 21
559.7241358665644
 31
0.0
  0
LINE
  5
210
330
1F
100
AcDbEntity
  8
0-0
  6
JWW_DASHED1
 62
   120
370
     5
100
AcDbLine
 10
123.4223645988773
 20
649.724135866556
 30
0.0
 11
373.4223645988682
 21
899.7241358665477
 31
0.0
  0
LINE
  5
211
330
1F
100
AcDbEntity
  8
0-0
  6
JWW_DASHED1
 62
   120
370
     5
100
AcDbLine
 10
-216.5776354011273
 20
316.7952036784181
 30
0.0
 11
33.42236459887899
 21
566.7952036784252
 31
0.0
  0
LINE
  5
212
330
1F
100
AcDbEntity
  8
0-0
  6
JWW_DASHED1
 62
   120
370
     5
100
AcDbLine
 10
123.4223645988875
 20
656.7952036784329
 30
0.0
 11
373.4223645988784
 21
906.7952036784238
 31
0.0
  0
LINE
  5
213
330
1F
100
AcDbEntity
  8
0-0
  6
JWW_DASHED1
 62
   120
370
     5
100
AcDbLine
 10
-216.5776354011273
 20
323.8662714902848
 30
0.0
 11
33.42236459887729
 21
573.8662714902894
 31
0.0
  0
LINE
  5
214
330
1F
100
AcDbEntity
  8
0-0
  6
JWW_DASHED1
 62
   120
370
     5
100
AcDbLine
 10
123.422364598867
 20
663.8662714902804
 30
0.0
 11
373.4223645988716
 21
913.8662714902849
 31
0.0
  0
LINE
  5
215
330
1F
100
AcDbEntity
  8
0-0
  6
JWW_DASHED1
 62
   120
370
     5
100
AcDbLine
 10
-216.5776354011341
 20
330.9373393021455
 30
0.0
 11
33.42236459888752
 21
580.9373393021663
 31
0.0
  0
LINE
  5
216
330
1F
100
AcDbEntity
  8
0-0
  6
JWW_DASHED1
 62
   120
370
     5
100
AcDbLine
 10
123.4223645988773
 20
670.9373393021568
 30
0.0
 11
373.4223645988665
 21
920.937339302146
 31
0.0
  0
LINE
  5
217
330
1F
100
AcDbEntity
  8
0-0
  6
JWW_DASHED1
 62
   120
370
     5
100
AcDbLine
 10
-216.577635401129
 20
338.0084071140164
 30
0.0
 11
33.42236459887729
 21
588.0084071140235
 31
0.0
  0
LINE
  5
218
330
1F
100
AcDbEntity
  8
0-0
  6
JWW_DASHED1
 62
   120
370
     5
100
AcDbLine
 10
-216.5776354011307
 20
345.0794749258827
 30
0.0
 11
33.42236459887558
 21
595.0794749258876
 31
0.0
  0
LINE
  5
219
330
1F
100
AcDbEntity
  8
0-0
  6
JWW_DASHED1
 62
   120
370
     5
100
AcDbLine
 10
-216.5776354011358
 20
352.1505427377433
 30
0.0
 11
33.42236459888411
 21
602.1505427377637
 31
0.0
  0
LINE
  5
21A
330
1F
100
AcDbEntity
  8
0-0
  6
JWW_DASHED1
 62
   120
370
     5
100
AcDbLine
 10
-216.5776354011341
 20
359.2216105495853
 30
0.0
 11
33.42236459887388
 21
609.2216105495925
 31
0.0
  0
LINE
  5
21B
330
1F
100
AcDbEntity
  8
0-0
  6
JWW_DASHED1
 62
   120
370
     5
100
AcDbLine
 10
-216.5776354011255
 20
366.2926783614323
 30
0.0
 11
33.4223645988807
 21
616.2926783614395
 31
0.0
  0
LINE
  5
21C
330
1F
100
AcDbEntity
  8
0-0
  6
JWW_DASHED1
 62
   120
370
     5
100
AcDbLine
 10
-216.5776354011255
 20
373.3637461732986
 30
0.0
 11
33.42236459887899
 21
623.3637461733031
 31
0.0
  0
LINE
  5
21D
330
1F
100
AcDbEntity
  8
0-0
  6
JWW_DASHED1
 62
   120
370
     5
100
AcDbLine
 10
-216.5776354011375
 20
380.4348139851542
 30
0.0
 11
33.42236459888581
 21
630.4348139851775
 31
0.0
  0
LINE
  5
21E
330
1F
100
AcDbEntity
  8
0-0
  6
JWW_DASHED1
 62
   120
370
     5
100
AcDbLine
 10
-216.5776354011273
 20
387.5058817970306
 30
0.0
 11
33.4223645988807
 21
637.5058817970382
 31
0.0
  0
LINE
  5
21F
330
1F
100
AcDbEntity
  8
0-0
  6
JWW_DASHED1
 62
   120
370
     5
100
AcDbLine
 10
-216.5776354011273
 20
394.5769496088965
 30
0.0
 11
33.42236459887729
 21
644.5769496089015
 31
0.0
  0
LINE
  5
220
330
1F
100
AcDbEntity
  8
0-0
  6
JWW_DASHED1
 62
   120
370
     5
100
AcDbLine
 10
-216.5776354011341
 20
401.6480174207576
 30
0.0
 11
33.42236459888752
 21
651.6480174207784
 31
0.0
  0
LINE
  5
221
330
1F
100
AcDbEntity
  8
0-0
  6
JWW_DASHED1
 62
   120
370
     5
100
AcDbLine
 10
-216.577635401129
 20
408.7190852326289
 30
0.0
 11
33.42236459887729
 21
658.7190852326361
 31
0.0
  0
LINE
  5
222
330
1F
100
AcDbEntity
  8
0-0
  6
JWW_DASHED1
 62
   120
370
     5
100
AcDbLine
 10
-216.5776354011307
 20
415.7901530444948
 30
0.0
 11
33.42236459887388
 21
665.7901530444997
 31
0.0
  0
LINE
  5
223
330
1F
100
AcDbEntity
  8
0-0
  6
JWW_DASHED1
 62
   120
370
     5
100
AcDbLine
 10
-216.5776354011358
 20
422.8612208563554
 30
0.0
 11
33.42236459888411
 21
672.8612208563758
 31
0.0
  0
LINE
  5
224
330
1F
100
AcDbEntity
  8
0-0
  6
JWW_DASHED1
 62
   120
370
     5
100
AcDbLine
 10
-216.5776354011307
 20
429.9322886682277
 30
0.0
 11
33.42236459887729
 21
679.9322886682344
 31
0.0
  0
LINE
  5
225
330
1F
100
AcDbEntity
  8
0-0
  6
JWW_DASHED1
 62
   120
370
     5
100
AcDbLine
 10
-216.5776354011204
 20
437.0033564801041
 30
0.0
 11
33.42236459888581
 21
687.0033564801108
 31
0.0
  0
LINE
  5
226
330
1F
100
AcDbEntity
  8
0-0
  6
JWW_DASHED1
 62
   120
370
     5
100
AcDbLine
 10
-216.5776354011221
 20
444.0744242919696
 30
0.0
 11
33.4223645988824
 21
694.0744242919741
 31
0.0
  0
LINE
  5
227
330
1F
100
AcDbEntity
  8
0-0
  6
JWW_DASHED1
 62
   120
370
     5
100
AcDbLine
 10
-216.5776354011324
 20
451.1454921038252
 30
0.0
 11
33.42236459887388
 21
701.1454921038327
 31
0.0
  0
LINE
  5
228
330
1F
100
AcDbEntity
  8
0-0
  6
JWW_DASHED1
 62
   120
370
     5
100
AcDbLine
 10
-216.5776354011221
 20
458.2165599157024
 30
0.0
 11
33.42236459888411
 21
708.2165599157096
 31
0.0
  0
LINE
  5
229
330
1F
100
AcDbEntity
  8
0-0
  6
JWW_DASHED1
 62
   120
370
     5
100
AcDbLine
 10
-216.5776354011238
 20
465.2876277275674
 30
0.0
 11
33.4223645988807
 21
715.2876277275724
 31
0.0
  0
LINE
  5
22A
330
1F
100
AcDbEntity
  8
0-0
  6
JWW_DASHED1
 62
   120
370
     5
100
AcDbLine
 10
-216.5776354011341
 20
472.3586955394238
 30
0.0
 11
33.42236459887388
 21
722.3586955394314
 31
0.0
  0
LINE
  5
22B
330
1F
100
AcDbEntity
  8
0-0
  6
JWW_DASHED1
 62
   120
370
     5
100
AcDbLine
 10
-216.5776354011238
 20
479.4297633513007
 30
0.0
 11
33.42236459888411
 21
729.4297633513079
 31
0.0
  0
LINE
  5
22C
330
1F
100
AcDbEntity
  8
0-0
  6
JWW_DASHED1
 62
   120
370
     5
100
AcDbLine
 10
-216.5776354011255
 20
486.5008311631657
 30
0.0
 11
33.42236459887899
 21
736.5008311631707
 31
0.0
  0
LINE
  5
22D
330
1F
100
AcDbEntity
  8
0-0
  6
JWW_DASHED1
 62
   120
370
     5
100
AcDbLine
 10
-216.5776354011358
 20
493.5718989750221
 30
0.0
 11
33.42236459888752
 21
743.5718989750451
 31
0.0
  0
LINE
  5
22E
330
1F
100
AcDbEntity
  8
0-0
  6
JWW_DASHED1
 62
   120
370
     5
100
AcDbLine
 10
-216.5776354011255
 20
500.642966786899
 30
0.0
 11
33.4223645988807
 21
750.6429667869057
 31
0.0
  0
LINE
  5
22F
330
1F
100
AcDbEntity
  8
0-0
  6
JWW_DASHED1
 62
   120
370
     5
100
AcDbLine
 10
-216.5776354011273
 20
507.7140345987636
 30
0.0
 11
33.42236459887729
 21
757.7140345987682
 31
0.0
  0
LINE
  5
230
330
1F
100
AcDbEntity
  8
0-0
  6
JWW_DASHED1
 62
   120
370
     5
100
AcDbLine
 10
-216.5776354011375
 20
514.7851024106205
 30
0.0
 11
33.42236459888581
 21
764.7851024106433
 31
0.0
  0
LINE
  5
231
330
1F
100
AcDbEntity
  8
0-0
  6
JWW_DASHED1
 62
   120
370
     5
100
AcDbLine
 10
-216.5776354011273
 20
521.8561702224974
 30
0.0
 11
33.42236459887899
 21
771.856170222504
 31
0.0
  0
LINE
  5
232
330
1F
100
AcDbEntity
  8
0-0
  6
JWW_DASHED1
 62
   120
370
     5
100
AcDbLine
 10
-216.577635401129
 20
528.927238034362
 30
0.0
 11
33.42236459887558
 21
778.9272380343664
 31
0.0
  0
LINE
  5
233
330
1F
100
AcDbEntity
  8
0-0
  6
JWW_DASHED1
 62
   120
370
     5
100
AcDbLine
 10
-216.5776354011358
 20
535.9983058462226
 30
0.0
 11
33.42236459888581
 21
785.9983058462433
 31
0.0
  0
LINE
  5
234
330
1F
100
AcDbEntity
  8
0-0
  6
JWW_DASHED1
 62
   120
370
     5
100
AcDbLine
 10
-216.577635401129
 20
543.0693736580957
 30
0.0
 11
33.42236459887729
 21
793.0693736581028
 31
0.0
  0
LINE
  5
235
330
1F
100
AcDbEntity
  8
0-0
  6
JWW_DASHED1
 62
   120
370
     5
100
AcDbLine
 10
-216.5776354011187
 20
550.1404414699721
 30
0.0
 11
33.42236459888752
 21
800.1404414699792
 31
0.0
  0
LINE
  5
236
330
1F
100
AcDbEntity
  8
0-0
  6
JWW_DASHED1
 62
   120
370
     5
100
AcDbLine
 10
-216.5776354011375
 20
557.2115092818209
 30
0.0
 11
33.4223645988824
 21
807.2115092818412
 31
0.0
  0
LINE
  5
237
330
1F
100
AcDbEntity
  8
0-0
  6
JWW_DASHED1
 62
   120
370
     5
100
AcDbLine
 10
-216.5776354011307
 20
564.2825770936936
 30
0.0
 11
33.42236459887558
 21
814.2825770937006
 31
0.0
  0
LINE
  5
238
330
1F
100
AcDbEntity
  8
0-0
  6
JWW_DASHED1
 62
   120
370
     5
100
AcDbLine
 10
-216.5776354011204
 20
571.3536449055705
 30
0.0
 11
33.42236459888581
 21
821.3536449055775
 31
0.0
  0
LINE
  5
239
330
1F
100
AcDbEntity
  8
0-0
  6
JWW_DASHED1
 62
   120
370
     5
100
AcDbLine
 10
-216.5776354011238
 20
578.4247127174345
 30
0.0
 11
33.4223645988807
 21
828.4247127174391
 31
0.0
  0
LINE
  5
23A
330
1F
100
AcDbEntity
  8
0-0
  6
JWW_DASHED1
 62
   120
370
     5
100
AcDbLine
 10
-216.5776354011324
 20
585.4957805292923
 30
0.0
 11
33.42236459887388
 21
835.4957805292989
 31
0.0
  0
LINE
  5
23B
330
1F
100
AcDbEntity
  8
0-0
  6
JWW_DASHED1
 62
   120
370
     5
100
AcDbLine
 10
-216.5776354011221
 20
592.5668483411687
 30
0.0
 11
33.42236459888411
 21
842.5668483411758
 31
0.0
  0
LINE
  5
23C
330
1F
100
AcDbEntity
  8
0-0
  6
JWW_DASHED1
 62
   120
370
     5
100
AcDbLine
 10
-216.5776354011255
 20
599.6379161530325
 30
0.0
 11
33.42236459887899
 21
849.6379161530374
 31
0.0
  0
LINE
  5
23D
330
1F
100
AcDbEntity
  8
0-0
  6
JWW_DASHED1
 62
   120
370
     5
100
AcDbLine
 10
-216.5776354011341
 20
606.7089839648906
 30
0.0
 11
33.42236459887217
 21
856.7089839648972
 31
0.0
  0
LINE
  5
23E
330
1F
100
AcDbEntity
  8
0-0
  6
JWW_DASHED1
 62
   120
370
     5
100
AcDbLine
 10
-216.5776354011238
 20
613.7800517767671
 30
0.0
 11
33.4223645988824
 21
863.7800517767741
 31
0.0
  0
LINE
  5
23F
330
1F
100
AcDbEntity
  8
0-0
  6
JWW_DASHED1
 62
   120
370
     5
100
AcDbLine
 10
-216.5776354011273
 20
620.8511195886308
 30
0.0
 11
33.42236459887729
 21
870.8511195886354
 31
0.0
  0
LINE
  5
240
330
1F
100
AcDbEntity
  8
0-0
  6
JWW_DASHED1
 62
   120
370
     5
100
AcDbLine
 10
-216.5776354011358
 20
627.9221874004884
 30
0.0
 11
33.42236459888752
 21
877.9221874005113
 31
0.0
  0
LINE
  5
241
330
1F
100
AcDbEntity
  8
0-0
  6
JWW_DASHED1
 62
   120
370
     5
100
AcDbLine
 10
-216.5776354011255
 20
634.9932552123653
 30
0.0
 11
33.4223645988807
 21
884.9932552123724
 31
0.0
  0
LINE
  5
242
330
1F
100
AcDbEntity
  8
0-0
  6
JWW_DASHED1
 62
   120
370
     5
100
AcDbLine
 10
-216.577635401129
 20
642.0643230242285
 30
0.0
 11
33.42236459887558
 21
892.0643230242331
 31
0.0
  0
LINE
  5
243
330
1F
100
AcDbEntity
  8
0-0
  6
JWW_DASHED1
 62
   120
370
     5
100
AcDbLine
 10
-216.5776354011358
 20
649.1353908360898
 30
0.0
 11
33.42236459888581
 21
899.13539083611
 31
0.0
  0
LINE
  5
244
330
1F
100
AcDbEntity
  8
0-0
  6
JWW_DASHED1
 62
   120
370
     5
100
AcDbLine
 10
-216.5776354011273
 20
656.2064586479637
 30
0.0
 11
33.42236459887899
 21
906.2064586479707
 31
0.0
  0
LINE
  5
245
330
1F
100
AcDbEntity
  8
0-0
  6
JWW_DASHED1
 62
   120
370
     5
100
AcDbLine
 10
-216.5776354011307
 20
663.277526459827
 30
0.0
 11
33.42236459887388
 21
913.2775264598315
 31
0.0
  0
LINE
  5
246
330
1F
100
AcDbEntity
  8
0-0
  6
JWW_DASHED1
 62
   120
370
     5
100
AcDbLine
 10
-216.5776354011375
 20
670.3485942716876
 30
0.0
 11
33.42236459888411
 21
920.3485942717084
 31
0.0
  0
LINE
  5
247
330
1F
100
AcDbEntity
  8
0-0
  6
JWW_DASHED1
 62
   120
370
     5
100
AcDbLine
 10
-216.577635401129
 20
677.4196620835619
 30
0.0
 11
33.42236459887729
 21
927.419662083569
 31
0.0
  0
LINE
  5
248
330
1F
100
AcDbEntity
  8
0-0
  6
JWW_DASHED1
 62
   120
370
     5
100
AcDbLine
 10
123.4223645988858
 20
678.0084071140311
 30
0.0
 11
373.401503321008
 21
927.987545836153
 31
0.0
  0
LINE
  5
249
330
1F
100
AcDbEntity
  8
0-0
  6
JWW_DASHED1
 62
   120
370
     5
100
AcDbLine
 10
123.4223645988824
 20
685.0794749258944
 30
0.0
 11
366.3304355091414
 21
927.987545836153
 31
0.0
  0
LINE
  5
24A
330
1F
100
AcDbEntity
  8
0-0
  6
JWW_DASHED1
 62
   120
370
     5
100
AcDbLine
 10
123.4223645988756
 20
692.1505427377551
 30
0.0
 11
359.259367697273
 21
927.987545836153
 31
0.0
  0
LINE
  5
24B
330
1F
100
AcDbEntity
  8
0-0
  6
JWW_DASHED1
 62
   120
370
     5
100
AcDbLine
 10
123.4223645988807
 20
699.2216105495996
 30
0.0
 11
352.1882998854353
 21
927.987545836153
 31
0.0
  0
LINE
  5
24C
330
1F
100
AcDbEntity
  8
0-0
  6
JWW_DASHED1
 62
   120
370
     5
100
AcDbLine
 10
123.4223645988892
 20
706.2926783614472
 30
0.0
 11
345.1172320735959
 21
927.987545836153
 31
0.0
  0
LINE
  5
24D
330
1F
100
AcDbEntity
  8
0-0
  6
JWW_DASHED1
 62
   120
370
     5
100
AcDbLine
 10
123.4223645988688
 20
713.3637461732942
 30
0.0
 11
338.0461642617292
 21
927.987545836153
 31
0.0
  0
LINE
  5
24E
330
1F
100
AcDbEntity
  8
0-0
  6
JWW_DASHED1
 62
   120
370
     5
100
AcDbLine
 10
123.4223645988773
 20
720.4348139851686
 30
0.0
 11
330.9750964498609
 21
927.987545836153
 31
0.0
  0
LINE
  5
24F
330
1F
100
AcDbEntity
  8
0-0
  6
JWW_DASHED1
 62
   120
370
     5
100
AcDbLine
 10
123.4223645988875
 20
727.505881797045
 30
0.0
 11
323.9040286379959
 21
927.987545836153
 31
0.0
  0
LINE
  5
250
330
1F
100
AcDbEntity
  8
0-0
  6
JWW_DASHED1
 62
   120
370
     5
100
AcDbLine
 10
123.422364598867
 20
734.576949608892
 30
0.0
 11
316.8329608261292
 21
927.987545836153
 31
0.0
  0
LINE
  5
251
330
1F
100
AcDbEntity
  8
0-0
  6
JWW_DASHED1
 62
   120
370
     5
100
AcDbLine
 10
123.4223645988773
 20
741.648017420769
 30
0.0
 11
309.7618930142609
 21
927.987545836153
 31
0.0
  0
LINE
  5
252
330
1F
100
AcDbEntity
  8
0-0
  6
JWW_DASHED1
 62
   120
370
     5
100
AcDbLine
 10
123.4223645988858
 20
748.7190852326432
 30
0.0
 11
302.6908252023959
 21
927.987545836153
 31
0.0
  0
LINE
  5
253
330
1F
100
AcDbEntity
  8
0-0
  6
JWW_DASHED1
 62
   120
370
     5
100
AcDbLine
 10
123.4223645988807
 20
755.7901530445062
 30
0.0
 11
295.6197573905292
 21
927.987545836153
 31
0.0
  0
LINE
  5
254
330
1F
100
AcDbEntity
  8
0-0
  6
JWW_DASHED1
 62
   120
370
     5
100
AcDbLine
 10
123.4223645988756
 20
762.8612208563673
 30
0.0
 11
288.5486895786626
 21
927.987545836153
 31
0.0
  0
LINE
  5
255
330
1F
100
AcDbEntity
  8
0-0
  6
JWW_DASHED1
 62
   120
370
     5
100
AcDbLine
 10
123.4223645988841
 20
769.9322886682417
 30
0.0
 11
281.4776217667959
 21
927.987545836153
 31
0.0
  0
LINE
  5
256
330
1F
100
AcDbEntity
  8
0-0
  6
JWW_DASHED1
 62
   120
370
     5
100
AcDbLine
 10
123.4223645988943
 20
777.0033564801186
 30
0.0
 11
274.4065539549275
 21
927.987545836153
 31
0.0
  0
LINE
  5
257
330
1F
100
AcDbEntity
  8
0-0
  6
JWW_DASHED1
 62
   120
370
     5
100
AcDbLine
 10
123.4223645988739
 20
784.0744242919648
 30
0.0
 11
267.3354861430626
 21
927.987545836153
 31
0.0
  0
LINE
  5
258
330
1F
100
AcDbEntity
  8
0-0
  6
JWW_DASHED1
 62
   120
370
     5
100
AcDbLine
 10
123.4223645988824
 20
791.1454921038404
 30
0.0
 11
260.2644183311959
 21
927.987545836153
 31
0.0
  0
LINE
  5
259
330
1F
100
AcDbEntity
  8
0-0
  6
JWW_DASHED1
 62
   120
370
     5
100
AcDbLine
 10
123.4223645988926
 20
798.2165599157167
 30
0.0
 11
253.1933505193292
 21
927.987545836153
 31
0.0
  0
LINE
  5
25A
330
1F
100
AcDbEntity
  8
0-0
  6
JWW_DASHED1
 62
   120
370
     5
100
AcDbLine
 10
123.4223645988722
 20
805.287627727563
 30
0.0
 11
246.1222827074608
 21
927.987545836153
 31
0.0
  0
LINE
  5
25B
330
1F
100
AcDbEntity
  8
0-0
  6
JWW_DASHED1
 62
   120
370
     5
100
AcDbLine
 10
123.4223645988807
 20
812.3586955394383
 30
0.0
 11
239.0512148955959
 21
927.987545836153
 31
0.0
  0
LINE
  5
25C
330
1F
100
AcDbEntity
  8
0-0
  6
JWW_DASHED1
 62
   120
370
     5
100
AcDbLine
 10
123.4223645988909
 20
819.4297633513152
 30
0.0
 11
231.9801470837292
 21
927.987545836153
 31
0.0
  0
LINE
  5
25D
330
1F
100
AcDbEntity
  8
0-0
  6
JWW_DASHED1
 62
   120
370
     5
100
AcDbLine
 10
123.4223645988705
 20
826.5008311631614
 30
0.0
 11
224.9090792718625
 21
927.987545836153
 31
0.0
  0
LINE
  5
25E
330
1F
100
AcDbEntity
  8
0-0
  6
JWW_DASHED1
 62
   120
370
     5
100
AcDbLine
 10
123.422364598879
 20
833.5718989750364
 30
0.0
 11
217.8380114599959
 21
927.987545836153
 31
0.0
  0
LINE
  5
25F
330
1F
100
AcDbEntity
  8
0-0
  6
JWW_DASHED1
 62
   120
370
     5
100
AcDbLine
 10
123.4223645988892
 20
840.6429667869133
 30
0.0
 11
210.7669436481292
 21
927.987545836153
 31
0.0
  0
LINE
  5
260
330
1F
100
AcDbEntity
  8
0-0
  6
JWW_DASHED1
 62
   120
370
     5
100
AcDbLine
 10
123.4223645988688
 20
847.7140345987596
 30
0.0
 11
203.6958758362625
 21
927.987545836153
 31
0.0
  0
LINE
  5
261
330
1F
100
AcDbEntity
  8
0-0
  6
JWW_DASHED1
 62
   120
370
     5
100
AcDbLine
 10
123.4223645988773
 20
854.7851024106353
 30
0.0
 11
196.6248080243959
 21
927.987545836153
 31
0.0
  0
LINE
  5
262
330
1F
100
AcDbEntity
  8
0-0
  6
JWW_DASHED1
 62
   120
370
     5
100
AcDbLine
 10
123.4223645988875
 20
861.8561702225118
 30
0.0
 11
189.5537402125292
 21
927.987545836153
 31
0.0
  0
LINE
  5
263
330
1F
100
AcDbEntity
  8
0-0
  6
JWW_DASHED1
 62
   120
370
     5
100
AcDbLine
 10
123.4223645988653
 20
868.9272380343571
 30
0.0
 11
182.4826724006608
 21
927.987545836153
 31
0.0
  0
LINE
  5
264
330
1F
100
AcDbEntity
  8
0-0
  6
JWW_DASHED1
 62
   120
370
     5
100
AcDbLine
 10
123.4223645988756
 20
875.998305846234
 30
0.0
 11
175.4116045887959
 21
927.987545836153
 31
0.0
  0
LINE
  5
265
330
1F
100
AcDbEntity
  8
0-0
  6
JWW_DASHED1
 62
   120
370
     5
100
AcDbLine
 10
123.4223645988858
 20
883.06937365811
 30
0.0
 11
168.3405367769292
 21
927.987545836153
 31
0.0
  0
LINE
  5
266
330
1F
100
AcDbEntity
  8
0-0
  6
JWW_DASHED1
 62
   120
370
     5
100
AcDbLine
 10
123.4223645988943
 20
890.1404414699865
 30
0.0
 11
161.2694689650625
 21
927.987545836153
 31
0.0
  0
LINE
  5
267
330
1F
100
AcDbEntity
  8
0-0
  6
JWW_DASHED1
 62
   120
370
     5
100
AcDbLine
 10
123.4223645988739
 20
897.2115092818319
 30
0.0
 11
154.1984011531942
 21
927.987545836153
 31
0.0
  0
LINE
  5
268
330
1F
100
AcDbEntity
  8
0-0
  6
JWW_DASHED1
 62
   120
370
     5
100
AcDbLine
 10
123.4223645988841
 20
904.2825770937084
 30
0.0
 11
147.1273333413292
 21
927.987545836153
 31
0.0
  0
LINE
  5
269
330
1F
100
AcDbEntity
  8
0-0
  6
JWW_DASHED1
 62
   120
370
     5
100
AcDbLine
 10
123.4223645988943
 20
911.3536449055848
 30
0.0
 11
140.0562655294625
 21
927.987545836153
 31
0.0
  0
LINE
  5
26A
330
1F
100
AcDbEntity
  8
0-0
  6
JWW_DASHED1
 62
   120
370
     5
100
AcDbLine
 10
123.4223645988722
 20
918.4247127174302
 30
0.0
 11
132.9851977175959
 21
927.987545836153
 31
0.0
  0
LINE
  5
26B
330
1F
100
AcDbEntity
  8
0-0
  6
JWW_DASHED1
 62
   120
370
     5
100
AcDbLine
 10
123.4223645988824
 20
925.4957805293066
 30
0.0
 11
125.9141299057292
 21
927.987545836153
 31
0.0
  0
LINE
  5
26C
330
1F
100
AcDbEntity
  8
0-0
  6
JWW_DASHED1
 62
   120
370
     5
100
AcDbLine
 10
-216.5776354011187
 20
684.4907298954388
 30
0.0
 11
26.91918053959412
 21
927.987545836153
 31
0.0
  0
LINE
  5
26D
330
1F
100
AcDbEntity
  8
0-0
  6
JWW_DASHED1
 62
   120
370
     5
100
AcDbLine
 10
-216.5776354011238
 20
691.5617977073017
 30
0.0
 11
19.84811272772745
 21
927.987545836153
 31
0.0
  0
LINE
  5
26E
330
1F
100
AcDbEntity
  8
0-0
  6
JWW_DASHED1
 62
   120
370
     5
100
AcDbLine
 10
-216.5776354011307
 20
698.6328655191603
 30
0.0
 11
12.77704491586078
 21
927.987545836153
 31
0.0
  0
LINE
  5
26F
330
1F
100
AcDbEntity
  8
0-0
  6
JWW_DASHED1
 62
   120
370
     5
100
AcDbLine
 10
-216.5776354011221
 20
705.7039333310368
 30
0.0
 11
5.705977103995812
 21
927.987545836153
 31
0.0
  0
LINE
  5
270
330
1F
100
AcDbEntity
  8
0-0
  6
JWW_DASHED1
 62
   120
370
     5
100
AcDbLine
 10
-216.5776354011255
 20
712.7750011428996
 30
0.0
 11
-1.365090707870857
 21
927.987545836153
 31
0.0
  0
LINE
  5
271
330
1F
100
AcDbEntity
  8
0-0
  6
JWW_DASHED1
 62
   120
370
     5
100
AcDbLine
 10
-216.5776354011324
 20
719.8460689547585
 30
0.0
 11
-8.436158519737527
 21
927.987545836153
 31
0.0
  0
LINE
  5
272
330
1F
100
AcDbEntity
  8
0-0
  6
JWW_DASHED1
 62
   120
370
     5
100
AcDbLine
 10
-216.5776354011238
 20
726.917136766635
 30
0.0
 11
-15.5072263316042
 21
927.987545836153
 31
0.0
  0
LINE
  5
273
330
1F
100
AcDbEntity
  8
0-0
  6
JWW_DASHED1
 62
   120
370
     5
100
AcDbLine
 10
-216.5776354011273
 20
733.9882045784979
 30
0.0
 11
-22.57829414347086
 21
927.987545836153
 31
0.0
  0
LINE
  5
274
330
1F
100
AcDbEntity
  8
0-0
  6
JWW_DASHED1
 62
   120
370
     5
100
AcDbLine
 10
-216.5776354011341
 20
741.0592723903569
 30
0.0
 11
-29.64936195533753
 21
927.987545836153
 31
0.0
  0
LINE
  5
275
330
1F
100
AcDbEntity
  8
0-0
  6
JWW_DASHED1
 62
   120
370
     5
100
AcDbLine
 10
-216.5776354011273
 20
748.1303402022039
 30
0.0
 11
-36.72042976717692
 21
927.987545836153
 31
0.0
  0
LINE
  5
276
330
1F
100
AcDbEntity
  8
0-0
  6
JWW_DASHED1
 62
   120
370
     5
100
AcDbLine
 10
-216.5776354011187
 20
755.2014080140509
 30
0.0
 11
-43.79149757901801
 21
927.987545836153
 31
0.0
  0
LINE
  5
277
330
1F
100
AcDbEntity
  8
0-0
  6
JWW_DASHED1
 62
   120
370
     5
100
AcDbLine
 10
-216.5776354011392
 20
762.2724758258977
 30
0.0
 11
-50.86256539088297
 21
927.987545836153
 31
0.0
  0
LINE
  5
278
330
1F
100
AcDbEntity
  8
0-0
  6
JWW_DASHED1
 62
   120
370
     5
100
AcDbLine
 10
-216.5776354011307
 20
769.3435436377729
 30
0.0
 11
-57.93363320274964
 21
927.987545836153
 31
0.0
  0
LINE
  5
279
330
1F
100
AcDbEntity
  8
0-0
  6
JWW_DASHED1
 62
   120
370
     5
100
AcDbLine
 10
-216.5776354011204
 20
776.4146114496493
 30
0.0
 11
-65.00470101461632
 21
927.987545836153
 31
0.0
  0
LINE
  5
27A
330
1F
100
AcDbEntity
  8
0-0
  6
JWW_DASHED1
 62
   120
370
     5
100
AcDbLine
 10
-216.5776354011255
 20
783.4856792615117
 30
0.0
 11
-72.07576882648299
 21
927.987545836153
 31
0.0
  0
LINE
  5
27B
330
1F
100
AcDbEntity
  8
0-0
  6
JWW_DASHED1
 62
   120
370
     5
100
AcDbLine
 10
-216.5776354011324
 20
790.5567470733712
 30
0.0
 11
-79.14683663834965
 21
927.987545836153
 31
0.0
  0
LINE
  5
27C
330
1F
100
AcDbEntity
  8
0-0
  6
JWW_DASHED1
 62
   120
370
     5
100
AcDbLine
 10
-216.5776354011221
 20
797.6278148852475
 30
0.0
 11
-86.21790445021632
 21
927.987545836153
 31
0.0
  0
LINE
  5
27D
330
1F
100
AcDbEntity
  8
0-0
  6
JWW_DASHED1
 62
   120
370
     5
100
AcDbLine
 10
-216.5776354011273
 20
804.69888269711
 30
0.0
 11
-93.28897226208299
 21
927.987545836153
 31
0.0
  0
LINE
  5
27E
330
1F
100
AcDbEntity
  8
0-0
  6
JWW_DASHED1
 62
   120
370
     5
100
AcDbLine
 10
-216.5776354011341
 20
811.769950508969
 30
0.0
 11
-100.3600400739514
 21
927.987545836153
 31
0.0
  0
LINE
  5
27F
330
1F
100
AcDbEntity
  8
0-0
  6
JWW_DASHED1
 62
   120
370
     5
100
AcDbLine
 10
-216.5776354011238
 20
818.8410183208459
 30
0.0
 11
-107.4311078858163
 21
927.987545836153
 31
0.0
  0
LINE
  5
280
330
1F
100
AcDbEntity
  8
0-0
  6
JWW_DASHED1
 62
   120
370
     5
100
AcDbLine
 10
-216.577635401129
 20
825.9120861327079
 30
0.0
 11
-114.502175697683
 21
927.987545836153
 31
0.0
  0
LINE
  5
281
330
1F
100
AcDbEntity
  8
0-0
  6
JWW_DASHED1
 62
   120
370
     5
100
AcDbLine
 10
-216.5776354011358
 20
832.9831539445678
 30
0.0
 11
-121.5732435095497
 21
927.987545836153
 31
0.0
  0
LINE
  5
282
330
1F
100
AcDbEntity
  8
0-0
  6
JWW_DASHED1
 62
   120
370
     5
100
AcDbLine
 10
-216.5776354011255
 20
840.0542217564441
 30
0.0
 11
-128.644311321418
 21
927.987545836153
 31
0.0
  0
LINE
  5
283
330
1F
100
AcDbEntity
  8
0-0
  6
JWW_DASHED1
 62
   120
370
     5
100
AcDbLine
 10
-216.5776354011307
 20
847.1252895683062
 30
0.0
 11
-135.715379133283
 21
927.987545836153
 31
0.0
  0
LINE
  5
284
330
1F
100
AcDbEntity
  8
0-0
  6
JWW_DASHED1
 62
   120
370
     5
100
AcDbLine
 10
-216.5776354011375
 20
854.1963573801664
 30
0.0
 11
-142.7864469451497
 21
927.987545836153
 31
0.0
  0
LINE
  5
285
330
1F
100
AcDbEntity
  8
0-0
  6
JWW_DASHED1
 62
   120
370
     5
100
AcDbLine
 10
-216.5776354011273
 20
861.2674251920425
 30
0.0
 11
-149.8575147570163
 21
927.987545836153
 31
0.0
  0
LINE
  5
286
330
1F
100
AcDbEntity
  8
0-0
  6
JWW_DASHED1
 62
   120
370
     5
100
AcDbLine
 10
-216.577635401117
 20
868.3384930039194
 30
0.0
 11
-156.928582568883
 21
927.987545836153
 31
0.0
  0
LINE
  5
287
330
1F
100
AcDbEntity
  8
0-0
  6
JWW_DASHED1
 62
   120
370
     5
100
AcDbLine
 10
-216.5776354011392
 20
875.4095608157647
 30
0.0
 11
-163.9996503807497
 21
927.987545836153
 31
0.0
  0
LINE
  5
288
330
1F
100
AcDbEntity
  8
0-0
  6
JWW_DASHED1
 62
   120
370
     5
100
AcDbLine
 10
-216.577635401129
 20
882.4806286276407
 30
0.0
 11
-171.0707181926163
 21
927.987545836153
 31
0.0
  0
LINE
  5
289
330
1F
100
AcDbEntity
  8
0-0
  6
JWW_DASHED1
 62
   120
370
     5
100
AcDbLine
 10
-216.5776354011187
 20
889.5516964395176
 30
0.0
 11
-178.1417860044847
 21
927.987545836153
 31
0.0
  0
LINE
  5
28A
330
1F
100
AcDbEntity
  8
0-0
  6
JWW_DASHED1
 62
   120
370
     5
100
AcDbLine
 10
-216.5776354011255
 20
896.6227642513784
 30
0.0
 11
-185.2128538163514
 21
927.987545836153
 31
0.0
  0
LINE
  5
28B
330
1F
100
AcDbEntity
  8
0-0
  6
JWW_DASHED1
 62
   120
370
     5
100
AcDbLine
 10
-216.5776354011204
 20
910.764899875116
 30
0.0
 11
-199.3549894400847
 21
927.987545836153
 31
0.0
  0
LINE
  5
28C
330
1F
100
AcDbEntity
  8
0-0
  6
JWW_DASHED1
 62
   120
370
     5
100
AcDbLine
 10
-216.5776354011273
 20
917.8359676869767
 30
0.0
 11
-206.4260572519497
 21
927.987545836153
 31
0.0
  0
LINE
  5
28D
330
1F
100
AcDbEntity
  8
0-0
  6
JWW_DASHED1
 62
   120
370
     5
100
AcDbLine
 10
-216.5776354011324
 20
924.9070354988373
 30
0.0
 11
-213.4971250638181
 21
927.987545836153
 31
0.0
  0
LINE
  5
28E
330
1F
100
AcDbEntity
  8
0-0
  6
Continuous
 62
    92
370
    13
100
AcDbLine
 10
373.4223645988784
 20
-920.0124541638468
 30
0.0
 11
373.4223645988784
 21
1062.987545836153
 31
0.0
  0
LINE
  5
28F
330
1F
100
AcDbEntity
  8
0-0
  6
Continuous
 62
    92
370
    13
100
AcDbLine
 10
-216.5776354011204
 20
-920.0124541638468
 30
0.0
 11
-216.5776354011204
 21
1062.987545836153
 31
0.0
  0
LWPOLYLINE
  5
290
330
1F
100
AcDbEntity
  8
寸法
  6
Continuous
 62
     7
370
     9
100
AcDbPolyline
 90
        4
 70
     1
 43
3.0
 10
-1582.077635401122
 20
-928.2943960370161
 42
0.4142135623731
 10
-1583.577635401122
 20
-926.794396037016
 42
0.4142135623731
 10
-1585.077635401122
 20
-928.2943960370161
 42
0.4142135623731
 10
-1583.577635401122
 20
-929.7943960370161
 42
0.4142135623731
  0
LINE
  5
291
330
1F
100
AcDbEntity
  8
寸法
  6
Continuous
 62
   120
370
     5
100
AcDbLine
 10
-1583.577635401122
 20
-928.2943960370161
 30
0.0
 11
-1183.577635401123
 21
-928.2943960370161
 31
0.0
  0
LINE
  5
292
330
1F
100
AcDbEntity
  8
寸法
  6
Continuous
 62
   120
370
     5
100
AcDbLine
 10
480.4223645988791
 20
-1378.294396037016
 30
0.0
 11
480.4223645988791
 21
-978.2943960370159
 31
0.0
  0
LINE
  5
293
330
1F
100
AcDbEntity
  8
寸法
  6
Continuous
 62
   120
370
     5
100
AcDbLine
 10
510.4223645988791
 20
-1578.294396037016
 30
0.0
 11
510.4223645988791
 21
-978.2943960370159
 31
0.0
  0
LINE
  5
294
330
1F
100
AcDbEntity
  8
寸法
  6
Continuous
 62
   120
370
     5
100
AcDbLine
 10
480.4223645988791
 20
-1378.294396037016
 30
0.0
 11
-1103.577635401122
 21
-1378.294396037016
 31
0.0
  0
LINE
  5
295
330
1F
100
AcDbEntity
  8
寸法
  6
Continuous
 62
   120
370
     5
100
AcDbLine
 10
-1103.577635401122
 20
-1378.294396037016
 30
0.0
 11
-1103.577635401122
 21
-978.2943960370159
 31
0.0
  0
LINE
  5
296
330
1F
100
AcDbEntity
  8
寸法
  6
Continuous
 62
   120
370
     5
100
AcDbLine
 10
510.4223645988791
 20
-1578.294396037016
 30
0.0
 11
-1133.577635401122
 21
-1578.294396037016
 31
0.0
  0
LINE
  5
297
330
1F
100
AcDbEntity
  8
寸法
  6
Continuous
 62
   120
370
     5
100
AcDbLine
 10
-1133.577635401122
 20
-1578.294396037016
 30
0.0
 11
-1133.577635401122
 21
-978.2943960370159
 31
0.0
  0
LINE
  5
298
330
1F
100
AcDbEntity
  8
寸法
  6
Continuous
 62
   120
370
     5
100
AcDbLine
 10
-326.577635401121
 20
-1178.294396037016
 30
0.0
 11
-326.577635401121
 21
-978.2943960370159
 31
0.0
  0
LINE
  5
299
330
1F
100
AcDbEntity
  8
寸法
  6
Continuous
 62
   120
370
     5
100
AcDbLine
 10
483.422364598879
 20
-1178.294396037016
 30
0.0
 11
483.422364598879
 21
-978.2943960370159
 31
0.0
  0
LINE
  5
29A
330
1F
100
AcDbEntity
  8
寸法
  6
Continuous
 62
   120
370
     5
100
AcDbLine
 10
483.422364598879
 20
-1178.294396037016
 30
0.0
 11
-326.577635401121
 21
-1178.294396037016
 31
0.0
  0
LWPOLYLINE
  5
29B
330
1F
100
AcDbEntity
  8
寸法
  6
Continuous
 62
     7
370
     9
100
AcDbPolyline
 90
        4
 70
     1
 43
3.0
 10
481.9223645988791
 20
-1378.294396037016
 42
0.4142135623731
 10
480.4223645988791
 20
-1376.794396037016
 42
0.4142135623731
 10
478.9223645988791
 20
-1378.294396037016
 42
0.4142135623731
 10
480.4223645988791
 20
-1379.794396037016
 42
0.4142135623731
  0
LWPOLYLINE
  5
29C
330
1F
100
AcDbEntity
  8
寸法
  6
Continuous
 62
     7
370
     9
100
AcDbPolyline
 90
        4
 70
     1
 43
3.0
 10
511.9223645988791
 20
-1578.294396037016
 42
0.4142135623731
 10
510.4223645988791
 20
-1576.794396037016
 42
0.4142135623731
 10
508.9223645988791
 20
-1578.294396037016
 42
0.4142135623731
 10
510.4223645988791
 20
-1579.794396037016
 42
0.4142135623731
  0
LWPOLYLINE
  5
29D
330
1F
100
AcDbEntity
  8
寸法
  6
Continuous
 62
     7
370
     9
100
AcDbPolyline
 90
        4
 70
     1
 43
3.0
 10
-1102.077635401122
 20
-1378.294396037016
 42
0.4142135623731
 10
-1103.577635401122
 20
-1376.794396037016
 42
0.4142135623731
 10
-1105.077635401122
 20
-1378.294396037016
 42
0.4142135623731
 10
-1103.577635401122
 20
-1379.794396037016
 42
0.4142135623731
  0
LWPOLYLINE
  5
29E
330
1F
100
AcDbEntity
  8
寸法
  6
Continuous
 62
     7
370
     9
100
AcDbPolyline
 90
        4
 70
     1
 43
3.0
 10
-1132.077635401122
 20
-1578.294396037016
 42
0.4142135623731
 10
-1133.577635401122
 20
-1576.794396037016
 42
0.4142135623731
 10
-1135.077635401122
 20
-1578.294396037016
 42
0.4142135623731
 10
-1133.577635401122
 20
-1579.794396037016
 42
0.4142135623731
  0
LWPOLYLINE
  5
29F
330
1F
100
AcDbEntity
  8
寸法
  6
Continuous
 62
     7
370
     9
100
AcDbPolyline
 90
        4
 70
     1
 43
3.0
 10
-325.077635401121
 20
-1178.294396037016
 42
0.4142135623731
 10
-326.577635401121
 20
-1176.794396037016
 42
0.4142135623731
 10
-328.077635401121
 20
-1178.294396037016
 42
0.4142135623731
 10
-326.577635401121
 20
-1179.794396037016
 42
0.4142135623731
  0
LWPOLYLINE
  5
2A0
330
1F
100
AcDbEntity
  8
寸法
  6
Continuous
 62
     7
370
     9
100
AcDbPolyline
 90
        4
 70
     1
 43
3.0
 10
484.922364598879
 20
-1178.294396037016
 42
0.4142135623731
 10
483.422364598879
 20
-1176.794396037016
 42
0.4142135623731
 10
481.922364598879
 20
-1178.294396037016
 42
0.4142135623731
 10
483.422364598879
 20
-1179.794396037016
 42
0.4142135623731
  0
LWPOLYLINE
  5
2A1
330
1F
100
AcDbEntity
  8
寸法
  6
Continuous
 62
     7
370
     9
100
AcDbPolyline
 90
        4
 70
     1
 43
3.0
 10
-1382.077635401123
 20
-919.7943960370161
 42
0.4142135623731
 10
-1383.577635401123
 20
-918.2943960370161
 42
0.4142135623731
 10
-1385.077635401123
 20
-919.7943960370161
 42
0.4142135623731
 10
-1383.577635401123
 20
-921.2943960370161
 42
0.4142135623731
  0
LINE
  5
2A2
330
1F
100
AcDbEntity
  8
寸法
  6
Continuous
 62
   120
370
     5
100
AcDbLine
 10
-1383.577635401123
 20
1063.205603962984
 30
0.0
 11
-1383.577635401123
 21
-919.7943960370161
 31
0.0
  0
LWPOLYLINE
  5
2A3
330
1F
100
AcDbEntity
  8
寸法
  6
Continuous
 62
     7
370
     9
100
AcDbPolyline
 90
        4
 70
     1
 43
3.0
 10
-1382.077635401123
 20
1063.205603962984
 42
0.4142135623731
 10
-1383.577635401123
 20
1064.705603962984
 42
0.4142135623731
 10
-1385.077635401123
 20
1063.205603962984
 42
0.4142135623731
 10
-1383.577635401123
 20
1061.705603962984
 42
0.4142135623731
  0
LINE
  5
2A4
330
1F
100
AcDbEntity
  8
寸法
  6
Continuous
 62
   120
370
     5
100
AcDbLine
 10
-1383.577635401123
 20
-919.7943960370161
 30
0.0
 11
-1183.577635401123
 21
-919.7943960370161
 31
0.0
  0
LINE
  5
2A5
330
1F
100
AcDbEntity
  8
寸法
  6
Continuous
 62
   120
370
     5
100
AcDbLine
 10
-1383.577635401123
 20
1063.205603962984
 30
0.0
 11
-1183.577635401123
 21
1063.205603962984
 31
0.0
  0
LINE
  5
2A6
330
1F
100
AcDbEntity
  8
寸法
  6
Continuous
 62
   120
370
     5
100
AcDbLine
 10
-1583.577635401122
 20
1106.705603962983
 30
0.0
 11
-1583.577635401122
 21
-928.2943960370161
 31
0.0
  0
LWPOLYLINE
  5
2A7
330
1F
100
AcDbEntity
  8
寸法
  6
Continuous
 62
     7
370
     9
100
AcDbPolyline
 90
        4
 70
     1
 43
3.0
 10
-1582.077635401122
 20
1106.705603962983
 42
0.4142135623731
 10
-1583.577635401122
 20
1108.205603962983
 42
0.4142135623731
 10
-1585.077635401122
 20
1106.705603962983
 42
0.4142135623731
 10
-1583.577635401122
 20
1105.205603962983
 42
0.4142135623731
  0
LINE
  5
2A8
330
1F
100
AcDbEntity
  8
寸法
  6
Continuous
 62
   120
370
     5
100
AcDbLine
 10
-1583.577635401122
 20
1106.705603962983
 30
0.0
 11
-1183.577635401123
 21
1106.705603962983
 31
0.0
  0
MTEXT
  5
2A9
330
1F
100
AcDbEntity
  8
寸法
  6
Continuous
 62
     7
370
    70
100
AcDbMText
 10
-1598.577635401122
 20
-143.4693960370166
 30
0.0
 40
57.14999999999999
 41
412.5
 46
0.0
 71
     7
 72
     1
  1
{\fＭＳ ゴシック|b0|i0|c128|p49;枠外＝2,035}
 11
6.123031769111886E-17
 21
1.0
 31
0.0
 73
     1
 44
1.0
  0
MTEXT
  5
2AA
330
1F
100
AcDbEntity
  8
寸法
  6
Continuous
 62
     7
370
    70
100
AcDbMText
 10
-1398.577635401123
 20
-143.4693960370166
 30
0.0
 40
57.14999999999999
 41
412.5
 46
0.0
 71
     7
 72
     1
  1
{\fＭＳ ゴシック|b0|i0|c128|p49;ＤＨ＝1,983}
 11
6.123031769111886E-17
 21
1.0
 31
0.0
 73
     1
 44
1.0
  0
MTEXT
  5
2AB
330
1F
100
AcDbEntity
  8
寸法
  6
Continuous
 62
     7
370
   211
100
AcDbMText
 10
-90.32763540112101
 20
-1172.219396037016
 30
0.0
 40
57.15
 41
337.5
 46
0.0
 71
     7
 72
     1
  1
{\fＭＳ ゴシック|b0|i0|c128|p49;ＤＷ＝810}
 73
     1
 44
1.0
  0
MTEXT
  5
2AC
330
1F
100
AcDbEntity
  8
寸法
  6
Continuous
 62
     7
370
   211
100
AcDbMText
 10
-517.8276354011227
 20
-1372.219396037016
 30
0.0
 40
57.14999999999999
 41
412.5
 46
0.0
 71
     7
 72
     1
  1
{\fＭＳ ゴシック|b0|i0|c128|p49;枠内＝1,584}
 73
     1
 44
1.0
  0
MTEXT
  5
2AD
330
1F
100
AcDbEntity
  8
寸法
  6
Continuous
 62
     7
370
   211
100
AcDbMText
 10
-517.8276354011227
 20
-1572.219396037016
 30
0.0
 40
57.14999999999999
 41
412.5
 46
0.0
 71
     7
 72
     1
  1
{\fＭＳ ゴシック|b0|i0|c128|p49;枠外＝1,644}
 73
     1
 44
1.0
  0
ENDSEC
  0
SECTION
  2
OBJECTS
  0
DICTIONARY
  5
C
330
0
100
AcDbDictionary
281
     1
  3
ACAD_GROUP
350
D
  3
ACAD_LAYOUT
350
1A
  3
ACAD_MATERIAL
350
3B
  3
ACAD_MLEADERSTYLE
350
2AF
  3
ACAD_MLINESTYLE
350
17
  3
ACAD_PLOTSETTINGS
350
19
  3
ACAD_PLOTSTYLENAME
350
E
  3
ACAD_TABLESTYLE
350
2AE
  3
ACAD_VISUALSTYLE
350
2A
  0
DICTIONARY
  5
D
102
{ACAD_REACTORS
330
C
102
}
330
C
100
AcDbDictionary
281
     1
  0
DICTIONARY
  5
1A
102
{ACAD_REACTORS
330
C
102
}
330
C
100
AcDbDictionary
281
     1
  3
Layout1
350
1E
  3
Layout2
350
26
  3
Model
350
22
  0
DICTIONARY
  5
3B
102
{ACAD_REACTORS
330
C
102
}
330
C
100
AcDbDictionary
281
     1
  3
ByBlock
350
3D
  3
ByLayer
350
3C
  3
Global
350
3E
  0
DICTIONARY
  5
2AF
102
{ACAD_REACTORS
330
C
102
}
330
C
100
AcDbDictionary
281
     1
  0
DICTIONARY
  5
17
102
{ACAD_REACTORS
330
C
102
}
330
C
100
AcDbDictionary
281
     1
  3
Standard
350
18
  0
DICTIONARY
  5
19
102
{ACAD_REACTORS
330
C
102
}
330
C
100
AcDbDictionary
281
     1
  0
ACDBDICTIONARYWDFLT
  5
E
102
{ACAD_REACTORS
330
C
102
}
330
C
100
AcDbDictionary
281
     1
  3
Normal
350
F
100
AcDbDictionaryWithDefault
340
F
  0
DICTIONARY
  5
2AE
102
{ACAD_REACTORS
330
C
102
}
330
C
100
AcDbDictionary
281
     1
  0
DICTIONARY
  5
2A
102
{ACAD_REACTORS
330
C
102
}
330
C
100
AcDbDictionary
281
     1
  3
2dWireframe
350
2F
  3
3D Hidden
350
31
  3
3dWireframe
350
30
  3
Basic
350
32
  3
Brighten
350
36
  3
ColorChange
350
3A
  3
Conceptual
350
34
  3
Dim
350
35
  3
Facepattern
350
39
  3
Flat
350
2B
  3
FlatWithEdges
350
2C
  3
Gouraud
350
2D
  3
GouraudWithEdges
350
2E
  3
Linepattern
350
38
  3
Realistic
350
33
  3
Thicken
350
37
  0
LAYOUT
  5
1E
102
{ACAD_REACTORS
330
1A
102
}
330
1A
100
AcDbPlotSettings
  1

  2
none_device
  4

  6

 40
0.0
 41
0.0
 42
0.0
 43
0.0
 44
0.0
 45
0.0
 46
0.0
 47
0.0
 48
0.0
 49
0.0
140
0.0
141
0.0
142
1.0
143
1.0
 70
   688
 72
     0
 73
     0
 74
     5
  7

 75
    16
 76
     0
 77
     5
 78
   300
147
1.0
148
0.0
149
0.0
100
AcDbLayout
  1
Layout1
 70
     1
 71
     1
 10
0.0
 20
0.0
 11
420.0
 21
297.0
 12
0.0
 22
0.0
 32
0.0
 14
1.000000000000000E+20
 24
1.000000000000000E+20
 34
1.000000000000000E+20
 15
-1.000000000000000E+20
 25
-1.000000000000000E+20
 35
-1.000000000000000E+20
146
0.0
 13
0.0
 23
0.0
 33
0.0
 16
1.0
 26
0.0
 36
0.0
 17
0.0
 27
1.0
 37
0.0
 76
     0
330
1B
  0
LAYOUT
  5
26
102
{ACAD_REACTORS
330
1A
102
}
330
1A
100
AcDbPlotSettings
  1

  2
none_device
  4

  6

 40
0.0
 41
0.0
 42
0.0
 43
0.0
 44
0.0
 45
0.0
 46
0.0
 47
0.0
 48
0.0
 49
0.0
140
0.0
141
0.0
142
1.0
143
1.0
 70
   688
 72
     0
 73
     0
 74
     5
  7

 75
    16
 76
     0
 77
     5
 78
   300
147
1.0
148
0.0
149
0.0
100
AcDbLayout
  1
Layout2
 70
     1
 71
     2
 10
0.0
 20
0.0
 11
0.0
 21
0.0
 12
0.0
 22
0.0
 32
0.0
 14
0.0
 24
0.0
 34
0.0
 15
0.0
 25
0.0
 35
0.0
146
0.0
 13
0.0
 23
0.0
 33
0.0
 16
1.0
 26
0.0
 36
0.0
 17
0.0
 27
1.0
 37
0.0
 76
     0
330
23
  0
LAYOUT
  5
22
102
{ACAD_REACTORS
330
1A
102
}
330
1A
100
AcDbPlotSettings
  1

  2
none_device
  4

  6

 40
0.0
 41
0.0
 42
0.0
 43
0.0
 44
0.0
 45
0.0
 46
0.0
 47
0.0
 48
0.0
 49
0.0
140
0.0
141
0.0
142
1.0
143
1.0
 70
  1712
 72
     0
 73
     0
 74
     0
  7

 75
     0
 76
     0
 77
     5
 78
   300
147
1.0
148
0.0
149
0.0
100
AcDbLayout
  1
Model
 70
     1
 71
     0
 10
-4455.0
 20
-3150.0
 11
4455.0
 21
3150.0
 12
0.0
 22
0.0
 32
0.0
 14
-4455.0
 24
-3150.0
 34
0.0
 15
4455.0
 25
3150.0
 35
0.0
146
0.0
 13
0.0
 23
0.0
 33
0.0
 16
1.0
 26
0.0
 36
0.0
 17
0.0
 27
1.0
 37
0.0
 76
     0
330
1F
331
29
  0
MATERIAL
  5
3D
102
{ACAD_REACTORS
330
3B
102
}
330
3B
100
AcDbMaterial
  1
ByBlock
 72
     1
 94
      127
  0
MATERIAL
  5
3C
102
{ACAD_REACTORS
330
3B
102
}
330
3B
100
AcDbMaterial
  1
ByLayer
 72
     1
 94
      127
  0
MATERIAL
  5
3E
102
{ACAD_REACTORS
330
3B
102
}
330
3B
100
AcDbMaterial
  1
Global
 72
     1
 94
      127
  0
MLINESTYLE
  5
18
102
{ACAD_REACTORS
330
17
102
}
330
17
100
AcDbMlineStyle
  2
Standard
 70
     0
  3

 62
   256
 51
90.0
 52
90.0
 71
     2
 49
0.5
 62
   256
  6
BYLAYER
 49
-0.5
 62
   256
  6
BYLAYER
  0
ACDBPLACEHOLDER
  5
F
102
{ACAD_REACTORS
330
E
102
}
330
E
  0
VISUALSTYLE
  5
2F
102
{ACAD_REACTORS
330
2A
102
}
330
2A
100
AcDbVisualStyle
  2
2dWireframe
 70
     4
177
     2
291
     0
 71
     0
176
     1
 72
     2
176
     1
 73
     0
176
     1
 90
        0
176
     1
 40
-0.6
176
     1
 41
-30.0
176
     1
 62
     5
 63
     7
421
 16777215
176
     1
 74
     1
176
     1
 91
        4
176
     1
 64
     7
176
     1
 65
   257
176
     1
 75
     1
176
     1
175
     1
176
     1
 42
1.0
176
     1
 92
        0
176
     1
 66
   257
176
     1
 43
1.0
176
     1
 76
     1
176
     1
 77
     6
176
     1
 78
     2
176
     1
 67
     7
176
     1
 79
     5
176
     1
170
     0
176
     1
171
     0
176
     1
290
     0
176
     1
 93
        1
176
     1
 44
0.0
176
     1
173
     0
176
     1
  0
VISUALSTYLE
  5
31
102
{ACAD_REACTORS
330
2A
102
}
330
2A
100
AcDbVisualStyle
  2
3D Hidden
 70
     6
177
     2
291
     0
 71
     1
176
     1
 72
     2
176
     1
 73
     2
176
     1
 90
        0
176
     1
 40
-0.6
176
     1
 41
-30.0
176
     1
 62
     5
 63
     7
421
 16777215
176
     1
 74
     2
176
     1
 91
        2
176
     1
 64
     7
176
     1
 65
   257
176
     1
 75
     2
176
     1
175
     1
176
     1
 42
40.0
176
     1
 92
        0
176
     1
 66
   257
176
     1
 43
1.0
176
     1
 76
     1
176
     1
 77
     6
176
     1
 78
     2
176
     1
 67
     7
176
     1
 79
     3
176
     1
170
     0
176
     1
171
     0
176
     1
290
     0
176
     1
 93
        1
176
     1
 44
0.0
176
     1
173
     0
176
     1
  0
VISUALSTYLE
  5
30
102
{ACAD_REACTORS
330
2A
102
}
330
2A
100
AcDbVisualStyle
  2
3dWireframe
 70
     5
177
     2
291
     0
 71
     0
176
     1
 72
     2
176
     1
 73
     0
176
     1
 90
        0
176
     1
 40
-0.6
176
     1
 41
-30.0
176
     1
 62
     5
 63
     7
421
 16777215
176
     1
 74
     1
176
     1
 91
        4
176
     1
 64
     7
176
     1
 65
   257
176
     1
 75
     1
176
     1
175
     1
176
     1
 42
1.0
176
     1
 92
        0
176
     1
 66
   257
176
     1
 43
1.0
176
     1
 76
     1
176
     1
 77
     6
176
     1
 78
     2
176
     1
 67
     7
176
     1
 79
     5
176
     1
170
     0
176
     1
171
     0
176
     1
290
     0
176
     1
 93
        1
176
     1
 44
0.0
176
     1
173
     0
176
     1
  0
VISUALSTYLE
  5
32
102
{ACAD_REACTORS
330
2A
102
}
330
2A
100
AcDbVisualStyle
  2
Basic
 70
     7
177
     2
291
     1
 71
     1
176
     1
 72
     0
176
     1
 73
     1
176
     1
 90
        0
176
     1
 40
-0.6
176
     1
 41
-30.0
176
     1
 62
     5
 63
     7
421
 16777215
176
     1
 74
     0
176
     1
 91
        4
176
     1
 64
     7
176
     1
 65
   257
176
     1
 75
     1
176
     1
175
     1
176
     1
 42
1.0
176
     1
 92
        8
176
     1
 66
     7
176
     1
 43
1.0
176
     1
 76
     1
176
     1
 77
     6
176
     1
 78
     2
176
     1
 67
     7
176
     1
 79
     5
176
     1
170
     0
176
     1
171
     0
176
     1
290
     0
176
     1
 93
        1
176
     1
 44
0.0
176
     1
173
     0
176
     1
  0
VISUALSTYLE
  5
36
102
{ACAD_REACTORS
330
2A
102
}
330
2A
100
AcDbVisualStyle
  2
Brighten
 70
    12
177
     2
291
     1
 71
     2
176
     1
 72
     2
176
     1
 73
     0
176
     1
 90
        0
176
     1
 40
-0.6
176
     1
 41
-30.0
176
     1
 62
     5
 63
     7
421
 16777215
176
     1
 74
     1
176
     1
 91
        4
176
     1
 64
     7
176
     1
 65
   257
176
     1
 75
     1
176
     1
175
     1
176
     1
 42
1.0
176
     1
 92
        8
176
     1
 66
     7
176
     1
 43
1.0
176
     1
 76
     1
176
     1
 77
     6
176
     1
 78
     2
176
     1
 67
     7
176
     1
 79
     5
176
     1
170
     0
176
     1
171
     0
176
     1
290
     0
176
     1
 93
        1
176
     1
 44
50.0
176
     1
173
     0
176
     1
  0
VISUALSTYLE
  5
3A
102
{ACAD_REACTORS
330
2A
102
}
330
2A
100
AcDbVisualStyle
  2
ColorChange
 70
    16
177
     2
291
     1
 71
     2
176
     1
 72
     2
176
     1
 73
     3
176
     1
 90
        0
176
     1
 40
-0.6
176
     1
 41
-30.0
176
     1
 62
     5
 63
     8
421
  8421504
176
     1
 74
     1
176
     1
 91
        4
176
     1
 64
     7
176
     1
 65
   257
176
     1
 75
     1
176
     1
175
     1
176
     1
 42
1.0
176
     1
 92
        8
176
     1
 66
     8
424
  8421504
176
     1
 43
1.0
176
     1
 76
     1
176
     1
 77
     6
176
     1
 78
     2
176
     1
 67
     7
176
     1
 79
     5
176
     1
170
     0
176
     1
171
     0
176
     1
290
     0
176
     1
 93
        1
176
     1
 44
0.0
176
     1
173
     0
176
     1
  0
VISUALSTYLE
  5
34
102
{ACAD_REACTORS
330
2A
102
}
330
2A
100
AcDbVisualStyle
  2
Conceptual
 70
     9
177
     2
291
     0
 71
     3
176
     1
 72
     2
176
     1
 73
     0
176
     1
 90
        0
176
     1
 40
-0.6
176
     1
 41
-30.0
176
     1
 62
     5
 63
     7
421
 16777215
176
     1
 74
     2
176
     1
 91
        2
176
     1
 64
     7
176
     1
 65
   257
176
     1
 75
     1
176
     1
175
     1
176
     1
 42
40.0
176
     1
 92
        8
176
     1
 66
     7
176
     1
 43
1.0
176
     1
 76
     1
176
     1
 77
     6
176
     1
 78
     2
176
     1
 67
     7
176
     1
 79
     3
176
     1
170
     0
176
     1
171
     0
176
     1
290
     0
176
     1
 93
        1
176
     1
 44
0.0
176
     1
173
     0
176
     1
  0
VISUALSTYLE
  5
35
102
{ACAD_REACTORS
330
2A
102
}
330
2A
100
AcDbVisualStyle
  2
Dim
 70
    11
177
     2
291
     1
 71
     2
176
     1
 72
     2
176
     1
 73
     0
176
     1
 90
        0
176
     1
 40
-0.6
176
     1
 41
-30.0
176
     1
 62
     5
 63
     7
421
 16777215
176
     1
 74
     1
176
     1
 91
        4
176
     1
 64
     7
176
     1
 65
   257
176
     1
 75
     1
176
     1
175
     1
176
     1
 42
1.0
176
     1
 92
        8
176
     1
 66
     7
176
     1
 43
1.0
176
     1
 76
     1
176
     1
 77
     6
176
     1
 78
     2
176
     1
 67
     7
176
     1
 79
     5
176
     1
170
     0
176
     1
171
     0
176
     1
290
     0
176
     1
 93
        1
176
     1
 44
-50.0
176
     1
173
     0
176
     1
  0
VISUALSTYLE
  5
39
102
{ACAD_REACTORS
330
2A
102
}
330
2A
100
AcDbVisualStyle
  2
Facepattern
 70
    15
177
     2
291
     1
 71
     2
176
     1
 72
     2
176
     1
 73
     0
176
     1
 90
        0
176
     1
 40
-0.6
176
     1
 41
-30.0
176
     1
 62
     5
 63
     7
421
 16777215
176
     1
 74
     1
176
     1
 91
        4
176
     1
 64
     7
176
     1
 65
   257
176
     1
 75
     1
176
     1
175
     1
176
     1
 42
1.0
176
     1
 92
        8
176
     1
 66
     7
176
     1
 43
1.0
176
     1
 76
     1
176
     1
 77
     6
176
     1
 78
     2
176
     1
 67
     7
176
     1
 79
     5
176
     1
170
     0
176
     1
171
     0
176
     1
290
     0
176
     1
 93
        1
176
     1
 44
0.0
176
     1
173
     0
176
     1
  0
VISUALSTYLE
  5
2B
102
{ACAD_REACTORS
330
2A
102
}
330
2A
100
AcDbVisualStyle
  2
Flat
 70
     0
177
     2
291
     1
 71
     2
176
     1
 72
     1
176
     1
 73
     1
176
     1
 90
        2
176
     1
 40
-0.6
176
     1
 41
30.0
176
     1
 62
     5
 63
     7
421
 16777215
176
     1
 74
     0
176
     1
 91
        4
176
     1
 64
     7
176
     1
 65
   257
176
     1
 75
     1
176
     1
175
     1
176
     1
 42
1.0
176
     1
 92
        8
176
     1
 66
     7
176
     1
 43
1.0
176
     1
 76
     1
176
     1
 77
     6
176
     1
 78
     2
176
     1
 67
     7
176
     1
 79
     5
176
     1
170
     0
176
     1
171
     0
176
     1
290
     0
176
     1
 93
       13
176
     1
 44
0.0
176
     1
173
     0
176
     1
  0
VISUALSTYLE
  5
2C
102
{ACAD_REACTORS
330
2A
102
}
330
2A
100
AcDbVisualStyle
  2
FlatWithEdges
 70
     1
177
     2
291
     1
 71
     2
176
     1
 72
     1
176
     1
 73
     1
176
     1
 90
        2
176
     1
 40
-0.6
176
     1
 41
30.0
176
     1
 62
     5
 63
     7
421
 16777215
176
     1
 74
     1
176
     1
 91
        4
176
     1
 64
     7
176
     1
 65
   257
176
     1
 75
     1
176
     1
175
     1
176
     1
 42
1.0
176
     1
 92
        0
176
     1
 66
   257
176
     1
 43
1.0
176
     1
 76
     1
176
     1
 77
     6
176
     1
 78
     2
176
     1
 67
     7
176
     1
 79
     5
176
     1
170
     0
176
     1
171
     0
176
     1
290
     0
176
     1
 93
       13
176
     1
 44
0.0
176
     1
173
     0
176
     1
  0
VISUALSTYLE
  5
2D
102
{ACAD_REACTORS
330
2A
102
}
330
2A
100
AcDbVisualStyle
  2
Gouraud
 70
     2
177
     2
291
     1
 71
     2
176
     1
 72
     2
176
     1
 73
     1
176
     1
 90
        2
176
     1
 40
-0.6
176
     1
 41
30.0
176
     1
 62
     5
 63
     7
421
 16777215
176
     1
 74
     0
176
     1
 91
        4
176
     1
 64
     7
176
     1
 65
   257
176
     1
 75
     1
176
     1
175
     1
176
     1
 42
1.0
176
     1
 92
        0
176
     1
 66
     7
176
     1
 43
1.0
176
     1
 76
     1
176
     1
 77
     6
176
     1
 78
     2
176
     1
 67
     7
176
     1
 79
     5
176
     1
170
     0
176
     1
171
     0
176
     1
290
     0
176
     1
 93
       13
176
     1
 44
0.0
176
     1
173
     0
176
     1
  0
VISUALSTYLE
  5
2E
102
{ACAD_REACTORS
330
2A
102
}
330
2A
100
AcDbVisualStyle
  2
GouraudWithEdges
 70
     3
177
     2
291
     1
 71
     2
176
     1
 72
     2
176
     1
 73
     1
176
     1
 90
        2
176
     1
 40
-0.6
176
     1
 41
30.0
176
     1
 62
     5
 63
     7
421
 16777215
176
     1
 74
     1
176
     1
 91
        4
176
     1
 64
     7
176
     1
 65
   257
176
     1
 75
     1
176
     1
175
     1
176
     1
 42
1.0
176
     1
 92
        0
176
     1
 66
   257
176
     1
 43
1.0
176
     1
 76
     1
176
     1
 77
     6
176
     1
 78
     2
176
     1
 67
     7
176
     1
 79
     5
176
     1
170
     0
176
     1
171
     0
176
     1
290
     0
176
     1
 93
       13
176
     1
 44
0.0
176
     1
173
     0
176
     1
  0
VISUALSTYLE
  5
38
102
{ACAD_REACTORS
330
2A
102
}
330
2A
100
AcDbVisualStyle
  2
Linepattern
 70
    14
177
     2
291
     1
 71
     2
176
     1
 72
     2
176
     1
 73
     0
176
     1
 90
        0
176
     1
 40
-0.6
176
     1
 41
-30.0
176
     1
 62
     5
 63
     7
421
 16777215
176
     1
 74
     1
176
     1
 91
        4
176
     1
 64
     7
176
     1
 65
   257
176
     1
 75
     7
176
     1
175
     7
176
     1
 42
1.0
176
     1
 92
        8
176
     1
 66
     7
176
     1
 43
1.0
176
     1
 76
     1
176
     1
 77
     6
176
     1
 78
     2
176
     1
 67
     7
176
     1
 79
     5
176
     1
170
     0
176
     1
171
     0
176
     1
290
     0
176
     1
 93
        1
176
     1
 44
0.0
176
     1
173
     0
176
     1
  0
VISUALSTYLE
  5
33
102
{ACAD_REACTORS
330
2A
102
}
330
2A
100
AcDbVisualStyle
  2
Realistic
 70
     8
177
     2
291
     0
 71
     2
176
     1
 72
     2
176
     1
 73
     0
176
     1
 90
        0
176
     1
 40
-0.6
176
     1
 41
-30.0
176
     1
 62
     5
 63
     7
421
 16777215
176
     1
 74
     1
176
     1
 91
        0
176
     1
 64
     7
176
     1
 65
   257
176
     1
 75
     1
176
     1
175
     1
176
     1
 42
1.0
176
     1
 92
        8
176
     1
 66
     8
424
  7895160
176
     1
 43
1.0
176
     1
 76
     1
176
     1
 77
     6
176
     1
 78
     2
176
     1
 67
     7
176
     1
 79
     5
176
     1
170
     0
176
     1
171
     0
176
     1
290
     0
176
     1
 93
       13
176
     1
 44
0.0
176
     1
173
     0
176
     1
  0
VISUALSTYLE
  5
37
102
{ACAD_REACTORS
330
2A
102
}
330
2A
100
AcDbVisualStyle
  2
Thicken
 70
    13
177
     2
291
     1
 71
     2
176
     1
 72
     2
176
     1
 73
     0
176
     1
 90
        0
176
     1
 40
-0.6
176
     1
 41
-30.0
176
     1
 62
     5
 63
     7
421
 16777215
176
     1
 74
     1
176
     1
 91
        4
176
     1
 64
     7
176
     1
 65
   257
176
     1
 75
     1
176
     1
175
     1
176
     1
 42
1.0
176
     1
 92
       12
176
     1
 66
     7
176
     1
 43
1.0
176
     1
 76
     1
176
     1
 77
     6
176
     1
 78
     2
176
     1
 67
     7
176
     1
 79
     5
176
     1
170
     0
176
     1
171
     0
176
     1
290
     0
176
     1
 93
        1
176
     1
 44
0.0
176
     1
173
     0
176
     1
  0
ENDSEC
  0
EOF
