  0
SECTION
  2
HEADER
  9
$ACADVER
  1
AC1024
  9
$ACADMAINTVER
 70
     6
  9
$DWGCODEPAGE
  3
ANSI_932
  9
$INSBASE
 10
0.0
 20
0.0
 30
0.0
  9
$EXTMIN
 10
-4455.0
 20
-3150.0
 30
0.0
  9
$EXTMAX
 10
4455.0
 20
3150.0
 30
0.0
  9
$LIMMIN
 10
-4455.0
 20
-3150.0
  9
$LIMMAX
 10
4455.0
 20
3150.0
  9
$ORTHOMODE
 70
     0
  9
$REGENMODE
 70
     1
  9
$FILLMODE
 70
     1
  9
$QTEXTMODE
 70
     0
  9
$MIRRTEXT
 70
     1
  9
$LTSCALE
 40
30.0
  9
$ATTMODE
 70
     1
  9
$TEXTSIZE
 40
2.5
  9
$TRACEWID
 40
1.0
  9
$TEXTSTYLE
  7
Standard
  9
$CLAYER
  8
0
  9
$CELTYPE
  6
ByLayer
  9
$CECOLOR
 62
   256
  9
$CELTSCALE
 40
1.0
  9
$DISPSILH
 70
     0
  9
$DIMSCALE
 40
1.0
  9
$DIMASZ
 40
2.5
  9
$DIMEXO
 40
0.625
  9
$DIMDLI
 40
3.75
  9
$DIMRND
 40
0.0
  9
$DIMDLE
 40
0.0
  9
$DIMEXE
 40
1.25
  9
$DIMTP
 40
0.0
  9
$DIMTM
 40
0.0
  9
$DIMTXT
 40
2.5
  9
$DIMCEN
 40
2.5
  9
$DIMTSZ
 40
0.0
  9
$DIMTOL
 70
     0
  9
$DIMLIM
 70
     0
  9
$DIMTIH
 70
     0
  9
$DIMTOH
 70
     0
  9
$DIMSE1
 70
     0
  9
$DIMSE2
 70
     0
  9
$DIMTAD
 70
     1
  9
$DIMZIN
 70
     8
  9
$DIMBLK
  1

  9
$DIMASO
 70
     1
  9
$DIMSHO
 70
     1
  9
$DIMPOST
  1

  9
$DIMAPOST
  1

  9
$DIMALT
 70
     0
  9
$DIMALTD
 70
     3
  9
$DIMALTF
 40
0.03937007874016
  9
$DIMLFAC
 40
1.0
  9
$DIMTOFL
 70
     1
  9
$DIMTVP
 40
0.0
  9
$DIMTIX
 70
     0
  9
$DIMSOXD
 70
     0
  9
$DIMSAH
 70
     0
  9
$DIMBLK1
  1

  9
$DIMBLK2
  1

  9
$DIMSTYLE
  2
ISO-25
  9
$DIMCLRD
 70
     0
  9
$DIMCLRE
 70
     0
  9
$DIMCLRT
 70
     0
  9
$DIMTFAC
 40
1.0
  9
$DIMGAP
 40
0.625
  9
$DIMJUST
 70
     0
  9
$DIMSD1
 70
     0
  9
$DIMSD2
 70
     0
  9
$DIMTOLJ
 70
     0
  9
$DIMTZIN
 70
     8
  9
$DIMALTZ
 70
     0
  9
$DIMALTTZ
 70
     0
  9
$DIMUPT
 70
     0
  9
$DIMDEC
 70
     2
  9
$DIMTDEC
 70
     2
  9
$DIMALTU
 70
     2
  9
$DIMALTTD
 70
     3
  9
$DIMTXSTY
  7
Standard
  9
$DIMAUNIT
 70
     0
  9
$DIMADEC
 70
     0
  9
$DIMALTRND
 40
0.0
  9
$DIMAZIN
 70
     0
  9
$DIMDSEP
 70
    44
  9
$DIMATFIT
 70
     3
  9
$DIMFRAC
 70
     0
  9
$DIMLDRBLK
  1

  9
$DIMLUNIT
 70
     2
  9
$DIMLWD
 70
    -2
  9
$DIMLWE
 70
    -2
  9
$DIMTMOVE
 70
     0
  9
$DIMFXL
 40
1.0
  9
$DIMFXLON
 70
     0
  9
$DIMJOGANG
 40
0.7853981633974483
  9
$DIMTFILL
 70
     0
  9
$DIMTFILLCLR
 70
     0
  9
$DIMARCSYM
 70
     0
  9
$DIMLTYPE
  6

  9
$DIMLTEX1
  6

  9
$DIMLTEX2
  6

  9
$DIMTXTDIRECTION
 70
     0
  9
$LUNITS
 70
     2
  9
$LUPREC
 70
     4
  9
$SKETCHINC
 40
1.0
  9
$FILLETRAD
 40
10.0
  9
$AUNITS
 70
     0
  9
$AUPREC
 70
     0
  9
$MENU
  1
.
  9
$ELEVATION
 40
0.0
  9
$PELEVATION
 40
0.0
  9
$THICKNESS
 40
0.0
  9
$LIMCHECK
 70
     0
  9
$CHAMFERA
 40
10.0
  9
$CHAMFERB
 40
10.0
  9
$CHAMFERC
 40
20.0
  9
$CHAMFERD
 40
0.0
  9
$SKPOLY
 70
     0
  9
$TDCREATE
 40
2457913.586237963
  9
$TDUCREATE
 40
2457913.211237963
  9
$TDUPDATE
 40
2457913.586237974
  9
$TDUUPDATE
 40
2457913.211237974
  9
$TDINDWG
 40
0.0000000116
  9
$TDUSRTIMER
 40
0.0000000116
  9
$USRTIMER
 70
     1
  9
$ANGBASE
 50
0.0
  9
$ANGDIR
 70
     0
  9
$PDMODE
 70
     0
  9
$PDSIZE
 40
0.0
  9
$PLINEWID
 40
0.0
  9
$SPLFRAME
 70
     0
  9
$SPLINETYPE
 70
     6
  9
$SPLINESEGS
 70
     8
  9
$HANDSEED
  5
2BC
  9
$SURFTAB1
 70
     6
  9
$SURFTAB2
 70
     6
  9
$SURFTYPE
 70
     6
  9
$SURFU
 70
     6
  9
$SURFV
 70
     6
  9
$UCSBASE
  2

  9
$UCSNAME
  2

  9
$UCSORG
 10
0.0
 20
0.0
 30
0.0
  9
$UCSXDIR
 10
1.0
 20
0.0
 30
0.0
  9
$UCSYDIR
 10
0.0
 20
1.0
 30
0.0
  9
$UCSORTHOREF
  2

  9
$UCSORTHOVIEW
 70
     0
  9
$UCSORGTOP
 10
0.0
 20
0.0
 30
0.0
  9
$UCSORGBOTTOM
 10
0.0
 20
0.0
 30
0.0
  9
$UCSORGLEFT
 10
0.0
 20
0.0
 30
0.0
  9
$UCSORGRIGHT
 10
0.0
 20
0.0
 30
0.0
  9
$UCSORGFRONT
 10
0.0
 20
0.0
 30
0.0
  9
$UCSORGBACK
 10
0.0
 20
0.0
 30
0.0
  9
$PUCSBASE
  2

  9
$PUCSNAME
  2

  9
$PUCSORG
 10
0.0
 20
0.0
 30
0.0
  9
$PUCSXDIR
 10
1.0
 20
0.0
 30
0.0
  9
$PUCSYDIR
 10
0.0
 20
1.0
 30
0.0
  9
$PUCSORTHOREF
  2

  9
$PUCSORTHOVIEW
 70
     0
  9
$PUCSORGTOP
 10
0.0
 20
0.0
 30
0.0
  9
$PUCSORGBOTTOM
 10
0.0
 20
0.0
 30
0.0
  9
$PUCSORGLEFT
 10
0.0
 20
0.0
 30
0.0
  9
$PUCSORGRIGHT
 10
0.0
 20
0.0
 30
0.0
  9
$PUCSORGFRONT
 10
0.0
 20
0.0
 30
0.0
  9
$PUCSORGBACK
 10
0.0
 20
0.0
 30
0.0
  9
$USERI1
 70
     0
  9
$USERI2
 70
     0
  9
$USERI3
 70
     0
  9
$USERI4
 70
     0
  9
$USERI5
 70
     0
  9
$USERR1
 40
0.0
  9
$USERR2
 40
0.0
  9
$USERR3
 40
0.0
  9
$USERR4
 40
0.0
  9
$USERR5
 40
0.0
  9
$WORLDVIEW
 70
     1
  9
$SHADEDGE
 70
     3
  9
$SHADEDIF
 70
    70
  9
$TILEMODE
 70
     1
  9
$MAXACTVP
 70
    64
  9
$PINSBASE
 10
0.0
 20
0.0
 30
0.0
  9
$PLIMCHECK
 70
     0
  9
$PEXTMIN
 10
1.000000000000000E+20
 20
1.000000000000000E+20
 30
1.000000000000000E+20
  9
$PEXTMAX
 10
-1.000000000000000E+20
 20
-1.000000000000000E+20
 30
-1.000000000000000E+20
  9
$PLIMMIN
 10
0.0
 20
0.0
  9
$PLIMMAX
 10
420.0
 20
297.0
  9
$UNITMODE
 70
     0
  9
$VISRETAIN
 70
     1
  9
$PLINEGEN
 70
     0
  9
$PSLTSCALE
 70
     1
  9
$TREEDEPTH
 70
  3020
  9
$CMLSTYLE
  2
Standard
  9
$CMLJUST
 70
     0
  9
$CMLSCALE
 40
20.0
  9
$PROXYGRAPHICS
 70
     1
  9
$MEASUREMENT
 70
     1
  9
$CELWEIGHT
370
    -1
  9
$ENDCAPS
280
     0
  9
$JOINSTYLE
280
     0
  9
$LWDISPLAY
290
     0
  9
$INSUNITS
 70
     4
  9
$HYPERLINKBASE
  1

  9
$STYLESHEET
  1

  9
$XEDIT
290
     1
  9
$CEPSNTYPE
380
     0
  9
$PSTYLEMODE
290
     1
  9
$FINGERPRINTGUID
  2
{0DF9B806-2363-42FB-B828-43AA96AA5C91}
  9
$VERSIONGUID
  2
{FAEB1C32-E019-11D5-929B-00C0DF256EC4}
  9
$EXTNAMES
290
     1
  9
$PSVPSCALE
 40
0.0
  9
$OLESTARTUP
290
     0
  9
$SORTENTS
280
   127
  9
$INDEXCTL
280
     0
  9
$HIDETEXT
280
     1
  9
$XCLIPFRAME
280
     2
  9
$HALOGAP
280
     0
  9
$OBSCOLOR
 70
   257
  9
$OBSLTYPE
280
     0
  9
$INTERSECTIONDISPLAY
280
     0
  9
$INTERSECTIONCOLOR
 70
   257
  9
$DIMASSOC
280
     2
  9
$PROJECTNAME
  1

  9
$CAMERADISPLAY
290
     0
  9
$LENSLENGTH
 40
50.0
  9
$CAMERAHEIGHT
 40
0.0
  9
$STEPSPERSEC
 40
2.0
  9
$STEPSIZE
 40
6.0
  9
$3DDWFPREC
 40
2.0
  9
$PSOLWIDTH
 40
5.0
  9
$PSOLHEIGHT
 40
80.0
  9
$LOFTANG1
 40
1.570796326794897
  9
$LOFTANG2
 40
1.570796326794897
  9
$LOFTMAG1
 40
0.0
  9
$LOFTMAG2
 40
0.0
  9
$LOFTPARAM
 70
     7
  9
$LOFTNORMALS
280
     1
  9
$LATITUDE
 40
37.795
  9
$LONGITUDE
 40
-122.394
  9
$NORTHDIRECTION
 40
0.0
  9
$TIMEZONE
 70
 -8000
  9
$LIGHTGLYPHDISPLAY
280
     1
  9
$TILEMODELIGHTSYNCH
280
     1
  9
$SOLIDHIST
280
     1
  9
$SHOWHIST
280
     1
  9
$DWFFRAME
280
     2
  9
$DGNFRAME
280
     2
  9
$REALWORLDSCALE
290
     1
  9
$INTERFERECOLOR
 62
   256
  9
$CSHADOW
280
     0
  9
$SHADOWPLANELOCATION
 40
0.0
  0
ENDSEC
  0
SECTION
  2
CLASSES
  0
CLASS
  1
ACDBDICTIONARYWDFLT
  2
AcDbDictionaryWithDefault
  3
ObjectDBX Classes
 90
        0
 91
        4
280
     0
281
     0
  0
CLASS
  1
VISUALSTYLE
  2
AcDbVisualStyle
  3
ObjectDBX Classes
 90
     4095
 91
        4
280
     0
281
     0
  0
CLASS
  1
MATERIAL
  2
AcDbMaterial
  3
ObjectDBX Classes
 90
     1153
 91
        4
280
     0
281
     0
  0
ENDSEC
  0
SECTION
  2
TABLES
  0
TABLE
  2
VPORT
  5
8
330
0
100
AcDbSymbolTable
 70
     1
  0
VPORT
  5
29
330
8
100
AcDbSymbolTableRecord
100
AcDbViewportTableRecord
  2
*Active
 70
     0
 10
0.0
 20
0.0
 11
1.0
 21
1.0
 12
0.0
 22
0.0
 13
0.0
 23
0.0
 14
10.0
 24
10.0
 15
10.0
 25
10.0
 16
0.0
 26
0.0
 36
1.0
 17
0.0
 27
0.0
 37
0.0
 40
6930.000000000001
 41
1.414285714285714
 42
50.0
 43
0.0
 44
0.0
 50
0.0
 51
0.0
 71
     0
 72
 10000
 73
     1
 74
     3
 75
     0
 76
     0
 77
     0
 78
     0
281
     0
 65
     1
110
0.0
120
0.0
130
0.0
111
1.0
121
0.0
131
0.0
112
0.0
122
1.0
132
0.0
 79
     0
146
0.0
 60
     3
 61
     5
292
     1
282
     1
141
0.0
142
0.0
 63
   250
  0
ENDTAB
  0
TABLE
  2
LTYPE
  5
5
330
0
100
AcDbSymbolTable
 70
     2
  0
LTYPE
  5
14
330
5
100
AcDbSymbolTableRecord
100
AcDbLinetypeTableRecord
  2
ByBlock
 70
     0
  3

 72
    65
 73
     0
 40
0.0
  0
LTYPE
  5
15
330
5
100
AcDbSymbolTableRecord
100
AcDbLinetypeTableRecord
  2
ByLayer
 70
     0
  3

 72
    65
 73
     0
 40
0.0
  0
LTYPE
  5
16
330
5
100
AcDbSymbolTableRecord
100
AcDbLinetypeTableRecord
  2
Continuous
 70
     0
  3
Solid line
 72
    65
 73
     0
 40
0.0
  0
LTYPE
  5
3F
330
5
100
AcDbSymbolTableRecord
100
AcDbLinetypeTableRecord
  2
JWW_DASHED1
 70
     0
  3
-  --  --  --  --  --  --  --  -
 72
    65
 73
     2
 40
1.693333333333333
 49
0.8466666666666667
 74
     0
 49
-0.8466666666666667
 74
     0
  0
ENDTAB
  0
TABLE
  2
LAYER
  5
2
330
0
100
AcDbSymbolTable
 70
     3
  0
LAYER
  5
10
330
2
100
AcDbSymbolTableRecord
100
AcDbLayerTableRecord
  2
0
 70
     0
 62
     7
  6
Continuous
370
    -3
390
F
347
3E
  0
LAYER
  5
40
330
2
100
AcDbSymbolTableRecord
100
AcDbLayerTableRecord
  2
寸法
 70
     0
 62
     7
  6
Continuous
370
    -3
390
F
347
3E
  0
LAYER
  5
41
330
2
100
AcDbSymbolTableRecord
100
AcDbLayerTableRecord
  2
0-0
 70
     0
 62
     7
  6
Continuous
370
    -3
390
F
347
3E
  0
ENDTAB
  0
TABLE
  2
STYLE
  5
3
330
0
100
AcDbSymbolTable
 70
     1
  0
STYLE
  5
11
330
3
100
AcDbSymbolTableRecord
100
AcDbTextStyleTableRecord
  2
Standard
 70
     0
 40
0.0
 41
1.0
 50
0.0
 71
     0
 42
2.5
  3
txt
  4

  0
ENDTAB
  0
TABLE
  2
VIEW
  5
6
330
0
100
AcDbSymbolTable
 70
     0
  0
ENDTAB
  0
TABLE
  2
UCS
  5
7
330
0
100
AcDbSymbolTable
 70
     0
  0
ENDTAB
  0
TABLE
  2
APPID
  5
9
330
0
100
AcDbSymbolTable
 70
     1
  0
APPID
  5
12
330
9
100
AcDbSymbolTableRecord
100
AcDbRegAppTableRecord
  2
ACAD
 70
     0
  0
ENDTAB
  0
TABLE
  2
DIMSTYLE
  5
A
330
0
100
AcDbSymbolTable
 70
     1
100
AcDbDimStyleTable
  0
DIMSTYLE
105
27
330
A
100
AcDbSymbolTableRecord
100
AcDbDimStyleTableRecord
  2
ISO-25
 70
     0
 41
2.5
 42
0.625
 43
3.75
 44
1.25
 73
     0
 74
     0
 77
     1
 78
     8
140
2.5
141
2.5
143
0.03937007874016
147
0.625
171
     3
172
     1
178
     0
271
     2
272
     2
274
     3
278
    44
283
     0
284
     8
340
11
  0
ENDTAB
  0
TABLE
  2
BLOCK_RECORD
  5
1
330
0
100
AcDbSymbolTable
 70
     1
  0
BLOCK_RECORD
  5
1F
330
1
100
AcDbSymbolTableRecord
100
AcDbBlockTableRecord
  2
*Model_Space
340
22
 70
     0
280
     1
281
     0
  0
BLOCK_RECORD
  5
1B
330
1
100
AcDbSymbolTableRecord
100
AcDbBlockTableRecord
  2
*Paper_Space
340
1E
 70
     0
280
     1
281
     0
  0
BLOCK_RECORD
  5
23
330
1
100
AcDbSymbolTableRecord
100
AcDbBlockTableRecord
  2
*Paper_Space0
340
26
 70
     0
280
     1
281
     0
  0
ENDTAB
  0
ENDSEC
  0
SECTION
  2
BLOCKS
  0
BLOCK
  5
20
330
1F
100
AcDbEntity
  8
0
100
AcDbBlockBegin
  2
*Model_Space
 70
     0
 10
0.0
 20
0.0
 30
0.0
  3
*Model_Space
  1

  0
ENDBLK
  5
21
330
1F
100
AcDbEntity
  8
0
100
AcDbBlockEnd
  0
BLOCK
  5
1C
330
1B
100
AcDbEntity
 67
     1
  8
0
100
AcDbBlockBegin
  2
*Paper_Space
 70
     0
 10
0.0
 20
0.0
 30
0.0
  3
*Paper_Space
  1

  0
ENDBLK
  5
1D
330
1B
100
AcDbEntity
 67
     1
  8
0
100
AcDbBlockEnd
  0
BLOCK
  5
24
330
23
100
AcDbEntity
  8
0
100
AcDbBlockBegin
  2
*Paper_Space0
 70
     0
 10
0.0
 20
0.0
 30
0.0
  3
*Paper_Space0
  1

  0
ENDBLK
  5
25
330
23
100
AcDbEntity
  8
0
100
AcDbBlockEnd
  0
ENDSEC
  0
SECTION
  2
ENTITIES
  0
LWPOLYLINE
  5
42
330
1F
100
AcDbEntity
  8
寸法
  6
Continuous
 62
     7
370
     9
100
AcDbPolyline
 90
        4
 70
     1
 43
3.0
 10
-1260.167782064093
 20
-798.7179799057835
 42
0.4142135623731
 10
-1261.667782064093
 20
-797.2179799057834
 42
0.4142135623731
 10
-1263.167782064093
 20
-798.7179799057835
 42
0.4142135623731
 10
-1261.667782064093
 20
-800.2179799057835
 42
0.4142135623731
  0
LINE
  5
43
330
1F
100
AcDbEntity
  8
寸法
  6
Continuous
 62
   120
370
     5
100
AcDbLine
 10
-1261.667782064093
 20
-798.7179799057835
 30
0.0
 11
-811.6677820640932
 21
-798.7179799057835
 31
0.0
  0
LINE
  5
44
330
1F
100
AcDbEntity
  8
寸法
  6
Continuous
 62
   120
370
     5
100
AcDbLine
 10
-731.6677820640926
 20
-1248.717979905784
 30
0.0
 11
-731.6677820640926
 21
-848.7179799057833
 31
0.0
  0
LINE
  5
45
330
1F
100
AcDbEntity
  8
寸法
  6
Continuous
 62
   120
370
     5
100
AcDbLine
 10
-761.6677820640926
 20
-1448.717979905782
 30
0.0
 11
-761.6677820640926
 21
-848.7179799057833
 31
0.0
  0
LINE
  5
46
330
1F
100
AcDbEntity
  8
寸法
  6
Continuous
 62
   120
370
     5
100
AcDbLine
 10
855.3322179359067
 20
-1048.717979905783
 30
0.0
 11
855.3322179359067
 21
-848.7179799057833
 31
0.0
  0
LINE
  5
47
330
1F
100
AcDbEntity
  8
寸法
  6
Continuous
 62
   120
370
     5
100
AcDbLine
 10
-731.6677820640926
 20
-1248.717979905784
 30
0.0
 11
852.332217935906
 21
-1248.717979905784
 31
0.0
  0
LINE
  5
48
330
1F
100
AcDbEntity
  8
寸法
  6
Continuous
 62
   120
370
     5
100
AcDbLine
 10
852.332217935906
 20
-1248.717979905784
 30
0.0
 11
852.332217935906
 21
-848.7179799057833
 31
0.0
  0
LINE
  5
49
330
1F
100
AcDbEntity
  8
寸法
  6
Continuous
 62
   120
370
     5
100
AcDbLine
 10
-761.6677820640926
 20
-1448.717979905782
 30
0.0
 11
882.332217935906
 21
-1448.717979905782
 31
0.0
  0
LINE
  5
4A
330
1F
100
AcDbEntity
  8
寸法
  6
Continuous
 62
   120
370
     5
100
AcDbLine
 10
882.332217935906
 20
-1448.717979905782
 30
0.0
 11
882.332217935906
 21
-848.7179799057833
 31
0.0
  0
LINE
  5
4B
330
1F
100
AcDbEntity
  8
寸法
  6
Continuous
 62
   120
370
     5
100
AcDbLine
 10
45.3322179359067
 20
-1048.717979905783
 30
0.0
 11
45.3322179359067
 21
-848.7179799057833
 31
0.0
  0
LINE
  5
4C
330
1F
100
AcDbEntity
  8
寸法
  6
Continuous
 62
   120
370
     5
100
AcDbLine
 10
45.3322179359067
 20
-1048.717979905783
 30
0.0
 11
855.3322179359067
 21
-1048.717979905783
 31
0.0
  0
LWPOLYLINE
  5
4D
330
1F
100
AcDbEntity
  8
寸法
  6
Continuous
 62
     7
370
     9
100
AcDbPolyline
 90
        4
 70
     1
 43
3.0
 10
-730.1677820640926
 20
-1248.717979905784
 42
0.4142135623731
 10
-731.6677820640926
 20
-1247.217979905784
 42
0.4142135623731
 10
-733.1677820640926
 20
-1248.717979905784
 42
0.4142135623731
 10
-731.6677820640926
 20
-1250.217979905784
 42
0.4142135623731
  0
LWPOLYLINE
  5
4E
330
1F
100
AcDbEntity
  8
寸法
  6
Continuous
 62
     7
370
     9
100
AcDbPolyline
 90
        4
 70
     1
 43
3.0
 10
-760.1677820640926
 20
-1448.717979905782
 42
0.4142135623731
 10
-761.6677820640926
 20
-1447.217979905783
 42
0.4142135623731
 10
-763.1677820640926
 20
-1448.717979905782
 42
0.4142135623731
 10
-761.6677820640926
 20
-1450.217979905782
 42
0.4142135623731
  0
LWPOLYLINE
  5
4F
330
1F
100
AcDbEntity
  8
寸法
  6
Continuous
 62
     7
370
     9
100
AcDbPolyline
 90
        4
 70
     1
 43
3.0
 10
856.8322179359067
 20
-1048.717979905783
 42
0.4142135623731
 10
855.3322179359067
 20
-1047.217979905783
 42
0.4142135623731
 10
853.8322179359067
 20
-1048.717979905783
 42
0.4142135623731
 10
855.3322179359067
 20
-1050.217979905783
 42
0.4142135623731
  0
LWPOLYLINE
  5
50
330
1F
100
AcDbEntity
  8
寸法
  6
Continuous
 62
     7
370
     9
100
AcDbPolyline
 90
        4
 70
     1
 43
3.0
 10
853.832217935906
 20
-1248.717979905784
 42
0.4142135623731
 10
852.332217935906
 20
-1247.217979905784
 42
0.4142135623731
 10
850.832217935906
 20
-1248.717979905784
 42
0.4142135623731
 10
852.332217935906
 20
-1250.217979905784
 42
0.4142135623731
  0
LWPOLYLINE
  5
51
330
1F
100
AcDbEntity
  8
寸法
  6
Continuous
 62
     7
370
     9
100
AcDbPolyline
 90
        4
 70
     1
 43
3.0
 10
883.832217935906
 20
-1448.717979905782
 42
0.4142135623731
 10
882.332217935906
 20
-1447.217979905783
 42
0.4142135623731
 10
880.832217935906
 20
-1448.717979905782
 42
0.4142135623731
 10
882.332217935906
 20
-1450.217979905782
 42
0.4142135623731
  0
LWPOLYLINE
  5
52
330
1F
100
AcDbEntity
  8
寸法
  6
Continuous
 62
     7
370
     9
100
AcDbPolyline
 90
        4
 70
     1
 43
3.0
 10
46.8322179359067
 20
-1048.717979905783
 42
0.4142135623731
 10
45.3322179359067
 20
-1047.217979905783
 42
0.4142135623731
 10
43.8322179359067
 20
-1048.717979905783
 42
0.4142135623731
 10
45.3322179359067
 20
-1050.217979905783
 42
0.4142135623731
  0
LINE
  5
53
330
1F
100
AcDbEntity
  8
寸法
  6
Continuous
 62
   120
370
     5
100
AcDbLine
 10
-1261.667782064093
 20
1236.782020094217
 30
0.0
 11
-1261.667782064093
 21
-798.7179799057835
 31
0.0
  0
LINE
  5
54
330
1F
100
AcDbEntity
  8
寸法
  6
Continuous
 62
   120
370
     5
100
AcDbLine
 10
-1261.667782064093
 20
1236.782020094217
 30
0.0
 11
-811.6677820640932
 21
1236.782020094217
 31
0.0
  0
LINE
  5
55
330
1F
100
AcDbEntity
  8
寸法
  6
Continuous
 62
   120
370
     5
100
AcDbLine
 10
-1061.667782064093
 20
-790.2179799057836
 30
0.0
 11
-811.6677820640932
 21
-790.2179799057836
 31
0.0
  0
LWPOLYLINE
  5
56
330
1F
100
AcDbEntity
  8
寸法
  6
Continuous
 62
     7
370
     9
100
AcDbPolyline
 90
        4
 70
     1
 43
3.0
 10
-1260.167782064093
 20
1236.782020094217
 42
0.4142135623731
 10
-1261.667782064093
 20
1238.282020094217
 42
0.4142135623731
 10
-1263.167782064093
 20
1236.782020094217
 42
0.4142135623731
 10
-1261.667782064093
 20
1235.282020094217
 42
0.4142135623731
  0
LWPOLYLINE
  5
57
330
1F
100
AcDbEntity
  8
寸法
  6
Continuous
 62
     7
370
     9
100
AcDbPolyline
 90
        4
 70
     1
 43
3.0
 10
-1060.167782064093
 20
-790.2179799057836
 42
0.4142135623731
 10
-1061.667782064093
 20
-788.7179799057836
 42
0.4142135623731
 10
-1063.167782064093
 20
-790.2179799057836
 42
0.4142135623731
 10
-1061.667782064093
 20
-791.7179799057836
 42
0.4142135623731
  0
LINE
  5
58
330
1F
100
AcDbEntity
  8
寸法
  6
Continuous
 62
   120
370
     5
100
AcDbLine
 10
-1061.667782064093
 20
1192.782020094216
 30
0.0
 11
-811.6677820640932
 21
1192.782020094216
 31
0.0
  0
LINE
  5
59
330
1F
100
AcDbEntity
  8
寸法
  6
Continuous
 62
   120
370
     5
100
AcDbLine
 10
-1061.667782064093
 20
1192.782020094216
 30
0.0
 11
-1061.667782064093
 21
-790.2179799057836
 31
0.0
  0
LWPOLYLINE
  5
5A
330
1F
100
AcDbEntity
  8
寸法
  6
Continuous
 62
     7
370
     9
100
AcDbPolyline
 90
        4
 70
     1
 43
3.0
 10
-1060.167782064093
 20
1192.782020094216
 42
0.4142135623731
 10
-1061.667782064093
 20
1194.282020094216
 42
0.4142135623731
 10
-1063.167782064093
 20
1192.782020094216
 42
0.4142135623731
 10
-1061.667782064093
 20
1191.282020094216
 42
0.4142135623731
  0
MTEXT
  5
5B
330
1F
100
AcDbEntity
  8
寸法
  6
Continuous
 62
     7
370
    70
100
AcDbMText
 10
-1276.667782064093
 20
-10.89297990578518
 30
0.0
 40
57.14999999999999
 41
412.5
 46
0.0
 71
     7
 72
     1
  1
{\fＭＳ ゴシック|b0|i0|c128|p49;枠外＝2,035}
 11
6.123031769111886E-17
 21
1.0
 31
0.0
 73
     1
 44
1.0
  0
MTEXT
  5
5C
330
1F
100
AcDbEntity
  8
寸法
  6
Continuous
 62
     7
370
    70
100
AcDbMText
 10
-1076.667782064093
 20
-16.89297990578313
 30
0.0
 40
57.14999999999999
 41
412.5
 46
0.0
 71
     7
 72
     1
  1
{\fＭＳ ゴシック|b0|i0|c128|p49;ＤＨ＝1,983}
 11
6.123031769111886E-17
 21
1.0
 31
0.0
 73
     1
 44
1.0
  0
MTEXT
  5
5D
330
1F
100
AcDbEntity
  8
寸法
  6
Continuous
 62
     7
370
   211
100
AcDbMText
 10
281.5822179359067
 20
-1042.642979905783
 30
0.0
 40
57.15000000000001
 41
337.5000000000001
 46
0.0
 71
     7
 72
     1
  1
{\fＭＳ ゴシック|b0|i0|c128|p49;ＤＷ＝810}
 73
     1
 44
1.0
  0
MTEXT
  5
5E
330
1F
100
AcDbEntity
  8
寸法
  6
Continuous
 62
     7
370
   211
100
AcDbMText
 10
-145.9177820640933
 20
-1242.642979905783
 30
0.0
 40
57.14999999999999
 41
412.5
 46
0.0
 71
     7
 72
     1
  1
{\fＭＳ ゴシック|b0|i0|c128|p49;枠内＝1,584}
 73
     1
 44
1.0
  0
MTEXT
  5
5F
330
1F
100
AcDbEntity
  8
寸法
  6
Continuous
 62
     7
370
   211
100
AcDbMText
 10
-145.9177820640933
 20
-1442.642979905783
 30
0.0
 40
57.14999999999999
 41
412.5
 46
0.0
 71
     7
 72
     1
  1
{\fＭＳ ゴシック|b0|i0|c128|p49;枠外＝1,644}
 73
     1
 44
1.0
  0
LINE
  5
60
330
1F
100
AcDbEntity
  8
0-0
  6
Continuous
 62
    92
370
    13
100
AcDbLine
 10
-731.6677820640926
 20
1206.782020094217
 30
0.0
 11
852.332217935906
 21
1206.782020094217
 31
0.0
  0
LINE
  5
61
330
1F
100
AcDbEntity
  8
0-0
  6
Continuous
 62
    92
370
    13
100
AcDbLine
 10
-761.6677820640926
 20
-798.7179799057835
 30
0.0
 11
-761.6677820640926
 21
1236.782020094217
 31
0.0
  0
ARC
  5
62
330
1F
100
AcDbEntity
  8
0-0
  6
Continuous
 62
    92
370
    13
100
AcDbCircle
 10
-703.1677820640947
 20
226.7820200942158
 30
0.0
 40
1.5
100
AcDbArc
 50
90.0
 51
180.0
  0
LINE
  5
63
330
1F
100
AcDbEntity
  8
0-0
  6
Continuous
 62
    92
370
    13
100
AcDbLine
 10
-664.1677820640926
 20
228.2820200942161
 30
0.0
 11
-703.1677820640947
 21
228.2820200942161
 31
0.0
  0
ARC
  5
64
330
1F
100
AcDbEntity
  8
0-0
  6
Continuous
 62
    92
370
    13
100
AcDbCircle
 10
-664.1677820640926
 20
226.7820200942158
 30
0.0
 40
1.5
100
AcDbArc
 50
0.0
 51
90.00000000000001
  0
LINE
  5
65
330
1F
100
AcDbEntity
  8
0-0
  6
Continuous
 62
    92
370
    13
100
AcDbLine
 10
-662.667782064094
 20
107.7820200942165
 30
0.0
 11
-662.667782064094
 21
226.7820200942158
 31
0.0
  0
ARC
  5
66
330
1F
100
AcDbEntity
  8
0-0
  6
Continuous
 62
    92
370
    13
100
AcDbCircle
 10
-664.1677820640926
 20
107.7820200942165
 30
0.0
 40
1.5
100
AcDbArc
 50
270.0
 51
0.0
  0
LINE
  5
67
330
1F
100
AcDbEntity
  8
0-0
  6
Continuous
 62
    92
370
    13
100
AcDbLine
 10
-703.1677820640947
 20
106.2820200942154
 30
0.0
 11
-664.1677820640926
 21
106.2820200942154
 31
0.0
  0
LINE
  5
68
330
1F
100
AcDbEntity
  8
0-0
  6
Continuous
 62
    92
370
    13
100
AcDbLine
 10
-704.6677820640933
 20
107.7820200942165
 30
0.0
 11
-704.6677820640933
 21
226.7820200942158
 31
0.0
  0
ARC
  5
69
330
1F
100
AcDbEntity
  8
0-0
  6
Continuous
 62
    92
370
    13
100
AcDbCircle
 10
-703.1677820640947
 20
107.7820200942165
 30
0.0
 40
1.5
100
AcDbArc
 50
180.0
 51
270.0
  0
ARC
  5
6A
330
1F
100
AcDbEntity
  8
0-0
  6
Continuous
 62
     7
370
     9
100
AcDbCircle
 10
-683.6677820640937
 20
137.6820200942166
 30
0.0
 40
15.0
100
AcDbArc
 50
180.0
 51
0.0
  0
ARC
  5
6B
330
1F
100
AcDbEntity
  8
0-0
  6
Continuous
 62
     7
370
     9
100
AcDbCircle
 10
-683.6677820640937
 20
196.8820200942149
 30
0.0
 40
15.0
100
AcDbArc
 50
0.0
 51
180.0
  0
LINE
  5
6C
330
1F
100
AcDbEntity
  8
0-0
  6
Continuous
 62
     7
370
     9
100
AcDbLine
 10
-668.6677820640937
 20
137.6820200942166
 30
0.0
 11
-668.6677820640937
 21
196.8820200942149
 31
0.0
  0
LINE
  5
6D
330
1F
100
AcDbEntity
  8
0-0
  6
Continuous
 62
     7
370
     9
100
AcDbLine
 10
-698.6677820640937
 20
196.8820200942149
 30
0.0
 11
-698.6677820640937
 21
137.6820200942166
 31
0.0
  0
LINE
  5
6E
330
1F
100
AcDbEntity
  8
0-0
  6
JWW_DASHED1
 62
   120
370
     5
100
AcDbLine
 10
-734.6677820640933
 20
1192.782020094216
 30
0.0
 11
-734.6677820640933
 21
-790.2179799057835
 31
0.0
  0
LINE
  5
6F
330
1F
100
AcDbEntity
  8
0-0
  6
JWW_DASHED1
 62
   120
370
     5
100
AcDbLine
 10
-731.6677820640926
 20
1192.782020094216
 30
0.0
 11
-734.6677820640933
 21
1192.782020094216
 31
0.0
  0
LINE
  5
70
330
1F
100
AcDbEntity
  8
0-0
  6
JWW_DASHED1
 62
   120
370
     5
100
AcDbLine
 10
-734.6677820640933
 20
-790.2179799057835
 30
0.0
 11
-731.6677820640926
 21
-790.2179799057835
 31
0.0
  0
LINE
  5
71
330
1F
100
AcDbEntity
  8
0-0
  6
Continuous
 62
    92
370
    13
100
AcDbLine
 10
882.332217935906
 20
-798.7179799057835
 30
0.0
 11
882.332217935906
 21
1236.782020094217
 31
0.0
  0
LINE
  5
72
330
1F
100
AcDbEntity
  8
0-0
  6
Continuous
 62
    92
370
    13
100
AcDbLine
 10
852.332217935906
 20
-790.0132009129467
 30
0.0
 11
852.332217935906
 21
-789.6802151032886
 31
0.0
  0
ARC
  5
73
330
1F
100
AcDbEntity
  8
0-0
  6
Continuous
 62
    92
370
    13
100
AcDbCircle
 10
784.832217935906
 20
226.7820200942158
 30
0.0
 40
1.5
100
AcDbArc
 50
90.0
 51
180.0
  0
LINE
  5
74
330
1F
100
AcDbEntity
  8
0-0
  6
Continuous
 62
    92
370
    13
100
AcDbLine
 10
823.832217935908
 20
228.2820200942161
 30
0.0
 11
784.832217935906
 21
228.2820200942161
 31
0.0
  0
ARC
  5
75
330
1F
100
AcDbEntity
  8
0-0
  6
Continuous
 62
    92
370
    13
100
AcDbCircle
 10
823.832217935908
 20
226.7820200942158
 30
0.0
 40
1.5
100
AcDbArc
 50
0.0
 51
90.00000000000001
  0
LINE
  5
76
330
1F
100
AcDbEntity
  8
0-0
  6
Continuous
 62
    92
370
    13
100
AcDbLine
 10
825.3322179359067
 20
107.7820200942165
 30
0.0
 11
825.3322179359067
 21
226.7820200942158
 31
0.0
  0
ARC
  5
77
330
1F
100
AcDbEntity
  8
0-0
  6
Continuous
 62
    92
370
    13
100
AcDbCircle
 10
823.832217935908
 20
107.7820200942165
 30
0.0
 40
1.5
100
AcDbArc
 50
270.0
 51
0.0
  0
LINE
  5
78
330
1F
100
AcDbEntity
  8
0-0
  6
Continuous
 62
    92
370
    13
100
AcDbLine
 10
784.832217935906
 20
106.2820200942154
 30
0.0
 11
823.832217935908
 21
106.2820200942154
 31
0.0
  0
LINE
  5
79
330
1F
100
AcDbEntity
  8
0-0
  6
Continuous
 62
    92
370
    13
100
AcDbLine
 10
783.3322179359054
 20
107.7820200942165
 30
0.0
 11
783.3322179359054
 21
226.7820200942158
 31
0.0
  0
ARC
  5
7A
330
1F
100
AcDbEntity
  8
0-0
  6
Continuous
 62
    92
370
    13
100
AcDbCircle
 10
784.832217935906
 20
107.7820200942165
 30
0.0
 40
1.5
100
AcDbArc
 50
180.0
 51
270.0
  0
ARC
  5
7B
330
1F
100
AcDbEntity
  8
0-0
  6
Continuous
 62
     7
370
     9
100
AcDbCircle
 10
804.3322179359068
 20
137.6820200942166
 30
0.0
 40
15.0
100
AcDbArc
 50
180.0
 51
0.0
  0
ARC
  5
7C
330
1F
100
AcDbEntity
  8
0-0
  6
Continuous
 62
     7
370
     9
100
AcDbCircle
 10
804.3322179359068
 20
196.8820200942149
 30
0.0
 40
15.0
100
AcDbArc
 50
0.0
 51
180.0
  0
LINE
  5
7D
330
1F
100
AcDbEntity
  8
0-0
  6
Continuous
 62
     7
370
     9
100
AcDbLine
 10
819.3322179359068
 20
137.6820200942166
 30
0.0
 11
819.3322179359068
 21
196.8820200942149
 31
0.0
  0
LINE
  5
7E
330
1F
100
AcDbEntity
  8
0-0
  6
Continuous
 62
     7
370
     9
100
AcDbLine
 10
789.3322179359068
 20
196.8820200942149
 30
0.0
 11
789.3322179359068
 21
137.6820200942166
 31
0.0
  0
LINE
  5
7F
330
1F
100
AcDbEntity
  8
0-0
  6
Continuous
 62
    92
370
    13
100
AcDbLine
 10
852.332217935906
 20
-789.6802151032886
 30
0.0
 11
852.332217935906
 21
1236.782020094217
 31
0.0
  0
LINE
  5
80
330
1F
100
AcDbEntity
  8
0-0
  6
Continuous
 62
    92
370
    13
100
AcDbLine
 10
-761.6677820640926
 20
1236.782020094217
 30
0.0
 11
882.332217935906
 21
1236.782020094217
 31
0.0
  0
LINE
  5
81
330
1F
100
AcDbEntity
  8
0-0
  6
JWW_DASHED1
 62
   120
370
     5
100
AcDbLine
 10
855.3322179359067
 20
1192.782020094216
 30
0.0
 11
855.3322179359067
 21
-790.2179799057835
 31
0.0
  0
LINE
  5
82
330
1F
100
AcDbEntity
  8
0-0
  6
JWW_DASHED1
 62
   120
370
     5
100
AcDbLine
 10
855.3322179359067
 20
-790.2179799057835
 30
0.0
 11
852.332217935906
 21
-790.2179799057835
 31
0.0
  0
LINE
  5
83
330
1F
100
AcDbEntity
  8
0-0
  6
JWW_DASHED1
 62
   120
370
     5
100
AcDbLine
 10
852.332217935906
 20
1192.782020094216
 30
0.0
 11
855.3322179359067
 21
1192.782020094216
 31
0.0
  0
LINE
  5
84
330
1F
100
AcDbEntity
  8
0-0
  6
Continuous
 62
    92
370
    13
100
AcDbLine
 10
45.3322179359067
 20
-790.2179799057835
 30
0.0
 11
45.3322179359067
 21
1192.782020094216
 31
0.0
  0
LINE
  5
85
330
1F
100
AcDbEntity
  8
0-0
  6
JWW_DASHED1
 62
   120
370
     5
100
AcDbLine
 10
75.3322179359084
 20
-790.2179799057835
 30
0.0
 11
75.3322179359084
 21
1192.782020094216
 31
0.0
  0
LINE
  5
86
330
1F
100
AcDbEntity
  8
0-0
  6
Continuous
 62
    92
370
    13
100
AcDbLine
 10
852.332217935906
 20
1192.782020094216
 30
0.0
 11
-731.6677820640926
 21
1192.782020094216
 31
0.0
  0
LINE
  5
87
330
1F
100
AcDbEntity
  8
0-0
  6
Continuous
 62
    92
370
    13
100
AcDbLine
 10
-731.6677820640926
 20
-790.2179799057835
 30
0.0
 11
852.332217935906
 21
-790.2179799057835
 31
0.0
  0
LINE
  5
88
330
1F
100
AcDbEntity
  8
0-0
  6
Continuous
 62
    92
370
    13
100
AcDbLine
 10
-731.6677820640926
 20
-798.7179799057835
 30
0.0
 11
-761.6677820640926
 21
-798.7179799057835
 31
0.0
  0
LINE
  5
89
330
1F
100
AcDbEntity
  8
0-0
  6
Continuous
 62
    92
370
    13
100
AcDbLine
 10
-731.6677820640926
 20
-798.7179799057835
 30
0.0
 11
-731.6677820640926
 21
1236.782020094217
 31
0.0
  0
LINE
  5
8A
330
1F
100
AcDbEntity
  8
0-0
  6
Continuous
 62
    92
370
    13
100
AcDbLine
 10
882.332217935906
 20
-798.7179799057835
 30
0.0
 11
852.332217935906
 21
-798.7179799057835
 31
0.0
  0
LINE
  5
8B
330
1F
100
AcDbEntity
  8
0-0
  6
Continuous
 62
    92
370
    13
100
AcDbLine
 10
852.332217935906
 20
-798.7179799057835
 30
0.0
 11
852.332217935906
 21
-790.0132009129467
 31
0.0
  0
LINE
  5
8C
330
1F
100
AcDbEntity
  8
0-0
  6
Continuous
 62
     7
370
     9
100
AcDbLine
 10
-616.1677820640928
 20
-640.2179799057835
 30
0.0
 11
-631.1677820640928
 21
-655.2179799057835
 31
0.0
  0
LINE
  5
8D
330
1F
100
AcDbEntity
  8
0-0
  6
Continuous
 62
     7
370
     9
100
AcDbLine
 10
-631.1677820640928
 20
1072.782020094217
 30
0.0
 11
-616.1677820640928
 21
1057.782020094217
 31
0.0
  0
LINE
  5
8E
330
1F
100
AcDbEntity
  8
0-0
  6
Continuous
 62
     7
370
     9
100
AcDbLine
 10
-631.1677820640928
 20
-790.2179799057835
 30
0.0
 11
-631.1677820640928
 21
1192.782020094217
 31
0.0
  0
LINE
  5
8F
330
1F
100
AcDbEntity
  8
0-0
  6
Continuous
 62
     7
370
     9
100
AcDbLine
 10
-43.16778206409424
 20
-640.2179799057835
 30
0.0
 11
-28.16778206409424
 21
-655.2179799057835
 31
0.0
  0
LINE
  5
90
330
1F
100
AcDbEntity
  8
0-0
  6
Continuous
 62
     7
370
     9
100
AcDbLine
 10
-28.16778206409424
 20
1072.782020094217
 30
0.0
 11
-43.16778206409424
 21
1057.782020094217
 31
0.0
  0
LINE
  5
91
330
1F
100
AcDbEntity
  8
0-0
  6
Continuous
 62
     7
370
     9
100
AcDbLine
 10
-28.16778206409424
 20
-790.2179799057835
 30
0.0
 11
-28.16778206409424
 21
1192.782020094217
 31
0.0
  0
LINE
  5
92
330
1F
100
AcDbEntity
  8
0-0
  6
Continuous
 62
     7
370
     9
100
AcDbLine
 10
-631.1677820640928
 20
1072.782020094217
 30
0.0
 11
-28.16778206409424
 21
1072.782020094217
 31
0.0
  0
LINE
  5
93
330
1F
100
AcDbEntity
  8
0-0
  6
Continuous
 62
     7
370
     9
100
AcDbLine
 10
-631.1677820640928
 20
-655.2179799057835
 30
0.0
 11
-28.16778206409424
 21
-655.2179799057835
 31
0.0
  0
LINE
  5
94
330
1F
100
AcDbEntity
  8
0-0
  6
Continuous
 62
     7
370
     9
100
AcDbLine
 10
-616.1677820640928
 20
-117.2179799057835
 30
0.0
 11
-631.1677820640928
 21
-132.2179799057835
 31
0.0
  0
LINE
  5
95
330
1F
100
AcDbEntity
  8
0-0
  6
Continuous
 62
     7
370
     9
100
AcDbLine
 10
-631.1677820640928
 20
-207.2179799057835
 30
0.0
 11
-616.1677820640928
 21
-222.2179799057835
 31
0.0
  0
LINE
  5
96
330
1F
100
AcDbEntity
  8
0-0
  6
Continuous
 62
     7
370
     9
100
AcDbLine
 10
-43.16778206409424
 20
-117.2179799057835
 30
0.0
 11
-28.16778206409424
 21
-132.2179799057835
 31
0.0
  0
LINE
  5
97
330
1F
100
AcDbEntity
  8
0-0
  6
Continuous
 62
     7
370
     9
100
AcDbLine
 10
-28.16778206409424
 20
-207.2179799057835
 30
0.0
 11
-43.16778206409424
 21
-222.2179799057835
 31
0.0
  0
LINE
  5
98
330
1F
100
AcDbEntity
  8
0-0
  6
Continuous
 62
     7
370
     9
100
AcDbLine
 10
-631.1677820640928
 20
-132.2179799057835
 30
0.0
 11
-28.16778206409424
 21
-132.2179799057835
 31
0.0
  0
LINE
  5
99
330
1F
100
AcDbEntity
  8
0-0
  6
Continuous
 62
     7
370
     9
100
AcDbLine
 10
-631.1677820640928
 20
-207.2179799057835
 30
0.0
 11
-28.16778206409424
 21
-207.2179799057835
 31
0.0
  0
LINE
  5
9A
330
1F
100
AcDbEntity
  8
0-0
  6
Continuous
 62
     7
370
     9
100
AcDbLine
 10
-586.1677820640928
 20
-610.2179799057835
 30
0.0
 11
-586.1677820640928
 21
-252.2179799057835
 31
0.0
  0
LINE
  5
9B
330
1F
100
AcDbEntity
  8
0-0
  6
Continuous
 62
     7
370
     9
100
AcDbLine
 10
-586.1677820640928
 20
-610.2179799057835
 30
0.0
 11
-601.1677820640928
 21
-625.2179799057835
 31
0.0
  0
LINE
  5
9C
330
1F
100
AcDbEntity
  8
0-0
  6
Continuous
 62
     7
370
     9
100
AcDbLine
 10
-601.1677820640928
 20
-237.2179799057835
 30
0.0
 11
-586.1677820640928
 21
-252.2179799057835
 31
0.0
  0
LINE
  5
9D
330
1F
100
AcDbEntity
  8
0-0
  6
Continuous
 62
     7
370
     9
100
AcDbLine
 10
-73.16778206409424
 20
-610.2179799057835
 30
0.0
 11
-58.16778206409424
 21
-625.2179799057835
 31
0.0
  0
LINE
  5
9E
330
1F
100
AcDbEntity
  8
0-0
  6
Continuous
 62
     7
370
     9
100
AcDbLine
 10
-58.16778206409424
 20
-237.2179799057835
 30
0.0
 11
-73.16778206409424
 21
-252.2179799057835
 31
0.0
  0
LINE
  5
9F
330
1F
100
AcDbEntity
  8
0-0
  6
Continuous
 62
     7
370
     9
100
AcDbLine
 10
-586.1677820640928
 20
-252.2179799057835
 30
0.0
 11
-73.16778206409424
 21
-252.2179799057835
 31
0.0
  0
LINE
  5
A0
330
1F
100
AcDbEntity
  8
0-0
  6
Continuous
 62
     7
370
     9
100
AcDbLine
 10
-73.16778206409424
 20
-610.2179799057835
 30
0.0
 11
-73.16778206409424
 21
-252.2179799057835
 31
0.0
  0
LINE
  5
A1
330
1F
100
AcDbEntity
  8
0-0
  6
Continuous
 62
     7
370
     9
100
AcDbLine
 10
-586.1677820640928
 20
-610.2179799057835
 30
0.0
 11
-73.16778206409424
 21
-610.2179799057835
 31
0.0
  0
LINE
  5
A2
330
1F
100
AcDbEntity
  8
0-0
  6
Continuous
 62
    92
370
    13
100
AcDbLine
 10
-616.1677820640928
 20
1057.782020094217
 30
0.0
 11
-43.16778206409424
 21
1057.782020094217
 31
0.0
  0
LINE
  5
A3
330
1F
100
AcDbEntity
  8
0-0
  6
Continuous
 62
    92
370
    13
100
AcDbLine
 10
-616.1677820640928
 20
-640.2179799057835
 30
0.0
 11
-43.16778206409424
 21
-640.2179799057835
 31
0.0
  0
LINE
  5
A4
330
1F
100
AcDbEntity
  8
0-0
  6
Continuous
 62
    92
370
    13
100
AcDbLine
 10
-616.1677820640928
 20
-117.2179799057835
 30
0.0
 11
-43.16778206409424
 21
-117.2179799057835
 31
0.0
  0
LINE
  5
A5
330
1F
100
AcDbEntity
  8
0-0
  6
Continuous
 62
    92
370
    13
100
AcDbLine
 10
-616.1677820640928
 20
-222.2179799057835
 30
0.0
 11
-43.16778206409424
 21
-222.2179799057835
 31
0.0
  0
LINE
  5
A6
330
1F
100
AcDbEntity
  8
0-0
  6
Continuous
 62
    92
370
    13
100
AcDbLine
 10
-616.1677820640928
 20
-117.2179799057835
 30
0.0
 11
-616.1677820640928
 21
1057.782020094217
 31
0.0
  0
LINE
  5
A7
330
1F
100
AcDbEntity
  8
0-0
  6
Continuous
 62
    92
370
    13
100
AcDbLine
 10
-616.1677820640928
 20
-640.2179799057835
 30
0.0
 11
-616.1677820640928
 21
-222.2179799057835
 31
0.0
  0
LINE
  5
A8
330
1F
100
AcDbEntity
  8
0-0
  6
Continuous
 62
    92
370
    13
100
AcDbLine
 10
-43.16778206409424
 20
-117.2179799057835
 30
0.0
 11
-43.16778206409424
 21
1057.782020094217
 31
0.0
  0
LINE
  5
A9
330
1F
100
AcDbEntity
  8
0-0
  6
Continuous
 62
    92
370
    13
100
AcDbLine
 10
-43.16778206409424
 20
-640.2179799057835
 30
0.0
 11
-43.16778206409424
 21
-222.2179799057835
 31
0.0
  0
LINE
  5
AA
330
1F
100
AcDbEntity
  8
0-0
  6
Continuous
 62
     7
370
     9
100
AcDbLine
 10
163.8322179359071
 20
-640.2179799057835
 30
0.0
 11
148.8322179359071
 21
-655.2179799057835
 31
0.0
  0
LINE
  5
AB
330
1F
100
AcDbEntity
  8
0-0
  6
Continuous
 62
     7
370
     9
100
AcDbLine
 10
148.8322179359071
 20
1072.782020094217
 30
0.0
 11
163.8322179359071
 21
1057.782020094217
 31
0.0
  0
LINE
  5
AC
330
1F
100
AcDbEntity
  8
0-0
  6
Continuous
 62
     7
370
     9
100
AcDbLine
 10
148.8322179359071
 20
-790.2179799057835
 30
0.0
 11
148.8322179359071
 21
1192.782020094217
 31
0.0
  0
LINE
  5
AD
330
1F
100
AcDbEntity
  8
0-0
  6
Continuous
 62
     7
370
     9
100
AcDbLine
 10
736.8322179359058
 20
-640.2179799057835
 30
0.0
 11
751.8322179359058
 21
-655.2179799057835
 31
0.0
  0
LINE
  5
AE
330
1F
100
AcDbEntity
  8
0-0
  6
Continuous
 62
     7
370
     9
100
AcDbLine
 10
751.8322179359058
 20
1072.782020094217
 30
0.0
 11
736.8322179359058
 21
1057.782020094217
 31
0.0
  0
LINE
  5
AF
330
1F
100
AcDbEntity
  8
0-0
  6
Continuous
 62
     7
370
     9
100
AcDbLine
 10
751.8322179359058
 20
-790.2179799057835
 30
0.0
 11
751.8322179359058
 21
1192.782020094217
 31
0.0
  0
LINE
  5
B0
330
1F
100
AcDbEntity
  8
0-0
  6
Continuous
 62
     7
370
     9
100
AcDbLine
 10
148.8322179359071
 20
1072.782020094217
 30
0.0
 11
751.8322179359058
 21
1072.782020094217
 31
0.0
  0
LINE
  5
B1
330
1F
100
AcDbEntity
  8
0-0
  6
Continuous
 62
     7
370
     9
100
AcDbLine
 10
148.8322179359071
 20
-655.2179799057835
 30
0.0
 11
751.8322179359058
 21
-655.2179799057835
 31
0.0
  0
LINE
  5
B2
330
1F
100
AcDbEntity
  8
0-0
  6
Continuous
 62
     7
370
     9
100
AcDbLine
 10
163.8322179359071
 20
-117.2179799057835
 30
0.0
 11
148.8322179359071
 21
-132.2179799057835
 31
0.0
  0
LINE
  5
B3
330
1F
100
AcDbEntity
  8
0-0
  6
Continuous
 62
     7
370
     9
100
AcDbLine
 10
148.8322179359071
 20
-207.2179799057835
 30
0.0
 11
163.8322179359071
 21
-222.2179799057835
 31
0.0
  0
LINE
  5
B4
330
1F
100
AcDbEntity
  8
0-0
  6
Continuous
 62
     7
370
     9
100
AcDbLine
 10
736.8322179359058
 20
-117.2179799057835
 30
0.0
 11
751.8322179359058
 21
-132.2179799057835
 31
0.0
  0
LINE
  5
B5
330
1F
100
AcDbEntity
  8
0-0
  6
Continuous
 62
     7
370
     9
100
AcDbLine
 10
751.8322179359058
 20
-207.2179799057835
 30
0.0
 11
736.8322179359058
 21
-222.2179799057835
 31
0.0
  0
LINE
  5
B6
330
1F
100
AcDbEntity
  8
0-0
  6
Continuous
 62
     7
370
     9
100
AcDbLine
 10
148.8322179359071
 20
-132.2179799057835
 30
0.0
 11
751.8322179359058
 21
-132.2179799057835
 31
0.0
  0
LINE
  5
B7
330
1F
100
AcDbEntity
  8
0-0
  6
Continuous
 62
     7
370
     9
100
AcDbLine
 10
148.8322179359071
 20
-207.2179799057835
 30
0.0
 11
751.8322179359058
 21
-207.2179799057835
 31
0.0
  0
LINE
  5
B8
330
1F
100
AcDbEntity
  8
0-0
  6
Continuous
 62
     7
370
     9
100
AcDbLine
 10
193.8322179359071
 20
-610.2179799057835
 30
0.0
 11
193.8322179359071
 21
-252.2179799057835
 31
0.0
  0
LINE
  5
B9
330
1F
100
AcDbEntity
  8
0-0
  6
Continuous
 62
     7
370
     9
100
AcDbLine
 10
193.8322179359071
 20
-610.2179799057835
 30
0.0
 11
178.8322179359071
 21
-625.2179799057835
 31
0.0
  0
LINE
  5
BA
330
1F
100
AcDbEntity
  8
0-0
  6
Continuous
 62
     7
370
     9
100
AcDbLine
 10
178.8322179359071
 20
-237.2179799057835
 30
0.0
 11
193.8322179359071
 21
-252.2179799057835
 31
0.0
  0
LINE
  5
BB
330
1F
100
AcDbEntity
  8
0-0
  6
Continuous
 62
     7
370
     9
100
AcDbLine
 10
706.8322179359058
 20
-610.2179799057835
 30
0.0
 11
721.8322179359058
 21
-625.2179799057835
 31
0.0
  0
LINE
  5
BC
330
1F
100
AcDbEntity
  8
0-0
  6
Continuous
 62
     7
370
     9
100
AcDbLine
 10
721.8322179359058
 20
-237.2179799057835
 30
0.0
 11
706.8322179359058
 21
-252.2179799057835
 31
0.0
  0
LINE
  5
BD
330
1F
100
AcDbEntity
  8
0-0
  6
Continuous
 62
     7
370
     9
100
AcDbLine
 10
193.8322179359071
 20
-252.2179799057835
 30
0.0
 11
706.8322179359058
 21
-252.2179799057835
 31
0.0
  0
LINE
  5
BE
330
1F
100
AcDbEntity
  8
0-0
  6
Continuous
 62
     7
370
     9
100
AcDbLine
 10
706.8322179359058
 20
-610.2179799057835
 30
0.0
 11
706.8322179359058
 21
-252.2179799057835
 31
0.0
  0
LINE
  5
BF
330
1F
100
AcDbEntity
  8
0-0
  6
Continuous
 62
     7
370
     9
100
AcDbLine
 10
193.8322179359071
 20
-610.2179799057835
 30
0.0
 11
706.8322179359058
 21
-610.2179799057835
 31
0.0
  0
LINE
  5
C0
330
1F
100
AcDbEntity
  8
0-0
  6
Continuous
 62
    92
370
    13
100
AcDbLine
 10
163.8322179359071
 20
1057.782020094217
 30
0.0
 11
736.8322179359058
 21
1057.782020094217
 31
0.0
  0
LINE
  5
C1
330
1F
100
AcDbEntity
  8
0-0
  6
Continuous
 62
    92
370
    13
100
AcDbLine
 10
163.8322179359071
 20
-640.2179799057835
 30
0.0
 11
736.8322179359058
 21
-640.2179799057835
 31
0.0
  0
LINE
  5
C2
330
1F
100
AcDbEntity
  8
0-0
  6
Continuous
 62
    92
370
    13
100
AcDbLine
 10
163.8322179359071
 20
-117.2179799057835
 30
0.0
 11
736.8322179359058
 21
-117.2179799057835
 31
0.0
  0
LINE
  5
C3
330
1F
100
AcDbEntity
  8
0-0
  6
Continuous
 62
    92
370
    13
100
AcDbLine
 10
163.8322179359071
 20
-222.2179799057835
 30
0.0
 11
736.8322179359058
 21
-222.2179799057835
 31
0.0
  0
LINE
  5
C4
330
1F
100
AcDbEntity
  8
0-0
  6
Continuous
 62
    92
370
    13
100
AcDbLine
 10
163.8322179359071
 20
-117.2179799057835
 30
0.0
 11
163.8322179359071
 21
1057.782020094217
 31
0.0
  0
LINE
  5
C5
330
1F
100
AcDbEntity
  8
0-0
  6
Continuous
 62
    92
370
    13
100
AcDbLine
 10
163.8322179359071
 20
-640.2179799057835
 30
0.0
 11
163.8322179359071
 21
-222.2179799057835
 31
0.0
  0
LINE
  5
C6
330
1F
100
AcDbEntity
  8
0-0
  6
Continuous
 62
    92
370
    13
100
AcDbLine
 10
736.8322179359058
 20
-117.2179799057835
 30
0.0
 11
736.8322179359058
 21
1057.782020094217
 31
0.0
  0
LINE
  5
C7
330
1F
100
AcDbEntity
  8
0-0
  6
Continuous
 62
    92
370
    13
100
AcDbLine
 10
736.8322179359058
 20
-640.2179799057835
 30
0.0
 11
736.8322179359058
 21
-222.2179799057835
 31
0.0
  0
LINE
  5
C8
330
1F
100
AcDbEntity
  8
0-0
  6
JWW_DASHED1
 62
   120
370
     5
100
AcDbLine
 10
163.8322179359047
 20
-116.218128219727
 30
0.0
 11
736.8322179359058
 21
-116.218128219727
 31
0.0
  0
LINE
  5
C9
330
1F
100
AcDbEntity
  8
0-0
  6
JWW_DASHED1
 62
   120
370
     5
100
AcDbLine
 10
163.8322179359047
 20
-103.2181282186275
 30
0.0
 11
736.8322179359058
 21
-103.2181282186275
 31
0.0
  0
LINE
  5
CA
330
1F
100
AcDbEntity
  8
0-0
  6
JWW_DASHED1
 62
   120
370
     5
100
AcDbLine
 10
163.8322179359047
 20
-102.2181282187273
 30
0.0
 11
736.8322179359058
 21
-102.2181282187273
 31
0.0
  0
LINE
  5
CB
330
1F
100
AcDbEntity
  8
0-0
  6
JWW_DASHED1
 62
   120
370
     5
100
AcDbLine
 10
163.8322179359047
 20
-89.2181282176276
 30
0.0
 11
736.8322179359058
 21
-89.2181282176276
 31
0.0
  0
LINE
  5
CC
330
1F
100
AcDbEntity
  8
0-0
  6
JWW_DASHED1
 62
   120
370
     5
100
AcDbLine
 10
163.8322179359047
 20
-88.21812821772741
 30
0.0
 11
736.8322179359058
 21
-88.21812821772741
 31
0.0
  0
LINE
  5
CD
330
1F
100
AcDbEntity
  8
0-0
  6
JWW_DASHED1
 62
   120
370
     5
100
AcDbLine
 10
163.8322179359047
 20
-75.2181282166278
 30
0.0
 11
736.8322179359058
 21
-75.2181282166278
 31
0.0
  0
LINE
  5
CE
330
1F
100
AcDbEntity
  8
0-0
  6
JWW_DASHED1
 62
   120
370
     5
100
AcDbLine
 10
163.8322179359047
 20
-74.21812821672762
 30
0.0
 11
736.8322179359058
 21
-74.21812821672762
 31
0.0
  0
LINE
  5
CF
330
1F
100
AcDbEntity
  8
0-0
  6
JWW_DASHED1
 62
   120
370
     5
100
AcDbLine
 10
163.8322179359047
 20
-61.21812821562802
 30
0.0
 11
736.8322179359058
 21
-61.21812821562802
 31
0.0
  0
LINE
  5
D0
330
1F
100
AcDbEntity
  8
0-0
  6
JWW_DASHED1
 62
   120
370
     5
100
AcDbLine
 10
163.8322179359047
 20
-60.21812821572784
 30
0.0
 11
736.8322179359058
 21
-60.21812821572784
 31
0.0
  0
LINE
  5
D1
330
1F
100
AcDbEntity
  8
0-0
  6
JWW_DASHED1
 62
   120
370
     5
100
AcDbLine
 10
163.8322179359047
 20
-47.21812821462823
 30
0.0
 11
736.8322179359058
 21
-47.21812821462823
 31
0.0
  0
LINE
  5
D2
330
1F
100
AcDbEntity
  8
0-0
  6
JWW_DASHED1
 62
   120
370
     5
100
AcDbLine
 10
163.8322179359047
 20
-46.21812821472805
 30
0.0
 11
736.8322179359058
 21
-46.21812821472805
 31
0.0
  0
LINE
  5
D3
330
1F
100
AcDbEntity
  8
0-0
  6
JWW_DASHED1
 62
   120
370
     5
100
AcDbLine
 10
163.8322179359047
 20
-33.21812821362844
 30
0.0
 11
736.8322179359058
 21
-33.21812821362844
 31
0.0
  0
LINE
  5
D4
330
1F
100
AcDbEntity
  8
0-0
  6
JWW_DASHED1
 62
   120
370
     5
100
AcDbLine
 10
163.8322179359047
 20
-32.21812821372826
 30
0.0
 11
736.8322179359058
 21
-32.21812821372826
 31
0.0
  0
LINE
  5
D5
330
1F
100
AcDbEntity
  8
0-0
  6
JWW_DASHED1
 62
   120
370
     5
100
AcDbLine
 10
163.8322179359047
 20
-19.21812821262865
 30
0.0
 11
736.8322179359058
 21
-19.21812821262865
 31
0.0
  0
LINE
  5
D6
330
1F
100
AcDbEntity
  8
0-0
  6
JWW_DASHED1
 62
   120
370
     5
100
AcDbLine
 10
163.8322179359047
 20
-18.21812821272847
 30
0.0
 11
736.8322179359058
 21
-18.21812821272847
 31
0.0
  0
LINE
  5
D7
330
1F
100
AcDbEntity
  8
0-0
  6
JWW_DASHED1
 62
   120
370
     5
100
AcDbLine
 10
163.8322179359047
 20
-5.218128211628859
 30
0.0
 11
736.8322179359058
 21
-5.218128211628859
 31
0.0
  0
LINE
  5
D8
330
1F
100
AcDbEntity
  8
0-0
  6
JWW_DASHED1
 62
   120
370
     5
100
AcDbLine
 10
163.8322179359047
 20
-4.218128211728676
 30
0.0
 11
736.8322179359058
 21
-4.218128211728676
 31
0.0
  0
LINE
  5
D9
330
1F
100
AcDbEntity
  8
0-0
  6
JWW_DASHED1
 62
   120
370
     5
100
AcDbLine
 10
163.8322179359047
 20
8.781871789370825
 30
0.0
 11
736.8322179359058
 21
8.781871789370825
 31
0.0
  0
LINE
  5
DA
330
1F
100
AcDbEntity
  8
0-0
  6
JWW_DASHED1
 62
   120
370
     5
100
AcDbLine
 10
163.8322179359047
 20
9.781871789271008
 30
0.0
 11
736.8322179359058
 21
9.781871789271008
 31
0.0
  0
LINE
  5
DB
330
1F
100
AcDbEntity
  8
0-0
  6
JWW_DASHED1
 62
   120
370
     5
100
AcDbLine
 10
163.8322179359047
 20
22.78187179037072
 30
0.0
 11
736.8322179359058
 21
22.78187179037072
 31
0.0
  0
LINE
  5
DC
330
1F
100
AcDbEntity
  8
0-0
  6
JWW_DASHED1
 62
   120
370
     5
100
AcDbLine
 10
163.8322179359047
 20
23.78187179027091
 30
0.0
 11
736.8322179359058
 21
23.78187179027091
 31
0.0
  0
LINE
  5
DD
330
1F
100
AcDbEntity
  8
0-0
  6
JWW_DASHED1
 62
   120
370
     5
100
AcDbLine
 10
163.8322179359047
 20
36.78187179137051
 30
0.0
 11
736.8322179359058
 21
36.78187179137051
 31
0.0
  0
LINE
  5
DE
330
1F
100
AcDbEntity
  8
0-0
  6
JWW_DASHED1
 62
   120
370
     5
100
AcDbLine
 10
163.8322179359047
 20
37.7818717912707
 30
0.0
 11
736.8322179359058
 21
37.7818717912707
 31
0.0
  0
LINE
  5
DF
330
1F
100
AcDbEntity
  8
0-0
  6
JWW_DASHED1
 62
   120
370
     5
100
AcDbLine
 10
163.8322179359047
 20
50.7818717923703
 30
0.0
 11
736.8322179359058
 21
50.7818717923703
 31
0.0
  0
LINE
  5
E0
330
1F
100
AcDbEntity
  8
0-0
  6
JWW_DASHED1
 62
   120
370
     5
100
AcDbLine
 10
163.8322179359047
 20
51.78187179227049
 30
0.0
 11
736.8322179359058
 21
51.78187179227049
 31
0.0
  0
LINE
  5
E1
330
1F
100
AcDbEntity
  8
0-0
  6
JWW_DASHED1
 62
   120
370
     5
100
AcDbLine
 10
163.8322179359047
 20
64.7818717933701
 30
0.0
 11
736.8322179359058
 21
64.7818717933701
 31
0.0
  0
LINE
  5
E2
330
1F
100
AcDbEntity
  8
0-0
  6
JWW_DASHED1
 62
   120
370
     5
100
AcDbLine
 10
163.8322179359047
 20
65.78187179327028
 30
0.0
 11
736.8322179359058
 21
65.78187179327028
 31
0.0
  0
LINE
  5
E3
330
1F
100
AcDbEntity
  8
0-0
  6
JWW_DASHED1
 62
   120
370
     5
100
AcDbLine
 10
163.8322179359047
 20
78.78187179436989
 30
0.0
 11
736.8322179359058
 21
78.78187179436989
 31
0.0
  0
LINE
  5
E4
330
1F
100
AcDbEntity
  8
0-0
  6
JWW_DASHED1
 62
   120
370
     5
100
AcDbLine
 10
163.8322179359047
 20
79.78187179427007
 30
0.0
 11
736.8322179359058
 21
79.78187179427007
 31
0.0
  0
LINE
  5
E5
330
1F
100
AcDbEntity
  8
0-0
  6
JWW_DASHED1
 62
   120
370
     5
100
AcDbLine
 10
163.8322179359047
 20
92.78187179536968
 30
0.0
 11
736.8322179359058
 21
92.78187179536968
 31
0.0
  0
LINE
  5
E6
330
1F
100
AcDbEntity
  8
0-0
  6
JWW_DASHED1
 62
   120
370
     5
100
AcDbLine
 10
163.8322179359047
 20
93.78187179526986
 30
0.0
 11
736.8322179359058
 21
93.78187179526986
 31
0.0
  0
LINE
  5
E7
330
1F
100
AcDbEntity
  8
0-0
  6
JWW_DASHED1
 62
   120
370
     5
100
AcDbLine
 10
163.8322179359047
 20
106.7818717963695
 30
0.0
 11
736.8322179359058
 21
106.7818717963695
 31
0.0
  0
LINE
  5
E8
330
1F
100
AcDbEntity
  8
0-0
  6
JWW_DASHED1
 62
   120
370
     5
100
AcDbLine
 10
163.8322179359047
 20
107.7818717962697
 30
0.0
 11
736.8322179359058
 21
107.7818717962697
 31
0.0
  0
LINE
  5
E9
330
1F
100
AcDbEntity
  8
0-0
  6
JWW_DASHED1
 62
   120
370
     5
100
AcDbLine
 10
163.8322179359047
 20
120.7818717973691
 30
0.0
 11
736.8322179359058
 21
120.7818717973691
 31
0.0
  0
LINE
  5
EA
330
1F
100
AcDbEntity
  8
0-0
  6
JWW_DASHED1
 62
   120
370
     5
100
AcDbLine
 10
163.8322179359047
 20
121.7818717972693
 30
0.0
 11
736.8322179359058
 21
121.7818717972693
 31
0.0
  0
LINE
  5
EB
330
1F
100
AcDbEntity
  8
0-0
  6
JWW_DASHED1
 62
   120
370
     5
100
AcDbLine
 10
163.8322179359047
 20
134.7818717983691
 30
0.0
 11
736.8322179359058
 21
134.7818717983691
 31
0.0
  0
LINE
  5
EC
330
1F
100
AcDbEntity
  8
0-0
  6
JWW_DASHED1
 62
   120
370
     5
100
AcDbLine
 10
163.8322179359047
 20
135.7818717982692
 30
0.0
 11
736.8322179359058
 21
135.7818717982692
 31
0.0
  0
LINE
  5
ED
330
1F
100
AcDbEntity
  8
0-0
  6
JWW_DASHED1
 62
   120
370
     5
100
AcDbLine
 10
163.8322179359047
 20
148.7818717993688
 30
0.0
 11
736.8322179359058
 21
148.7818717993688
 31
0.0
  0
LINE
  5
EE
330
1F
100
AcDbEntity
  8
0-0
  6
JWW_DASHED1
 62
   120
370
     5
100
AcDbLine
 10
163.8322179359047
 20
149.781871799269
 30
0.0
 11
736.8322179359058
 21
149.781871799269
 31
0.0
  0
LINE
  5
EF
330
1F
100
AcDbEntity
  8
0-0
  6
JWW_DASHED1
 62
   120
370
     5
100
AcDbLine
 10
163.8322179359047
 20
162.7818718003686
 30
0.0
 11
736.8322179359058
 21
162.7818718003686
 31
0.0
  0
LINE
  5
F0
330
1F
100
AcDbEntity
  8
0-0
  6
JWW_DASHED1
 62
   120
370
     5
100
AcDbLine
 10
163.8322179359047
 20
163.7818718002688
 30
0.0
 11
736.8322179359058
 21
163.7818718002688
 31
0.0
  0
LINE
  5
F1
330
1F
100
AcDbEntity
  8
0-0
  6
JWW_DASHED1
 62
   120
370
     5
100
AcDbLine
 10
163.8322179359047
 20
176.7818718013684
 30
0.0
 11
736.8322179359058
 21
176.7818718013684
 31
0.0
  0
LINE
  5
F2
330
1F
100
AcDbEntity
  8
0-0
  6
JWW_DASHED1
 62
   120
370
     5
100
AcDbLine
 10
163.8322179359047
 20
177.7818718012686
 30
0.0
 11
736.8322179359058
 21
177.7818718012686
 31
0.0
  0
LINE
  5
F3
330
1F
100
AcDbEntity
  8
0-0
  6
JWW_DASHED1
 62
   120
370
     5
100
AcDbLine
 10
163.8322179359047
 20
190.7818718023682
 30
0.0
 11
736.8322179359058
 21
190.7818718023682
 31
0.0
  0
LINE
  5
F4
330
1F
100
AcDbEntity
  8
0-0
  6
JWW_DASHED1
 62
   120
370
     5
100
AcDbLine
 10
163.8322179359047
 20
191.7818718022684
 30
0.0
 11
736.8322179359058
 21
191.7818718022684
 31
0.0
  0
LINE
  5
F5
330
1F
100
AcDbEntity
  8
0-0
  6
JWW_DASHED1
 62
   120
370
     5
100
AcDbLine
 10
163.8322179359047
 20
204.781871803368
 30
0.0
 11
736.8322179359058
 21
204.781871803368
 31
0.0
  0
LINE
  5
F6
330
1F
100
AcDbEntity
  8
0-0
  6
JWW_DASHED1
 62
   120
370
     5
100
AcDbLine
 10
163.8322179359047
 20
205.7818718032682
 30
0.0
 11
736.8322179359058
 21
205.7818718032682
 31
0.0
  0
LINE
  5
F7
330
1F
100
AcDbEntity
  8
0-0
  6
JWW_DASHED1
 62
   120
370
     5
100
AcDbLine
 10
163.8322179359047
 20
218.7818718043678
 30
0.0
 11
736.8322179359058
 21
218.7818718043678
 31
0.0
  0
LINE
  5
F8
330
1F
100
AcDbEntity
  8
0-0
  6
JWW_DASHED1
 62
   120
370
     5
100
AcDbLine
 10
163.8322179359047
 20
219.781871804268
 30
0.0
 11
736.8322179359058
 21
219.781871804268
 31
0.0
  0
LINE
  5
F9
330
1F
100
AcDbEntity
  8
0-0
  6
JWW_DASHED1
 62
   120
370
     5
100
AcDbLine
 10
163.8322179359047
 20
232.7818718053676
 30
0.0
 11
736.8322179359058
 21
232.7818718053676
 31
0.0
  0
LINE
  5
FA
330
1F
100
AcDbEntity
  8
0-0
  6
JWW_DASHED1
 62
   120
370
     5
100
AcDbLine
 10
163.8322179359047
 20
233.7818718052678
 30
0.0
 11
736.8322179359058
 21
233.7818718052678
 31
0.0
  0
LINE
  5
FB
330
1F
100
AcDbEntity
  8
0-0
  6
JWW_DASHED1
 62
   120
370
     5
100
AcDbLine
 10
163.8322179359047
 20
246.7818718063674
 30
0.0
 11
736.8322179359058
 21
246.7818718063674
 31
0.0
  0
LINE
  5
FC
330
1F
100
AcDbEntity
  8
0-0
  6
JWW_DASHED1
 62
   120
370
     5
100
AcDbLine
 10
163.8322179359047
 20
247.7818718062676
 30
0.0
 11
736.8322179359058
 21
247.7818718062676
 31
0.0
  0
LINE
  5
FD
330
1F
100
AcDbEntity
  8
0-0
  6
JWW_DASHED1
 62
   120
370
     5
100
AcDbLine
 10
163.8322179359047
 20
260.7818718073672
 30
0.0
 11
736.8322179359058
 21
260.7818718073672
 31
0.0
  0
LINE
  5
FE
330
1F
100
AcDbEntity
  8
0-0
  6
JWW_DASHED1
 62
   120
370
     5
100
AcDbLine
 10
163.8322179359047
 20
261.7818718072671
 30
0.0
 11
736.8322179359058
 21
261.7818718072671
 31
0.0
  0
LINE
  5
FF
330
1F
100
AcDbEntity
  8
0-0
  6
JWW_DASHED1
 62
   120
370
     5
100
AcDbLine
 10
163.8322179359047
 20
274.7818718083669
 30
0.0
 11
736.8322179359058
 21
274.7818718083669
 31
0.0
  0
LINE
  5
100
330
1F
100
AcDbEntity
  8
0-0
  6
JWW_DASHED1
 62
   120
370
     5
100
AcDbLine
 10
163.8322179359047
 20
275.7818718082671
 30
0.0
 11
736.8322179359058
 21
275.7818718082671
 31
0.0
  0
LINE
  5
101
330
1F
100
AcDbEntity
  8
0-0
  6
JWW_DASHED1
 62
   120
370
     5
100
AcDbLine
 10
163.8322179359047
 20
288.7818718093667
 30
0.0
 11
736.8322179359058
 21
288.7818718093667
 31
0.0
  0
LINE
  5
102
330
1F
100
AcDbEntity
  8
0-0
  6
JWW_DASHED1
 62
   120
370
     5
100
AcDbLine
 10
163.8322179359047
 20
289.7818718092669
 30
0.0
 11
736.8322179359058
 21
289.7818718092669
 31
0.0
  0
LINE
  5
103
330
1F
100
AcDbEntity
  8
0-0
  6
JWW_DASHED1
 62
   120
370
     5
100
AcDbLine
 10
163.8322179359047
 20
302.7818718103665
 30
0.0
 11
736.8322179359058
 21
302.7818718103665
 31
0.0
  0
LINE
  5
104
330
1F
100
AcDbEntity
  8
0-0
  6
JWW_DASHED1
 62
   120
370
     5
100
AcDbLine
 10
163.8322179359047
 20
303.7818718102667
 30
0.0
 11
736.8322179359058
 21
303.7818718102667
 31
0.0
  0
LINE
  5
105
330
1F
100
AcDbEntity
  8
0-0
  6
JWW_DASHED1
 62
   120
370
     5
100
AcDbLine
 10
163.8322179359047
 20
316.7818718113663
 30
0.0
 11
736.8322179359058
 21
316.7818718113663
 31
0.0
  0
LINE
  5
106
330
1F
100
AcDbEntity
  8
0-0
  6
JWW_DASHED1
 62
   120
370
     5
100
AcDbLine
 10
163.8322179359047
 20
317.7818718112665
 30
0.0
 11
736.8322179359058
 21
317.7818718112665
 31
0.0
  0
LINE
  5
107
330
1F
100
AcDbEntity
  8
0-0
  6
JWW_DASHED1
 62
   120
370
     5
100
AcDbLine
 10
163.8322179359047
 20
330.7818718123661
 30
0.0
 11
736.8322179359058
 21
330.7818718123661
 31
0.0
  0
LINE
  5
108
330
1F
100
AcDbEntity
  8
0-0
  6
JWW_DASHED1
 62
   120
370
     5
100
AcDbLine
 10
163.8322179359047
 20
331.7818718122663
 30
0.0
 11
736.8322179359058
 21
331.7818718122663
 31
0.0
  0
LINE
  5
109
330
1F
100
AcDbEntity
  8
0-0
  6
JWW_DASHED1
 62
   120
370
     5
100
AcDbLine
 10
163.8322179359047
 20
344.7818718133659
 30
0.0
 11
736.8322179359058
 21
344.7818718133659
 31
0.0
  0
LINE
  5
10A
330
1F
100
AcDbEntity
  8
0-0
  6
JWW_DASHED1
 62
   120
370
     5
100
AcDbLine
 10
163.8322179359047
 20
345.7818718132661
 30
0.0
 11
736.8322179359058
 21
345.7818718132661
 31
0.0
  0
LINE
  5
10B
330
1F
100
AcDbEntity
  8
0-0
  6
JWW_DASHED1
 62
   120
370
     5
100
AcDbLine
 10
163.8322179359047
 20
358.7818718143657
 30
0.0
 11
736.8322179359058
 21
358.7818718143657
 31
0.0
  0
LINE
  5
10C
330
1F
100
AcDbEntity
  8
0-0
  6
JWW_DASHED1
 62
   120
370
     5
100
AcDbLine
 10
163.8322179359047
 20
359.7818718142659
 30
0.0
 11
736.8322179359058
 21
359.7818718142659
 31
0.0
  0
LINE
  5
10D
330
1F
100
AcDbEntity
  8
0-0
  6
JWW_DASHED1
 62
   120
370
     5
100
AcDbLine
 10
163.8322179359047
 20
372.7818718153653
 30
0.0
 11
736.8322179359058
 21
372.7818718153653
 31
0.0
  0
LINE
  5
10E
330
1F
100
AcDbEntity
  8
0-0
  6
JWW_DASHED1
 62
   120
370
     5
100
AcDbLine
 10
163.8322179359047
 20
373.7818718152657
 30
0.0
 11
736.8322179359058
 21
373.7818718152657
 31
0.0
  0
LINE
  5
10F
330
1F
100
AcDbEntity
  8
0-0
  6
JWW_DASHED1
 62
   120
370
     5
100
AcDbLine
 10
163.8322179359047
 20
386.7818718163653
 30
0.0
 11
736.8322179359058
 21
386.7818718163653
 31
0.0
  0
LINE
  5
110
330
1F
100
AcDbEntity
  8
0-0
  6
JWW_DASHED1
 62
   120
370
     5
100
AcDbLine
 10
163.8322179359047
 20
387.7818718162654
 30
0.0
 11
736.8322179359058
 21
387.7818718162654
 31
0.0
  0
LINE
  5
111
330
1F
100
AcDbEntity
  8
0-0
  6
JWW_DASHED1
 62
   120
370
     5
100
AcDbLine
 10
163.8322179359047
 20
400.7818718173651
 30
0.0
 11
736.8322179359058
 21
400.7818718173651
 31
0.0
  0
LINE
  5
112
330
1F
100
AcDbEntity
  8
0-0
  6
JWW_DASHED1
 62
   120
370
     5
100
AcDbLine
 10
163.8322179359047
 20
401.7818718172653
 30
0.0
 11
736.8322179359058
 21
401.7818718172653
 31
0.0
  0
LINE
  5
113
330
1F
100
AcDbEntity
  8
0-0
  6
JWW_DASHED1
 62
   120
370
     5
100
AcDbLine
 10
163.8322179359047
 20
414.7818718183648
 30
0.0
 11
736.8322179359058
 21
414.7818718183648
 31
0.0
  0
LINE
  5
114
330
1F
100
AcDbEntity
  8
0-0
  6
JWW_DASHED1
 62
   120
370
     5
100
AcDbLine
 10
163.8322179359047
 20
415.781871818265
 30
0.0
 11
736.8322179359058
 21
415.781871818265
 31
0.0
  0
LINE
  5
115
330
1F
100
AcDbEntity
  8
0-0
  6
JWW_DASHED1
 62
   120
370
     5
100
AcDbLine
 10
163.8322179359047
 20
428.7818718193647
 30
0.0
 11
736.8322179359058
 21
428.7818718193647
 31
0.0
  0
LINE
  5
116
330
1F
100
AcDbEntity
  8
0-0
  6
JWW_DASHED1
 62
   120
370
     5
100
AcDbLine
 10
163.8322179359047
 20
429.7818718192648
 30
0.0
 11
736.8322179359058
 21
429.7818718192648
 31
0.0
  0
LINE
  5
117
330
1F
100
AcDbEntity
  8
0-0
  6
JWW_DASHED1
 62
   120
370
     5
100
AcDbLine
 10
163.8322179359047
 20
442.7818718203644
 30
0.0
 11
736.8322179359058
 21
442.7818718203644
 31
0.0
  0
LINE
  5
118
330
1F
100
AcDbEntity
  8
0-0
  6
JWW_DASHED1
 62
   120
370
     5
100
AcDbLine
 10
163.8322179359047
 20
443.7818718202646
 30
0.0
 11
736.8322179359058
 21
443.7818718202646
 31
0.0
  0
LINE
  5
119
330
1F
100
AcDbEntity
  8
0-0
  6
JWW_DASHED1
 62
   120
370
     5
100
AcDbLine
 10
163.8322179359047
 20
456.7818718213642
 30
0.0
 11
736.8322179359058
 21
456.7818718213642
 31
0.0
  0
LINE
  5
11A
330
1F
100
AcDbEntity
  8
0-0
  6
JWW_DASHED1
 62
   120
370
     5
100
AcDbLine
 10
163.8322179359047
 20
457.7818718212644
 30
0.0
 11
736.8322179359058
 21
457.7818718212644
 31
0.0
  0
LINE
  5
11B
330
1F
100
AcDbEntity
  8
0-0
  6
JWW_DASHED1
 62
   120
370
     5
100
AcDbLine
 10
163.8322179359047
 20
470.781871822364
 30
0.0
 11
736.8322179359058
 21
470.781871822364
 31
0.0
  0
LINE
  5
11C
330
1F
100
AcDbEntity
  8
0-0
  6
JWW_DASHED1
 62
   120
370
     5
100
AcDbLine
 10
163.8322179359047
 20
471.7818718222642
 30
0.0
 11
736.8322179359058
 21
471.7818718222642
 31
0.0
  0
LINE
  5
11D
330
1F
100
AcDbEntity
  8
0-0
  6
JWW_DASHED1
 62
   120
370
     5
100
AcDbLine
 10
163.8322179359047
 20
484.7818718233638
 30
0.0
 11
736.8322179359058
 21
484.7818718233638
 31
0.0
  0
LINE
  5
11E
330
1F
100
AcDbEntity
  8
0-0
  6
JWW_DASHED1
 62
   120
370
     5
100
AcDbLine
 10
163.8322179359047
 20
485.7818718232638
 30
0.0
 11
736.8322179359058
 21
485.7818718232638
 31
0.0
  0
LINE
  5
11F
330
1F
100
AcDbEntity
  8
0-0
  6
JWW_DASHED1
 62
   120
370
     5
100
AcDbLine
 10
163.8322179359047
 20
498.7818718243636
 30
0.0
 11
736.8322179359058
 21
498.7818718243636
 31
0.0
  0
LINE
  5
120
330
1F
100
AcDbEntity
  8
0-0
  6
JWW_DASHED1
 62
   120
370
     5
100
AcDbLine
 10
163.8322179359047
 20
499.7818718242638
 30
0.0
 11
736.8322179359058
 21
499.7818718242638
 31
0.0
  0
LINE
  5
121
330
1F
100
AcDbEntity
  8
0-0
  6
JWW_DASHED1
 62
   120
370
     5
100
AcDbLine
 10
163.8322179359047
 20
512.7818718253634
 30
0.0
 11
736.8322179359058
 21
512.7818718253634
 31
0.0
  0
LINE
  5
122
330
1F
100
AcDbEntity
  8
0-0
  6
JWW_DASHED1
 62
   120
370
     5
100
AcDbLine
 10
163.8322179359047
 20
513.7818718252636
 30
0.0
 11
736.8322179359058
 21
513.7818718252636
 31
0.0
  0
LINE
  5
123
330
1F
100
AcDbEntity
  8
0-0
  6
JWW_DASHED1
 62
   120
370
     5
100
AcDbLine
 10
163.8322179359047
 20
526.7818718263632
 30
0.0
 11
736.8322179359058
 21
526.7818718263632
 31
0.0
  0
LINE
  5
124
330
1F
100
AcDbEntity
  8
0-0
  6
JWW_DASHED1
 62
   120
370
     5
100
AcDbLine
 10
163.8322179359047
 20
527.7818718262633
 30
0.0
 11
736.8322179359058
 21
527.7818718262633
 31
0.0
  0
LINE
  5
125
330
1F
100
AcDbEntity
  8
0-0
  6
JWW_DASHED1
 62
   120
370
     5
100
AcDbLine
 10
163.8322179359047
 20
540.7818718273629
 30
0.0
 11
736.8322179359058
 21
540.7818718273629
 31
0.0
  0
LINE
  5
126
330
1F
100
AcDbEntity
  8
0-0
  6
JWW_DASHED1
 62
   120
370
     5
100
AcDbLine
 10
163.8322179359047
 20
541.7818718272631
 30
0.0
 11
736.8322179359058
 21
541.7818718272631
 31
0.0
  0
LINE
  5
127
330
1F
100
AcDbEntity
  8
0-0
  6
JWW_DASHED1
 62
   120
370
     5
100
AcDbLine
 10
163.8322179359047
 20
554.7818718283628
 30
0.0
 11
736.8322179359058
 21
554.7818718283628
 31
0.0
  0
LINE
  5
128
330
1F
100
AcDbEntity
  8
0-0
  6
JWW_DASHED1
 62
   120
370
     5
100
AcDbLine
 10
163.8322179359047
 20
555.781871828263
 30
0.0
 11
736.8322179359058
 21
555.781871828263
 31
0.0
  0
LINE
  5
129
330
1F
100
AcDbEntity
  8
0-0
  6
JWW_DASHED1
 62
   120
370
     5
100
AcDbLine
 10
163.8322179359047
 20
568.7818718293626
 30
0.0
 11
736.8322179359058
 21
568.7818718293626
 31
0.0
  0
LINE
  5
12A
330
1F
100
AcDbEntity
  8
0-0
  6
JWW_DASHED1
 62
   120
370
     5
100
AcDbLine
 10
163.8322179359047
 20
569.7818718292627
 30
0.0
 11
736.8322179359058
 21
569.7818718292627
 31
0.0
  0
LINE
  5
12B
330
1F
100
AcDbEntity
  8
0-0
  6
JWW_DASHED1
 62
   120
370
     5
100
AcDbLine
 10
163.8322179359047
 20
582.7818718303623
 30
0.0
 11
736.8322179359058
 21
582.7818718303623
 31
0.0
  0
LINE
  5
12C
330
1F
100
AcDbEntity
  8
0-0
  6
JWW_DASHED1
 62
   120
370
     5
100
AcDbLine
 10
163.8322179359047
 20
583.7818718302625
 30
0.0
 11
736.8322179359058
 21
583.7818718302625
 31
0.0
  0
LINE
  5
12D
330
1F
100
AcDbEntity
  8
0-0
  6
JWW_DASHED1
 62
   120
370
     5
100
AcDbLine
 10
163.8322179359047
 20
596.781871831362
 30
0.0
 11
736.8322179359058
 21
596.781871831362
 31
0.0
  0
LINE
  5
12E
330
1F
100
AcDbEntity
  8
0-0
  6
JWW_DASHED1
 62
   120
370
     5
100
AcDbLine
 10
163.8322179359047
 20
597.7818718312623
 30
0.0
 11
736.8322179359058
 21
597.7818718312623
 31
0.0
  0
LINE
  5
12F
330
1F
100
AcDbEntity
  8
0-0
  6
JWW_DASHED1
 62
   120
370
     5
100
AcDbLine
 10
163.8322179359047
 20
610.781871832362
 30
0.0
 11
736.8322179359058
 21
610.781871832362
 31
0.0
  0
LINE
  5
130
330
1F
100
AcDbEntity
  8
0-0
  6
JWW_DASHED1
 62
   120
370
     5
100
AcDbLine
 10
163.8322179359047
 20
611.7818718322621
 30
0.0
 11
736.8322179359058
 21
611.7818718322621
 31
0.0
  0
LINE
  5
131
330
1F
100
AcDbEntity
  8
0-0
  6
JWW_DASHED1
 62
   120
370
     5
100
AcDbLine
 10
163.8322179359047
 20
624.7818718333617
 30
0.0
 11
736.8322179359058
 21
624.7818718333617
 31
0.0
  0
LINE
  5
132
330
1F
100
AcDbEntity
  8
0-0
  6
JWW_DASHED1
 62
   120
370
     5
100
AcDbLine
 10
163.8322179359047
 20
625.7818718332619
 30
0.0
 11
736.8322179359058
 21
625.7818718332619
 31
0.0
  0
LINE
  5
133
330
1F
100
AcDbEntity
  8
0-0
  6
JWW_DASHED1
 62
   120
370
     5
100
AcDbLine
 10
163.8322179359047
 20
638.7818718343615
 30
0.0
 11
736.8322179359058
 21
638.7818718343615
 31
0.0
  0
LINE
  5
134
330
1F
100
AcDbEntity
  8
0-0
  6
JWW_DASHED1
 62
   120
370
     5
100
AcDbLine
 10
163.8322179359047
 20
639.7818718342617
 30
0.0
 11
736.8322179359058
 21
639.7818718342617
 31
0.0
  0
LINE
  5
135
330
1F
100
AcDbEntity
  8
0-0
  6
JWW_DASHED1
 62
   120
370
     5
100
AcDbLine
 10
163.8322179359047
 20
652.7818718353612
 30
0.0
 11
736.8322179359058
 21
652.7818718353612
 31
0.0
  0
LINE
  5
136
330
1F
100
AcDbEntity
  8
0-0
  6
JWW_DASHED1
 62
   120
370
     5
100
AcDbLine
 10
163.8322179359047
 20
653.7818718352614
 30
0.0
 11
736.8322179359058
 21
653.7818718352614
 31
0.0
  0
LINE
  5
137
330
1F
100
AcDbEntity
  8
0-0
  6
JWW_DASHED1
 62
   120
370
     5
100
AcDbLine
 10
163.8322179359047
 20
666.7818718363611
 30
0.0
 11
736.8322179359058
 21
666.7818718363611
 31
0.0
  0
LINE
  5
138
330
1F
100
AcDbEntity
  8
0-0
  6
JWW_DASHED1
 62
   120
370
     5
100
AcDbLine
 10
163.8322179359047
 20
667.7818718362613
 30
0.0
 11
736.8322179359058
 21
667.7818718362613
 31
0.0
  0
LINE
  5
139
330
1F
100
AcDbEntity
  8
0-0
  6
JWW_DASHED1
 62
   120
370
     5
100
AcDbLine
 10
163.8322179359047
 20
680.7818718373609
 30
0.0
 11
736.8322179359058
 21
680.7818718373609
 31
0.0
  0
LINE
  5
13A
330
1F
100
AcDbEntity
  8
0-0
  6
JWW_DASHED1
 62
   120
370
     5
100
AcDbLine
 10
163.8322179359047
 20
681.7818718372611
 30
0.0
 11
736.8322179359058
 21
681.7818718372611
 31
0.0
  0
LINE
  5
13B
330
1F
100
AcDbEntity
  8
0-0
  6
JWW_DASHED1
 62
   120
370
     5
100
AcDbLine
 10
163.8322179359047
 20
694.7818718383606
 30
0.0
 11
736.8322179359058
 21
694.7818718383606
 31
0.0
  0
LINE
  5
13C
330
1F
100
AcDbEntity
  8
0-0
  6
JWW_DASHED1
 62
   120
370
     5
100
AcDbLine
 10
163.8322179359047
 20
695.7818718382608
 30
0.0
 11
736.8322179359058
 21
695.7818718382608
 31
0.0
  0
LINE
  5
13D
330
1F
100
AcDbEntity
  8
0-0
  6
JWW_DASHED1
 62
   120
370
     5
100
AcDbLine
 10
163.8322179359047
 20
708.7818718393604
 30
0.0
 11
736.8322179359058
 21
708.7818718393604
 31
0.0
  0
LINE
  5
13E
330
1F
100
AcDbEntity
  8
0-0
  6
JWW_DASHED1
 62
   120
370
     5
100
AcDbLine
 10
163.8322179359047
 20
709.7818718392605
 30
0.0
 11
736.8322179359058
 21
709.7818718392605
 31
0.0
  0
LINE
  5
13F
330
1F
100
AcDbEntity
  8
0-0
  6
JWW_DASHED1
 62
   120
370
     5
100
AcDbLine
 10
163.8322179359047
 20
722.7818718403603
 30
0.0
 11
736.8322179359058
 21
722.7818718403603
 31
0.0
  0
LINE
  5
140
330
1F
100
AcDbEntity
  8
0-0
  6
JWW_DASHED1
 62
   120
370
     5
100
AcDbLine
 10
163.8322179359047
 20
723.7818718402605
 30
0.0
 11
736.8322179359058
 21
723.7818718402605
 31
0.0
  0
LINE
  5
141
330
1F
100
AcDbEntity
  8
0-0
  6
JWW_DASHED1
 62
   120
370
     5
100
AcDbLine
 10
163.8322179359047
 20
736.78187184136
 30
0.0
 11
736.8322179359058
 21
736.78187184136
 31
0.0
  0
LINE
  5
142
330
1F
100
AcDbEntity
  8
0-0
  6
JWW_DASHED1
 62
   120
370
     5
100
AcDbLine
 10
163.8322179359047
 20
737.7818718412602
 30
0.0
 11
736.8322179359058
 21
737.7818718412602
 31
0.0
  0
LINE
  5
143
330
1F
100
AcDbEntity
  8
0-0
  6
JWW_DASHED1
 62
   120
370
     5
100
AcDbLine
 10
163.8322179359047
 20
750.7818718423598
 30
0.0
 11
736.8322179359058
 21
750.7818718423598
 31
0.0
  0
LINE
  5
144
330
1F
100
AcDbEntity
  8
0-0
  6
JWW_DASHED1
 62
   120
370
     5
100
AcDbLine
 10
163.8322179359047
 20
751.78187184226
 30
0.0
 11
736.8322179359058
 21
751.78187184226
 31
0.0
  0
LINE
  5
145
330
1F
100
AcDbEntity
  8
0-0
  6
JWW_DASHED1
 62
   120
370
     5
100
AcDbLine
 10
163.8322179359047
 20
764.7818718433596
 30
0.0
 11
736.8322179359058
 21
764.7818718433596
 31
0.0
  0
LINE
  5
146
330
1F
100
AcDbEntity
  8
0-0
  6
JWW_DASHED1
 62
   120
370
     5
100
AcDbLine
 10
163.8322179359047
 20
765.7818718432598
 30
0.0
 11
736.8322179359058
 21
765.7818718432598
 31
0.0
  0
LINE
  5
147
330
1F
100
AcDbEntity
  8
0-0
  6
JWW_DASHED1
 62
   120
370
     5
100
AcDbLine
 10
163.8322179359047
 20
778.7818718443594
 30
0.0
 11
736.8322179359058
 21
778.7818718443594
 31
0.0
  0
LINE
  5
148
330
1F
100
AcDbEntity
  8
0-0
  6
JWW_DASHED1
 62
   120
370
     5
100
AcDbLine
 10
163.8322179359047
 20
779.7818718442596
 30
0.0
 11
736.8322179359058
 21
779.7818718442596
 31
0.0
  0
LINE
  5
149
330
1F
100
AcDbEntity
  8
0-0
  6
JWW_DASHED1
 62
   120
370
     5
100
AcDbLine
 10
163.8322179359047
 20
792.7818718453592
 30
0.0
 11
736.8322179359058
 21
792.7818718453592
 31
0.0
  0
LINE
  5
14A
330
1F
100
AcDbEntity
  8
0-0
  6
JWW_DASHED1
 62
   120
370
     5
100
AcDbLine
 10
163.8322179359047
 20
793.7818718452594
 30
0.0
 11
736.8322179359058
 21
793.7818718452594
 31
0.0
  0
LINE
  5
14B
330
1F
100
AcDbEntity
  8
0-0
  6
JWW_DASHED1
 62
   120
370
     5
100
AcDbLine
 10
163.8322179359047
 20
806.7818718463587
 30
0.0
 11
736.8322179359058
 21
806.7818718463587
 31
0.0
  0
LINE
  5
14C
330
1F
100
AcDbEntity
  8
0-0
  6
JWW_DASHED1
 62
   120
370
     5
100
AcDbLine
 10
163.8322179359047
 20
807.7818718462589
 30
0.0
 11
736.8322179359058
 21
807.7818718462589
 31
0.0
  0
LINE
  5
14D
330
1F
100
AcDbEntity
  8
0-0
  6
JWW_DASHED1
 62
   120
370
     5
100
AcDbLine
 10
163.8322179359047
 20
820.7818718473586
 30
0.0
 11
736.8322179359058
 21
820.7818718473586
 31
0.0
  0
LINE
  5
14E
330
1F
100
AcDbEntity
  8
0-0
  6
JWW_DASHED1
 62
   120
370
     5
100
AcDbLine
 10
163.8322179359047
 20
821.7818718472589
 30
0.0
 11
736.8322179359058
 21
821.7818718472589
 31
0.0
  0
LINE
  5
14F
330
1F
100
AcDbEntity
  8
0-0
  6
JWW_DASHED1
 62
   120
370
     5
100
AcDbLine
 10
163.8322179359047
 20
834.7818718483586
 30
0.0
 11
736.8322179359058
 21
834.7818718483586
 31
0.0
  0
LINE
  5
150
330
1F
100
AcDbEntity
  8
0-0
  6
JWW_DASHED1
 62
   120
370
     5
100
AcDbLine
 10
163.8322179359047
 20
835.7818718482588
 30
0.0
 11
736.8322179359058
 21
835.7818718482588
 31
0.0
  0
LINE
  5
151
330
1F
100
AcDbEntity
  8
0-0
  6
JWW_DASHED1
 62
   120
370
     5
100
AcDbLine
 10
163.8322179359047
 20
848.7818718493584
 30
0.0
 11
736.8322179359058
 21
848.7818718493584
 31
0.0
  0
LINE
  5
152
330
1F
100
AcDbEntity
  8
0-0
  6
JWW_DASHED1
 62
   120
370
     5
100
AcDbLine
 10
163.8322179359047
 20
849.7818718492586
 30
0.0
 11
736.8322179359058
 21
849.7818718492586
 31
0.0
  0
LINE
  5
153
330
1F
100
AcDbEntity
  8
0-0
  6
JWW_DASHED1
 62
   120
370
     5
100
AcDbLine
 10
163.8322179359047
 20
862.7818718503581
 30
0.0
 11
736.8322179359058
 21
862.7818718503581
 31
0.0
  0
LINE
  5
154
330
1F
100
AcDbEntity
  8
0-0
  6
JWW_DASHED1
 62
   120
370
     5
100
AcDbLine
 10
163.8322179359047
 20
863.7818718502583
 30
0.0
 11
736.8322179359058
 21
863.7818718502583
 31
0.0
  0
LINE
  5
155
330
1F
100
AcDbEntity
  8
0-0
  6
JWW_DASHED1
 62
   120
370
     5
100
AcDbLine
 10
163.8322179359047
 20
876.7818718513579
 30
0.0
 11
736.8322179359058
 21
876.7818718513579
 31
0.0
  0
LINE
  5
156
330
1F
100
AcDbEntity
  8
0-0
  6
JWW_DASHED1
 62
   120
370
     5
100
AcDbLine
 10
163.8322179359047
 20
877.7818718512581
 30
0.0
 11
736.8322179359058
 21
877.7818718512581
 31
0.0
  0
LINE
  5
157
330
1F
100
AcDbEntity
  8
0-0
  6
JWW_DASHED1
 62
   120
370
     5
100
AcDbLine
 10
163.8322179359047
 20
890.7818718523578
 30
0.0
 11
736.8322179359058
 21
890.7818718523578
 31
0.0
  0
LINE
  5
158
330
1F
100
AcDbEntity
  8
0-0
  6
JWW_DASHED1
 62
   120
370
     5
100
AcDbLine
 10
163.8322179359047
 20
891.781871852258
 30
0.0
 11
736.8322179359058
 21
891.781871852258
 31
0.0
  0
LINE
  5
159
330
1F
100
AcDbEntity
  8
0-0
  6
JWW_DASHED1
 62
   120
370
     5
100
AcDbLine
 10
163.8322179359047
 20
904.7818718533575
 30
0.0
 11
736.8322179359058
 21
904.7818718533575
 31
0.0
  0
LINE
  5
15A
330
1F
100
AcDbEntity
  8
0-0
  6
JWW_DASHED1
 62
   120
370
     5
100
AcDbLine
 10
163.8322179359047
 20
905.7818718532577
 30
0.0
 11
736.8322179359058
 21
905.7818718532577
 31
0.0
  0
LINE
  5
15B
330
1F
100
AcDbEntity
  8
0-0
  6
JWW_DASHED1
 62
   120
370
     5
100
AcDbLine
 10
163.8322179359047
 20
918.7818718543571
 30
0.0
 11
736.8322179359058
 21
918.7818718543571
 31
0.0
  0
LINE
  5
15C
330
1F
100
AcDbEntity
  8
0-0
  6
JWW_DASHED1
 62
   120
370
     5
100
AcDbLine
 10
163.8322179359047
 20
919.7818718542572
 30
0.0
 11
736.8322179359058
 21
919.7818718542572
 31
0.0
  0
LINE
  5
15D
330
1F
100
AcDbEntity
  8
0-0
  6
JWW_DASHED1
 62
   120
370
     5
100
AcDbLine
 10
163.8322179359047
 20
932.781871855357
 30
0.0
 11
736.8322179359058
 21
932.781871855357
 31
0.0
  0
LINE
  5
15E
330
1F
100
AcDbEntity
  8
0-0
  6
JWW_DASHED1
 62
   120
370
     5
100
AcDbLine
 10
163.8322179359047
 20
933.7818718552571
 30
0.0
 11
736.8322179359058
 21
933.7818718552571
 31
0.0
  0
LINE
  5
15F
330
1F
100
AcDbEntity
  8
0-0
  6
JWW_DASHED1
 62
   120
370
     5
100
AcDbLine
 10
163.8322179359047
 20
946.7818718563569
 30
0.0
 11
736.8322179359058
 21
946.7818718563569
 31
0.0
  0
LINE
  5
160
330
1F
100
AcDbEntity
  8
0-0
  6
JWW_DASHED1
 62
   120
370
     5
100
AcDbLine
 10
163.8322179359047
 20
947.7818718562571
 30
0.0
 11
736.8322179359058
 21
947.7818718562571
 31
0.0
  0
LINE
  5
161
330
1F
100
AcDbEntity
  8
0-0
  6
JWW_DASHED1
 62
   120
370
     5
100
AcDbLine
 10
163.8322179359047
 20
960.7818718573566
 30
0.0
 11
736.8322179359058
 21
960.7818718573566
 31
0.0
  0
LINE
  5
162
330
1F
100
AcDbEntity
  8
0-0
  6
JWW_DASHED1
 62
   120
370
     5
100
AcDbLine
 10
163.8322179359047
 20
961.7818718572568
 30
0.0
 11
736.8322179359058
 21
961.7818718572568
 31
0.0
  0
LINE
  5
163
330
1F
100
AcDbEntity
  8
0-0
  6
JWW_DASHED1
 62
   120
370
     5
100
AcDbLine
 10
163.8322179359047
 20
974.7818718583563
 30
0.0
 11
736.8322179359058
 21
974.7818718583563
 31
0.0
  0
LINE
  5
164
330
1F
100
AcDbEntity
  8
0-0
  6
JWW_DASHED1
 62
   120
370
     5
100
AcDbLine
 10
163.8322179359047
 20
975.7818718582565
 30
0.0
 11
736.8322179359058
 21
975.7818718582565
 31
0.0
  0
LINE
  5
165
330
1F
100
AcDbEntity
  8
0-0
  6
JWW_DASHED1
 62
   120
370
     5
100
AcDbLine
 10
163.8322179359047
 20
988.7818718593562
 30
0.0
 11
736.8322179359058
 21
988.7818718593562
 31
0.0
  0
LINE
  5
166
330
1F
100
AcDbEntity
  8
0-0
  6
JWW_DASHED1
 62
   120
370
     5
100
AcDbLine
 10
163.8322179359047
 20
989.7818718592564
 30
0.0
 11
736.8322179359058
 21
989.7818718592564
 31
0.0
  0
LINE
  5
167
330
1F
100
AcDbEntity
  8
0-0
  6
JWW_DASHED1
 62
   120
370
     5
100
AcDbLine
 10
169.8322363939369
 20
-117.2179799057835
 30
0.0
 11
169.8322363939369
 21
1057.782020094217
 31
0.0
  0
LINE
  5
168
330
1F
100
AcDbEntity
  8
0-0
  6
JWW_DASHED1
 62
   120
370
     5
100
AcDbLine
 10
702.8322364318371
 20
-117.2179799057835
 30
0.0
 11
702.8322364318371
 21
1057.782020094217
 31
0.0
  0
LINE
  5
169
330
1F
100
AcDbEntity
  8
0-0
  6
JWW_DASHED1
 62
   120
370
     5
100
AcDbLine
 10
701.8322364319367
 20
-117.2179799057835
 30
0.0
 11
701.8322364319374
 21
1057.782020094217
 31
0.0
  0
LINE
  5
16A
330
1F
100
AcDbEntity
  8
0-0
  6
JWW_DASHED1
 62
   120
370
     5
100
AcDbLine
 10
688.8322364308367
 20
-117.2179799057835
 30
0.0
 11
688.8322364308374
 21
1057.782020094217
 31
0.0
  0
LINE
  5
16B
330
1F
100
AcDbEntity
  8
0-0
  6
JWW_DASHED1
 62
   120
370
     5
100
AcDbLine
 10
687.8322364309372
 20
-117.2179799057835
 30
0.0
 11
687.8322364309372
 21
1057.782020094217
 31
0.0
  0
LINE
  5
16C
330
1F
100
AcDbEntity
  8
0-0
  6
JWW_DASHED1
 62
   120
370
     5
100
AcDbLine
 10
674.8322364298367
 20
-117.2179799057835
 30
0.0
 11
674.8322364298367
 21
1057.782020094217
 31
0.0
  0
LINE
  5
16D
330
1F
100
AcDbEntity
  8
0-0
  6
JWW_DASHED1
 62
   120
370
     5
100
AcDbLine
 10
673.832236429937
 20
-117.2179799057835
 30
0.0
 11
673.832236429937
 21
1057.782020094217
 31
0.0
  0
LINE
  5
16E
330
1F
100
AcDbEntity
  8
0-0
  6
JWW_DASHED1
 62
   120
370
     5
100
AcDbLine
 10
660.832236428837
 20
-117.2179799057835
 30
0.0
 11
660.832236428837
 21
1057.782020094217
 31
0.0
  0
LINE
  5
16F
330
1F
100
AcDbEntity
  8
0-0
  6
JWW_DASHED1
 62
   120
370
     5
100
AcDbLine
 10
659.8322364289368
 20
-117.2179799057835
 30
0.0
 11
659.8322364289368
 21
1057.782020094217
 31
0.0
  0
LINE
  5
170
330
1F
100
AcDbEntity
  8
0-0
  6
JWW_DASHED1
 62
   120
370
     5
100
AcDbLine
 10
646.8322364278367
 20
-117.2179799057835
 30
0.0
 11
646.8322364278367
 21
1057.782020094217
 31
0.0
  0
LINE
  5
171
330
1F
100
AcDbEntity
  8
0-0
  6
JWW_DASHED1
 62
   120
370
     5
100
AcDbLine
 10
645.832236427937
 20
-117.2179799057835
 30
0.0
 11
645.8322364279375
 21
1057.782020094217
 31
0.0
  0
LINE
  5
172
330
1F
100
AcDbEntity
  8
0-0
  6
JWW_DASHED1
 62
   120
370
     5
100
AcDbLine
 10
632.832236426837
 20
-117.2179799057835
 30
0.0
 11
632.8322364268374
 21
1057.782020094217
 31
0.0
  0
LINE
  5
173
330
1F
100
AcDbEntity
  8
0-0
  6
JWW_DASHED1
 62
   120
370
     5
100
AcDbLine
 10
631.8322364269372
 20
-117.2179799057835
 30
0.0
 11
631.8322364269372
 21
1057.782020094217
 31
0.0
  0
LINE
  5
174
330
1F
100
AcDbEntity
  8
0-0
  6
JWW_DASHED1
 62
   120
370
     5
100
AcDbLine
 10
618.8322364258372
 20
-117.2179799057835
 30
0.0
 11
618.8322364258372
 21
1057.782020094217
 31
0.0
  0
LINE
  5
175
330
1F
100
AcDbEntity
  8
0-0
  6
JWW_DASHED1
 62
   120
370
     5
100
AcDbLine
 10
617.832236425937
 20
-117.2179799057835
 30
0.0
 11
617.832236425937
 21
1057.782020094217
 31
0.0
  0
LINE
  5
176
330
1F
100
AcDbEntity
  8
0-0
  6
JWW_DASHED1
 62
   120
370
     5
100
AcDbLine
 10
604.8322364248373
 20
-117.2179799057835
 30
0.0
 11
604.8322364248373
 21
1057.782020094217
 31
0.0
  0
LINE
  5
177
330
1F
100
AcDbEntity
  8
0-0
  6
JWW_DASHED1
 62
   120
370
     5
100
AcDbLine
 10
603.8322364249372
 20
-117.2179799057835
 30
0.0
 11
603.8322364249372
 21
1057.782020094217
 31
0.0
  0
LINE
  5
178
330
1F
100
AcDbEntity
  8
0-0
  6
JWW_DASHED1
 62
   120
370
     5
100
AcDbLine
 10
590.8322364238376
 20
-117.2179799057835
 30
0.0
 11
590.8322364238376
 21
1057.782020094217
 31
0.0
  0
LINE
  5
179
330
1F
100
AcDbEntity
  8
0-0
  6
JWW_DASHED1
 62
   120
370
     5
100
AcDbLine
 10
589.8322364239374
 20
-117.2179799057835
 30
0.0
 11
589.8322364239374
 21
1057.782020094217
 31
0.0
  0
LINE
  5
17A
330
1F
100
AcDbEntity
  8
0-0
  6
JWW_DASHED1
 62
   120
370
     5
100
AcDbLine
 10
576.8322364228369
 20
-117.2179799057835
 30
0.0
 11
576.8322364228369
 21
1057.782020094217
 31
0.0
  0
LINE
  5
17B
330
1F
100
AcDbEntity
  8
0-0
  6
JWW_DASHED1
 62
   120
370
     5
100
AcDbLine
 10
575.8322364229372
 20
-117.2179799057835
 30
0.0
 11
575.8322364229372
 21
1057.782020094217
 31
0.0
  0
LINE
  5
17C
330
1F
100
AcDbEntity
  8
0-0
  6
JWW_DASHED1
 62
   120
370
     5
100
AcDbLine
 10
562.8322364218371
 20
-117.2179799057835
 30
0.0
 11
562.8322364218371
 21
1057.782020094217
 31
0.0
  0
LINE
  5
17D
330
1F
100
AcDbEntity
  8
0-0
  6
JWW_DASHED1
 62
   120
370
     5
100
AcDbLine
 10
561.8322364219365
 20
-117.2179799057835
 30
0.0
 11
561.8322364219365
 21
1057.782020094217
 31
0.0
  0
LINE
  5
17E
330
1F
100
AcDbEntity
  8
0-0
  6
JWW_DASHED1
 62
   120
370
     5
100
AcDbLine
 10
548.8322364208369
 20
-117.2179799057835
 30
0.0
 11
548.8322364208369
 21
1057.782020094217
 31
0.0
  0
LINE
  5
17F
330
1F
100
AcDbEntity
  8
0-0
  6
JWW_DASHED1
 62
   120
370
     5
100
AcDbLine
 10
547.8322364209372
 20
-117.2179799057835
 30
0.0
 11
547.8322364209372
 21
1057.782020094217
 31
0.0
  0
LINE
  5
180
330
1F
100
AcDbEntity
  8
0-0
  6
JWW_DASHED1
 62
   120
370
     5
100
AcDbLine
 10
534.8322364198375
 20
-117.2179799057835
 30
0.0
 11
534.8322364198375
 21
1057.782020094217
 31
0.0
  0
LINE
  5
181
330
1F
100
AcDbEntity
  8
0-0
  6
JWW_DASHED1
 62
   120
370
     5
100
AcDbLine
 10
533.8322364199373
 20
-117.2179799057835
 30
0.0
 11
533.8322364199373
 21
1057.782020094217
 31
0.0
  0
LINE
  5
182
330
1F
100
AcDbEntity
  8
0-0
  6
JWW_DASHED1
 62
   120
370
     5
100
AcDbLine
 10
520.8322364188373
 20
-117.2179799057835
 30
0.0
 11
520.8322364188373
 21
1057.782020094217
 31
0.0
  0
LINE
  5
183
330
1F
100
AcDbEntity
  8
0-0
  6
JWW_DASHED1
 62
   120
370
     5
100
AcDbLine
 10
519.8322364189371
 20
-117.2179799057835
 30
0.0
 11
519.8322364189371
 21
1057.782020094217
 31
0.0
  0
LINE
  5
184
330
1F
100
AcDbEntity
  8
0-0
  6
JWW_DASHED1
 62
   120
370
     5
100
AcDbLine
 10
506.8322364178371
 20
-117.2179799057835
 30
0.0
 11
506.8322364178371
 21
1057.782020094217
 31
0.0
  0
LINE
  5
185
330
1F
100
AcDbEntity
  8
0-0
  6
JWW_DASHED1
 62
   120
370
     5
100
AcDbLine
 10
505.8322364179369
 20
-117.2179799057835
 30
0.0
 11
505.8322364179369
 21
1057.782020094217
 31
0.0
  0
LINE
  5
186
330
1F
100
AcDbEntity
  8
0-0
  6
JWW_DASHED1
 62
   120
370
     5
100
AcDbLine
 10
492.8322364168373
 20
-117.2179799057835
 30
0.0
 11
492.8322364168373
 21
1057.782020094217
 31
0.0
  0
LINE
  5
187
330
1F
100
AcDbEntity
  8
0-0
  6
JWW_DASHED1
 62
   120
370
     5
100
AcDbLine
 10
491.832236416937
 20
-117.2179799057835
 30
0.0
 11
491.832236416937
 21
1057.782020094217
 31
0.0
  0
LINE
  5
188
330
1F
100
AcDbEntity
  8
0-0
  6
JWW_DASHED1
 62
   120
370
     5
100
AcDbLine
 10
478.8322364158375
 20
-117.2179799057835
 30
0.0
 11
478.8322364158375
 21
1057.782020094217
 31
0.0
  0
LINE
  5
189
330
1F
100
AcDbEntity
  8
0-0
  6
JWW_DASHED1
 62
   120
370
     5
100
AcDbLine
 10
477.8322364159369
 20
-117.2179799057835
 30
0.0
 11
477.8322364159369
 21
1057.782020094217
 31
0.0
  0
LINE
  5
18A
330
1F
100
AcDbEntity
  8
0-0
  6
JWW_DASHED1
 62
   120
370
     5
100
AcDbLine
 10
464.8322364148373
 20
-117.2179799057835
 30
0.0
 11
464.8322364148373
 21
1057.782020094217
 31
0.0
  0
LINE
  5
18B
330
1F
100
AcDbEntity
  8
0-0
  6
JWW_DASHED1
 62
   120
370
     5
100
AcDbLine
 10
463.8322364149371
 20
-117.2179799057835
 30
0.0
 11
463.8322364149371
 21
1057.782020094217
 31
0.0
  0
LINE
  5
18C
330
1F
100
AcDbEntity
  8
0-0
  6
JWW_DASHED1
 62
   120
370
     5
100
AcDbLine
 10
450.8322364138371
 20
-117.2179799057835
 30
0.0
 11
450.8322364138371
 21
1057.782020094217
 31
0.0
  0
LINE
  5
18D
330
1F
100
AcDbEntity
  8
0-0
  6
JWW_DASHED1
 62
   120
370
     5
100
AcDbLine
 10
449.8322364139369
 20
-117.2179799057835
 30
0.0
 11
449.8322364139369
 21
1057.782020094217
 31
0.0
  0
LINE
  5
18E
330
1F
100
AcDbEntity
  8
0-0
  6
JWW_DASHED1
 62
   120
370
     5
100
AcDbLine
 10
436.8322364128369
 20
-117.2179799057835
 30
0.0
 11
436.8322364128369
 21
1057.782020094217
 31
0.0
  0
LINE
  5
18F
330
1F
100
AcDbEntity
  8
0-0
  6
JWW_DASHED1
 62
   120
370
     5
100
AcDbLine
 10
435.8322364129372
 20
-117.2179799057835
 30
0.0
 11
435.8322364129372
 21
1057.782020094217
 31
0.0
  0
LINE
  5
190
330
1F
100
AcDbEntity
  8
0-0
  6
JWW_DASHED1
 62
   120
370
     5
100
AcDbLine
 10
422.8322364118375
 20
-117.2179799057835
 30
0.0
 11
422.8322364118375
 21
1057.782020094217
 31
0.0
  0
LINE
  5
191
330
1F
100
AcDbEntity
  8
0-0
  6
JWW_DASHED1
 62
   120
370
     5
100
AcDbLine
 10
421.8322364119373
 20
-117.2179799057835
 30
0.0
 11
421.8322364119373
 21
1057.782020094217
 31
0.0
  0
LINE
  5
192
330
1F
100
AcDbEntity
  8
0-0
  6
JWW_DASHED1
 62
   120
370
     5
100
AcDbLine
 10
408.8322364108373
 20
-117.2179799057835
 30
0.0
 11
408.8322364108373
 21
1057.782020094217
 31
0.0
  0
LINE
  5
193
330
1F
100
AcDbEntity
  8
0-0
  6
JWW_DASHED1
 62
   120
370
     5
100
AcDbLine
 10
407.8322364109371
 20
-117.2179799057835
 30
0.0
 11
407.8322364109371
 21
1057.782020094217
 31
0.0
  0
LINE
  5
194
330
1F
100
AcDbEntity
  8
0-0
  6
JWW_DASHED1
 62
   120
370
     5
100
AcDbLine
 10
394.8322364098371
 20
-117.2179799057835
 30
0.0
 11
394.8322364098371
 21
1057.782020094217
 31
0.0
  0
LINE
  5
195
330
1F
100
AcDbEntity
  8
0-0
  6
JWW_DASHED1
 62
   120
370
     5
100
AcDbLine
 10
393.8322364099369
 20
-117.2179799057835
 30
0.0
 11
393.8322364099369
 21
1057.782020094217
 31
0.0
  0
LINE
  5
196
330
1F
100
AcDbEntity
  8
0-0
  6
JWW_DASHED1
 62
   120
370
     5
100
AcDbLine
 10
380.8322364088373
 20
-117.2179799057835
 30
0.0
 11
380.8322364088373
 21
1057.782020094217
 31
0.0
  0
LINE
  5
197
330
1F
100
AcDbEntity
  8
0-0
  6
JWW_DASHED1
 62
   120
370
     5
100
AcDbLine
 10
379.8322364089371
 20
-117.2179799057835
 30
0.0
 11
379.8322364089371
 21
1057.782020094217
 31
0.0
  0
LINE
  5
198
330
1F
100
AcDbEntity
  8
0-0
  6
JWW_DASHED1
 62
   120
370
     5
100
AcDbLine
 10
366.8322364078375
 20
-117.2179799057835
 30
0.0
 11
366.8322364078375
 21
1057.782020094217
 31
0.0
  0
LINE
  5
199
330
1F
100
AcDbEntity
  8
0-0
  6
JWW_DASHED1
 62
   120
370
     5
100
AcDbLine
 10
365.8322364079373
 20
-117.2179799057835
 30
0.0
 11
365.8322364079373
 21
1057.782020094217
 31
0.0
  0
LINE
  5
19A
330
1F
100
AcDbEntity
  8
0-0
  6
JWW_DASHED1
 62
   120
370
     5
100
AcDbLine
 10
352.8322364068373
 20
-117.2179799057835
 30
0.0
 11
352.8322364068373
 21
1057.782020094217
 31
0.0
  0
LINE
  5
19B
330
1F
100
AcDbEntity
  8
0-0
  6
JWW_DASHED1
 62
   120
370
     5
100
AcDbLine
 10
351.8322364069371
 20
-117.2179799057835
 30
0.0
 11
351.8322364069371
 21
1057.782020094217
 31
0.0
  0
LINE
  5
19C
330
1F
100
AcDbEntity
  8
0-0
  6
JWW_DASHED1
 62
   120
370
     5
100
AcDbLine
 10
338.8322364058366
 20
-117.2179799057835
 30
0.0
 11
338.8322364058366
 21
1057.782020094217
 31
0.0
  0
LINE
  5
19D
330
1F
100
AcDbEntity
  8
0-0
  6
JWW_DASHED1
 62
   120
370
     5
100
AcDbLine
 10
337.8322364059369
 20
-117.2179799057835
 30
0.0
 11
337.8322364059369
 21
1057.782020094217
 31
0.0
  0
LINE
  5
19E
330
1F
100
AcDbEntity
  8
0-0
  6
JWW_DASHED1
 62
   120
370
     5
100
AcDbLine
 10
324.8322364048373
 20
-117.2179799057835
 30
0.0
 11
324.8322364048373
 21
1057.782020094217
 31
0.0
  0
LINE
  5
19F
330
1F
100
AcDbEntity
  8
0-0
  6
JWW_DASHED1
 62
   120
370
     5
100
AcDbLine
 10
323.8322364049367
 20
-117.2179799057835
 30
0.0
 11
323.8322364049367
 21
1057.782020094217
 31
0.0
  0
LINE
  5
1A0
330
1F
100
AcDbEntity
  8
0-0
  6
JWW_DASHED1
 62
   120
370
     5
100
AcDbLine
 10
310.8322364038375
 20
-117.2179799057835
 30
0.0
 11
310.8322364038375
 21
1057.782020094217
 31
0.0
  0
LINE
  5
1A1
330
1F
100
AcDbEntity
  8
0-0
  6
JWW_DASHED1
 62
   120
370
     5
100
AcDbLine
 10
309.8322364039373
 20
-117.2179799057835
 30
0.0
 11
309.8322364039373
 21
1057.782020094217
 31
0.0
  0
LINE
  5
1A2
330
1F
100
AcDbEntity
  8
0-0
  6
JWW_DASHED1
 62
   120
370
     5
100
AcDbLine
 10
296.8322364028373
 20
-117.2179799057835
 30
0.0
 11
296.8322364028373
 21
1057.782020094217
 31
0.0
  0
LINE
  5
1A3
330
1F
100
AcDbEntity
  8
0-0
  6
JWW_DASHED1
 62
   120
370
     5
100
AcDbLine
 10
295.8322364029371
 20
-117.2179799057835
 30
0.0
 11
295.8322364029371
 21
1057.782020094217
 31
0.0
  0
LINE
  5
1A4
330
1F
100
AcDbEntity
  8
0-0
  6
JWW_DASHED1
 62
   120
370
     5
100
AcDbLine
 10
282.8322364018371
 20
-117.2179799057835
 30
0.0
 11
282.8322364018371
 21
1057.782020094217
 31
0.0
  0
LINE
  5
1A5
330
1F
100
AcDbEntity
  8
0-0
  6
JWW_DASHED1
 62
   120
370
     5
100
AcDbLine
 10
281.8322364019369
 20
-117.2179799057835
 30
0.0
 11
281.8322364019369
 21
1057.782020094217
 31
0.0
  0
LINE
  5
1A6
330
1F
100
AcDbEntity
  8
0-0
  6
JWW_DASHED1
 62
   120
370
     5
100
AcDbLine
 10
268.8322364008371
 20
-117.2179799057835
 30
0.0
 11
268.8322364008371
 21
1057.782020094217
 31
0.0
  0
LINE
  5
1A7
330
1F
100
AcDbEntity
  8
0-0
  6
JWW_DASHED1
 62
   120
370
     5
100
AcDbLine
 10
267.8322364009371
 20
-117.2179799057835
 30
0.0
 11
267.8322364009371
 21
1057.782020094217
 31
0.0
  0
LINE
  5
1A8
330
1F
100
AcDbEntity
  8
0-0
  6
JWW_DASHED1
 62
   120
370
     5
100
AcDbLine
 10
254.8322363998371
 20
-117.2179799057835
 30
0.0
 11
254.8322363998371
 21
1057.782020094217
 31
0.0
  0
LINE
  5
1A9
330
1F
100
AcDbEntity
  8
0-0
  6
JWW_DASHED1
 62
   120
370
     5
100
AcDbLine
 10
253.8322363999373
 20
-117.2179799057835
 30
0.0
 11
253.8322363999373
 21
1057.782020094217
 31
0.0
  0
LINE
  5
1AA
330
1F
100
AcDbEntity
  8
0-0
  6
JWW_DASHED1
 62
   120
370
     5
100
AcDbLine
 10
240.8322363988373
 20
-117.2179799057835
 30
0.0
 11
240.8322363988373
 21
1057.782020094217
 31
0.0
  0
LINE
  5
1AB
330
1F
100
AcDbEntity
  8
0-0
  6
JWW_DASHED1
 62
   120
370
     5
100
AcDbLine
 10
239.8322363989367
 20
-117.2179799057835
 30
0.0
 11
239.8322363989367
 21
1057.782020094217
 31
0.0
  0
LINE
  5
1AC
330
1F
100
AcDbEntity
  8
0-0
  6
JWW_DASHED1
 62
   120
370
     5
100
AcDbLine
 10
226.8322363978371
 20
-117.2179799057835
 30
0.0
 11
226.8322363978371
 21
1057.782020094217
 31
0.0
  0
LINE
  5
1AD
330
1F
100
AcDbEntity
  8
0-0
  6
JWW_DASHED1
 62
   120
370
     5
100
AcDbLine
 10
225.8322363979369
 20
-117.2179799057835
 30
0.0
 11
225.8322363979369
 21
1057.782020094217
 31
0.0
  0
LINE
  5
1AE
330
1F
100
AcDbEntity
  8
0-0
  6
JWW_DASHED1
 62
   120
370
     5
100
AcDbLine
 10
212.8322363968373
 20
-117.2179799057835
 30
0.0
 11
212.8322363968373
 21
1057.782020094217
 31
0.0
  0
LINE
  5
1AF
330
1F
100
AcDbEntity
  8
0-0
  6
JWW_DASHED1
 62
   120
370
     5
100
AcDbLine
 10
211.8322363969367
 20
-117.2179799057835
 30
0.0
 11
211.8322363969367
 21
1057.782020094217
 31
0.0
  0
LINE
  5
1B0
330
1F
100
AcDbEntity
  8
0-0
  6
JWW_DASHED1
 62
   120
370
     5
100
AcDbLine
 10
198.8322363958375
 20
-117.2179799057835
 30
0.0
 11
198.8322363958375
 21
1057.782020094217
 31
0.0
  0
LINE
  5
1B1
330
1F
100
AcDbEntity
  8
0-0
  6
JWW_DASHED1
 62
   120
370
     5
100
AcDbLine
 10
197.8322363959373
 20
-117.2179799057835
 30
0.0
 11
197.8322363959373
 21
1057.782020094217
 31
0.0
  0
LINE
  5
1B2
330
1F
100
AcDbEntity
  8
0-0
  6
JWW_DASHED1
 62
   120
370
     5
100
AcDbLine
 10
184.8322363948373
 20
-117.2179799057835
 30
0.0
 11
184.8322363948373
 21
1057.782020094217
 31
0.0
  0
LINE
  5
1B3
330
1F
100
AcDbEntity
  8
0-0
  6
JWW_DASHED1
 62
   120
370
     5
100
AcDbLine
 10
183.8322363949371
 20
-117.2179799057835
 30
0.0
 11
183.8322363949371
 21
1057.782020094217
 31
0.0
  0
LINE
  5
1B4
330
1F
100
AcDbEntity
  8
0-0
  6
JWW_DASHED1
 62
   120
370
     5
100
AcDbLine
 10
170.832236393837
 20
-117.2179799057835
 30
0.0
 11
170.832236393837
 21
1057.782020094217
 31
0.0
  0
LINE
  5
1B5
330
1F
100
AcDbEntity
  8
0-0
  6
JWW_DASHED1
 62
   120
370
     5
100
AcDbLine
 10
730.8322364338371
 20
-117.2179799057835
 30
0.0
 11
730.8322364338371
 21
1057.782020094217
 31
0.0
  0
LINE
  5
1B6
330
1F
100
AcDbEntity
  8
0-0
  6
JWW_DASHED1
 62
   120
370
     5
100
AcDbLine
 10
715.8322364329372
 20
-117.2179799057835
 30
0.0
 11
715.8322364329372
 21
1057.782020094217
 31
0.0
  0
LINE
  5
1B7
330
1F
100
AcDbEntity
  8
0-0
  6
JWW_DASHED1
 62
   120
370
     5
100
AcDbLine
 10
729.8322364339369
 20
-117.2179799057835
 30
0.0
 11
729.8322364339369
 21
1057.782020094217
 31
0.0
  0
LINE
  5
1B8
330
1F
100
AcDbEntity
  8
0-0
  6
JWW_DASHED1
 62
   120
370
     5
100
AcDbLine
 10
716.8322364328369
 20
-117.2179799057835
 30
0.0
 11
716.8322364328369
 21
1057.782020094217
 31
0.0
  0
LINE
  5
1B9
330
1F
100
AcDbEntity
  8
0-0
  6
JWW_DASHED1
 62
   120
370
     5
100
AcDbLine
 10
163.8322179359059
 20
1045.781871863255
 30
0.0
 11
736.832217935905
 21
1045.781871863255
 31
0.0
  0
LINE
  5
1BA
330
1F
100
AcDbEntity
  8
0-0
  6
JWW_DASHED1
 62
   120
370
     5
100
AcDbLine
 10
163.8322179359059
 20
1002.781871860356
 30
0.0
 11
736.832217935905
 21
1002.781871860356
 31
0.0
  0
LINE
  5
1BB
330
1F
100
AcDbEntity
  8
0-0
  6
JWW_DASHED1
 62
   120
370
     5
100
AcDbLine
 10
163.8322179359059
 20
1003.781871860256
 30
0.0
 11
736.832217935905
 21
1003.781871860256
 31
0.0
  0
LINE
  5
1BC
330
1F
100
AcDbEntity
  8
0-0
  6
JWW_DASHED1
 62
   120
370
     5
100
AcDbLine
 10
163.8322179359059
 20
1016.781871861356
 30
0.0
 11
736.832217935905
 21
1016.781871861356
 31
0.0
  0
LINE
  5
1BD
330
1F
100
AcDbEntity
  8
0-0
  6
JWW_DASHED1
 62
   120
370
     5
100
AcDbLine
 10
163.8322179359059
 20
1017.781871861256
 30
0.0
 11
736.832217935905
 21
1017.781871861256
 31
0.0
  0
LINE
  5
1BE
330
1F
100
AcDbEntity
  8
0-0
  6
JWW_DASHED1
 62
   120
370
     5
100
AcDbLine
 10
163.8322179359059
 20
1030.781871862356
 30
0.0
 11
736.832217935905
 21
1030.781871862356
 31
0.0
  0
LINE
  5
1BF
330
1F
100
AcDbEntity
  8
0-0
  6
JWW_DASHED1
 62
   120
370
     5
100
AcDbLine
 10
163.8322179359059
 20
1031.781871862256
 30
0.0
 11
736.832217935905
 21
1031.781871862256
 31
0.0
  0
LINE
  5
1C0
330
1F
100
AcDbEntity
  8
0-0
  6
JWW_DASHED1
 62
   120
370
     5
100
AcDbLine
 10
163.8322179359059
 20
1044.781871863355
 30
0.0
 11
736.832217935905
 21
1044.781871863355
 31
0.0
  0
LINE
  5
1C1
330
1F
100
AcDbEntity
  8
0-0
  6
JWW_DASHED1
 62
   120
370
     5
100
AcDbLine
 10
-616.1677820640954
 20
-116.218128219727
 30
0.0
 11
-43.16778206409424
 21
-116.218128219727
 31
0.0
  0
LINE
  5
1C2
330
1F
100
AcDbEntity
  8
0-0
  6
JWW_DASHED1
 62
   120
370
     5
100
AcDbLine
 10
-616.1677820640954
 20
-103.2181282186275
 30
0.0
 11
-43.16778206409424
 21
-103.2181282186275
 31
0.0
  0
LINE
  5
1C3
330
1F
100
AcDbEntity
  8
0-0
  6
JWW_DASHED1
 62
   120
370
     5
100
AcDbLine
 10
-616.1677820640954
 20
-102.2181282187273
 30
0.0
 11
-43.16778206409424
 21
-102.2181282187273
 31
0.0
  0
LINE
  5
1C4
330
1F
100
AcDbEntity
  8
0-0
  6
JWW_DASHED1
 62
   120
370
     5
100
AcDbLine
 10
-616.1677820640954
 20
-89.2181282176276
 30
0.0
 11
-43.16778206409424
 21
-89.2181282176276
 31
0.0
  0
LINE
  5
1C5
330
1F
100
AcDbEntity
  8
0-0
  6
JWW_DASHED1
 62
   120
370
     5
100
AcDbLine
 10
-616.1677820640954
 20
-88.21812821772741
 30
0.0
 11
-43.16778206409424
 21
-88.21812821772741
 31
0.0
  0
LINE
  5
1C6
330
1F
100
AcDbEntity
  8
0-0
  6
JWW_DASHED1
 62
   120
370
     5
100
AcDbLine
 10
-616.1677820640954
 20
-75.2181282166278
 30
0.0
 11
-43.16778206409424
 21
-75.2181282166278
 31
0.0
  0
LINE
  5
1C7
330
1F
100
AcDbEntity
  8
0-0
  6
JWW_DASHED1
 62
   120
370
     5
100
AcDbLine
 10
-616.1677820640954
 20
-74.21812821672762
 30
0.0
 11
-43.16778206409424
 21
-74.21812821672762
 31
0.0
  0
LINE
  5
1C8
330
1F
100
AcDbEntity
  8
0-0
  6
JWW_DASHED1
 62
   120
370
     5
100
AcDbLine
 10
-616.1677820640954
 20
-61.21812821562802
 30
0.0
 11
-43.16778206409424
 21
-61.21812821562802
 31
0.0
  0
LINE
  5
1C9
330
1F
100
AcDbEntity
  8
0-0
  6
JWW_DASHED1
 62
   120
370
     5
100
AcDbLine
 10
-616.1677820640954
 20
-60.21812821572784
 30
0.0
 11
-43.16778206409424
 21
-60.21812821572784
 31
0.0
  0
LINE
  5
1CA
330
1F
100
AcDbEntity
  8
0-0
  6
JWW_DASHED1
 62
   120
370
     5
100
AcDbLine
 10
-616.1677820640954
 20
-47.21812821462823
 30
0.0
 11
-43.16778206409424
 21
-47.21812821462823
 31
0.0
  0
LINE
  5
1CB
330
1F
100
AcDbEntity
  8
0-0
  6
JWW_DASHED1
 62
   120
370
     5
100
AcDbLine
 10
-616.1677820640954
 20
-46.21812821472805
 30
0.0
 11
-43.16778206409424
 21
-46.21812821472805
 31
0.0
  0
LINE
  5
1CC
330
1F
100
AcDbEntity
  8
0-0
  6
JWW_DASHED1
 62
   120
370
     5
100
AcDbLine
 10
-616.1677820640954
 20
-33.21812821362844
 30
0.0
 11
-43.16778206409424
 21
-33.21812821362844
 31
0.0
  0
LINE
  5
1CD
330
1F
100
AcDbEntity
  8
0-0
  6
JWW_DASHED1
 62
   120
370
     5
100
AcDbLine
 10
-616.1677820640954
 20
-32.21812821372826
 30
0.0
 11
-43.16778206409424
 21
-32.21812821372826
 31
0.0
  0
LINE
  5
1CE
330
1F
100
AcDbEntity
  8
0-0
  6
JWW_DASHED1
 62
   120
370
     5
100
AcDbLine
 10
-616.1677820640954
 20
-19.21812821262865
 30
0.0
 11
-43.16778206409424
 21
-19.21812821262865
 31
0.0
  0
LINE
  5
1CF
330
1F
100
AcDbEntity
  8
0-0
  6
JWW_DASHED1
 62
   120
370
     5
100
AcDbLine
 10
-616.1677820640954
 20
-18.21812821272847
 30
0.0
 11
-43.16778206409424
 21
-18.21812821272847
 31
0.0
  0
LINE
  5
1D0
330
1F
100
AcDbEntity
  8
0-0
  6
JWW_DASHED1
 62
   120
370
     5
100
AcDbLine
 10
-616.1677820640954
 20
-5.218128211628859
 30
0.0
 11
-43.16778206409424
 21
-5.218128211628859
 31
0.0
  0
LINE
  5
1D1
330
1F
100
AcDbEntity
  8
0-0
  6
JWW_DASHED1
 62
   120
370
     5
100
AcDbLine
 10
-616.1677820640954
 20
-4.218128211728676
 30
0.0
 11
-43.16778206409424
 21
-4.218128211728676
 31
0.0
  0
LINE
  5
1D2
330
1F
100
AcDbEntity
  8
0-0
  6
JWW_DASHED1
 62
   120
370
     5
100
AcDbLine
 10
-616.1677820640954
 20
8.781871789370825
 30
0.0
 11
-43.16778206409424
 21
8.781871789370825
 31
0.0
  0
LINE
  5
1D3
330
1F
100
AcDbEntity
  8
0-0
  6
JWW_DASHED1
 62
   120
370
     5
100
AcDbLine
 10
-616.1677820640954
 20
9.781871789271008
 30
0.0
 11
-43.16778206409424
 21
9.781871789271008
 31
0.0
  0
LINE
  5
1D4
330
1F
100
AcDbEntity
  8
0-0
  6
JWW_DASHED1
 62
   120
370
     5
100
AcDbLine
 10
-616.1677820640954
 20
22.78187179037072
 30
0.0
 11
-43.16778206409424
 21
22.78187179037072
 31
0.0
  0
LINE
  5
1D5
330
1F
100
AcDbEntity
  8
0-0
  6
JWW_DASHED1
 62
   120
370
     5
100
AcDbLine
 10
-616.1677820640954
 20
23.78187179027091
 30
0.0
 11
-43.16778206409424
 21
23.78187179027091
 31
0.0
  0
LINE
  5
1D6
330
1F
100
AcDbEntity
  8
0-0
  6
JWW_DASHED1
 62
   120
370
     5
100
AcDbLine
 10
-616.1677820640954
 20
36.78187179137051
 30
0.0
 11
-43.16778206409424
 21
36.78187179137051
 31
0.0
  0
LINE
  5
1D7
330
1F
100
AcDbEntity
  8
0-0
  6
JWW_DASHED1
 62
   120
370
     5
100
AcDbLine
 10
-616.1677820640954
 20
37.7818717912707
 30
0.0
 11
-43.16778206409424
 21
37.7818717912707
 31
0.0
  0
LINE
  5
1D8
330
1F
100
AcDbEntity
  8
0-0
  6
JWW_DASHED1
 62
   120
370
     5
100
AcDbLine
 10
-616.1677820640954
 20
50.7818717923703
 30
0.0
 11
-43.16778206409424
 21
50.7818717923703
 31
0.0
  0
LINE
  5
1D9
330
1F
100
AcDbEntity
  8
0-0
  6
JWW_DASHED1
 62
   120
370
     5
100
AcDbLine
 10
-616.1677820640954
 20
51.78187179227049
 30
0.0
 11
-43.16778206409424
 21
51.78187179227049
 31
0.0
  0
LINE
  5
1DA
330
1F
100
AcDbEntity
  8
0-0
  6
JWW_DASHED1
 62
   120
370
     5
100
AcDbLine
 10
-616.1677820640954
 20
64.7818717933701
 30
0.0
 11
-43.16778206409424
 21
64.7818717933701
 31
0.0
  0
LINE
  5
1DB
330
1F
100
AcDbEntity
  8
0-0
  6
JWW_DASHED1
 62
   120
370
     5
100
AcDbLine
 10
-616.1677820640954
 20
65.78187179327028
 30
0.0
 11
-43.16778206409424
 21
65.78187179327028
 31
0.0
  0
LINE
  5
1DC
330
1F
100
AcDbEntity
  8
0-0
  6
JWW_DASHED1
 62
   120
370
     5
100
AcDbLine
 10
-616.1677820640954
 20
78.78187179436989
 30
0.0
 11
-43.16778206409424
 21
78.78187179436989
 31
0.0
  0
LINE
  5
1DD
330
1F
100
AcDbEntity
  8
0-0
  6
JWW_DASHED1
 62
   120
370
     5
100
AcDbLine
 10
-616.1677820640954
 20
79.78187179427007
 30
0.0
 11
-43.16778206409424
 21
79.78187179427007
 31
0.0
  0
LINE
  5
1DE
330
1F
100
AcDbEntity
  8
0-0
  6
JWW_DASHED1
 62
   120
370
     5
100
AcDbLine
 10
-616.1677820640954
 20
92.78187179536968
 30
0.0
 11
-43.16778206409424
 21
92.78187179536968
 31
0.0
  0
LINE
  5
1DF
330
1F
100
AcDbEntity
  8
0-0
  6
JWW_DASHED1
 62
   120
370
     5
100
AcDbLine
 10
-616.1677820640954
 20
93.78187179526986
 30
0.0
 11
-43.16778206409424
 21
93.78187179526986
 31
0.0
  0
LINE
  5
1E0
330
1F
100
AcDbEntity
  8
0-0
  6
JWW_DASHED1
 62
   120
370
     5
100
AcDbLine
 10
-616.1677820640954
 20
106.7818717963695
 30
0.0
 11
-43.16778206409424
 21
106.7818717963695
 31
0.0
  0
LINE
  5
1E1
330
1F
100
AcDbEntity
  8
0-0
  6
JWW_DASHED1
 62
   120
370
     5
100
AcDbLine
 10
-616.1677820640954
 20
107.7818717962697
 30
0.0
 11
-43.16778206409424
 21
107.7818717962697
 31
0.0
  0
LINE
  5
1E2
330
1F
100
AcDbEntity
  8
0-0
  6
JWW_DASHED1
 62
   120
370
     5
100
AcDbLine
 10
-616.1677820640954
 20
120.7818717973691
 30
0.0
 11
-43.16778206409424
 21
120.7818717973691
 31
0.0
  0
LINE
  5
1E3
330
1F
100
AcDbEntity
  8
0-0
  6
JWW_DASHED1
 62
   120
370
     5
100
AcDbLine
 10
-616.1677820640954
 20
121.7818717972693
 30
0.0
 11
-43.16778206409424
 21
121.7818717972693
 31
0.0
  0
LINE
  5
1E4
330
1F
100
AcDbEntity
  8
0-0
  6
JWW_DASHED1
 62
   120
370
     5
100
AcDbLine
 10
-616.1677820640954
 20
134.7818717983691
 30
0.0
 11
-43.16778206409424
 21
134.7818717983691
 31
0.0
  0
LINE
  5
1E5
330
1F
100
AcDbEntity
  8
0-0
  6
JWW_DASHED1
 62
   120
370
     5
100
AcDbLine
 10
-616.1677820640954
 20
135.7818717982692
 30
0.0
 11
-43.16778206409424
 21
135.7818717982692
 31
0.0
  0
LINE
  5
1E6
330
1F
100
AcDbEntity
  8
0-0
  6
JWW_DASHED1
 62
   120
370
     5
100
AcDbLine
 10
-616.1677820640954
 20
148.7818717993688
 30
0.0
 11
-43.16778206409424
 21
148.7818717993688
 31
0.0
  0
LINE
  5
1E7
330
1F
100
AcDbEntity
  8
0-0
  6
JWW_DASHED1
 62
   120
370
     5
100
AcDbLine
 10
-616.1677820640954
 20
149.781871799269
 30
0.0
 11
-43.16778206409424
 21
149.781871799269
 31
0.0
  0
LINE
  5
1E8
330
1F
100
AcDbEntity
  8
0-0
  6
JWW_DASHED1
 62
   120
370
     5
100
AcDbLine
 10
-616.1677820640954
 20
162.7818718003686
 30
0.0
 11
-43.16778206409424
 21
162.7818718003686
 31
0.0
  0
LINE
  5
1E9
330
1F
100
AcDbEntity
  8
0-0
  6
JWW_DASHED1
 62
   120
370
     5
100
AcDbLine
 10
-616.1677820640954
 20
163.7818718002688
 30
0.0
 11
-43.16778206409424
 21
163.7818718002688
 31
0.0
  0
LINE
  5
1EA
330
1F
100
AcDbEntity
  8
0-0
  6
JWW_DASHED1
 62
   120
370
     5
100
AcDbLine
 10
-616.1677820640954
 20
176.7818718013684
 30
0.0
 11
-43.16778206409424
 21
176.7818718013684
 31
0.0
  0
LINE
  5
1EB
330
1F
100
AcDbEntity
  8
0-0
  6
JWW_DASHED1
 62
   120
370
     5
100
AcDbLine
 10
-616.1677820640954
 20
177.7818718012686
 30
0.0
 11
-43.16778206409424
 21
177.7818718012686
 31
0.0
  0
LINE
  5
1EC
330
1F
100
AcDbEntity
  8
0-0
  6
JWW_DASHED1
 62
   120
370
     5
100
AcDbLine
 10
-616.1677820640954
 20
190.7818718023682
 30
0.0
 11
-43.16778206409424
 21
190.7818718023682
 31
0.0
  0
LINE
  5
1ED
330
1F
100
AcDbEntity
  8
0-0
  6
JWW_DASHED1
 62
   120
370
     5
100
AcDbLine
 10
-616.1677820640954
 20
191.7818718022684
 30
0.0
 11
-43.16778206409424
 21
191.7818718022684
 31
0.0
  0
LINE
  5
1EE
330
1F
100
AcDbEntity
  8
0-0
  6
JWW_DASHED1
 62
   120
370
     5
100
AcDbLine
 10
-616.1677820640954
 20
204.781871803368
 30
0.0
 11
-43.16778206409424
 21
204.781871803368
 31
0.0
  0
LINE
  5
1EF
330
1F
100
AcDbEntity
  8
0-0
  6
JWW_DASHED1
 62
   120
370
     5
100
AcDbLine
 10
-616.1677820640954
 20
205.7818718032682
 30
0.0
 11
-43.16778206409424
 21
205.7818718032682
 31
0.0
  0
LINE
  5
1F0
330
1F
100
AcDbEntity
  8
0-0
  6
JWW_DASHED1
 62
   120
370
     5
100
AcDbLine
 10
-616.1677820640954
 20
218.7818718043678
 30
0.0
 11
-43.16778206409424
 21
218.7818718043678
 31
0.0
  0
LINE
  5
1F1
330
1F
100
AcDbEntity
  8
0-0
  6
JWW_DASHED1
 62
   120
370
     5
100
AcDbLine
 10
-616.1677820640954
 20
219.781871804268
 30
0.0
 11
-43.16778206409424
 21
219.781871804268
 31
0.0
  0
LINE
  5
1F2
330
1F
100
AcDbEntity
  8
0-0
  6
JWW_DASHED1
 62
   120
370
     5
100
AcDbLine
 10
-616.1677820640954
 20
232.7818718053676
 30
0.0
 11
-43.16778206409424
 21
232.7818718053676
 31
0.0
  0
LINE
  5
1F3
330
1F
100
AcDbEntity
  8
0-0
  6
JWW_DASHED1
 62
   120
370
     5
100
AcDbLine
 10
-616.1677820640954
 20
233.7818718052678
 30
0.0
 11
-43.16778206409424
 21
233.7818718052678
 31
0.0
  0
LINE
  5
1F4
330
1F
100
AcDbEntity
  8
0-0
  6
JWW_DASHED1
 62
   120
370
     5
100
AcDbLine
 10
-616.1677820640954
 20
246.7818718063674
 30
0.0
 11
-43.16778206409424
 21
246.7818718063674
 31
0.0
  0
LINE
  5
1F5
330
1F
100
AcDbEntity
  8
0-0
  6
JWW_DASHED1
 62
   120
370
     5
100
AcDbLine
 10
-616.1677820640954
 20
247.7818718062676
 30
0.0
 11
-43.16778206409424
 21
247.7818718062676
 31
0.0
  0
LINE
  5
1F6
330
1F
100
AcDbEntity
  8
0-0
  6
JWW_DASHED1
 62
   120
370
     5
100
AcDbLine
 10
-616.1677820640954
 20
260.7818718073672
 30
0.0
 11
-43.16778206409424
 21
260.7818718073672
 31
0.0
  0
LINE
  5
1F7
330
1F
100
AcDbEntity
  8
0-0
  6
JWW_DASHED1
 62
   120
370
     5
100
AcDbLine
 10
-616.1677820640954
 20
261.7818718072671
 30
0.0
 11
-43.16778206409424
 21
261.7818718072671
 31
0.0
  0
LINE
  5
1F8
330
1F
100
AcDbEntity
  8
0-0
  6
JWW_DASHED1
 62
   120
370
     5
100
AcDbLine
 10
-616.1677820640954
 20
274.7818718083669
 30
0.0
 11
-43.16778206409424
 21
274.7818718083669
 31
0.0
  0
LINE
  5
1F9
330
1F
100
AcDbEntity
  8
0-0
  6
JWW_DASHED1
 62
   120
370
     5
100
AcDbLine
 10
-616.1677820640954
 20
275.7818718082671
 30
0.0
 11
-43.16778206409424
 21
275.7818718082671
 31
0.0
  0
LINE
  5
1FA
330
1F
100
AcDbEntity
  8
0-0
  6
JWW_DASHED1
 62
   120
370
     5
100
AcDbLine
 10
-616.1677820640954
 20
288.7818718093667
 30
0.0
 11
-43.16778206409424
 21
288.7818718093667
 31
0.0
  0
LINE
  5
1FB
330
1F
100
AcDbEntity
  8
0-0
  6
JWW_DASHED1
 62
   120
370
     5
100
AcDbLine
 10
-616.1677820640954
 20
289.7818718092669
 30
0.0
 11
-43.16778206409424
 21
289.7818718092669
 31
0.0
  0
LINE
  5
1FC
330
1F
100
AcDbEntity
  8
0-0
  6
JWW_DASHED1
 62
   120
370
     5
100
AcDbLine
 10
-616.1677820640954
 20
302.7818718103665
 30
0.0
 11
-43.16778206409424
 21
302.7818718103665
 31
0.0
  0
LINE
  5
1FD
330
1F
100
AcDbEntity
  8
0-0
  6
JWW_DASHED1
 62
   120
370
     5
100
AcDbLine
 10
-616.1677820640954
 20
303.7818718102667
 30
0.0
 11
-43.16778206409424
 21
303.7818718102667
 31
0.0
  0
LINE
  5
1FE
330
1F
100
AcDbEntity
  8
0-0
  6
JWW_DASHED1
 62
   120
370
     5
100
AcDbLine
 10
-616.1677820640954
 20
316.7818718113663
 30
0.0
 11
-43.16778206409424
 21
316.7818718113663
 31
0.0
  0
LINE
  5
1FF
330
1F
100
AcDbEntity
  8
0-0
  6
JWW_DASHED1
 62
   120
370
     5
100
AcDbLine
 10
-616.1677820640954
 20
317.7818718112665
 30
0.0
 11
-43.16778206409424
 21
317.7818718112665
 31
0.0
  0
LINE
  5
200
330
1F
100
AcDbEntity
  8
0-0
  6
JWW_DASHED1
 62
   120
370
     5
100
AcDbLine
 10
-616.1677820640954
 20
330.7818718123661
 30
0.0
 11
-43.16778206409424
 21
330.7818718123661
 31
0.0
  0
LINE
  5
201
330
1F
100
AcDbEntity
  8
0-0
  6
JWW_DASHED1
 62
   120
370
     5
100
AcDbLine
 10
-616.1677820640954
 20
331.7818718122663
 30
0.0
 11
-43.16778206409424
 21
331.7818718122663
 31
0.0
  0
LINE
  5
202
330
1F
100
AcDbEntity
  8
0-0
  6
JWW_DASHED1
 62
   120
370
     5
100
AcDbLine
 10
-616.1677820640954
 20
344.7818718133659
 30
0.0
 11
-43.16778206409424
 21
344.7818718133659
 31
0.0
  0
LINE
  5
203
330
1F
100
AcDbEntity
  8
0-0
  6
JWW_DASHED1
 62
   120
370
     5
100
AcDbLine
 10
-616.1677820640954
 20
345.7818718132661
 30
0.0
 11
-43.16778206409424
 21
345.7818718132661
 31
0.0
  0
LINE
  5
204
330
1F
100
AcDbEntity
  8
0-0
  6
JWW_DASHED1
 62
   120
370
     5
100
AcDbLine
 10
-616.1677820640954
 20
358.7818718143657
 30
0.0
 11
-43.16778206409424
 21
358.7818718143657
 31
0.0
  0
LINE
  5
205
330
1F
100
AcDbEntity
  8
0-0
  6
JWW_DASHED1
 62
   120
370
     5
100
AcDbLine
 10
-616.1677820640954
 20
359.7818718142659
 30
0.0
 11
-43.16778206409424
 21
359.7818718142659
 31
0.0
  0
LINE
  5
206
330
1F
100
AcDbEntity
  8
0-0
  6
JWW_DASHED1
 62
   120
370
     5
100
AcDbLine
 10
-616.1677820640954
 20
372.7818718153653
 30
0.0
 11
-43.16778206409424
 21
372.7818718153653
 31
0.0
  0
LINE
  5
207
330
1F
100
AcDbEntity
  8
0-0
  6
JWW_DASHED1
 62
   120
370
     5
100
AcDbLine
 10
-616.1677820640954
 20
373.7818718152657
 30
0.0
 11
-43.16778206409424
 21
373.7818718152657
 31
0.0
  0
LINE
  5
208
330
1F
100
AcDbEntity
  8
0-0
  6
JWW_DASHED1
 62
   120
370
     5
100
AcDbLine
 10
-616.1677820640954
 20
386.7818718163653
 30
0.0
 11
-43.16778206409424
 21
386.7818718163653
 31
0.0
  0
LINE
  5
209
330
1F
100
AcDbEntity
  8
0-0
  6
JWW_DASHED1
 62
   120
370
     5
100
AcDbLine
 10
-616.1677820640954
 20
387.7818718162654
 30
0.0
 11
-43.16778206409424
 21
387.7818718162654
 31
0.0
  0
LINE
  5
20A
330
1F
100
AcDbEntity
  8
0-0
  6
JWW_DASHED1
 62
   120
370
     5
100
AcDbLine
 10
-616.1677820640954
 20
400.7818718173651
 30
0.0
 11
-43.16778206409424
 21
400.7818718173651
 31
0.0
  0
LINE
  5
20B
330
1F
100
AcDbEntity
  8
0-0
  6
JWW_DASHED1
 62
   120
370
     5
100
AcDbLine
 10
-616.1677820640954
 20
401.7818718172653
 30
0.0
 11
-43.16778206409424
 21
401.7818718172653
 31
0.0
  0
LINE
  5
20C
330
1F
100
AcDbEntity
  8
0-0
  6
JWW_DASHED1
 62
   120
370
     5
100
AcDbLine
 10
-616.1677820640954
 20
414.7818718183648
 30
0.0
 11
-43.16778206409424
 21
414.7818718183648
 31
0.0
  0
LINE
  5
20D
330
1F
100
AcDbEntity
  8
0-0
  6
JWW_DASHED1
 62
   120
370
     5
100
AcDbLine
 10
-616.1677820640954
 20
415.781871818265
 30
0.0
 11
-43.16778206409424
 21
415.781871818265
 31
0.0
  0
LINE
  5
20E
330
1F
100
AcDbEntity
  8
0-0
  6
JWW_DASHED1
 62
   120
370
     5
100
AcDbLine
 10
-616.1677820640954
 20
428.7818718193647
 30
0.0
 11
-43.16778206409424
 21
428.7818718193647
 31
0.0
  0
LINE
  5
20F
330
1F
100
AcDbEntity
  8
0-0
  6
JWW_DASHED1
 62
   120
370
     5
100
AcDbLine
 10
-616.1677820640954
 20
429.7818718192648
 30
0.0
 11
-43.16778206409424
 21
429.7818718192648
 31
0.0
  0
LINE
  5
210
330
1F
100
AcDbEntity
  8
0-0
  6
JWW_DASHED1
 62
   120
370
     5
100
AcDbLine
 10
-616.1677820640954
 20
442.7818718203644
 30
0.0
 11
-43.16778206409424
 21
442.7818718203644
 31
0.0
  0
LINE
  5
211
330
1F
100
AcDbEntity
  8
0-0
  6
JWW_DASHED1
 62
   120
370
     5
100
AcDbLine
 10
-616.1677820640954
 20
443.7818718202646
 30
0.0
 11
-43.16778206409424
 21
443.7818718202646
 31
0.0
  0
LINE
  5
212
330
1F
100
AcDbEntity
  8
0-0
  6
JWW_DASHED1
 62
   120
370
     5
100
AcDbLine
 10
-616.1677820640954
 20
456.7818718213642
 30
0.0
 11
-43.16778206409424
 21
456.7818718213642
 31
0.0
  0
LINE
  5
213
330
1F
100
AcDbEntity
  8
0-0
  6
JWW_DASHED1
 62
   120
370
     5
100
AcDbLine
 10
-616.1677820640954
 20
457.7818718212644
 30
0.0
 11
-43.16778206409424
 21
457.7818718212644
 31
0.0
  0
LINE
  5
214
330
1F
100
AcDbEntity
  8
0-0
  6
JWW_DASHED1
 62
   120
370
     5
100
AcDbLine
 10
-616.1677820640954
 20
470.781871822364
 30
0.0
 11
-43.16778206409424
 21
470.781871822364
 31
0.0
  0
LINE
  5
215
330
1F
100
AcDbEntity
  8
0-0
  6
JWW_DASHED1
 62
   120
370
     5
100
AcDbLine
 10
-616.1677820640954
 20
471.7818718222642
 30
0.0
 11
-43.16778206409424
 21
471.7818718222642
 31
0.0
  0
LINE
  5
216
330
1F
100
AcDbEntity
  8
0-0
  6
JWW_DASHED1
 62
   120
370
     5
100
AcDbLine
 10
-616.1677820640954
 20
484.7818718233638
 30
0.0
 11
-43.16778206409424
 21
484.7818718233638
 31
0.0
  0
LINE
  5
217
330
1F
100
AcDbEntity
  8
0-0
  6
JWW_DASHED1
 62
   120
370
     5
100
AcDbLine
 10
-616.1677820640954
 20
485.7818718232638
 30
0.0
 11
-43.16778206409424
 21
485.7818718232638
 31
0.0
  0
LINE
  5
218
330
1F
100
AcDbEntity
  8
0-0
  6
JWW_DASHED1
 62
   120
370
     5
100
AcDbLine
 10
-616.1677820640954
 20
498.7818718243636
 30
0.0
 11
-43.16778206409424
 21
498.7818718243636
 31
0.0
  0
LINE
  5
219
330
1F
100
AcDbEntity
  8
0-0
  6
JWW_DASHED1
 62
   120
370
     5
100
AcDbLine
 10
-616.1677820640954
 20
499.7818718242638
 30
0.0
 11
-43.16778206409424
 21
499.7818718242638
 31
0.0
  0
LINE
  5
21A
330
1F
100
AcDbEntity
  8
0-0
  6
JWW_DASHED1
 62
   120
370
     5
100
AcDbLine
 10
-616.1677820640954
 20
512.7818718253634
 30
0.0
 11
-43.16778206409424
 21
512.7818718253634
 31
0.0
  0
LINE
  5
21B
330
1F
100
AcDbEntity
  8
0-0
  6
JWW_DASHED1
 62
   120
370
     5
100
AcDbLine
 10
-616.1677820640954
 20
513.7818718252636
 30
0.0
 11
-43.16778206409424
 21
513.7818718252636
 31
0.0
  0
LINE
  5
21C
330
1F
100
AcDbEntity
  8
0-0
  6
JWW_DASHED1
 62
   120
370
     5
100
AcDbLine
 10
-616.1677820640954
 20
526.7818718263632
 30
0.0
 11
-43.16778206409424
 21
526.7818718263632
 31
0.0
  0
LINE
  5
21D
330
1F
100
AcDbEntity
  8
0-0
  6
JWW_DASHED1
 62
   120
370
     5
100
AcDbLine
 10
-616.1677820640954
 20
527.7818718262633
 30
0.0
 11
-43.16778206409424
 21
527.7818718262633
 31
0.0
  0
LINE
  5
21E
330
1F
100
AcDbEntity
  8
0-0
  6
JWW_DASHED1
 62
   120
370
     5
100
AcDbLine
 10
-616.1677820640954
 20
540.7818718273629
 30
0.0
 11
-43.16778206409424
 21
540.7818718273629
 31
0.0
  0
LINE
  5
21F
330
1F
100
AcDbEntity
  8
0-0
  6
JWW_DASHED1
 62
   120
370
     5
100
AcDbLine
 10
-616.1677820640954
 20
541.7818718272631
 30
0.0
 11
-43.16778206409424
 21
541.7818718272631
 31
0.0
  0
LINE
  5
220
330
1F
100
AcDbEntity
  8
0-0
  6
JWW_DASHED1
 62
   120
370
     5
100
AcDbLine
 10
-616.1677820640954
 20
554.7818718283628
 30
0.0
 11
-43.16778206409424
 21
554.7818718283628
 31
0.0
  0
LINE
  5
221
330
1F
100
AcDbEntity
  8
0-0
  6
JWW_DASHED1
 62
   120
370
     5
100
AcDbLine
 10
-616.1677820640954
 20
555.781871828263
 30
0.0
 11
-43.16778206409424
 21
555.781871828263
 31
0.0
  0
LINE
  5
222
330
1F
100
AcDbEntity
  8
0-0
  6
JWW_DASHED1
 62
   120
370
     5
100
AcDbLine
 10
-616.1677820640954
 20
568.7818718293626
 30
0.0
 11
-43.16778206409424
 21
568.7818718293626
 31
0.0
  0
LINE
  5
223
330
1F
100
AcDbEntity
  8
0-0
  6
JWW_DASHED1
 62
   120
370
     5
100
AcDbLine
 10
-616.1677820640954
 20
569.7818718292627
 30
0.0
 11
-43.16778206409424
 21
569.7818718292627
 31
0.0
  0
LINE
  5
224
330
1F
100
AcDbEntity
  8
0-0
  6
JWW_DASHED1
 62
   120
370
     5
100
AcDbLine
 10
-616.1677820640954
 20
582.7818718303623
 30
0.0
 11
-43.16778206409424
 21
582.7818718303623
 31
0.0
  0
LINE
  5
225
330
1F
100
AcDbEntity
  8
0-0
  6
JWW_DASHED1
 62
   120
370
     5
100
AcDbLine
 10
-616.1677820640954
 20
583.7818718302625
 30
0.0
 11
-43.16778206409424
 21
583.7818718302625
 31
0.0
  0
LINE
  5
226
330
1F
100
AcDbEntity
  8
0-0
  6
JWW_DASHED1
 62
   120
370
     5
100
AcDbLine
 10
-616.1677820640954
 20
596.781871831362
 30
0.0
 11
-43.16778206409424
 21
596.781871831362
 31
0.0
  0
LINE
  5
227
330
1F
100
AcDbEntity
  8
0-0
  6
JWW_DASHED1
 62
   120
370
     5
100
AcDbLine
 10
-616.1677820640954
 20
597.7818718312623
 30
0.0
 11
-43.16778206409424
 21
597.7818718312623
 31
0.0
  0
LINE
  5
228
330
1F
100
AcDbEntity
  8
0-0
  6
JWW_DASHED1
 62
   120
370
     5
100
AcDbLine
 10
-616.1677820640954
 20
610.781871832362
 30
0.0
 11
-43.16778206409424
 21
610.781871832362
 31
0.0
  0
LINE
  5
229
330
1F
100
AcDbEntity
  8
0-0
  6
JWW_DASHED1
 62
   120
370
     5
100
AcDbLine
 10
-616.1677820640954
 20
611.7818718322621
 30
0.0
 11
-43.16778206409424
 21
611.7818718322621
 31
0.0
  0
LINE
  5
22A
330
1F
100
AcDbEntity
  8
0-0
  6
JWW_DASHED1
 62
   120
370
     5
100
AcDbLine
 10
-616.1677820640954
 20
624.7818718333617
 30
0.0
 11
-43.16778206409424
 21
624.7818718333617
 31
0.0
  0
LINE
  5
22B
330
1F
100
AcDbEntity
  8
0-0
  6
JWW_DASHED1
 62
   120
370
     5
100
AcDbLine
 10
-616.1677820640954
 20
625.7818718332619
 30
0.0
 11
-43.16778206409424
 21
625.7818718332619
 31
0.0
  0
LINE
  5
22C
330
1F
100
AcDbEntity
  8
0-0
  6
JWW_DASHED1
 62
   120
370
     5
100
AcDbLine
 10
-616.1677820640954
 20
638.7818718343615
 30
0.0
 11
-43.16778206409424
 21
638.7818718343615
 31
0.0
  0
LINE
  5
22D
330
1F
100
AcDbEntity
  8
0-0
  6
JWW_DASHED1
 62
   120
370
     5
100
AcDbLine
 10
-616.1677820640954
 20
639.7818718342617
 30
0.0
 11
-43.16778206409424
 21
639.7818718342617
 31
0.0
  0
LINE
  5
22E
330
1F
100
AcDbEntity
  8
0-0
  6
JWW_DASHED1
 62
   120
370
     5
100
AcDbLine
 10
-616.1677820640954
 20
652.7818718353612
 30
0.0
 11
-43.16778206409424
 21
652.7818718353612
 31
0.0
  0
LINE
  5
22F
330
1F
100
AcDbEntity
  8
0-0
  6
JWW_DASHED1
 62
   120
370
     5
100
AcDbLine
 10
-616.1677820640954
 20
653.7818718352614
 30
0.0
 11
-43.16778206409424
 21
653.7818718352614
 31
0.0
  0
LINE
  5
230
330
1F
100
AcDbEntity
  8
0-0
  6
JWW_DASHED1
 62
   120
370
     5
100
AcDbLine
 10
-616.1677820640954
 20
666.7818718363611
 30
0.0
 11
-43.16778206409424
 21
666.7818718363611
 31
0.0
  0
LINE
  5
231
330
1F
100
AcDbEntity
  8
0-0
  6
JWW_DASHED1
 62
   120
370
     5
100
AcDbLine
 10
-616.1677820640954
 20
667.7818718362613
 30
0.0
 11
-43.16778206409424
 21
667.7818718362613
 31
0.0
  0
LINE
  5
232
330
1F
100
AcDbEntity
  8
0-0
  6
JWW_DASHED1
 62
   120
370
     5
100
AcDbLine
 10
-616.1677820640954
 20
680.7818718373609
 30
0.0
 11
-43.16778206409424
 21
680.7818718373609
 31
0.0
  0
LINE
  5
233
330
1F
100
AcDbEntity
  8
0-0
  6
JWW_DASHED1
 62
   120
370
     5
100
AcDbLine
 10
-616.1677820640954
 20
681.7818718372611
 30
0.0
 11
-43.16778206409424
 21
681.7818718372611
 31
0.0
  0
LINE
  5
234
330
1F
100
AcDbEntity
  8
0-0
  6
JWW_DASHED1
 62
   120
370
     5
100
AcDbLine
 10
-616.1677820640954
 20
694.7818718383606
 30
0.0
 11
-43.16778206409424
 21
694.7818718383606
 31
0.0
  0
LINE
  5
235
330
1F
100
AcDbEntity
  8
0-0
  6
JWW_DASHED1
 62
   120
370
     5
100
AcDbLine
 10
-616.1677820640954
 20
695.7818718382608
 30
0.0
 11
-43.16778206409424
 21
695.7818718382608
 31
0.0
  0
LINE
  5
236
330
1F
100
AcDbEntity
  8
0-0
  6
JWW_DASHED1
 62
   120
370
     5
100
AcDbLine
 10
-616.1677820640954
 20
708.7818718393604
 30
0.0
 11
-43.16778206409424
 21
708.7818718393604
 31
0.0
  0
LINE
  5
237
330
1F
100
AcDbEntity
  8
0-0
  6
JWW_DASHED1
 62
   120
370
     5
100
AcDbLine
 10
-616.1677820640954
 20
709.7818718392605
 30
0.0
 11
-43.16778206409424
 21
709.7818718392605
 31
0.0
  0
LINE
  5
238
330
1F
100
AcDbEntity
  8
0-0
  6
JWW_DASHED1
 62
   120
370
     5
100
AcDbLine
 10
-616.1677820640954
 20
722.7818718403603
 30
0.0
 11
-43.16778206409424
 21
722.7818718403603
 31
0.0
  0
LINE
  5
239
330
1F
100
AcDbEntity
  8
0-0
  6
JWW_DASHED1
 62
   120
370
     5
100
AcDbLine
 10
-616.1677820640954
 20
723.7818718402605
 30
0.0
 11
-43.16778206409424
 21
723.7818718402605
 31
0.0
  0
LINE
  5
23A
330
1F
100
AcDbEntity
  8
0-0
  6
JWW_DASHED1
 62
   120
370
     5
100
AcDbLine
 10
-616.1677820640954
 20
736.78187184136
 30
0.0
 11
-43.16778206409424
 21
736.78187184136
 31
0.0
  0
LINE
  5
23B
330
1F
100
AcDbEntity
  8
0-0
  6
JWW_DASHED1
 62
   120
370
     5
100
AcDbLine
 10
-616.1677820640954
 20
737.7818718412602
 30
0.0
 11
-43.16778206409424
 21
737.7818718412602
 31
0.0
  0
LINE
  5
23C
330
1F
100
AcDbEntity
  8
0-0
  6
JWW_DASHED1
 62
   120
370
     5
100
AcDbLine
 10
-616.1677820640954
 20
750.7818718423598
 30
0.0
 11
-43.16778206409424
 21
750.7818718423598
 31
0.0
  0
LINE
  5
23D
330
1F
100
AcDbEntity
  8
0-0
  6
JWW_DASHED1
 62
   120
370
     5
100
AcDbLine
 10
-616.1677820640954
 20
751.78187184226
 30
0.0
 11
-43.16778206409424
 21
751.78187184226
 31
0.0
  0
LINE
  5
23E
330
1F
100
AcDbEntity
  8
0-0
  6
JWW_DASHED1
 62
   120
370
     5
100
AcDbLine
 10
-616.1677820640954
 20
764.7818718433596
 30
0.0
 11
-43.16778206409424
 21
764.7818718433596
 31
0.0
  0
LINE
  5
23F
330
1F
100
AcDbEntity
  8
0-0
  6
JWW_DASHED1
 62
   120
370
     5
100
AcDbLine
 10
-616.1677820640954
 20
765.7818718432598
 30
0.0
 11
-43.16778206409424
 21
765.7818718432598
 31
0.0
  0
LINE
  5
240
330
1F
100
AcDbEntity
  8
0-0
  6
JWW_DASHED1
 62
   120
370
     5
100
AcDbLine
 10
-616.1677820640954
 20
778.7818718443594
 30
0.0
 11
-43.16778206409424
 21
778.7818718443594
 31
0.0
  0
LINE
  5
241
330
1F
100
AcDbEntity
  8
0-0
  6
JWW_DASHED1
 62
   120
370
     5
100
AcDbLine
 10
-616.1677820640954
 20
779.7818718442596
 30
0.0
 11
-43.16778206409424
 21
779.7818718442596
 31
0.0
  0
LINE
  5
242
330
1F
100
AcDbEntity
  8
0-0
  6
JWW_DASHED1
 62
   120
370
     5
100
AcDbLine
 10
-616.1677820640954
 20
792.7818718453592
 30
0.0
 11
-43.16778206409424
 21
792.7818718453592
 31
0.0
  0
LINE
  5
243
330
1F
100
AcDbEntity
  8
0-0
  6
JWW_DASHED1
 62
   120
370
     5
100
AcDbLine
 10
-616.1677820640954
 20
793.7818718452594
 30
0.0
 11
-43.16778206409424
 21
793.7818718452594
 31
0.0
  0
LINE
  5
244
330
1F
100
AcDbEntity
  8
0-0
  6
JWW_DASHED1
 62
   120
370
     5
100
AcDbLine
 10
-616.1677820640954
 20
806.7818718463587
 30
0.0
 11
-43.16778206409424
 21
806.7818718463587
 31
0.0
  0
LINE
  5
245
330
1F
100
AcDbEntity
  8
0-0
  6
JWW_DASHED1
 62
   120
370
     5
100
AcDbLine
 10
-616.1677820640954
 20
807.7818718462589
 30
0.0
 11
-43.16778206409424
 21
807.7818718462589
 31
0.0
  0
LINE
  5
246
330
1F
100
AcDbEntity
  8
0-0
  6
JWW_DASHED1
 62
   120
370
     5
100
AcDbLine
 10
-616.1677820640954
 20
820.7818718473586
 30
0.0
 11
-43.16778206409424
 21
820.7818718473586
 31
0.0
  0
LINE
  5
247
330
1F
100
AcDbEntity
  8
0-0
  6
JWW_DASHED1
 62
   120
370
     5
100
AcDbLine
 10
-616.1677820640954
 20
821.7818718472589
 30
0.0
 11
-43.16778206409424
 21
821.7818718472589
 31
0.0
  0
LINE
  5
248
330
1F
100
AcDbEntity
  8
0-0
  6
JWW_DASHED1
 62
   120
370
     5
100
AcDbLine
 10
-616.1677820640954
 20
834.7818718483586
 30
0.0
 11
-43.16778206409424
 21
834.7818718483586
 31
0.0
  0
LINE
  5
249
330
1F
100
AcDbEntity
  8
0-0
  6
JWW_DASHED1
 62
   120
370
     5
100
AcDbLine
 10
-616.1677820640954
 20
835.7818718482588
 30
0.0
 11
-43.16778206409424
 21
835.7818718482588
 31
0.0
  0
LINE
  5
24A
330
1F
100
AcDbEntity
  8
0-0
  6
JWW_DASHED1
 62
   120
370
     5
100
AcDbLine
 10
-616.1677820640954
 20
848.7818718493584
 30
0.0
 11
-43.16778206409424
 21
848.7818718493584
 31
0.0
  0
LINE
  5
24B
330
1F
100
AcDbEntity
  8
0-0
  6
JWW_DASHED1
 62
   120
370
     5
100
AcDbLine
 10
-616.1677820640954
 20
849.7818718492586
 30
0.0
 11
-43.16778206409424
 21
849.7818718492586
 31
0.0
  0
LINE
  5
24C
330
1F
100
AcDbEntity
  8
0-0
  6
JWW_DASHED1
 62
   120
370
     5
100
AcDbLine
 10
-616.1677820640954
 20
862.7818718503581
 30
0.0
 11
-43.16778206409424
 21
862.7818718503581
 31
0.0
  0
LINE
  5
24D
330
1F
100
AcDbEntity
  8
0-0
  6
JWW_DASHED1
 62
   120
370
     5
100
AcDbLine
 10
-616.1677820640954
 20
863.7818718502583
 30
0.0
 11
-43.16778206409424
 21
863.7818718502583
 31
0.0
  0
LINE
  5
24E
330
1F
100
AcDbEntity
  8
0-0
  6
JWW_DASHED1
 62
   120
370
     5
100
AcDbLine
 10
-616.1677820640954
 20
876.7818718513579
 30
0.0
 11
-43.16778206409424
 21
876.7818718513579
 31
0.0
  0
LINE
  5
24F
330
1F
100
AcDbEntity
  8
0-0
  6
JWW_DASHED1
 62
   120
370
     5
100
AcDbLine
 10
-616.1677820640954
 20
877.7818718512581
 30
0.0
 11
-43.16778206409424
 21
877.7818718512581
 31
0.0
  0
LINE
  5
250
330
1F
100
AcDbEntity
  8
0-0
  6
JWW_DASHED1
 62
   120
370
     5
100
AcDbLine
 10
-616.1677820640954
 20
890.7818718523578
 30
0.0
 11
-43.16778206409424
 21
890.7818718523578
 31
0.0
  0
LINE
  5
251
330
1F
100
AcDbEntity
  8
0-0
  6
JWW_DASHED1
 62
   120
370
     5
100
AcDbLine
 10
-616.1677820640954
 20
891.781871852258
 30
0.0
 11
-43.16778206409424
 21
891.781871852258
 31
0.0
  0
LINE
  5
252
330
1F
100
AcDbEntity
  8
0-0
  6
JWW_DASHED1
 62
   120
370
     5
100
AcDbLine
 10
-616.1677820640954
 20
904.7818718533575
 30
0.0
 11
-43.16778206409424
 21
904.7818718533575
 31
0.0
  0
LINE
  5
253
330
1F
100
AcDbEntity
  8
0-0
  6
JWW_DASHED1
 62
   120
370
     5
100
AcDbLine
 10
-616.1677820640954
 20
905.7818718532577
 30
0.0
 11
-43.16778206409424
 21
905.7818718532577
 31
0.0
  0
LINE
  5
254
330
1F
100
AcDbEntity
  8
0-0
  6
JWW_DASHED1
 62
   120
370
     5
100
AcDbLine
 10
-616.1677820640954
 20
918.7818718543571
 30
0.0
 11
-43.16778206409424
 21
918.7818718543571
 31
0.0
  0
LINE
  5
255
330
1F
100
AcDbEntity
  8
0-0
  6
JWW_DASHED1
 62
   120
370
     5
100
AcDbLine
 10
-616.1677820640954
 20
919.7818718542572
 30
0.0
 11
-43.16778206409424
 21
919.7818718542572
 31
0.0
  0
LINE
  5
256
330
1F
100
AcDbEntity
  8
0-0
  6
JWW_DASHED1
 62
   120
370
     5
100
AcDbLine
 10
-616.1677820640954
 20
932.781871855357
 30
0.0
 11
-43.16778206409424
 21
932.781871855357
 31
0.0
  0
LINE
  5
257
330
1F
100
AcDbEntity
  8
0-0
  6
JWW_DASHED1
 62
   120
370
     5
100
AcDbLine
 10
-616.1677820640954
 20
933.7818718552571
 30
0.0
 11
-43.16778206409424
 21
933.7818718552571
 31
0.0
  0
LINE
  5
258
330
1F
100
AcDbEntity
  8
0-0
  6
JWW_DASHED1
 62
   120
370
     5
100
AcDbLine
 10
-616.1677820640954
 20
946.7818718563569
 30
0.0
 11
-43.16778206409424
 21
946.7818718563569
 31
0.0
  0
LINE
  5
259
330
1F
100
AcDbEntity
  8
0-0
  6
JWW_DASHED1
 62
   120
370
     5
100
AcDbLine
 10
-616.1677820640954
 20
947.7818718562571
 30
0.0
 11
-43.16778206409424
 21
947.7818718562571
 31
0.0
  0
LINE
  5
25A
330
1F
100
AcDbEntity
  8
0-0
  6
JWW_DASHED1
 62
   120
370
     5
100
AcDbLine
 10
-616.1677820640954
 20
960.7818718573566
 30
0.0
 11
-43.16778206409424
 21
960.7818718573566
 31
0.0
  0
LINE
  5
25B
330
1F
100
AcDbEntity
  8
0-0
  6
JWW_DASHED1
 62
   120
370
     5
100
AcDbLine
 10
-616.1677820640954
 20
961.7818718572568
 30
0.0
 11
-43.16778206409424
 21
961.7818718572568
 31
0.0
  0
LINE
  5
25C
330
1F
100
AcDbEntity
  8
0-0
  6
JWW_DASHED1
 62
   120
370
     5
100
AcDbLine
 10
-616.1677820640954
 20
974.7818718583563
 30
0.0
 11
-43.16778206409424
 21
974.7818718583563
 31
0.0
  0
LINE
  5
25D
330
1F
100
AcDbEntity
  8
0-0
  6
JWW_DASHED1
 62
   120
370
     5
100
AcDbLine
 10
-616.1677820640954
 20
975.7818718582565
 30
0.0
 11
-43.16778206409424
 21
975.7818718582565
 31
0.0
  0
LINE
  5
25E
330
1F
100
AcDbEntity
  8
0-0
  6
JWW_DASHED1
 62
   120
370
     5
100
AcDbLine
 10
-616.1677820640954
 20
988.7818718593562
 30
0.0
 11
-43.16778206409424
 21
988.7818718593562
 31
0.0
  0
LINE
  5
25F
330
1F
100
AcDbEntity
  8
0-0
  6
JWW_DASHED1
 62
   120
370
     5
100
AcDbLine
 10
-616.1677820640954
 20
989.7818718592564
 30
0.0
 11
-43.16778206409424
 21
989.7818718592564
 31
0.0
  0
LINE
  5
260
330
1F
100
AcDbEntity
  8
0-0
  6
JWW_DASHED1
 62
   120
370
     5
100
AcDbLine
 10
-610.1677636060631
 20
-117.2179799057835
 30
0.0
 11
-610.1677636060631
 21
1057.782020094217
 31
0.0
  0
LINE
  5
261
330
1F
100
AcDbEntity
  8
0-0
  6
JWW_DASHED1
 62
   120
370
     5
100
AcDbLine
 10
-77.16776356816283
 20
-117.2179799057835
 30
0.0
 11
-77.16776356816283
 21
1057.782020094217
 31
0.0
  0
LINE
  5
262
330
1F
100
AcDbEntity
  8
0-0
  6
JWW_DASHED1
 62
   120
370
     5
100
AcDbLine
 10
-78.16776356806301
 20
-117.2179799057835
 30
0.0
 11
-78.16776356806258
 21
1057.782020094217
 31
0.0
  0
LINE
  5
263
330
1F
100
AcDbEntity
  8
0-0
  6
JWW_DASHED1
 62
   120
370
     5
100
AcDbLine
 10
-91.16776356916304
 20
-117.2179799057835
 30
0.0
 11
-91.16776356916262
 21
1057.782020094217
 31
0.0
  0
LINE
  5
264
330
1F
100
AcDbEntity
  8
0-0
  6
JWW_DASHED1
 62
   120
370
     5
100
AcDbLine
 10
-92.1677635690628
 20
-117.2179799057835
 30
0.0
 11
-92.1677635690628
 21
1057.782020094217
 31
0.0
  0
LINE
  5
265
330
1F
100
AcDbEntity
  8
0-0
  6
JWW_DASHED1
 62
   120
370
     5
100
AcDbLine
 10
-105.1677635701633
 20
-117.2179799057835
 30
0.0
 11
-105.1677635701633
 21
1057.782020094217
 31
0.0
  0
LINE
  5
266
330
1F
100
AcDbEntity
  8
0-0
  6
JWW_DASHED1
 62
   120
370
     5
100
AcDbLine
 10
-106.167763570063
 20
-117.2179799057835
 30
0.0
 11
-106.167763570063
 21
1057.782020094217
 31
0.0
  0
LINE
  5
267
330
1F
100
AcDbEntity
  8
0-0
  6
JWW_DASHED1
 62
   120
370
     5
100
AcDbLine
 10
-119.1677635711631
 20
-117.2179799057835
 30
0.0
 11
-119.1677635711631
 21
1057.782020094217
 31
0.0
  0
LINE
  5
268
330
1F
100
AcDbEntity
  8
0-0
  6
JWW_DASHED1
 62
   120
370
     5
100
AcDbLine
 10
-120.1677635710632
 20
-117.2179799057835
 30
0.0
 11
-120.1677635710632
 21
1057.782020094217
 31
0.0
  0
LINE
  5
269
330
1F
100
AcDbEntity
  8
0-0
  6
JWW_DASHED1
 62
   120
370
     5
100
AcDbLine
 10
-133.1677635721633
 20
-117.2179799057835
 30
0.0
 11
-133.1677635721633
 21
1057.782020094217
 31
0.0
  0
LINE
  5
26A
330
1F
100
AcDbEntity
  8
0-0
  6
JWW_DASHED1
 62
   120
370
     5
100
AcDbLine
 10
-134.1677635720631
 20
-117.2179799057835
 30
0.0
 11
-134.1677635720626
 21
1057.782020094217
 31
0.0
  0
LINE
  5
26B
330
1F
100
AcDbEntity
  8
0-0
  6
JWW_DASHED1
 62
   120
370
     5
100
AcDbLine
 10
-147.1677635731632
 20
-117.2179799057835
 30
0.0
 11
-147.1677635731626
 21
1057.782020094217
 31
0.0
  0
LINE
  5
26C
330
1F
100
AcDbEntity
  8
0-0
  6
JWW_DASHED1
 62
   120
370
     5
100
AcDbLine
 10
-148.1677635730628
 20
-117.2179799057835
 30
0.0
 11
-148.1677635730628
 21
1057.782020094217
 31
0.0
  0
LINE
  5
26D
330
1F
100
AcDbEntity
  8
0-0
  6
JWW_DASHED1
 62
   120
370
     5
100
AcDbLine
 10
-161.1677635741628
 20
-117.2179799057835
 30
0.0
 11
-161.1677635741628
 21
1057.782020094217
 31
0.0
  0
LINE
  5
26E
330
1F
100
AcDbEntity
  8
0-0
  6
JWW_DASHED1
 62
   120
370
     5
100
AcDbLine
 10
-162.167763574063
 20
-117.2179799057835
 30
0.0
 11
-162.167763574063
 21
1057.782020094217
 31
0.0
  0
LINE
  5
26F
330
1F
100
AcDbEntity
  8
0-0
  6
JWW_DASHED1
 62
   120
370
     5
100
AcDbLine
 10
-175.1677635751626
 20
-117.2179799057835
 30
0.0
 11
-175.1677635751626
 21
1057.782020094217
 31
0.0
  0
LINE
  5
270
330
1F
100
AcDbEntity
  8
0-0
  6
JWW_DASHED1
 62
   120
370
     5
100
AcDbLine
 10
-176.1677635750628
 20
-117.2179799057835
 30
0.0
 11
-176.1677635750628
 21
1057.782020094217
 31
0.0
  0
LINE
  5
271
330
1F
100
AcDbEntity
  8
0-0
  6
JWW_DASHED1
 62
   120
370
     5
100
AcDbLine
 10
-189.1677635761624
 20
-117.2179799057835
 30
0.0
 11
-189.1677635761624
 21
1057.782020094217
 31
0.0
  0
LINE
  5
272
330
1F
100
AcDbEntity
  8
0-0
  6
JWW_DASHED1
 62
   120
370
     5
100
AcDbLine
 10
-190.1677635760626
 20
-117.2179799057835
 30
0.0
 11
-190.1677635760626
 21
1057.782020094217
 31
0.0
  0
LINE
  5
273
330
1F
100
AcDbEntity
  8
0-0
  6
JWW_DASHED1
 62
   120
370
     5
100
AcDbLine
 10
-203.1677635771631
 20
-117.2179799057835
 30
0.0
 11
-203.1677635771631
 21
1057.782020094217
 31
0.0
  0
LINE
  5
274
330
1F
100
AcDbEntity
  8
0-0
  6
JWW_DASHED1
 62
   120
370
     5
100
AcDbLine
 10
-204.1677635770628
 20
-117.2179799057835
 30
0.0
 11
-204.1677635770628
 21
1057.782020094217
 31
0.0
  0
LINE
  5
275
330
1F
100
AcDbEntity
  8
0-0
  6
JWW_DASHED1
 62
   120
370
     5
100
AcDbLine
 10
-217.1677635781629
 20
-117.2179799057835
 30
0.0
 11
-217.1677635781629
 21
1057.782020094217
 31
0.0
  0
LINE
  5
276
330
1F
100
AcDbEntity
  8
0-0
  6
JWW_DASHED1
 62
   120
370
     5
100
AcDbLine
 10
-218.1677635780635
 20
-117.2179799057835
 30
0.0
 11
-218.1677635780635
 21
1057.782020094217
 31
0.0
  0
LINE
  5
277
330
1F
100
AcDbEntity
  8
0-0
  6
JWW_DASHED1
 62
   120
370
     5
100
AcDbLine
 10
-231.1677635791631
 20
-117.2179799057835
 30
0.0
 11
-231.1677635791631
 21
1057.782020094217
 31
0.0
  0
LINE
  5
278
330
1F
100
AcDbEntity
  8
0-0
  6
JWW_DASHED1
 62
   120
370
     5
100
AcDbLine
 10
-232.1677635790628
 20
-117.2179799057835
 30
0.0
 11
-232.1677635790628
 21
1057.782020094217
 31
0.0
  0
LINE
  5
279
330
1F
100
AcDbEntity
  8
0-0
  6
JWW_DASHED1
 62
   120
370
     5
100
AcDbLine
 10
-245.1677635801624
 20
-117.2179799057835
 30
0.0
 11
-245.1677635801624
 21
1057.782020094217
 31
0.0
  0
LINE
  5
27A
330
1F
100
AcDbEntity
  8
0-0
  6
JWW_DASHED1
 62
   120
370
     5
100
AcDbLine
 10
-246.1677635800626
 20
-117.2179799057835
 30
0.0
 11
-246.1677635800626
 21
1057.782020094217
 31
0.0
  0
LINE
  5
27B
330
1F
100
AcDbEntity
  8
0-0
  6
JWW_DASHED1
 62
   120
370
     5
100
AcDbLine
 10
-259.1677635811627
 20
-117.2179799057835
 30
0.0
 11
-259.1677635811627
 21
1057.782020094217
 31
0.0
  0
LINE
  5
27C
330
1F
100
AcDbEntity
  8
0-0
  6
JWW_DASHED1
 62
   120
370
     5
100
AcDbLine
 10
-260.1677635810628
 20
-117.2179799057835
 30
0.0
 11
-260.1677635810628
 21
1057.782020094217
 31
0.0
  0
LINE
  5
27D
330
1F
100
AcDbEntity
  8
0-0
  6
JWW_DASHED1
 62
   120
370
     5
100
AcDbLine
 10
-273.1677635821629
 20
-117.2179799057835
 30
0.0
 11
-273.1677635821629
 21
1057.782020094217
 31
0.0
  0
LINE
  5
27E
330
1F
100
AcDbEntity
  8
0-0
  6
JWW_DASHED1
 62
   120
370
     5
100
AcDbLine
 10
-274.1677635820631
 20
-117.2179799057835
 30
0.0
 11
-274.1677635820631
 21
1057.782020094217
 31
0.0
  0
LINE
  5
27F
330
1F
100
AcDbEntity
  8
0-0
  6
JWW_DASHED1
 62
   120
370
     5
100
AcDbLine
 10
-287.1677635831627
 20
-117.2179799057835
 30
0.0
 11
-287.1677635831627
 21
1057.782020094217
 31
0.0
  0
LINE
  5
280
330
1F
100
AcDbEntity
  8
0-0
  6
JWW_DASHED1
 62
   120
370
     5
100
AcDbLine
 10
-288.1677635830629
 20
-117.2179799057835
 30
0.0
 11
-288.1677635830629
 21
1057.782020094217
 31
0.0
  0
LINE
  5
281
330
1F
100
AcDbEntity
  8
0-0
  6
JWW_DASHED1
 62
   120
370
     5
100
AcDbLine
 10
-301.1677635841625
 20
-117.2179799057835
 30
0.0
 11
-301.1677635841625
 21
1057.782020094217
 31
0.0
  0
LINE
  5
282
330
1F
100
AcDbEntity
  8
0-0
  6
JWW_DASHED1
 62
   120
370
     5
100
AcDbLine
 10
-302.1677635840631
 20
-117.2179799057835
 30
0.0
 11
-302.1677635840631
 21
1057.782020094217
 31
0.0
  0
LINE
  5
283
330
1F
100
AcDbEntity
  8
0-0
  6
JWW_DASHED1
 62
   120
370
     5
100
AcDbLine
 10
-315.1677635851627
 20
-117.2179799057835
 30
0.0
 11
-315.1677635851627
 21
1057.782020094217
 31
0.0
  0
LINE
  5
284
330
1F
100
AcDbEntity
  8
0-0
  6
JWW_DASHED1
 62
   120
370
     5
100
AcDbLine
 10
-316.1677635850629
 20
-117.2179799057835
 30
0.0
 11
-316.1677635850629
 21
1057.782020094217
 31
0.0
  0
LINE
  5
285
330
1F
100
AcDbEntity
  8
0-0
  6
JWW_DASHED1
 62
   120
370
     5
100
AcDbLine
 10
-329.1677635861629
 20
-117.2179799057835
 30
0.0
 11
-329.1677635861629
 21
1057.782020094217
 31
0.0
  0
LINE
  5
286
330
1F
100
AcDbEntity
  8
0-0
  6
JWW_DASHED1
 62
   120
370
     5
100
AcDbLine
 10
-330.1677635860631
 20
-117.2179799057835
 30
0.0
 11
-330.1677635860631
 21
1057.782020094217
 31
0.0
  0
LINE
  5
287
330
1F
100
AcDbEntity
  8
0-0
  6
JWW_DASHED1
 62
   120
370
     5
100
AcDbLine
 10
-343.1677635871631
 20
-117.2179799057835
 30
0.0
 11
-343.1677635871631
 21
1057.782020094217
 31
0.0
  0
LINE
  5
288
330
1F
100
AcDbEntity
  8
0-0
  6
JWW_DASHED1
 62
   120
370
     5
100
AcDbLine
 10
-344.1677635870628
 20
-117.2179799057835
 30
0.0
 11
-344.1677635870628
 21
1057.782020094217
 31
0.0
  0
LINE
  5
289
330
1F
100
AcDbEntity
  8
0-0
  6
JWW_DASHED1
 62
   120
370
     5
100
AcDbLine
 10
-357.1677635881625
 20
-117.2179799057835
 30
0.0
 11
-357.1677635881625
 21
1057.782020094217
 31
0.0
  0
LINE
  5
28A
330
1F
100
AcDbEntity
  8
0-0
  6
JWW_DASHED1
 62
   120
370
     5
100
AcDbLine
 10
-358.1677635880627
 20
-117.2179799057835
 30
0.0
 11
-358.1677635880627
 21
1057.782020094217
 31
0.0
  0
LINE
  5
28B
330
1F
100
AcDbEntity
  8
0-0
  6
JWW_DASHED1
 62
   120
370
     5
100
AcDbLine
 10
-371.1677635891627
 20
-117.2179799057835
 30
0.0
 11
-371.1677635891627
 21
1057.782020094217
 31
0.0
  0
LINE
  5
28C
330
1F
100
AcDbEntity
  8
0-0
  6
JWW_DASHED1
 62
   120
370
     5
100
AcDbLine
 10
-372.1677635890629
 20
-117.2179799057835
 30
0.0
 11
-372.1677635890629
 21
1057.782020094217
 31
0.0
  0
LINE
  5
28D
330
1F
100
AcDbEntity
  8
0-0
  6
JWW_DASHED1
 62
   120
370
     5
100
AcDbLine
 10
-385.167763590163
 20
-117.2179799057835
 30
0.0
 11
-385.167763590163
 21
1057.782020094217
 31
0.0
  0
LINE
  5
28E
330
1F
100
AcDbEntity
  8
0-0
  6
JWW_DASHED1
 62
   120
370
     5
100
AcDbLine
 10
-386.1677635900631
 20
-117.2179799057835
 30
0.0
 11
-386.1677635900631
 21
1057.782020094217
 31
0.0
  0
LINE
  5
28F
330
1F
100
AcDbEntity
  8
0-0
  6
JWW_DASHED1
 62
   120
370
     5
100
AcDbLine
 10
-399.1677635911627
 20
-117.2179799057835
 30
0.0
 11
-399.1677635911627
 21
1057.782020094217
 31
0.0
  0
LINE
  5
290
330
1F
100
AcDbEntity
  8
0-0
  6
JWW_DASHED1
 62
   120
370
     5
100
AcDbLine
 10
-400.1677635910629
 20
-117.2179799057835
 30
0.0
 11
-400.1677635910629
 21
1057.782020094217
 31
0.0
  0
LINE
  5
291
330
1F
100
AcDbEntity
  8
0-0
  6
JWW_DASHED1
 62
   120
370
     5
100
AcDbLine
 10
-413.1677635921625
 20
-117.2179799057835
 30
0.0
 11
-413.1677635921625
 21
1057.782020094217
 31
0.0
  0
LINE
  5
292
330
1F
100
AcDbEntity
  8
0-0
  6
JWW_DASHED1
 62
   120
370
     5
100
AcDbLine
 10
-414.1677635920627
 20
-117.2179799057835
 30
0.0
 11
-414.1677635920627
 21
1057.782020094217
 31
0.0
  0
LINE
  5
293
330
1F
100
AcDbEntity
  8
0-0
  6
JWW_DASHED1
 62
   120
370
     5
100
AcDbLine
 10
-427.1677635931627
 20
-117.2179799057835
 30
0.0
 11
-427.1677635931627
 21
1057.782020094217
 31
0.0
  0
LINE
  5
294
330
1F
100
AcDbEntity
  8
0-0
  6
JWW_DASHED1
 62
   120
370
     5
100
AcDbLine
 10
-428.1677635930629
 20
-117.2179799057835
 30
0.0
 11
-428.1677635930629
 21
1057.782020094217
 31
0.0
  0
LINE
  5
295
330
1F
100
AcDbEntity
  8
0-0
  6
JWW_DASHED1
 62
   120
370
     5
100
AcDbLine
 10
-441.1677635941634
 20
-117.2179799057835
 30
0.0
 11
-441.1677635941634
 21
1057.782020094217
 31
0.0
  0
LINE
  5
296
330
1F
100
AcDbEntity
  8
0-0
  6
JWW_DASHED1
 62
   120
370
     5
100
AcDbLine
 10
-442.1677635940631
 20
-117.2179799057835
 30
0.0
 11
-442.1677635940631
 21
1057.782020094217
 31
0.0
  0
LINE
  5
297
330
1F
100
AcDbEntity
  8
0-0
  6
JWW_DASHED1
 62
   120
370
     5
100
AcDbLine
 10
-455.1677635951627
 20
-117.2179799057835
 30
0.0
 11
-455.1677635951627
 21
1057.782020094217
 31
0.0
  0
LINE
  5
298
330
1F
100
AcDbEntity
  8
0-0
  6
JWW_DASHED1
 62
   120
370
     5
100
AcDbLine
 10
-456.1677635950633
 20
-117.2179799057835
 30
0.0
 11
-456.1677635950633
 21
1057.782020094217
 31
0.0
  0
LINE
  5
299
330
1F
100
AcDbEntity
  8
0-0
  6
JWW_DASHED1
 62
   120
370
     5
100
AcDbLine
 10
-469.1677635961626
 20
-117.2179799057835
 30
0.0
 11
-469.1677635961626
 21
1057.782020094217
 31
0.0
  0
LINE
  5
29A
330
1F
100
AcDbEntity
  8
0-0
  6
JWW_DASHED1
 62
   120
370
     5
100
AcDbLine
 10
-470.1677635960627
 20
-117.2179799057835
 30
0.0
 11
-470.1677635960627
 21
1057.782020094217
 31
0.0
  0
LINE
  5
29B
330
1F
100
AcDbEntity
  8
0-0
  6
JWW_DASHED1
 62
   120
370
     5
100
AcDbLine
 10
-483.1677635971627
 20
-117.2179799057835
 30
0.0
 11
-483.1677635971627
 21
1057.782020094217
 31
0.0
  0
LINE
  5
29C
330
1F
100
AcDbEntity
  8
0-0
  6
JWW_DASHED1
 62
   120
370
     5
100
AcDbLine
 10
-484.1677635970629
 20
-117.2179799057835
 30
0.0
 11
-484.1677635970629
 21
1057.782020094217
 31
0.0
  0
LINE
  5
29D
330
1F
100
AcDbEntity
  8
0-0
  6
JWW_DASHED1
 62
   120
370
     5
100
AcDbLine
 10
-497.1677635981629
 20
-117.2179799057835
 30
0.0
 11
-497.1677635981629
 21
1057.782020094217
 31
0.0
  0
LINE
  5
29E
330
1F
100
AcDbEntity
  8
0-0
  6
JWW_DASHED1
 62
   120
370
     5
100
AcDbLine
 10
-498.1677635980631
 20
-117.2179799057835
 30
0.0
 11
-498.1677635980631
 21
1057.782020094217
 31
0.0
  0
LINE
  5
29F
330
1F
100
AcDbEntity
  8
0-0
  6
JWW_DASHED1
 62
   120
370
     5
100
AcDbLine
 10
-511.1677635991628
 20
-117.2179799057835
 30
0.0
 11
-511.1677635991628
 21
1057.782020094217
 31
0.0
  0
LINE
  5
2A0
330
1F
100
AcDbEntity
  8
0-0
  6
JWW_DASHED1
 62
   120
370
     5
100
AcDbLine
 10
-512.1677635990629
 20
-117.2179799057835
 30
0.0
 11
-512.1677635990629
 21
1057.782020094217
 31
0.0
  0
LINE
  5
2A1
330
1F
100
AcDbEntity
  8
0-0
  6
JWW_DASHED1
 62
   120
370
     5
100
AcDbLine
 10
-525.167763600163
 20
-117.2179799057835
 30
0.0
 11
-525.167763600163
 21
1057.782020094217
 31
0.0
  0
LINE
  5
2A2
330
1F
100
AcDbEntity
  8
0-0
  6
JWW_DASHED1
 62
   120
370
     5
100
AcDbLine
 10
-526.1677636000627
 20
-117.2179799057835
 30
0.0
 11
-526.1677636000627
 21
1057.782020094217
 31
0.0
  0
LINE
  5
2A3
330
1F
100
AcDbEntity
  8
0-0
  6
JWW_DASHED1
 62
   120
370
     5
100
AcDbLine
 10
-539.1677636011627
 20
-117.2179799057835
 30
0.0
 11
-539.1677636011627
 21
1057.782020094217
 31
0.0
  0
LINE
  5
2A4
330
1F
100
AcDbEntity
  8
0-0
  6
JWW_DASHED1
 62
   120
370
     5
100
AcDbLine
 10
-540.1677636010634
 20
-117.2179799057835
 30
0.0
 11
-540.1677636010634
 21
1057.782020094217
 31
0.0
  0
LINE
  5
2A5
330
1F
100
AcDbEntity
  8
0-0
  6
JWW_DASHED1
 62
   120
370
     5
100
AcDbLine
 10
-553.167763602163
 20
-117.2179799057835
 30
0.0
 11
-553.167763602163
 21
1057.782020094217
 31
0.0
  0
LINE
  5
2A6
330
1F
100
AcDbEntity
  8
0-0
  6
JWW_DASHED1
 62
   120
370
     5
100
AcDbLine
 10
-554.1677636020631
 20
-117.2179799057835
 30
0.0
 11
-554.1677636020631
 21
1057.782020094217
 31
0.0
  0
LINE
  5
2A7
330
1F
100
AcDbEntity
  8
0-0
  6
JWW_DASHED1
 62
   120
370
     5
100
AcDbLine
 10
-567.1677636031627
 20
-117.2179799057835
 30
0.0
 11
-567.1677636031627
 21
1057.782020094217
 31
0.0
  0
LINE
  5
2A8
330
1F
100
AcDbEntity
  8
0-0
  6
JWW_DASHED1
 62
   120
370
     5
100
AcDbLine
 10
-568.1677636030633
 20
-117.2179799057835
 30
0.0
 11
-568.1677636030633
 21
1057.782020094217
 31
0.0
  0
LINE
  5
2A9
330
1F
100
AcDbEntity
  8
0-0
  6
JWW_DASHED1
 62
   120
370
     5
100
AcDbLine
 10
-581.1677636041625
 20
-117.2179799057835
 30
0.0
 11
-581.1677636041625
 21
1057.782020094217
 31
0.0
  0
LINE
  5
2AA
330
1F
100
AcDbEntity
  8
0-0
  6
JWW_DASHED1
 62
   120
370
     5
100
AcDbLine
 10
-582.1677636040627
 20
-117.2179799057835
 30
0.0
 11
-582.1677636040627
 21
1057.782020094217
 31
0.0
  0
LINE
  5
2AB
330
1F
100
AcDbEntity
  8
0-0
  6
JWW_DASHED1
 62
   120
370
     5
100
AcDbLine
 10
-595.1677636051627
 20
-117.2179799057835
 30
0.0
 11
-595.1677636051627
 21
1057.782020094217
 31
0.0
  0
LINE
  5
2AC
330
1F
100
AcDbEntity
  8
0-0
  6
JWW_DASHED1
 62
   120
370
     5
100
AcDbLine
 10
-596.1677636050629
 20
-117.2179799057835
 30
0.0
 11
-596.1677636050629
 21
1057.782020094217
 31
0.0
  0
LINE
  5
2AD
330
1F
100
AcDbEntity
  8
0-0
  6
JWW_DASHED1
 62
   120
370
     5
100
AcDbLine
 10
-609.1677636061629
 20
-117.2179799057835
 30
0.0
 11
-609.1677636061629
 21
1057.782020094217
 31
0.0
  0
LINE
  5
2AE
330
1F
100
AcDbEntity
  8
0-0
  6
JWW_DASHED1
 62
   120
370
     5
100
AcDbLine
 10
-49.16776356616282
 20
-117.2179799057835
 30
0.0
 11
-49.16776356616282
 21
1057.782020094217
 31
0.0
  0
LINE
  5
2AF
330
1F
100
AcDbEntity
  8
0-0
  6
JWW_DASHED1
 62
   120
370
     5
100
AcDbLine
 10
-64.16776356706279
 20
-117.2179799057835
 30
0.0
 11
-64.16776356706279
 21
1057.782020094217
 31
0.0
  0
LINE
  5
2B0
330
1F
100
AcDbEntity
  8
0-0
  6
JWW_DASHED1
 62
   120
370
     5
100
AcDbLine
 10
-50.167763566063
 20
-117.2179799057835
 30
0.0
 11
-50.167763566063
 21
1057.782020094217
 31
0.0
  0
LINE
  5
2B1
330
1F
100
AcDbEntity
  8
0-0
  6
JWW_DASHED1
 62
   120
370
     5
100
AcDbLine
 10
-63.16776356716304
 20
-117.2179799057835
 30
0.0
 11
-63.16776356716304
 21
1057.782020094217
 31
0.0
  0
LINE
  5
2B2
330
1F
100
AcDbEntity
  8
0-0
  6
JWW_DASHED1
 62
   120
370
     5
100
AcDbLine
 10
-616.1677820640941
 20
1045.781871863255
 30
0.0
 11
-43.16778206409509
 21
1045.781871863255
 31
0.0
  0
LINE
  5
2B3
330
1F
100
AcDbEntity
  8
0-0
  6
JWW_DASHED1
 62
   120
370
     5
100
AcDbLine
 10
-616.1677820640941
 20
1002.781871860356
 30
0.0
 11
-43.16778206409509
 21
1002.781871860356
 31
0.0
  0
LINE
  5
2B4
330
1F
100
AcDbEntity
  8
0-0
  6
JWW_DASHED1
 62
   120
370
     5
100
AcDbLine
 10
-616.1677820640941
 20
1003.781871860256
 30
0.0
 11
-43.16778206409509
 21
1003.781871860256
 31
0.0
  0
LINE
  5
2B5
330
1F
100
AcDbEntity
  8
0-0
  6
JWW_DASHED1
 62
   120
370
     5
100
AcDbLine
 10
-616.1677820640941
 20
1016.781871861356
 30
0.0
 11
-43.16778206409509
 21
1016.781871861356
 31
0.0
  0
LINE
  5
2B6
330
1F
100
AcDbEntity
  8
0-0
  6
JWW_DASHED1
 62
   120
370
     5
100
AcDbLine
 10
-616.1677820640941
 20
1017.781871861256
 30
0.0
 11
-43.16778206409509
 21
1017.781871861256
 31
0.0
  0
LINE
  5
2B7
330
1F
100
AcDbEntity
  8
0-0
  6
JWW_DASHED1
 62
   120
370
     5
100
AcDbLine
 10
-616.1677820640941
 20
1030.781871862356
 30
0.0
 11
-43.16778206409509
 21
1030.781871862356
 31
0.0
  0
LINE
  5
2B8
330
1F
100
AcDbEntity
  8
0-0
  6
JWW_DASHED1
 62
   120
370
     5
100
AcDbLine
 10
-616.1677820640941
 20
1031.781871862256
 30
0.0
 11
-43.16778206409509
 21
1031.781871862256
 31
0.0
  0
LINE
  5
2B9
330
1F
100
AcDbEntity
  8
0-0
  6
JWW_DASHED1
 62
   120
370
     5
100
AcDbLine
 10
-616.1677820640941
 20
1044.781871863355
 30
0.0
 11
-43.16778206409509
 21
1044.781871863355
 31
0.0
  0
ENDSEC
  0
SECTION
  2
OBJECTS
  0
DICTIONARY
  5
C
330
0
100
AcDbDictionary
281
     1
  3
ACAD_GROUP
350
D
  3
ACAD_LAYOUT
350
1A
  3
ACAD_MATERIAL
350
3B
  3
ACAD_MLEADERSTYLE
350
2BB
  3
ACAD_MLINESTYLE
350
17
  3
ACAD_PLOTSETTINGS
350
19
  3
ACAD_PLOTSTYLENAME
350
E
  3
ACAD_TABLESTYLE
350
2BA
  3
ACAD_VISUALSTYLE
350
2A
  0
DICTIONARY
  5
D
102
{ACAD_REACTORS
330
C
102
}
330
C
100
AcDbDictionary
281
     1
  0
DICTIONARY
  5
1A
102
{ACAD_REACTORS
330
C
102
}
330
C
100
AcDbDictionary
281
     1
  3
Layout1
350
1E
  3
Layout2
350
26
  3
Model
350
22
  0
DICTIONARY
  5
3B
102
{ACAD_REACTORS
330
C
102
}
330
C
100
AcDbDictionary
281
     1
  3
ByBlock
350
3D
  3
ByLayer
350
3C
  3
Global
350
3E
  0
DICTIONARY
  5
2BB
102
{ACAD_REACTORS
330
C
102
}
330
C
100
AcDbDictionary
281
     1
  0
DICTIONARY
  5
17
102
{ACAD_REACTORS
330
C
102
}
330
C
100
AcDbDictionary
281
     1
  3
Standard
350
18
  0
DICTIONARY
  5
19
102
{ACAD_REACTORS
330
C
102
}
330
C
100
AcDbDictionary
281
     1
  0
ACDBDICTIONARYWDFLT
  5
E
102
{ACAD_REACTORS
330
C
102
}
330
C
100
AcDbDictionary
281
     1
  3
Normal
350
F
100
AcDbDictionaryWithDefault
340
F
  0
DICTIONARY
  5
2BA
102
{ACAD_REACTORS
330
C
102
}
330
C
100
AcDbDictionary
281
     1
  0
DICTIONARY
  5
2A
102
{ACAD_REACTORS
330
C
102
}
330
C
100
AcDbDictionary
281
     1
  3
2dWireframe
350
2F
  3
3D Hidden
350
31
  3
3dWireframe
350
30
  3
Basic
350
32
  3
Brighten
350
36
  3
ColorChange
350
3A
  3
Conceptual
350
34
  3
Dim
350
35
  3
Facepattern
350
39
  3
Flat
350
2B
  3
FlatWithEdges
350
2C
  3
Gouraud
350
2D
  3
GouraudWithEdges
350
2E
  3
Linepattern
350
38
  3
Realistic
350
33
  3
Thicken
350
37
  0
LAYOUT
  5
1E
102
{ACAD_REACTORS
330
1A
102
}
330
1A
100
AcDbPlotSettings
  1

  2
none_device
  4

  6

 40
0.0
 41
0.0
 42
0.0
 43
0.0
 44
0.0
 45
0.0
 46
0.0
 47
0.0
 48
0.0
 49
0.0
140
0.0
141
0.0
142
1.0
143
1.0
 70
   688
 72
     0
 73
     0
 74
     5
  7

 75
    16
 76
     0
 77
     5
 78
   300
147
1.0
148
0.0
149
0.0
100
AcDbLayout
  1
Layout1
 70
     1
 71
     1
 10
0.0
 20
0.0
 11
420.0
 21
297.0
 12
0.0
 22
0.0
 32
0.0
 14
1.000000000000000E+20
 24
1.000000000000000E+20
 34
1.000000000000000E+20
 15
-1.000000000000000E+20
 25
-1.000000000000000E+20
 35
-1.000000000000000E+20
146
0.0
 13
0.0
 23
0.0
 33
0.0
 16
1.0
 26
0.0
 36
0.0
 17
0.0
 27
1.0
 37
0.0
 76
     0
330
1B
  0
LAYOUT
  5
26
102
{ACAD_REACTORS
330
1A
102
}
330
1A
100
AcDbPlotSettings
  1

  2
none_device
  4

  6

 40
0.0
 41
0.0
 42
0.0
 43
0.0
 44
0.0
 45
0.0
 46
0.0
 47
0.0
 48
0.0
 49
0.0
140
0.0
141
0.0
142
1.0
143
1.0
 70
   688
 72
     0
 73
     0
 74
     5
  7

 75
    16
 76
     0
 77
     5
 78
   300
147
1.0
148
0.0
149
0.0
100
AcDbLayout
  1
Layout2
 70
     1
 71
     2
 10
0.0
 20
0.0
 11
0.0
 21
0.0
 12
0.0
 22
0.0
 32
0.0
 14
0.0
 24
0.0
 34
0.0
 15
0.0
 25
0.0
 35
0.0
146
0.0
 13
0.0
 23
0.0
 33
0.0
 16
1.0
 26
0.0
 36
0.0
 17
0.0
 27
1.0
 37
0.0
 76
     0
330
23
  0
LAYOUT
  5
22
102
{ACAD_REACTORS
330
1A
102
}
330
1A
100
AcDbPlotSettings
  1

  2
none_device
  4

  6

 40
0.0
 41
0.0
 42
0.0
 43
0.0
 44
0.0
 45
0.0
 46
0.0
 47
0.0
 48
0.0
 49
0.0
140
0.0
141
0.0
142
1.0
143
1.0
 70
  1712
 72
     0
 73
     0
 74
     0
  7

 75
     0
 76
     0
 77
     5
 78
   300
147
1.0
148
0.0
149
0.0
100
AcDbLayout
  1
Model
 70
     1
 71
     0
 10
-4455.0
 20
-3150.0
 11
4455.0
 21
3150.0
 12
0.0
 22
0.0
 32
0.0
 14
-4455.0
 24
-3150.0
 34
0.0
 15
4455.0
 25
3150.0
 35
0.0
146
0.0
 13
0.0
 23
0.0
 33
0.0
 16
1.0
 26
0.0
 36
0.0
 17
0.0
 27
1.0
 37
0.0
 76
     0
330
1F
331
29
  0
MATERIAL
  5
3D
102
{ACAD_REACTORS
330
3B
102
}
330
3B
100
AcDbMaterial
  1
ByBlock
 72
     1
 94
      127
  0
MATERIAL
  5
3C
102
{ACAD_REACTORS
330
3B
102
}
330
3B
100
AcDbMaterial
  1
ByLayer
 72
     1
 94
      127
  0
MATERIAL
  5
3E
102
{ACAD_REACTORS
330
3B
102
}
330
3B
100
AcDbMaterial
  1
Global
 72
     1
 94
      127
  0
MLINESTYLE
  5
18
102
{ACAD_REACTORS
330
17
102
}
330
17
100
AcDbMlineStyle
  2
Standard
 70
     0
  3

 62
   256
 51
90.0
 52
90.0
 71
     2
 49
0.5
 62
   256
  6
BYLAYER
 49
-0.5
 62
   256
  6
BYLAYER
  0
ACDBPLACEHOLDER
  5
F
102
{ACAD_REACTORS
330
E
102
}
330
E
  0
VISUALSTYLE
  5
2F
102
{ACAD_REACTORS
330
2A
102
}
330
2A
100
AcDbVisualStyle
  2
2dWireframe
 70
     4
177
     2
291
     0
 71
     0
176
     1
 72
     2
176
     1
 73
     0
176
     1
 90
        0
176
     1
 40
-0.6
176
     1
 41
-30.0
176
     1
 62
     5
 63
     7
421
 16777215
176
     1
 74
     1
176
     1
 91
        4
176
     1
 64
     7
176
     1
 65
   257
176
     1
 75
     1
176
     1
175
     1
176
     1
 42
1.0
176
     1
 92
        0
176
     1
 66
   257
176
     1
 43
1.0
176
     1
 76
     1
176
     1
 77
     6
176
     1
 78
     2
176
     1
 67
     7
176
     1
 79
     5
176
     1
170
     0
176
     1
171
     0
176
     1
290
     0
176
     1
 93
        1
176
     1
 44
0.0
176
     1
173
     0
176
     1
  0
VISUALSTYLE
  5
31
102
{ACAD_REACTORS
330
2A
102
}
330
2A
100
AcDbVisualStyle
  2
3D Hidden
 70
     6
177
     2
291
     0
 71
     1
176
     1
 72
     2
176
     1
 73
     2
176
     1
 90
        0
176
     1
 40
-0.6
176
     1
 41
-30.0
176
     1
 62
     5
 63
     7
421
 16777215
176
     1
 74
     2
176
     1
 91
        2
176
     1
 64
     7
176
     1
 65
   257
176
     1
 75
     2
176
     1
175
     1
176
     1
 42
40.0
176
     1
 92
        0
176
     1
 66
   257
176
     1
 43
1.0
176
     1
 76
     1
176
     1
 77
     6
176
     1
 78
     2
176
     1
 67
     7
176
     1
 79
     3
176
     1
170
     0
176
     1
171
     0
176
     1
290
     0
176
     1
 93
        1
176
     1
 44
0.0
176
     1
173
     0
176
     1
  0
VISUALSTYLE
  5
30
102
{ACAD_REACTORS
330
2A
102
}
330
2A
100
AcDbVisualStyle
  2
3dWireframe
 70
     5
177
     2
291
     0
 71
     0
176
     1
 72
     2
176
     1
 73
     0
176
     1
 90
        0
176
     1
 40
-0.6
176
     1
 41
-30.0
176
     1
 62
     5
 63
     7
421
 16777215
176
     1
 74
     1
176
     1
 91
        4
176
     1
 64
     7
176
     1
 65
   257
176
     1
 75
     1
176
     1
175
     1
176
     1
 42
1.0
176
     1
 92
        0
176
     1
 66
   257
176
     1
 43
1.0
176
     1
 76
     1
176
     1
 77
     6
176
     1
 78
     2
176
     1
 67
     7
176
     1
 79
     5
176
     1
170
     0
176
     1
171
     0
176
     1
290
     0
176
     1
 93
        1
176
     1
 44
0.0
176
     1
173
     0
176
     1
  0
VISUALSTYLE
  5
32
102
{ACAD_REACTORS
330
2A
102
}
330
2A
100
AcDbVisualStyle
  2
Basic
 70
     7
177
     2
291
     1
 71
     1
176
     1
 72
     0
176
     1
 73
     1
176
     1
 90
        0
176
     1
 40
-0.6
176
     1
 41
-30.0
176
     1
 62
     5
 63
     7
421
 16777215
176
     1
 74
     0
176
     1
 91
        4
176
     1
 64
     7
176
     1
 65
   257
176
     1
 75
     1
176
     1
175
     1
176
     1
 42
1.0
176
     1
 92
        8
176
     1
 66
     7
176
     1
 43
1.0
176
     1
 76
     1
176
     1
 77
     6
176
     1
 78
     2
176
     1
 67
     7
176
     1
 79
     5
176
     1
170
     0
176
     1
171
     0
176
     1
290
     0
176
     1
 93
        1
176
     1
 44
0.0
176
     1
173
     0
176
     1
  0
VISUALSTYLE
  5
36
102
{ACAD_REACTORS
330
2A
102
}
330
2A
100
AcDbVisualStyle
  2
Brighten
 70
    12
177
     2
291
     1
 71
     2
176
     1
 72
     2
176
     1
 73
     0
176
     1
 90
        0
176
     1
 40
-0.6
176
     1
 41
-30.0
176
     1
 62
     5
 63
     7
421
 16777215
176
     1
 74
     1
176
     1
 91
        4
176
     1
 64
     7
176
     1
 65
   257
176
     1
 75
     1
176
     1
175
     1
176
     1
 42
1.0
176
     1
 92
        8
176
     1
 66
     7
176
     1
 43
1.0
176
     1
 76
     1
176
     1
 77
     6
176
     1
 78
     2
176
     1
 67
     7
176
     1
 79
     5
176
     1
170
     0
176
     1
171
     0
176
     1
290
     0
176
     1
 93
        1
176
     1
 44
50.0
176
     1
173
     0
176
     1
  0
VISUALSTYLE
  5
3A
102
{ACAD_REACTORS
330
2A
102
}
330
2A
100
AcDbVisualStyle
  2
ColorChange
 70
    16
177
     2
291
     1
 71
     2
176
     1
 72
     2
176
     1
 73
     3
176
     1
 90
        0
176
     1
 40
-0.6
176
     1
 41
-30.0
176
     1
 62
     5
 63
     8
421
  8421504
176
     1
 74
     1
176
     1
 91
        4
176
     1
 64
     7
176
     1
 65
   257
176
     1
 75
     1
176
     1
175
     1
176
     1
 42
1.0
176
     1
 92
        8
176
     1
 66
     8
424
  8421504
176
     1
 43
1.0
176
     1
 76
     1
176
     1
 77
     6
176
     1
 78
     2
176
     1
 67
     7
176
     1
 79
     5
176
     1
170
     0
176
     1
171
     0
176
     1
290
     0
176
     1
 93
        1
176
     1
 44
0.0
176
     1
173
     0
176
     1
  0
VISUALSTYLE
  5
34
102
{ACAD_REACTORS
330
2A
102
}
330
2A
100
AcDbVisualStyle
  2
Conceptual
 70
     9
177
     2
291
     0
 71
     3
176
     1
 72
     2
176
     1
 73
     0
176
     1
 90
        0
176
     1
 40
-0.6
176
     1
 41
-30.0
176
     1
 62
     5
 63
     7
421
 16777215
176
     1
 74
     2
176
     1
 91
        2
176
     1
 64
     7
176
     1
 65
   257
176
     1
 75
     1
176
     1
175
     1
176
     1
 42
40.0
176
     1
 92
        8
176
     1
 66
     7
176
     1
 43
1.0
176
     1
 76
     1
176
     1
 77
     6
176
     1
 78
     2
176
     1
 67
     7
176
     1
 79
     3
176
     1
170
     0
176
     1
171
     0
176
     1
290
     0
176
     1
 93
        1
176
     1
 44
0.0
176
     1
173
     0
176
     1
  0
VISUALSTYLE
  5
35
102
{ACAD_REACTORS
330
2A
102
}
330
2A
100
AcDbVisualStyle
  2
Dim
 70
    11
177
     2
291
     1
 71
     2
176
     1
 72
     2
176
     1
 73
     0
176
     1
 90
        0
176
     1
 40
-0.6
176
     1
 41
-30.0
176
     1
 62
     5
 63
     7
421
 16777215
176
     1
 74
     1
176
     1
 91
        4
176
     1
 64
     7
176
     1
 65
   257
176
     1
 75
     1
176
     1
175
     1
176
     1
 42
1.0
176
     1
 92
        8
176
     1
 66
     7
176
     1
 43
1.0
176
     1
 76
     1
176
     1
 77
     6
176
     1
 78
     2
176
     1
 67
     7
176
     1
 79
     5
176
     1
170
     0
176
     1
171
     0
176
     1
290
     0
176
     1
 93
        1
176
     1
 44
-50.0
176
     1
173
     0
176
     1
  0
VISUALSTYLE
  5
39
102
{ACAD_REACTORS
330
2A
102
}
330
2A
100
AcDbVisualStyle
  2
Facepattern
 70
    15
177
     2
291
     1
 71
     2
176
     1
 72
     2
176
     1
 73
     0
176
     1
 90
        0
176
     1
 40
-0.6
176
     1
 41
-30.0
176
     1
 62
     5
 63
     7
421
 16777215
176
     1
 74
     1
176
     1
 91
        4
176
     1
 64
     7
176
     1
 65
   257
176
     1
 75
     1
176
     1
175
     1
176
     1
 42
1.0
176
     1
 92
        8
176
     1
 66
     7
176
     1
 43
1.0
176
     1
 76
     1
176
     1
 77
     6
176
     1
 78
     2
176
     1
 67
     7
176
     1
 79
     5
176
     1
170
     0
176
     1
171
     0
176
     1
290
     0
176
     1
 93
        1
176
     1
 44
0.0
176
     1
173
     0
176
     1
  0
VISUALSTYLE
  5
2B
102
{ACAD_REACTORS
330
2A
102
}
330
2A
100
AcDbVisualStyle
  2
Flat
 70
     0
177
     2
291
     1
 71
     2
176
     1
 72
     1
176
     1
 73
     1
176
     1
 90
        2
176
     1
 40
-0.6
176
     1
 41
30.0
176
     1
 62
     5
 63
     7
421
 16777215
176
     1
 74
     0
176
     1
 91
        4
176
     1
 64
     7
176
     1
 65
   257
176
     1
 75
     1
176
     1
175
     1
176
     1
 42
1.0
176
     1
 92
        8
176
     1
 66
     7
176
     1
 43
1.0
176
     1
 76
     1
176
     1
 77
     6
176
     1
 78
     2
176
     1
 67
     7
176
     1
 79
     5
176
     1
170
     0
176
     1
171
     0
176
     1
290
     0
176
     1
 93
       13
176
     1
 44
0.0
176
     1
173
     0
176
     1
  0
VISUALSTYLE
  5
2C
102
{ACAD_REACTORS
330
2A
102
}
330
2A
100
AcDbVisualStyle
  2
FlatWithEdges
 70
     1
177
     2
291
     1
 71
     2
176
     1
 72
     1
176
     1
 73
     1
176
     1
 90
        2
176
     1
 40
-0.6
176
     1
 41
30.0
176
     1
 62
     5
 63
     7
421
 16777215
176
     1
 74
     1
176
     1
 91
        4
176
     1
 64
     7
176
     1
 65
   257
176
     1
 75
     1
176
     1
175
     1
176
     1
 42
1.0
176
     1
 92
        0
176
     1
 66
   257
176
     1
 43
1.0
176
     1
 76
     1
176
     1
 77
     6
176
     1
 78
     2
176
     1
 67
     7
176
     1
 79
     5
176
     1
170
     0
176
     1
171
     0
176
     1
290
     0
176
     1
 93
       13
176
     1
 44
0.0
176
     1
173
     0
176
     1
  0
VISUALSTYLE
  5
2D
102
{ACAD_REACTORS
330
2A
102
}
330
2A
100
AcDbVisualStyle
  2
Gouraud
 70
     2
177
     2
291
     1
 71
     2
176
     1
 72
     2
176
     1
 73
     1
176
     1
 90
        2
176
     1
 40
-0.6
176
     1
 41
30.0
176
     1
 62
     5
 63
     7
421
 16777215
176
     1
 74
     0
176
     1
 91
        4
176
     1
 64
     7
176
     1
 65
   257
176
     1
 75
     1
176
     1
175
     1
176
     1
 42
1.0
176
     1
 92
        0
176
     1
 66
     7
176
     1
 43
1.0
176
     1
 76
     1
176
     1
 77
     6
176
     1
 78
     2
176
     1
 67
     7
176
     1
 79
     5
176
     1
170
     0
176
     1
171
     0
176
     1
290
     0
176
     1
 93
       13
176
     1
 44
0.0
176
     1
173
     0
176
     1
  0
VISUALSTYLE
  5
2E
102
{ACAD_REACTORS
330
2A
102
}
330
2A
100
AcDbVisualStyle
  2
GouraudWithEdges
 70
     3
177
     2
291
     1
 71
     2
176
     1
 72
     2
176
     1
 73
     1
176
     1
 90
        2
176
     1
 40
-0.6
176
     1
 41
30.0
176
     1
 62
     5
 63
     7
421
 16777215
176
     1
 74
     1
176
     1
 91
        4
176
     1
 64
     7
176
     1
 65
   257
176
     1
 75
     1
176
     1
175
     1
176
     1
 42
1.0
176
     1
 92
        0
176
     1
 66
   257
176
     1
 43
1.0
176
     1
 76
     1
176
     1
 77
     6
176
     1
 78
     2
176
     1
 67
     7
176
     1
 79
     5
176
     1
170
     0
176
     1
171
     0
176
     1
290
     0
176
     1
 93
       13
176
     1
 44
0.0
176
     1
173
     0
176
     1
  0
VISUALSTYLE
  5
38
102
{ACAD_REACTORS
330
2A
102
}
330
2A
100
AcDbVisualStyle
  2
Linepattern
 70
    14
177
     2
291
     1
 71
     2
176
     1
 72
     2
176
     1
 73
     0
176
     1
 90
        0
176
     1
 40
-0.6
176
     1
 41
-30.0
176
     1
 62
     5
 63
     7
421
 16777215
176
     1
 74
     1
176
     1
 91
        4
176
     1
 64
     7
176
     1
 65
   257
176
     1
 75
     7
176
     1
175
     7
176
     1
 42
1.0
176
     1
 92
        8
176
     1
 66
     7
176
     1
 43
1.0
176
     1
 76
     1
176
     1
 77
     6
176
     1
 78
     2
176
     1
 67
     7
176
     1
 79
     5
176
     1
170
     0
176
     1
171
     0
176
     1
290
     0
176
     1
 93
        1
176
     1
 44
0.0
176
     1
173
     0
176
     1
  0
VISUALSTYLE
  5
33
102
{ACAD_REACTORS
330
2A
102
}
330
2A
100
AcDbVisualStyle
  2
Realistic
 70
     8
177
     2
291
     0
 71
     2
176
     1
 72
     2
176
     1
 73
     0
176
     1
 90
        0
176
     1
 40
-0.6
176
     1
 41
-30.0
176
     1
 62
     5
 63
     7
421
 16777215
176
     1
 74
     1
176
     1
 91
        0
176
     1
 64
     7
176
     1
 65
   257
176
     1
 75
     1
176
     1
175
     1
176
     1
 42
1.0
176
     1
 92
        8
176
     1
 66
     8
424
  7895160
176
     1
 43
1.0
176
     1
 76
     1
176
     1
 77
     6
176
     1
 78
     2
176
     1
 67
     7
176
     1
 79
     5
176
     1
170
     0
176
     1
171
     0
176
     1
290
     0
176
     1
 93
       13
176
     1
 44
0.0
176
     1
173
     0
176
     1
  0
VISUALSTYLE
  5
37
102
{ACAD_REACTORS
330
2A
102
}
330
2A
100
AcDbVisualStyle
  2
Thicken
 70
    13
177
     2
291
     1
 71
     2
176
     1
 72
     2
176
     1
 73
     0
176
     1
 90
        0
176
     1
 40
-0.6
176
     1
 41
-30.0
176
     1
 62
     5
 63
     7
421
 16777215
176
     1
 74
     1
176
     1
 91
        4
176
     1
 64
     7
176
     1
 65
   257
176
     1
 75
     1
176
     1
175
     1
176
     1
 42
1.0
176
     1
 92
       12
176
     1
 66
     7
176
     1
 43
1.0
176
     1
 76
     1
176
     1
 77
     6
176
     1
 78
     2
176
     1
 67
     7
176
     1
 79
     5
176
     1
170
     0
176
     1
171
     0
176
     1
290
     0
176
     1
 93
        1
176
     1
 44
0.0
176
     1
173
     0
176
     1
  0
ENDSEC
  0
EOF
