  0
SECTION
  2
HEADER
  9
$ACADVER
  1
AC1024
  9
$ACADMAINTVER
 70
     6
  9
$DWGCODEPAGE
  3
ANSI_932
  9
$INSBASE
 10
0.0
 20
0.0
 30
0.0
  9
$EXTMIN
 10
-4455.0
 20
-3150.0
 30
0.0
  9
$EXTMAX
 10
4455.0
 20
3150.0
 30
0.0
  9
$LIMMIN
 10
-4455.0
 20
-3150.0
  9
$LIMMAX
 10
4455.0
 20
3150.0
  9
$ORTHOMODE
 70
     0
  9
$REGENMODE
 70
     1
  9
$FILLMODE
 70
     1
  9
$QTEXTMODE
 70
     0
  9
$MIRRTEXT
 70
     1
  9
$LTSCALE
 40
30.0
  9
$ATTMODE
 70
     1
  9
$TEXTSIZE
 40
2.5
  9
$TRACEWID
 40
1.0
  9
$TEXTSTYLE
  7
Standard
  9
$CLAYER
  8
0
  9
$CELTYPE
  6
ByLayer
  9
$CECOLOR
 62
   256
  9
$CELTSCALE
 40
1.0
  9
$DISPSILH
 70
     0
  9
$DIMSCALE
 40
1.0
  9
$DIMASZ
 40
2.5
  9
$DIMEXO
 40
0.625
  9
$DIMDLI
 40
3.75
  9
$DIMRND
 40
0.0
  9
$DIMDLE
 40
0.0
  9
$DIMEXE
 40
1.25
  9
$DIMTP
 40
0.0
  9
$DIMTM
 40
0.0
  9
$DIMTXT
 40
2.5
  9
$DIMCEN
 40
2.5
  9
$DIMTSZ
 40
0.0
  9
$DIMTOL
 70
     0
  9
$DIMLIM
 70
     0
  9
$DIMTIH
 70
     0
  9
$DIMTOH
 70
     0
  9
$DIMSE1
 70
     0
  9
$DIMSE2
 70
     0
  9
$DIMTAD
 70
     1
  9
$DIMZIN
 70
     8
  9
$DIMBLK
  1

  9
$DIMASO
 70
     1
  9
$DIMSHO
 70
     1
  9
$DIMPOST
  1

  9
$DIMAPOST
  1

  9
$DIMALT
 70
     0
  9
$DIMALTD
 70
     3
  9
$DIMALTF
 40
0.03937007874016
  9
$DIMLFAC
 40
1.0
  9
$DIMTOFL
 70
     1
  9
$DIMTVP
 40
0.0
  9
$DIMTIX
 70
     0
  9
$DIMSOXD
 70
     0
  9
$DIMSAH
 70
     0
  9
$DIMBLK1
  1

  9
$DIMBLK2
  1

  9
$DIMSTYLE
  2
ISO-25
  9
$DIMCLRD
 70
     0
  9
$DIMCLRE
 70
     0
  9
$DIMCLRT
 70
     0
  9
$DIMTFAC
 40
1.0
  9
$DIMGAP
 40
0.625
  9
$DIMJUST
 70
     0
  9
$DIMSD1
 70
     0
  9
$DIMSD2
 70
     0
  9
$DIMTOLJ
 70
     0
  9
$DIMTZIN
 70
     8
  9
$DIMALTZ
 70
     0
  9
$DIMALTTZ
 70
     0
  9
$DIMUPT
 70
     0
  9
$DIMDEC
 70
     2
  9
$DIMTDEC
 70
     2
  9
$DIMALTU
 70
     2
  9
$DIMALTTD
 70
     3
  9
$DIMTXSTY
  7
Standard
  9
$DIMAUNIT
 70
     0
  9
$DIMADEC
 70
     0
  9
$DIMALTRND
 40
0.0
  9
$DIMAZIN
 70
     0
  9
$DIMDSEP
 70
    44
  9
$DIMATFIT
 70
     3
  9
$DIMFRAC
 70
     0
  9
$DIMLDRBLK
  1

  9
$DIMLUNIT
 70
     2
  9
$DIMLWD
 70
    -2
  9
$DIMLWE
 70
    -2
  9
$DIMTMOVE
 70
     0
  9
$DIMFXL
 40
1.0
  9
$DIMFXLON
 70
     0
  9
$DIMJOGANG
 40
0.7853981633974483
  9
$DIMTFILL
 70
     0
  9
$DIMTFILLCLR
 70
     0
  9
$DIMARCSYM
 70
     0
  9
$DIMLTYPE
  6

  9
$DIMLTEX1
  6

  9
$DIMLTEX2
  6

  9
$DIMTXTDIRECTION
 70
     0
  9
$LUNITS
 70
     2
  9
$LUPREC
 70
     4
  9
$SKETCHINC
 40
1.0
  9
$FILLETRAD
 40
10.0
  9
$AUNITS
 70
     0
  9
$AUPREC
 70
     0
  9
$MENU
  1
.
  9
$ELEVATION
 40
0.0
  9
$PELEVATION
 40
0.0
  9
$THICKNESS
 40
0.0
  9
$LIMCHECK
 70
     0
  9
$CHAMFERA
 40
10.0
  9
$CHAMFERB
 40
10.0
  9
$CHAMFERC
 40
20.0
  9
$CHAMFERD
 40
0.0
  9
$SKPOLY
 70
     0
  9
$TDCREATE
 40
2457913.586131644
  9
$TDUCREATE
 40
2457913.211131644
  9
$TDUPDATE
 40
2457913.586131655
  9
$TDUUPDATE
 40
2457913.211131655
  9
$TDINDWG
 40
0.0000000116
  9
$TDUSRTIMER
 40
0.0000000116
  9
$USRTIMER
 70
     1
  9
$ANGBASE
 50
0.0
  9
$ANGDIR
 70
     0
  9
$PDMODE
 70
     0
  9
$PDSIZE
 40
0.0
  9
$PLINEWID
 40
0.0
  9
$SPLFRAME
 70
     0
  9
$SPLINETYPE
 70
     6
  9
$SPLINESEGS
 70
     8
  9
$HANDSEED
  5
236
  9
$SURFTAB1
 70
     6
  9
$SURFTAB2
 70
     6
  9
$SURFTYPE
 70
     6
  9
$SURFU
 70
     6
  9
$SURFV
 70
     6
  9
$UCSBASE
  2

  9
$UCSNAME
  2

  9
$UCSORG
 10
0.0
 20
0.0
 30
0.0
  9
$UCSXDIR
 10
1.0
 20
0.0
 30
0.0
  9
$UCSYDIR
 10
0.0
 20
1.0
 30
0.0
  9
$UCSORTHOREF
  2

  9
$UCSORTHOVIEW
 70
     0
  9
$UCSORGTOP
 10
0.0
 20
0.0
 30
0.0
  9
$UCSORGBOTTOM
 10
0.0
 20
0.0
 30
0.0
  9
$UCSORGLEFT
 10
0.0
 20
0.0
 30
0.0
  9
$UCSORGRIGHT
 10
0.0
 20
0.0
 30
0.0
  9
$UCSORGFRONT
 10
0.0
 20
0.0
 30
0.0
  9
$UCSORGBACK
 10
0.0
 20
0.0
 30
0.0
  9
$PUCSBASE
  2

  9
$PUCSNAME
  2

  9
$PUCSORG
 10
0.0
 20
0.0
 30
0.0
  9
$PUCSXDIR
 10
1.0
 20
0.0
 30
0.0
  9
$PUCSYDIR
 10
0.0
 20
1.0
 30
0.0
  9
$PUCSORTHOREF
  2

  9
$PUCSORTHOVIEW
 70
     0
  9
$PUCSORGTOP
 10
0.0
 20
0.0
 30
0.0
  9
$PUCSORGBOTTOM
 10
0.0
 20
0.0
 30
0.0
  9
$PUCSORGLEFT
 10
0.0
 20
0.0
 30
0.0
  9
$PUCSORGRIGHT
 10
0.0
 20
0.0
 30
0.0
  9
$PUCSORGFRONT
 10
0.0
 20
0.0
 30
0.0
  9
$PUCSORGBACK
 10
0.0
 20
0.0
 30
0.0
  9
$USERI1
 70
     0
  9
$USERI2
 70
     0
  9
$USERI3
 70
     0
  9
$USERI4
 70
     0
  9
$USERI5
 70
     0
  9
$USERR1
 40
0.0
  9
$USERR2
 40
0.0
  9
$USERR3
 40
0.0
  9
$USERR4
 40
0.0
  9
$USERR5
 40
0.0
  9
$WORLDVIEW
 70
     1
  9
$SHADEDGE
 70
     3
  9
$SHADEDIF
 70
    70
  9
$TILEMODE
 70
     1
  9
$MAXACTVP
 70
    64
  9
$PINSBASE
 10
0.0
 20
0.0
 30
0.0
  9
$PLIMCHECK
 70
     0
  9
$PEXTMIN
 10
1.000000000000000E+20
 20
1.000000000000000E+20
 30
1.000000000000000E+20
  9
$PEXTMAX
 10
-1.000000000000000E+20
 20
-1.000000000000000E+20
 30
-1.000000000000000E+20
  9
$PLIMMIN
 10
0.0
 20
0.0
  9
$PLIMMAX
 10
420.0
 20
297.0
  9
$UNITMODE
 70
     0
  9
$VISRETAIN
 70
     1
  9
$PLINEGEN
 70
     0
  9
$PSLTSCALE
 70
     1
  9
$TREEDEPTH
 70
  3020
  9
$CMLSTYLE
  2
Standard
  9
$CMLJUST
 70
     0
  9
$CMLSCALE
 40
20.0
  9
$PROXYGRAPHICS
 70
     1
  9
$MEASUREMENT
 70
     1
  9
$CELWEIGHT
370
    -1
  9
$ENDCAPS
280
     0
  9
$JOINSTYLE
280
     0
  9
$LWDISPLAY
290
     0
  9
$INSUNITS
 70
     4
  9
$HYPERLINKBASE
  1

  9
$STYLESHEET
  1

  9
$XEDIT
290
     1
  9
$CEPSNTYPE
380
     0
  9
$PSTYLEMODE
290
     1
  9
$FINGERPRINTGUID
  2
{9F01F435-80D3-41DB-8A42-F1C7A4636A7A}
  9
$VERSIONGUID
  2
{FAEB1C32-E019-11D5-929B-00C0DF256EC4}
  9
$EXTNAMES
290
     1
  9
$PSVPSCALE
 40
0.0
  9
$OLESTARTUP
290
     0
  9
$SORTENTS
280
   127
  9
$INDEXCTL
280
     0
  9
$HIDETEXT
280
     1
  9
$XCLIPFRAME
280
     2
  9
$HALOGAP
280
     0
  9
$OBSCOLOR
 70
   257
  9
$OBSLTYPE
280
     0
  9
$INTERSECTIONDISPLAY
280
     0
  9
$INTERSECTIONCOLOR
 70
   257
  9
$DIMASSOC
280
     2
  9
$PROJECTNAME
  1

  9
$CAMERADISPLAY
290
     0
  9
$LENSLENGTH
 40
50.0
  9
$CAMERAHEIGHT
 40
0.0
  9
$STEPSPERSEC
 40
2.0
  9
$STEPSIZE
 40
6.0
  9
$3DDWFPREC
 40
2.0
  9
$PSOLWIDTH
 40
5.0
  9
$PSOLHEIGHT
 40
80.0
  9
$LOFTANG1
 40
1.570796326794897
  9
$LOFTANG2
 40
1.570796326794897
  9
$LOFTMAG1
 40
0.0
  9
$LOFTMAG2
 40
0.0
  9
$LOFTPARAM
 70
     7
  9
$LOFTNORMALS
280
     1
  9
$LATITUDE
 40
37.795
  9
$LONGITUDE
 40
-122.394
  9
$NORTHDIRECTION
 40
0.0
  9
$TIMEZONE
 70
 -8000
  9
$LIGHTGLYPHDISPLAY
280
     1
  9
$TILEMODELIGHTSYNCH
280
     1
  9
$SOLIDHIST
280
     1
  9
$SHOWHIST
280
     1
  9
$DWFFRAME
280
     2
  9
$DGNFRAME
280
     2
  9
$REALWORLDSCALE
290
     1
  9
$INTERFERECOLOR
 62
   256
  9
$CSHADOW
280
     0
  9
$SHADOWPLANELOCATION
 40
0.0
  0
ENDSEC
  0
SECTION
  2
CLASSES
  0
CLASS
  1
ACDBDICTIONARYWDFLT
  2
AcDbDictionaryWithDefault
  3
ObjectDBX Classes
 90
        0
 91
        4
280
     0
281
     0
  0
CLASS
  1
VISUALSTYLE
  2
AcDbVisualStyle
  3
ObjectDBX Classes
 90
     4095
 91
        4
280
     0
281
     0
  0
CLASS
  1
MATERIAL
  2
AcDbMaterial
  3
ObjectDBX Classes
 90
     1153
 91
        4
280
     0
281
     0
  0
ENDSEC
  0
SECTION
  2
TABLES
  0
TABLE
  2
VPORT
  5
8
330
0
100
AcDbSymbolTable
 70
     1
  0
VPORT
  5
29
330
8
100
AcDbSymbolTableRecord
100
AcDbViewportTableRecord
  2
*Active
 70
     0
 10
0.0
 20
0.0
 11
1.0
 21
1.0
 12
0.0
 22
0.0
 13
0.0
 23
0.0
 14
10.0
 24
10.0
 15
10.0
 25
10.0
 16
0.0
 26
0.0
 36
1.0
 17
0.0
 27
0.0
 37
0.0
 40
6930.000000000001
 41
1.414285714285714
 42
50.0
 43
0.0
 44
0.0
 50
0.0
 51
0.0
 71
     0
 72
 10000
 73
     1
 74
     3
 75
     0
 76
     0
 77
     0
 78
     0
281
     0
 65
     1
110
0.0
120
0.0
130
0.0
111
1.0
121
0.0
131
0.0
112
0.0
122
1.0
132
0.0
 79
     0
146
0.0
 60
     3
 61
     5
292
     1
282
     1
141
0.0
142
0.0
 63
   250
  0
ENDTAB
  0
TABLE
  2
LTYPE
  5
5
330
0
100
AcDbSymbolTable
 70
     2
  0
LTYPE
  5
14
330
5
100
AcDbSymbolTableRecord
100
AcDbLinetypeTableRecord
  2
ByBlock
 70
     0
  3

 72
    65
 73
     0
 40
0.0
  0
LTYPE
  5
15
330
5
100
AcDbSymbolTableRecord
100
AcDbLinetypeTableRecord
  2
ByLayer
 70
     0
  3

 72
    65
 73
     0
 40
0.0
  0
LTYPE
  5
16
330
5
100
AcDbSymbolTableRecord
100
AcDbLinetypeTableRecord
  2
Continuous
 70
     0
  3
Solid line
 72
    65
 73
     0
 40
0.0
  0
LTYPE
  5
3F
330
5
100
AcDbSymbolTableRecord
100
AcDbLinetypeTableRecord
  2
JWW_DASHED1
 70
     0
  3
-  --  --  --  --  --  --  --  -
 72
    65
 73
     2
 40
1.693333333333333
 49
0.8466666666666667
 74
     0
 49
-0.8466666666666667
 74
     0
  0
ENDTAB
  0
TABLE
  2
LAYER
  5
2
330
0
100
AcDbSymbolTable
 70
     4
  0
LAYER
  5
10
330
2
100
AcDbSymbolTableRecord
100
AcDbLayerTableRecord
  2
0
 70
     0
 62
     7
  6
Continuous
370
    -3
390
F
347
3E
  0
LAYER
  5
40
330
2
100
AcDbSymbolTableRecord
100
AcDbLayerTableRecord
  2
0-0
 70
     0
 62
     7
  6
Continuous
370
    -3
390
F
347
3E
  0
LAYER
  5
41
330
2
100
AcDbSymbolTableRecord
100
AcDbLayerTableRecord
  2
寸法
 70
     0
 62
     7
  6
Continuous
370
    -3
390
F
347
3E
  0
LAYER
  5
42
330
2
100
AcDbSymbolTableRecord
100
AcDbLayerTableRecord
  2
文字
 70
     0
 62
     7
  6
Continuous
370
    -3
390
F
347
3E
  0
ENDTAB
  0
TABLE
  2
STYLE
  5
3
330
0
100
AcDbSymbolTable
 70
     1
  0
STYLE
  5
11
330
3
100
AcDbSymbolTableRecord
100
AcDbTextStyleTableRecord
  2
Standard
 70
     0
 40
0.0
 41
1.0
 50
0.0
 71
     0
 42
2.5
  3
txt
  4

  0
ENDTAB
  0
TABLE
  2
VIEW
  5
6
330
0
100
AcDbSymbolTable
 70
     0
  0
ENDTAB
  0
TABLE
  2
UCS
  5
7
330
0
100
AcDbSymbolTable
 70
     0
  0
ENDTAB
  0
TABLE
  2
APPID
  5
9
330
0
100
AcDbSymbolTable
 70
     1
  0
APPID
  5
12
330
9
100
AcDbSymbolTableRecord
100
AcDbRegAppTableRecord
  2
ACAD
 70
     0
  0
ENDTAB
  0
TABLE
  2
DIMSTYLE
  5
A
330
0
100
AcDbSymbolTable
 70
     1
100
AcDbDimStyleTable
  0
DIMSTYLE
105
27
330
A
100
AcDbSymbolTableRecord
100
AcDbDimStyleTableRecord
  2
ISO-25
 70
     0
 41
2.5
 42
0.625
 43
3.75
 44
1.25
 73
     0
 74
     0
 77
     1
 78
     8
140
2.5
141
2.5
143
0.03937007874016
147
0.625
171
     3
172
     1
178
     0
271
     2
272
     2
274
     3
278
    44
283
     0
284
     8
340
11
  0
ENDTAB
  0
TABLE
  2
BLOCK_RECORD
  5
1
330
0
100
AcDbSymbolTable
 70
     1
  0
BLOCK_RECORD
  5
1F
330
1
100
AcDbSymbolTableRecord
100
AcDbBlockTableRecord
  2
*Model_Space
340
22
 70
     0
280
     1
281
     0
  0
BLOCK_RECORD
  5
1B
330
1
100
AcDbSymbolTableRecord
100
AcDbBlockTableRecord
  2
*Paper_Space
340
1E
 70
     0
280
     1
281
     0
  0
BLOCK_RECORD
  5
23
330
1
100
AcDbSymbolTableRecord
100
AcDbBlockTableRecord
  2
*Paper_Space0
340
26
 70
     0
280
     1
281
     0
  0
ENDTAB
  0
ENDSEC
  0
SECTION
  2
BLOCKS
  0
BLOCK
  5
20
330
1F
100
AcDbEntity
  8
0
100
AcDbBlockBegin
  2
*Model_Space
 70
     0
 10
0.0
 20
0.0
 30
0.0
  3
*Model_Space
  1

  0
ENDBLK
  5
21
330
1F
100
AcDbEntity
  8
0
100
AcDbBlockEnd
  0
BLOCK
  5
1C
330
1B
100
AcDbEntity
 67
     1
  8
0
100
AcDbBlockBegin
  2
*Paper_Space
 70
     0
 10
0.0
 20
0.0
 30
0.0
  3
*Paper_Space
  1

  0
ENDBLK
  5
1D
330
1B
100
AcDbEntity
 67
     1
  8
0
100
AcDbBlockEnd
  0
BLOCK
  5
24
330
23
100
AcDbEntity
  8
0
100
AcDbBlockBegin
  2
*Paper_Space0
 70
     0
 10
0.0
 20
0.0
 30
0.0
  3
*Paper_Space0
  1

  0
ENDBLK
  5
25
330
23
100
AcDbEntity
  8
0
100
AcDbBlockEnd
  0
ENDSEC
  0
SECTION
  2
ENTITIES
  0
LINE
  5
43
330
1F
100
AcDbEntity
  8
0-0
  6
Continuous
 62
    92
370
    13
100
AcDbLine
 10
-820.9835436459808
 20
1090.815463383533
 30
0.0
 11
763.0164563540176
 21
1090.815463383533
 31
0.0
  0
LINE
  5
44
330
1F
100
AcDbEntity
  8
0-0
  6
Continuous
 62
    92
370
    13
100
AcDbLine
 10
-850.9835436459808
 20
-914.6845366164674
 30
0.0
 11
-850.9835436459808
 21
1120.815463383533
 31
0.0
  0
ARC
  5
45
330
1F
100
AcDbEntity
  8
0-0
  6
Continuous
 62
    92
370
    13
100
AcDbCircle
 10
-792.4835436459829
 20
110.8154633835319
 30
0.0
 40
1.5
100
AcDbArc
 50
90.0
 51
180.0
  0
LINE
  5
46
330
1F
100
AcDbEntity
  8
0-0
  6
Continuous
 62
    92
370
    13
100
AcDbLine
 10
-753.4835436459808
 20
112.3154633835322
 30
0.0
 11
-792.4835436459829
 21
112.3154633835322
 31
0.0
  0
ARC
  5
47
330
1F
100
AcDbEntity
  8
0-0
  6
Continuous
 62
    92
370
    13
100
AcDbCircle
 10
-753.4835436459808
 20
110.8154633835319
 30
0.0
 40
1.5
100
AcDbArc
 50
0.0
 51
90.00000000000001
  0
LINE
  5
48
330
1F
100
AcDbEntity
  8
0-0
  6
Continuous
 62
    92
370
    13
100
AcDbLine
 10
-751.9835436459822
 20
-8.18453661646732
 30
0.0
 11
-751.9835436459822
 21
110.8154633835319
 31
0.0
  0
ARC
  5
49
330
1F
100
AcDbEntity
  8
0-0
  6
Continuous
 62
    92
370
    13
100
AcDbCircle
 10
-753.4835436459808
 20
-8.18453661646732
 30
0.0
 40
1.5
100
AcDbArc
 50
270.0
 51
0.0
  0
LINE
  5
4A
330
1F
100
AcDbEntity
  8
0-0
  6
Continuous
 62
    92
370
    13
100
AcDbLine
 10
-792.4835436459829
 20
-9.684536616468513
 30
0.0
 11
-753.4835436459808
 21
-9.684536616468513
 31
0.0
  0
LINE
  5
4B
330
1F
100
AcDbEntity
  8
0-0
  6
Continuous
 62
    92
370
    13
100
AcDbLine
 10
-793.9835436459815
 20
-8.18453661646732
 30
0.0
 11
-793.9835436459815
 21
110.8154633835319
 31
0.0
  0
ARC
  5
4C
330
1F
100
AcDbEntity
  8
0-0
  6
Continuous
 62
    92
370
    13
100
AcDbCircle
 10
-792.4835436459829
 20
-8.18453661646732
 30
0.0
 40
1.5
100
AcDbArc
 50
180.0
 51
270.0
  0
ARC
  5
4D
330
1F
100
AcDbEntity
  8
0-0
  6
Continuous
 62
     7
370
     9
100
AcDbCircle
 10
-772.9835436459821
 20
21.71546338353277
 30
0.0
 40
15.0
100
AcDbArc
 50
180.0
 51
0.0
  0
ARC
  5
4E
330
1F
100
AcDbEntity
  8
0-0
  6
Continuous
 62
     7
370
     9
100
AcDbCircle
 10
-772.9835436459821
 20
80.91546338353095
 30
0.0
 40
15.0
100
AcDbArc
 50
0.0
 51
180.0
  0
LINE
  5
4F
330
1F
100
AcDbEntity
  8
0-0
  6
Continuous
 62
     7
370
     9
100
AcDbLine
 10
-757.9835436459821
 20
21.71546338353277
 30
0.0
 11
-757.9835436459821
 21
80.91546338353095
 31
0.0
  0
LINE
  5
50
330
1F
100
AcDbEntity
  8
0-0
  6
Continuous
 62
     7
370
     9
100
AcDbLine
 10
-787.9835436459821
 20
80.91546338353095
 30
0.0
 11
-787.9835436459821
 21
21.71546338353277
 31
0.0
  0
LINE
  5
51
330
1F
100
AcDbEntity
  8
0-0
  6
JWW_DASHED1
 62
   120
370
     5
100
AcDbLine
 10
-823.9835436459815
 20
1076.815463383532
 30
0.0
 11
-823.9835436459815
 21
-906.1845366164674
 31
0.0
  0
LINE
  5
52
330
1F
100
AcDbEntity
  8
0-0
  6
JWW_DASHED1
 62
   120
370
     5
100
AcDbLine
 10
-820.9835436459808
 20
1076.815463383532
 30
0.0
 11
-823.9835436459815
 21
1076.815463383532
 31
0.0
  0
LINE
  5
53
330
1F
100
AcDbEntity
  8
0-0
  6
JWW_DASHED1
 62
   120
370
     5
100
AcDbLine
 10
-823.9835436459815
 20
-906.1845366164674
 30
0.0
 11
-820.9835436459808
 21
-906.1845366164674
 31
0.0
  0
LINE
  5
54
330
1F
100
AcDbEntity
  8
0-0
  6
Continuous
 62
    92
370
    13
100
AcDbLine
 10
793.0164563540176
 20
-914.6845366164674
 30
0.0
 11
793.0164563540176
 21
1120.815463383533
 31
0.0
  0
LINE
  5
55
330
1F
100
AcDbEntity
  8
0-0
  6
Continuous
 62
    92
370
    13
100
AcDbLine
 10
763.0164563540176
 20
-905.9797576236306
 30
0.0
 11
763.0164563540176
 21
-905.6467718139724
 31
0.0
  0
ARC
  5
56
330
1F
100
AcDbEntity
  8
0-0
  6
Continuous
 62
    92
370
    13
100
AcDbCircle
 10
695.5164563540176
 20
110.8154633835319
 30
0.0
 40
1.5
100
AcDbArc
 50
90.0
 51
180.0
  0
LINE
  5
57
330
1F
100
AcDbEntity
  8
0-0
  6
Continuous
 62
    92
370
    13
100
AcDbLine
 10
734.5164563540196
 20
112.3154633835322
 30
0.0
 11
695.5164563540176
 21
112.3154633835322
 31
0.0
  0
ARC
  5
58
330
1F
100
AcDbEntity
  8
0-0
  6
Continuous
 62
    92
370
    13
100
AcDbCircle
 10
734.5164563540196
 20
110.8154633835319
 30
0.0
 40
1.5
100
AcDbArc
 50
0.0
 51
90.00000000000001
  0
LINE
  5
59
330
1F
100
AcDbEntity
  8
0-0
  6
Continuous
 62
    92
370
    13
100
AcDbLine
 10
736.0164563540183
 20
-8.18453661646732
 30
0.0
 11
736.0164563540183
 21
110.8154633835319
 31
0.0
  0
ARC
  5
5A
330
1F
100
AcDbEntity
  8
0-0
  6
Continuous
 62
    92
370
    13
100
AcDbCircle
 10
734.5164563540196
 20
-8.18453661646732
 30
0.0
 40
1.5
100
AcDbArc
 50
270.0
 51
0.0
  0
LINE
  5
5B
330
1F
100
AcDbEntity
  8
0-0
  6
Continuous
 62
    92
370
    13
100
AcDbLine
 10
695.5164563540176
 20
-9.684536616468513
 30
0.0
 11
734.5164563540196
 21
-9.684536616468513
 31
0.0
  0
LINE
  5
5C
330
1F
100
AcDbEntity
  8
0-0
  6
Continuous
 62
    92
370
    13
100
AcDbLine
 10
694.0164563540172
 20
-8.18453661646732
 30
0.0
 11
694.0164563540172
 21
110.8154633835319
 31
0.0
  0
ARC
  5
5D
330
1F
100
AcDbEntity
  8
0-0
  6
Continuous
 62
    92
370
    13
100
AcDbCircle
 10
695.5164563540176
 20
-8.18453661646732
 30
0.0
 40
1.5
100
AcDbArc
 50
180.0
 51
270.0
  0
ARC
  5
5E
330
1F
100
AcDbEntity
  8
0-0
  6
Continuous
 62
     7
370
     9
100
AcDbCircle
 10
715.0164563540186
 20
21.71546338353277
 30
0.0
 40
15.0
100
AcDbArc
 50
180.0
 51
0.0
  0
ARC
  5
5F
330
1F
100
AcDbEntity
  8
0-0
  6
Continuous
 62
     7
370
     9
100
AcDbCircle
 10
715.0164563540186
 20
80.91546338353095
 30
0.0
 40
15.0
100
AcDbArc
 50
0.0
 51
180.0
  0
LINE
  5
60
330
1F
100
AcDbEntity
  8
0-0
  6
Continuous
 62
     7
370
     9
100
AcDbLine
 10
730.0164563540186
 20
21.71546338353277
 30
0.0
 11
730.0164563540186
 21
80.91546338353095
 31
0.0
  0
LINE
  5
61
330
1F
100
AcDbEntity
  8
0-0
  6
Continuous
 62
     7
370
     9
100
AcDbLine
 10
700.0164563540186
 20
80.91546338353095
 30
0.0
 11
700.0164563540186
 21
21.71546338353277
 31
0.0
  0
LINE
  5
62
330
1F
100
AcDbEntity
  8
0-0
  6
Continuous
 62
    92
370
    13
100
AcDbLine
 10
763.0164563540176
 20
-905.6467718139724
 30
0.0
 11
763.0164563540176
 21
1120.815463383533
 31
0.0
  0
LINE
  5
63
330
1F
100
AcDbEntity
  8
0-0
  6
Continuous
 62
    92
370
    13
100
AcDbLine
 10
-850.9835436459808
 20
1120.815463383533
 30
0.0
 11
793.0164563540176
 21
1120.815463383533
 31
0.0
  0
LINE
  5
64
330
1F
100
AcDbEntity
  8
0-0
  6
JWW_DASHED1
 62
   120
370
     5
100
AcDbLine
 10
766.0164563540183
 20
1076.815463383532
 30
0.0
 11
766.0164563540183
 21
-906.1845366164674
 31
0.0
  0
LINE
  5
65
330
1F
100
AcDbEntity
  8
0-0
  6
JWW_DASHED1
 62
   120
370
     5
100
AcDbLine
 10
766.0164563540183
 20
-906.1845366164674
 30
0.0
 11
763.0164563540176
 21
-906.1845366164674
 31
0.0
  0
LINE
  5
66
330
1F
100
AcDbEntity
  8
0-0
  6
JWW_DASHED1
 62
   120
370
     5
100
AcDbLine
 10
763.0164563540176
 20
1076.815463383532
 30
0.0
 11
766.0164563540183
 21
1076.815463383532
 31
0.0
  0
LINE
  5
67
330
1F
100
AcDbEntity
  8
0-0
  6
Continuous
 62
    92
370
    13
100
AcDbLine
 10
-43.98354364598164
 20
-906.1845366164674
 30
0.0
 11
-43.98354364598164
 21
1076.815463383532
 31
0.0
  0
LINE
  5
68
330
1F
100
AcDbEntity
  8
0-0
  6
JWW_DASHED1
 62
   120
370
     5
100
AcDbLine
 10
-13.98354364597994
 20
-906.1845366164674
 30
0.0
 11
-13.98354364597994
 21
1076.815463383532
 31
0.0
  0
LINE
  5
69
330
1F
100
AcDbEntity
  8
0-0
  6
Continuous
 62
    92
370
    13
100
AcDbLine
 10
-13.98354364597994
 20
1076.815463383532
 30
0.0
 11
-820.9835436459808
 21
1076.815463383532
 31
0.0
  0
LINE
  5
6A
330
1F
100
AcDbEntity
  8
0-0
  6
Continuous
 62
    92
370
    13
100
AcDbLine
 10
-820.9835436459808
 20
-906.1845366164674
 30
0.0
 11
-13.98354364597994
 21
-906.1845366164674
 31
0.0
  0
LINE
  5
6B
330
1F
100
AcDbEntity
  8
0-0
  6
Continuous
 62
    92
370
    13
100
AcDbLine
 10
763.0164563540176
 20
-906.1845366164674
 30
0.0
 11
-43.98354364598164
 21
-906.1845366164674
 31
0.0
  0
LINE
  5
6C
330
1F
100
AcDbEntity
  8
0-0
  6
Continuous
 62
    92
370
    13
100
AcDbLine
 10
-43.98354364598164
 20
1076.815463383532
 30
0.0
 11
763.0164563540176
 21
1076.815463383532
 31
0.0
  0
LINE
  5
6D
330
1F
100
AcDbEntity
  8
0-0
  6
Continuous
 62
    92
370
    13
100
AcDbLine
 10
-820.9835436459808
 20
-914.6845366164674
 30
0.0
 11
-850.9835436459808
 21
-914.6845366164674
 31
0.0
  0
LINE
  5
6E
330
1F
100
AcDbEntity
  8
0-0
  6
Continuous
 62
    92
370
    13
100
AcDbLine
 10
-820.9835436459808
 20
-914.6845366164674
 30
0.0
 11
-820.9835436459808
 21
1120.815463383533
 31
0.0
  0
LINE
  5
6F
330
1F
100
AcDbEntity
  8
0-0
  6
Continuous
 62
    92
370
    13
100
AcDbLine
 10
793.0164563540176
 20
-914.6845366164674
 30
0.0
 11
763.0164563540176
 21
-914.6845366164674
 31
0.0
  0
LINE
  5
70
330
1F
100
AcDbEntity
  8
0-0
  6
Continuous
 62
    92
370
    13
100
AcDbLine
 10
763.0164563540176
 20
-914.6845366164674
 30
0.0
 11
763.0164563540176
 21
-905.9797576236306
 31
0.0
  0
LINE
  5
71
330
1F
100
AcDbEntity
  8
0-0
  6
Continuous
 62
    92
370
    13
100
AcDbLine
 10
656.0164563540177
 20
-906.1845366164666
 30
0.0
 11
656.0164563540177
 21
1076.815463383533
 31
0.0
  0
LINE
  5
72
330
1F
100
AcDbEntity
  8
0-0
  6
Continuous
 62
     7
370
     9
100
AcDbLine
 10
576.0164563540171
 20
-898.1845366164671
 30
0.0
 11
656.0164563540177
 21
-898.1845366164671
 31
0.0
  0
LINE
  5
73
330
1F
100
AcDbEntity
  8
0-0
  6
Continuous
 62
     7
370
     9
100
AcDbLine
 10
576.0164563540171
 20
1068.815463383534
 30
0.0
 11
656.0164563540177
 21
1068.815463383534
 31
0.0
  0
LINE
  5
74
330
1F
100
AcDbEntity
  8
0-0
  6
Continuous
 62
    92
370
    13
100
AcDbLine
 10
576.0164563540171
 20
-906.1845366164666
 30
0.0
 11
576.0164563540171
 21
1076.815463383533
 31
0.0
  0
LINE
  5
75
330
1F
100
AcDbEntity
  8
0-0
  6
JWW_DASHED1
 62
   120
370
     5
100
AcDbLine
 10
646.2242078406352
 20
-898.1845366164858
 30
0.0
 11
656.0164563540399
 21
-888.392288103082
 31
0.0
  0
LINE
  5
76
330
1F
100
AcDbEntity
  8
0-0
  6
JWW_DASHED1
 62
   120
370
     5
100
AcDbLine
 10
636.324712905424
 20
-898.1845366164797
 30
0.0
 11
656.0164563540296
 21
-878.4927931678741
 31
0.0
  0
LINE
  5
77
330
1F
100
AcDbEntity
  8
0-0
  6
JWW_DASHED1
 62
   120
370
     5
100
AcDbLine
 10
626.4252179702759
 20
-898.1845366164671
 30
0.0
 11
656.0164563540177
 21
-868.5932982327253
 31
0.0
  0
LINE
  5
78
330
1F
100
AcDbEntity
  8
0-0
  6
JWW_DASHED1
 62
   120
370
     5
100
AcDbLine
 10
616.5257230350425
 20
-898.1845366164831
 30
0.0
 11
656.0164563540399
 21
-858.6938032974857
 31
0.0
  0
LINE
  5
79
330
1F
100
AcDbEntity
  8
0-0
  6
JWW_DASHED1
 62
   120
370
     5
100
AcDbLine
 10
606.6262280998278
 20
-898.1845366164824
 30
0.0
 11
656.016456354033
 21
-848.7943083622772
 31
0.0
  0
LINE
  5
7A
330
1F
100
AcDbEntity
  8
0-0
  6
JWW_DASHED1
 62
   120
370
     5
100
AcDbLine
 10
596.726733164678
 20
-898.1845366164695
 30
0.0
 11
656.0164563540194
 21
-838.894813427128
 31
0.0
  0
LINE
  5
7B
330
1F
100
AcDbEntity
  8
0-0
  6
JWW_DASHED1
 62
   120
370
     5
100
AcDbLine
 10
586.8272382294684
 20
-898.1845366164637
 30
0.0
 11
656.0164563540262
 21
-828.9953184919049
 31
0.0
  0
LINE
  5
7C
330
1F
100
AcDbEntity
  8
0-0
  6
JWW_DASHED1
 62
   120
370
     5
100
AcDbLine
 10
576.9277432942299
 20
-898.1845366164849
 30
0.0
 11
656.0164563540347
 21
-819.095823556681
 31
0.0
  0
LINE
  5
7D
330
1F
100
AcDbEntity
  8
0-0
  6
JWW_DASHED1
 62
   120
370
     5
100
AcDbLine
 10
576.016456354024
 20
-889.1963286215304
 30
0.0
 11
656.0164563540228
 21
-809.1963286215315
 31
0.0
  0
LINE
  5
7E
330
1F
100
AcDbEntity
  8
0-0
  6
JWW_DASHED1
 62
   120
370
     5
100
AcDbLine
 10
576.0164563540154
 20
-879.2968336863222
 30
0.0
 11
656.0164563540296
 21
-799.296833686308
 31
0.0
  0
LINE
  5
7F
330
1F
100
AcDbEntity
  8
0-0
  6
JWW_DASHED1
 62
   120
370
     5
100
AcDbLine
 10
576.0164563540222
 20
-869.3973387510981
 30
0.0
 11
656.0164563540364
 21
-789.3973387510838
 31
0.0
  0
LINE
  5
80
330
1F
100
AcDbEntity
  8
0-0
  6
JWW_DASHED1
 62
   120
370
     5
100
AcDbLine
 10
576.0164563540256
 20
-859.4978438159338
 30
0.0
 11
656.0164563540245
 21
-779.497843815935
 31
0.0
  0
LINE
  5
81
330
1F
100
AcDbEntity
  8
0-0
  6
JWW_DASHED1
 62
   120
370
     5
100
AcDbLine
 10
576.0164563540171
 20
-849.5983488807256
 30
0.0
 11
656.016456354016
 21
-769.5983488807271
 31
0.0
  0
LINE
  5
82
330
1F
100
AcDbEntity
  8
0-0
  6
JWW_DASHED1
 62
   120
370
     5
100
AcDbLine
 10
576.016456354024
 20
-839.6988539455028
 30
0.0
 11
656.0164563540382
 21
-759.6988539454886
 31
0.0
  0
LINE
  5
83
330
1F
100
AcDbEntity
  8
0-0
  6
JWW_DASHED1
 62
   120
370
     5
100
AcDbLine
 10
576.0164563540274
 20
-829.7993590103372
 30
0.0
 11
656.0164563540262
 21
-749.7993590103383
 31
0.0
  0
LINE
  5
84
330
1F
100
AcDbEntity
  8
0-0
  6
JWW_DASHED1
 62
   120
370
     5
100
AcDbLine
 10
576.0164563540205
 20
-819.8998640751289
 30
0.0
 11
656.0164563540177
 21
-739.8998640751305
 31
0.0
  0
LINE
  5
85
330
1F
100
AcDbEntity
  8
0-0
  6
JWW_DASHED1
 62
   120
370
     5
100
AcDbLine
 10
576.0164563540103
 20
-810.000369139921
 30
0.0
 11
656.0164563540262
 21
-730.0003691399064
 31
0.0
  0
LINE
  5
86
330
1F
100
AcDbEntity
  8
0-0
  6
JWW_DASHED1
 62
   120
370
     5
100
AcDbLine
 10
576.0164563540308
 20
-800.1008742047401
 30
0.0
 11
656.0164563540296
 21
-720.1008742047417
 31
0.0
  0
LINE
  5
87
330
1F
100
AcDbEntity
  8
0-0
  6
JWW_DASHED1
 62
   120
370
     5
100
AcDbLine
 10
576.0164563540205
 20
-790.2013792695323
 30
0.0
 11
656.0164563540194
 21
-710.2013792695334
 31
0.0
  0
LINE
  5
88
330
1F
100
AcDbEntity
  8
0-0
  6
JWW_DASHED1
 62
   120
370
     5
100
AcDbLine
 10
576.0164563540137
 20
-780.3018843343241
 30
0.0
 11
656.0164563540279
 21
-700.3018843343099
 31
0.0
  0
LINE
  5
89
330
1F
100
AcDbEntity
  8
0-0
  6
JWW_DASHED1
 62
   120
370
     5
100
AcDbLine
 10
576.0164563540325
 20
-770.4023893991439
 30
0.0
 11
656.0164563540313
 21
-690.4023893991447
 31
0.0
  0
LINE
  5
8A
330
1F
100
AcDbEntity
  8
0-0
  6
JWW_DASHED1
 62
   120
370
     5
100
AcDbLine
 10
576.016456354024
 20
-760.5028944639357
 30
0.0
 11
656.0164563540228
 21
-680.5028944639369
 31
0.0
  0
LINE
  5
8B
330
1F
100
AcDbEntity
  8
0-0
  6
JWW_DASHED1
 62
   120
370
     5
100
AcDbLine
 10
576.0164563540154
 20
-750.6033995287279
 30
0.0
 11
656.0164563540296
 21
-670.6033995287127
 31
0.0
  0
LINE
  5
8C
330
1F
100
AcDbEntity
  8
0-0
  6
JWW_DASHED1
 62
   120
370
     5
100
AcDbLine
 10
576.0164563540342
 20
-740.7039045935469
 30
0.0
 11
656.016456354033
 21
-660.703904593548
 31
0.0
  0
LINE
  5
8D
330
1F
100
AcDbEntity
  8
0-0
  6
JWW_DASHED1
 62
   120
370
     5
100
AcDbLine
 10
576.0164563540256
 20
-730.8044096583391
 30
0.0
 11
656.0164563540245
 21
-650.8044096583402
 31
0.0
  0
LINE
  5
8E
330
1F
100
AcDbEntity
  8
0-0
  6
JWW_DASHED1
 62
   120
370
     5
100
AcDbLine
 10
576.0164563540171
 20
-720.9049147231307
 30
0.0
 11
656.016456354016
 21
-640.9049147231318
 31
0.0
  0
LINE
  5
8F
330
1F
100
AcDbEntity
  8
0-0
  6
JWW_DASHED1
 62
   120
370
     5
100
AcDbLine
 10
576.0164563540376
 20
-711.0054197879502
 30
0.0
 11
656.0164563540364
 21
-631.0054197879514
 31
0.0
  0
LINE
  5
90
330
1F
100
AcDbEntity
  8
0-0
  6
JWW_DASHED1
 62
   120
370
     5
100
AcDbLine
 10
576.0164563540274
 20
-701.1059248527423
 30
0.0
 11
656.0164563540262
 21
-621.1059248527434
 31
0.0
  0
LINE
  5
91
330
1F
100
AcDbEntity
  8
0-0
  6
JWW_DASHED1
 62
   120
370
     5
100
AcDbLine
 10
576.0164563540205
 20
-691.2064299175341
 30
0.0
 11
656.0164563540194
 21
-611.2064299175353
 31
0.0
  0
LINE
  5
92
330
1F
100
AcDbEntity
  8
0-0
  6
JWW_DASHED1
 62
   120
370
     5
100
AcDbLine
 10
576.0164563540205
 20
-681.306934982371
 30
0.0
 11
656.0164563540347
 21
-601.3069349823569
 31
0.0
  0
LINE
  5
93
330
1F
100
AcDbEntity
  8
0-0
  6
JWW_DASHED1
 62
   120
370
     5
100
AcDbLine
 10
576.0164563540308
 20
-671.4074400471454
 30
0.0
 11
656.0164563540296
 21
-591.4074400471466
 31
0.0
  0
LINE
  5
94
330
1F
100
AcDbEntity
  8
0-0
  6
JWW_DASHED1
 62
   120
370
     5
100
AcDbLine
 10
576.0164563540222
 20
-661.5079451119376
 30
0.0
 11
656.0164563540211
 21
-581.5079451119387
 31
0.0
  0
LINE
  5
95
330
1F
100
AcDbEntity
  8
0-0
  6
JWW_DASHED1
 62
   120
370
     5
100
AcDbLine
 10
576.0164563540103
 20
-651.6084501767886
 30
0.0
 11
656.0164563540228
 21
-571.6084501767735
 31
0.0
  0
LINE
  5
96
330
1F
100
AcDbEntity
  8
0-0
  6
JWW_DASHED1
 62
   120
370
     5
100
AcDbLine
 10
576.0164563540325
 20
-641.7089552415488
 30
0.0
 11
656.0164563540313
 21
-561.7089552415499
 31
0.0
  0
LINE
  5
97
330
1F
100
AcDbEntity
  8
0-0
  6
JWW_DASHED1
 62
   120
370
     5
100
AcDbLine
 10
576.016456354024
 20
-631.8094603063404
 30
0.0
 11
656.0164563540228
 21
-551.8094603063421
 31
0.0
  0
LINE
  5
98
330
1F
100
AcDbEntity
  8
0-0
  6
JWW_DASHED1
 62
   120
370
     5
100
AcDbLine
 10
576.016456354012
 20
-621.9099653711916
 30
0.0
 11
656.0164563540262
 21
-541.9099653711773
 31
0.0
  0
LINE
  5
99
330
1F
100
AcDbEntity
  8
0-0
  6
JWW_DASHED1
 62
   120
370
     5
100
AcDbLine
 10
576.0164563540342
 20
-612.010470435952
 30
0.0
 11
656.016456354033
 21
-532.0104704359532
 31
0.0
  0
LINE
  5
9A
330
1F
100
AcDbEntity
  8
0-0
  6
JWW_DASHED1
 62
   120
370
     5
100
AcDbLine
 10
576.0164563540274
 20
-602.1109755007443
 30
0.0
 11
656.0164563540262
 21
-522.1109755007454
 31
0.0
  0
LINE
  5
9B
330
1F
100
AcDbEntity
  8
0-0
  6
JWW_DASHED1
 62
   120
370
     5
100
AcDbLine
 10
576.0164563540137
 20
-592.2114805655954
 30
0.0
 11
656.0164563540296
 21
-512.2114805655802
 31
0.0
  0
LINE
  5
9C
330
1F
100
AcDbEntity
  8
0-0
  6
JWW_DASHED1
 62
   120
370
     5
100
AcDbLine
 10
576.0164563540205
 20
-582.3119856303712
 30
0.0
 11
656.0164563540364
 21
-502.3119856303567
 31
0.0
  0
LINE
  5
9D
330
1F
100
AcDbEntity
  8
0-0
  6
JWW_DASHED1
 62
   120
370
     5
100
AcDbLine
 10
576.0164563540291
 20
-572.4124906951473
 30
0.0
 11
656.0164563540279
 21
-492.4124906951484
 31
0.0
  0
LINE
  5
9E
330
1F
100
AcDbEntity
  8
0-0
  6
JWW_DASHED1
 62
   120
370
     5
100
AcDbLine
 10
576.0164563540171
 20
-562.5129957599983
 30
0.0
 11
656.016456354016
 21
-482.5129957599994
 31
0.0
  0
LINE
  5
9F
330
1F
100
AcDbEntity
  8
0-0
  6
JWW_DASHED1
 62
   120
370
     5
100
AcDbLine
 10
576.0164563540205
 20
-552.6135008247777
 30
0.0
 11
656.0164563540347
 21
-472.6135008247634
 31
0.0
  0
LINE
  5
A0
330
1F
100
AcDbEntity
  8
0-0
  6
JWW_DASHED1
 62
   120
370
     5
100
AcDbLine
 10
576.0164563540308
 20
-542.7140058895507
 30
0.0
 11
656.0164563540296
 21
-462.7140058895522
 31
0.0
  0
LINE
  5
A1
330
1F
100
AcDbEntity
  8
0-0
  6
JWW_DASHED1
 62
   120
370
     5
100
AcDbLine
 10
576.0164563540188
 20
-532.8145109544013
 30
0.0
 11
656.016456354016
 21
-452.8145109544028
 31
0.0
  0
LINE
  5
A2
330
1F
100
AcDbEntity
  8
0-0
  6
JWW_DASHED1
 62
   120
370
     5
100
AcDbLine
 10
576.0164563540103
 20
-522.9150160191938
 30
0.0
 11
656.0164563540245
 21
-442.9150160191792
 31
0.0
  0
LINE
  5
A3
330
1F
100
AcDbEntity
  8
0-0
  6
JWW_DASHED1
 62
   120
370
     5
100
AcDbLine
 10
576.0164563540308
 20
-513.0155210839839
 30
0.0
 11
656.0164563540296
 21
-433.015521083985
 31
0.0
  0
LINE
  5
A4
330
1F
100
AcDbEntity
  8
0-0
  6
JWW_DASHED1
 62
   120
370
     5
100
AcDbLine
 10
576.0164563540205
 20
-503.116026148805
 30
0.0
 11
656.0164563540194
 21
-423.1160261488062
 31
0.0
  0
LINE
  5
A5
330
1F
100
AcDbEntity
  8
0-0
  6
JWW_DASHED1
 62
   120
370
     5
100
AcDbLine
 10
576.016456354012
 20
-493.2165312135972
 30
0.0
 11
656.0164563540262
 21
-413.2165312135821
 31
0.0
  0
LINE
  5
A6
330
1F
100
AcDbEntity
  8
0-0
  6
JWW_DASHED1
 62
   120
370
     5
100
AcDbLine
 10
576.0164563540342
 20
-483.3170362783868
 30
0.0
 11
656.0164563540313
 21
-403.3170362783879
 31
0.0
  0
LINE
  5
A7
330
1F
100
AcDbEntity
  8
0-0
  6
JWW_DASHED1
 62
   120
370
     5
100
AcDbLine
 10
576.0164563540222
 20
-473.417541343208
 30
0.0
 11
656.0164563540211
 21
-393.4175413432091
 31
0.0
  0
LINE
  5
A8
330
1F
100
AcDbEntity
  8
0-0
  6
JWW_DASHED1
 62
   120
370
     5
100
AcDbLine
 10
576.0164563540137
 20
-463.5180464080001
 30
0.0
 11
656.0164563540296
 21
-383.5180464079859
 31
0.0
  0
LINE
  5
A9
330
1F
100
AcDbEntity
  8
0-0
  6
JWW_DASHED1
 62
   120
370
     5
100
AcDbLine
 10
576.0164563540342
 20
-453.6185514728196
 30
0.0
 11
656.016456354033
 21
-373.6185514728207
 31
0.0
  0
LINE
  5
AA
330
1F
100
AcDbEntity
  8
0-0
  6
JWW_DASHED1
 62
   120
370
     5
100
AcDbLine
 10
576.016456354024
 20
-443.7190565376118
 30
0.0
 11
656.0164563540228
 21
-363.7190565376129
 31
0.0
  0
LINE
  5
AB
330
1F
100
AcDbEntity
  8
0-0
  6
JWW_DASHED1
 62
   120
370
     5
100
AcDbLine
 10
576.0164563540171
 20
-433.8195616024036
 30
0.0
 11
656.016456354016
 21
-353.8195616024047
 31
0.0
  0
LINE
  5
AC
330
1F
100
AcDbEntity
  8
0-0
  6
JWW_DASHED1
 62
   120
370
     5
100
AcDbLine
 10
576.0164563540359
 20
-423.9200666672226
 30
0.0
 11
656.0164563540347
 21
-343.9200666672241
 31
0.0
  0
LINE
  5
AD
330
1F
100
AcDbEntity
  8
0-0
  6
JWW_DASHED1
 62
   120
370
     5
100
AcDbLine
 10
576.0164563540274
 20
-414.0205717320147
 30
0.0
 11
656.0164563540262
 21
-334.0205717320159
 31
0.0
  0
LINE
  5
AE
330
1F
100
AcDbEntity
  8
0-0
  6
JWW_DASHED1
 62
   120
370
     5
100
AcDbLine
 10
576.0164563540188
 20
-404.1210767968069
 30
0.0
 11
656.0164563540177
 21
-324.121076796808
 31
0.0
  0
LINE
  5
AF
330
1F
100
AcDbEntity
  8
0-0
  6
JWW_DASHED1
 62
   120
370
     5
100
AcDbLine
 10
576.0164563540171
 20
-394.221581861646
 30
0.0
 11
656.0164563540313
 21
-314.2215818616322
 31
0.0
  0
LINE
  5
B0
330
1F
100
AcDbEntity
  8
0-0
  6
JWW_DASHED1
 62
   120
370
     5
100
AcDbLine
 10
576.0164563540291
 20
-384.3220869264185
 30
0.0
 11
656.0164563540279
 21
-304.3220869264197
 31
0.0
  0
LINE
  5
B1
330
1F
100
AcDbEntity
  8
0-0
  6
JWW_DASHED1
 62
   120
370
     5
100
AcDbLine
 10
576.0164563540205
 20
-374.4225919912103
 30
0.0
 11
656.0164563540194
 21
-294.422591991211
 31
0.0
  0
LINE
  5
B2
330
1F
100
AcDbEntity
  8
0-0
  6
JWW_DASHED1
 62
   120
370
     5
100
AcDbLine
 10
576.0164563540069
 20
-364.5230970560613
 30
0.0
 11
656.0164563540228
 21
-284.5230970560467
 31
0.0
  0
LINE
  5
B3
330
1F
100
AcDbEntity
  8
0-0
  6
JWW_DASHED1
 62
   120
370
     5
100
AcDbLine
 10
576.0164563540308
 20
-354.6236021208215
 30
0.0
 11
656.0164563540296
 21
-274.6236021208226
 31
0.0
  0
LINE
  5
B4
330
1F
100
AcDbEntity
  8
0-0
  6
JWW_DASHED1
 62
   120
370
     5
100
AcDbLine
 10
576.016456354024
 20
-344.7241071856137
 30
0.0
 11
656.0164563540228
 21
-264.7241071856148
 31
0.0
  0
LINE
  5
B5
330
1F
100
AcDbEntity
  8
0-0
  6
JWW_DASHED1
 62
   120
370
     5
100
AcDbLine
 10
576.0164563540103
 20
-334.8246122504647
 30
0.0
 11
656.0164563540245
 21
-254.82461225045
 31
0.0
  0
LINE
  5
B6
330
1F
100
AcDbEntity
  8
0-0
  6
JWW_DASHED1
 62
   120
370
     5
100
AcDbLine
 10
576.0164563540342
 20
-324.9251173152244
 30
0.0
 11
656.016456354033
 21
-244.925117315226
 31
0.0
  0
LINE
  5
B7
330
1F
100
AcDbEntity
  8
0-0
  6
JWW_DASHED1
 62
   120
370
     5
100
AcDbLine
 10
576.0164563540256
 20
-315.0256223800166
 30
0.0
 11
656.0164563540245
 21
-235.0256223800178
 31
0.0
  0
LINE
  5
B8
330
1F
100
AcDbEntity
  8
0-0
  6
JWW_DASHED1
 62
   120
370
     5
100
AcDbLine
 10
576.0164563540137
 20
-305.1261274448676
 30
0.0
 11
656.0164563540262
 21
-225.126127444853
 31
0.0
  0
LINE
  5
B9
330
1F
100
AcDbEntity
  8
0-0
  6
JWW_DASHED1
 62
   120
370
     5
100
AcDbLine
 10
576.0164563540205
 20
-295.226632509644
 30
0.0
 11
656.0164563540347
 21
-215.2266325096294
 31
0.0
  0
LINE
  5
BA
330
1F
100
AcDbEntity
  8
0-0
  6
JWW_DASHED1
 62
   120
370
     5
100
AcDbLine
 10
576.0164563540274
 20
-285.32713757442
 30
0.0
 11
656.0164563540262
 21
-205.3271375744216
 31
0.0
  0
LINE
  5
BB
330
1F
100
AcDbEntity
  8
0-0
  6
JWW_DASHED1
 62
   120
370
     5
100
AcDbLine
 10
576.0164563540137
 20
-275.427642639271
 30
0.0
 11
656.0164563540126
 21
-195.4276426392721
 31
0.0
  0
LINE
  5
BC
330
1F
100
AcDbEntity
  8
0-0
  6
JWW_DASHED1
 62
   120
370
     5
100
AcDbLine
 10
576.0164563540171
 20
-265.5281477040525
 30
0.0
 11
656.0164563540313
 21
-185.5281477040383
 31
0.0
  0
LINE
  5
BD
330
1F
100
AcDbEntity
  8
0-0
  6
JWW_DASHED1
 62
   120
370
     5
100
AcDbLine
 10
576.0164563540291
 20
-255.6286527688234
 30
0.0
 11
656.0164563540296
 21
-175.6286527688245
 31
0.0
  0
LINE
  5
BE
330
1F
100
AcDbEntity
  8
0-0
  6
JWW_DASHED1
 62
   120
370
     5
100
AcDbLine
 10
576.0164563540171
 20
-245.7291578336744
 30
0.0
 11
656.016456354016
 21
-165.7291578336755
 31
0.0
  0
LINE
  5
BF
330
1F
100
AcDbEntity
  8
0-0
  6
JWW_DASHED1
 62
   120
370
     5
100
AcDbLine
 10
576.0164563540086
 20
-235.8296628984666
 30
0.0
 11
656.0164563540228
 21
-155.8296628984515
 31
0.0
  0
LINE
  5
C0
330
1F
100
AcDbEntity
  8
0-0
  6
JWW_DASHED1
 62
   120
370
     5
100
AcDbLine
 10
576.0164563540325
 20
-225.9301679632263
 30
0.0
 11
656.0164563540296
 21
-145.9301679632283
 31
0.0
  0
LINE
  5
C1
330
1F
100
AcDbEntity
  8
0-0
  6
JWW_DASHED1
 62
   120
370
     5
100
AcDbLine
 10
576.0164563540188
 20
-216.0306730280778
 30
0.0
 11
656.0164563540177
 21
-136.0306730280785
 31
0.0
  0
LINE
  5
C2
330
1F
100
AcDbEntity
  8
0-0
  6
JWW_DASHED1
 62
   120
370
     5
100
AcDbLine
 10
576.0164563540103
 20
-206.1311780928695
 30
0.0
 11
656.0164563540262
 21
-126.1311780928549
 31
0.0
  0
LINE
  5
C3
330
1F
100
AcDbEntity
  8
0-0
  6
JWW_DASHED1
 62
   120
370
     5
100
AcDbLine
 10
576.0164563540188
 20
-196.2316831576455
 30
0.0
 11
656.016456354033
 21
-116.2316831576313
 31
0.0
  0
LINE
  5
C4
330
1F
100
AcDbEntity
  8
0-0
  6
JWW_DASHED1
 62
   120
370
     5
100
AcDbLine
 10
576.0164563540205
 20
-186.3321882224807
 30
0.0
 11
656.0164563540194
 21
-106.3321882224823
 31
0.0
  0
LINE
  5
C5
330
1F
100
AcDbEntity
  8
0-0
  6
JWW_DASHED1
 62
   120
370
     5
100
AcDbLine
 10
576.0164563540137
 20
-176.4326932872729
 30
0.0
 11
656.0164563540126
 21
-96.43269328727445
 31
0.0
  0
LINE
  5
C6
330
1F
100
AcDbEntity
  8
0-0
  6
JWW_DASHED1
 62
   120
370
     5
100
AcDbLine
 10
576.0164563540137
 20
-166.5331983520553
 30
0.0
 11
656.0164563540296
 21
-86.53319835204104
 31
0.0
  0
LINE
  5
C7
330
1F
100
AcDbEntity
  8
0-0
  6
JWW_DASHED1
 62
   120
370
     5
100
AcDbLine
 10
576.016456354024
 20
-156.6337034168841
 30
0.0
 11
656.0164563540228
 21
-76.63370341688523
 31
0.0
  0
LINE
  5
C8
330
1F
100
AcDbEntity
  8
0-0
  6
JWW_DASHED1
 62
   120
370
     5
100
AcDbLine
 10
576.0164563540154
 20
-146.7342084816763
 30
0.0
 11
656.0164563540143
 21
-66.7342084816774
 31
0.0
  0
LINE
  5
C9
330
1F
100
AcDbEntity
  8
0-0
  6
JWW_DASHED1
 62
   120
370
     5
100
AcDbLine
 10
576.0164563540069
 20
-136.8347135464684
 30
0.0
 11
656.0164563540211
 21
-56.83471354645381
 31
0.0
  0
LINE
  5
CA
330
1F
100
AcDbEntity
  8
0-0
  6
JWW_DASHED1
 62
   120
370
     5
100
AcDbLine
 10
576.0164563540256
 20
-126.9352186112875
 30
0.0
 11
656.0164563540245
 21
-46.93521861128861
 31
0.0
  0
LINE
  5
CB
330
1F
100
AcDbEntity
  8
0-0
  6
JWW_DASHED1
 62
   120
370
     5
100
AcDbLine
 10
576.0164563540171
 20
-117.0357236760796
 30
0.0
 11
656.016456354016
 21
-37.03572367608036
 31
0.0
  0
LINE
  5
CC
330
1F
100
AcDbEntity
  8
0-0
  6
JWW_DASHED1
 62
   120
370
     5
100
AcDbLine
 10
576.0164563540103
 20
-107.1362287408714
 30
0.0
 11
656.0164563540228
 21
-27.13622874085718
 31
0.0
  0
LINE
  5
CD
330
1F
100
AcDbEntity
  8
0-0
  6
JWW_DASHED1
 62
   120
370
     5
100
AcDbLine
 10
576.0164563540274
 20
-97.23673380569085
 30
0.0
 11
656.0164563540262
 21
-17.23673380569199
 31
0.0
  0
LINE
  5
CE
330
1F
100
AcDbEntity
  8
0-0
  6
JWW_DASHED1
 62
   120
370
     5
100
AcDbLine
 10
576.0164563540205
 20
-87.33723887048302
 30
0.0
 11
656.0164563540194
 21
-7.337238870484164
 31
0.0
  0
LINE
  5
CF
330
1F
100
AcDbEntity
  8
0-0
  6
JWW_DASHED1
 62
   120
370
     5
100
AcDbLine
 10
576.0164563540103
 20
-77.4377439352752
 30
0.0
 11
656.0164563540262
 21
2.562256064739863
 31
0.0
  0
LINE
  5
D0
330
1F
100
AcDbEntity
  8
0-0
  6
JWW_DASHED1
 62
   120
370
     5
100
AcDbLine
 10
576.0164563540308
 20
-67.53824900009423
 30
0.0
 11
656.0164563540296
 21
12.46175099990463
 31
0.0
  0
LINE
  5
D1
330
1F
100
AcDbEntity
  8
0-0
  6
JWW_DASHED1
 62
   120
370
     5
100
AcDbLine
 10
576.0164563540222
 20
-57.63875406488598
 30
0.0
 11
656.0164563540211
 21
22.36124593511246
 31
0.0
  0
LINE
  5
D2
330
1F
100
AcDbEntity
  8
0-0
  6
JWW_DASHED1
 62
   120
370
     5
100
AcDbLine
 10
576.0164563540137
 20
-47.73925912967815
 30
0.0
 11
656.0164563540126
 21
32.26074087032071
 31
0.0
  0
LINE
  5
D3
330
1F
100
AcDbEntity
  8
0-0
  6
JWW_DASHED1
 62
   120
370
     5
100
AcDbLine
 10
576.0164563540325
 20
-37.83976419449761
 30
0.0
 11
656.0164563540313
 21
42.16023580550125
 31
0.0
  0
LINE
  5
D4
330
1F
100
AcDbEntity
  8
0-0
  6
JWW_DASHED1
 62
   120
370
     5
100
AcDbLine
 10
576.016456354024
 20
-27.94026925928936
 30
0.0
 11
656.0164563540228
 21
52.05973074070908
 31
0.0
  0
LINE
  5
D5
330
1F
100
AcDbEntity
  8
0-0
  6
JWW_DASHED1
 62
   120
370
     5
100
AcDbLine
 10
576.0164563540154
 20
-18.04077432408111
 30
0.0
 11
656.0164563540143
 21
61.95922567591733
 31
0.0
  0
LINE
  5
D6
330
1F
100
AcDbEntity
  8
0-0
  6
JWW_DASHED1
 62
   120
370
     5
100
AcDbLine
 10
576.0164563540188
 20
-8.141279388916765
 30
0.0
 11
656.016456354033
 21
71.8587206110983
 31
0.0
  0
LINE
  5
D7
330
1F
100
AcDbEntity
  8
0-0
  6
JWW_DASHED1
 62
   120
370
     5
100
AcDbLine
 10
576.0164563540274
 20
1.758215546307262
 30
0.0
 11
656.0164563540262
 21
81.75821554630613
 31
0.0
  0
LINE
  5
D8
330
1F
100
AcDbEntity
  8
0-0
  6
JWW_DASHED1
 62
   120
370
     5
100
AcDbLine
 10
576.0164563540171
 20
11.65771048151509
 30
0.0
 11
656.016456354016
 21
91.65771048151396
 31
0.0
  0
LINE
  5
D9
330
1F
100
AcDbEntity
  8
0-0
  6
JWW_DASHED1
 62
   120
370
     5
100
AcDbLine
 10
576.0164563540137
 20
21.55720541667261
 30
0.0
 11
656.0164563540262
 21
101.5572054166864
 31
0.0
  0
LINE
  5
DA
330
1F
100
AcDbEntity
  8
0-0
  6
JWW_DASHED1
 62
   120
370
     5
100
AcDbLine
 10
576.0164563540291
 20
31.45670035190431
 30
0.0
 11
656.0164563540262
 21
111.4567003519028
 31
0.0
  0
LINE
  5
DB
330
1F
100
AcDbEntity
  8
0-0
  6
JWW_DASHED1
 62
   120
370
     5
100
AcDbLine
 10
576.0164563540205
 20
41.35619528711171
 30
0.0
 11
656.0164563540194
 21
121.356195287111
 31
0.0
  0
LINE
  5
DC
330
1F
100
AcDbEntity
  8
0-0
  6
JWW_DASHED1
 62
   120
370
     5
100
AcDbLine
 10
576.0164563540069
 20
51.25569022226113
 30
0.0
 11
656.0164563540228
 21
131.2556902222753
 31
0.0
  0
LINE
  5
DD
330
1F
100
AcDbEntity
  8
0-0
  6
JWW_DASHED1
 62
   120
370
     5
100
AcDbLine
 10
576.0164563540308
 20
61.1551851575005
 30
0.0
 11
656.0164563540296
 21
141.1551851574994
 31
0.0
  0
LINE
  5
DE
330
1F
100
AcDbEntity
  8
0-0
  6
JWW_DASHED1
 62
   120
370
     5
100
AcDbLine
 10
576.0164563540222
 20
71.05468009270834
 30
0.0
 11
656.0164563540211
 21
151.0546800927072
 31
0.0
  0
LINE
  5
DF
330
1F
100
AcDbEntity
  8
0-0
  6
JWW_DASHED1
 62
   120
370
     5
100
AcDbLine
 10
576.0164563540103
 20
80.95417502785818
 30
0.0
 11
656.0164563540245
 21
160.9541750278724
 31
0.0
  0
LINE
  5
E0
330
1F
100
AcDbEntity
  8
0-0
  6
JWW_DASHED1
 62
   120
370
     5
100
AcDbLine
 10
576.0164563540171
 20
90.85366996308136
 30
0.0
 11
656.0164563540313
 21
170.853669963096
 31
0.0
  0
LINE
  5
E1
330
1F
100
AcDbEntity
  8
0-0
  6
JWW_DASHED1
 62
   120
370
     5
100
AcDbLine
 10
576.016456354024
 20
100.7531648983054
 30
0.0
 11
656.0164563540228
 21
180.7531648983042
 31
0.0
  0
LINE
  5
E2
330
1F
100
AcDbEntity
  8
0-0
  6
JWW_DASHED1
 62
   120
370
     5
100
AcDbLine
 10
576.016456354012
 20
110.6526598334544
 30
0.0
 11
656.0164563540109
 21
190.6526598334532
 31
0.0
  0
LINE
  5
E3
330
1F
100
AcDbEntity
  8
0-0
  6
JWW_DASHED1
 62
   120
370
     5
100
AcDbLine
 10
576.0164563540103
 20
120.5521547686699
 30
0.0
 11
656.0164563540245
 21
200.5521547686841
 31
0.0
  0
LINE
  5
E4
330
1F
100
AcDbEntity
  8
0-0
  6
JWW_DASHED1
 62
   120
370
     5
100
AcDbLine
 10
576.0164563540222
 20
130.4516497038432
 30
0.0
 11
656.0164563540211
 21
210.4516497038416
 31
0.0
  0
LINE
  5
E5
330
1F
100
AcDbEntity
  8
0-0
  6
JWW_DASHED1
 62
   120
370
     5
100
AcDbLine
 10
576.0164563540137
 20
140.3511446390514
 30
0.0
 11
656.0164563540126
 21
220.3511446390499
 31
0.0
  0
LINE
  5
E6
330
1F
100
AcDbEntity
  8
0-0
  6
JWW_DASHED1
 62
   120
370
     5
100
AcDbLine
 10
576.0164563540069
 20
150.2506395742593
 30
0.0
 11
656.0164563540194
 21
230.2506395742735
 31
0.0
  0
LINE
  5
E7
330
1F
100
AcDbEntity
  8
0-0
  6
JWW_DASHED1
 62
   120
370
     5
100
AcDbLine
 10
576.016456354024
 20
160.1501345094398
 30
0.0
 11
656.0164563540228
 21
240.1501345094387
 31
0.0
  0
LINE
  5
E8
330
1F
100
AcDbEntity
  8
0-0
  6
JWW_DASHED1
 62
   120
370
     5
100
AcDbLine
 10
576.0164563540171
 20
170.0496294446476
 30
0.0
 11
656.016456354016
 21
250.0496294446465
 31
0.0
  0
LINE
  5
E9
330
1F
100
AcDbEntity
  8
0-0
  6
JWW_DASHED1
 62
   120
370
     5
100
AcDbLine
 10
576.0164563540086
 20
179.9491243798559
 30
0.0
 11
656.0164563540228
 21
259.9491243798705
 31
0.0
  0
LINE
  5
EA
330
1F
100
AcDbEntity
  8
0-0
  6
JWW_DASHED1
 62
   120
370
     5
100
AcDbLine
 10
576.0164563540274
 20
189.8486193150364
 30
0.0
 11
656.0164563540262
 21
269.8486193150357
 31
0.0
  0
LINE
  5
EB
330
1F
100
AcDbEntity
  8
0-0
  6
JWW_DASHED1
 62
   120
370
     5
100
AcDbLine
 10
576.0164563540188
 20
199.7481142502447
 30
0.0
 11
656.016456354016
 21
279.7481142502431
 31
0.0
  0
LINE
  5
EC
330
1F
100
AcDbEntity
  8
0-0
  6
JWW_DASHED1
 62
   120
370
     5
100
AcDbLine
 10
576.0164563540103
 20
209.6476091854525
 30
0.0
 11
656.0164563540245
 21
289.6476091854671
 31
0.0
  0
LINE
  5
ED
330
1F
100
AcDbEntity
  8
0-0
  6
JWW_DASHED1
 62
   120
370
     5
100
AcDbLine
 10
576.0164563540291
 20
219.547104120633
 30
0.0
 11
656.0164563540279
 21
299.5471041206319
 31
0.0
  0
LINE
  5
EE
330
1F
100
AcDbEntity
  8
0-0
  6
JWW_DASHED1
 62
   120
370
     5
100
AcDbLine
 10
576.0164563540205
 20
229.4465990558417
 30
0.0
 11
656.0164563540194
 21
309.4465990558397
 31
0.0
  0
LINE
  5
EF
330
1F
100
AcDbEntity
  8
0-0
  6
JWW_DASHED1
 62
   120
370
     5
100
AcDbLine
 10
576.016456354012
 20
239.3460939910491
 30
0.0
 11
656.0164563540109
 21
319.346093991048
 31
0.0
  0
LINE
  5
F0
330
1F
100
AcDbEntity
  8
0-0
  6
JWW_DASHED1
 62
   120
370
     5
100
AcDbLine
 10
576.0164563540308
 20
249.2455889262297
 30
0.0
 11
656.0164563540296
 21
329.2455889262285
 31
0.0
  0
LINE
  5
F1
330
1F
100
AcDbEntity
  8
0-0
  6
JWW_DASHED1
 62
   120
370
     5
100
AcDbLine
 10
576.016456354024
 20
259.1450838614379
 30
0.0
 11
656.0164563540228
 21
339.1450838614368
 31
0.0
  0
LINE
  5
F2
330
1F
100
AcDbEntity
  8
0-0
  6
JWW_DASHED1
 62
   120
370
     5
100
AcDbLine
 10
576.0164563540137
 20
269.0445787966457
 30
0.0
 11
656.0164563540126
 21
349.0445787966446
 31
0.0
  0
LINE
  5
F3
330
1F
100
AcDbEntity
  8
0-0
  6
JWW_DASHED1
 62
   120
370
     5
100
AcDbLine
 10
576.0164563540086
 20
278.9440737318016
 30
0.0
 11
656.0164563540228
 21
358.9440737318149
 31
0.0
  0
LINE
  5
F4
330
1F
100
AcDbEntity
  8
0-0
  6
JWW_DASHED1
 62
   120
370
     5
100
AcDbLine
 10
576.0164563540256
 20
288.843568667035
 30
0.0
 11
656.0164563540228
 21
368.8435686670333
 31
0.0
  0
LINE
  5
F5
330
1F
100
AcDbEntity
  8
0-0
  6
JWW_DASHED1
 62
   120
370
     5
100
AcDbLine
 10
576.0164563540171
 20
298.7430636022423
 30
0.0
 11
656.016456354016
 21
378.7430636022416
 31
0.0
  0
LINE
  5
F6
330
1F
100
AcDbEntity
  8
0-0
  6
JWW_DASHED1
 62
   120
370
     5
100
AcDbLine
 10
576.0164563540035
 20
308.6425585373918
 30
0.0
 11
656.0164563540194
 21
388.642558537406
 31
0.0
  0
LINE
  5
F7
330
1F
100
AcDbEntity
  8
0-0
  6
JWW_DASHED1
 62
   120
370
     5
100
AcDbLine
 10
576.0164563540274
 20
318.5420534726312
 30
0.0
 11
656.0164563540262
 21
398.54205347263
 31
0.0
  0
LINE
  5
F8
330
1F
100
AcDbEntity
  8
0-0
  6
JWW_DASHED1
 62
   120
370
     5
100
AcDbLine
 10
576.0164563540188
 20
328.441548407839
 30
0.0
 11
656.0164563540177
 21
408.4415484078378
 31
0.0
  0
LINE
  5
F9
330
1F
100
AcDbEntity
  8
0-0
  6
JWW_DASHED1
 62
   120
370
     5
100
AcDbLine
 10
576.0164563540069
 20
338.3410433429888
 30
0.0
 11
656.0164563540211
 21
418.341043343003
 31
0.0
  0
LINE
  5
FA
330
1F
100
AcDbEntity
  8
0-0
  6
JWW_DASHED1
 62
   120
370
     5
100
AcDbLine
 10
576.0164563540291
 20
348.2405382782282
 30
0.0
 11
656.0164563540279
 21
428.2405382782266
 31
0.0
  0
LINE
  5
FB
330
1F
100
AcDbEntity
  8
0-0
  6
JWW_DASHED1
 62
   120
370
     5
100
AcDbLine
 10
576.0164563540205
 20
358.140033213436
 30
0.0
 11
656.0164563540194
 21
438.1400332134349
 31
0.0
  0
LINE
  5
FC
330
1F
100
AcDbEntity
  8
0-0
  6
JWW_DASHED1
 62
   120
370
     5
100
AcDbLine
 10
576.0164563540086
 20
368.039528148585
 30
0.0
 11
656.0164563540228
 21
448.0395281485996
 31
0.0
  0
LINE
  5
FD
330
1F
100
AcDbEntity
  8
0-0
  6
JWW_DASHED1
 62
   120
370
     5
100
AcDbLine
 10
576.0164563540154
 20
377.9390230838086
 30
0.0
 11
656.0164563540296
 21
457.9390230838233
 31
0.0
  0
LINE
  5
FE
330
1F
100
AcDbEntity
  8
0-0
  6
JWW_DASHED1
 62
   120
370
     5
100
AcDbLine
 10
576.016456354024
 20
387.8385180190326
 30
0.0
 11
656.0164563540228
 21
467.8385180190319
 31
0.0
  0
LINE
  5
FF
330
1F
100
AcDbEntity
  8
0-0
  6
JWW_DASHED1
 62
   120
370
     5
100
AcDbLine
 10
576.0164563540103
 20
397.7380129541816
 30
0.0
 11
656.0164563540092
 21
477.7380129541805
 31
0.0
  0
LINE
  5
100
330
1F
100
AcDbEntity
  8
0-0
  6
JWW_DASHED1
 62
   120
370
     5
100
AcDbLine
 10
576.0164563540069
 20
407.637507889395
 30
0.0
 11
656.0164563540211
 21
487.6375078894088
 31
0.0
  0
LINE
  5
101
330
1F
100
AcDbEntity
  8
0-0
  6
JWW_DASHED1
 62
   120
370
     5
100
AcDbLine
 10
576.0164563540256
 20
417.5370028246293
 30
0.0
 11
656.0164563540245
 21
497.5370028246281
 31
0.0
  0
LINE
  5
102
330
1F
100
AcDbEntity
  8
0-0
  6
JWW_DASHED1
 62
   120
370
     5
100
AcDbLine
 10
576.0164563540137
 20
427.4364977597783
 30
0.0
 11
656.0164563540126
 21
507.4364977597771
 31
0.0
  0
LINE
  5
103
330
1F
100
AcDbEntity
  8
0-0
  6
JWW_DASHED1
 62
   120
370
     5
100
AcDbLine
 10
576.0164563540035
 20
437.3359926949864
 30
0.0
 11
656.0164563540194
 21
517.3359926950011
 31
0.0
  0
LINE
  5
104
330
1F
100
AcDbEntity
  8
0-0
  6
JWW_DASHED1
 62
   120
370
     5
100
AcDbLine
 10
576.0164563540274
 20
447.2354876302259
 30
0.0
 11
656.0164563540262
 21
527.2354876302247
 31
0.0
  0
LINE
  5
105
330
1F
100
AcDbEntity
  8
0-0
  6
JWW_DASHED1
 62
   120
370
     5
100
AcDbLine
 10
576.0164563540154
 20
457.1349825653753
 30
0.0
 11
656.0164563540143
 21
537.1349825653738
 31
0.0
  0
LINE
  5
106
330
1F
100
AcDbEntity
  8
0-0
  6
JWW_DASHED1
 62
   120
370
     5
100
AcDbLine
 10
576.0164563540069
 20
467.0344775005831
 30
0.0
 11
656.0164563540211
 21
547.0344775005977
 31
0.0
  0
LINE
  5
107
330
1F
100
AcDbEntity
  8
0-0
  6
JWW_DASHED1
 62
   120
370
     5
100
AcDbLine
 10
576.0164563540308
 20
476.9339724358225
 30
0.0
 11
656.0164563540296
 21
556.9339724358213
 31
0.0
  0
LINE
  5
108
330
1F
100
AcDbEntity
  8
0-0
  6
JWW_DASHED1
 62
   120
370
     5
100
AcDbLine
 10
576.0164563540171
 20
486.8334673709715
 30
0.0
 11
656.016456354016
 21
566.8334673709703
 31
0.0
  0
LINE
  5
109
330
1F
100
AcDbEntity
  8
0-0
  6
JWW_DASHED1
 62
   120
370
     5
100
AcDbLine
 10
576.0164563540086
 20
496.7329623061797
 30
0.0
 11
656.0164563540228
 21
576.7329623061944
 31
0.0
  0
LINE
  5
10A
330
1F
100
AcDbEntity
  8
0-0
  6
JWW_DASHED1
 62
   120
370
     5
100
AcDbLine
 10
576.0164563540052
 20
506.6324572413923
 30
0.0
 11
656.0164563540194
 21
586.6324572414061
 31
0.0
  0
LINE
  5
10B
330
1F
100
AcDbEntity
  8
0-0
  6
JWW_DASHED1
 62
   120
370
     5
100
AcDbLine
 10
576.0164563540205
 20
516.5319521765686
 30
0.0
 11
656.0164563540194
 21
596.5319521765673
 31
0.0
  0
LINE
  5
10C
330
1F
100
AcDbEntity
  8
0-0
  6
JWW_DASHED1
 62
   120
370
     5
100
AcDbLine
 10
576.0164563540103
 20
526.4314471117764
 30
0.0
 11
656.0164563540092
 21
606.4314471117752
 31
0.0
  0
LINE
  5
10D
330
1F
100
AcDbEntity
  8
0-0
  6
JWW_DASHED1
 62
   120
370
     5
100
AcDbLine
 10
576.0164563540035
 20
536.3309420469847
 30
0.0
 11
656.016456354016
 21
616.3309420469989
 31
0.0
  0
LINE
  5
10E
330
1F
100
AcDbEntity
  8
0-0
  6
JWW_DASHED1
 62
   120
370
     5
100
AcDbLine
 10
576.0164563540205
 20
546.2304369821652
 30
0.0
 11
656.0164563540211
 21
626.2304369821641
 31
0.0
  0
LINE
  5
10F
330
1F
100
AcDbEntity
  8
0-0
  6
JWW_DASHED1
 62
   120
370
     5
100
AcDbLine
 10
576.0164563540137
 20
556.129931917373
 30
0.0
 11
656.0164563540126
 21
636.1299319173719
 31
0.0
  0
LINE
  5
110
330
1F
100
AcDbEntity
  8
0-0
  6
JWW_DASHED1
 62
   120
370
     5
100
AcDbLine
 10
576.0164563540052
 20
566.0294268525812
 30
0.0
 11
656.0164563540194
 21
646.0294268525954
 31
0.0
  0
LINE
  5
111
330
1F
100
AcDbEntity
  8
0-0
  6
JWW_DASHED1
 62
   120
370
     5
100
AcDbLine
 10
576.016456354024
 20
575.9289217877617
 30
0.0
 11
656.0164563540228
 21
655.9289217877606
 31
0.0
  0
LINE
  5
112
330
1F
100
AcDbEntity
  8
0-0
  6
JWW_DASHED1
 62
   120
370
     5
100
AcDbLine
 10
576.0164563540154
 20
585.82841672297
 30
0.0
 11
656.0164563540143
 21
665.8284167229684
 31
0.0
  0
LINE
  5
113
330
1F
100
AcDbEntity
  8
0-0
  6
JWW_DASHED1
 62
   120
370
     5
100
AcDbLine
 10
576.0164563540069
 20
595.7279116581778
 30
0.0
 11
656.0164563540228
 21
675.7279116581924
 31
0.0
  0
LINE
  5
114
330
1F
100
AcDbEntity
  8
0-0
  6
JWW_DASHED1
 62
   120
370
     5
100
AcDbLine
 10
576.0164563540256
 20
605.6274065933584
 30
0.0
 11
656.0164563540262
 21
685.6274065933576
 31
0.0
  0
LINE
  5
115
330
1F
100
AcDbEntity
  8
0-0
  6
JWW_DASHED1
 62
   120
370
     5
100
AcDbLine
 10
576.0164563540171
 20
615.5269015285667
 30
0.0
 11
656.016456354016
 21
695.5269015285651
 31
0.0
  0
LINE
  5
116
330
1F
100
AcDbEntity
  8
0-0
  6
JWW_DASHED1
 62
   120
370
     5
100
AcDbLine
 10
576.0164563540103
 20
625.4263964637744
 30
0.0
 11
656.0164563540092
 21
705.4263964637732
 31
0.0
  0
LINE
  5
117
330
1F
100
AcDbEntity
  8
0-0
  6
JWW_DASHED1
 62
   120
370
     5
100
AcDbLine
 10
576.0164563540274
 20
635.325891398955
 30
0.0
 11
656.0164563540262
 21
715.3258913989539
 31
0.0
  0
LINE
  5
118
330
1F
100
AcDbEntity
  8
0-0
  6
JWW_DASHED1
 62
   120
370
     5
100
AcDbLine
 10
576.0164563540205
 20
645.2253863341633
 30
0.0
 11
656.0164563540194
 21
725.2253863341616
 31
0.0
  0
LINE
  5
119
330
1F
100
AcDbEntity
  8
0-0
  6
JWW_DASHED1
 62
   120
370
     5
100
AcDbLine
 10
576.016456354012
 20
655.1248812693711
 30
0.0
 11
656.0164563540092
 21
735.12488126937
 31
0.0
  0
LINE
  5
11A
330
1F
100
AcDbEntity
  8
0-0
  6
JWW_DASHED1
 62
   120
370
     5
100
AcDbLine
 10
576.0164563540137
 20
665.0243762045359
 30
0.0
 11
656.0164563540296
 21
745.0243762045509
 31
0.0
  0
LINE
  5
11B
330
1F
100
AcDbEntity
  8
0-0
  6
JWW_DASHED1
 62
   120
370
     5
100
AcDbLine
 10
576.0164563540222
 20
674.9238711397599
 30
0.0
 11
656.0164563540211
 21
754.9238711397587
 31
0.0
  0
LINE
  5
11C
330
1F
100
AcDbEntity
  8
0-0
  6
JWW_DASHED1
 62
   120
370
     5
100
AcDbLine
 10
576.016456354012
 20
684.8233660749383
 30
0.0
 11
656.0164563540092
 21
764.8233660749372
 31
0.0
  0
LINE
  5
11D
330
1F
100
AcDbEntity
  8
0-0
  6
JWW_DASHED1
 62
   120
370
     5
100
AcDbLine
 10
576.0164563540035
 20
694.7228610101201
 30
0.0
 11
656.0164563540177
 21
774.7228610101334
 31
0.0
  0
LINE
  5
11E
330
1F
100
AcDbEntity
  8
0-0
  6
JWW_DASHED1
 62
   120
370
     5
100
AcDbLine
 10
576.016456354024
 20
704.6223559453565
 30
0.0
 11
656.0164563540228
 21
784.6223559453554
 31
0.0
  0
LINE
  5
11F
330
1F
100
AcDbEntity
  8
0-0
  6
JWW_DASHED1
 62
   120
370
     5
100
AcDbLine
 10
576.0164563540137
 20
714.5218508805353
 30
0.0
 11
656.0164563540126
 21
794.5218508805337
 31
0.0
  0
LINE
  5
120
330
1F
100
AcDbEntity
  8
0-0
  6
JWW_DASHED1
 62
   120
370
     5
100
AcDbLine
 10
576.0164563540035
 20
724.4213458157137
 30
0.0
 11
656.0164563540177
 21
804.4213458157279
 31
0.0
  0
LINE
  5
121
330
1F
100
AcDbEntity
  8
0-0
  6
JWW_DASHED1
 62
   120
370
     5
100
AcDbLine
 10
576.0164563540274
 20
734.3208407509536
 30
0.0
 11
656.0164563540262
 21
814.3208407509519
 31
0.0
  0
LINE
  5
122
330
1F
100
AcDbEntity
  8
0-0
  6
JWW_DASHED1
 62
   120
370
     5
100
AcDbLine
 10
576.0164563540171
 20
744.2203356861319
 30
0.0
 11
656.016456354016
 21
824.2203356861307
 31
0.0
  0
LINE
  5
123
330
1F
100
AcDbEntity
  8
0-0
  6
JWW_DASHED1
 62
   120
370
     5
100
AcDbLine
 10
576.0164563540069
 20
754.1198306213107
 30
0.0
 11
656.0164563540194
 21
834.119830621325
 31
0.0
  0
LINE
  5
124
330
1F
100
AcDbEntity
  8
0-0
  6
JWW_DASHED1
 62
   120
370
     5
100
AcDbLine
 10
576.0164563540137
 20
764.0193255565339
 30
0.0
 11
656.0164563540262
 21
844.0193255565487
 31
0.0
  0
LINE
  5
125
330
1F
100
AcDbEntity
  8
0-0
  6
JWW_DASHED1
 62
   120
370
     5
100
AcDbLine
 10
576.0164563540188
 20
773.9188204917286
 30
0.0
 11
656.016456354016
 21
853.918820491727
 31
0.0
  0
LINE
  5
126
330
1F
100
AcDbEntity
  8
0-0
  6
JWW_DASHED1
 62
   120
370
     5
100
AcDbLine
 10
576.0164563540069
 20
783.818315426907
 30
0.0
 11
656.0164563540058
 21
863.8183154269059
 31
0.0
  0
LINE
  5
127
330
1F
100
AcDbEntity
  8
0-0
  6
JWW_DASHED1
 62
   120
370
     5
100
AcDbLine
 10
576.0164563540018
 20
793.7178103621173
 30
0.0
 11
656.016456354016
 21
873.7178103621312
 31
0.0
  0
LINE
  5
128
330
1F
100
AcDbEntity
  8
0-0
  6
JWW_DASHED1
 62
   120
370
     5
100
AcDbLine
 10
576.0164563540171
 20
803.6173052972958
 30
0.0
 11
656.0164563540177
 21
883.6173052972947
 31
0.0
  0
LINE
  5
129
330
1F
100
AcDbEntity
  8
0-0
  6
JWW_DASHED1
 62
   120
370
     5
100
AcDbLine
 10
576.0164563540103
 20
813.516800232504
 30
0.0
 11
656.0164563540092
 21
893.5168002325025
 31
0.0
  0
LINE
  5
12A
330
1F
100
AcDbEntity
  8
0-0
  6
JWW_DASHED1
 62
   120
370
     5
100
AcDbLine
 10
576.0164563540018
 20
823.4162951677118
 30
0.0
 11
656.016456354016
 21
903.4162951677265
 31
0.0
  0
LINE
  5
12B
330
1F
100
AcDbEntity
  8
0-0
  6
JWW_DASHED1
 62
   120
370
     5
100
AcDbLine
 10
576.0164563540205
 20
833.3157901028924
 30
0.0
 11
656.0164563540194
 21
913.3157901028912
 31
0.0
  0
LINE
  5
12C
330
1F
100
AcDbEntity
  8
0-0
  6
JWW_DASHED1
 62
   120
370
     5
100
AcDbLine
 10
576.016456354012
 20
843.2152850381002
 30
0.0
 11
656.0164563540109
 21
923.2152850380991
 31
0.0
  0
LINE
  5
12D
330
1F
100
AcDbEntity
  8
0-0
  6
JWW_DASHED1
 62
   120
370
     5
100
AcDbLine
 10
576.0164563540035
 20
853.1147799733085
 30
0.0
 11
656.0164563540194
 21
933.114779973323
 31
0.0
  0
LINE
  5
12E
330
1F
100
AcDbEntity
  8
0-0
  6
JWW_DASHED1
 62
   120
370
     5
100
AcDbLine
 10
576.0164563540222
 20
863.0142749084886
 30
0.0
 11
656.0164563540211
 21
943.0142749084874
 31
0.0
  0
LINE
  5
12F
330
1F
100
AcDbEntity
  8
0-0
  6
JWW_DASHED1
 62
   120
370
     5
100
AcDbLine
 10
576.0164563540137
 20
872.9137698436973
 30
0.0
 11
656.0164563540126
 21
952.9137698436962
 31
0.0
  0
LINE
  5
130
330
1F
100
AcDbEntity
  8
0-0
  6
JWW_DASHED1
 62
   120
370
     5
100
AcDbLine
 10
576.0164563540069
 20
882.813264778905
 30
0.0
 11
656.0164563540211
 21
962.8132647789197
 31
0.0
  0
LINE
  5
131
330
1F
100
AcDbEntity
  8
0-0
  6
JWW_DASHED1
 62
   120
370
     5
100
AcDbLine
 10
576.016456354024
 20
892.7127597140857
 30
0.0
 11
656.0164563540228
 21
972.7127597140844
 31
0.0
  0
LINE
  5
132
330
1F
100
AcDbEntity
  8
0-0
  6
JWW_DASHED1
 62
   120
370
     5
100
AcDbLine
 10
576.0164563540171
 20
902.612254649294
 30
0.0
 11
656.016456354016
 21
982.6122546492927
 31
0.0
  0
LINE
  5
133
330
1F
100
AcDbEntity
  8
0-0
  6
JWW_DASHED1
 62
   120
370
     5
100
AcDbLine
 10
576.0164563540069
 20
912.5117495845018
 30
0.0
 11
656.0164563540075
 21
992.5117495845005
 31
0.0
  0
LINE
  5
134
330
1F
100
AcDbEntity
  8
0-0
  6
JWW_DASHED1
 62
   120
370
     5
100
AcDbLine
 10
576.0164563540274
 20
922.4112445196827
 30
0.0
 11
656.0164563540262
 21
1002.411244519682
 31
0.0
  0
LINE
  5
135
330
1F
100
AcDbEntity
  8
0-0
  6
JWW_DASHED1
 62
   120
370
     5
100
AcDbLine
 10
576.0164563540188
 20
932.3107394548905
 30
0.0
 11
656.0164563540177
 21
1012.310739454889
 31
0.0
  0
LINE
  5
136
330
1F
100
AcDbEntity
  8
0-0
  6
JWW_DASHED1
 62
   120
370
     5
100
AcDbLine
 10
576.0164563540103
 20
942.2102343900988
 30
0.0
 11
656.0164563540092
 21
1022.210234390097
 31
0.0
  0
LINE
  5
137
330
1F
100
AcDbEntity
  8
0-0
  6
JWW_DASHED1
 62
   120
370
     5
100
AcDbLine
 10
576.0164563539984
 20
952.1097293252482
 30
0.0
 11
656.0164563540126
 21
1032.109729325262
 31
0.0
  0
LINE
  5
138
330
1F
100
AcDbEntity
  8
0-0
  6
JWW_DASHED1
 62
   120
370
     5
100
AcDbLine
 10
576.0164563540205
 20
962.009224260487
 30
0.0
 11
656.0164563540194
 21
1042.009224260486
 31
0.0
  0
LINE
  5
139
330
1F
100
AcDbEntity
  8
0-0
  6
JWW_DASHED1
 62
   120
370
     5
100
AcDbLine
 10
576.0164563540137
 20
971.9087191956953
 30
0.0
 11
656.0164563540109
 21
1051.908719195694
 31
0.0
  0
LINE
  5
13A
330
1F
100
AcDbEntity
  8
0-0
  6
JWW_DASHED1
 62
   120
370
     5
100
AcDbLine
 10
576.0164563540001
 20
981.8082141308452
 30
0.0
 11
656.0164563540143
 21
1061.808214130859
 31
0.0
  0
LINE
  5
13B
330
1F
100
AcDbEntity
  8
0-0
  6
JWW_DASHED1
 62
   120
370
     5
100
AcDbLine
 10
576.016456354024
 20
991.7077090660841
 30
0.0
 11
653.1242106714687
 21
1068.815463383529
 31
0.0
  0
LINE
  5
13C
330
1F
100
AcDbEntity
  8
0-0
  6
JWW_DASHED1
 62
   120
370
     5
100
AcDbLine
 10
576.0164563540137
 20
1001.607204001292
 30
0.0
 11
643.2247157362609
 21
1068.815463383537
 31
0.0
  0
LINE
  5
13D
330
1F
100
AcDbEntity
  8
0-0
  6
JWW_DASHED1
 62
   120
370
     5
100
AcDbLine
 10
576.0164563540018
 20
1011.50669893644
 30
0.0
 11
633.3252208010991
 21
1068.815463383539
 31
0.0
  0
LINE
  5
13E
330
1F
100
AcDbEntity
  8
0-0
  6
JWW_DASHED1
 62
   120
370
     5
100
AcDbLine
 10
576.0164563540256
 20
1021.406193871681
 30
0.0
 11
623.4257258658726
 21
1068.815463383527
 31
0.0
  0
LINE
  5
13F
330
1F
100
AcDbEntity
  8
0-0
  6
JWW_DASHED1
 62
   120
370
     5
100
AcDbLine
 10
576.0164563540171
 20
1031.305688806889
 30
0.0
 11
613.526230930663
 21
1068.815463383535
 31
0.0
  0
LINE
  5
140
330
1F
100
AcDbEntity
  8
0-0
  6
JWW_DASHED1
 62
   120
370
     5
100
AcDbLine
 10
576.0164563540035
 20
1041.205183742038
 30
0.0
 11
603.626735995508
 21
1068.815463383542
 31
0.0
  0
LINE
  5
141
330
1F
100
AcDbEntity
  8
0-0
  6
JWW_DASHED1
 62
   120
370
     5
100
AcDbLine
 10
576.016456354012
 20
1051.104678677262
 30
0.0
 11
593.7272410602866
 21
1068.815463383537
 31
0.0
  0
LINE
  5
142
330
1F
100
AcDbEntity
  8
0-0
  6
JWW_DASHED1
 62
   120
370
     5
100
AcDbLine
 10
576.0164563540188
 20
1061.004173612485
 30
0.0
 11
583.8277461250651
 21
1068.815463383532
 31
0.0
  0
LINE
  5
143
330
1F
100
AcDbEntity
  8
0-0
  6
Continuous
 62
    92
370
    13
100
AcDbLine
 10
-713.9835436459812
 20
-906.1845366164666
 30
0.0
 11
-713.9835436459812
 21
1076.815463383533
 31
0.0
  0
LINE
  5
144
330
1F
100
AcDbEntity
  8
0-0
  6
Continuous
 62
     7
370
     9
100
AcDbLine
 10
-633.9835436459804
 20
-898.1845366164671
 30
0.0
 11
-713.9835436459812
 21
-898.1845366164671
 31
0.0
  0
LINE
  5
145
330
1F
100
AcDbEntity
  8
0-0
  6
Continuous
 62
     7
370
     9
100
AcDbLine
 10
-633.9835436459804
 20
1068.815463383534
 30
0.0
 11
-713.9835436459812
 21
1068.815463383534
 31
0.0
  0
LINE
  5
146
330
1F
100
AcDbEntity
  8
0-0
  6
Continuous
 62
    92
370
    13
100
AcDbLine
 10
-633.9835436459804
 20
-906.1845366164666
 30
0.0
 11
-633.9835436459804
 21
1076.815463383533
 31
0.0
  0
LINE
  5
147
330
1F
100
AcDbEntity
  8
0-0
  6
JWW_DASHED1
 62
   120
370
     5
100
AcDbLine
 10
-704.1912951325987
 20
-898.1845366164858
 30
0.0
 11
-713.9835436460031
 21
-888.392288103082
 31
0.0
  0
LINE
  5
148
330
1F
100
AcDbEntity
  8
0-0
  6
JWW_DASHED1
 62
   120
370
     5
100
AcDbLine
 10
-694.2918001973873
 20
-898.1845366164797
 30
0.0
 11
-713.9835436459929
 21
-878.4927931678741
 31
0.0
  0
LINE
  5
149
330
1F
100
AcDbEntity
  8
0-0
  6
JWW_DASHED1
 62
   120
370
     5
100
AcDbLine
 10
-684.3923052622391
 20
-898.1845366164671
 30
0.0
 11
-713.9835436459812
 21
-868.5932982327253
 31
0.0
  0
LINE
  5
14A
330
1F
100
AcDbEntity
  8
0-0
  6
JWW_DASHED1
 62
   120
370
     5
100
AcDbLine
 10
-674.4928103270057
 20
-898.1845366164831
 30
0.0
 11
-713.9835436460031
 21
-858.6938032974857
 31
0.0
  0
LINE
  5
14B
330
1F
100
AcDbEntity
  8
0-0
  6
JWW_DASHED1
 62
   120
370
     5
100
AcDbLine
 10
-664.5933153917913
 20
-898.1845366164824
 30
0.0
 11
-713.9835436459963
 21
-848.7943083622772
 31
0.0
  0
LINE
  5
14C
330
1F
100
AcDbEntity
  8
0-0
  6
JWW_DASHED1
 62
   120
370
     5
100
AcDbLine
 10
-654.6938204566412
 20
-898.1845366164695
 30
0.0
 11
-713.9835436459826
 21
-838.894813427128
 31
0.0
  0
LINE
  5
14D
330
1F
100
AcDbEntity
  8
0-0
  6
JWW_DASHED1
 62
   120
370
     5
100
AcDbLine
 10
-644.7943255214317
 20
-898.1845366164637
 30
0.0
 11
-713.9835436459895
 21
-828.9953184919049
 31
0.0
  0
LINE
  5
14E
330
1F
100
AcDbEntity
  8
0-0
  6
JWW_DASHED1
 62
   120
370
     5
100
AcDbLine
 10
-634.8948305861934
 20
-898.1845366164849
 30
0.0
 11
-713.9835436459982
 21
-819.095823556681
 31
0.0
  0
LINE
  5
14F
330
1F
100
AcDbEntity
  8
0-0
  6
JWW_DASHED1
 62
   120
370
     5
100
AcDbLine
 10
-633.9835436459872
 20
-889.1963286215304
 30
0.0
 11
-713.9835436459861
 21
-809.1963286215315
 31
0.0
  0
LINE
  5
150
330
1F
100
AcDbEntity
  8
0-0
  6
JWW_DASHED1
 62
   120
370
     5
100
AcDbLine
 10
-633.9835436459789
 20
-879.2968336863222
 30
0.0
 11
-713.9835436459929
 21
-799.296833686308
 31
0.0
  0
LINE
  5
151
330
1F
100
AcDbEntity
  8
0-0
  6
JWW_DASHED1
 62
   120
370
     5
100
AcDbLine
 10
-633.9835436459857
 20
-869.3973387510981
 30
0.0
 11
-713.9835436459997
 21
-789.3973387510838
 31
0.0
  0
LINE
  5
152
330
1F
100
AcDbEntity
  8
0-0
  6
JWW_DASHED1
 62
   120
370
     5
100
AcDbLine
 10
-633.9835436459891
 20
-859.4978438159338
 30
0.0
 11
-713.983543645988
 21
-779.497843815935
 31
0.0
  0
LINE
  5
153
330
1F
100
AcDbEntity
  8
0-0
  6
JWW_DASHED1
 62
   120
370
     5
100
AcDbLine
 10
-633.9835436459804
 20
-849.5983488807256
 30
0.0
 11
-713.9835436459792
 21
-769.5983488807271
 31
0.0
  0
LINE
  5
154
330
1F
100
AcDbEntity
  8
0-0
  6
JWW_DASHED1
 62
   120
370
     5
100
AcDbLine
 10
-633.9835436459872
 20
-839.6988539455028
 30
0.0
 11
-713.9835436460016
 21
-759.6988539454886
 31
0.0
  0
LINE
  5
155
330
1F
100
AcDbEntity
  8
0-0
  6
JWW_DASHED1
 62
   120
370
     5
100
AcDbLine
 10
-633.9835436459906
 20
-829.7993590103372
 30
0.0
 11
-713.9835436459895
 21
-749.7993590103383
 31
0.0
  0
LINE
  5
156
330
1F
100
AcDbEntity
  8
0-0
  6
JWW_DASHED1
 62
   120
370
     5
100
AcDbLine
 10
-633.9835436459838
 20
-819.8998640751289
 30
0.0
 11
-713.9835436459812
 21
-739.8998640751305
 31
0.0
  0
LINE
  5
157
330
1F
100
AcDbEntity
  8
0-0
  6
JWW_DASHED1
 62
   120
370
     5
100
AcDbLine
 10
-633.9835436459736
 20
-810.000369139921
 30
0.0
 11
-713.9835436459895
 21
-730.0003691399064
 31
0.0
  0
LINE
  5
158
330
1F
100
AcDbEntity
  8
0-0
  6
JWW_DASHED1
 62
   120
370
     5
100
AcDbLine
 10
-633.983543645994
 20
-800.1008742047401
 30
0.0
 11
-713.9835436459929
 21
-720.1008742047417
 31
0.0
  0
LINE
  5
159
330
1F
100
AcDbEntity
  8
0-0
  6
JWW_DASHED1
 62
   120
370
     5
100
AcDbLine
 10
-633.9835436459838
 20
-790.2013792695323
 30
0.0
 11
-713.9835436459826
 21
-710.2013792695334
 31
0.0
  0
LINE
  5
15A
330
1F
100
AcDbEntity
  8
0-0
  6
JWW_DASHED1
 62
   120
370
     5
100
AcDbLine
 10
-633.983543645977
 20
-780.3018843343241
 30
0.0
 11
-713.9835436459914
 21
-700.3018843343099
 31
0.0
  0
LINE
  5
15B
330
1F
100
AcDbEntity
  8
0-0
  6
JWW_DASHED1
 62
   120
370
     5
100
AcDbLine
 10
-633.983543645996
 20
-770.4023893991439
 30
0.0
 11
-713.9835436459948
 21
-690.4023893991447
 31
0.0
  0
LINE
  5
15C
330
1F
100
AcDbEntity
  8
0-0
  6
JWW_DASHED1
 62
   120
370
     5
100
AcDbLine
 10
-633.9835436459872
 20
-760.5028944639357
 30
0.0
 11
-713.9835436459861
 21
-680.5028944639369
 31
0.0
  0
LINE
  5
15D
330
1F
100
AcDbEntity
  8
0-0
  6
JWW_DASHED1
 62
   120
370
     5
100
AcDbLine
 10
-633.9835436459789
 20
-750.6033995287279
 30
0.0
 11
-713.9835436459929
 21
-670.6033995287127
 31
0.0
  0
LINE
  5
15E
330
1F
100
AcDbEntity
  8
0-0
  6
JWW_DASHED1
 62
   120
370
     5
100
AcDbLine
 10
-633.9835436459974
 20
-740.7039045935469
 30
0.0
 11
-713.9835436459963
 21
-660.703904593548
 31
0.0
  0
LINE
  5
15F
330
1F
100
AcDbEntity
  8
0-0
  6
JWW_DASHED1
 62
   120
370
     5
100
AcDbLine
 10
-633.9835436459891
 20
-730.8044096583391
 30
0.0
 11
-713.983543645988
 21
-650.8044096583402
 31
0.0
  0
LINE
  5
160
330
1F
100
AcDbEntity
  8
0-0
  6
JWW_DASHED1
 62
   120
370
     5
100
AcDbLine
 10
-633.9835436459804
 20
-720.9049147231307
 30
0.0
 11
-713.9835436459792
 21
-640.9049147231318
 31
0.0
  0
LINE
  5
161
330
1F
100
AcDbEntity
  8
0-0
  6
JWW_DASHED1
 62
   120
370
     5
100
AcDbLine
 10
-633.9835436460008
 20
-711.0054197879502
 30
0.0
 11
-713.9835436459997
 21
-631.0054197879514
 31
0.0
  0
LINE
  5
162
330
1F
100
AcDbEntity
  8
0-0
  6
JWW_DASHED1
 62
   120
370
     5
100
AcDbLine
 10
-633.9835436459906
 20
-701.1059248527423
 30
0.0
 11
-713.9835436459895
 21
-621.1059248527434
 31
0.0
  0
LINE
  5
163
330
1F
100
AcDbEntity
  8
0-0
  6
JWW_DASHED1
 62
   120
370
     5
100
AcDbLine
 10
-633.9835436459838
 20
-691.2064299175341
 30
0.0
 11
-713.9835436459826
 21
-611.2064299175353
 31
0.0
  0
LINE
  5
164
330
1F
100
AcDbEntity
  8
0-0
  6
JWW_DASHED1
 62
   120
370
     5
100
AcDbLine
 10
-633.9835436459838
 20
-681.306934982371
 30
0.0
 11
-713.9835436459982
 21
-601.3069349823569
 31
0.0
  0
LINE
  5
165
330
1F
100
AcDbEntity
  8
0-0
  6
JWW_DASHED1
 62
   120
370
     5
100
AcDbLine
 10
-633.983543645994
 20
-671.4074400471454
 30
0.0
 11
-713.9835436459929
 21
-591.4074400471466
 31
0.0
  0
LINE
  5
166
330
1F
100
AcDbEntity
  8
0-0
  6
JWW_DASHED1
 62
   120
370
     5
100
AcDbLine
 10
-633.9835436459857
 20
-661.5079451119376
 30
0.0
 11
-713.9835436459846
 21
-581.5079451119387
 31
0.0
  0
LINE
  5
167
330
1F
100
AcDbEntity
  8
0-0
  6
JWW_DASHED1
 62
   120
370
     5
100
AcDbLine
 10
-633.9835436459736
 20
-651.6084501767886
 30
0.0
 11
-713.9835436459861
 21
-571.6084501767735
 31
0.0
  0
LINE
  5
168
330
1F
100
AcDbEntity
  8
0-0
  6
JWW_DASHED1
 62
   120
370
     5
100
AcDbLine
 10
-633.983543645996
 20
-641.7089552415488
 30
0.0
 11
-713.9835436459948
 21
-561.7089552415499
 31
0.0
  0
LINE
  5
169
330
1F
100
AcDbEntity
  8
0-0
  6
JWW_DASHED1
 62
   120
370
     5
100
AcDbLine
 10
-633.9835436459872
 20
-631.8094603063404
 30
0.0
 11
-713.9835436459861
 21
-551.8094603063421
 31
0.0
  0
LINE
  5
16A
330
1F
100
AcDbEntity
  8
0-0
  6
JWW_DASHED1
 62
   120
370
     5
100
AcDbLine
 10
-633.9835436459755
 20
-621.9099653711916
 30
0.0
 11
-713.9835436459895
 21
-541.9099653711773
 31
0.0
  0
LINE
  5
16B
330
1F
100
AcDbEntity
  8
0-0
  6
JWW_DASHED1
 62
   120
370
     5
100
AcDbLine
 10
-633.9835436459974
 20
-612.010470435952
 30
0.0
 11
-713.9835436459963
 21
-532.0104704359532
 31
0.0
  0
LINE
  5
16C
330
1F
100
AcDbEntity
  8
0-0
  6
JWW_DASHED1
 62
   120
370
     5
100
AcDbLine
 10
-633.9835436459906
 20
-602.1109755007443
 30
0.0
 11
-713.9835436459895
 21
-522.1109755007454
 31
0.0
  0
LINE
  5
16D
330
1F
100
AcDbEntity
  8
0-0
  6
JWW_DASHED1
 62
   120
370
     5
100
AcDbLine
 10
-633.983543645977
 20
-592.2114805655954
 30
0.0
 11
-713.9835436459929
 21
-512.2114805655802
 31
0.0
  0
LINE
  5
16E
330
1F
100
AcDbEntity
  8
0-0
  6
JWW_DASHED1
 62
   120
370
     5
100
AcDbLine
 10
-633.9835436459838
 20
-582.3119856303712
 30
0.0
 11
-713.9835436459997
 21
-502.3119856303567
 31
0.0
  0
LINE
  5
16F
330
1F
100
AcDbEntity
  8
0-0
  6
JWW_DASHED1
 62
   120
370
     5
100
AcDbLine
 10
-633.9835436459925
 20
-572.4124906951473
 30
0.0
 11
-713.9835436459914
 21
-492.4124906951484
 31
0.0
  0
LINE
  5
170
330
1F
100
AcDbEntity
  8
0-0
  6
JWW_DASHED1
 62
   120
370
     5
100
AcDbLine
 10
-633.9835436459804
 20
-562.5129957599983
 30
0.0
 11
-713.9835436459792
 21
-482.5129957599994
 31
0.0
  0
LINE
  5
171
330
1F
100
AcDbEntity
  8
0-0
  6
JWW_DASHED1
 62
   120
370
     5
100
AcDbLine
 10
-633.9835436459838
 20
-552.6135008247777
 30
0.0
 11
-713.9835436459982
 21
-472.6135008247634
 31
0.0
  0
LINE
  5
172
330
1F
100
AcDbEntity
  8
0-0
  6
JWW_DASHED1
 62
   120
370
     5
100
AcDbLine
 10
-633.983543645994
 20
-542.7140058895507
 30
0.0
 11
-713.9835436459929
 21
-462.7140058895522
 31
0.0
  0
LINE
  5
173
330
1F
100
AcDbEntity
  8
0-0
  6
JWW_DASHED1
 62
   120
370
     5
100
AcDbLine
 10
-633.9835436459823
 20
-532.8145109544013
 30
0.0
 11
-713.9835436459792
 21
-452.8145109544028
 31
0.0
  0
LINE
  5
174
330
1F
100
AcDbEntity
  8
0-0
  6
JWW_DASHED1
 62
   120
370
     5
100
AcDbLine
 10
-633.9835436459736
 20
-522.9150160191938
 30
0.0
 11
-713.983543645988
 21
-442.9150160191792
 31
0.0
  0
LINE
  5
175
330
1F
100
AcDbEntity
  8
0-0
  6
JWW_DASHED1
 62
   120
370
     5
100
AcDbLine
 10
-633.983543645994
 20
-513.0155210839839
 30
0.0
 11
-713.9835436459929
 21
-433.015521083985
 31
0.0
  0
LINE
  5
176
330
1F
100
AcDbEntity
  8
0-0
  6
JWW_DASHED1
 62
   120
370
     5
100
AcDbLine
 10
-633.9835436459838
 20
-503.116026148805
 30
0.0
 11
-713.9835436459826
 21
-423.1160261488062
 31
0.0
  0
LINE
  5
177
330
1F
100
AcDbEntity
  8
0-0
  6
JWW_DASHED1
 62
   120
370
     5
100
AcDbLine
 10
-633.9835436459755
 20
-493.2165312135972
 30
0.0
 11
-713.9835436459895
 21
-413.2165312135821
 31
0.0
  0
LINE
  5
178
330
1F
100
AcDbEntity
  8
0-0
  6
JWW_DASHED1
 62
   120
370
     5
100
AcDbLine
 10
-633.9835436459974
 20
-483.3170362783868
 30
0.0
 11
-713.9835436459948
 21
-403.3170362783879
 31
0.0
  0
LINE
  5
179
330
1F
100
AcDbEntity
  8
0-0
  6
JWW_DASHED1
 62
   120
370
     5
100
AcDbLine
 10
-633.9835436459857
 20
-473.417541343208
 30
0.0
 11
-713.9835436459846
 21
-393.4175413432091
 31
0.0
  0
LINE
  5
17A
330
1F
100
AcDbEntity
  8
0-0
  6
JWW_DASHED1
 62
   120
370
     5
100
AcDbLine
 10
-633.983543645977
 20
-463.5180464080001
 30
0.0
 11
-713.9835436459929
 21
-383.5180464079859
 31
0.0
  0
LINE
  5
17B
330
1F
100
AcDbEntity
  8
0-0
  6
JWW_DASHED1
 62
   120
370
     5
100
AcDbLine
 10
-633.9835436459974
 20
-453.6185514728196
 30
0.0
 11
-713.9835436459963
 21
-373.6185514728207
 31
0.0
  0
LINE
  5
17C
330
1F
100
AcDbEntity
  8
0-0
  6
JWW_DASHED1
 62
   120
370
     5
100
AcDbLine
 10
-633.9835436459872
 20
-443.7190565376118
 30
0.0
 11
-713.9835436459861
 21
-363.7190565376129
 31
0.0
  0
LINE
  5
17D
330
1F
100
AcDbEntity
  8
0-0
  6
JWW_DASHED1
 62
   120
370
     5
100
AcDbLine
 10
-633.9835436459804
 20
-433.8195616024036
 30
0.0
 11
-713.9835436459792
 21
-353.8195616024047
 31
0.0
  0
LINE
  5
17E
330
1F
100
AcDbEntity
  8
0-0
  6
JWW_DASHED1
 62
   120
370
     5
100
AcDbLine
 10
-633.9835436459994
 20
-423.9200666672226
 30
0.0
 11
-713.9835436459982
 21
-343.9200666672241
 31
0.0
  0
LINE
  5
17F
330
1F
100
AcDbEntity
  8
0-0
  6
JWW_DASHED1
 62
   120
370
     5
100
AcDbLine
 10
-633.9835436459906
 20
-414.0205717320147
 30
0.0
 11
-713.9835436459895
 21
-334.0205717320159
 31
0.0
  0
LINE
  5
180
330
1F
100
AcDbEntity
  8
0-0
  6
JWW_DASHED1
 62
   120
370
     5
100
AcDbLine
 10
-633.9835436459823
 20
-404.1210767968069
 30
0.0
 11
-713.9835436459812
 21
-324.121076796808
 31
0.0
  0
LINE
  5
181
330
1F
100
AcDbEntity
  8
0-0
  6
JWW_DASHED1
 62
   120
370
     5
100
AcDbLine
 10
-633.9835436459804
 20
-394.221581861646
 30
0.0
 11
-713.9835436459948
 21
-314.2215818616322
 31
0.0
  0
LINE
  5
182
330
1F
100
AcDbEntity
  8
0-0
  6
JWW_DASHED1
 62
   120
370
     5
100
AcDbLine
 10
-633.9835436459925
 20
-384.3220869264185
 30
0.0
 11
-713.9835436459914
 21
-304.3220869264197
 31
0.0
  0
LINE
  5
183
330
1F
100
AcDbEntity
  8
0-0
  6
JWW_DASHED1
 62
   120
370
     5
100
AcDbLine
 10
-633.9835436459838
 20
-374.4225919912103
 30
0.0
 11
-713.9835436459826
 21
-294.422591991211
 31
0.0
  0
LINE
  5
184
330
1F
100
AcDbEntity
  8
0-0
  6
JWW_DASHED1
 62
   120
370
     5
100
AcDbLine
 10
-633.9835436459701
 20
-364.5230970560613
 30
0.0
 11
-713.9835436459861
 21
-284.5230970560467
 31
0.0
  0
LINE
  5
185
330
1F
100
AcDbEntity
  8
0-0
  6
JWW_DASHED1
 62
   120
370
     5
100
AcDbLine
 10
-633.983543645994
 20
-354.6236021208215
 30
0.0
 11
-713.9835436459929
 21
-274.6236021208226
 31
0.0
  0
LINE
  5
186
330
1F
100
AcDbEntity
  8
0-0
  6
JWW_DASHED1
 62
   120
370
     5
100
AcDbLine
 10
-633.9835436459872
 20
-344.7241071856137
 30
0.0
 11
-713.9835436459861
 21
-264.7241071856148
 31
0.0
  0
LINE
  5
187
330
1F
100
AcDbEntity
  8
0-0
  6
JWW_DASHED1
 62
   120
370
     5
100
AcDbLine
 10
-633.9835436459736
 20
-334.8246122504647
 30
0.0
 11
-713.983543645988
 21
-254.82461225045
 31
0.0
  0
LINE
  5
188
330
1F
100
AcDbEntity
  8
0-0
  6
JWW_DASHED1
 62
   120
370
     5
100
AcDbLine
 10
-633.9835436459974
 20
-324.9251173152244
 30
0.0
 11
-713.9835436459963
 21
-244.925117315226
 31
0.0
  0
LINE
  5
189
330
1F
100
AcDbEntity
  8
0-0
  6
JWW_DASHED1
 62
   120
370
     5
100
AcDbLine
 10
-633.9835436459891
 20
-315.0256223800166
 30
0.0
 11
-713.983543645988
 21
-235.0256223800178
 31
0.0
  0
LINE
  5
18A
330
1F
100
AcDbEntity
  8
0-0
  6
JWW_DASHED1
 62
   120
370
     5
100
AcDbLine
 10
-633.983543645977
 20
-305.1261274448676
 30
0.0
 11
-713.9835436459895
 21
-225.126127444853
 31
0.0
  0
LINE
  5
18B
330
1F
100
AcDbEntity
  8
0-0
  6
JWW_DASHED1
 62
   120
370
     5
100
AcDbLine
 10
-633.9835436459838
 20
-295.226632509644
 30
0.0
 11
-713.9835436459982
 21
-215.2266325096294
 31
0.0
  0
LINE
  5
18C
330
1F
100
AcDbEntity
  8
0-0
  6
JWW_DASHED1
 62
   120
370
     5
100
AcDbLine
 10
-633.9835436459906
 20
-285.32713757442
 30
0.0
 11
-713.9835436459895
 21
-205.3271375744216
 31
0.0
  0
LINE
  5
18D
330
1F
100
AcDbEntity
  8
0-0
  6
JWW_DASHED1
 62
   120
370
     5
100
AcDbLine
 10
-633.983543645977
 20
-275.427642639271
 30
0.0
 11
-713.9835436459758
 21
-195.4276426392721
 31
0.0
  0
LINE
  5
18E
330
1F
100
AcDbEntity
  8
0-0
  6
JWW_DASHED1
 62
   120
370
     5
100
AcDbLine
 10
-633.9835436459804
 20
-265.5281477040525
 30
0.0
 11
-713.9835436459948
 21
-185.5281477040383
 31
0.0
  0
LINE
  5
18F
330
1F
100
AcDbEntity
  8
0-0
  6
JWW_DASHED1
 62
   120
370
     5
100
AcDbLine
 10
-633.9835436459925
 20
-255.6286527688234
 30
0.0
 11
-713.9835436459929
 21
-175.6286527688245
 31
0.0
  0
LINE
  5
190
330
1F
100
AcDbEntity
  8
0-0
  6
JWW_DASHED1
 62
   120
370
     5
100
AcDbLine
 10
-633.9835436459804
 20
-245.7291578336744
 30
0.0
 11
-713.9835436459792
 21
-165.7291578336755
 31
0.0
  0
LINE
  5
191
330
1F
100
AcDbEntity
  8
0-0
  6
JWW_DASHED1
 62
   120
370
     5
100
AcDbLine
 10
-633.9835436459721
 20
-235.8296628984666
 30
0.0
 11
-713.9835436459861
 21
-155.8296628984515
 31
0.0
  0
LINE
  5
192
330
1F
100
AcDbEntity
  8
0-0
  6
JWW_DASHED1
 62
   120
370
     5
100
AcDbLine
 10
-633.983543645996
 20
-225.9301679632263
 30
0.0
 11
-713.9835436459929
 21
-145.9301679632283
 31
0.0
  0
LINE
  5
193
330
1F
100
AcDbEntity
  8
0-0
  6
JWW_DASHED1
 62
   120
370
     5
100
AcDbLine
 10
-633.9835436459823
 20
-216.0306730280778
 30
0.0
 11
-713.9835436459812
 21
-136.0306730280785
 31
0.0
  0
LINE
  5
194
330
1F
100
AcDbEntity
  8
0-0
  6
JWW_DASHED1
 62
   120
370
     5
100
AcDbLine
 10
-633.9835436459736
 20
-206.1311780928695
 30
0.0
 11
-713.9835436459895
 21
-126.1311780928549
 31
0.0
  0
LINE
  5
195
330
1F
100
AcDbEntity
  8
0-0
  6
JWW_DASHED1
 62
   120
370
     5
100
AcDbLine
 10
-633.9835436459823
 20
-196.2316831576455
 30
0.0
 11
-713.9835436459963
 21
-116.2316831576313
 31
0.0
  0
LINE
  5
196
330
1F
100
AcDbEntity
  8
0-0
  6
JWW_DASHED1
 62
   120
370
     5
100
AcDbLine
 10
-633.9835436459838
 20
-186.3321882224807
 30
0.0
 11
-713.9835436459826
 21
-106.3321882224823
 31
0.0
  0
LINE
  5
197
330
1F
100
AcDbEntity
  8
0-0
  6
JWW_DASHED1
 62
   120
370
     5
100
AcDbLine
 10
-633.983543645977
 20
-176.4326932872729
 30
0.0
 11
-713.9835436459758
 21
-96.43269328727445
 31
0.0
  0
LINE
  5
198
330
1F
100
AcDbEntity
  8
0-0
  6
JWW_DASHED1
 62
   120
370
     5
100
AcDbLine
 10
-633.983543645977
 20
-166.5331983520553
 30
0.0
 11
-713.9835436459929
 21
-86.53319835204104
 31
0.0
  0
LINE
  5
199
330
1F
100
AcDbEntity
  8
0-0
  6
JWW_DASHED1
 62
   120
370
     5
100
AcDbLine
 10
-633.9835436459872
 20
-156.6337034168841
 30
0.0
 11
-713.9835436459861
 21
-76.63370341688523
 31
0.0
  0
LINE
  5
19A
330
1F
100
AcDbEntity
  8
0-0
  6
JWW_DASHED1
 62
   120
370
     5
100
AcDbLine
 10
-633.9835436459789
 20
-146.7342084816763
 30
0.0
 11
-713.9835436459778
 21
-66.7342084816774
 31
0.0
  0
LINE
  5
19B
330
1F
100
AcDbEntity
  8
0-0
  6
JWW_DASHED1
 62
   120
370
     5
100
AcDbLine
 10
-633.9835436459701
 20
-136.8347135464684
 30
0.0
 11
-713.9835436459846
 21
-56.83471354645381
 31
0.0
  0
LINE
  5
19C
330
1F
100
AcDbEntity
  8
0-0
  6
JWW_DASHED1
 62
   120
370
     5
100
AcDbLine
 10
-633.9835436459891
 20
-126.9352186112875
 30
0.0
 11
-713.983543645988
 21
-46.93521861128861
 31
0.0
  0
LINE
  5
19D
330
1F
100
AcDbEntity
  8
0-0
  6
JWW_DASHED1
 62
   120
370
     5
100
AcDbLine
 10
-633.9835436459804
 20
-117.0357236760796
 30
0.0
 11
-713.9835436459792
 21
-37.03572367608036
 31
0.0
  0
LINE
  5
19E
330
1F
100
AcDbEntity
  8
0-0
  6
JWW_DASHED1
 62
   120
370
     5
100
AcDbLine
 10
-633.9835436459736
 20
-107.1362287408714
 30
0.0
 11
-713.9835436459861
 21
-27.13622874085718
 31
0.0
  0
LINE
  5
19F
330
1F
100
AcDbEntity
  8
0-0
  6
JWW_DASHED1
 62
   120
370
     5
100
AcDbLine
 10
-633.9835436459906
 20
-97.23673380569085
 30
0.0
 11
-713.9835436459895
 21
-17.23673380569199
 31
0.0
  0
LINE
  5
1A0
330
1F
100
AcDbEntity
  8
0-0
  6
JWW_DASHED1
 62
   120
370
     5
100
AcDbLine
 10
-633.9835436459838
 20
-87.33723887048302
 30
0.0
 11
-713.9835436459826
 21
-7.337238870484164
 31
0.0
  0
LINE
  5
1A1
330
1F
100
AcDbEntity
  8
0-0
  6
JWW_DASHED1
 62
   120
370
     5
100
AcDbLine
 10
-633.9835436459736
 20
-77.4377439352752
 30
0.0
 11
-713.9835436459895
 21
2.562256064739863
 31
0.0
  0
LINE
  5
1A2
330
1F
100
AcDbEntity
  8
0-0
  6
JWW_DASHED1
 62
   120
370
     5
100
AcDbLine
 10
-633.983543645994
 20
-67.53824900009423
 30
0.0
 11
-713.9835436459929
 21
12.46175099990463
 31
0.0
  0
LINE
  5
1A3
330
1F
100
AcDbEntity
  8
0-0
  6
JWW_DASHED1
 62
   120
370
     5
100
AcDbLine
 10
-633.9835436459857
 20
-57.63875406488598
 30
0.0
 11
-713.9835436459846
 21
22.36124593511246
 31
0.0
  0
LINE
  5
1A4
330
1F
100
AcDbEntity
  8
0-0
  6
JWW_DASHED1
 62
   120
370
     5
100
AcDbLine
 10
-633.983543645977
 20
-47.73925912967815
 30
0.0
 11
-713.9835436459758
 21
32.26074087032071
 31
0.0
  0
LINE
  5
1A5
330
1F
100
AcDbEntity
  8
0-0
  6
JWW_DASHED1
 62
   120
370
     5
100
AcDbLine
 10
-633.983543645996
 20
-37.83976419449761
 30
0.0
 11
-713.9835436459948
 21
42.16023580550125
 31
0.0
  0
LINE
  5
1A6
330
1F
100
AcDbEntity
  8
0-0
  6
JWW_DASHED1
 62
   120
370
     5
100
AcDbLine
 10
-633.9835436459872
 20
-27.94026925928936
 30
0.0
 11
-713.9835436459861
 21
52.05973074070908
 31
0.0
  0
LINE
  5
1A7
330
1F
100
AcDbEntity
  8
0-0
  6
JWW_DASHED1
 62
   120
370
     5
100
AcDbLine
 10
-633.9835436459789
 20
-18.04077432408111
 30
0.0
 11
-713.9835436459778
 21
61.95922567591733
 31
0.0
  0
LINE
  5
1A8
330
1F
100
AcDbEntity
  8
0-0
  6
JWW_DASHED1
 62
   120
370
     5
100
AcDbLine
 10
-633.9835436459823
 20
-8.141279388916765
 30
0.0
 11
-713.9835436459963
 21
71.8587206110983
 31
0.0
  0
LINE
  5
1A9
330
1F
100
AcDbEntity
  8
0-0
  6
JWW_DASHED1
 62
   120
370
     5
100
AcDbLine
 10
-633.9835436459906
 20
1.758215546307262
 30
0.0
 11
-713.9835436459895
 21
81.75821554630613
 31
0.0
  0
LINE
  5
1AA
330
1F
100
AcDbEntity
  8
0-0
  6
JWW_DASHED1
 62
   120
370
     5
100
AcDbLine
 10
-633.9835436459804
 20
11.65771048151509
 30
0.0
 11
-713.9835436459792
 21
91.65771048151396
 31
0.0
  0
LINE
  5
1AB
330
1F
100
AcDbEntity
  8
0-0
  6
JWW_DASHED1
 62
   120
370
     5
100
AcDbLine
 10
-633.983543645977
 20
21.55720541667261
 30
0.0
 11
-713.9835436459895
 21
101.5572054166864
 31
0.0
  0
LINE
  5
1AC
330
1F
100
AcDbEntity
  8
0-0
  6
JWW_DASHED1
 62
   120
370
     5
100
AcDbLine
 10
-633.9835436459925
 20
31.45670035190431
 30
0.0
 11
-713.9835436459895
 21
111.4567003519028
 31
0.0
  0
LINE
  5
1AD
330
1F
100
AcDbEntity
  8
0-0
  6
JWW_DASHED1
 62
   120
370
     5
100
AcDbLine
 10
-633.9835436459838
 20
41.35619528711171
 30
0.0
 11
-713.9835436459826
 21
121.356195287111
 31
0.0
  0
LINE
  5
1AE
330
1F
100
AcDbEntity
  8
0-0
  6
JWW_DASHED1
 62
   120
370
     5
100
AcDbLine
 10
-633.9835436459701
 20
51.25569022226113
 30
0.0
 11
-713.9835436459861
 21
131.2556902222753
 31
0.0
  0
LINE
  5
1AF
330
1F
100
AcDbEntity
  8
0-0
  6
JWW_DASHED1
 62
   120
370
     5
100
AcDbLine
 10
-633.983543645994
 20
61.1551851575005
 30
0.0
 11
-713.9835436459929
 21
141.1551851574994
 31
0.0
  0
LINE
  5
1B0
330
1F
100
AcDbEntity
  8
0-0
  6
JWW_DASHED1
 62
   120
370
     5
100
AcDbLine
 10
-633.9835436459857
 20
71.05468009270834
 30
0.0
 11
-713.9835436459846
 21
151.0546800927072
 31
0.0
  0
LINE
  5
1B1
330
1F
100
AcDbEntity
  8
0-0
  6
JWW_DASHED1
 62
   120
370
     5
100
AcDbLine
 10
-633.9835436459736
 20
80.95417502785818
 30
0.0
 11
-713.983543645988
 21
160.9541750278724
 31
0.0
  0
LINE
  5
1B2
330
1F
100
AcDbEntity
  8
0-0
  6
JWW_DASHED1
 62
   120
370
     5
100
AcDbLine
 10
-633.9835436459804
 20
90.85366996308136
 30
0.0
 11
-713.9835436459948
 21
170.853669963096
 31
0.0
  0
LINE
  5
1B3
330
1F
100
AcDbEntity
  8
0-0
  6
JWW_DASHED1
 62
   120
370
     5
100
AcDbLine
 10
-633.9835436459872
 20
100.7531648983054
 30
0.0
 11
-713.9835436459861
 21
180.7531648983042
 31
0.0
  0
LINE
  5
1B4
330
1F
100
AcDbEntity
  8
0-0
  6
JWW_DASHED1
 62
   120
370
     5
100
AcDbLine
 10
-633.9835436459755
 20
110.6526598334544
 30
0.0
 11
-713.9835436459744
 21
190.6526598334532
 31
0.0
  0
LINE
  5
1B5
330
1F
100
AcDbEntity
  8
0-0
  6
JWW_DASHED1
 62
   120
370
     5
100
AcDbLine
 10
-633.9835436459736
 20
120.5521547686699
 30
0.0
 11
-713.983543645988
 21
200.5521547686841
 31
0.0
  0
LINE
  5
1B6
330
1F
100
AcDbEntity
  8
0-0
  6
JWW_DASHED1
 62
   120
370
     5
100
AcDbLine
 10
-633.9835436459857
 20
130.4516497038432
 30
0.0
 11
-713.9835436459846
 21
210.4516497038416
 31
0.0
  0
LINE
  5
1B7
330
1F
100
AcDbEntity
  8
0-0
  6
JWW_DASHED1
 62
   120
370
     5
100
AcDbLine
 10
-633.983543645977
 20
140.3511446390514
 30
0.0
 11
-713.9835436459758
 21
220.3511446390499
 31
0.0
  0
LINE
  5
1B8
330
1F
100
AcDbEntity
  8
0-0
  6
JWW_DASHED1
 62
   120
370
     5
100
AcDbLine
 10
-633.9835436459701
 20
150.2506395742593
 30
0.0
 11
-713.9835436459826
 21
230.2506395742735
 31
0.0
  0
LINE
  5
1B9
330
1F
100
AcDbEntity
  8
0-0
  6
JWW_DASHED1
 62
   120
370
     5
100
AcDbLine
 10
-633.9835436459872
 20
160.1501345094398
 30
0.0
 11
-713.9835436459861
 21
240.1501345094387
 31
0.0
  0
LINE
  5
1BA
330
1F
100
AcDbEntity
  8
0-0
  6
JWW_DASHED1
 62
   120
370
     5
100
AcDbLine
 10
-633.9835436459804
 20
170.0496294446476
 30
0.0
 11
-713.9835436459792
 21
250.0496294446465
 31
0.0
  0
LINE
  5
1BB
330
1F
100
AcDbEntity
  8
0-0
  6
JWW_DASHED1
 62
   120
370
     5
100
AcDbLine
 10
-633.9835436459721
 20
179.9491243798559
 30
0.0
 11
-713.9835436459861
 21
259.9491243798705
 31
0.0
  0
LINE
  5
1BC
330
1F
100
AcDbEntity
  8
0-0
  6
JWW_DASHED1
 62
   120
370
     5
100
AcDbLine
 10
-633.9835436459906
 20
189.8486193150364
 30
0.0
 11
-713.9835436459895
 21
269.8486193150357
 31
0.0
  0
LINE
  5
1BD
330
1F
100
AcDbEntity
  8
0-0
  6
JWW_DASHED1
 62
   120
370
     5
100
AcDbLine
 10
-633.9835436459823
 20
199.7481142502447
 30
0.0
 11
-713.9835436459792
 21
279.7481142502431
 31
0.0
  0
LINE
  5
1BE
330
1F
100
AcDbEntity
  8
0-0
  6
JWW_DASHED1
 62
   120
370
     5
100
AcDbLine
 10
-633.9835436459736
 20
209.6476091854525
 30
0.0
 11
-713.983543645988
 21
289.6476091854671
 31
0.0
  0
LINE
  5
1BF
330
1F
100
AcDbEntity
  8
0-0
  6
JWW_DASHED1
 62
   120
370
     5
100
AcDbLine
 10
-633.9835436459925
 20
219.547104120633
 30
0.0
 11
-713.9835436459914
 21
299.5471041206319
 31
0.0
  0
LINE
  5
1C0
330
1F
100
AcDbEntity
  8
0-0
  6
JWW_DASHED1
 62
   120
370
     5
100
AcDbLine
 10
-633.9835436459838
 20
229.4465990558417
 30
0.0
 11
-713.9835436459826
 21
309.4465990558397
 31
0.0
  0
LINE
  5
1C1
330
1F
100
AcDbEntity
  8
0-0
  6
JWW_DASHED1
 62
   120
370
     5
100
AcDbLine
 10
-633.9835436459755
 20
239.3460939910491
 30
0.0
 11
-713.9835436459744
 21
319.346093991048
 31
0.0
  0
LINE
  5
1C2
330
1F
100
AcDbEntity
  8
0-0
  6
JWW_DASHED1
 62
   120
370
     5
100
AcDbLine
 10
-633.983543645994
 20
249.2455889262297
 30
0.0
 11
-713.9835436459929
 21
329.2455889262285
 31
0.0
  0
LINE
  5
1C3
330
1F
100
AcDbEntity
  8
0-0
  6
JWW_DASHED1
 62
   120
370
     5
100
AcDbLine
 10
-633.9835436459872
 20
259.1450838614379
 30
0.0
 11
-713.9835436459861
 21
339.1450838614368
 31
0.0
  0
LINE
  5
1C4
330
1F
100
AcDbEntity
  8
0-0
  6
JWW_DASHED1
 62
   120
370
     5
100
AcDbLine
 10
-633.983543645977
 20
269.0445787966457
 30
0.0
 11
-713.9835436459758
 21
349.0445787966446
 31
0.0
  0
LINE
  5
1C5
330
1F
100
AcDbEntity
  8
0-0
  6
JWW_DASHED1
 62
   120
370
     5
100
AcDbLine
 10
-633.9835436459721
 20
278.9440737318016
 30
0.0
 11
-713.9835436459861
 21
358.9440737318149
 31
0.0
  0
LINE
  5
1C6
330
1F
100
AcDbEntity
  8
0-0
  6
JWW_DASHED1
 62
   120
370
     5
100
AcDbLine
 10
-633.9835436459891
 20
288.843568667035
 30
0.0
 11
-713.9835436459861
 21
368.8435686670333
 31
0.0
  0
LINE
  5
1C7
330
1F
100
AcDbEntity
  8
0-0
  6
JWW_DASHED1
 62
   120
370
     5
100
AcDbLine
 10
-633.9835436459804
 20
298.7430636022423
 30
0.0
 11
-713.9835436459792
 21
378.7430636022416
 31
0.0
  0
LINE
  5
1C8
330
1F
100
AcDbEntity
  8
0-0
  6
JWW_DASHED1
 62
   120
370
     5
100
AcDbLine
 10
-633.9835436459667
 20
308.6425585373918
 30
0.0
 11
-713.9835436459826
 21
388.642558537406
 31
0.0
  0
LINE
  5
1C9
330
1F
100
AcDbEntity
  8
0-0
  6
JWW_DASHED1
 62
   120
370
     5
100
AcDbLine
 10
-633.9835436459906
 20
318.5420534726312
 30
0.0
 11
-713.9835436459895
 21
398.54205347263
 31
0.0
  0
LINE
  5
1CA
330
1F
100
AcDbEntity
  8
0-0
  6
JWW_DASHED1
 62
   120
370
     5
100
AcDbLine
 10
-633.9835436459823
 20
328.441548407839
 30
0.0
 11
-713.9835436459812
 21
408.4415484078378
 31
0.0
  0
LINE
  5
1CB
330
1F
100
AcDbEntity
  8
0-0
  6
JWW_DASHED1
 62
   120
370
     5
100
AcDbLine
 10
-633.9835436459701
 20
338.3410433429888
 30
0.0
 11
-713.9835436459846
 21
418.341043343003
 31
0.0
  0
LINE
  5
1CC
330
1F
100
AcDbEntity
  8
0-0
  6
JWW_DASHED1
 62
   120
370
     5
100
AcDbLine
 10
-633.9835436459925
 20
348.2405382782282
 30
0.0
 11
-713.9835436459914
 21
428.2405382782266
 31
0.0
  0
LINE
  5
1CD
330
1F
100
AcDbEntity
  8
0-0
  6
JWW_DASHED1
 62
   120
370
     5
100
AcDbLine
 10
-633.9835436459838
 20
358.140033213436
 30
0.0
 11
-713.9835436459826
 21
438.1400332134349
 31
0.0
  0
LINE
  5
1CE
330
1F
100
AcDbEntity
  8
0-0
  6
JWW_DASHED1
 62
   120
370
     5
100
AcDbLine
 10
-633.9835436459721
 20
368.039528148585
 30
0.0
 11
-713.9835436459861
 21
448.0395281485996
 31
0.0
  0
LINE
  5
1CF
330
1F
100
AcDbEntity
  8
0-0
  6
JWW_DASHED1
 62
   120
370
     5
100
AcDbLine
 10
-633.9835436459789
 20
377.9390230838086
 30
0.0
 11
-713.9835436459929
 21
457.9390230838233
 31
0.0
  0
LINE
  5
1D0
330
1F
100
AcDbEntity
  8
0-0
  6
JWW_DASHED1
 62
   120
370
     5
100
AcDbLine
 10
-633.9835436459872
 20
387.8385180190326
 30
0.0
 11
-713.9835436459861
 21
467.8385180190319
 31
0.0
  0
LINE
  5
1D1
330
1F
100
AcDbEntity
  8
0-0
  6
JWW_DASHED1
 62
   120
370
     5
100
AcDbLine
 10
-633.9835436459736
 20
397.7380129541816
 30
0.0
 11
-713.9835436459724
 21
477.7380129541805
 31
0.0
  0
LINE
  5
1D2
330
1F
100
AcDbEntity
  8
0-0
  6
JWW_DASHED1
 62
   120
370
     5
100
AcDbLine
 10
-633.9835436459701
 20
407.637507889395
 30
0.0
 11
-713.9835436459846
 21
487.6375078894088
 31
0.0
  0
LINE
  5
1D3
330
1F
100
AcDbEntity
  8
0-0
  6
JWW_DASHED1
 62
   120
370
     5
100
AcDbLine
 10
-633.9835436459891
 20
417.5370028246293
 30
0.0
 11
-713.983543645988
 21
497.5370028246281
 31
0.0
  0
LINE
  5
1D4
330
1F
100
AcDbEntity
  8
0-0
  6
JWW_DASHED1
 62
   120
370
     5
100
AcDbLine
 10
-633.983543645977
 20
427.4364977597783
 30
0.0
 11
-713.9835436459758
 21
507.4364977597771
 31
0.0
  0
LINE
  5
1D5
330
1F
100
AcDbEntity
  8
0-0
  6
JWW_DASHED1
 62
   120
370
     5
100
AcDbLine
 10
-633.9835436459667
 20
437.3359926949864
 30
0.0
 11
-713.9835436459826
 21
517.3359926950011
 31
0.0
  0
LINE
  5
1D6
330
1F
100
AcDbEntity
  8
0-0
  6
JWW_DASHED1
 62
   120
370
     5
100
AcDbLine
 10
-633.9835436459906
 20
447.2354876302259
 30
0.0
 11
-713.9835436459895
 21
527.2354876302247
 31
0.0
  0
LINE
  5
1D7
330
1F
100
AcDbEntity
  8
0-0
  6
JWW_DASHED1
 62
   120
370
     5
100
AcDbLine
 10
-633.9835436459789
 20
457.1349825653753
 30
0.0
 11
-713.9835436459778
 21
537.1349825653738
 31
0.0
  0
LINE
  5
1D8
330
1F
100
AcDbEntity
  8
0-0
  6
JWW_DASHED1
 62
   120
370
     5
100
AcDbLine
 10
-633.9835436459701
 20
467.0344775005831
 30
0.0
 11
-713.9835436459846
 21
547.0344775005977
 31
0.0
  0
LINE
  5
1D9
330
1F
100
AcDbEntity
  8
0-0
  6
JWW_DASHED1
 62
   120
370
     5
100
AcDbLine
 10
-633.983543645994
 20
476.9339724358225
 30
0.0
 11
-713.9835436459929
 21
556.9339724358213
 31
0.0
  0
LINE
  5
1DA
330
1F
100
AcDbEntity
  8
0-0
  6
JWW_DASHED1
 62
   120
370
     5
100
AcDbLine
 10
-633.9835436459804
 20
486.8334673709715
 30
0.0
 11
-713.9835436459792
 21
566.8334673709703
 31
0.0
  0
LINE
  5
1DB
330
1F
100
AcDbEntity
  8
0-0
  6
JWW_DASHED1
 62
   120
370
     5
100
AcDbLine
 10
-633.9835436459721
 20
496.7329623061797
 30
0.0
 11
-713.9835436459861
 21
576.7329623061944
 31
0.0
  0
LINE
  5
1DC
330
1F
100
AcDbEntity
  8
0-0
  6
JWW_DASHED1
 62
   120
370
     5
100
AcDbLine
 10
-633.9835436459687
 20
506.6324572413923
 30
0.0
 11
-713.9835436459826
 21
586.6324572414061
 31
0.0
  0
LINE
  5
1DD
330
1F
100
AcDbEntity
  8
0-0
  6
JWW_DASHED1
 62
   120
370
     5
100
AcDbLine
 10
-633.9835436459838
 20
516.5319521765686
 30
0.0
 11
-713.9835436459826
 21
596.5319521765673
 31
0.0
  0
LINE
  5
1DE
330
1F
100
AcDbEntity
  8
0-0
  6
JWW_DASHED1
 62
   120
370
     5
100
AcDbLine
 10
-633.9835436459736
 20
526.4314471117764
 30
0.0
 11
-713.9835436459724
 21
606.4314471117752
 31
0.0
  0
LINE
  5
1DF
330
1F
100
AcDbEntity
  8
0-0
  6
JWW_DASHED1
 62
   120
370
     5
100
AcDbLine
 10
-633.9835436459667
 20
536.3309420469847
 30
0.0
 11
-713.9835436459792
 21
616.3309420469989
 31
0.0
  0
LINE
  5
1E0
330
1F
100
AcDbEntity
  8
0-0
  6
JWW_DASHED1
 62
   120
370
     5
100
AcDbLine
 10
-633.9835436459838
 20
546.2304369821652
 30
0.0
 11
-713.9835436459846
 21
626.2304369821641
 31
0.0
  0
LINE
  5
1E1
330
1F
100
AcDbEntity
  8
0-0
  6
JWW_DASHED1
 62
   120
370
     5
100
AcDbLine
 10
-633.983543645977
 20
556.129931917373
 30
0.0
 11
-713.9835436459758
 21
636.1299319173719
 31
0.0
  0
LINE
  5
1E2
330
1F
100
AcDbEntity
  8
0-0
  6
JWW_DASHED1
 62
   120
370
     5
100
AcDbLine
 10
-633.9835436459687
 20
566.0294268525812
 30
0.0
 11
-713.9835436459826
 21
646.0294268525954
 31
0.0
  0
LINE
  5
1E3
330
1F
100
AcDbEntity
  8
0-0
  6
JWW_DASHED1
 62
   120
370
     5
100
AcDbLine
 10
-633.9835436459872
 20
575.9289217877617
 30
0.0
 11
-713.9835436459861
 21
655.9289217877606
 31
0.0
  0
LINE
  5
1E4
330
1F
100
AcDbEntity
  8
0-0
  6
JWW_DASHED1
 62
   120
370
     5
100
AcDbLine
 10
-633.9835436459789
 20
585.82841672297
 30
0.0
 11
-713.9835436459778
 21
665.8284167229684
 31
0.0
  0
LINE
  5
1E5
330
1F
100
AcDbEntity
  8
0-0
  6
JWW_DASHED1
 62
   120
370
     5
100
AcDbLine
 10
-633.9835436459701
 20
595.7279116581778
 30
0.0
 11
-713.9835436459861
 21
675.7279116581924
 31
0.0
  0
LINE
  5
1E6
330
1F
100
AcDbEntity
  8
0-0
  6
JWW_DASHED1
 62
   120
370
     5
100
AcDbLine
 10
-633.9835436459891
 20
605.6274065933584
 30
0.0
 11
-713.9835436459895
 21
685.6274065933576
 31
0.0
  0
LINE
  5
1E7
330
1F
100
AcDbEntity
  8
0-0
  6
JWW_DASHED1
 62
   120
370
     5
100
AcDbLine
 10
-633.9835436459804
 20
615.5269015285667
 30
0.0
 11
-713.9835436459792
 21
695.5269015285651
 31
0.0
  0
LINE
  5
1E8
330
1F
100
AcDbEntity
  8
0-0
  6
JWW_DASHED1
 62
   120
370
     5
100
AcDbLine
 10
-633.9835436459736
 20
625.4263964637744
 30
0.0
 11
-713.9835436459724
 21
705.4263964637732
 31
0.0
  0
LINE
  5
1E9
330
1F
100
AcDbEntity
  8
0-0
  6
JWW_DASHED1
 62
   120
370
     5
100
AcDbLine
 10
-633.9835436459906
 20
635.325891398955
 30
0.0
 11
-713.9835436459895
 21
715.3258913989539
 31
0.0
  0
LINE
  5
1EA
330
1F
100
AcDbEntity
  8
0-0
  6
JWW_DASHED1
 62
   120
370
     5
100
AcDbLine
 10
-633.9835436459838
 20
645.2253863341633
 30
0.0
 11
-713.9835436459826
 21
725.2253863341616
 31
0.0
  0
LINE
  5
1EB
330
1F
100
AcDbEntity
  8
0-0
  6
JWW_DASHED1
 62
   120
370
     5
100
AcDbLine
 10
-633.9835436459755
 20
655.1248812693711
 30
0.0
 11
-713.9835436459724
 21
735.12488126937
 31
0.0
  0
LINE
  5
1EC
330
1F
100
AcDbEntity
  8
0-0
  6
JWW_DASHED1
 62
   120
370
     5
100
AcDbLine
 10
-633.983543645977
 20
665.0243762045359
 30
0.0
 11
-713.9835436459929
 21
745.0243762045509
 31
0.0
  0
LINE
  5
1ED
330
1F
100
AcDbEntity
  8
0-0
  6
JWW_DASHED1
 62
   120
370
     5
100
AcDbLine
 10
-633.9835436459857
 20
674.9238711397599
 30
0.0
 11
-713.9835436459846
 21
754.9238711397587
 31
0.0
  0
LINE
  5
1EE
330
1F
100
AcDbEntity
  8
0-0
  6
JWW_DASHED1
 62
   120
370
     5
100
AcDbLine
 10
-633.9835436459755
 20
684.8233660749383
 30
0.0
 11
-713.9835436459724
 21
764.8233660749372
 31
0.0
  0
LINE
  5
1EF
330
1F
100
AcDbEntity
  8
0-0
  6
JWW_DASHED1
 62
   120
370
     5
100
AcDbLine
 10
-633.9835436459667
 20
694.7228610101201
 30
0.0
 11
-713.9835436459812
 21
774.7228610101334
 31
0.0
  0
LINE
  5
1F0
330
1F
100
AcDbEntity
  8
0-0
  6
JWW_DASHED1
 62
   120
370
     5
100
AcDbLine
 10
-633.9835436459872
 20
704.6223559453565
 30
0.0
 11
-713.9835436459861
 21
784.6223559453554
 31
0.0
  0
LINE
  5
1F1
330
1F
100
AcDbEntity
  8
0-0
  6
JWW_DASHED1
 62
   120
370
     5
100
AcDbLine
 10
-633.983543645977
 20
714.5218508805353
 30
0.0
 11
-713.9835436459758
 21
794.5218508805337
 31
0.0
  0
LINE
  5
1F2
330
1F
100
AcDbEntity
  8
0-0
  6
JWW_DASHED1
 62
   120
370
     5
100
AcDbLine
 10
-633.9835436459667
 20
724.4213458157137
 30
0.0
 11
-713.9835436459812
 21
804.4213458157279
 31
0.0
  0
LINE
  5
1F3
330
1F
100
AcDbEntity
  8
0-0
  6
JWW_DASHED1
 62
   120
370
     5
100
AcDbLine
 10
-633.9835436459906
 20
734.3208407509536
 30
0.0
 11
-713.9835436459895
 21
814.3208407509519
 31
0.0
  0
LINE
  5
1F4
330
1F
100
AcDbEntity
  8
0-0
  6
JWW_DASHED1
 62
   120
370
     5
100
AcDbLine
 10
-633.9835436459804
 20
744.2203356861319
 30
0.0
 11
-713.9835436459792
 21
824.2203356861307
 31
0.0
  0
LINE
  5
1F5
330
1F
100
AcDbEntity
  8
0-0
  6
JWW_DASHED1
 62
   120
370
     5
100
AcDbLine
 10
-633.9835436459701
 20
754.1198306213107
 30
0.0
 11
-713.9835436459826
 21
834.119830621325
 31
0.0
  0
LINE
  5
1F6
330
1F
100
AcDbEntity
  8
0-0
  6
JWW_DASHED1
 62
   120
370
     5
100
AcDbLine
 10
-633.983543645977
 20
764.0193255565339
 30
0.0
 11
-713.9835436459895
 21
844.0193255565487
 31
0.0
  0
LINE
  5
1F7
330
1F
100
AcDbEntity
  8
0-0
  6
JWW_DASHED1
 62
   120
370
     5
100
AcDbLine
 10
-633.9835436459823
 20
773.9188204917286
 30
0.0
 11
-713.9835436459792
 21
853.918820491727
 31
0.0
  0
LINE
  5
1F8
330
1F
100
AcDbEntity
  8
0-0
  6
JWW_DASHED1
 62
   120
370
     5
100
AcDbLine
 10
-633.9835436459701
 20
783.818315426907
 30
0.0
 11
-713.983543645969
 21
863.8183154269059
 31
0.0
  0
LINE
  5
1F9
330
1F
100
AcDbEntity
  8
0-0
  6
JWW_DASHED1
 62
   120
370
     5
100
AcDbLine
 10
-633.9835436459653
 20
793.7178103621173
 30
0.0
 11
-713.9835436459792
 21
873.7178103621312
 31
0.0
  0
LINE
  5
1FA
330
1F
100
AcDbEntity
  8
0-0
  6
JWW_DASHED1
 62
   120
370
     5
100
AcDbLine
 10
-633.9835436459804
 20
803.6173052972958
 30
0.0
 11
-713.9835436459812
 21
883.6173052972947
 31
0.0
  0
LINE
  5
1FB
330
1F
100
AcDbEntity
  8
0-0
  6
JWW_DASHED1
 62
   120
370
     5
100
AcDbLine
 10
-633.9835436459736
 20
813.516800232504
 30
0.0
 11
-713.9835436459724
 21
893.5168002325025
 31
0.0
  0
LINE
  5
1FC
330
1F
100
AcDbEntity
  8
0-0
  6
JWW_DASHED1
 62
   120
370
     5
100
AcDbLine
 10
-633.9835436459653
 20
823.4162951677118
 30
0.0
 11
-713.9835436459792
 21
903.4162951677265
 31
0.0
  0
LINE
  5
1FD
330
1F
100
AcDbEntity
  8
0-0
  6
JWW_DASHED1
 62
   120
370
     5
100
AcDbLine
 10
-633.9835436459838
 20
833.3157901028924
 30
0.0
 11
-713.9835436459826
 21
913.3157901028912
 31
0.0
  0
LINE
  5
1FE
330
1F
100
AcDbEntity
  8
0-0
  6
JWW_DASHED1
 62
   120
370
     5
100
AcDbLine
 10
-633.9835436459755
 20
843.2152850381002
 30
0.0
 11
-713.9835436459744
 21
923.2152850380991
 31
0.0
  0
LINE
  5
1FF
330
1F
100
AcDbEntity
  8
0-0
  6
JWW_DASHED1
 62
   120
370
     5
100
AcDbLine
 10
-633.9835436459667
 20
853.1147799733085
 30
0.0
 11
-713.9835436459826
 21
933.114779973323
 31
0.0
  0
LINE
  5
200
330
1F
100
AcDbEntity
  8
0-0
  6
JWW_DASHED1
 62
   120
370
     5
100
AcDbLine
 10
-633.9835436459857
 20
863.0142749084886
 30
0.0
 11
-713.9835436459846
 21
943.0142749084874
 31
0.0
  0
LINE
  5
201
330
1F
100
AcDbEntity
  8
0-0
  6
JWW_DASHED1
 62
   120
370
     5
100
AcDbLine
 10
-633.983543645977
 20
872.9137698436973
 30
0.0
 11
-713.9835436459758
 21
952.9137698436962
 31
0.0
  0
LINE
  5
202
330
1F
100
AcDbEntity
  8
0-0
  6
JWW_DASHED1
 62
   120
370
     5
100
AcDbLine
 10
-633.9835436459701
 20
882.813264778905
 30
0.0
 11
-713.9835436459846
 21
962.8132647789197
 31
0.0
  0
LINE
  5
203
330
1F
100
AcDbEntity
  8
0-0
  6
JWW_DASHED1
 62
   120
370
     5
100
AcDbLine
 10
-633.9835436459872
 20
892.7127597140857
 30
0.0
 11
-713.9835436459861
 21
972.7127597140844
 31
0.0
  0
LINE
  5
204
330
1F
100
AcDbEntity
  8
0-0
  6
JWW_DASHED1
 62
   120
370
     5
100
AcDbLine
 10
-633.9835436459804
 20
902.612254649294
 30
0.0
 11
-713.9835436459792
 21
982.6122546492927
 31
0.0
  0
LINE
  5
205
330
1F
100
AcDbEntity
  8
0-0
  6
JWW_DASHED1
 62
   120
370
     5
100
AcDbLine
 10
-633.9835436459701
 20
912.5117495845018
 30
0.0
 11
-713.9835436459709
 21
992.5117495845005
 31
0.0
  0
LINE
  5
206
330
1F
100
AcDbEntity
  8
0-0
  6
JWW_DASHED1
 62
   120
370
     5
100
AcDbLine
 10
-633.9835436459906
 20
922.4112445196827
 30
0.0
 11
-713.9835436459895
 21
1002.411244519682
 31
0.0
  0
LINE
  5
207
330
1F
100
AcDbEntity
  8
0-0
  6
JWW_DASHED1
 62
   120
370
     5
100
AcDbLine
 10
-633.9835436459823
 20
932.3107394548905
 30
0.0
 11
-713.9835436459812
 21
1012.310739454889
 31
0.0
  0
LINE
  5
208
330
1F
100
AcDbEntity
  8
0-0
  6
JWW_DASHED1
 62
   120
370
     5
100
AcDbLine
 10
-633.9835436459736
 20
942.2102343900988
 30
0.0
 11
-713.9835436459724
 21
1022.210234390097
 31
0.0
  0
LINE
  5
209
330
1F
100
AcDbEntity
  8
0-0
  6
JWW_DASHED1
 62
   120
370
     5
100
AcDbLine
 10
-633.9835436459618
 20
952.1097293252482
 30
0.0
 11
-713.9835436459758
 21
1032.109729325262
 31
0.0
  0
LINE
  5
20A
330
1F
100
AcDbEntity
  8
0-0
  6
JWW_DASHED1
 62
   120
370
     5
100
AcDbLine
 10
-633.9835436459838
 20
962.009224260487
 30
0.0
 11
-713.9835436459826
 21
1042.009224260486
 31
0.0
  0
LINE
  5
20B
330
1F
100
AcDbEntity
  8
0-0
  6
JWW_DASHED1
 62
   120
370
     5
100
AcDbLine
 10
-633.983543645977
 20
971.9087191956953
 30
0.0
 11
-713.9835436459744
 21
1051.908719195694
 31
0.0
  0
LINE
  5
20C
330
1F
100
AcDbEntity
  8
0-0
  6
JWW_DASHED1
 62
   120
370
     5
100
AcDbLine
 10
-633.9835436459633
 20
981.8082141308452
 30
0.0
 11
-713.9835436459778
 21
1061.808214130859
 31
0.0
  0
LINE
  5
20D
330
1F
100
AcDbEntity
  8
0-0
  6
JWW_DASHED1
 62
   120
370
     5
100
AcDbLine
 10
-633.9835436459872
 20
991.7077090660841
 30
0.0
 11
-711.0912979634322
 21
1068.815463383529
 31
0.0
  0
LINE
  5
20E
330
1F
100
AcDbEntity
  8
0-0
  6
JWW_DASHED1
 62
   120
370
     5
100
AcDbLine
 10
-633.983543645977
 20
1001.607204001292
 30
0.0
 11
-701.1918030282242
 21
1068.815463383537
 31
0.0
  0
LINE
  5
20F
330
1F
100
AcDbEntity
  8
0-0
  6
JWW_DASHED1
 62
   120
370
     5
100
AcDbLine
 10
-633.9835436459653
 20
1011.50669893644
 30
0.0
 11
-691.2923080930624
 21
1068.815463383539
 31
0.0
  0
LINE
  5
210
330
1F
100
AcDbEntity
  8
0-0
  6
JWW_DASHED1
 62
   120
370
     5
100
AcDbLine
 10
-633.9835436459891
 20
1021.406193871681
 30
0.0
 11
-681.3928131578358
 21
1068.815463383527
 31
0.0
  0
LINE
  5
211
330
1F
100
AcDbEntity
  8
0-0
  6
JWW_DASHED1
 62
   120
370
     5
100
AcDbLine
 10
-633.9835436459804
 20
1031.305688806889
 30
0.0
 11
-671.4933182226263
 21
1068.815463383535
 31
0.0
  0
LINE
  5
212
330
1F
100
AcDbEntity
  8
0-0
  6
JWW_DASHED1
 62
   120
370
     5
100
AcDbLine
 10
-633.9835436459667
 20
1041.205183742038
 30
0.0
 11
-661.5938232874713
 21
1068.815463383542
 31
0.0
  0
LINE
  5
213
330
1F
100
AcDbEntity
  8
0-0
  6
JWW_DASHED1
 62
   120
370
     5
100
AcDbLine
 10
-633.9835436459755
 20
1051.104678677262
 30
0.0
 11
-651.6943283522501
 21
1068.815463383537
 31
0.0
  0
LINE
  5
214
330
1F
100
AcDbEntity
  8
0-0
  6
JWW_DASHED1
 62
   120
370
     5
100
AcDbLine
 10
-633.9835436459823
 20
1061.004173612485
 30
0.0
 11
-641.7948334170284
 21
1068.815463383532
 31
0.0
  0
LWPOLYLINE
  5
215
330
1F
100
AcDbEntity
  8
寸法
  6
Continuous
 62
     7
370
     9
100
AcDbPolyline
 90
        4
 70
     1
 43
3.0
 10
-1349.483543645982
 20
-914.6845366164674
 42
0.4142135623731
 10
-1350.983543645982
 20
-913.1845366164673
 42
0.4142135623731
 10
-1352.483543645981
 20
-914.6845366164674
 42
0.4142135623731
 10
-1350.983543645982
 20
-916.1845366164674
 42
0.4142135623731
  0
LINE
  5
216
330
1F
100
AcDbEntity
  8
寸法
  6
Continuous
 62
   120
370
     5
100
AcDbLine
 10
-1350.983543645982
 20
-914.6845366164674
 30
0.0
 11
-900.9835436459816
 21
-914.6845366164674
 31
0.0
  0
LINE
  5
217
330
1F
100
AcDbEntity
  8
寸法
  6
Continuous
 62
   120
370
     5
100
AcDbLine
 10
-820.9835436459808
 20
-1364.684536616467
 30
0.0
 11
-820.9835436459808
 21
-964.6845366164672
 31
0.0
  0
LINE
  5
218
330
1F
100
AcDbEntity
  8
寸法
  6
Continuous
 62
   120
370
     5
100
AcDbLine
 10
-850.9835436459808
 20
-1564.684536616466
 30
0.0
 11
-850.9835436459808
 21
-964.6845366164672
 31
0.0
  0
LINE
  5
219
330
1F
100
AcDbEntity
  8
寸法
  6
Continuous
 62
   120
370
     5
100
AcDbLine
 10
766.0164563540183
 20
-1164.684536616467
 30
0.0
 11
766.0164563540183
 21
-964.6845366164672
 31
0.0
  0
LINE
  5
21A
330
1F
100
AcDbEntity
  8
寸法
  6
Continuous
 62
   120
370
     5
100
AcDbLine
 10
-820.9835436459808
 20
-1364.684536616467
 30
0.0
 11
763.0164563540176
 21
-1364.684536616467
 31
0.0
  0
LINE
  5
21B
330
1F
100
AcDbEntity
  8
寸法
  6
Continuous
 62
   120
370
     5
100
AcDbLine
 10
763.0164563540176
 20
-1364.684536616467
 30
0.0
 11
763.0164563540176
 21
-964.6845366164672
 31
0.0
  0
LINE
  5
21C
330
1F
100
AcDbEntity
  8
寸法
  6
Continuous
 62
   120
370
     5
100
AcDbLine
 10
-850.9835436459808
 20
-1564.684536616466
 30
0.0
 11
793.0164563540176
 21
-1564.684536616466
 31
0.0
  0
LINE
  5
21D
330
1F
100
AcDbEntity
  8
寸法
  6
Continuous
 62
   120
370
     5
100
AcDbLine
 10
793.0164563540176
 20
-1564.684536616466
 30
0.0
 11
793.0164563540176
 21
-964.6845366164672
 31
0.0
  0
LINE
  5
21E
330
1F
100
AcDbEntity
  8
寸法
  6
Continuous
 62
   120
370
     5
100
AcDbLine
 10
-43.98354364598164
 20
-1164.684536616467
 30
0.0
 11
-43.98354364598164
 21
-964.6845366164672
 31
0.0
  0
LINE
  5
21F
330
1F
100
AcDbEntity
  8
寸法
  6
Continuous
 62
   120
370
     5
100
AcDbLine
 10
-43.98354364598164
 20
-1164.684536616467
 30
0.0
 11
766.0164563540183
 21
-1164.684536616467
 31
0.0
  0
LWPOLYLINE
  5
220
330
1F
100
AcDbEntity
  8
寸法
  6
Continuous
 62
     7
370
     9
100
AcDbPolyline
 90
        4
 70
     1
 43
3.0
 10
-819.4835436459808
 20
-1364.684536616467
 42
0.4142135623731
 10
-820.9835436459808
 20
-1363.184536616467
 42
0.4142135623731
 10
-822.4835436459808
 20
-1364.684536616467
 42
0.4142135623731
 10
-820.9835436459808
 20
-1366.184536616467
 42
0.4142135623731
  0
LWPOLYLINE
  5
221
330
1F
100
AcDbEntity
  8
寸法
  6
Continuous
 62
     7
370
     9
100
AcDbPolyline
 90
        4
 70
     1
 43
3.0
 10
-849.4835436459808
 20
-1564.684536616466
 42
0.4142135623731
 10
-850.9835436459808
 20
-1563.184536616466
 42
0.4142135623731
 10
-852.4835436459808
 20
-1564.684536616466
 42
0.4142135623731
 10
-850.9835436459808
 20
-1566.184536616466
 42
0.4142135623731
  0
LWPOLYLINE
  5
222
330
1F
100
AcDbEntity
  8
寸法
  6
Continuous
 62
     7
370
     9
100
AcDbPolyline
 90
        4
 70
     1
 43
3.0
 10
767.5164563540184
 20
-1164.684536616467
 42
0.4142135623731
 10
766.0164563540183
 20
-1163.184536616467
 42
0.4142135623731
 10
764.5164563540183
 20
-1164.684536616467
 42
0.4142135623731
 10
766.0164563540183
 20
-1166.184536616467
 42
0.4142135623731
  0
LWPOLYLINE
  5
223
330
1F
100
AcDbEntity
  8
寸法
  6
Continuous
 62
     7
370
     9
100
AcDbPolyline
 90
        4
 70
     1
 43
3.0
 10
764.5164563540177
 20
-1364.684536616467
 42
0.4142135623731
 10
763.0164563540176
 20
-1363.184536616467
 42
0.4142135623731
 10
761.5164563540176
 20
-1364.684536616467
 42
0.4142135623731
 10
763.0164563540176
 20
-1366.184536616467
 42
0.4142135623731
  0
LWPOLYLINE
  5
224
330
1F
100
AcDbEntity
  8
寸法
  6
Continuous
 62
     7
370
     9
100
AcDbPolyline
 90
        4
 70
     1
 43
3.0
 10
794.5164563540177
 20
-1564.684536616466
 42
0.4142135623731
 10
793.0164563540176
 20
-1563.184536616466
 42
0.4142135623731
 10
791.5164563540176
 20
-1564.684536616466
 42
0.4142135623731
 10
793.0164563540176
 20
-1566.184536616466
 42
0.4142135623731
  0
LWPOLYLINE
  5
225
330
1F
100
AcDbEntity
  8
寸法
  6
Continuous
 62
     7
370
     9
100
AcDbPolyline
 90
        4
 70
     1
 43
3.0
 10
-42.48354364598164
 20
-1164.684536616467
 42
0.4142135623731
 10
-43.98354364598164
 20
-1163.184536616467
 42
0.4142135623731
 10
-45.48354364598165
 20
-1164.684536616467
 42
0.4142135623731
 10
-43.98354364598164
 20
-1166.184536616467
 42
0.4142135623731
  0
LINE
  5
226
330
1F
100
AcDbEntity
  8
寸法
  6
Continuous
 62
   120
370
     5
100
AcDbLine
 10
-1350.983543645982
 20
1120.815463383533
 30
0.0
 11
-1350.983543645982
 21
-914.6845366164674
 31
0.0
  0
LINE
  5
227
330
1F
100
AcDbEntity
  8
寸法
  6
Continuous
 62
   120
370
     5
100
AcDbLine
 10
-1350.983543645982
 20
1120.815463383533
 30
0.0
 11
-900.9835436459816
 21
1120.815463383533
 31
0.0
  0
LINE
  5
228
330
1F
100
AcDbEntity
  8
寸法
  6
Continuous
 62
   120
370
     5
100
AcDbLine
 10
-1150.983543645981
 20
-906.1845366164674
 30
0.0
 11
-900.9835436459816
 21
-906.1845366164674
 31
0.0
  0
LWPOLYLINE
  5
229
330
1F
100
AcDbEntity
  8
寸法
  6
Continuous
 62
     7
370
     9
100
AcDbPolyline
 90
        4
 70
     1
 43
3.0
 10
-1349.483543645982
 20
1120.815463383533
 42
0.4142135623731
 10
-1350.983543645982
 20
1122.315463383533
 42
0.4142135623731
 10
-1352.483543645981
 20
1120.815463383533
 42
0.4142135623731
 10
-1350.983543645982
 20
1119.315463383533
 42
0.4142135623731
  0
LWPOLYLINE
  5
22A
330
1F
100
AcDbEntity
  8
寸法
  6
Continuous
 62
     7
370
     9
100
AcDbPolyline
 90
        4
 70
     1
 43
3.0
 10
-1149.483543645981
 20
-906.1845366164674
 42
0.4142135623731
 10
-1150.983543645981
 20
-904.6845366164674
 42
0.4142135623731
 10
-1152.483543645981
 20
-906.1845366164674
 42
0.4142135623731
 10
-1150.983543645981
 20
-907.6845366164674
 42
0.4142135623731
  0
LINE
  5
22B
330
1F
100
AcDbEntity
  8
寸法
  6
Continuous
 62
   120
370
     5
100
AcDbLine
 10
-1150.983543645981
 20
1076.815463383532
 30
0.0
 11
-900.9835436459816
 21
1076.815463383532
 31
0.0
  0
LINE
  5
22C
330
1F
100
AcDbEntity
  8
寸法
  6
Continuous
 62
   120
370
     5
100
AcDbLine
 10
-1150.983543645981
 20
1076.815463383532
 30
0.0
 11
-1150.983543645981
 21
-906.1845366164674
 31
0.0
  0
LWPOLYLINE
  5
22D
330
1F
100
AcDbEntity
  8
寸法
  6
Continuous
 62
     7
370
     9
100
AcDbPolyline
 90
        4
 70
     1
 43
3.0
 10
-1149.483543645981
 20
1076.815463383532
 42
0.4142135623731
 10
-1150.983543645981
 20
1078.315463383532
 42
0.4142135623731
 10
-1152.483543645981
 20
1076.815463383532
 42
0.4142135623731
 10
-1150.983543645981
 20
1075.315463383532
 42
0.4142135623731
  0
MTEXT
  5
22E
330
1F
100
AcDbEntity
  8
寸法
  6
Continuous
 62
     7
370
    70
100
AcDbMText
 10
-1365.983543645982
 20
-126.859536616469
 30
0.0
 40
57.14999999999999
 41
412.5
 46
0.0
 71
     7
 72
     1
  1
{\fＭＳ ゴシック|b0|i0|c128|p49;枠外＝2,035}
 11
6.123031769111886E-17
 21
1.0
 31
0.0
 73
     1
 44
1.0
  0
MTEXT
  5
22F
330
1F
100
AcDbEntity
  8
寸法
  6
Continuous
 62
     7
370
    70
100
AcDbMText
 10
-1165.983543645981
 20
-132.8595366164669
 30
0.0
 40
57.14999999999999
 41
412.5
 46
0.0
 71
     7
 72
     1
  1
{\fＭＳ ゴシック|b0|i0|c128|p49;ＤＨ＝1,983}
 11
6.123031769111886E-17
 21
1.0
 31
0.0
 73
     1
 44
1.0
  0
MTEXT
  5
230
330
1F
100
AcDbEntity
  8
寸法
  6
Continuous
 62
     7
370
   211
100
AcDbMText
 10
192.2664563540184
 20
-1158.609536616467
 30
0.0
 40
57.14999999999998
 41
337.4999999999999
 46
0.0
 71
     7
 72
     1
  1
{\fＭＳ ゴシック|b0|i0|c128|p49;ＤＷ＝810}
 73
     1
 44
1.0
  0
MTEXT
  5
231
330
1F
100
AcDbEntity
  8
寸法
  6
Continuous
 62
     7
370
   211
100
AcDbMText
 10
-235.2335436459817
 20
-1358.609536616467
 30
0.0
 40
57.14999999999999
 41
412.5
 46
0.0
 71
     7
 72
     1
  1
{\fＭＳ ゴシック|b0|i0|c128|p49;枠内＝1,584}
 73
     1
 44
1.0
  0
MTEXT
  5
232
330
1F
100
AcDbEntity
  8
寸法
  6
Continuous
 62
     7
370
   211
100
AcDbMText
 10
-235.2335436459817
 20
-1558.609536616467
 30
0.0
 40
57.14999999999999
 41
412.5
 46
0.0
 71
     7
 72
     1
  1
{\fＭＳ ゴシック|b0|i0|c128|p49;枠外＝1,644}
 73
     1
 44
1.0
  0
MTEXT
  5
233
330
1F
100
AcDbEntity
  8
文字
  6
Continuous
 62
     7
370
     9
100
AcDbMText
 10
-1500.983543645983
 20
1494.548581697235
 30
0.0
 40
45.71999999999998
 41
1620.0
 46
0.0
 71
     7
 72
     1
  1
{\fＭＳ ゴシック|b0|i0|c128|p49;※ＸＭは縦木目柄、ＬＭは横木目柄のデザインとなります。}
 73
     1
 44
1.0
  0
ENDSEC
  0
SECTION
  2
OBJECTS
  0
DICTIONARY
  5
C
330
0
100
AcDbDictionary
281
     1
  3
ACAD_GROUP
350
D
  3
ACAD_LAYOUT
350
1A
  3
ACAD_MATERIAL
350
3B
  3
ACAD_MLEADERSTYLE
350
235
  3
ACAD_MLINESTYLE
350
17
  3
ACAD_PLOTSETTINGS
350
19
  3
ACAD_PLOTSTYLENAME
350
E
  3
ACAD_TABLESTYLE
350
234
  3
ACAD_VISUALSTYLE
350
2A
  0
DICTIONARY
  5
D
102
{ACAD_REACTORS
330
C
102
}
330
C
100
AcDbDictionary
281
     1
  0
DICTIONARY
  5
1A
102
{ACAD_REACTORS
330
C
102
}
330
C
100
AcDbDictionary
281
     1
  3
Layout1
350
1E
  3
Layout2
350
26
  3
Model
350
22
  0
DICTIONARY
  5
3B
102
{ACAD_REACTORS
330
C
102
}
330
C
100
AcDbDictionary
281
     1
  3
ByBlock
350
3D
  3
ByLayer
350
3C
  3
Global
350
3E
  0
DICTIONARY
  5
235
102
{ACAD_REACTORS
330
C
102
}
330
C
100
AcDbDictionary
281
     1
  0
DICTIONARY
  5
17
102
{ACAD_REACTORS
330
C
102
}
330
C
100
AcDbDictionary
281
     1
  3
Standard
350
18
  0
DICTIONARY
  5
19
102
{ACAD_REACTORS
330
C
102
}
330
C
100
AcDbDictionary
281
     1
  0
ACDBDICTIONARYWDFLT
  5
E
102
{ACAD_REACTORS
330
C
102
}
330
C
100
AcDbDictionary
281
     1
  3
Normal
350
F
100
AcDbDictionaryWithDefault
340
F
  0
DICTIONARY
  5
234
102
{ACAD_REACTORS
330
C
102
}
330
C
100
AcDbDictionary
281
     1
  0
DICTIONARY
  5
2A
102
{ACAD_REACTORS
330
C
102
}
330
C
100
AcDbDictionary
281
     1
  3
2dWireframe
350
2F
  3
3D Hidden
350
31
  3
3dWireframe
350
30
  3
Basic
350
32
  3
Brighten
350
36
  3
ColorChange
350
3A
  3
Conceptual
350
34
  3
Dim
350
35
  3
Facepattern
350
39
  3
Flat
350
2B
  3
FlatWithEdges
350
2C
  3
Gouraud
350
2D
  3
GouraudWithEdges
350
2E
  3
Linepattern
350
38
  3
Realistic
350
33
  3
Thicken
350
37
  0
LAYOUT
  5
1E
102
{ACAD_REACTORS
330
1A
102
}
330
1A
100
AcDbPlotSettings
  1

  2
none_device
  4

  6

 40
0.0
 41
0.0
 42
0.0
 43
0.0
 44
0.0
 45
0.0
 46
0.0
 47
0.0
 48
0.0
 49
0.0
140
0.0
141
0.0
142
1.0
143
1.0
 70
   688
 72
     0
 73
     0
 74
     5
  7

 75
    16
 76
     0
 77
     5
 78
   300
147
1.0
148
0.0
149
0.0
100
AcDbLayout
  1
Layout1
 70
     1
 71
     1
 10
0.0
 20
0.0
 11
420.0
 21
297.0
 12
0.0
 22
0.0
 32
0.0
 14
1.000000000000000E+20
 24
1.000000000000000E+20
 34
1.000000000000000E+20
 15
-1.000000000000000E+20
 25
-1.000000000000000E+20
 35
-1.000000000000000E+20
146
0.0
 13
0.0
 23
0.0
 33
0.0
 16
1.0
 26
0.0
 36
0.0
 17
0.0
 27
1.0
 37
0.0
 76
     0
330
1B
  0
LAYOUT
  5
26
102
{ACAD_REACTORS
330
1A
102
}
330
1A
100
AcDbPlotSettings
  1

  2
none_device
  4

  6

 40
0.0
 41
0.0
 42
0.0
 43
0.0
 44
0.0
 45
0.0
 46
0.0
 47
0.0
 48
0.0
 49
0.0
140
0.0
141
0.0
142
1.0
143
1.0
 70
   688
 72
     0
 73
     0
 74
     5
  7

 75
    16
 76
     0
 77
     5
 78
   300
147
1.0
148
0.0
149
0.0
100
AcDbLayout
  1
Layout2
 70
     1
 71
     2
 10
0.0
 20
0.0
 11
0.0
 21
0.0
 12
0.0
 22
0.0
 32
0.0
 14
0.0
 24
0.0
 34
0.0
 15
0.0
 25
0.0
 35
0.0
146
0.0
 13
0.0
 23
0.0
 33
0.0
 16
1.0
 26
0.0
 36
0.0
 17
0.0
 27
1.0
 37
0.0
 76
     0
330
23
  0
LAYOUT
  5
22
102
{ACAD_REACTORS
330
1A
102
}
330
1A
100
AcDbPlotSettings
  1

  2
none_device
  4

  6

 40
0.0
 41
0.0
 42
0.0
 43
0.0
 44
0.0
 45
0.0
 46
0.0
 47
0.0
 48
0.0
 49
0.0
140
0.0
141
0.0
142
1.0
143
1.0
 70
  1712
 72
     0
 73
     0
 74
     0
  7

 75
     0
 76
     0
 77
     5
 78
   300
147
1.0
148
0.0
149
0.0
100
AcDbLayout
  1
Model
 70
     1
 71
     0
 10
-4455.0
 20
-3150.0
 11
4455.0
 21
3150.0
 12
0.0
 22
0.0
 32
0.0
 14
-4455.0
 24
-3150.0
 34
0.0
 15
4455.0
 25
3150.0
 35
0.0
146
0.0
 13
0.0
 23
0.0
 33
0.0
 16
1.0
 26
0.0
 36
0.0
 17
0.0
 27
1.0
 37
0.0
 76
     0
330
1F
331
29
  0
MATERIAL
  5
3D
102
{ACAD_REACTORS
330
3B
102
}
330
3B
100
AcDbMaterial
  1
ByBlock
 72
     1
 94
      127
  0
MATERIAL
  5
3C
102
{ACAD_REACTORS
330
3B
102
}
330
3B
100
AcDbMaterial
  1
ByLayer
 72
     1
 94
      127
  0
MATERIAL
  5
3E
102
{ACAD_REACTORS
330
3B
102
}
330
3B
100
AcDbMaterial
  1
Global
 72
     1
 94
      127
  0
MLINESTYLE
  5
18
102
{ACAD_REACTORS
330
17
102
}
330
17
100
AcDbMlineStyle
  2
Standard
 70
     0
  3

 62
   256
 51
90.0
 52
90.0
 71
     2
 49
0.5
 62
   256
  6
BYLAYER
 49
-0.5
 62
   256
  6
BYLAYER
  0
ACDBPLACEHOLDER
  5
F
102
{ACAD_REACTORS
330
E
102
}
330
E
  0
VISUALSTYLE
  5
2F
102
{ACAD_REACTORS
330
2A
102
}
330
2A
100
AcDbVisualStyle
  2
2dWireframe
 70
     4
177
     2
291
     0
 71
     0
176
     1
 72
     2
176
     1
 73
     0
176
     1
 90
        0
176
     1
 40
-0.6
176
     1
 41
-30.0
176
     1
 62
     5
 63
     7
421
 16777215
176
     1
 74
     1
176
     1
 91
        4
176
     1
 64
     7
176
     1
 65
   257
176
     1
 75
     1
176
     1
175
     1
176
     1
 42
1.0
176
     1
 92
        0
176
     1
 66
   257
176
     1
 43
1.0
176
     1
 76
     1
176
     1
 77
     6
176
     1
 78
     2
176
     1
 67
     7
176
     1
 79
     5
176
     1
170
     0
176
     1
171
     0
176
     1
290
     0
176
     1
 93
        1
176
     1
 44
0.0
176
     1
173
     0
176
     1
  0
VISUALSTYLE
  5
31
102
{ACAD_REACTORS
330
2A
102
}
330
2A
100
AcDbVisualStyle
  2
3D Hidden
 70
     6
177
     2
291
     0
 71
     1
176
     1
 72
     2
176
     1
 73
     2
176
     1
 90
        0
176
     1
 40
-0.6
176
     1
 41
-30.0
176
     1
 62
     5
 63
     7
421
 16777215
176
     1
 74
     2
176
     1
 91
        2
176
     1
 64
     7
176
     1
 65
   257
176
     1
 75
     2
176
     1
175
     1
176
     1
 42
40.0
176
     1
 92
        0
176
     1
 66
   257
176
     1
 43
1.0
176
     1
 76
     1
176
     1
 77
     6
176
     1
 78
     2
176
     1
 67
     7
176
     1
 79
     3
176
     1
170
     0
176
     1
171
     0
176
     1
290
     0
176
     1
 93
        1
176
     1
 44
0.0
176
     1
173
     0
176
     1
  0
VISUALSTYLE
  5
30
102
{ACAD_REACTORS
330
2A
102
}
330
2A
100
AcDbVisualStyle
  2
3dWireframe
 70
     5
177
     2
291
     0
 71
     0
176
     1
 72
     2
176
     1
 73
     0
176
     1
 90
        0
176
     1
 40
-0.6
176
     1
 41
-30.0
176
     1
 62
     5
 63
     7
421
 16777215
176
     1
 74
     1
176
     1
 91
        4
176
     1
 64
     7
176
     1
 65
   257
176
     1
 75
     1
176
     1
175
     1
176
     1
 42
1.0
176
     1
 92
        0
176
     1
 66
   257
176
     1
 43
1.0
176
     1
 76
     1
176
     1
 77
     6
176
     1
 78
     2
176
     1
 67
     7
176
     1
 79
     5
176
     1
170
     0
176
     1
171
     0
176
     1
290
     0
176
     1
 93
        1
176
     1
 44
0.0
176
     1
173
     0
176
     1
  0
VISUALSTYLE
  5
32
102
{ACAD_REACTORS
330
2A
102
}
330
2A
100
AcDbVisualStyle
  2
Basic
 70
     7
177
     2
291
     1
 71
     1
176
     1
 72
     0
176
     1
 73
     1
176
     1
 90
        0
176
     1
 40
-0.6
176
     1
 41
-30.0
176
     1
 62
     5
 63
     7
421
 16777215
176
     1
 74
     0
176
     1
 91
        4
176
     1
 64
     7
176
     1
 65
   257
176
     1
 75
     1
176
     1
175
     1
176
     1
 42
1.0
176
     1
 92
        8
176
     1
 66
     7
176
     1
 43
1.0
176
     1
 76
     1
176
     1
 77
     6
176
     1
 78
     2
176
     1
 67
     7
176
     1
 79
     5
176
     1
170
     0
176
     1
171
     0
176
     1
290
     0
176
     1
 93
        1
176
     1
 44
0.0
176
     1
173
     0
176
     1
  0
VISUALSTYLE
  5
36
102
{ACAD_REACTORS
330
2A
102
}
330
2A
100
AcDbVisualStyle
  2
Brighten
 70
    12
177
     2
291
     1
 71
     2
176
     1
 72
     2
176
     1
 73
     0
176
     1
 90
        0
176
     1
 40
-0.6
176
     1
 41
-30.0
176
     1
 62
     5
 63
     7
421
 16777215
176
     1
 74
     1
176
     1
 91
        4
176
     1
 64
     7
176
     1
 65
   257
176
     1
 75
     1
176
     1
175
     1
176
     1
 42
1.0
176
     1
 92
        8
176
     1
 66
     7
176
     1
 43
1.0
176
     1
 76
     1
176
     1
 77
     6
176
     1
 78
     2
176
     1
 67
     7
176
     1
 79
     5
176
     1
170
     0
176
     1
171
     0
176
     1
290
     0
176
     1
 93
        1
176
     1
 44
50.0
176
     1
173
     0
176
     1
  0
VISUALSTYLE
  5
3A
102
{ACAD_REACTORS
330
2A
102
}
330
2A
100
AcDbVisualStyle
  2
ColorChange
 70
    16
177
     2
291
     1
 71
     2
176
     1
 72
     2
176
     1
 73
     3
176
     1
 90
        0
176
     1
 40
-0.6
176
     1
 41
-30.0
176
     1
 62
     5
 63
     8
421
  8421504
176
     1
 74
     1
176
     1
 91
        4
176
     1
 64
     7
176
     1
 65
   257
176
     1
 75
     1
176
     1
175
     1
176
     1
 42
1.0
176
     1
 92
        8
176
     1
 66
     8
424
  8421504
176
     1
 43
1.0
176
     1
 76
     1
176
     1
 77
     6
176
     1
 78
     2
176
     1
 67
     7
176
     1
 79
     5
176
     1
170
     0
176
     1
171
     0
176
     1
290
     0
176
     1
 93
        1
176
     1
 44
0.0
176
     1
173
     0
176
     1
  0
VISUALSTYLE
  5
34
102
{ACAD_REACTORS
330
2A
102
}
330
2A
100
AcDbVisualStyle
  2
Conceptual
 70
     9
177
     2
291
     0
 71
     3
176
     1
 72
     2
176
     1
 73
     0
176
     1
 90
        0
176
     1
 40
-0.6
176
     1
 41
-30.0
176
     1
 62
     5
 63
     7
421
 16777215
176
     1
 74
     2
176
     1
 91
        2
176
     1
 64
     7
176
     1
 65
   257
176
     1
 75
     1
176
     1
175
     1
176
     1
 42
40.0
176
     1
 92
        8
176
     1
 66
     7
176
     1
 43
1.0
176
     1
 76
     1
176
     1
 77
     6
176
     1
 78
     2
176
     1
 67
     7
176
     1
 79
     3
176
     1
170
     0
176
     1
171
     0
176
     1
290
     0
176
     1
 93
        1
176
     1
 44
0.0
176
     1
173
     0
176
     1
  0
VISUALSTYLE
  5
35
102
{ACAD_REACTORS
330
2A
102
}
330
2A
100
AcDbVisualStyle
  2
Dim
 70
    11
177
     2
291
     1
 71
     2
176
     1
 72
     2
176
     1
 73
     0
176
     1
 90
        0
176
     1
 40
-0.6
176
     1
 41
-30.0
176
     1
 62
     5
 63
     7
421
 16777215
176
     1
 74
     1
176
     1
 91
        4
176
     1
 64
     7
176
     1
 65
   257
176
     1
 75
     1
176
     1
175
     1
176
     1
 42
1.0
176
     1
 92
        8
176
     1
 66
     7
176
     1
 43
1.0
176
     1
 76
     1
176
     1
 77
     6
176
     1
 78
     2
176
     1
 67
     7
176
     1
 79
     5
176
     1
170
     0
176
     1
171
     0
176
     1
290
     0
176
     1
 93
        1
176
     1
 44
-50.0
176
     1
173
     0
176
     1
  0
VISUALSTYLE
  5
39
102
{ACAD_REACTORS
330
2A
102
}
330
2A
100
AcDbVisualStyle
  2
Facepattern
 70
    15
177
     2
291
     1
 71
     2
176
     1
 72
     2
176
     1
 73
     0
176
     1
 90
        0
176
     1
 40
-0.6
176
     1
 41
-30.0
176
     1
 62
     5
 63
     7
421
 16777215
176
     1
 74
     1
176
     1
 91
        4
176
     1
 64
     7
176
     1
 65
   257
176
     1
 75
     1
176
     1
175
     1
176
     1
 42
1.0
176
     1
 92
        8
176
     1
 66
     7
176
     1
 43
1.0
176
     1
 76
     1
176
     1
 77
     6
176
     1
 78
     2
176
     1
 67
     7
176
     1
 79
     5
176
     1
170
     0
176
     1
171
     0
176
     1
290
     0
176
     1
 93
        1
176
     1
 44
0.0
176
     1
173
     0
176
     1
  0
VISUALSTYLE
  5
2B
102
{ACAD_REACTORS
330
2A
102
}
330
2A
100
AcDbVisualStyle
  2
Flat
 70
     0
177
     2
291
     1
 71
     2
176
     1
 72
     1
176
     1
 73
     1
176
     1
 90
        2
176
     1
 40
-0.6
176
     1
 41
30.0
176
     1
 62
     5
 63
     7
421
 16777215
176
     1
 74
     0
176
     1
 91
        4
176
     1
 64
     7
176
     1
 65
   257
176
     1
 75
     1
176
     1
175
     1
176
     1
 42
1.0
176
     1
 92
        8
176
     1
 66
     7
176
     1
 43
1.0
176
     1
 76
     1
176
     1
 77
     6
176
     1
 78
     2
176
     1
 67
     7
176
     1
 79
     5
176
     1
170
     0
176
     1
171
     0
176
     1
290
     0
176
     1
 93
       13
176
     1
 44
0.0
176
     1
173
     0
176
     1
  0
VISUALSTYLE
  5
2C
102
{ACAD_REACTORS
330
2A
102
}
330
2A
100
AcDbVisualStyle
  2
FlatWithEdges
 70
     1
177
     2
291
     1
 71
     2
176
     1
 72
     1
176
     1
 73
     1
176
     1
 90
        2
176
     1
 40
-0.6
176
     1
 41
30.0
176
     1
 62
     5
 63
     7
421
 16777215
176
     1
 74
     1
176
     1
 91
        4
176
     1
 64
     7
176
     1
 65
   257
176
     1
 75
     1
176
     1
175
     1
176
     1
 42
1.0
176
     1
 92
        0
176
     1
 66
   257
176
     1
 43
1.0
176
     1
 76
     1
176
     1
 77
     6
176
     1
 78
     2
176
     1
 67
     7
176
     1
 79
     5
176
     1
170
     0
176
     1
171
     0
176
     1
290
     0
176
     1
 93
       13
176
     1
 44
0.0
176
     1
173
     0
176
     1
  0
VISUALSTYLE
  5
2D
102
{ACAD_REACTORS
330
2A
102
}
330
2A
100
AcDbVisualStyle
  2
Gouraud
 70
     2
177
     2
291
     1
 71
     2
176
     1
 72
     2
176
     1
 73
     1
176
     1
 90
        2
176
     1
 40
-0.6
176
     1
 41
30.0
176
     1
 62
     5
 63
     7
421
 16777215
176
     1
 74
     0
176
     1
 91
        4
176
     1
 64
     7
176
     1
 65
   257
176
     1
 75
     1
176
     1
175
     1
176
     1
 42
1.0
176
     1
 92
        0
176
     1
 66
     7
176
     1
 43
1.0
176
     1
 76
     1
176
     1
 77
     6
176
     1
 78
     2
176
     1
 67
     7
176
     1
 79
     5
176
     1
170
     0
176
     1
171
     0
176
     1
290
     0
176
     1
 93
       13
176
     1
 44
0.0
176
     1
173
     0
176
     1
  0
VISUALSTYLE
  5
2E
102
{ACAD_REACTORS
330
2A
102
}
330
2A
100
AcDbVisualStyle
  2
GouraudWithEdges
 70
     3
177
     2
291
     1
 71
     2
176
     1
 72
     2
176
     1
 73
     1
176
     1
 90
        2
176
     1
 40
-0.6
176
     1
 41
30.0
176
     1
 62
     5
 63
     7
421
 16777215
176
     1
 74
     1
176
     1
 91
        4
176
     1
 64
     7
176
     1
 65
   257
176
     1
 75
     1
176
     1
175
     1
176
     1
 42
1.0
176
     1
 92
        0
176
     1
 66
   257
176
     1
 43
1.0
176
     1
 76
     1
176
     1
 77
     6
176
     1
 78
     2
176
     1
 67
     7
176
     1
 79
     5
176
     1
170
     0
176
     1
171
     0
176
     1
290
     0
176
     1
 93
       13
176
     1
 44
0.0
176
     1
173
     0
176
     1
  0
VISUALSTYLE
  5
38
102
{ACAD_REACTORS
330
2A
102
}
330
2A
100
AcDbVisualStyle
  2
Linepattern
 70
    14
177
     2
291
     1
 71
     2
176
     1
 72
     2
176
     1
 73
     0
176
     1
 90
        0
176
     1
 40
-0.6
176
     1
 41
-30.0
176
     1
 62
     5
 63
     7
421
 16777215
176
     1
 74
     1
176
     1
 91
        4
176
     1
 64
     7
176
     1
 65
   257
176
     1
 75
     7
176
     1
175
     7
176
     1
 42
1.0
176
     1
 92
        8
176
     1
 66
     7
176
     1
 43
1.0
176
     1
 76
     1
176
     1
 77
     6
176
     1
 78
     2
176
     1
 67
     7
176
     1
 79
     5
176
     1
170
     0
176
     1
171
     0
176
     1
290
     0
176
     1
 93
        1
176
     1
 44
0.0
176
     1
173
     0
176
     1
  0
VISUALSTYLE
  5
33
102
{ACAD_REACTORS
330
2A
102
}
330
2A
100
AcDbVisualStyle
  2
Realistic
 70
     8
177
     2
291
     0
 71
     2
176
     1
 72
     2
176
     1
 73
     0
176
     1
 90
        0
176
     1
 40
-0.6
176
     1
 41
-30.0
176
     1
 62
     5
 63
     7
421
 16777215
176
     1
 74
     1
176
     1
 91
        0
176
     1
 64
     7
176
     1
 65
   257
176
     1
 75
     1
176
     1
175
     1
176
     1
 42
1.0
176
     1
 92
        8
176
     1
 66
     8
424
  7895160
176
     1
 43
1.0
176
     1
 76
     1
176
     1
 77
     6
176
     1
 78
     2
176
     1
 67
     7
176
     1
 79
     5
176
     1
170
     0
176
     1
171
     0
176
     1
290
     0
176
     1
 93
       13
176
     1
 44
0.0
176
     1
173
     0
176
     1
  0
VISUALSTYLE
  5
37
102
{ACAD_REACTORS
330
2A
102
}
330
2A
100
AcDbVisualStyle
  2
Thicken
 70
    13
177
     2
291
     1
 71
     2
176
     1
 72
     2
176
     1
 73
     0
176
     1
 90
        0
176
     1
 40
-0.6
176
     1
 41
-30.0
176
     1
 62
     5
 63
     7
421
 16777215
176
     1
 74
     1
176
     1
 91
        4
176
     1
 64
     7
176
     1
 65
   257
176
     1
 75
     1
176
     1
175
     1
176
     1
 42
1.0
176
     1
 92
       12
176
     1
 66
     7
176
     1
 43
1.0
176
     1
 76
     1
176
     1
 77
     6
176
     1
 78
     2
176
     1
 67
     7
176
     1
 79
     5
176
     1
170
     0
176
     1
171
     0
176
     1
290
     0
176
     1
 93
        1
176
     1
 44
0.0
176
     1
173
     0
176
     1
  0
ENDSEC
  0
EOF
