  0
SECTION
  2
HEADER
  9
$ACADVER
  1
AC1024
  9
$ACADMAINTVER
 70
     6
  9
$DWGCODEPAGE
  3
ANSI_932
  9
$INSBASE
 10
0.0
 20
0.0
 30
0.0
  9
$EXTMIN
 10
-4455.0
 20
-3150.0
 30
0.0
  9
$EXTMAX
 10
4455.0
 20
3150.0
 30
0.0
  9
$LIMMIN
 10
-4455.0
 20
-3150.0
  9
$LIMMAX
 10
4455.0
 20
3150.0
  9
$ORTHOMODE
 70
     0
  9
$REGENMODE
 70
     1
  9
$FILLMODE
 70
     1
  9
$QTEXTMODE
 70
     0
  9
$MIRRTEXT
 70
     1
  9
$LTSCALE
 40
30.0
  9
$ATTMODE
 70
     1
  9
$TEXTSIZE
 40
2.5
  9
$TRACEWID
 40
1.0
  9
$TEXTSTYLE
  7
Standard
  9
$CLAYER
  8
0
  9
$CELTYPE
  6
ByLayer
  9
$CECOLOR
 62
   256
  9
$CELTSCALE
 40
1.0
  9
$DISPSILH
 70
     0
  9
$DIMSCALE
 40
1.0
  9
$DIMASZ
 40
2.5
  9
$DIMEXO
 40
0.625
  9
$DIMDLI
 40
3.75
  9
$DIMRND
 40
0.0
  9
$DIMDLE
 40
0.0
  9
$DIMEXE
 40
1.25
  9
$DIMTP
 40
0.0
  9
$DIMTM
 40
0.0
  9
$DIMTXT
 40
2.5
  9
$DIMCEN
 40
2.5
  9
$DIMTSZ
 40
0.0
  9
$DIMTOL
 70
     0
  9
$DIMLIM
 70
     0
  9
$DIMTIH
 70
     0
  9
$DIMTOH
 70
     0
  9
$DIMSE1
 70
     0
  9
$DIMSE2
 70
     0
  9
$DIMTAD
 70
     1
  9
$DIMZIN
 70
     8
  9
$DIMBLK
  1

  9
$DIMASO
 70
     1
  9
$DIMSHO
 70
     1
  9
$DIMPOST
  1

  9
$DIMAPOST
  1

  9
$DIMALT
 70
     0
  9
$DIMALTD
 70
     3
  9
$DIMALTF
 40
0.03937007874016
  9
$DIMLFAC
 40
1.0
  9
$DIMTOFL
 70
     1
  9
$DIMTVP
 40
0.0
  9
$DIMTIX
 70
     0
  9
$DIMSOXD
 70
     0
  9
$DIMSAH
 70
     0
  9
$DIMBLK1
  1

  9
$DIMBLK2
  1

  9
$DIMSTYLE
  2
ISO-25
  9
$DIMCLRD
 70
     0
  9
$DIMCLRE
 70
     0
  9
$DIMCLRT
 70
     0
  9
$DIMTFAC
 40
1.0
  9
$DIMGAP
 40
0.625
  9
$DIMJUST
 70
     0
  9
$DIMSD1
 70
     0
  9
$DIMSD2
 70
     0
  9
$DIMTOLJ
 70
     0
  9
$DIMTZIN
 70
     8
  9
$DIMALTZ
 70
     0
  9
$DIMALTTZ
 70
     0
  9
$DIMUPT
 70
     0
  9
$DIMDEC
 70
     2
  9
$DIMTDEC
 70
     2
  9
$DIMALTU
 70
     2
  9
$DIMALTTD
 70
     3
  9
$DIMTXSTY
  7
Standard
  9
$DIMAUNIT
 70
     0
  9
$DIMADEC
 70
     0
  9
$DIMALTRND
 40
0.0
  9
$DIMAZIN
 70
     0
  9
$DIMDSEP
 70
    44
  9
$DIMATFIT
 70
     3
  9
$DIMFRAC
 70
     0
  9
$DIMLDRBLK
  1

  9
$DIMLUNIT
 70
     2
  9
$DIMLWD
 70
    -2
  9
$DIMLWE
 70
    -2
  9
$DIMTMOVE
 70
     0
  9
$DIMFXL
 40
1.0
  9
$DIMFXLON
 70
     0
  9
$DIMJOGANG
 40
0.7853981633974483
  9
$DIMTFILL
 70
     0
  9
$DIMTFILLCLR
 70
     0
  9
$DIMARCSYM
 70
     0
  9
$DIMLTYPE
  6

  9
$DIMLTEX1
  6

  9
$DIMLTEX2
  6

  9
$DIMTXTDIRECTION
 70
     0
  9
$LUNITS
 70
     2
  9
$LUPREC
 70
     4
  9
$SKETCHINC
 40
1.0
  9
$FILLETRAD
 40
10.0
  9
$AUNITS
 70
     0
  9
$AUPREC
 70
     0
  9
$MENU
  1
.
  9
$ELEVATION
 40
0.0
  9
$PELEVATION
 40
0.0
  9
$THICKNESS
 40
0.0
  9
$LIMCHECK
 70
     0
  9
$CHAMFERA
 40
10.0
  9
$CHAMFERB
 40
10.0
  9
$CHAMFERC
 40
20.0
  9
$CHAMFERD
 40
0.0
  9
$SKPOLY
 70
     0
  9
$TDCREATE
 40
2457913.585623519
  9
$TDUCREATE
 40
2457913.210623519
  9
$TDUPDATE
 40
2457913.58562353
  9
$TDUUPDATE
 40
2457913.21062353
  9
$TDINDWG
 40
0.0000000116
  9
$TDUSRTIMER
 40
0.0000000116
  9
$USRTIMER
 70
     1
  9
$ANGBASE
 50
0.0
  9
$ANGDIR
 70
     0
  9
$PDMODE
 70
     0
  9
$PDSIZE
 40
0.0
  9
$PLINEWID
 40
0.0
  9
$SPLFRAME
 70
     0
  9
$SPLINETYPE
 70
     6
  9
$SPLINESEGS
 70
     8
  9
$HANDSEED
  5
4EE
  9
$SURFTAB1
 70
     6
  9
$SURFTAB2
 70
     6
  9
$SURFTYPE
 70
     6
  9
$SURFU
 70
     6
  9
$SURFV
 70
     6
  9
$UCSBASE
  2

  9
$UCSNAME
  2

  9
$UCSORG
 10
0.0
 20
0.0
 30
0.0
  9
$UCSXDIR
 10
1.0
 20
0.0
 30
0.0
  9
$UCSYDIR
 10
0.0
 20
1.0
 30
0.0
  9
$UCSORTHOREF
  2

  9
$UCSORTHOVIEW
 70
     0
  9
$UCSORGTOP
 10
0.0
 20
0.0
 30
0.0
  9
$UCSORGBOTTOM
 10
0.0
 20
0.0
 30
0.0
  9
$UCSORGLEFT
 10
0.0
 20
0.0
 30
0.0
  9
$UCSORGRIGHT
 10
0.0
 20
0.0
 30
0.0
  9
$UCSORGFRONT
 10
0.0
 20
0.0
 30
0.0
  9
$UCSORGBACK
 10
0.0
 20
0.0
 30
0.0
  9
$PUCSBASE
  2

  9
$PUCSNAME
  2

  9
$PUCSORG
 10
0.0
 20
0.0
 30
0.0
  9
$PUCSXDIR
 10
1.0
 20
0.0
 30
0.0
  9
$PUCSYDIR
 10
0.0
 20
1.0
 30
0.0
  9
$PUCSORTHOREF
  2

  9
$PUCSORTHOVIEW
 70
     0
  9
$PUCSORGTOP
 10
0.0
 20
0.0
 30
0.0
  9
$PUCSORGBOTTOM
 10
0.0
 20
0.0
 30
0.0
  9
$PUCSORGLEFT
 10
0.0
 20
0.0
 30
0.0
  9
$PUCSORGRIGHT
 10
0.0
 20
0.0
 30
0.0
  9
$PUCSORGFRONT
 10
0.0
 20
0.0
 30
0.0
  9
$PUCSORGBACK
 10
0.0
 20
0.0
 30
0.0
  9
$USERI1
 70
     0
  9
$USERI2
 70
     0
  9
$USERI3
 70
     0
  9
$USERI4
 70
     0
  9
$USERI5
 70
     0
  9
$USERR1
 40
0.0
  9
$USERR2
 40
0.0
  9
$USERR3
 40
0.0
  9
$USERR4
 40
0.0
  9
$USERR5
 40
0.0
  9
$WORLDVIEW
 70
     1
  9
$SHADEDGE
 70
     3
  9
$SHADEDIF
 70
    70
  9
$TILEMODE
 70
     1
  9
$MAXACTVP
 70
    64
  9
$PINSBASE
 10
0.0
 20
0.0
 30
0.0
  9
$PLIMCHECK
 70
     0
  9
$PEXTMIN
 10
1.000000000000000E+20
 20
1.000000000000000E+20
 30
1.000000000000000E+20
  9
$PEXTMAX
 10
-1.000000000000000E+20
 20
-1.000000000000000E+20
 30
-1.000000000000000E+20
  9
$PLIMMIN
 10
0.0
 20
0.0
  9
$PLIMMAX
 10
420.0
 20
297.0
  9
$UNITMODE
 70
     0
  9
$VISRETAIN
 70
     1
  9
$PLINEGEN
 70
     0
  9
$PSLTSCALE
 70
     1
  9
$TREEDEPTH
 70
  3020
  9
$CMLSTYLE
  2
Standard
  9
$CMLJUST
 70
     0
  9
$CMLSCALE
 40
20.0
  9
$PROXYGRAPHICS
 70
     1
  9
$MEASUREMENT
 70
     1
  9
$CELWEIGHT
370
    -1
  9
$ENDCAPS
280
     0
  9
$JOINSTYLE
280
     0
  9
$LWDISPLAY
290
     0
  9
$INSUNITS
 70
     4
  9
$HYPERLINKBASE
  1

  9
$STYLESHEET
  1

  9
$XEDIT
290
     1
  9
$CEPSNTYPE
380
     0
  9
$PSTYLEMODE
290
     1
  9
$FINGERPRINTGUID
  2
{98BC5503-815A-4B27-BF46-3381A633FEF2}
  9
$VERSIONGUID
  2
{FAEB1C32-E019-11D5-929B-00C0DF256EC4}
  9
$EXTNAMES
290
     1
  9
$PSVPSCALE
 40
0.0
  9
$OLESTARTUP
290
     0
  9
$SORTENTS
280
   127
  9
$INDEXCTL
280
     0
  9
$HIDETEXT
280
     1
  9
$XCLIPFRAME
280
     2
  9
$HALOGAP
280
     0
  9
$OBSCOLOR
 70
   257
  9
$OBSLTYPE
280
     0
  9
$INTERSECTIONDISPLAY
280
     0
  9
$INTERSECTIONCOLOR
 70
   257
  9
$DIMASSOC
280
     2
  9
$PROJECTNAME
  1

  9
$CAMERADISPLAY
290
     0
  9
$LENSLENGTH
 40
50.0
  9
$CAMERAHEIGHT
 40
0.0
  9
$STEPSPERSEC
 40
2.0
  9
$STEPSIZE
 40
6.0
  9
$3DDWFPREC
 40
2.0
  9
$PSOLWIDTH
 40
5.0
  9
$PSOLHEIGHT
 40
80.0
  9
$LOFTANG1
 40
1.570796326794897
  9
$LOFTANG2
 40
1.570796326794897
  9
$LOFTMAG1
 40
0.0
  9
$LOFTMAG2
 40
0.0
  9
$LOFTPARAM
 70
     7
  9
$LOFTNORMALS
280
     1
  9
$LATITUDE
 40
37.795
  9
$LONGITUDE
 40
-122.394
  9
$NORTHDIRECTION
 40
0.0
  9
$TIMEZONE
 70
 -8000
  9
$LIGHTGLYPHDISPLAY
280
     1
  9
$TILEMODELIGHTSYNCH
280
     1
  9
$SOLIDHIST
280
     1
  9
$SHOWHIST
280
     1
  9
$DWFFRAME
280
     2
  9
$DGNFRAME
280
     2
  9
$REALWORLDSCALE
290
     1
  9
$INTERFERECOLOR
 62
   256
  9
$CSHADOW
280
     0
  9
$SHADOWPLANELOCATION
 40
0.0
  0
ENDSEC
  0
SECTION
  2
CLASSES
  0
CLASS
  1
ACDBDICTIONARYWDFLT
  2
AcDbDictionaryWithDefault
  3
ObjectDBX Classes
 90
        0
 91
        4
280
     0
281
     0
  0
CLASS
  1
VISUALSTYLE
  2
AcDbVisualStyle
  3
ObjectDBX Classes
 90
     4095
 91
        4
280
     0
281
     0
  0
CLASS
  1
MATERIAL
  2
AcDbMaterial
  3
ObjectDBX Classes
 90
     1153
 91
        4
280
     0
281
     0
  0
ENDSEC
  0
SECTION
  2
TABLES
  0
TABLE
  2
VPORT
  5
8
330
0
100
AcDbSymbolTable
 70
     1
  0
VPORT
  5
29
330
8
100
AcDbSymbolTableRecord
100
AcDbViewportTableRecord
  2
*Active
 70
     0
 10
0.0
 20
0.0
 11
1.0
 21
1.0
 12
0.0
 22
0.0
 13
0.0
 23
0.0
 14
10.0
 24
10.0
 15
10.0
 25
10.0
 16
0.0
 26
0.0
 36
1.0
 17
0.0
 27
0.0
 37
0.0
 40
6930.000000000001
 41
1.414285714285714
 42
50.0
 43
0.0
 44
0.0
 50
0.0
 51
0.0
 71
     0
 72
 10000
 73
     1
 74
     3
 75
     0
 76
     0
 77
     0
 78
     0
281
     0
 65
     1
110
0.0
120
0.0
130
0.0
111
1.0
121
0.0
131
0.0
112
0.0
122
1.0
132
0.0
 79
     0
146
0.0
 60
     3
 61
     5
292
     1
282
     1
141
0.0
142
0.0
 63
   250
  0
ENDTAB
  0
TABLE
  2
LTYPE
  5
5
330
0
100
AcDbSymbolTable
 70
     2
  0
LTYPE
  5
14
330
5
100
AcDbSymbolTableRecord
100
AcDbLinetypeTableRecord
  2
ByBlock
 70
     0
  3

 72
    65
 73
     0
 40
0.0
  0
LTYPE
  5
15
330
5
100
AcDbSymbolTableRecord
100
AcDbLinetypeTableRecord
  2
ByLayer
 70
     0
  3

 72
    65
 73
     0
 40
0.0
  0
LTYPE
  5
16
330
5
100
AcDbSymbolTableRecord
100
AcDbLinetypeTableRecord
  2
Continuous
 70
     0
  3
Solid line
 72
    65
 73
     0
 40
0.0
  0
LTYPE
  5
3F
330
5
100
AcDbSymbolTableRecord
100
AcDbLinetypeTableRecord
  2
JWW_DASHED1
 70
     0
  3
-  --  --  --  --  --  --  --  -
 72
    65
 73
     2
 40
1.693333333333333
 49
0.8466666666666667
 74
     0
 49
-0.8466666666666667
 74
     0
  0
ENDTAB
  0
TABLE
  2
LAYER
  5
2
330
0
100
AcDbSymbolTable
 70
     3
  0
LAYER
  5
10
330
2
100
AcDbSymbolTableRecord
100
AcDbLayerTableRecord
  2
0
 70
     0
 62
     7
  6
Continuous
370
    -3
390
F
347
3E
  0
LAYER
  5
40
330
2
100
AcDbSymbolTableRecord
100
AcDbLayerTableRecord
  2
0-0
 70
     0
 62
     7
  6
Continuous
370
    -3
390
F
347
3E
  0
LAYER
  5
41
330
2
100
AcDbSymbolTableRecord
100
AcDbLayerTableRecord
  2
寸法
 70
     0
 62
     7
  6
Continuous
370
    -3
390
F
347
3E
  0
ENDTAB
  0
TABLE
  2
STYLE
  5
3
330
0
100
AcDbSymbolTable
 70
     1
  0
STYLE
  5
11
330
3
100
AcDbSymbolTableRecord
100
AcDbTextStyleTableRecord
  2
Standard
 70
     0
 40
0.0
 41
1.0
 50
0.0
 71
     0
 42
2.5
  3
txt
  4

  0
ENDTAB
  0
TABLE
  2
VIEW
  5
6
330
0
100
AcDbSymbolTable
 70
     0
  0
ENDTAB
  0
TABLE
  2
UCS
  5
7
330
0
100
AcDbSymbolTable
 70
     0
  0
ENDTAB
  0
TABLE
  2
APPID
  5
9
330
0
100
AcDbSymbolTable
 70
     1
  0
APPID
  5
12
330
9
100
AcDbSymbolTableRecord
100
AcDbRegAppTableRecord
  2
ACAD
 70
     0
  0
ENDTAB
  0
TABLE
  2
DIMSTYLE
  5
A
330
0
100
AcDbSymbolTable
 70
     1
100
AcDbDimStyleTable
  0
DIMSTYLE
105
27
330
A
100
AcDbSymbolTableRecord
100
AcDbDimStyleTableRecord
  2
ISO-25
 70
     0
 41
2.5
 42
0.625
 43
3.75
 44
1.25
 73
     0
 74
     0
 77
     1
 78
     8
140
2.5
141
2.5
143
0.03937007874016
147
0.625
171
     3
172
     1
178
     0
271
     2
272
     2
274
     3
278
    44
283
     0
284
     8
340
11
  0
ENDTAB
  0
TABLE
  2
BLOCK_RECORD
  5
1
330
0
100
AcDbSymbolTable
 70
     1
  0
BLOCK_RECORD
  5
1F
330
1
100
AcDbSymbolTableRecord
100
AcDbBlockTableRecord
  2
*Model_Space
340
22
 70
     0
280
     1
281
     0
  0
BLOCK_RECORD
  5
1B
330
1
100
AcDbSymbolTableRecord
100
AcDbBlockTableRecord
  2
*Paper_Space
340
1E
 70
     0
280
     1
281
     0
  0
BLOCK_RECORD
  5
23
330
1
100
AcDbSymbolTableRecord
100
AcDbBlockTableRecord
  2
*Paper_Space0
340
26
 70
     0
280
     1
281
     0
  0
ENDTAB
  0
ENDSEC
  0
SECTION
  2
BLOCKS
  0
BLOCK
  5
20
330
1F
100
AcDbEntity
  8
0
100
AcDbBlockBegin
  2
*Model_Space
 70
     0
 10
0.0
 20
0.0
 30
0.0
  3
*Model_Space
  1

  0
ENDBLK
  5
21
330
1F
100
AcDbEntity
  8
0
100
AcDbBlockEnd
  0
BLOCK
  5
1C
330
1B
100
AcDbEntity
 67
     1
  8
0
100
AcDbBlockBegin
  2
*Paper_Space
 70
     0
 10
0.0
 20
0.0
 30
0.0
  3
*Paper_Space
  1

  0
ENDBLK
  5
1D
330
1B
100
AcDbEntity
 67
     1
  8
0
100
AcDbBlockEnd
  0
BLOCK
  5
24
330
23
100
AcDbEntity
  8
0
100
AcDbBlockBegin
  2
*Paper_Space0
 70
     0
 10
0.0
 20
0.0
 30
0.0
  3
*Paper_Space0
  1

  0
ENDBLK
  5
25
330
23
100
AcDbEntity
  8
0
100
AcDbBlockEnd
  0
ENDSEC
  0
SECTION
  2
ENTITIES
  0
LINE
  5
42
330
1F
100
AcDbEntity
  8
0-0
  6
Continuous
 62
    92
370
    13
100
AcDbLine
 10
-766.7182484224522
 20
1093.19981209306
 30
0.0
 11
817.2817515775464
 21
1093.19981209306
 31
0.0
  0
LINE
  5
43
330
1F
100
AcDbEntity
  8
0-0
  6
Continuous
 62
    92
370
    13
100
AcDbLine
 10
-796.7182484224522
 20
-912.3001879069411
 30
0.0
 11
-796.7182484224522
 21
1123.19981209306
 31
0.0
  0
ARC
  5
44
330
1F
100
AcDbEntity
  8
0-0
  6
Continuous
 62
    92
370
    13
100
AcDbCircle
 10
-738.2182484224543
 20
113.1998120930582
 30
0.0
 40
1.5
100
AcDbArc
 50
90.0
 51
180.0
  0
LINE
  5
45
330
1F
100
AcDbEntity
  8
0-0
  6
Continuous
 62
    92
370
    13
100
AcDbLine
 10
-699.2182484224522
 20
114.6998120930585
 30
0.0
 11
-738.2182484224543
 21
114.6998120930585
 31
0.0
  0
ARC
  5
46
330
1F
100
AcDbEntity
  8
0-0
  6
Continuous
 62
    92
370
    13
100
AcDbCircle
 10
-699.2182484224522
 20
113.1998120930582
 30
0.0
 40
1.5
100
AcDbArc
 50
0.0
 51
90.00000000000001
  0
LINE
  5
47
330
1F
100
AcDbEntity
  8
0-0
  6
Continuous
 62
    92
370
    13
100
AcDbLine
 10
-697.7182484224536
 20
-5.800187906941048
 30
0.0
 11
-697.7182484224536
 21
113.1998120930582
 31
0.0
  0
ARC
  5
48
330
1F
100
AcDbEntity
  8
0-0
  6
Continuous
 62
    92
370
    13
100
AcDbCircle
 10
-699.2182484224522
 20
-5.800187906941048
 30
0.0
 40
1.5
100
AcDbArc
 50
270.0
 51
0.0
  0
LINE
  5
49
330
1F
100
AcDbEntity
  8
0-0
  6
Continuous
 62
    92
370
    13
100
AcDbLine
 10
-738.2182484224543
 20
-7.300187906942242
 30
0.0
 11
-699.2182484224522
 21
-7.300187906942242
 31
0.0
  0
LINE
  5
4A
330
1F
100
AcDbEntity
  8
0-0
  6
Continuous
 62
    92
370
    13
100
AcDbLine
 10
-739.7182484224529
 20
-5.800187906941048
 30
0.0
 11
-739.7182484224529
 21
113.1998120930582
 31
0.0
  0
ARC
  5
4B
330
1F
100
AcDbEntity
  8
0-0
  6
Continuous
 62
    92
370
    13
100
AcDbCircle
 10
-738.2182484224543
 20
-5.800187906941048
 30
0.0
 40
1.5
100
AcDbArc
 50
180.0
 51
270.0
  0
ARC
  5
4C
330
1F
100
AcDbEntity
  8
0-0
  6
Continuous
 62
     7
370
     9
100
AcDbCircle
 10
-718.7182484224533
 20
24.09981209305904
 30
0.0
 40
15.0
100
AcDbArc
 50
180.0
 51
0.0
  0
ARC
  5
4D
330
1F
100
AcDbEntity
  8
0-0
  6
Continuous
 62
     7
370
     9
100
AcDbCircle
 10
-718.7182484224533
 20
83.29981209305721
 30
0.0
 40
15.0
100
AcDbArc
 50
0.0
 51
180.0
  0
LINE
  5
4E
330
1F
100
AcDbEntity
  8
0-0
  6
Continuous
 62
     7
370
     9
100
AcDbLine
 10
-703.7182484224533
 20
24.09981209305904
 30
0.0
 11
-703.7182484224533
 21
83.29981209305721
 31
0.0
  0
LINE
  5
4F
330
1F
100
AcDbEntity
  8
0-0
  6
Continuous
 62
     7
370
     9
100
AcDbLine
 10
-733.7182484224533
 20
83.29981209305721
 30
0.0
 11
-733.7182484224533
 21
24.09981209305904
 31
0.0
  0
LINE
  5
50
330
1F
100
AcDbEntity
  8
0-0
  6
JWW_DASHED1
 62
   120
370
     5
100
AcDbLine
 10
-769.7182484224529
 20
1079.199812093059
 30
0.0
 11
-769.7182484224529
 21
-903.8001879069411
 31
0.0
  0
LINE
  5
51
330
1F
100
AcDbEntity
  8
0-0
  6
JWW_DASHED1
 62
   120
370
     5
100
AcDbLine
 10
-766.7182484224522
 20
1079.199812093059
 30
0.0
 11
-769.7182484224529
 21
1079.199812093059
 31
0.0
  0
LINE
  5
52
330
1F
100
AcDbEntity
  8
0-0
  6
JWW_DASHED1
 62
   120
370
     5
100
AcDbLine
 10
-769.7182484224529
 20
-903.8001879069411
 30
0.0
 11
-766.7182484224522
 21
-903.8001879069411
 31
0.0
  0
LINE
  5
53
330
1F
100
AcDbEntity
  8
0-0
  6
Continuous
 62
    92
370
    13
100
AcDbLine
 10
847.2817515775464
 20
-912.3001879069411
 30
0.0
 11
847.2817515775464
 21
1123.19981209306
 31
0.0
  0
LINE
  5
54
330
1F
100
AcDbEntity
  8
0-0
  6
Continuous
 62
    92
370
    13
100
AcDbLine
 10
817.2817515775464
 20
-903.5954089141043
 30
0.0
 11
817.2817515775464
 21
-903.2624231044462
 31
0.0
  0
ARC
  5
55
330
1F
100
AcDbEntity
  8
0-0
  6
Continuous
 62
    92
370
    13
100
AcDbCircle
 10
749.7817515775464
 20
113.1998120930582
 30
0.0
 40
1.5
100
AcDbArc
 50
90.0
 51
180.0
  0
LINE
  5
56
330
1F
100
AcDbEntity
  8
0-0
  6
Continuous
 62
    92
370
    13
100
AcDbLine
 10
788.7817515775484
 20
114.6998120930585
 30
0.0
 11
749.7817515775464
 21
114.6998120930585
 31
0.0
  0
ARC
  5
57
330
1F
100
AcDbEntity
  8
0-0
  6
Continuous
 62
    92
370
    13
100
AcDbCircle
 10
788.7817515775484
 20
113.1998120930582
 30
0.0
 40
1.5
100
AcDbArc
 50
0.0
 51
90.00000000000001
  0
LINE
  5
58
330
1F
100
AcDbEntity
  8
0-0
  6
Continuous
 62
    92
370
    13
100
AcDbLine
 10
790.2817515775471
 20
-5.800187906941048
 30
0.0
 11
790.2817515775471
 21
113.1998120930582
 31
0.0
  0
ARC
  5
59
330
1F
100
AcDbEntity
  8
0-0
  6
Continuous
 62
    92
370
    13
100
AcDbCircle
 10
788.7817515775484
 20
-5.800187906941048
 30
0.0
 40
1.5
100
AcDbArc
 50
270.0
 51
0.0
  0
LINE
  5
5A
330
1F
100
AcDbEntity
  8
0-0
  6
Continuous
 62
    92
370
    13
100
AcDbLine
 10
749.7817515775464
 20
-7.300187906942242
 30
0.0
 11
788.7817515775484
 21
-7.300187906942242
 31
0.0
  0
LINE
  5
5B
330
1F
100
AcDbEntity
  8
0-0
  6
Continuous
 62
    92
370
    13
100
AcDbLine
 10
748.2817515775461
 20
-5.800187906941048
 30
0.0
 11
748.2817515775461
 21
113.1998120930582
 31
0.0
  0
ARC
  5
5C
330
1F
100
AcDbEntity
  8
0-0
  6
Continuous
 62
    92
370
    13
100
AcDbCircle
 10
749.7817515775464
 20
-5.800187906941048
 30
0.0
 40
1.5
100
AcDbArc
 50
180.0
 51
270.0
  0
ARC
  5
5D
330
1F
100
AcDbEntity
  8
0-0
  6
Continuous
 62
     7
370
     9
100
AcDbCircle
 10
769.2817515775474
 20
24.09981209305904
 30
0.0
 40
15.0
100
AcDbArc
 50
180.0
 51
0.0
  0
ARC
  5
5E
330
1F
100
AcDbEntity
  8
0-0
  6
Continuous
 62
     7
370
     9
100
AcDbCircle
 10
769.2817515775474
 20
83.29981209305721
 30
0.0
 40
15.0
100
AcDbArc
 50
0.0
 51
180.0
  0
LINE
  5
5F
330
1F
100
AcDbEntity
  8
0-0
  6
Continuous
 62
     7
370
     9
100
AcDbLine
 10
784.2817515775474
 20
24.09981209305904
 30
0.0
 11
784.2817515775474
 21
83.29981209305721
 31
0.0
  0
LINE
  5
60
330
1F
100
AcDbEntity
  8
0-0
  6
Continuous
 62
     7
370
     9
100
AcDbLine
 10
754.2817515775474
 20
83.29981209305721
 30
0.0
 11
754.2817515775474
 21
24.09981209305904
 31
0.0
  0
LINE
  5
61
330
1F
100
AcDbEntity
  8
0-0
  6
Continuous
 62
    92
370
    13
100
AcDbLine
 10
817.2817515775464
 20
-903.2624231044462
 30
0.0
 11
817.2817515775464
 21
1123.19981209306
 31
0.0
  0
LINE
  5
62
330
1F
100
AcDbEntity
  8
0-0
  6
Continuous
 62
    92
370
    13
100
AcDbLine
 10
-796.7182484224522
 20
1123.19981209306
 30
0.0
 11
847.2817515775464
 21
1123.19981209306
 31
0.0
  0
LINE
  5
63
330
1F
100
AcDbEntity
  8
0-0
  6
JWW_DASHED1
 62
   120
370
     5
100
AcDbLine
 10
820.2817515775471
 20
1079.199812093059
 30
0.0
 11
820.2817515775471
 21
-903.8001879069411
 31
0.0
  0
LINE
  5
64
330
1F
100
AcDbEntity
  8
0-0
  6
JWW_DASHED1
 62
   120
370
     5
100
AcDbLine
 10
820.2817515775471
 20
-903.8001879069411
 30
0.0
 11
817.2817515775464
 21
-903.8001879069411
 31
0.0
  0
LINE
  5
65
330
1F
100
AcDbEntity
  8
0-0
  6
JWW_DASHED1
 62
   120
370
     5
100
AcDbLine
 10
817.2817515775464
 20
1079.199812093059
 30
0.0
 11
820.2817515775471
 21
1079.199812093059
 31
0.0
  0
LINE
  5
66
330
1F
100
AcDbEntity
  8
0-0
  6
Continuous
 62
    92
370
    13
100
AcDbLine
 10
10.28175157754715
 20
-903.8001879069411
 30
0.0
 11
10.28175157754715
 21
1079.199812093059
 31
0.0
  0
LINE
  5
67
330
1F
100
AcDbEntity
  8
0-0
  6
JWW_DASHED1
 62
   120
370
     5
100
AcDbLine
 10
40.28175157754886
 20
-903.8001879069411
 30
0.0
 11
40.28175157754886
 21
1079.199812093059
 31
0.0
  0
LINE
  5
68
330
1F
100
AcDbEntity
  8
0-0
  6
Continuous
 62
    92
370
    13
100
AcDbLine
 10
817.2817515775464
 20
1079.199812093059
 30
0.0
 11
-766.7182484224522
 21
1079.199812093059
 31
0.0
  0
LINE
  5
69
330
1F
100
AcDbEntity
  8
0-0
  6
Continuous
 62
    92
370
    13
100
AcDbLine
 10
-766.7182484224522
 20
-903.8001879069411
 30
0.0
 11
817.2817515775464
 21
-903.8001879069411
 31
0.0
  0
LINE
  5
6A
330
1F
100
AcDbEntity
  8
0-0
  6
Continuous
 62
    92
370
    13
100
AcDbLine
 10
-766.7182484224522
 20
-912.3001879069411
 30
0.0
 11
-796.7182484224522
 21
-912.3001879069411
 31
0.0
  0
LINE
  5
6B
330
1F
100
AcDbEntity
  8
0-0
  6
Continuous
 62
    92
370
    13
100
AcDbLine
 10
-766.7182484224522
 20
-912.3001879069411
 30
0.0
 11
-766.7182484224522
 21
1123.19981209306
 31
0.0
  0
LINE
  5
6C
330
1F
100
AcDbEntity
  8
0-0
  6
Continuous
 62
    92
370
    13
100
AcDbLine
 10
847.2817515775464
 20
-912.3001879069411
 30
0.0
 11
817.2817515775464
 21
-912.3001879069411
 31
0.0
  0
LINE
  5
6D
330
1F
100
AcDbEntity
  8
0-0
  6
Continuous
 62
    92
370
    13
100
AcDbLine
 10
817.2817515775464
 20
-912.3001879069411
 30
0.0
 11
817.2817515775464
 21
-903.5954089141043
 31
0.0
  0
LINE
  5
6E
330
1F
100
AcDbEntity
  8
0-0
  6
Continuous
 62
    92
370
    13
100
AcDbLine
 10
710.2817515775465
 20
-762.8001879069415
 30
0.0
 11
120.2817515775477
 21
-762.8001879069415
 31
0.0
  0
LINE
  5
6F
330
1F
100
AcDbEntity
  8
0-0
  6
Continuous
 62
    92
370
    13
100
AcDbLine
 10
-69.71824842245171
 20
-762.8001879069415
 30
0.0
 11
-659.718248422454
 21
-762.8001879069415
 31
0.0
  0
LINE
  5
70
330
1F
100
AcDbEntity
  8
0-0
  6
JWW_DASHED1
 62
   120
370
     5
100
AcDbLine
 10
-72.61176704065876
 20
-762.8001879069287
 30
0.0
 11
-69.71824842246535
 21
-759.9066692887349
 31
0.0
  0
LINE
  5
71
330
1F
100
AcDbEntity
  8
0-0
  6
JWW_DASHED1
 62
   120
370
     5
100
AcDbLine
 10
-79.68283485253566
 20
-762.800187906939
 30
0.0
 11
-69.71824842245512
 21
-752.8356014768582
 31
0.0
  0
LINE
  5
72
330
1F
100
AcDbEntity
  8
0-0
  6
JWW_DASHED1
 62
   120
370
     5
100
AcDbLine
 10
-86.75390266441086
 20
-762.8001879069478
 30
0.0
 11
-69.71824842244489
 21
-745.764533664982
 31
0.0
  0
LINE
  5
73
330
1F
100
AcDbEntity
  8
0-0
  6
JWW_DASHED1
 62
   120
370
     5
100
AcDbLine
 10
-93.82497047625706
 20
-762.8001879069278
 30
0.0
 11
-69.71824842246706
 21
-738.6934658531363
 31
0.0
  0
LINE
  5
74
330
1F
100
AcDbEntity
  8
0-0
  6
JWW_DASHED1
 62
   120
370
     5
100
AcDbLine
 10
-100.896038288134
 20
-762.800187906938
 30
0.0
 11
-69.71824842245682
 21
-731.6223980412601
 31
0.0
  0
LINE
  5
75
330
1F
100
AcDbEntity
  8
0-0
  6
JWW_DASHED1
 62
   120
370
     5
100
AcDbLine
 10
-107.9671061000109
 20
-762.8001879069483
 30
0.0
 11
-69.71824842244659
 21
-724.5513302293836
 31
0.0
  0
LINE
  5
76
330
1F
100
AcDbEntity
  8
0-0
  6
JWW_DASHED1
 62
   120
370
     5
100
AcDbLine
 10
-115.038173911886
 20
-762.8001879069556
 30
0.0
 11
-69.71824842243807
 21
-717.4802624175071
 31
0.0
  0
LINE
  5
77
330
1F
100
AcDbEntity
  8
0-0
  6
JWW_DASHED1
 62
   120
370
     5
100
AcDbLine
 10
-122.1092417237339
 20
-762.800187906937
 30
0.0
 11
-69.71824842245853
 21
-710.4091946056618
 31
0.0
  0
LINE
  5
78
330
1F
100
AcDbEntity
  8
0-0
  6
JWW_DASHED1
 62
   120
370
     5
100
AcDbLine
 10
-129.1803095356109
 20
-762.8001879069475
 30
0.0
 11
-69.7182484224483
 21
-703.3381267937851
 31
0.0
  0
LINE
  5
79
330
1F
100
AcDbEntity
  8
0-0
  6
JWW_DASHED1
 62
   120
370
     5
100
AcDbLine
 10
-136.2513773474826
 20
-762.8001879069532
 30
0.0
 11
-69.71824842243807
 21
-696.2670589819088
 31
0.0
  0
LINE
  5
7A
330
1F
100
AcDbEntity
  8
0-0
  6
JWW_DASHED1
 62
   120
370
     5
100
AcDbLine
 10
-143.3224451593323
 20
-762.8001879069361
 30
0.0
 11
-69.71824842246023
 21
-689.1959911700635
 31
0.0
  0
LINE
  5
7B
330
1F
100
AcDbEntity
  8
0-0
  6
JWW_DASHED1
 62
   120
370
     5
100
AcDbLine
 10
-150.3935129712092
 20
-762.8001879069463
 30
0.0
 11
-69.71824842245
 21
-682.1249233581866
 31
0.0
  0
LINE
  5
7C
330
1F
100
AcDbEntity
  8
0-0
  6
JWW_DASHED1
 62
   120
370
     5
100
AcDbLine
 10
-157.4645807830809
 20
-762.8001879069509
 30
0.0
 11
-69.71824842244148
 21
-675.053855546311
 31
0.0
  0
LINE
  5
7D
330
1F
100
AcDbEntity
  8
0-0
  6
JWW_DASHED1
 62
   120
370
     5
100
AcDbLine
 10
-164.5356485949323
 20
-762.8001879069353
 30
0.0
 11
-69.71824842246194
 21
-667.9827877344652
 31
0.0
  0
LINE
  5
7E
330
1F
100
AcDbEntity
  8
0-0
  6
JWW_DASHED1
 62
   120
370
     5
100
AcDbLine
 10
-171.6067164068092
 20
-762.8001879069453
 30
0.0
 11
-69.71824842245171
 21
-660.9117199225885
 31
0.0
  0
LINE
  5
7F
330
1F
100
AcDbEntity
  8
0-0
  6
JWW_DASHED1
 62
   120
370
     5
100
AcDbLine
 10
-178.6777842186792
 20
-762.8001879069487
 30
0.0
 11
-69.71824842244318
 21
-653.8406521107124
 31
0.0
  0
LINE
  5
80
330
1F
100
AcDbEntity
  8
0-0
  6
JWW_DASHED1
 62
   120
370
     5
100
AcDbLine
 10
-185.7488520305306
 20
-762.8001879069342
 30
0.0
 11
-69.71824842246365
 21
-646.7695842988669
 31
0.0
  0
LINE
  5
81
330
1F
100
AcDbEntity
  8
0-0
  6
JWW_DASHED1
 62
   120
370
     5
100
AcDbLine
 10
-192.8199198424075
 20
-762.8001879069444
 30
0.0
 11
-69.71824842245341
 21
-639.69851648699
 31
0.0
  0
LINE
  5
82
330
1F
100
AcDbEntity
  8
0-0
  6
JWW_DASHED1
 62
   120
370
     5
100
AcDbLine
 10
-199.8909876542758
 20
-762.8001879069463
 30
0.0
 11
-69.71824842244489
 21
-632.6274486751148
 31
0.0
  0
LINE
  5
83
330
1F
100
AcDbEntity
  8
0-0
  6
JWW_DASHED1
 62
   120
370
     5
100
AcDbLine
 10
-206.9620554661306
 20
-762.8001879069332
 30
0.0
 11
-69.71824842246535
 21
-625.5563808632686
 31
0.0
  0
LINE
  5
84
330
1F
100
AcDbEntity
  8
0-0
  6
JWW_DASHED1
 62
   120
370
     5
100
AcDbLine
 10
-214.0331232780075
 20
-762.8001879069434
 30
0.0
 11
-69.71824842245512
 21
-618.4853130513919
 31
0.0
  0
LINE
  5
85
330
1F
100
AcDbEntity
  8
0-0
  6
JWW_DASHED1
 62
   120
370
     5
100
AcDbLine
 10
-221.1041910898741
 20
-762.8001879069443
 30
0.0
 11
-69.71824842244659
 21
-611.4142452395167
 31
0.0
  0
LINE
  5
86
330
1F
100
AcDbEntity
  8
0-0
  6
JWW_DASHED1
 62
   120
370
     5
100
AcDbLine
 10
-228.1752589017511
 20
-762.8001879069541
 30
0.0
 11
-69.71824842243636
 21
-604.34317742764
 31
0.0
  0
LINE
  5
87
330
1F
100
AcDbEntity
  8
0-0
  6
JWW_DASHED1
 62
   120
370
     5
100
AcDbLine
 10
-235.2463267136058
 20
-762.8001879069428
 30
0.0
 11
-69.71824842245682
 21
-597.2721096157937
 31
0.0
  0
LINE
  5
88
330
1F
100
AcDbEntity
  8
0-0
  6
JWW_DASHED1
 62
   120
370
     5
100
AcDbLine
 10
-242.3173945254827
 20
-762.800187906953
 30
0.0
 11
-69.7182484224483
 21
-590.2010418039187
 31
0.0
  0
LINE
  5
89
330
1F
100
AcDbEntity
  8
0-0
  6
JWW_DASHED1
 62
   120
370
     5
100
AcDbLine
 10
-249.3884623373494
 20
-762.8001879069517
 30
0.0
 11
-69.71824842243807
 21
-583.1299739920421
 31
0.0
  0
LINE
  5
8A
330
1F
100
AcDbEntity
  8
0-0
  6
JWW_DASHED1
 62
   120
370
     5
100
AcDbLine
 10
-256.4595301492058
 20
-762.8001879069417
 30
0.0
 11
-69.71824842245853
 21
-576.0589061801953
 31
0.0
  0
LINE
  5
8B
330
1F
100
AcDbEntity
  8
0-0
  6
JWW_DASHED1
 62
   120
370
     5
100
AcDbLine
 10
-263.5305979610827
 20
-762.8001879069519
 30
0.0
 11
-69.7182484224483
 21
-568.9878383683186
 31
0.0
  0
LINE
  5
8C
330
1F
100
AcDbEntity
  8
0-0
  6
JWW_DASHED1
 62
   120
370
     5
100
AcDbLine
 10
-270.601665772946
 20
-762.8001879069496
 30
0.0
 11
-69.71824842244148
 21
-561.9167705564438
 31
0.0
  0
LINE
  5
8D
330
1F
100
AcDbEntity
  8
0-0
  6
JWW_DASHED1
 62
   120
370
     5
100
AcDbLine
 10
-277.6727335848041
 20
-762.8001879069409
 30
0.0
 11
-69.71824842246023
 21
-554.8457027445971
 31
0.0
  0
LINE
  5
8E
330
1F
100
AcDbEntity
  8
0-0
  6
JWW_DASHED1
 62
   120
370
     5
100
AcDbLine
 10
-284.743801396681
 20
-762.8001879069511
 30
0.0
 11
-69.71824842245
 21
-547.7746349327202
 31
0.0
  0
LINE
  5
8F
330
1F
100
AcDbEntity
  8
0-0
  6
JWW_DASHED1
 62
   120
370
     5
100
AcDbLine
 10
-291.8148692085443
 20
-762.8001879069473
 30
0.0
 11
-69.71824842244148
 21
-540.7035671208455
 31
0.0
  0
LINE
  5
90
330
1F
100
AcDbEntity
  8
0-0
  6
JWW_DASHED1
 62
   120
370
     5
100
AcDbLine
 10
-298.8859370204041
 20
-762.8001879069398
 30
0.0
 11
-69.71824842246194
 21
-533.632499308999
 31
0.0
  0
LINE
  5
91
330
1F
100
AcDbEntity
  8
0-0
  6
JWW_DASHED1
 62
   120
370
     5
100
AcDbLine
 10
-305.9570048322793
 20
-762.80018790695
 30
0.0
 11
-69.71824842245171
 21
-526.561431497122
 31
0.0
  0
LINE
  5
92
330
1F
100
AcDbEntity
  8
0-0
  6
JWW_DASHED1
 62
   120
370
     5
100
AcDbLine
 10
-313.0280726441426
 20
-762.8001879069449
 30
0.0
 11
-69.71824842244489
 21
-519.4903636852476
 31
0.0
  0
LINE
  5
93
330
1F
100
AcDbEntity
  8
0-0
  6
JWW_DASHED1
 62
   120
370
     5
100
AcDbLine
 10
-319.7182484224546
 20
-762.4192958733914
 30
0.0
 11
-69.71824842246365
 21
-512.4192958734005
 31
0.0
  0
LINE
  5
94
330
1F
100
AcDbEntity
  8
0-0
  6
JWW_DASHED1
 62
   120
370
     5
100
AcDbLine
 10
-319.718248422446
 20
-755.348228061515
 30
0.0
 11
-69.71824842245341
 21
-505.3482280615236
 31
0.0
  0
LINE
  5
95
330
1F
100
AcDbEntity
  8
0-0
  6
JWW_DASHED1
 62
   120
370
     5
100
AcDbLine
 10
-319.7182484224512
 20
-748.2771602496543
 30
0.0
 11
-69.71824842244659
 21
-498.2771602496498
 31
0.0
  0
LINE
  5
96
330
1F
100
AcDbEntity
  8
0-0
  6
JWW_DASHED1
 62
   120
370
     5
100
AcDbLine
 10
-319.7182484224563
 20
-741.2060924377934
 30
0.0
 11
-69.71824842246535
 21
-491.2060924378023
 31
0.0
  0
LINE
  5
97
330
1F
100
AcDbEntity
  8
0-0
  6
JWW_DASHED1
 62
   120
370
     5
100
AcDbLine
 10
-319.718248422446
 20
-734.1350246259165
 30
0.0
 11
-69.71824842245512
 21
-484.1350246259254
 31
0.0
  0
LINE
  5
98
330
1F
100
AcDbEntity
  8
0-0
  6
JWW_DASHED1
 62
   120
370
     5
100
AcDbLine
 10
-319.7182484224409
 20
-727.063956814099
 30
0.0
 11
-69.71824842245
 21
-477.0639568141078
 31
0.0
  0
LINE
  5
99
330
1F
100
AcDbEntity
  8
0-0
  6
JWW_DASHED1
 62
   120
370
     5
100
AcDbLine
 10
-319.7182484224477
 20
-719.9928890022386
 30
0.0
 11
-69.71824842244318
 21
-469.9928890022338
 31
0.0
  0
LINE
  5
9A
330
1F
100
AcDbEntity
  8
0-0
  6
JWW_DASHED1
 62
   120
370
     5
100
AcDbLine
 10
-319.7182484224529
 20
-712.9218211903775
 30
0.0
 11
-69.71824842246194
 21
-462.9218211903859
 31
0.0
  0
LINE
  5
9B
330
1F
100
AcDbEntity
  8
0-0
  6
JWW_DASHED1
 62
   120
370
     5
100
AcDbLine
 10
-319.7182484224426
 20
-705.8507533785008
 30
0.0
 11
-69.71824842245171
 21
-455.8507533785095
 31
0.0
  0
LINE
  5
9C
330
1F
100
AcDbEntity
  8
0-0
  6
JWW_DASHED1
 62
   120
370
     5
100
AcDbLine
 10
-319.7182484224494
 20
-698.7796855666405
 30
0.0
 11
-69.71824842244489
 21
-448.7796855666357
 31
0.0
  0
LINE
  5
9D
330
1F
100
AcDbEntity
  8
0-0
  6
JWW_DASHED1
 62
   120
370
     5
100
AcDbLine
 10
-319.7182484224546
 20
-691.7086177547792
 30
0.0
 11
-69.71824842246365
 21
-441.7086177547878
 31
0.0
  0
LINE
  5
9E
330
1F
100
AcDbEntity
  8
0-0
  6
JWW_DASHED1
 62
   120
370
     5
100
AcDbLine
 10
-319.7182484224443
 20
-684.6375499429024
 30
0.0
 11
-69.71824842245341
 21
-434.6375499429112
 31
0.0
  0
LINE
  5
9F
330
1F
100
AcDbEntity
  8
0-0
  6
JWW_DASHED1
 62
   120
370
     5
100
AcDbLine
 10
-319.7182484224512
 20
-677.5664821310424
 30
0.0
 11
-69.71824842244659
 21
-427.5664821310377
 31
0.0
  0
LINE
  5
A0
330
1F
100
AcDbEntity
  8
0-0
  6
JWW_DASHED1
 62
   120
370
     5
100
AcDbLine
 10
-412.0230220102214
 20
-762.800187906946
 30
0.0
 11
-409.7182484224477
 21
-760.4954143191725
 31
0.0
  0
LINE
  5
A1
330
1F
100
AcDbEntity
  8
0-0
  6
JWW_DASHED1
 62
   120
370
     5
100
AcDbLine
 10
-319.7182484224563
 20
-670.4954143191809
 30
0.0
 11
-69.71824842246535
 21
-420.4954143191898
 31
0.0
  0
LINE
  5
A2
330
1F
100
AcDbEntity
  8
0-0
  6
JWW_DASHED1
 62
   120
370
     5
100
AcDbLine
 10
-419.0940898220829
 20
-762.8001879069398
 30
0.0
 11
-409.7182484224546
 21
-753.4243465073114
 31
0.0
  0
LINE
  5
A3
330
1F
100
AcDbEntity
  8
0-0
  6
JWW_DASHED1
 62
   120
370
     5
100
AcDbLine
 10
-319.718248422446
 20
-663.4243465073042
 30
0.0
 11
-69.71824842245512
 21
-413.4243465073129
 31
0.0
  0
LINE
  5
A4
330
1F
100
AcDbEntity
  8
0-0
  6
JWW_DASHED1
 62
   120
370
     5
100
AcDbLine
 10
-426.1651576339581
 20
-762.8001879069498
 30
0.0
 11
-409.7182484224443
 21
-746.3532786954352
 31
0.0
  0
LINE
  5
A5
330
1F
100
AcDbEntity
  8
0-0
  6
JWW_DASHED1
 62
   120
370
     5
100
AcDbLine
 10
-319.7182484224529
 20
-656.3532786954444
 30
0.0
 11
-69.7182484224483
 21
-406.3532786954394
 31
0.0
  0
LINE
  5
A6
330
1F
100
AcDbEntity
  8
0-0
  6
JWW_DASHED1
 62
   120
370
     5
100
AcDbLine
 10
-433.2362254458333
 20
-762.8001879069581
 30
0.0
 11
-409.7182484224341
 21
-739.2822108835585
 31
0.0
  0
LINE
  5
A7
330
1F
100
AcDbEntity
  8
0-0
  6
JWW_DASHED1
 62
   120
370
     5
100
AcDbLine
 10
-319.7182484224426
 20
-649.2822108835678
 30
0.0
 11
-69.71824842243807
 21
-399.2822108835629
 31
0.0
  0
LINE
  5
A8
330
1F
100
AcDbEntity
  8
0-0
  6
JWW_DASHED1
 62
   120
370
     5
100
AcDbLine
 10
-440.3072932576795
 20
-762.8001879069376
 30
0.0
 11
-409.7182484224563
 21
-732.2111430717133
 31
0.0
  0
LINE
  5
A9
330
1F
100
AcDbEntity
  8
0-0
  6
JWW_DASHED1
 62
   120
370
     5
100
AcDbLine
 10
-319.7182484224477
 20
-642.2111430717058
 30
0.0
 11
-69.71824842245682
 21
-392.2111430717146
 31
0.0
  0
LINE
  5
AA
330
1F
100
AcDbEntity
  8
0-0
  6
JWW_DASHED1
 62
   120
370
     5
100
AcDbLine
 10
-447.3783610695564
 20
-762.8001879069475
 30
0.0
 11
-409.718248422446
 21
-725.1400752598369
 31
0.0
  0
LINE
  5
AB
330
1F
100
AcDbEntity
  8
0-0
  6
JWW_DASHED1
 62
   120
370
     5
100
AcDbLine
 10
-319.7182484224375
 20
-635.1400752598292
 30
0.0
 11
-69.71824842244659
 21
-385.1400752598381
 31
0.0
  0
LINE
  5
AC
330
1F
100
AcDbEntity
  8
0-0
  6
JWW_DASHED1
 62
   120
370
     5
100
AcDbLine
 10
-454.4494288814299
 20
-762.8001879069545
 30
0.0
 11
-409.7182484224358
 21
-718.0690074479606
 31
0.0
  0
LINE
  5
AD
330
1F
100
AcDbEntity
  8
0-0
  6
JWW_DASHED1
 62
   120
370
     5
100
AcDbLine
 10
-319.718248422446
 20
-628.0690074479695
 30
0.0
 11
-69.71824842243977
 21
-378.069007447965
 31
0.0
  0
LINE
  5
AE
330
1F
100
AcDbEntity
  8
0-0
  6
JWW_DASHED1
 62
   120
370
     5
100
AcDbLine
 10
-461.5204966932778
 20
-762.8001879069355
 30
0.0
 11
-409.718248422458
 21
-710.9979396361148
 31
0.0
  0
LINE
  5
AF
330
1F
100
AcDbEntity
  8
0-0
  6
JWW_DASHED1
 62
   120
370
     5
100
AcDbLine
 10
-319.7182484224494
 20
-620.9979396361076
 30
0.0
 11
-69.71824842245853
 21
-370.9979396361163
 31
0.0
  0
LINE
  5
B0
330
1F
100
AcDbEntity
  8
0-0
  6
JWW_DASHED1
 62
   120
370
     5
100
AcDbLine
 10
-468.5915645051547
 20
-762.8001879069453
 30
0.0
 11
-409.7182484224477
 21
-703.9268718242386
 31
0.0
  0
LINE
  5
B1
330
1F
100
AcDbEntity
  8
0-0
  6
JWW_DASHED1
 62
   120
370
     5
100
AcDbLine
 10
-319.7182484224392
 20
-613.9268718242308
 30
0.0
 11
-69.7182484224483
 21
-363.9268718242398
 31
0.0
  0
LINE
  5
B2
330
1F
100
AcDbEntity
  8
0-0
  6
JWW_DASHED1
 62
   120
370
     5
100
AcDbLine
 10
-475.6626323170299
 20
-762.8001879069551
 30
0.0
 11
-409.7182484224375
 21
-696.8558040123626
 31
0.0
  0
LINE
  5
B3
330
1F
100
AcDbEntity
  8
0-0
  6
JWW_DASHED1
 62
   120
370
     5
100
AcDbLine
 10
-319.7182484224477
 20
-606.8558040123714
 30
0.0
 11
-69.71824842244148
 21
-356.8558040123667
 31
0.0
  0
LINE
  5
B4
330
1F
100
AcDbEntity
  8
0-0
  6
JWW_DASHED1
 62
   120
370
     5
100
AcDbLine
 10
-482.7337001288762
 20
-762.8001879069332
 30
0.0
 11
-409.7182484224597
 21
-689.7847362005167
 31
0.0
  0
LINE
  5
B5
330
1F
100
AcDbEntity
  8
0-0
  6
JWW_DASHED1
 62
   120
370
     5
100
AcDbLine
 10
-319.7182484224512
 20
-599.7847362005092
 30
0.0
 11
-69.71824842246023
 21
-349.784736200518
 31
0.0
  0
LINE
  5
B6
330
1F
100
AcDbEntity
  8
0-0
  6
JWW_DASHED1
 62
   120
370
     5
100
AcDbLine
 10
-489.8047679407514
 20
-762.8001879069429
 30
0.0
 11
-409.7182484224494
 21
-682.7136683886403
 31
0.0
  0
LINE
  5
B7
330
1F
100
AcDbEntity
  8
0-0
  6
JWW_DASHED1
 62
   120
370
     5
100
AcDbLine
 10
-319.7182484224426
 20
-592.7136683886328
 30
0.0
 11
-69.71824842245
 21
-342.7136683886411
 31
0.0
  0
LINE
  5
B8
330
1F
100
AcDbEntity
  8
0-0
  6
JWW_DASHED1
 62
   120
370
     5
100
AcDbLine
 10
-496.8758357526283
 20
-762.8001879069528
 30
0.0
 11
-409.7182484224392
 21
-675.6426005767642
 31
0.0
  0
LINE
  5
B9
330
1F
100
AcDbEntity
  8
0-0
  6
JWW_DASHED1
 62
   120
370
     5
100
AcDbLine
 10
-319.7182484224494
 20
-585.6426005767734
 30
0.0
 11
-69.71824842244489
 21
-335.6426005767688
 31
0.0
  0
LINE
  5
BA
330
1F
100
AcDbEntity
  8
0-0
  6
JWW_DASHED1
 62
   120
370
     5
100
AcDbLine
 10
-503.9469035644728
 20
-762.8001879069308
 30
0.0
 11
-409.7182484224614
 21
-668.5715327649184
 31
0.0
  0
LINE
  5
BB
330
1F
100
AcDbEntity
  8
0-0
  6
JWW_DASHED1
 62
   120
370
     5
100
AcDbLine
 10
-319.7182484224529
 20
-578.571532764911
 30
0.0
 11
-69.71824842246194
 21
-328.5715327649197
 31
0.0
  0
LINE
  5
BC
330
1F
100
AcDbEntity
  8
0-0
  6
JWW_DASHED1
 62
   120
370
     5
100
AcDbLine
 10
-511.0179713763497
 20
-762.8001879069409
 30
0.0
 11
-409.7182484224512
 21
-661.5004649530415
 31
0.0
  0
LINE
  5
BD
330
1F
100
AcDbEntity
  8
0-0
  6
JWW_DASHED1
 62
   120
370
     5
100
AcDbLine
 10
-319.7182484224426
 20
-571.5004649530345
 30
0.0
 11
-69.71824842245171
 21
-321.5004649530428
 31
0.0
  0
LINE
  5
BE
330
1F
100
AcDbEntity
  8
0-0
  6
JWW_DASHED1
 62
   120
370
     5
100
AcDbLine
 10
-518.0890391882266
 20
-762.8001879069507
 30
0.0
 11
-409.7182484224426
 21
-654.4293971411663
 31
0.0
  0
LINE
  5
BF
330
1F
100
AcDbEntity
  8
0-0
  6
JWW_DASHED1
 62
   120
370
     5
100
AcDbLine
 10
-319.7182484224512
 20
-564.4293971411755
 30
0.0
 11
-69.71824842244659
 21
-314.4293971411705
 31
0.0
  0
LINE
  5
C0
330
1F
100
AcDbEntity
  8
0-0
  6
JWW_DASHED1
 62
   120
370
     5
100
AcDbLine
 10
-525.1601070000796
 20
-762.8001879069373
 30
0.0
 11
-409.718248422446
 21
-647.3583293293043
 31
0.0
  0
LINE
  5
C1
330
1F
100
AcDbEntity
  8
0-0
  6
JWW_DASHED1
 62
   120
370
     5
100
AcDbLine
 10
-319.7182484224546
 20
-557.3583293293126
 30
0.0
 11
-69.71824842246365
 21
-307.3583293293214
 31
0.0
  0
LINE
  5
C2
330
1F
100
AcDbEntity
  8
0-0
  6
JWW_DASHED1
 62
   120
370
     5
100
AcDbLine
 10
-532.231174811948
 20
-762.8001879069385
 30
0.0
 11
-409.7182484224529
 21
-640.2872615174437
 31
0.0
  0
LINE
  5
C3
330
1F
100
AcDbEntity
  8
0-0
  6
JWW_DASHED1
 62
   120
370
     5
100
AcDbLine
 10
-319.7182484224443
 20
-550.287261517436
 30
0.0
 11
-69.71824842245341
 21
-300.2872615174448
 31
0.0
  0
LINE
  5
C4
330
1F
100
AcDbEntity
  8
0-0
  6
JWW_DASHED1
 62
   120
370
     5
100
AcDbLine
 10
-539.3022426238249
 20
-762.8001879069483
 30
0.0
 11
-409.7182484224443
 21
-633.216193705568
 31
0.0
  0
LINE
  5
C5
330
1F
100
AcDbEntity
  8
0-0
  6
JWW_DASHED1
 62
   120
370
     5
100
AcDbLine
 10
-319.7182484224529
 20
-543.2161937055774
 30
0.0
 11
-69.7182484224483
 21
-293.2161937055727
 31
0.0
  0
LINE
  5
C6
330
1F
100
AcDbEntity
  8
0-0
  6
JWW_DASHED1
 62
   120
370
     5
100
AcDbLine
 10
-546.3733104356916
 20
-762.8001879069494
 30
0.0
 11
-409.7182484224341
 21
-626.1451258936916
 31
0.0
  0
LINE
  5
C7
330
1F
100
AcDbEntity
  8
0-0
  6
JWW_DASHED1
 62
   120
370
     5
100
AcDbLine
 10
-319.7182484224426
 20
-536.1451258937008
 30
0.0
 11
-69.71824842245341
 21
-286.1451258937119
 31
0.0
  0
LINE
  5
C8
330
1F
100
AcDbEntity
  8
0-0
  6
JWW_DASHED1
 62
   120
370
     5
100
AcDbLine
 10
-553.4443782475446
 20
-762.8001879069363
 30
0.0
 11
-409.7182484224546
 21
-619.0740580818454
 31
0.0
  0
LINE
  5
C9
330
1F
100
AcDbEntity
  8
0-0
  6
JWW_DASHED1
 62
   120
370
     5
100
AcDbLine
 10
-319.718248422446
 20
-529.0740580818376
 30
0.0
 11
-69.71824842245512
 21
-279.0740580818465
 31
0.0
  0
LINE
  5
CA
330
1F
100
AcDbEntity
  8
0-0
  6
JWW_DASHED1
 62
   120
370
     5
100
AcDbLine
 10
-560.5154460594215
 20
-762.800187906946
 30
0.0
 11
-409.718248422446
 21
-612.0029902699699
 31
0.0
  0
LINE
  5
CB
330
1F
100
AcDbEntity
  8
0-0
  6
JWW_DASHED1
 62
   120
370
     5
100
AcDbLine
 10
-319.7182484224392
 20
-522.0029902699636
 30
0.0
 11
-69.71824842245
 21
-272.0029902699744
 31
0.0
  0
LINE
  5
CC
330
1F
100
AcDbEntity
  8
0-0
  6
JWW_DASHED1
 62
   120
370
     5
100
AcDbLine
 10
-567.5865138712882
 20
-762.800187906946
 30
0.0
 11
-409.7182484224358
 21
-604.9319224580935
 31
0.0
  0
LINE
  5
CD
330
1F
100
AcDbEntity
  8
0-0
  6
JWW_DASHED1
 62
   120
370
     5
100
AcDbLine
 10
-319.7182484224443
 20
-514.9319224581023
 30
0.0
 11
-69.71824842243977
 21
-264.9319224580979
 31
0.0
  0
LINE
  5
CE
330
1F
100
AcDbEntity
  8
0-0
  6
JWW_DASHED1
 62
   120
370
     5
100
AcDbLine
 10
-574.6575816831429
 20
-762.8001879069341
 30
0.0
 11
-409.7182484224563
 21
-597.860854646247
 31
0.0
  0
LINE
  5
CF
330
1F
100
AcDbEntity
  8
0-0
  6
JWW_DASHED1
 62
   120
370
     5
100
AcDbLine
 10
-319.7182484224494
 20
-507.8608546462396
 30
0.0
 11
-69.71824842245682
 21
-257.8608546462482
 31
0.0
  0
LINE
  5
D0
330
1F
100
AcDbEntity
  8
0-0
  6
JWW_DASHED1
 62
   120
370
     5
100
AcDbLine
 10
-581.7286494950198
 20
-762.8001879069438
 30
0.0
 11
-409.718248422446
 21
-590.7897868343704
 31
0.0
  0
LINE
  5
D1
330
1F
100
AcDbEntity
  8
0-0
  6
JWW_DASHED1
 62
   120
370
     5
100
AcDbLine
 10
-319.7182484224392
 20
-500.7897868343627
 30
0.0
 11
-69.71824842244659
 21
-250.7897868343717
 31
0.0
  0
LINE
  5
D2
330
1F
100
AcDbEntity
  8
0-0
  6
JWW_DASHED1
 62
   120
370
     5
100
AcDbLine
 10
-588.799717306895
 20
-762.8001879069532
 30
0.0
 11
-409.7182484224375
 21
-583.7187190224954
 31
0.0
  0
LINE
  5
D3
330
1F
100
AcDbEntity
  8
0-0
  6
JWW_DASHED1
 62
   120
370
     5
100
AcDbLine
 10
-319.718248422446
 20
-493.7187190225043
 30
0.0
 11
-69.71824842244148
 21
-243.7187190224996
 31
0.0
  0
LINE
  5
D4
330
1F
100
AcDbEntity
  8
0-0
  6
JWW_DASHED1
 62
   120
370
     5
100
AcDbLine
 10
-595.8707851187412
 20
-762.8001879069317
 30
0.0
 11
-409.718248422458
 21
-576.6476512106487
 31
0.0
  0
LINE
  5
D5
330
1F
100
AcDbEntity
  8
0-0
  6
JWW_DASHED1
 62
   120
370
     5
100
AcDbLine
 10
-319.7182484224494
 20
-486.6476512106413
 30
0.0
 11
-69.71824842245853
 21
-236.6476512106499
 31
0.0
  0
LINE
  5
D6
330
1F
100
AcDbEntity
  8
0-0
  6
JWW_DASHED1
 62
   120
370
     5
100
AcDbLine
 10
-602.9418529306181
 20
-762.8001879069415
 30
0.0
 11
-409.7182484224477
 21
-569.5765833987721
 31
0.0
  0
LINE
  5
D7
330
1F
100
AcDbEntity
  8
0-0
  6
JWW_DASHED1
 62
   120
370
     5
100
AcDbLine
 10
-319.7182484224392
 20
-479.5765833987644
 30
0.0
 11
-69.7182484224483
 21
-229.5765833987734
 31
0.0
  0
LINE
  5
D8
330
1F
100
AcDbEntity
  8
0-0
  6
JWW_DASHED1
 62
   120
370
     5
100
AcDbLine
 10
-610.0129207424933
 20
-762.8001879069512
 30
0.0
 11
-409.7182484224392
 21
-562.5055155868973
 31
0.0
  0
LINE
  5
D9
330
1F
100
AcDbEntity
  8
0-0
  6
JWW_DASHED1
 62
   120
370
     5
100
AcDbLine
 10
-319.7182484224494
 20
-472.5055155869064
 30
0.0
 11
-69.71824842244318
 21
-222.5055155869017
 31
0.0
  0
LINE
  5
DA
330
1F
100
AcDbEntity
  8
0-0
  6
JWW_DASHED1
 62
   120
370
     5
100
AcDbLine
 10
-617.0839885543378
 20
-762.8001879069295
 30
0.0
 11
-409.7182484224597
 21
-555.4344477750502
 31
0.0
  0
LINE
  5
DB
330
1F
100
AcDbEntity
  8
0-0
  6
JWW_DASHED1
 62
   120
370
     5
100
AcDbLine
 10
-319.7182484224529
 20
-465.434447775043
 30
0.0
 11
-69.71824842246023
 21
-215.4344477750516
 31
0.0
  0
LINE
  5
DC
330
1F
100
AcDbEntity
  8
0-0
  6
JWW_DASHED1
 62
   120
370
     5
100
AcDbLine
 10
-624.1550563662147
 20
-762.8001879069394
 30
0.0
 11
-409.7182484224494
 21
-548.3633799631738
 31
0.0
  0
LINE
  5
DD
330
1F
100
AcDbEntity
  8
0-0
  6
JWW_DASHED1
 62
   120
370
     5
100
AcDbLine
 10
-319.7182484224426
 20
-458.3633799631663
 30
0.0
 11
-69.71824842245171
 21
-208.3633799631751
 31
0.0
  0
LINE
  5
DE
330
1F
100
AcDbEntity
  8
0-0
  6
JWW_DASHED1
 62
   120
370
     5
100
AcDbLine
 10
-631.2261241780916
 20
-762.8001879069492
 30
0.0
 11
-409.7182484224409
 21
-541.2923121512993
 31
0.0
  0
LINE
  5
DF
330
1F
100
AcDbEntity
  8
0-0
  6
JWW_DASHED1
 62
   120
370
     5
100
AcDbLine
 10
-319.7182484224512
 20
-451.2923121513084
 30
0.0
 11
-69.71824842244489
 21
-201.2923121513033
 31
0.0
  0
LINE
  5
E0
330
1F
100
AcDbEntity
  8
0-0
  6
JWW_DASHED1
 62
   120
370
     5
100
AcDbLine
 10
-638.2971919899378
 20
-762.8001879069287
 30
0.0
 11
-409.718248422446
 21
-534.2212443394361
 31
0.0
  0
LINE
  5
E1
330
1F
100
AcDbEntity
  8
0-0
  6
JWW_DASHED1
 62
   120
370
     5
100
AcDbLine
 10
-319.7182484224529
 20
-444.2212443394445
 30
0.0
 11
-69.71824842246194
 21
-194.2212443394533
 31
0.0
  0
LINE
  5
E2
330
1F
100
AcDbEntity
  8
0-0
  6
JWW_DASHED1
 62
   120
370
     5
100
AcDbLine
 10
-645.368259801813
 20
-762.800187906937
 30
0.0
 11
-409.7182484224512
 21
-527.1501765275755
 31
0.0
  0
LINE
  5
E3
330
1F
100
AcDbEntity
  8
0-0
  6
JWW_DASHED1
 62
   120
370
     5
100
AcDbLine
 10
-319.7182484224443
 20
-437.1501765275678
 30
0.0
 11
-69.71824842245171
 21
-187.1501765275769
 31
0.0
  0
LINE
  5
E4
330
1F
100
AcDbEntity
  8
0-0
  6
JWW_DASHED1
 62
   120
370
     5
100
AcDbLine
 10
-652.4393276136302
 20
-762.8001879069426
 30
0.0
 11
-409.718248422446
 21
-520.0791087157578
 31
0.0
  0
LINE
  5
E5
330
1F
100
AcDbEntity
  8
0-0
  6
JWW_DASHED1
 62
   120
370
     5
100
AcDbLine
 10
-319.7182484224375
 20
-430.0791087157501
 30
0.0
 11
-69.71824842244659
 21
-180.0791087157588
 31
0.0
  0
LINE
  5
E6
330
1F
100
AcDbEntity
  8
0-0
  6
JWW_DASHED1
 62
   120
370
     5
100
AcDbLine
 10
-659.5103954255071
 20
-762.8001879069521
 30
0.0
 11
-409.7182484224375
 21
-513.0080409038834
 31
0.0
  0
LINE
  5
E7
330
1F
100
AcDbEntity
  8
0-0
  6
JWW_DASHED1
 62
   120
370
     5
100
AcDbLine
 10
-319.7182484224477
 20
-423.0080409038922
 30
0.0
 11
-69.71824842244148
 21
-173.0080409038879
 31
0.0
  0
LINE
  5
E8
330
1F
100
AcDbEntity
  8
0-0
  6
JWW_DASHED1
 62
   120
370
     5
100
AcDbLine
 10
-659.7182484224643
 20
-755.9369730920431
 30
0.0
 11
-409.7182484224563
 21
-505.936973092036
 31
0.0
  0
LINE
  5
E9
330
1F
100
AcDbEntity
  8
0-0
  6
JWW_DASHED1
 62
   120
370
     5
100
AcDbLine
 10
-319.7182484224494
 20
-415.9369730920287
 30
0.0
 11
-69.71824842245853
 21
-165.9369730920374
 31
0.0
  0
LINE
  5
EA
330
1F
100
AcDbEntity
  8
0-0
  6
JWW_DASHED1
 62
   120
370
     5
100
AcDbLine
 10
-659.718248422454
 20
-748.8659052801667
 30
0.0
 11
-409.7182484224477
 21
-498.8659052801595
 31
0.0
  0
LINE
  5
EB
330
1F
100
AcDbEntity
  8
0-0
  6
JWW_DASHED1
 62
   120
370
     5
100
AcDbLine
 10
-319.7182484224392
 20
-408.8659052801522
 30
0.0
 11
-69.7182484224483
 21
-158.8659052801605
 31
0.0
  0
LINE
  5
EC
330
1F
100
AcDbEntity
  8
0-0
  6
JWW_DASHED1
 62
   120
370
     5
100
AcDbLine
 10
-659.7182484224438
 20
-741.7948374682899
 30
0.0
 11
-409.7182484224392
 21
-491.7948374682852
 31
0.0
  0
LINE
  5
ED
330
1F
100
AcDbEntity
  8
0-0
  6
JWW_DASHED1
 62
   120
370
     5
100
AcDbLine
 10
-319.7182484224494
 20
-401.7948374682945
 30
0.0
 11
-69.71824842244489
 21
-151.7948374682896
 31
0.0
  0
LINE
  5
EE
330
1F
100
AcDbEntity
  8
0-0
  6
JWW_DASHED1
 62
   120
370
     5
100
AcDbLine
 10
-659.718248422466
 20
-734.7237696564448
 30
0.0
 11
-409.7182484224597
 21
-484.7237696564377
 31
0.0
  0
LINE
  5
EF
330
1F
100
AcDbEntity
  8
0-0
  6
JWW_DASHED1
 62
   120
370
     5
100
AcDbLine
 10
-319.7182484224512
 20
-394.72376965643
 30
0.0
 11
-69.71824842246023
 21
-144.7237696564391
 31
0.0
  0
LINE
  5
F0
330
1F
100
AcDbEntity
  8
0-0
  6
JWW_DASHED1
 62
   120
370
     5
100
AcDbLine
 10
-659.7182484224558
 20
-727.6527018445682
 30
0.0
 11
-409.7182484224494
 21
-477.6527018445612
 31
0.0
  0
LINE
  5
F1
330
1F
100
AcDbEntity
  8
0-0
  6
JWW_DASHED1
 62
   120
370
     5
100
AcDbLine
 10
-319.7182484224409
 20
-387.6527018445539
 30
0.0
 11
-69.71824842245
 21
-137.6527018445622
 31
0.0
  0
LINE
  5
F2
330
1F
100
AcDbEntity
  8
0-0
  6
JWW_DASHED1
 62
   120
370
     5
100
AcDbLine
 10
-659.7182484224472
 20
-720.581634032692
 30
0.0
 11
-409.7182484224409
 21
-470.5816340326873
 31
0.0
  0
LINE
  5
F3
330
1F
100
AcDbEntity
  8
0-0
  6
JWW_DASHED1
 62
   120
370
     5
100
AcDbLine
 10
-319.7182484224512
 20
-380.5816340326962
 30
0.0
 11
-69.71824842244659
 21
-130.5816340326917
 31
0.0
  0
LINE
  5
F4
330
1F
100
AcDbEntity
  8
0-0
  6
JWW_DASHED1
 62
   120
370
     5
100
AcDbLine
 10
-659.7182484224677
 20
-713.5105662208465
 30
0.0
 11
-409.7182484224443
 21
-463.5105662208235
 31
0.0
  0
LINE
  5
F5
330
1F
100
AcDbEntity
  8
0-0
  6
JWW_DASHED1
 62
   120
370
     5
100
AcDbLine
 10
-319.7182484224529
 20
-373.5105662208317
 30
0.0
 11
-69.71824842246194
 21
-123.5105662208408
 31
0.0
  0
LINE
  5
F6
330
1F
100
AcDbEntity
  8
0-0
  6
JWW_DASHED1
 62
   120
370
     5
100
AcDbLine
 10
-659.7182484224575
 20
-706.43949840897
 30
0.0
 11
-409.7182484224512
 21
-456.4394984089629
 31
0.0
  0
LINE
  5
F7
330
1F
100
AcDbEntity
  8
0-0
  6
JWW_DASHED1
 62
   120
370
     5
100
AcDbLine
 10
-319.7182484224426
 20
-366.4394984089556
 30
0.0
 11
-69.71824842245171
 21
-116.4394984089639
 31
0.0
  0
LINE
  5
F8
330
1F
100
AcDbEntity
  8
0-0
  6
JWW_DASHED1
 62
   120
370
     5
100
AcDbLine
 10
-659.7182484224489
 20
-699.3684305970937
 30
0.0
 11
-409.7182484224426
 21
-449.368430597089
 31
0.0
  0
LINE
  5
F9
330
1F
100
AcDbEntity
  8
0-0
  6
JWW_DASHED1
 62
   120
370
     5
100
AcDbLine
 10
-319.7182484224529
 20
-359.3684305970984
 30
0.0
 11
-69.7182484224483
 21
-109.3684305970934
 31
0.0
  0
LINE
  5
FA
330
1F
100
AcDbEntity
  8
0-0
  6
JWW_DASHED1
 62
   120
370
     5
100
AcDbLine
 10
-659.7182484224694
 20
-692.2973627852484
 30
0.0
 11
-409.718248422446
 21
-442.2973627852253
 31
0.0
  0
LINE
  5
FB
330
1F
100
AcDbEntity
  8
0-0
  6
JWW_DASHED1
 62
   120
370
     5
100
AcDbLine
 10
-319.7182484224546
 20
-352.2973627852334
 30
0.0
 11
-69.71824842246365
 21
-102.2973627852425
 31
0.0
  0
LINE
  5
FC
330
1F
100
AcDbEntity
  8
0-0
  6
JWW_DASHED1
 62
   120
370
     5
100
AcDbLine
 10
-659.7182484224592
 20
-685.2262949733716
 30
0.0
 11
-409.7182484224529
 21
-435.2262949733646
 31
0.0
  0
LINE
  5
FD
330
1F
100
AcDbEntity
  8
0-0
  6
JWW_DASHED1
 62
   120
370
     5
100
AcDbLine
 10
-319.7182484224443
 20
-345.2262949733573
 30
0.0
 11
-69.71824842245341
 21
-95.2262949733656
 31
0.0
  0
LINE
  5
FE
330
1F
100
AcDbEntity
  8
0-0
  6
JWW_DASHED1
 62
   120
370
     5
100
AcDbLine
 10
-659.7182484224506
 20
-678.1552271614956
 30
0.0
 11
-409.718248422446
 21
-428.1552271614911
 31
0.0
  0
LINE
  5
FF
330
1F
100
AcDbEntity
  8
0-0
  6
JWW_DASHED1
 62
   120
370
     5
100
AcDbLine
 10
-319.7182484224546
 20
-338.1552271615005
 30
0.0
 11
-69.71824842245
 21
-88.15522716149552
 31
0.0
  0
LINE
  5
100
330
1F
100
AcDbEntity
  8
0-0
  6
JWW_DASHED1
 62
   120
370
     5
100
AcDbLine
 10
-659.7182484224558
 20
-671.0841593496349
 30
0.0
 11
-409.7182484224358
 21
-421.0841593496147
 31
0.0
  0
LINE
  5
101
330
1F
100
AcDbEntity
  8
0-0
  6
JWW_DASHED1
 62
   120
370
     5
100
AcDbLine
 10
-319.7182484224443
 20
-331.0841593496236
 30
0.0
 11
-69.71824842243977
 21
-81.08415934961904
 31
0.0
  0
LINE
  5
102
330
1F
100
AcDbEntity
  8
0-0
  6
JWW_DASHED1
 62
   120
370
     5
100
AcDbLine
 10
-659.7182484224609
 20
-664.0130915377734
 30
0.0
 11
-409.7182484224529
 21
-414.0130915377657
 31
0.0
  0
LINE
  5
103
330
1F
100
AcDbEntity
  8
0-0
  6
JWW_DASHED1
 62
   120
370
     5
100
AcDbLine
 10
-319.718248422446
 20
-324.013091537759
 30
0.0
 11
-69.71824842245512
 21
-74.0130915377673
 31
0.0
  0
LINE
  5
104
330
1F
100
AcDbEntity
  8
0-0
  6
JWW_DASHED1
 62
   120
370
     5
100
AcDbLine
 10
-659.7182484224506
 20
-656.9420237258967
 30
0.0
 11
-409.7182484224443
 21
-406.9420237258898
 31
0.0
  0
LINE
  5
105
330
1F
100
AcDbEntity
  8
0-0
  6
JWW_DASHED1
 62
   120
370
     5
100
AcDbLine
 10
-319.7182484224358
 20
-316.9420237258821
 30
0.0
 11
-69.71824842244489
 21
-66.94202372589082
 31
0.0
  0
LINE
  5
106
330
1F
100
AcDbEntity
  8
0-0
  6
JWW_DASHED1
 62
   120
370
     5
100
AcDbLine
 10
-659.7182484224575
 20
-649.8709559140368
 30
0.0
 11
-409.7182484224375
 21
-399.8709559140163
 31
0.0
  0
LINE
  5
107
330
1F
100
AcDbEntity
  8
0-0
  6
JWW_DASHED1
 62
   120
370
     5
100
AcDbLine
 10
-319.718248422446
 20
-309.8709559140257
 30
0.0
 11
-69.71824842244148
 21
-59.87095591402074
 31
0.0
  0
LINE
  5
108
330
1F
100
AcDbEntity
  8
0-0
  6
JWW_DASHED1
 62
   120
370
     5
100
AcDbLine
 10
-659.7182484224626
 20
-642.799888102175
 30
0.0
 11
-409.7182484224563
 21
-392.799888102168
 31
0.0
  0
LINE
  5
109
330
1F
100
AcDbEntity
  8
0-0
  6
JWW_DASHED1
 62
   120
370
     5
100
AcDbLine
 10
-319.7182484224477
 20
-302.7998881021607
 30
0.0
 11
-69.71824842245682
 21
-52.79988810216942
 31
0.0
  0
LINE
  5
10A
330
1F
100
AcDbEntity
  8
0-0
  6
JWW_DASHED1
 62
   120
370
     5
100
AcDbLine
 10
-659.7182484224523
 20
-635.7288202902985
 30
0.0
 11
-409.718248422446
 21
-385.7288202902915
 31
0.0
  0
LINE
  5
10B
330
1F
100
AcDbEntity
  8
0-0
  6
JWW_DASHED1
 62
   120
370
     5
100
AcDbLine
 10
-319.7182484224375
 20
-295.7288202902838
 30
0.0
 11
-69.71824842244659
 21
-45.72882029029252
 31
0.0
  0
LINE
  5
10C
330
1F
100
AcDbEntity
  8
0-0
  6
JWW_DASHED1
 62
   120
370
     5
100
AcDbLine
 10
-659.7182484224438
 20
-628.657752478423
 30
0.0
 11
-409.7182484224392
 21
-378.6577524784184
 31
0.0
  0
LINE
  5
10D
330
1F
100
AcDbEntity
  8
0-0
  6
JWW_DASHED1
 62
   120
370
     5
100
AcDbLine
 10
-319.7182484224494
 20
-288.6577524784274
 30
0.0
 11
-69.71824842244318
 21
-38.65775247842244
 31
0.0
  0
LINE
  5
10E
330
1F
100
AcDbEntity
  8
0-0
  6
JWW_DASHED1
 62
   120
370
     5
100
AcDbLine
 10
-659.7182484224643
 20
-621.5866846665768
 30
0.0
 11
-409.7182484224563
 21
-371.5866846665692
 31
0.0
  0
LINE
  5
10F
330
1F
100
AcDbEntity
  8
0-0
  6
JWW_DASHED1
 62
   120
370
     5
100
AcDbLine
 10
-319.7182484224494
 20
-281.5866846665624
 30
0.0
 11
-69.71824842245853
 21
-31.58668466657069
 31
0.0
  0
LINE
  5
110
330
1F
100
AcDbEntity
  8
0-0
  6
JWW_DASHED1
 62
   120
370
     5
100
AcDbLine
 10
-659.718248422454
 20
-614.5156168547
 30
0.0
 11
-409.7182484224477
 21
-364.5156168546932
 31
0.0
  0
LINE
  5
111
330
1F
100
AcDbEntity
  8
0-0
  6
JWW_DASHED1
 62
   120
370
     5
100
AcDbLine
 10
-319.7182484224392
 20
-274.5156168546855
 30
0.0
 11
-69.7182484224483
 21
-24.51561685469422
 31
0.0
  0
LINE
  5
112
330
1F
100
AcDbEntity
  8
0-0
  6
JWW_DASHED1
 62
   120
370
     5
100
AcDbLine
 10
-659.7182484224455
 20
-607.444549042825
 30
0.0
 11
-409.7182484224409
 21
-357.4445490428201
 31
0.0
  0
LINE
  5
113
330
1F
100
AcDbEntity
  8
0-0
  6
JWW_DASHED1
 62
   120
370
     5
100
AcDbLine
 10
-319.7182484224494
 20
-267.4445490428291
 30
0.0
 11
-69.71824842244489
 21
-17.44454904282456
 31
0.0
  0
LINE
  5
114
330
1F
100
AcDbEntity
  8
0-0
  6
JWW_DASHED1
 62
   120
370
     5
100
AcDbLine
 10
-659.718248422466
 20
-600.3734812309784
 30
0.0
 11
-409.7182484224597
 21
-350.3734812309714
 31
0.0
  0
LINE
  5
115
330
1F
100
AcDbEntity
  8
0-0
  6
JWW_DASHED1
 62
   120
370
     5
100
AcDbLine
 10
-319.7182484224512
 20
-260.3734812309641
 30
0.0
 11
-69.71824842246023
 21
-10.37348123097281
 31
0.0
  0
LINE
  5
116
330
1F
100
AcDbEntity
  8
0-0
  6
JWW_DASHED1
 62
   120
370
     5
100
AcDbLine
 10
-659.7182484224558
 20
-593.3024134191019
 30
0.0
 11
-409.7182484224494
 21
-343.3024134190949
 31
0.0
  0
LINE
  5
117
330
1F
100
AcDbEntity
  8
0-0
  6
JWW_DASHED1
 62
   120
370
     5
100
AcDbLine
 10
-319.7182484224426
 20
-253.3024134190872
 30
0.0
 11
-69.71824842245
 21
-3.302413419095913
 31
0.0
  0
LINE
  5
118
330
1F
100
AcDbEntity
  8
0-0
  6
JWW_DASHED1
 62
   120
370
     5
100
AcDbLine
 10
-659.7182484224472
 20
-586.2313456072268
 30
0.0
 11
-409.7182484224426
 21
-336.2313456072222
 31
0.0
  0
LINE
  5
119
330
1F
100
AcDbEntity
  8
0-0
  6
JWW_DASHED1
 62
   120
370
     5
100
AcDbLine
 10
-319.7182484224529
 20
-246.2313456072312
 30
0.0
 11
-69.7182484224483
 21
3.76865439277374
 31
0.0
  0
LINE
  5
11A
330
1F
100
AcDbEntity
  8
0-0
  6
JWW_DASHED1
 62
   120
370
     5
100
AcDbLine
 10
-659.7182484224677
 20
-579.1602777953802
 30
0.0
 11
-409.7182484224443
 21
-329.1602777953573
 31
0.0
  0
LINE
  5
11B
330
1F
100
AcDbEntity
  8
0-0
  6
JWW_DASHED1
 62
   120
370
     5
100
AcDbLine
 10
-319.7182484224529
 20
-239.1602777953654
 30
0.0
 11
-69.71824842246194
 21
10.83972220462591
 31
0.0
  0
LINE
  5
11C
330
1F
100
AcDbEntity
  8
0-0
  6
JWW_DASHED1
 62
   120
370
     5
100
AcDbLine
 10
-659.7182484224575
 20
-572.0892099835035
 30
0.0
 11
-409.7182484224512
 21
-322.0892099834966
 31
0.0
  0
LINE
  5
11D
330
1F
100
AcDbEntity
  8
0-0
  6
JWW_DASHED1
 62
   120
370
     5
100
AcDbLine
 10
-319.7182484224426
 20
-232.0892099834889
 30
0.0
 11
-69.71824842245171
 21
17.91079001650239
 31
0.0
  0
LINE
  5
11E
330
1F
100
AcDbEntity
  8
0-0
  6
JWW_DASHED1
 62
   120
370
     5
100
AcDbLine
 10
-659.7182484224506
 20
-565.0181421716287
 30
0.0
 11
-409.718248422446
 21
-315.0181421716239
 31
0.0
  0
LINE
  5
11F
330
1F
100
AcDbEntity
  8
0-0
  6
JWW_DASHED1
 62
   120
370
     5
100
AcDbLine
 10
-319.7182484224546
 20
-225.0181421716334
 30
0.0
 11
-69.7182484224483
 21
24.98185782837162
 31
0.0
  0
LINE
  5
120
330
1F
100
AcDbEntity
  8
0-0
  6
JWW_DASHED1
 62
   120
370
     5
100
AcDbLine
 10
-659.7182484224694
 20
-557.9470743597818
 30
0.0
 11
-409.718248422446
 21
-307.947074359759
 31
0.0
  0
LINE
  5
121
330
1F
100
AcDbEntity
  8
0-0
  6
JWW_DASHED1
 62
   120
370
     5
100
AcDbLine
 10
-319.7182484224546
 20
-217.9470743597675
 30
0.0
 11
-69.71824842246365
 21
32.05292564022379
 31
0.0
  0
LINE
  5
122
330
1F
100
AcDbEntity
  8
0-0
  6
JWW_DASHED1
 62
   120
370
     5
100
AcDbLine
 10
-659.7182484224592
 20
-550.8760065479053
 30
0.0
 11
-409.7182484224529
 21
-300.8760065478983
 31
0.0
  0
LINE
  5
123
330
1F
100
AcDbEntity
  8
0-0
  6
JWW_DASHED1
 62
   120
370
     5
100
AcDbLine
 10
-319.718248422446
 20
-210.8760065478906
 30
0.0
 11
-69.71824842245341
 21
39.12399345210069
 31
0.0
  0
LINE
  5
124
330
1F
100
AcDbEntity
  8
0-0
  6
JWW_DASHED1
 62
   120
370
     5
100
AcDbLine
 10
-659.7182484224523
 20
-543.8049387360306
 30
0.0
 11
-409.718248422446
 21
-293.8049387360256
 31
0.0
  0
LINE
  5
125
330
1F
100
AcDbEntity
  8
0-0
  6
JWW_DASHED1
 62
   120
370
     5
100
AcDbLine
 10
-319.7182484224392
 20
-203.8049387360188
 30
0.0
 11
-69.71824842245171
 21
46.19506126396992
 31
0.0
  0
LINE
  5
126
330
1F
100
AcDbEntity
  8
0-0
  6
JWW_DASHED1
 62
   120
370
     5
100
AcDbLine
 10
-659.7182484224575
 20
-536.73387092417
 30
0.0
 11
-409.7182484224375
 21
-286.7338709241492
 31
0.0
  0
LINE
  5
127
330
1F
100
AcDbEntity
  8
0-0
  6
JWW_DASHED1
 62
   120
370
     5
100
AcDbLine
 10
-319.718248422446
 20
-196.7338709241586
 30
0.0
 11
-69.71824842244148
 21
53.26612907584639
 31
0.0
  0
LINE
  5
128
330
1F
100
AcDbEntity
  8
0-0
  6
JWW_DASHED1
 62
   120
370
     5
100
AcDbLine
 10
-659.7182484224609
 20
-529.6628031123068
 30
0.0
 11
-409.7182484224546
 21
-279.6628031123
 31
0.0
  0
LINE
  5
129
330
1F
100
AcDbEntity
  8
0-0
  6
JWW_DASHED1
 62
   120
370
     5
100
AcDbLine
 10
-319.718248422446
 20
-189.6628031122923
 30
0.0
 11
-69.71824842245512
 21
60.33719688769857
 31
0.0
  0
LINE
  5
12A
330
1F
100
AcDbEntity
  8
0-0
  6
JWW_DASHED1
 62
   120
370
     5
100
AcDbLine
 10
-659.7182484224523
 20
-522.5917353004302
 30
0.0
 11
-409.7182484224443
 21
-272.5917353004231
 31
0.0
  0
LINE
  5
12B
330
1F
100
AcDbEntity
  8
0-0
  6
JWW_DASHED1
 62
   120
370
     5
100
AcDbLine
 10
-319.7182484224358
 20
-182.5917353004155
 30
0.0
 11
-69.71824842244489
 21
67.40826469957547
 31
0.0
  0
LINE
  5
12C
330
1F
100
AcDbEntity
  8
0-0
  6
JWW_DASHED1
 62
   120
370
     5
100
AcDbLine
 10
-659.7182484224592
 20
-515.5206674885716
 30
0.0
 11
-409.7182484224392
 21
-265.5206674885513
 31
0.0
  0
LINE
  5
12D
330
1F
100
AcDbEntity
  8
0-0
  6
JWW_DASHED1
 62
   120
370
     5
100
AcDbLine
 10
-319.7182484224477
 20
-175.5206674885603
 30
0.0
 11
-69.71824842244318
 21
74.4793325114447
 31
0.0
  0
LINE
  5
12E
330
1F
100
AcDbEntity
  8
0-0
  6
JWW_DASHED1
 62
   120
370
     5
100
AcDbLine
 10
-659.7182484224626
 20
-508.4495996767086
 30
0.0
 11
-409.7182484224563
 21
-258.4495996767017
 31
0.0
  0
LINE
  5
12F
330
1F
100
AcDbEntity
  8
0-0
  6
JWW_DASHED1
 62
   120
370
     5
100
AcDbLine
 10
-319.7182484224494
 20
-168.449599676694
 30
0.0
 11
-69.71824842245682
 21
81.5504003232973
 31
0.0
  0
LINE
  5
130
330
1F
100
AcDbEntity
  8
0-0
  6
JWW_DASHED1
 62
   120
370
     5
100
AcDbLine
 10
-659.718248422454
 20
-501.3785318648319
 30
0.0
 11
-409.718248422446
 21
-251.3785318648248
 31
0.0
  0
LINE
  5
131
330
1F
100
AcDbEntity
  8
0-0
  6
JWW_DASHED1
 62
   120
370
     5
100
AcDbLine
 10
-319.7182484224392
 20
-161.3785318648175
 30
0.0
 11
-69.71824842244659
 21
88.62146813517377
 31
0.0
  0
LINE
  5
132
330
1F
100
AcDbEntity
  8
0-0
  6
JWW_DASHED1
 62
   120
370
     5
100
AcDbLine
 10
-659.7182484224455
 20
-494.3074640529579
 30
0.0
 11
-409.7182484224409
 21
-244.3074640529534
 31
0.0
  0
LINE
  5
133
330
1F
100
AcDbEntity
  8
0-0
  6
JWW_DASHED1
 62
   120
370
     5
100
AcDbLine
 10
-319.7182484224494
 20
-154.3074640529624
 30
0.0
 11
-69.71824842244489
 21
95.69253594704257
 31
0.0
  0
LINE
  5
134
330
1F
100
AcDbEntity
  8
0-0
  6
JWW_DASHED1
 62
   120
370
     5
100
AcDbLine
 10
-659.7182484224643
 20
-487.2363962411103
 30
0.0
 11
-409.718248422458
 21
-237.2363962411034
 31
0.0
  0
LINE
  5
135
330
1F
100
AcDbEntity
  8
0-0
  6
JWW_DASHED1
 62
   120
370
     5
100
AcDbLine
 10
-319.7182484224494
 20
-147.2363962410957
 30
0.0
 11
-69.71824842245853
 21
102.7636037588956
 31
0.0
  0
LINE
  5
136
330
1F
100
AcDbEntity
  8
0-0
  6
JWW_DASHED1
 62
   120
370
     5
100
AcDbLine
 10
-659.7182484224558
 20
-480.1653284292336
 30
0.0
 11
-409.7182484224477
 21
-230.1653284292265
 31
0.0
  0
LINE
  5
137
330
1F
100
AcDbEntity
  8
0-0
  6
JWW_DASHED1
 62
   120
370
     5
100
AcDbLine
 10
-319.7182484224392
 20
-140.1653284292192
 30
0.0
 11
-69.7182484224483
 21
109.8346715707721
 31
0.0
  0
LINE
  5
138
330
1F
100
AcDbEntity
  8
0-0
  6
JWW_DASHED1
 62
   120
370
     5
100
AcDbLine
 10
-659.7182484224472
 20
-473.0942606173597
 30
0.0
 11
-409.7182484224426
 21
-223.0942606173551
 31
0.0
  0
LINE
  5
139
330
1F
100
AcDbEntity
  8
0-0
  6
JWW_DASHED1
 62
   120
370
     5
100
AcDbLine
 10
-319.7182484224529
 20
-133.0942606173641
 30
0.0
 11
-69.71824842244659
 21
116.9057393826409
 31
0.0
  0
LINE
  5
13A
330
1F
100
AcDbEntity
  8
0-0
  6
JWW_DASHED1
 62
   120
370
     5
100
AcDbLine
 10
-659.718248422466
 20
-466.023192805512
 30
0.0
 11
-409.7182484224597
 21
-216.0231928055051
 31
0.0
  0
LINE
  5
13B
330
1F
100
AcDbEntity
  8
0-0
  6
JWW_DASHED1
 62
   120
370
     5
100
AcDbLine
 10
-319.7182484224529
 20
-126.0231928054974
 30
0.0
 11
-69.71824842246023
 21
123.9768071944935
 31
0.0
  0
LINE
  5
13C
330
1F
100
AcDbEntity
  8
0-0
  6
JWW_DASHED1
 62
   120
370
     5
100
AcDbLine
 10
-659.7182484224575
 20
-458.9521249936355
 30
0.0
 11
-409.7182484224494
 21
-208.9521249936282
 31
0.0
  0
LINE
  5
13D
330
1F
100
AcDbEntity
  8
0-0
  6
JWW_DASHED1
 62
   120
370
     5
100
AcDbLine
 10
-319.7182484224426
 20
-118.9521249936205
 30
0.0
 11
-69.71824842245
 21
131.0478750063704
 31
0.0
  0
LINE
  5
13E
330
1F
100
AcDbEntity
  8
0-0
  6
JWW_DASHED1
 62
   120
370
     5
100
AcDbLine
 10
-659.7182484224489
 20
-451.8810571817616
 30
0.0
 11
-409.7182484224443
 21
-201.8810571817568
 31
0.0
  0
LINE
  5
13F
330
1F
100
AcDbEntity
  8
0-0
  6
JWW_DASHED1
 62
   120
370
     5
100
AcDbLine
 10
-319.7182484224529
 20
-111.8810571817658
 30
0.0
 11
-69.7182484224483
 21
138.1189428182387
 31
0.0
  0
LINE
  5
140
330
1F
100
AcDbEntity
  8
0-0
  6
JWW_DASHED1
 62
   120
370
     5
100
AcDbLine
 10
-659.7182484224677
 20
-444.8099893699139
 30
0.0
 11
-409.718248422446
 21
-194.809989369891
 31
0.0
  0
LINE
  5
141
330
1F
100
AcDbEntity
  8
0-0
  6
JWW_DASHED1
 62
   120
370
     5
100
AcDbLine
 10
-319.7182484224529
 20
-104.8099893698991
 30
0.0
 11
-69.71824842246194
 21
145.1900106300918
 31
0.0
  0
LINE
  5
142
330
1F
100
AcDbEntity
  8
0-0
  6
JWW_DASHED1
 62
   120
370
     5
100
AcDbLine
 10
-659.7182484224575
 20
-437.738921558037
 30
0.0
 11
-409.7182484224512
 21
-187.7389215580303
 31
0.0
  0
LINE
  5
143
330
1F
100
AcDbEntity
  8
0-0
  6
JWW_DASHED1
 62
   120
370
     5
100
AcDbLine
 10
-319.7182484224443
 20
-97.73892155802265
 30
0.0
 11
-69.71824842245171
 21
152.2610784419687
 31
0.0
  0
LINE
  5
144
330
1F
100
AcDbEntity
  8
0-0
  6
JWW_DASHED1
 62
   120
370
     5
100
AcDbLine
 10
-659.7182484224506
 20
-430.6678537461633
 30
0.0
 11
-409.718248422446
 21
-180.667853746159
 31
0.0
  0
LINE
  5
145
330
1F
100
AcDbEntity
  8
0-0
  6
JWW_DASHED1
 62
   120
370
     5
100
AcDbLine
 10
-319.7182484224563
 20
-90.66785374616792
 30
0.0
 11
-69.71824842245171
 21
159.3321462538366
 31
0.0
  0
LINE
  5
146
330
1F
100
AcDbEntity
  8
0-0
  6
JWW_DASHED1
 62
   120
370
     5
100
AcDbLine
 10
-659.7182484224575
 20
-423.5967859343028
 30
0.0
 11
-409.7182484224358
 21
-173.5967859342821
 31
0.0
  0
LINE
  5
147
330
1F
100
AcDbEntity
  8
0-0
  6
JWW_DASHED1
 62
   120
370
     5
100
AcDbLine
 10
-319.718248422446
 20
-83.59678593429145
 30
0.0
 11
-69.71824842245682
 21
166.4032140656977
 31
0.0
  0
LINE
  5
148
330
1F
100
AcDbEntity
  8
0-0
  6
JWW_DASHED1
 62
   120
370
     5
100
AcDbLine
 10
-659.7182484224609
 20
-416.5257181224391
 30
0.0
 11
-409.7182484224529
 21
-166.525718122432
 31
0.0
  0
LINE
  5
149
330
1F
100
AcDbEntity
  8
0-0
  6
JWW_DASHED1
 62
   120
370
     5
100
AcDbLine
 10
-319.718248422446
 20
-76.52571812242435
 30
0.0
 11
-69.71824842245341
 21
173.474281877567
 31
0.0
  0
LINE
  5
14A
330
1F
100
AcDbEntity
  8
0-0
  6
JWW_DASHED1
 62
   120
370
     5
100
AcDbLine
 10
-659.718248422454
 20
-409.4546503105656
 30
0.0
 11
-409.7182484224494
 21
-159.4546503105607
 31
0.0
  0
LINE
  5
14B
330
1F
100
AcDbEntity
  8
0-0
  6
JWW_DASHED1
 62
   120
370
     5
100
AcDbLine
 10
-319.7182484224426
 20
-69.45465031055427
 30
0.0
 11
-69.71824842245341
 21
180.5453496894345
 31
0.0
  0
LINE
  5
14C
330
1F
100
AcDbEntity
  8
0-0
  6
JWW_DASHED1
 62
   120
370
     5
100
AcDbLine
 10
-659.7182484224455
 20
-402.3835824987186
 30
0.0
 11
-409.7182484224409
 21
-152.3835824987136
 31
0.0
  0
LINE
  5
14D
330
1F
100
AcDbEntity
  8
0-0
  6
JWW_DASHED1
 62
   120
370
     5
100
AcDbLine
 10
-319.7182484224494
 20
-62.38358249872299
 30
0.0
 11
-69.71824842244489
 21
187.6164175012824
 31
0.0
  0
LINE
  5
14E
330
1F
100
AcDbEntity
  8
0-0
  6
JWW_DASHED1
 62
   120
370
     5
100
AcDbLine
 10
-659.718248422466
 20
-395.3125146868996
 30
0.0
 11
-409.7182484224597
 21
-145.3125146868921
 31
0.0
  0
LINE
  5
14F
330
1F
100
AcDbEntity
  8
0-0
  6
JWW_DASHED1
 62
   120
370
     5
100
AcDbLine
 10
-319.7182484224512
 20
-55.31251468688488
 30
0.0
 11
-69.71824842246023
 21
194.6874853131064
 31
0.0
  0
LINE
  5
150
330
1F
100
AcDbEntity
  8
0-0
  6
JWW_DASHED1
 62
   120
370
     5
100
AcDbLine
 10
-659.7182484224558
 20
-388.2414468750227
 30
0.0
 11
-409.7182484224494
 21
-138.2414468750156
 31
0.0
  0
LINE
  5
151
330
1F
100
AcDbEntity
  8
0-0
  6
JWW_DASHED1
 62
   120
370
     5
100
AcDbLine
 10
-319.7182484224409
 20
-48.24144687500841
 30
0.0
 11
-69.71824842245
 21
201.7585531249825
 31
0.0
  0
LINE
  5
152
330
1F
100
AcDbEntity
  8
0-0
  6
JWW_DASHED1
 62
   120
370
     5
100
AcDbLine
 10
-659.7182484224506
 20
-381.1703790631497
 30
0.0
 11
-409.7182484224443
 21
-131.1703790631452
 31
0.0
  0
LINE
  5
153
330
1F
100
AcDbEntity
  8
0-0
  6
JWW_DASHED1
 62
   120
370
     5
100
AcDbLine
 10
-319.7182484224529
 20
-41.17037906315367
 30
0.0
 11
-69.7182484224483
 21
208.8296209368509
 31
0.0
  0
LINE
  5
154
330
1F
100
AcDbEntity
  8
0-0
  6
JWW_DASHED1
 62
   120
370
     5
100
AcDbLine
 10
-659.7182484224677
 20
-374.0993112513013
 30
0.0
 11
-409.7182484224443
 21
-124.0993112512785
 31
0.0
  0
LINE
  5
155
330
1F
100
AcDbEntity
  8
0-0
  6
JWW_DASHED1
 62
   120
370
     5
100
AcDbLine
 10
-319.7182484224529
 20
-34.09931125128658
 30
0.0
 11
-69.71824842246194
 21
215.9006887487047
 31
0.0
  0
LINE
  5
156
330
1F
100
AcDbEntity
  8
0-0
  6
JWW_DASHED1
 62
   120
370
     5
100
AcDbLine
 10
-659.7182484224575
 20
-367.0282434394244
 30
0.0
 11
-409.7182484224512
 21
-117.0282434394174
 31
0.0
  0
LINE
  5
157
330
1F
100
AcDbEntity
  8
0-0
  6
JWW_DASHED1
 62
   120
370
     5
100
AcDbLine
 10
-319.7182484224426
 20
-27.0282434394101
 30
0.0
 11
-69.71824842245171
 21
222.9717565605812
 31
0.0
  0
LINE
  5
158
330
1F
100
AcDbEntity
  8
0-0
  6
JWW_DASHED1
 62
   120
370
     5
100
AcDbLine
 10
-659.7182484224523
 20
-359.9571756275518
 30
0.0
 11
-409.718248422446
 21
-109.9571756275468
 31
0.0
  0
LINE
  5
159
330
1F
100
AcDbEntity
  8
0-0
  6
JWW_DASHED1
 62
   120
370
     5
100
AcDbLine
 10
-319.7182484224563
 20
-19.95717562755623
 30
0.0
 11
-69.71824842245171
 21
230.0428243724483
 31
0.0
  0
LINE
  5
15A
330
1F
100
AcDbEntity
  8
0-0
  6
JWW_DASHED1
 62
   120
370
     5
100
AcDbLine
 10
-659.7182484224575
 20
-352.8861078156911
 30
0.0
 11
-409.7182484224375
 21
-102.8861078156704
 31
0.0
  0
LINE
  5
15B
330
1F
100
AcDbEntity
  8
0-0
  6
JWW_DASHED1
 62
   120
370
     5
100
AcDbLine
 10
-319.718248422446
 20
-12.88610781567932
 30
0.0
 11
-69.71824842245682
 21
237.1138921843099
 31
0.0
  0
LINE
  5
15C
330
1F
100
AcDbEntity
  8
0-0
  6
JWW_DASHED1
 62
   120
370
     5
100
AcDbLine
 10
-659.7182484224592
 20
-345.8150400038261
 30
0.0
 11
-409.7182484224529
 21
-95.81504000381948
 31
0.0
  0
LINE
  5
15D
330
1F
100
AcDbEntity
  8
0-0
  6
JWW_DASHED1
 62
   120
370
     5
100
AcDbLine
 10
-319.7182484224443
 20
-5.815040003811802
 30
0.0
 11
-69.71824842245341
 21
244.1849599961799
 31
0.0
  0
LINE
  5
15E
330
1F
100
AcDbEntity
  8
0-0
  6
JWW_DASHED1
 62
   120
370
     5
100
AcDbLine
 10
-659.718248422454
 20
-338.7439721919535
 30
0.0
 11
-409.7182484224494
 21
-88.74397219194897
 31
0.0
  0
LINE
  5
15F
330
1F
100
AcDbEntity
  8
0-0
  6
JWW_DASHED1
 62
   120
370
     5
100
AcDbLine
 10
-319.7182484224426
 20
1.256027808057851
 30
0.0
 11
-69.71824842245341
 21
251.2560278080466
 31
0.0
  0
LINE
  5
160
330
1F
100
AcDbEntity
  8
0-0
  6
JWW_DASHED1
 62
   120
370
     5
100
AcDbLine
 10
-659.7182484224592
 20
-331.6729043800928
 30
0.0
 11
-409.7182484224392
 21
-81.67290438007207
 31
0.0
  0
LINE
  5
161
330
1F
100
AcDbEntity
  8
0-0
  6
JWW_DASHED1
 62
   120
370
     5
100
AcDbLine
 10
-319.7182484224477
 20
8.327095619918552
 30
0.0
 11
-69.71824842244318
 21
258.3270956199235
 31
0.0
  0
LINE
  5
162
330
1F
100
AcDbEntity
  8
0-0
  6
JWW_DASHED1
 62
   120
370
     5
100
AcDbLine
 10
-659.7182484224609
 20
-324.6018365682278
 30
0.0
 11
-409.7182484224546
 21
-74.60183656822117
 31
0.0
  0
LINE
  5
163
330
1F
100
AcDbEntity
  8
0-0
  6
JWW_DASHED1
 62
   120
370
     5
100
AcDbLine
 10
-319.718248422446
 20
15.3981634317865
 30
0.0
 11
-69.71824842245512
 21
265.3981634317778
 31
0.0
  0
LINE
  5
164
330
1F
100
AcDbEntity
  8
0-0
  6
JWW_DASHED1
 62
   120
370
     5
100
AcDbLine
 10
-659.7182484224506
 20
-317.5307687563513
 30
0.0
 11
-409.7182484224443
 21
-67.53076875634427
 31
0.0
  0
LINE
  5
165
330
1F
100
AcDbEntity
  8
0-0
  6
JWW_DASHED1
 62
   120
370
     5
100
AcDbLine
 10
-319.7182484224375
 20
22.46923124366297
 30
0.0
 11
-69.71824842244489
 21
272.4692312436543
 31
0.0
  0
LINE
  5
166
330
1F
100
AcDbEntity
  8
0-0
  6
JWW_DASHED1
 62
   120
370
     5
100
AcDbLine
 10
-659.7182484224455
 20
-310.4597009444788
 30
0.0
 11
-409.7182484224409
 21
-60.45970094447419
 31
0.0
  0
LINE
  5
167
330
1F
100
AcDbEntity
  8
0-0
  6
JWW_DASHED1
 62
   120
370
     5
100
AcDbLine
 10
-319.7182484224494
 20
29.54029905551685
 30
0.0
 11
-69.71824842244489
 21
279.5402990555218
 31
0.0
  0
LINE
  5
168
330
1F
100
AcDbEntity
  8
0-0
  6
JWW_DASHED1
 62
   120
370
     5
100
AcDbLine
 10
-659.7182484224626
 20
-303.3886331326295
 30
0.0
 11
-409.7182484224563
 21
-53.38863313262287
 31
0.0
  0
LINE
  5
169
330
1F
100
AcDbEntity
  8
0-0
  6
JWW_DASHED1
 62
   120
370
     5
100
AcDbLine
 10
-319.7182484224477
 20
36.6113668673848
 30
0.0
 11
-69.71824842245682
 21
286.6113668673765
 31
0.0
  0
LINE
  5
16A
330
1F
100
AcDbEntity
  8
0-0
  6
JWW_DASHED1
 62
   120
370
     5
100
AcDbLine
 10
-659.718248422454
 20
-296.317565320753
 30
0.0
 11
-409.718248422446
 21
-46.31756532074597
 31
0.0
  0
LINE
  5
16B
330
1F
100
AcDbEntity
  8
0-0
  6
JWW_DASHED1
 62
   120
370
     5
100
AcDbLine
 10
-319.7182484224392
 20
43.68243467926128
 30
0.0
 11
-69.71824842244659
 21
293.6824346792526
 31
0.0
  0
LINE
  5
16C
330
1F
100
AcDbEntity
  8
0-0
  6
JWW_DASHED1
 62
   120
370
     5
100
AcDbLine
 10
-659.7182484224472
 20
-289.2464975088809
 30
0.0
 11
-409.7182484224426
 21
-39.24649750887632
 31
0.0
  0
LINE
  5
16D
330
1F
100
AcDbEntity
  8
0-0
  6
JWW_DASHED1
 62
   120
370
     5
100
AcDbLine
 10
-319.7182484224512
 20
50.75350249111473
 30
0.0
 11
-69.71824842244659
 21
300.7535024911197
 31
0.0
  0
LINE
  5
16E
330
1F
100
AcDbEntity
  8
0-0
  6
JWW_DASHED1
 62
   120
370
     5
100
AcDbLine
 10
-659.7182484224643
 20
-282.1754296970312
 30
0.0
 11
-409.718248422458
 21
-32.17542969702457
 31
0.0
  0
LINE
  5
16F
330
1F
100
AcDbEntity
  8
0-0
  6
JWW_DASHED1
 62
   120
370
     5
100
AcDbLine
 10
-319.7182484224494
 20
57.8245703029831
 30
0.0
 11
-69.71824842245853
 21
307.8245703029748
 31
0.0
  0
LINE
  5
170
330
1F
100
AcDbEntity
  8
0-0
  6
JWW_DASHED1
 62
   120
370
     5
100
AcDbLine
 10
-659.718248422454
 20
-275.1043618851547
 30
0.0
 11
-409.7182484224477
 21
-25.10436188514767
 31
0.0
  0
LINE
  5
171
330
1F
100
AcDbEntity
  8
0-0
  6
JWW_DASHED1
 62
   120
370
     5
100
AcDbLine
 10
-319.7182484224392
 20
64.89563811486
 30
0.0
 11
-69.7182484224483
 21
314.8956381148509
 31
0.0
  0
LINE
  5
172
330
1F
100
AcDbEntity
  8
0-0
  6
JWW_DASHED1
 62
   120
370
     5
100
AcDbLine
 10
-659.7182484224489
 20
-268.0332940732825
 30
0.0
 11
-409.7182484224443
 21
-18.03329407327801
 31
0.0
  0
LINE
  5
173
330
1F
100
AcDbEntity
  8
0-0
  6
JWW_DASHED1
 62
   120
370
     5
100
AcDbLine
 10
-319.7182484224529
 20
71.96670592671303
 30
0.0
 11
-69.7182484224483
 21
321.9667059267176
 31
0.0
  0
LINE
  5
174
330
1F
100
AcDbEntity
  8
0-0
  6
JWW_DASHED1
 62
   120
370
     5
100
AcDbLine
 10
-659.718248422466
 20
-260.9622262614329
 30
0.0
 11
-409.7182484224443
 21
-10.96222626141049
 31
0.0
  0
LINE
  5
175
330
1F
100
AcDbEntity
  8
0-0
  6
JWW_DASHED1
 62
   120
370
     5
100
AcDbLine
 10
-319.7182484224512
 20
79.03777373858141
 30
0.0
 11
-69.71824842246023
 21
329.0377737385728
 31
0.0
  0
LINE
  5
176
330
1F
100
AcDbEntity
  8
0-0
  6
JWW_DASHED1
 62
   120
370
     5
100
AcDbLine
 10
-659.7182484224575
 20
-253.8911584495564
 30
0.0
 11
-409.7182484224494
 21
-3.891158449549366
 31
0.0
  0
LINE
  5
177
330
1F
100
AcDbEntity
  8
0-0
  6
JWW_DASHED1
 62
   120
370
     5
100
AcDbLine
 10
-319.7182484224426
 20
86.10884155045831
 30
0.0
 11
-69.71824842245
 21
336.1088415504497
 31
0.0
  0
LINE
  5
178
330
1F
100
AcDbEntity
  8
0-0
  6
JWW_DASHED1
 62
   120
370
     5
100
AcDbLine
 10
-659.7182484224506
 20
-246.8200906376846
 30
0.0
 11
-409.718248422446
 21
3.179909362320288
 31
0.0
  0
LINE
  5
179
330
1F
100
AcDbEntity
  8
0-0
  6
JWW_DASHED1
 62
   120
370
     5
100
AcDbLine
 10
-319.7182484224563
 20
93.17990936231091
 30
0.0
 11
-69.71824842245171
 21
343.1799093623159
 31
0.0
  0
LINE
  5
17A
330
1F
100
AcDbEntity
  8
0-0
  6
JWW_DASHED1
 62
   120
370
     5
100
AcDbLine
 10
-659.7182484224677
 20
-239.7490228258346
 30
0.0
 11
-409.718248422446
 21
10.25097717418781
 31
0.0
  0
LINE
  5
17B
330
1F
100
AcDbEntity
  8
0-0
  6
JWW_DASHED1
 62
   120
370
     5
100
AcDbLine
 10
-319.7182484224529
 20
100.2509771741797
 30
0.0
 11
-69.71824842246194
 21
350.2509771741706
 31
0.0
  0
LINE
  5
17C
330
1F
100
AcDbEntity
  8
0-0
  6
JWW_DASHED1
 62
   120
370
     5
100
AcDbLine
 10
-659.7182484224575
 20
-232.6779550139581
 30
0.0
 11
-409.7182484224512
 21
17.32204498604894
 31
0.0
  0
LINE
  5
17D
330
1F
100
AcDbEntity
  8
0-0
  6
JWW_DASHED1
 62
   120
370
     5
100
AcDbLine
 10
-319.7182484224443
 20
107.3220449860562
 30
0.0
 11
-69.71824842245171
 21
357.3220449860475
 31
0.0
  0
LINE
  5
17E
330
1F
100
AcDbEntity
  8
0-0
  6
JWW_DASHED1
 62
   120
370
     5
100
AcDbLine
 10
-659.718248422454
 20
-225.6068872020863
 30
0.0
 11
-409.7182484224477
 21
24.39311279791816
 31
0.0
  0
LINE
  5
17F
330
1F
100
AcDbEntity
  8
0-0
  6
JWW_DASHED1
 62
   120
370
     5
100
AcDbLine
 10
-319.718248422458
 20
114.3931127979092
 30
0.0
 11
-69.71824842245171
 21
364.3931127979142
 31
0.0
  0
LINE
  5
180
330
1F
100
AcDbEntity
  8
0-0
  6
JWW_DASHED1
 62
   120
370
     5
100
AcDbLine
 10
-659.7182484224592
 20
-218.5358193902257
 30
0.0
 11
-409.7182484224392
 21
31.46418060979464
 31
0.0
  0
LINE
  5
181
330
1F
100
AcDbEntity
  8
0-0
  6
JWW_DASHED1
 62
   120
370
     5
100
AcDbLine
 10
-319.7182484224477
 20
121.4641806097857
 30
0.0
 11
-69.71824842244318
 21
371.4641806097902
 31
0.0
  0
LINE
  5
182
330
1F
100
AcDbEntity
  8
0-0
  6
JWW_DASHED1
 62
   120
370
     5
100
AcDbLine
 10
-659.7182484224609
 20
-211.4647515783598
 30
0.0
 11
-409.7182484224529
 21
38.53524842164724
 31
0.0
  0
LINE
  5
183
330
1F
100
AcDbEntity
  8
0-0
  6
JWW_DASHED1
 62
   120
370
     5
100
AcDbLine
 10
-319.718248422446
 20
128.5352484216545
 30
0.0
 11
-69.71824842245341
 21
378.5352484216458
 31
0.0
  0
LINE
  5
184
330
1F
100
AcDbEntity
  8
0-0
  6
JWW_DASHED1
 62
   120
370
     5
100
AcDbLine
 10
-659.7182484224506
 20
-204.3936837664834
 30
0.0
 11
-409.7182484224426
 21
45.60631623352371
 31
0.0
  0
LINE
  5
185
330
1F
100
AcDbEntity
  8
0-0
  6
JWW_DASHED1
 62
   120
370
     5
100
AcDbLine
 10
-319.7182484224358
 20
135.6063162335314
 30
0.0
 11
-69.71824842244318
 21
385.6063162335227
 31
0.0
  0
LINE
  5
186
330
1F
100
AcDbEntity
  8
0-0
  6
JWW_DASHED1
 62
   120
370
     5
100
AcDbLine
 10
-659.7182484224609
 20
-197.3226159546274
 30
0.0
 11
-409.7182484224409
 21
52.67738404539294
 31
0.0
  0
LINE
  5
187
330
1F
100
AcDbEntity
  8
0-0
  6
JWW_DASHED1
 62
   120
370
     5
100
AcDbLine
 10
-319.7182484224494
 20
142.6773840453836
 30
0.0
 11
-69.71824842244489
 21
392.6773840453885
 31
0.0
  0
LINE
  5
188
330
1F
100
AcDbEntity
  8
0-0
  6
JWW_DASHED1
 62
   120
370
     5
100
AcDbLine
 10
-659.7182484224609
 20
-190.2515481427615
 30
0.0
 11
-409.7182484224546
 21
59.74845185724554
 31
0.0
  0
LINE
  5
189
330
1F
100
AcDbEntity
  8
0-0
  6
JWW_DASHED1
 62
   120
370
     5
100
AcDbLine
 10
-319.718248422446
 20
149.7484518572532
 30
0.0
 11
-69.71824842245512
 21
399.7484518572441
 31
0.0
  0
LINE
  5
18A
330
1F
100
AcDbEntity
  8
0-0
  6
JWW_DASHED1
 62
   120
370
     5
100
AcDbLine
 10
-659.7182484224506
 20
-183.1804803308847
 30
0.0
 11
-409.7182484224443
 21
66.81951966912244
 31
0.0
  0
LINE
  5
18B
330
1F
100
AcDbEntity
  8
0-0
  6
JWW_DASHED1
 62
   120
370
     5
100
AcDbLine
 10
-319.7182484224375
 20
156.8195196691297
 30
0.0
 11
-69.71824842244489
 21
406.819519669121
 31
0.0
  0
LINE
  5
18C
330
1F
100
AcDbEntity
  8
0-0
  6
JWW_DASHED1
 62
   120
370
     5
100
AcDbLine
 10
-659.7182484224472
 20
-176.1094125190137
 30
0.0
 11
-409.7182484224426
 21
73.89058748099082
 31
0.0
  0
LINE
  5
18D
330
1F
100
AcDbEntity
  8
0-0
  6
JWW_DASHED1
 62
   120
370
     5
100
AcDbLine
 10
-319.7182484224512
 20
163.8905874809819
 30
0.0
 11
-69.71824842244659
 21
413.8905874809868
 31
0.0
  0
LINE
  5
18E
330
1F
100
AcDbEntity
  8
0-0
  6
JWW_DASHED1
 62
   120
370
     5
100
AcDbLine
 10
-659.7182484224643
 20
-169.0383447071633
 30
0.0
 11
-409.7182484224563
 21
80.96165529284384
 31
0.0
  0
LINE
  5
18F
330
1F
100
AcDbEntity
  8
0-0
  6
JWW_DASHED1
 62
   120
370
     5
100
AcDbLine
 10
-319.7182484224494
 20
170.9616552928511
 30
0.0
 11
-69.71824842245682
 21
420.9616552928424
 31
0.0
  0
LINE
  5
190
330
1F
100
AcDbEntity
  8
0-0
  6
JWW_DASHED1
 62
   120
370
     5
100
AcDbLine
 10
-659.718248422454
 20
-161.9672768952868
 30
0.0
 11
-409.718248422446
 21
88.03272310472074
 31
0.0
  0
LINE
  5
191
330
1F
100
AcDbEntity
  8
0-0
  6
JWW_DASHED1
 62
   120
370
     5
100
AcDbLine
 10
-319.7182484224392
 20
178.032723104728
 30
0.0
 11
-69.7182484224483
 21
428.0327231047193
 31
0.0
  0
LINE
  5
192
330
1F
100
AcDbEntity
  8
0-0
  6
JWW_DASHED1
 62
   120
370
     5
100
AcDbLine
 10
-659.7182484224489
 20
-154.8962090834154
 30
0.0
 11
-409.7182484224443
 21
95.10379091658912
 31
0.0
  0
LINE
  5
193
330
1F
100
AcDbEntity
  8
0-0
  6
JWW_DASHED1
 62
   120
370
     5
100
AcDbLine
 10
-319.7182484224529
 20
185.1037909165797
 30
0.0
 11
-69.7182484224483
 21
435.1037909165847
 31
0.0
  0
LINE
  5
194
330
1F
100
AcDbEntity
  8
0-0
  6
JWW_DASHED1
 62
   120
370
     5
100
AcDbLine
 10
-659.7182484224643
 20
-147.825141271565
 30
0.0
 11
-409.718248422458
 21
102.1748587284421
 31
0.0
  0
LINE
  5
195
330
1F
100
AcDbEntity
  8
0-0
  6
JWW_DASHED1
 62
   120
370
     5
100
AcDbLine
 10
-319.7182484224494
 20
192.1748587284494
 30
0.0
 11
-69.71824842245853
 21
442.1748587284407
 31
0.0
  0
LINE
  5
196
330
1F
100
AcDbEntity
  8
0-0
  6
JWW_DASHED1
 62
   120
370
     5
100
AcDbLine
 10
-659.718248422454
 20
-140.7540734596881
 30
0.0
 11
-409.7182484224477
 21
109.2459265403186
 31
0.0
  0
LINE
  5
197
330
1F
100
AcDbEntity
  8
0-0
  6
JWW_DASHED1
 62
   120
370
     5
100
AcDbLine
 10
-319.7182484224409
 20
199.2459265403259
 30
0.0
 11
-69.7182484224483
 21
449.2459265403176
 31
0.0
  0
LINE
  5
198
330
1F
100
AcDbEntity
  8
0-0
  6
JWW_DASHED1
 62
   120
370
     5
100
AcDbLine
 10
-659.7182484224506
 20
-133.6830056478175
 30
0.0
 11
-409.718248422446
 21
116.316994352187
 31
0.0
  0
LINE
  5
199
330
1F
100
AcDbEntity
  8
0-0
  6
JWW_DASHED1
 62
   120
370
     5
100
AcDbLine
 10
-319.7182484224546
 20
206.316994352178
 30
0.0
 11
-69.71824842245
 21
456.316994352183
 31
0.0
  0
LINE
  5
19A
330
1F
100
AcDbEntity
  8
0-0
  6
JWW_DASHED1
 62
   120
370
     5
100
AcDbLine
 10
-659.7182484224677
 20
-126.6119378359667
 30
0.0
 11
-409.7182484224443
 21
123.3880621640562
 31
0.0
  0
LINE
  5
19B
330
1F
100
AcDbEntity
  8
0-0
  6
JWW_DASHED1
 62
   120
370
     5
100
AcDbLine
 10
-319.7182484224529
 20
213.3880621640477
 30
0.0
 11
-69.71824842246023
 21
463.388062164039
 31
0.0
  0
LINE
  5
19C
330
1F
100
AcDbEntity
  8
0-0
  6
JWW_DASHED1
 62
   120
370
     5
100
AcDbLine
 10
-659.7182484224575
 20
-119.5408700240898
 30
0.0
 11
-409.7182484224494
 21
130.4591299759169
 31
0.0
  0
LINE
  5
19D
330
1F
100
AcDbEntity
  8
0-0
  6
JWW_DASHED1
 62
   120
370
     5
100
AcDbLine
 10
-319.7182484224426
 20
220.4591299759246
 30
0.0
 11
-69.71824842245
 21
470.4591299759159
 31
0.0
  0
LINE
  5
19E
330
1F
100
AcDbEntity
  8
0-0
  6
JWW_DASHED1
 62
   120
370
     5
100
AcDbLine
 10
-659.7182484224523
 20
-112.4698022122197
 30
0.0
 11
-409.7182484224477
 21
137.5301977877853
 31
0.0
  0
LINE
  5
19F
330
1F
100
AcDbEntity
  8
0-0
  6
JWW_DASHED1
 62
   120
370
     5
100
AcDbLine
 10
-319.718248422458
 20
227.5301977877759
 30
0.0
 11
-69.71824842245171
 21
477.5301977877809
 31
0.0
  0
LINE
  5
1A0
330
1F
100
AcDbEntity
  8
0-0
  6
JWW_DASHED1
 62
   120
370
     5
100
AcDbLine
 10
-659.7182484224592
 20
-105.3987344003585
 30
0.0
 11
-409.7182484224375
 21
144.6012655996618
 31
0.0
  0
LINE
  5
1A1
330
1F
100
AcDbEntity
  8
0-0
  6
JWW_DASHED1
 62
   120
370
     5
100
AcDbLine
 10
-319.7182484224477
 20
234.6012655996528
 30
0.0
 11
-69.71824842245853
 21
484.6012655996416
 31
0.0
  0
LINE
  5
1A2
330
1F
100
AcDbEntity
  8
0-0
  6
JWW_DASHED1
 62
   120
370
     5
100
AcDbLine
 10
-659.7182484224592
 20
-98.32766658849188
 30
0.0
 11
-409.7182484224512
 21
151.6723334115152
 31
0.0
  0
LINE
  5
1A3
330
1F
100
AcDbEntity
  8
0-0
  6
JWW_DASHED1
 62
   120
370
     5
100
AcDbLine
 10
-319.7182484224443
 20
241.6723334115229
 30
0.0
 11
-69.71824842245171
 21
491.6723334115142
 31
0.0
  0
LINE
  5
1A4
330
1F
100
AcDbEntity
  8
0-0
  6
JWW_DASHED1
 62
   120
370
     5
100
AcDbLine
 10
-659.718248422454
 20
-91.25659877662137
 30
0.0
 11
-409.7182484224494
 21
158.7434012233832
 31
0.0
  0
LINE
  5
1A5
330
1F
100
AcDbEntity
  8
0-0
  6
JWW_DASHED1
 62
   120
370
     5
100
AcDbLine
 10
-319.7182484224426
 20
248.74340122339
 30
0.0
 11
-69.71824842245512
 21
498.7434012233792
 31
0.0
  0
LINE
  5
1A6
330
1F
100
AcDbEntity
  8
0-0
  6
JWW_DASHED1
 62
   120
370
     5
100
AcDbLine
 10
-659.7182484224609
 20
-84.18553096476067
 30
0.0
 11
-409.7182484224392
 21
165.8144690352601
 31
0.0
  0
LINE
  5
1A7
330
1F
100
AcDbEntity
  8
0-0
  6
JWW_DASHED1
 62
   120
370
     5
100
AcDbLine
 10
-319.7182484224494
 20
255.8144690352507
 30
0.0
 11
-69.71824842244489
 21
505.8144690352552
 31
0.0
  0
LINE
  5
1A8
330
1F
100
AcDbEntity
  8
0-0
  6
JWW_DASHED1
 62
   120
370
     5
100
AcDbLine
 10
-659.7182484224609
 20
-77.11446315289358
 30
0.0
 11
-409.7182484224529
 21
172.8855368471139
 31
0.0
  0
LINE
  5
1A9
330
1F
100
AcDbEntity
  8
0-0
  6
JWW_DASHED1
 62
   120
370
     5
100
AcDbLine
 10
-319.718248422446
 20
262.8855368471212
 30
0.0
 11
-69.71824842245512
 21
512.8855368471126
 31
0.0
  0
LINE
  5
1AA
330
1F
100
AcDbEntity
  8
0-0
  6
JWW_DASHED1
 62
   120
370
     5
100
AcDbLine
 10
-659.7182484224506
 20
-70.04339534101668
 30
0.0
 11
-409.7182484224426
 21
179.95660465899
 31
0.0
  0
LINE
  5
1AB
330
1F
100
AcDbEntity
  8
0-0
  6
JWW_DASHED1
 62
   120
370
     5
100
AcDbLine
 10
-319.7182484224358
 20
269.9566046589977
 30
0.0
 11
-69.71824842244489
 21
519.9566046589886
 31
0.0
  0
LINE
  5
1AC
330
1F
100
AcDbEntity
  8
0-0
  6
JWW_DASHED1
 62
   120
370
     5
100
AcDbLine
 10
-659.7182484224472
 20
-62.9723275291466
 30
0.0
 11
-409.7182484224426
 21
187.0276724708584
 31
0.0
  0
LINE
  5
1AD
330
1F
100
AcDbEntity
  8
0-0
  6
JWW_DASHED1
 62
   120
370
     5
100
AcDbLine
 10
-319.7182484224512
 20
277.027672470849
 30
0.0
 11
-69.71824842244659
 21
527.0276724708535
 31
0.0
  0
LINE
  5
1AE
330
1F
100
AcDbEntity
  8
0-0
  6
JWW_DASHED1
 62
   120
370
     5
100
AcDbLine
 10
-659.7182484224626
 20
-55.90125971729528
 30
0.0
 11
-409.7182484224546
 21
194.0987402827118
 31
0.0
  0
LINE
  5
1AF
330
1F
100
AcDbEntity
  8
0-0
  6
JWW_DASHED1
 62
   120
370
     5
100
AcDbLine
 10
-319.7182484224477
 20
284.0987402827191
 30
0.0
 11
-69.71824842245512
 21
534.0987402827109
 31
0.0
  0
LINE
  5
1B0
330
1F
100
AcDbEntity
  8
0-0
  6
JWW_DASHED1
 62
   120
370
     5
100
AcDbLine
 10
-659.7182484224523
 20
-48.83019190541837
 30
0.0
 11
-409.7182484224443
 21
201.1698080945883
 31
0.0
  0
LINE
  5
1B1
330
1F
100
AcDbEntity
  8
0-0
  6
JWW_DASHED1
 62
   120
370
     5
100
AcDbLine
 10
-319.7182484224375
 20
291.169808094596
 30
0.0
 11
-69.71824842244659
 21
541.1698080945873
 31
0.0
  0
LINE
  5
1B2
330
1F
100
AcDbEntity
  8
0-0
  6
JWW_DASHED1
 62
   120
370
     5
100
AcDbLine
 10
-659.7182484224489
 20
-41.75912409354872
 30
0.0
 11
-409.7182484224443
 21
208.2408759064563
 31
0.0
  0
LINE
  5
1B3
330
1F
100
AcDbEntity
  8
0-0
  6
JWW_DASHED1
 62
   120
370
     5
100
AcDbLine
 10
-319.7182484224529
 20
298.2408759064473
 30
0.0
 11
-69.7182484224483
 21
548.2408759064518
 31
0.0
  0
LINE
  5
1B4
330
1F
100
AcDbEntity
  8
0-0
  6
JWW_DASHED1
 62
   120
370
     5
100
AcDbLine
 10
-659.7182484224643
 20
-34.68805628169697
 30
0.0
 11
-409.7182484224563
 21
215.3119437183101
 31
0.0
  0
LINE
  5
1B5
330
1F
100
AcDbEntity
  8
0-0
  6
JWW_DASHED1
 62
   120
370
     5
100
AcDbLine
 10
-319.7182484224494
 20
305.3119437183178
 30
0.0
 11
-69.71824842245853
 21
555.3119437183092
 31
0.0
  0
LINE
  5
1B6
330
1F
100
AcDbEntity
  8
0-0
  6
JWW_DASHED1
 62
   120
370
     5
100
AcDbLine
 10
-659.718248422454
 20
-27.61698846982007
 30
0.0
 11
-409.718248422446
 21
222.3830115301866
 31
0.0
  0
LINE
  5
1B7
330
1F
100
AcDbEntity
  8
0-0
  6
JWW_DASHED1
 62
   120
370
     5
100
AcDbLine
 10
-319.7182484224392
 20
312.3830115301943
 30
0.0
 11
-69.7182484224483
 21
562.3830115301852
 31
0.0
  0
LINE
  5
1B8
330
1F
100
AcDbEntity
  8
0-0
  6
JWW_DASHED1
 62
   120
370
     5
100
AcDbLine
 10
-659.7182484224506
 20
-20.54592065795042
 30
0.0
 11
-409.718248422446
 21
229.4540793420541
 31
0.0
  0
LINE
  5
1B9
330
1F
100
AcDbEntity
  8
0-0
  6
JWW_DASHED1
 62
   120
370
     5
100
AcDbLine
 10
-319.7182484224546
 20
319.4540793420447
 30
0.0
 11
-69.71824842245
 21
569.4540793420501
 31
0.0
  0
LINE
  5
1BA
330
1F
100
AcDbEntity
  8
0-0
  6
JWW_DASHED1
 62
   120
370
     5
100
AcDbLine
 10
-659.7182484224677
 20
-13.47485284612809
 30
0.0
 11
-409.7182484224443
 21
236.5251471538948
 31
0.0
  0
LINE
  5
1BB
330
1F
100
AcDbEntity
  8
0-0
  6
JWW_DASHED1
 62
   120
370
     5
100
AcDbLine
 10
-319.7182484224529
 20
326.5251471538866
 30
0.0
 11
-69.71824842244489
 21
576.5251471538938
 31
0.0
  0
LINE
  5
1BC
330
1F
100
AcDbEntity
  8
0-0
  6
JWW_DASHED1
 62
   120
370
     5
100
AcDbLine
 10
-659.7182484224592
 20
-6.403785034281029
 30
0.0
 11
-409.7182484224529
 21
243.5962149657261
 31
0.0
  0
LINE
  5
1BD
330
1F
100
AcDbEntity
  8
0-0
  6
JWW_DASHED1
 62
   120
370
     5
100
AcDbLine
 10
-319.718248422446
 20
333.5962149657337
 30
0.0
 11
-69.71824842245341
 21
583.596214965725
 31
0.0
  0
LINE
  5
1BE
330
1F
100
AcDbEntity
  8
0-0
  6
JWW_DASHED1
 62
   120
370
     5
100
AcDbLine
 10
-659.7182484224506
 20
0.6672827775958723
 30
0.0
 11
-409.7182484224426
 21
250.667282777603
 31
0.0
  0
LINE
  5
1BF
330
1F
100
AcDbEntity
  8
0-0
  6
JWW_DASHED1
 62
   120
370
     5
100
AcDbLine
 10
-319.7182484224358
 20
340.6672827776106
 30
0.0
 11
-69.71824842244318
 21
590.6672827776016
 31
0.0
  0
LINE
  5
1C0
330
1F
100
AcDbEntity
  8
0-0
  6
JWW_DASHED1
 62
   120
370
     5
100
AcDbLine
 10
-659.7182484224626
 20
7.738350589449325
 30
0.0
 11
-409.7182484224426
 21
257.7383505894705
 31
0.0
  0
LINE
  5
1C1
330
1F
100
AcDbEntity
  8
0-0
  6
JWW_DASHED1
 62
   120
370
     5
100
AcDbLine
 10
-319.7182484224512
 20
347.7383505894607
 30
0.0
 11
-69.71824842244659
 21
597.7383505894657
 31
0.0
  0
LINE
  5
1C2
330
1F
100
AcDbEntity
  8
0-0
  6
JWW_DASHED1
 62
   120
370
     5
100
AcDbLine
 10
-659.7182484224609
 20
14.80941840131727
 30
0.0
 11
-409.7182484224546
 21
264.8094184013244
 31
0.0
  0
LINE
  5
1C3
330
1F
100
AcDbEntity
  8
0-0
  6
JWW_DASHED1
 62
   120
370
     5
100
AcDbLine
 10
-319.718248422446
 20
354.809418401332
 30
0.0
 11
-69.71824842245512
 21
604.809418401323
 31
0.0
  0
LINE
  5
1C4
330
1F
100
AcDbEntity
  8
0-0
  6
JWW_DASHED1
 62
   120
370
     5
100
AcDbLine
 10
-659.7182484224506
 20
21.88048621319417
 30
0.0
 11
-409.7182484224443
 21
271.8804862132013
 31
0.0
  0
LINE
  5
1C5
330
1F
100
AcDbEntity
  8
0-0
  6
JWW_DASHED1
 62
   120
370
     5
100
AcDbLine
 10
-319.7182484224358
 20
361.8804862132089
 30
0.0
 11
-69.71824842244489
 21
611.8804862131999
 31
0.0
  0
LINE
  5
1C6
330
1F
100
AcDbEntity
  8
0-0
  6
JWW_DASHED1
 62
   120
370
     5
100
AcDbLine
 10
-659.7182484224489
 20
28.9515540250634
 30
0.0
 11
-409.7182484224443
 21
278.9515540250679
 31
0.0
  0
LINE
  5
1C7
330
1F
100
AcDbEntity
  8
0-0
  6
JWW_DASHED1
 62
   120
370
     5
100
AcDbLine
 10
-319.7182484224529
 20
368.951554025059
 30
0.0
 11
-69.7182484224483
 21
618.951554025064
 31
0.0
  0
LINE
  5
1C8
330
1F
100
AcDbEntity
  8
0-0
  6
JWW_DASHED1
 62
   120
370
     5
100
AcDbLine
 10
-659.7182484224626
 20
36.02262183691558
 30
0.0
 11
-409.7182484224563
 21
286.0226218369227
 31
0.0
  0
LINE
  5
1C9
330
1F
100
AcDbEntity
  8
0-0
  6
JWW_DASHED1
 62
   120
370
     5
100
AcDbLine
 10
-319.7182484224494
 20
376.0226218369303
 30
0.0
 11
-69.71824842245682
 21
626.0226218369213
 31
0.0
  0
LINE
  5
1CA
330
1F
100
AcDbEntity
  8
0-0
  6
JWW_DASHED1
 62
   120
370
     5
100
AcDbLine
 10
-659.718248422454
 20
43.09368964879248
 30
0.0
 11
-409.718248422446
 21
293.0936896487996
 31
0.0
  0
LINE
  5
1CB
330
1F
100
AcDbEntity
  8
0-0
  6
JWW_DASHED1
 62
   120
370
     5
100
AcDbLine
 10
-319.7182484224392
 20
383.0936896488072
 30
0.0
 11
-69.7182484224483
 21
633.0936896487982
 31
0.0
  0
LINE
  5
1CC
330
1F
100
AcDbEntity
  8
0-0
  6
JWW_DASHED1
 62
   120
370
     5
100
AcDbLine
 10
-659.7182484224506
 20
50.16475746066128
 30
0.0
 11
-409.718248422446
 21
300.1647574606662
 31
0.0
  0
LINE
  5
1CD
330
1F
100
AcDbEntity
  8
0-0
  6
JWW_DASHED1
 62
   120
370
     5
100
AcDbLine
 10
-319.7182484224546
 20
390.1647574606569
 30
0.0
 11
-69.71824842245
 21
640.1647574606623
 31
0.0
  0
LINE
  5
1CE
330
1F
100
AcDbEntity
  8
0-0
  6
JWW_DASHED1
 62
   120
370
     5
100
AcDbLine
 10
-659.7182484224643
 20
57.23582527251388
 30
0.0
 11
-409.7182484224426
 21
307.2358252725372
 31
0.0
  0
LINE
  5
1CF
330
1F
100
AcDbEntity
  8
0-0
  6
JWW_DASHED1
 62
   120
370
     5
100
AcDbLine
 10
-319.7182484224494
 20
397.2358252725286
 30
0.0
 11
-69.71824842245853
 21
647.2358252725196
 31
0.0
  0
LINE
  5
1D0
330
1F
100
AcDbEntity
  8
0-0
  6
JWW_DASHED1
 62
   120
370
     5
100
AcDbLine
 10
-659.718248422454
 20
64.30689308439078
 30
0.0
 11
-409.7182484224477
 21
314.3068930843979
 31
0.0
  0
LINE
  5
1D1
330
1F
100
AcDbEntity
  8
0-0
  6
JWW_DASHED1
 62
   120
370
     5
100
AcDbLine
 10
-319.7182484224409
 20
404.3068930844051
 30
0.0
 11
-69.7182484224483
 21
654.3068930843965
 31
0.0
  0
LINE
  5
1D2
330
1F
100
AcDbEntity
  8
0-0
  6
JWW_DASHED1
 62
   120
370
     5
100
AcDbLine
 10
-659.7182484224523
 20
71.37796089625958
 30
0.0
 11
-409.7182484224477
 21
321.3779608962645
 31
0.0
  0
LINE
  5
1D3
330
1F
100
AcDbEntity
  8
0-0
  6
JWW_DASHED1
 62
   120
370
     5
100
AcDbLine
 10
-319.7182484224563
 20
411.3779608962552
 30
0.0
 11
-69.71824842245171
 21
661.3779608962598
 31
0.0
  0
LINE
  5
1D4
330
1F
100
AcDbEntity
  8
0-0
  6
JWW_DASHED1
 62
   120
370
     5
100
AcDbLine
 10
-659.718248422466
 20
78.44902870811218
 30
0.0
 11
-409.7182484224426
 21
328.4490287081355
 31
0.0
  0
LINE
  5
1D5
330
1F
100
AcDbEntity
  8
0-0
  6
JWW_DASHED1
 62
   120
370
     5
100
AcDbLine
 10
-319.7182484224512
 20
418.4490287081269
 30
0.0
 11
-69.71824842246023
 21
668.4490287081182
 31
0.0
  0
LINE
  5
1D6
330
1F
100
AcDbEntity
  8
0-0
  6
JWW_DASHED1
 62
   120
370
     5
100
AcDbLine
 10
-659.7182484224575
 20
85.52009651998908
 30
0.0
 11
-409.7182484224494
 21
335.5200965199961
 31
0.0
  0
LINE
  5
1D7
330
1F
100
AcDbEntity
  8
0-0
  6
JWW_DASHED1
 62
   120
370
     5
100
AcDbLine
 10
-319.7182484224426
 20
425.5200965200034
 30
0.0
 11
-69.71824842245
 21
675.5200965199948
 31
0.0
  0
LINE
  5
1D8
330
1F
100
AcDbEntity
  8
0-0
  6
JWW_DASHED1
 62
   120
370
     5
100
AcDbLine
 10
-659.718248422454
 20
92.59116433185788
 30
0.0
 11
-409.7182484224494
 21
342.5911643318624
 31
0.0
  0
LINE
  5
1D9
330
1F
100
AcDbEntity
  8
0-0
  6
JWW_DASHED1
 62
   120
370
     5
100
AcDbLine
 10
-319.7182484224597
 20
432.5911643318535
 30
0.0
 11
-69.71824842245512
 21
682.5911643318581
 31
0.0
  0
LINE
  5
1DA
330
1F
100
AcDbEntity
  8
0-0
  6
JWW_DASHED1
 62
   120
370
     5
100
AcDbLine
 10
-659.7182484224609
 20
99.66223214371858
 30
0.0
 11
-409.7182484224392
 21
349.6622321437389
 31
0.0
  0
LINE
  5
1DB
330
1F
100
AcDbEntity
  8
0-0
  6
JWW_DASHED1
 62
   120
370
     5
100
AcDbLine
 10
-319.7182484224494
 20
439.66223214373
 30
0.0
 11
-69.71824842244489
 21
689.662232143735
 31
0.0
  0
LINE
  5
1DC
330
1F
100
AcDbEntity
  8
0-0
  6
JWW_DASHED1
 62
   120
370
     5
100
AcDbLine
 10
-659.7182484224592
 20
106.733299955587
 30
0.0
 11
-409.7182484224512
 21
356.7332999555944
 31
0.0
  0
LINE
  5
1DD
330
1F
100
AcDbEntity
  8
0-0
  6
JWW_DASHED1
 62
   120
370
     5
100
AcDbLine
 10
-319.7182484224426
 20
446.7332999556021
 30
0.0
 11
-69.71824842245171
 21
696.7332999555931
 31
0.0
  0
LINE
  5
1DE
330
1F
100
AcDbEntity
  8
0-0
  6
JWW_DASHED1
 62
   120
370
     5
100
AcDbLine
 10
-659.7182484224489
 20
113.8043677674639
 30
0.0
 11
-409.7182484224409
 21
363.804367767471
 31
0.0
  0
LINE
  5
1DF
330
1F
100
AcDbEntity
  8
0-0
  6
JWW_DASHED1
 62
   120
370
     5
100
AcDbLine
 10
-319.7182484224341
 20
453.8043677674781
 30
0.0
 11
-69.71824842244148
 21
703.80436776747
 31
0.0
  0
LINE
  5
1E0
330
1F
100
AcDbEntity
  8
0-0
  6
JWW_DASHED1
 62
   120
370
     5
100
AcDbLine
 10
-659.7182484224626
 20
120.8754355793165
 30
0.0
 11
-409.7182484224426
 21
370.8754355793372
 31
0.0
  0
LINE
  5
1E1
330
1F
100
AcDbEntity
  8
0-0
  6
JWW_DASHED1
 62
   120
370
     5
100
AcDbLine
 10
-319.7182484224512
 20
460.8754355793278
 30
0.0
 11
-69.71824842244659
 21
710.8754355793328
 31
0.0
  0
LINE
  5
1E2
330
1F
100
AcDbEntity
  8
0-0
  6
JWW_DASHED1
 62
   120
370
     5
100
AcDbLine
 10
-659.7182484224609
 20
127.9465033911857
 30
0.0
 11
-409.7182484224529
 21
377.9465033911924
 31
0.0
  0
LINE
  5
1E3
330
1F
100
AcDbEntity
  8
0-0
  6
JWW_DASHED1
 62
   120
370
     5
100
AcDbLine
 10
-319.718248422446
 20
467.9465033912001
 30
0.0
 11
-69.71824842245341
 21
717.9465033911914
 31
0.0
  0
LINE
  5
1E4
330
1F
100
AcDbEntity
  8
0-0
  6
JWW_DASHED1
 62
   120
370
     5
100
AcDbLine
 10
-659.7182484224506
 20
135.0175712030617
 30
0.0
 11
-409.7182484224426
 21
385.0175712030693
 31
0.0
  0
LINE
  5
1E5
330
1F
100
AcDbEntity
  8
0-0
  6
JWW_DASHED1
 62
   120
370
     5
100
AcDbLine
 10
-319.7182484224358
 20
475.0175712030764
 30
0.0
 11
-69.71824842244489
 21
725.0175712030683
 31
0.0
  0
LINE
  5
1E6
330
1F
100
AcDbEntity
  8
0-0
  6
JWW_DASHED1
 62
   120
370
     5
100
AcDbLine
 10
-659.7182484224489
 20
142.0886390149305
 30
0.0
 11
-409.7182484224443
 21
392.0886390149351
 31
0.0
  0
LINE
  5
1E7
330
1F
100
AcDbEntity
  8
0-0
  6
JWW_DASHED1
 62
   120
370
     5
100
AcDbLine
 10
-319.7182484224529
 20
482.0886390149261
 30
0.0
 11
-69.7182484224483
 21
732.0886390149307
 31
0.0
  0
LINE
  5
1E8
330
1F
100
AcDbEntity
  8
0-0
  6
JWW_DASHED1
 62
   120
370
     5
100
AcDbLine
 10
-659.7182484224609
 20
149.159706826784
 30
0.0
 11
-409.7182484224546
 21
399.159706826791
 31
0.0
  0
LINE
  5
1E9
330
1F
100
AcDbEntity
  8
0-0
  6
JWW_DASHED1
 62
   120
370
     5
100
AcDbLine
 10
-319.7182484224477
 20
489.1597068267988
 30
0.0
 11
-69.71824842245512
 21
739.1597068267897
 31
0.0
  0
LINE
  5
1EA
330
1F
100
AcDbEntity
  8
0-0
  6
JWW_DASHED1
 62
   120
370
     5
100
AcDbLine
 10
-659.7182484224523
 20
156.2307746386605
 30
0.0
 11
-409.7182484224443
 21
406.2307746386671
 31
0.0
  0
LINE
  5
1EB
330
1F
100
AcDbEntity
  8
0-0
  6
JWW_DASHED1
 62
   120
370
     5
100
AcDbLine
 10
-319.7182484224375
 20
496.2307746386748
 30
0.0
 11
-69.71824842244489
 21
746.2307746386666
 31
0.0
  0
LINE
  5
1EC
330
1F
100
AcDbEntity
  8
0-0
  6
JWW_DASHED1
 62
   120
370
     5
100
AcDbLine
 10
-659.7182484224506
 20
163.3018424505284
 30
0.0
 11
-409.718248422446
 21
413.3018424505329
 31
0.0
  0
LINE
  5
1ED
330
1F
100
AcDbEntity
  8
0-0
  6
JWW_DASHED1
 62
   120
370
     5
100
AcDbLine
 10
-319.7182484224546
 20
503.301842450524
 30
0.0
 11
-69.71824842245
 21
753.301842450529
 31
0.0
  0
LINE
  5
1EE
330
1F
100
AcDbEntity
  8
0-0
  6
JWW_DASHED1
 62
   120
370
     5
100
AcDbLine
 10
-659.7182484224643
 20
170.3729102623823
 30
0.0
 11
-409.7182484224563
 21
420.3729102623893
 31
0.0
  0
LINE
  5
1EF
330
1F
100
AcDbEntity
  8
0-0
  6
JWW_DASHED1
 62
   120
370
     5
100
AcDbLine
 10
-319.7182484224494
 20
510.3729102623971
 30
0.0
 11
-69.71824842245853
 21
760.372910262388
 31
0.0
  0
LINE
  5
1F0
330
1F
100
AcDbEntity
  8
0-0
  6
JWW_DASHED1
 62
   120
370
     5
100
AcDbLine
 10
-659.718248422454
 20
177.4439780742588
 30
0.0
 11
-409.718248422446
 21
427.4439780742659
 31
0.0
  0
LINE
  5
1F1
330
1F
100
AcDbEntity
  8
0-0
  6
JWW_DASHED1
 62
   120
370
     5
100
AcDbLine
 10
-319.7182484224392
 20
517.4439780742731
 30
0.0
 11
-69.7182484224483
 21
767.4439780742645
 31
0.0
  0
LINE
  5
1F2
330
1F
100
AcDbEntity
  8
0-0
  6
JWW_DASHED1
 62
   120
370
     5
100
AcDbLine
 10
-659.7182484224523
 20
184.5150458861267
 30
0.0
 11
-409.7182484224477
 21
434.5150458861312
 31
0.0
  0
LINE
  5
1F3
330
1F
100
AcDbEntity
  8
0-0
  6
JWW_DASHED1
 62
   120
370
     5
100
AcDbLine
 10
-319.7182484224563
 20
524.5150458861223
 30
0.0
 11
-69.71824842245171
 21
774.5150458861273
 31
0.0
  0
LINE
  5
1F4
330
1F
100
AcDbEntity
  8
0-0
  6
JWW_DASHED1
 62
   120
370
     5
100
AcDbLine
 10
-659.7182484224643
 20
191.5861136979806
 30
0.0
 11
-409.7182484224426
 21
441.5861136980035
 31
0.0
  0
LINE
  5
1F5
330
1F
100
AcDbEntity
  8
0-0
  6
JWW_DASHED1
 62
   120
370
     5
100
AcDbLine
 10
-319.7182484224512
 20
531.5861136979954
 30
0.0
 11
-69.71824842245853
 21
781.5861136979863
 31
0.0
  0
LINE
  5
1F6
330
1F
100
AcDbEntity
  8
0-0
  6
JWW_DASHED1
 62
   120
370
     5
100
AcDbLine
 10
-659.7182484224558
 20
198.6571815098571
 30
0.0
 11
-409.7182484224477
 21
448.6571815098642
 31
0.0
  0
LINE
  5
1F7
330
1F
100
AcDbEntity
  8
0-0
  6
JWW_DASHED1
 62
   120
370
     5
100
AcDbLine
 10
-319.7182484224409
 20
538.6571815098714
 30
0.0
 11
-69.7182484224483
 21
788.6571815098632
 31
0.0
  0
LINE
  5
1F8
330
1F
100
AcDbEntity
  8
0-0
  6
JWW_DASHED1
 62
   120
370
     5
100
AcDbLine
 10
-659.718248422454
 20
205.7282493217246
 30
0.0
 11
-409.7182484224494
 21
455.7282493217295
 31
0.0
  0
LINE
  5
1F9
330
1F
100
AcDbEntity
  8
0-0
  6
JWW_DASHED1
 62
   120
370
     5
100
AcDbLine
 10
-319.718248422458
 20
545.7282493217202
 30
0.0
 11
-69.71824842245341
 21
795.7282493217248
 31
0.0
  0
LINE
  5
1FA
330
1F
100
AcDbEntity
  8
0-0
  6
JWW_DASHED1
 62
   120
370
     5
100
AcDbLine
 10
-659.7182484224677
 20
212.7993171335789
 30
0.0
 11
-409.7182484224443
 21
462.7993171336013
 31
0.0
  0
LINE
  5
1FB
330
1F
100
AcDbEntity
  8
0-0
  6
JWW_DASHED1
 62
   120
370
     5
100
AcDbLine
 10
-319.7182484224529
 20
552.7993171335933
 30
0.0
 11
-69.71824842246023
 21
802.7993171335846
 31
0.0
  0
LINE
  5
1FC
330
1F
100
AcDbEntity
  8
0-0
  6
JWW_DASHED1
 62
   120
370
     5
100
AcDbLine
 10
-659.7182484224575
 20
219.8703849454554
 30
0.0
 11
-409.7182484224494
 21
469.870384945462
 31
0.0
  0
LINE
  5
1FD
330
1F
100
AcDbEntity
  8
0-0
  6
JWW_DASHED1
 62
   120
370
     5
100
AcDbLine
 10
-319.7182484224426
 20
559.8703849454697
 30
0.0
 11
-69.71824842245171
 21
809.8703849454615
 31
0.0
  0
LINE
  5
1FE
330
1F
100
AcDbEntity
  8
0-0
  6
JWW_DASHED1
 62
   120
370
     5
100
AcDbLine
 10
-659.7182484224558
 20
226.9414527573229
 30
0.0
 11
-409.7182484224512
 21
476.9414527573278
 31
0.0
  0
LINE
  5
1FF
330
1F
100
AcDbEntity
  8
0-0
  6
JWW_DASHED1
 62
   120
370
     5
100
AcDbLine
 10
-319.7182484224443
 20
566.9414527573339
 30
0.0
 11
-69.71824842245512
 21
816.9414527573233
 31
0.0
  0
LINE
  5
200
330
1F
100
AcDbEntity
  8
0-0
  6
JWW_DASHED1
 62
   120
370
     5
100
AcDbLine
 10
-659.7182484224626
 20
234.0125205691836
 30
0.0
 11
-409.7182484224409
 21
484.0125205692039
 31
0.0
  0
LINE
  5
201
330
1F
100
AcDbEntity
  8
0-0
  6
JWW_DASHED1
 62
   120
370
     5
100
AcDbLine
 10
-319.7182484224494
 20
574.0125205691954
 30
0.0
 11
-69.71824842244489
 21
824.0125205692
 31
0.0
  0
LINE
  5
202
330
1F
100
AcDbEntity
  8
0-0
  6
JWW_DASHED1
 62
   120
370
     5
100
AcDbLine
 10
-659.7182484224592
 20
241.0835883810537
 30
0.0
 11
-409.7182484224512
 21
491.0835883810608
 31
0.0
  0
LINE
  5
203
330
1F
100
AcDbEntity
  8
0-0
  6
JWW_DASHED1
 62
   120
370
     5
100
AcDbLine
 10
-319.7182484224443
 20
581.083588381068
 30
0.0
 11
-69.71824842245171
 21
831.0835883810598
 31
0.0
  0
LINE
  5
204
330
1F
100
AcDbEntity
  8
0-0
  6
JWW_DASHED1
 62
   120
370
     5
100
AcDbLine
 10
-659.7182484224489
 20
248.1546561929301
 30
0.0
 11
-409.7182484224409
 21
498.1546561929372
 31
0.0
  0
LINE
  5
205
330
1F
100
AcDbEntity
  8
0-0
  6
JWW_DASHED1
 62
   120
370
     5
100
AcDbLine
 10
-319.7182484224341
 20
588.1546561929449
 30
0.0
 11
-69.71824842244318
 21
838.1546561929363
 31
0.0
  0
LINE
  5
206
330
1F
100
AcDbEntity
  8
0-0
  6
JWW_DASHED1
 62
   120
370
     5
100
AcDbLine
 10
-659.7182484224643
 20
255.2257240047819
 30
0.0
 11
-409.7182484224426
 21
505.2257240048022
 31
0.0
  0
LINE
  5
207
330
1F
100
AcDbEntity
  8
0-0
  6
JWW_DASHED1
 62
   120
370
     5
100
AcDbLine
 10
-319.7182484224529
 20
595.2257240047928
 30
0.0
 11
-69.7182484224483
 21
845.2257240047978
 31
0.0
  0
LINE
  5
208
330
1F
100
AcDbEntity
  8
0-0
  6
JWW_DASHED1
 62
   120
370
     5
100
AcDbLine
 10
-659.7182484224609
 20
262.296791816652
 30
0.0
 11
-409.7182484224529
 21
512.2967918166587
 31
0.0
  0
LINE
  5
209
330
1F
100
AcDbEntity
  8
0-0
  6
JWW_DASHED1
 62
   120
370
     5
100
AcDbLine
 10
-319.718248422446
 20
602.2967918166663
 30
0.0
 11
-69.71824842245341
 21
852.2967918166581
 31
0.0
  0
LINE
  5
20A
330
1F
100
AcDbEntity
  8
0-0
  6
JWW_DASHED1
 62
   120
370
     5
100
AcDbLine
 10
-659.7182484224506
 20
269.3678596285284
 30
0.0
 11
-409.7182484224426
 21
519.3678596285356
 31
0.0
  0
LINE
  5
20B
330
1F
100
AcDbEntity
  8
0-0
  6
JWW_DASHED1
 62
   120
370
     5
100
AcDbLine
 10
-319.7182484224358
 20
609.3678596285432
 30
0.0
 11
-69.71824842244489
 21
859.3678596285341
 31
0.0
  0
LINE
  5
20C
330
1F
100
AcDbEntity
  8
0-0
  6
JWW_DASHED1
 62
   120
370
     5
100
AcDbLine
 10
-659.7182484224506
 20
276.4389274403951
 30
0.0
 11
-409.7182484224443
 21
526.4389274404006
 31
0.0
  0
LINE
  5
20D
330
1F
100
AcDbEntity
  8
0-0
  6
JWW_DASHED1
 62
   120
370
     5
100
AcDbLine
 10
-319.7182484224546
 20
616.4389274403911
 30
0.0
 11
-69.71824842245
 21
866.4389274403961
 31
0.0
  0
LINE
  5
20E
330
1F
100
AcDbEntity
  8
0-0
  6
JWW_DASHED1
 62
   120
370
     5
100
AcDbLine
 10
-659.7182484224626
 20
283.5099952522503
 30
0.0
 11
-409.7182484224546
 21
533.5099952522573
 31
0.0
  0
LINE
  5
20F
330
1F
100
AcDbEntity
  8
0-0
  6
JWW_DASHED1
 62
   120
370
     5
100
AcDbLine
 10
-319.7182484224477
 20
623.5099952522646
 30
0.0
 11
-69.71824842245512
 21
873.5099952522564
 31
0.0
  0
LINE
  5
210
330
1F
100
AcDbEntity
  8
0-0
  6
JWW_DASHED1
 62
   120
370
     5
100
AcDbLine
 10
-659.7182484224523
 20
290.5810630641267
 30
0.0
 11
-409.7182484224443
 21
540.5810630641339
 31
0.0
  0
LINE
  5
211
330
1F
100
AcDbEntity
  8
0-0
  6
JWW_DASHED1
 62
   120
370
     5
100
AcDbLine
 10
-319.7182484224375
 20
630.5810630641415
 30
0.0
 11
-69.71824842244659
 21
880.5810630641324
 31
0.0
  0
LINE
  5
212
330
1F
100
AcDbEntity
  8
0-0
  6
JWW_DASHED1
 62
   120
370
     5
100
AcDbLine
 10
-659.7182484224523
 20
297.6521308759939
 30
0.0
 11
-409.7182484224477
 21
547.6521308759989
 31
0.0
  0
LINE
  5
213
330
1F
100
AcDbEntity
  8
0-0
  6
JWW_DASHED1
 62
   120
370
     5
100
AcDbLine
 10
-319.7182484224563
 20
637.6521308759894
 30
0.0
 11
-69.71824842245171
 21
887.652130875994
 31
0.0
  0
LINE
  5
214
330
1F
100
AcDbEntity
  8
0-0
  6
JWW_DASHED1
 62
   120
370
     5
100
AcDbLine
 10
-659.7182484224643
 20
304.7231986878486
 30
0.0
 11
-409.7182484224563
 21
554.7231986878553
 31
0.0
  0
LINE
  5
215
330
1F
100
AcDbEntity
  8
0-0
  6
JWW_DASHED1
 62
   120
370
     5
100
AcDbLine
 10
-319.7182484224494
 20
644.7231986878629
 30
0.0
 11
-69.71824842245853
 21
894.7231986878547
 31
0.0
  0
LINE
  5
216
330
1F
100
AcDbEntity
  8
0-0
  6
JWW_DASHED1
 62
   120
370
     5
100
AcDbLine
 10
-659.718248422454
 20
311.794266499725
 30
0.0
 11
-409.718248422446
 21
561.7942664997322
 31
0.0
  0
LINE
  5
217
330
1F
100
AcDbEntity
  8
0-0
  6
JWW_DASHED1
 62
   120
370
     5
100
AcDbLine
 10
-319.7182484224392
 20
651.7942664997398
 30
0.0
 11
-69.7182484224483
 21
901.7942664997307
 31
0.0
  0
LINE
  5
218
330
1F
100
AcDbEntity
  8
0-0
  6
JWW_DASHED1
 62
   120
370
     5
100
AcDbLine
 10
-659.718248422454
 20
318.8653343115917
 30
0.0
 11
-409.7182484224494
 21
568.8653343115967
 31
0.0
  0
LINE
  5
219
330
1F
100
AcDbEntity
  8
0-0
  6
JWW_DASHED1
 62
   120
370
     5
100
AcDbLine
 10
-319.718248422458
 20
658.8653343115873
 30
0.0
 11
-69.71824842245341
 21
908.8653343115923
 31
0.0
  0
LINE
  5
21A
330
1F
100
AcDbEntity
  8
0-0
  6
JWW_DASHED1
 62
   120
370
     5
100
AcDbLine
 10
-659.718248422466
 20
325.9364021234469
 30
0.0
 11
-409.7182484224426
 21
575.9364021234697
 31
0.0
  0
LINE
  5
21B
330
1F
100
AcDbEntity
  8
0-0
  6
JWW_DASHED1
 62
   120
370
     5
100
AcDbLine
 10
-319.7182484224512
 20
665.9364021234612
 30
0.0
 11
-69.71824842245853
 21
915.936402123453
 31
0.0
  0
LINE
  5
21C
330
1F
100
AcDbEntity
  8
0-0
  6
JWW_DASHED1
 62
   120
370
     5
100
AcDbLine
 10
-659.7182484224558
 20
333.0074699353233
 30
0.0
 11
-409.7182484224477
 21
583.0074699353305
 31
0.0
  0
LINE
  5
21D
330
1F
100
AcDbEntity
  8
0-0
  6
JWW_DASHED1
 62
   120
370
     5
100
AcDbLine
 10
-319.7182484224409
 20
673.0074699353381
 30
0.0
 11
-69.71824842245
 21
923.007469935329
 31
0.0
  0
LINE
  5
21E
330
1F
100
AcDbEntity
  8
0-0
  6
JWW_DASHED1
 62
   120
370
     5
100
AcDbLine
 10
-659.7182484224558
 20
340.07853774719
 30
0.0
 11
-409.7182484224512
 21
590.0785377471946
 31
0.0
  0
LINE
  5
21F
330
1F
100
AcDbEntity
  8
0-0
  6
JWW_DASHED1
 62
   120
370
     5
100
AcDbLine
 10
-319.7182484224597
 20
680.0785377471855
 30
0.0
 11
-69.71824842245512
 21
930.07853774719
 31
0.0
  0
LINE
  5
220
330
1F
100
AcDbEntity
  8
0-0
  6
JWW_DASHED1
 62
   120
370
     5
100
AcDbLine
 10
-659.7182484224609
 20
347.1496055590507
 30
0.0
 11
-409.7182484224409
 21
597.1496055590715
 31
0.0
  0
LINE
  5
221
330
1F
100
AcDbEntity
  8
0-0
  6
JWW_DASHED1
 62
   120
370
     5
100
AcDbLine
 10
-319.7182484224494
 20
687.1496055590621
 30
0.0
 11
-69.71824842246194
 21
937.1496055590513
 31
0.0
  0
LINE
  5
222
330
1F
100
AcDbEntity
  8
0-0
  6
JWW_DASHED1
 62
   120
370
     5
100
AcDbLine
 10
-659.7182484224575
 20
354.2206733709216
 30
0.0
 11
-409.7182484224494
 21
604.2206733709288
 31
0.0
  0
LINE
  5
223
330
1F
100
AcDbEntity
  8
0-0
  6
JWW_DASHED1
 62
   120
370
     5
100
AcDbLine
 10
-659.7182484224575
 20
361.2917411827879
 30
0.0
 11
-409.7182484224529
 21
611.2917411827929
 31
0.0
  0
LINE
  5
224
330
1F
100
AcDbEntity
  8
0-0
  6
JWW_DASHED1
 62
   120
370
     5
100
AcDbLine
 10
-659.7182484224643
 20
368.3628089946486
 30
0.0
 11
-409.7182484224426
 21
618.362808994669
 31
0.0
  0
LINE
  5
225
330
1F
100
AcDbEntity
  8
0-0
  6
JWW_DASHED1
 62
   120
370
     5
100
AcDbLine
 10
-659.7182484224609
 20
375.4338768064906
 30
0.0
 11
-409.7182484224546
 21
625.4338768064977
 31
0.0
  0
LINE
  5
226
330
1F
100
AcDbEntity
  8
0-0
  6
JWW_DASHED1
 62
   120
370
     5
100
AcDbLine
 10
-659.718248422454
 20
382.5049446183376
 30
0.0
 11
-409.718248422446
 21
632.5049446183446
 31
0.0
  0
LINE
  5
227
330
1F
100
AcDbEntity
  8
0-0
  6
JWW_DASHED1
 62
   120
370
     5
100
AcDbLine
 10
-659.718248422454
 20
389.5760124302038
 30
0.0
 11
-409.7182484224494
 21
639.5760124302084
 31
0.0
  0
LINE
  5
228
330
1F
100
AcDbEntity
  8
0-0
  6
JWW_DASHED1
 62
   120
370
     5
100
AcDbLine
 10
-659.7182484224643
 20
396.6470802420594
 30
0.0
 11
-409.7182484224426
 21
646.6470802420828
 31
0.0
  0
LINE
  5
229
330
1F
100
AcDbEntity
  8
0-0
  6
JWW_DASHED1
 62
   120
370
     5
100
AcDbLine
 10
-659.7182484224558
 20
403.7181480539359
 30
0.0
 11
-409.7182484224477
 21
653.7181480539434
 31
0.0
  0
LINE
  5
22A
330
1F
100
AcDbEntity
  8
0-0
  6
JWW_DASHED1
 62
   120
370
     5
100
AcDbLine
 10
-659.7182484224558
 20
410.7892158658017
 30
0.0
 11
-409.7182484224512
 21
660.7892158658067
 31
0.0
  0
LINE
  5
22B
330
1F
100
AcDbEntity
  8
0-0
  6
JWW_DASHED1
 62
   120
370
     5
100
AcDbLine
 10
-659.7182484224609
 20
417.8602836776628
 30
0.0
 11
-409.7182484224409
 21
667.8602836776836
 31
0.0
  0
LINE
  5
22C
330
1F
100
AcDbEntity
  8
0-0
  6
JWW_DASHED1
 62
   120
370
     5
100
AcDbLine
 10
-659.7182484224575
 20
424.9313514895342
 30
0.0
 11
-409.7182484224494
 21
674.9313514895412
 31
0.0
  0
LINE
  5
22D
330
1F
100
AcDbEntity
  8
0-0
  6
JWW_DASHED1
 62
   120
370
     5
100
AcDbLine
 10
-659.7182484224575
 20
432.0024193014
 30
0.0
 11
-409.7182484224529
 21
682.002419301405
 31
0.0
  0
LINE
  5
22E
330
1F
100
AcDbEntity
  8
0-0
  6
JWW_DASHED1
 62
   120
370
     5
100
AcDbLine
 10
-659.7182484224643
 20
439.0734871132607
 30
0.0
 11
-409.7182484224426
 21
689.0734871132811
 31
0.0
  0
LINE
  5
22F
330
1F
100
AcDbEntity
  8
0-0
  6
JWW_DASHED1
 62
   120
370
     5
100
AcDbLine
 10
-659.7182484224575
 20
446.1445549251329
 30
0.0
 11
-409.7182484224512
 21
696.1445549251396
 31
0.0
  0
LINE
  5
230
330
1F
100
AcDbEntity
  8
0-0
  6
JWW_DASHED1
 62
   120
370
     5
100
AcDbLine
 10
-659.7182484224489
 20
453.2156227370094
 30
0.0
 11
-409.7182484224409
 21
703.2156227370161
 31
0.0
  0
LINE
  5
231
330
1F
100
AcDbEntity
  8
0-0
  6
JWW_DASHED1
 62
   120
370
     5
100
AcDbLine
 10
-659.7182484224506
 20
460.2866905488748
 30
0.0
 11
-409.7182484224443
 21
710.2866905488794
 31
0.0
  0
LINE
  5
232
330
1F
100
AcDbEntity
  8
0-0
  6
JWW_DASHED1
 62
   120
370
     5
100
AcDbLine
 10
-659.7182484224609
 20
467.3577583607303
 30
0.0
 11
-409.7182484224529
 21
717.3577583607378
 31
0.0
  0
LINE
  5
233
330
1F
100
AcDbEntity
  8
0-0
  6
JWW_DASHED1
 62
   120
370
     5
100
AcDbLine
 10
-659.7182484224506
 20
474.4288261726077
 30
0.0
 11
-409.7182484224426
 21
724.4288261726147
 31
0.0
  0
LINE
  5
234
330
1F
100
AcDbEntity
  8
0-0
  6
JWW_DASHED1
 62
   120
370
     5
100
AcDbLine
 10
-659.7182484224523
 20
481.4998939844727
 30
0.0
 11
-409.718248422446
 21
731.4998939844777
 31
0.0
  0
LINE
  5
235
330
1F
100
AcDbEntity
  8
0-0
  6
JWW_DASHED1
 62
   120
370
     5
100
AcDbLine
 10
-659.7182484224626
 20
488.5709617963291
 30
0.0
 11
-409.7182484224546
 21
738.5709617963366
 31
0.0
  0
LINE
  5
236
330
1F
100
AcDbEntity
  8
0-0
  6
JWW_DASHED1
 62
   120
370
     5
100
AcDbLine
 10
-659.7182484224523
 20
495.642029608206
 30
0.0
 11
-409.7182484224443
 21
745.6420296082131
 31
0.0
  0
LINE
  5
237
330
1F
100
AcDbEntity
  8
0-0
  6
JWW_DASHED1
 62
   120
370
     5
100
AcDbLine
 10
-659.718248422454
 20
502.713097420071
 30
0.0
 11
-409.7182484224494
 21
752.713097420076
 31
0.0
  0
LINE
  5
238
330
1F
100
AcDbEntity
  8
0-0
  6
JWW_DASHED1
 62
   120
370
     5
100
AcDbLine
 10
-659.7182484224643
 20
509.7841652319274
 30
0.0
 11
-409.7182484224409
 21
759.7841652319503
 31
0.0
  0
LINE
  5
239
330
1F
100
AcDbEntity
  8
0-0
  6
JWW_DASHED1
 62
   120
370
     5
100
AcDbLine
 10
-659.718248422454
 20
516.8552330438043
 30
0.0
 11
-409.718248422446
 21
766.855233043811
 31
0.0
  0
LINE
  5
23A
330
1F
100
AcDbEntity
  8
0-0
  6
JWW_DASHED1
 62
   120
370
     5
100
AcDbLine
 10
-659.7182484224558
 20
523.9263008556688
 30
0.0
 11
-409.7182484224512
 21
773.9263008556734
 31
0.0
  0
LINE
  5
23B
330
1F
100
AcDbEntity
  8
0-0
  6
JWW_DASHED1
 62
   120
370
     5
100
AcDbLine
 10
-659.7182484224643
 20
530.9973686675257
 30
0.0
 11
-409.7182484224426
 21
780.9973686675486
 31
0.0
  0
LINE
  5
23C
330
1F
100
AcDbEntity
  8
0-0
  6
JWW_DASHED1
 62
   120
370
     5
100
AcDbLine
 10
-659.7182484224558
 20
538.0684364794026
 30
0.0
 11
-409.7182484224477
 21
788.0684364794093
 31
0.0
  0
LINE
  5
23D
330
1F
100
AcDbEntity
  8
0-0
  6
JWW_DASHED1
 62
   120
370
     5
100
AcDbLine
 10
-659.7182484224575
 20
545.1395042912671
 30
0.0
 11
-409.7182484224529
 21
795.1395042912717
 31
0.0
  0
LINE
  5
23E
330
1F
100
AcDbEntity
  8
0-0
  6
JWW_DASHED1
 62
   120
370
     5
100
AcDbLine
 10
-659.7182484224643
 20
552.2105721031279
 30
0.0
 11
-409.7182484224426
 21
802.2105721031486
 31
0.0
  0
LINE
  5
23F
330
1F
100
AcDbEntity
  8
0-0
  6
JWW_DASHED1
 62
   120
370
     5
100
AcDbLine
 10
-659.7182484224575
 20
559.2816399150009
 30
0.0
 11
-409.7182484224494
 21
809.2816399150079
 31
0.0
  0
LINE
  5
240
330
1F
100
AcDbEntity
  8
0-0
  6
JWW_DASHED1
 62
   120
370
     5
100
AcDbLine
 10
-659.7182484224472
 20
566.3527077268774
 30
0.0
 11
-409.7182484224392
 21
816.3527077268845
 31
0.0
  0
LINE
  5
241
330
1F
100
AcDbEntity
  8
0-0
  6
JWW_DASHED1
 62
   120
370
     5
100
AcDbLine
 10
-659.7182484224643
 20
573.4237755387262
 30
0.0
 11
-409.7182484224443
 21
823.4237755387464
 31
0.0
  0
LINE
  5
242
330
1F
100
AcDbEntity
  8
0-0
  6
JWW_DASHED1
 62
   120
370
     5
100
AcDbLine
 10
-659.7182484224592
 20
580.4948433505988
 30
0.0
 11
-409.7182484224512
 21
830.494843350606
 31
0.0
  0
LINE
  5
243
330
1F
100
AcDbEntity
  8
0-0
  6
JWW_DASHED1
 62
   120
370
     5
100
AcDbLine
 10
-659.7182484224489
 20
587.5659111624757
 30
0.0
 11
-409.7182484224426
 21
837.5659111624828
 31
0.0
  0
LINE
  5
244
330
1F
100
AcDbEntity
  8
0-0
  6
JWW_DASHED1
 62
   120
370
     5
100
AcDbLine
 10
-659.7182484224506
 20
594.6369789743399
 30
0.0
 11
-409.718248422446
 21
844.6369789743444
 31
0.0
  0
LINE
  5
245
330
1F
100
AcDbEntity
  8
0-0
  6
JWW_DASHED1
 62
   120
370
     5
100
AcDbLine
 10
-659.7182484224609
 20
601.7080467861975
 30
0.0
 11
-409.7182484224529
 21
851.7080467862042
 31
0.0
  0
LINE
  5
246
330
1F
100
AcDbEntity
  8
0-0
  6
JWW_DASHED1
 62
   120
370
     5
100
AcDbLine
 10
-659.7182484224506
 20
608.779114598074
 30
0.0
 11
-409.7182484224426
 21
858.7791145980812
 31
0.0
  0
LINE
  5
247
330
1F
100
AcDbEntity
  8
0-0
  6
JWW_DASHED1
 62
   120
370
     5
100
AcDbLine
 10
-659.718248422454
 20
615.8501824099377
 30
0.0
 11
-409.7182484224494
 21
865.8501824099427
 31
0.0
  0
LINE
  5
248
330
1F
100
AcDbEntity
  8
0-0
  6
JWW_DASHED1
 62
   120
370
     5
100
AcDbLine
 10
-659.7182484224626
 20
622.9212502217958
 30
0.0
 11
-409.7182484224546
 21
872.9212502218026
 31
0.0
  0
LINE
  5
249
330
1F
100
AcDbEntity
  8
0-0
  6
JWW_DASHED1
 62
   120
370
     5
100
AcDbLine
 10
-659.7182484224523
 20
629.9923180336723
 30
0.0
 11
-409.7182484224443
 21
879.9923180336795
 31
0.0
  0
LINE
  5
24A
330
1F
100
AcDbEntity
  8
0-0
  6
JWW_DASHED1
 62
   120
370
     5
100
AcDbLine
 10
-659.7182484224558
 20
637.063385845536
 30
0.0
 11
-409.7182484224512
 21
887.0633858455406
 31
0.0
  0
LINE
  5
24B
330
1F
100
AcDbEntity
  8
0-0
  6
JWW_DASHED1
 62
   120
370
     5
100
AcDbLine
 10
-659.7182484224643
 20
644.1344536573937
 30
0.0
 11
-409.7182484224409
 21
894.1344536574165
 31
0.0
  0
LINE
  5
24C
330
1F
100
AcDbEntity
  8
0-0
  6
JWW_DASHED1
 62
   120
370
     5
100
AcDbLine
 10
-659.718248422454
 20
651.2055214692706
 30
0.0
 11
-409.718248422446
 21
901.2055214692778
 31
0.0
  0
LINE
  5
24D
330
1F
100
AcDbEntity
  8
0-0
  6
JWW_DASHED1
 62
   120
370
     5
100
AcDbLine
 10
-659.7182484224575
 20
658.2765892811339
 30
0.0
 11
-409.7182484224529
 21
908.2765892811384
 31
0.0
  0
LINE
  5
24E
330
1F
100
AcDbEntity
  8
0-0
  6
JWW_DASHED1
 62
   120
370
     5
100
AcDbLine
 10
-659.7182484224626
 20
665.347657092995
 30
0.0
 11
-409.7182484224426
 21
915.3476570930153
 31
0.0
  0
LINE
  5
24F
330
1F
100
AcDbEntity
  8
0-0
  6
JWW_DASHED1
 62
   120
370
     5
100
AcDbLine
 10
-659.7182484224558
 20
672.4187249048689
 30
0.0
 11
-409.7182484224494
 21
922.4187249048761
 31
0.0
  0
LINE
  5
250
330
1F
100
AcDbEntity
  8
0-0
  6
JWW_DASHED1
 62
   120
370
     5
100
AcDbLine
 10
-659.7182484224592
 20
679.4897927167322
 30
0.0
 11
-409.7182484224546
 21
929.4897927167367
 31
0.0
  0
LINE
  5
251
330
1F
100
AcDbEntity
  8
0-0
  6
JWW_DASHED1
 62
   120
370
     5
100
AcDbLine
 10
-659.7182484224643
 20
686.5608605285929
 30
0.0
 11
-409.7182484224443
 21
936.5608605286136
 31
0.0
  0
LINE
  5
252
330
1F
100
AcDbEntity
  8
0-0
  6
JWW_DASHED1
 62
   120
370
     5
100
AcDbLine
 10
-659.7182484224575
 20
693.6319283404672
 30
0.0
 11
-409.7182484224494
 21
943.6319283404744
 31
0.0
  0
LINE
  5
253
330
1F
100
AcDbEntity
  8
0-0
  6
Continuous
 62
    92
370
    13
100
AcDbLine
 10
-659.718248422454
 20
-903.8001879069416
 30
0.0
 11
-659.718248422454
 21
1079.199812093058
 31
0.0
  0
LINE
  5
254
330
1F
100
AcDbEntity
  8
0-0
  6
Continuous
 62
    92
370
    13
100
AcDbLine
 10
-69.71824842245171
 20
-903.8001879069416
 30
0.0
 11
-69.71824842245171
 21
1079.199812093058
 31
0.0
  0
LINE
  5
255
330
1F
100
AcDbEntity
  8
0-0
  6
Continuous
 62
    92
370
    13
100
AcDbLine
 10
120.2817515775477
 20
1079.199812093058
 30
0.0
 11
120.2817515775477
 21
-903.8001879069416
 31
0.0
  0
LINE
  5
256
330
1F
100
AcDbEntity
  8
0-0
  6
Continuous
 62
    92
370
    13
100
AcDbLine
 10
710.2817515775465
 20
-903.8001879069416
 30
0.0
 11
710.2817515775465
 21
1079.199812093058
 31
0.0
  0
LINE
  5
257
330
1F
100
AcDbEntity
  8
0-0
  6
Continuous
 62
    92
370
    13
100
AcDbLine
 10
-659.718248422454
 20
944.1998120930582
 30
0.0
 11
-69.71824842245171
 21
944.1998120930582
 31
0.0
  0
LINE
  5
258
330
1F
100
AcDbEntity
  8
0-0
  6
Continuous
 62
    92
370
    13
100
AcDbLine
 10
120.2817515775477
 20
944.1998120930582
 30
0.0
 11
710.2817515775465
 21
944.1998120930582
 31
0.0
  0
LINE
  5
259
330
1F
100
AcDbEntity
  8
0-0
  6
Continuous
 62
    92
370
    13
100
AcDbLine
 10
370.2817515775488
 20
944.1998120930582
 30
0.0
 11
370.2817515775488
 21
-762.8001879069417
 31
0.0
  0
LINE
  5
25A
330
1F
100
AcDbEntity
  8
0-0
  6
Continuous
 62
    92
370
    13
100
AcDbLine
 10
460.2817515775488
 20
944.1998120930582
 30
0.0
 11
460.2817515775488
 21
-762.8001879069417
 31
0.0
  0
LINE
  5
25B
330
1F
100
AcDbEntity
  8
0-0
  6
Continuous
 62
    92
370
    13
100
AcDbLine
 10
-409.7182484224529
 20
944.1998120930582
 30
0.0
 11
-409.7182484224529
 21
-762.8001879069417
 31
0.0
  0
LINE
  5
25C
330
1F
100
AcDbEntity
  8
0-0
  6
Continuous
 62
    92
370
    13
100
AcDbLine
 10
-319.7182484224529
 20
944.1998120930582
 30
0.0
 11
-319.7182484224529
 21
-762.8001879069417
 31
0.0
  0
LINE
  5
25D
330
1F
100
AcDbEntity
  8
0-0
  6
JWW_DASHED1
 62
   120
370
     5
100
AcDbLine
 10
-319.7182484224426
 20
694.2206733709364
 30
0.0
 11
-69.73910970032038
 21
944.1998120930582
 31
0.0
  0
LINE
  5
25E
330
1F
100
AcDbEntity
  8
0-0
  6
JWW_DASHED1
 62
   120
370
     5
100
AcDbLine
 10
-319.718248422446
 20
701.2917411827997
 30
0.0
 11
-76.81017751218705
 21
944.1998120930582
 31
0.0
  0
LINE
  5
25F
330
1F
100
AcDbEntity
  8
0-0
  6
JWW_DASHED1
 62
   120
370
     5
100
AcDbLine
 10
-319.7182484224529
 20
708.3628089946604
 30
0.0
 11
-83.88124532405372
 21
944.1998120930582
 31
0.0
  0
LINE
  5
260
330
1F
100
AcDbEntity
  8
0-0
  6
JWW_DASHED1
 62
   120
370
     5
100
AcDbLine
 10
-319.718248422446
 20
715.4338768065049
 30
0.0
 11
-90.9523131358931
 21
944.1998120930582
 31
0.0
  0
LINE
  5
261
330
1F
100
AcDbEntity
  8
0-0
  6
JWW_DASHED1
 62
   120
370
     5
100
AcDbLine
 10
-319.7182484224392
 20
722.5049446183524
 30
0.0
 11
-98.02338094773249
 21
944.1998120930582
 31
0.0
  0
LINE
  5
262
330
1F
100
AcDbEntity
  8
0-0
  6
JWW_DASHED1
 62
   120
370
     5
100
AcDbLine
 10
-319.718248422458
 20
729.5760124301994
 30
0.0
 11
-105.0944487595992
 21
944.1998120930582
 31
0.0
  0
LINE
  5
263
330
1F
100
AcDbEntity
  8
0-0
  6
JWW_DASHED1
 62
   120
370
     5
100
AcDbLine
 10
-319.7182484224512
 20
736.6470802420738
 30
0.0
 11
-112.1655165714658
 21
944.1998120930582
 31
0.0
  0
LINE
  5
264
330
1F
100
AcDbEntity
  8
0-0
  6
JWW_DASHED1
 62
   120
370
     5
100
AcDbLine
 10
-319.7182484224409
 20
743.7181480539502
 30
0.0
 11
-119.2365843833325
 21
944.1998120930582
 31
0.0
  0
LINE
  5
265
330
1F
100
AcDbEntity
  8
0-0
  6
JWW_DASHED1
 62
   120
370
     5
100
AcDbLine
 10
-319.7182484224597
 20
750.7892158657974
 30
0.0
 11
-126.3076521951991
 21
944.1998120930582
 31
0.0
  0
LINE
  5
266
330
1F
100
AcDbEntity
  8
0-0
  6
JWW_DASHED1
 62
   120
370
     5
100
AcDbLine
 10
-319.7182484224494
 20
757.8602836776743
 30
0.0
 11
-133.3787200070658
 21
944.1998120930582
 31
0.0
  0
LINE
  5
267
330
1F
100
AcDbEntity
  8
0-0
  6
JWW_DASHED1
 62
   120
370
     5
100
AcDbLine
 10
-319.7182484224426
 20
764.9313514895485
 30
0.0
 11
-140.4497878189325
 21
944.1998120930582
 31
0.0
  0
LINE
  5
268
330
1F
100
AcDbEntity
  8
0-0
  6
JWW_DASHED1
 62
   120
370
     5
100
AcDbLine
 10
-319.718248422446
 20
772.0024193014112
 30
0.0
 11
-147.5208556307992
 21
944.1998120930582
 31
0.0
  0
LINE
  5
269
330
1F
100
AcDbEntity
  8
0-0
  6
JWW_DASHED1
 62
   120
370
     5
100
AcDbLine
 10
-319.7182484224529
 20
779.0734871132726
 30
0.0
 11
-154.5919234426658
 21
944.1998120930582
 31
0.0
  0
LINE
  5
26A
330
1F
100
AcDbEntity
  8
0-0
  6
JWW_DASHED1
 62
   120
370
     5
100
AcDbLine
 10
-319.7182484224443
 20
786.1445549251468
 30
0.0
 11
-161.6629912545325
 21
944.1998120930582
 31
0.0
  0
LINE
  5
26B
330
1F
100
AcDbEntity
  8
0-0
  6
JWW_DASHED1
 62
   120
370
     5
100
AcDbLine
 10
-319.7182484224341
 20
793.2156227370238
 30
0.0
 11
-168.7340590663992
 21
944.1998120930582
 31
0.0
  0
LINE
  5
26C
330
1F
100
AcDbEntity
  8
0-0
  6
JWW_DASHED1
 62
   120
370
     5
100
AcDbLine
 10
-319.7182484224546
 20
800.28669054887
 30
0.0
 11
-175.8051268782658
 21
944.1998120930582
 31
0.0
  0
LINE
  5
26D
330
1F
100
AcDbEntity
  8
0-0
  6
JWW_DASHED1
 62
   120
370
     5
100
AcDbLine
 10
-319.718248422446
 20
807.3577583607456
 30
0.0
 11
-182.8761946901325
 21
944.1998120930582
 31
0.0
  0
LINE
  5
26E
330
1F
100
AcDbEntity
  8
0-0
  6
JWW_DASHED1
 62
   120
370
     5
100
AcDbLine
 10
-319.7182484224358
 20
814.428826172622
 30
0.0
 11
-189.9472625019992
 21
944.1998120930582
 31
0.0
  0
LINE
  5
26F
330
1F
100
AcDbEntity
  8
0-0
  6
JWW_DASHED1
 62
   120
370
     5
100
AcDbLine
 10
-319.7182484224563
 20
821.4998939844683
 30
0.0
 11
-197.0183303138658
 21
944.1998120930582
 31
0.0
  0
LINE
  5
270
330
1F
100
AcDbEntity
  8
0-0
  6
JWW_DASHED1
 62
   120
370
     5
100
AcDbLine
 10
-319.7182484224477
 20
828.5709617963435
 30
0.0
 11
-204.0893981257325
 21
944.1998120930582
 31
0.0
  0
LINE
  5
271
330
1F
100
AcDbEntity
  8
0-0
  6
JWW_DASHED1
 62
   120
370
     5
100
AcDbLine
 10
-319.7182484224375
 20
835.6420296082204
 30
0.0
 11
-211.1604659375992
 21
944.1998120930582
 31
0.0
  0
LINE
  5
272
330
1F
100
AcDbEntity
  8
0-0
  6
JWW_DASHED1
 62
   120
370
     5
100
AcDbLine
 10
-319.718248422458
 20
842.7130974200666
 30
0.0
 11
-218.2315337494659
 21
944.1998120930582
 31
0.0
  0
LINE
  5
273
330
1F
100
AcDbEntity
  8
0-0
  6
JWW_DASHED1
 62
   120
370
     5
100
AcDbLine
 10
-319.7182484224494
 20
849.7841652319418
 30
0.0
 11
-225.3026015613326
 21
944.1998120930582
 31
0.0
  0
LINE
  5
274
330
1F
100
AcDbEntity
  8
0-0
  6
JWW_DASHED1
 62
   120
370
     5
100
AcDbLine
 10
-319.7182484224392
 20
856.8552330438187
 30
0.0
 11
-232.3736693731992
 21
944.1998120930582
 31
0.0
  0
LINE
  5
275
330
1F
100
AcDbEntity
  8
0-0
  6
JWW_DASHED1
 62
   120
370
     5
100
AcDbLine
 10
-319.7182484224597
 20
863.9263008556649
 30
0.0
 11
-239.4447371850659
 21
944.1998120930582
 31
0.0
  0
LINE
  5
276
330
1F
100
AcDbEntity
  8
0-0
  6
JWW_DASHED1
 62
   120
370
     5
100
AcDbLine
 10
-319.7182484224512
 20
870.9973686675405
 30
0.0
 11
-246.5158049969326
 21
944.1998120930582
 31
0.0
  0
LINE
  5
277
330
1F
100
AcDbEntity
  8
0-0
  6
JWW_DASHED1
 62
   120
370
     5
100
AcDbLine
 10
-319.7182484224409
 20
878.068436479417
 30
0.0
 11
-253.5868728087992
 21
944.1998120930582
 31
0.0
  0
LINE
  5
278
330
1F
100
AcDbEntity
  8
0-0
  6
JWW_DASHED1
 62
   120
370
     5
100
AcDbLine
 10
-319.7182484224614
 20
885.1395042912624
 30
0.0
 11
-260.6579406206659
 21
944.1998120930582
 31
0.0
  0
LINE
  5
279
330
1F
100
AcDbEntity
  8
0-0
  6
JWW_DASHED1
 62
   120
370
     5
100
AcDbLine
 10
-319.7182484224529
 20
892.2105721031393
 30
0.0
 11
-267.7290084325326
 21
944.1998120930582
 31
0.0
  0
LINE
  5
27A
330
1F
100
AcDbEntity
  8
0-0
  6
JWW_DASHED1
 62
   120
370
     5
100
AcDbLine
 10
-319.7182484224426
 20
899.2816399150153
 30
0.0
 11
-274.8000762443992
 21
944.1998120930582
 31
0.0
  0
LINE
  5
27B
330
1F
100
AcDbEntity
  8
0-0
  6
JWW_DASHED1
 62
   120
370
     5
100
AcDbLine
 10
-319.7182484224324
 20
906.3527077268916
 30
0.0
 11
-281.8711440562659
 21
944.1998120930582
 31
0.0
  0
LINE
  5
27C
330
1F
100
AcDbEntity
  8
0-0
  6
JWW_DASHED1
 62
   120
370
     5
100
AcDbLine
 10
-319.7182484224546
 20
913.4237755387371
 30
0.0
 11
-288.9422118681326
 21
944.1998120930582
 31
0.0
  0
LINE
  5
27D
330
1F
100
AcDbEntity
  8
0-0
  6
JWW_DASHED1
 62
   120
370
     5
100
AcDbLine
 10
-319.7182484224443
 20
920.4948433506136
 30
0.0
 11
-296.0132796799992
 21
944.1998120930582
 31
0.0
  0
LINE
  5
27E
330
1F
100
AcDbEntity
  8
0-0
  6
JWW_DASHED1
 62
   120
370
     5
100
AcDbLine
 10
-319.7182484224341
 20
927.56591116249
 30
0.0
 11
-303.0843474918659
 21
944.1998120930582
 31
0.0
  0
LINE
  5
27F
330
1F
100
AcDbEntity
  8
0-0
  6
JWW_DASHED1
 62
   120
370
     5
100
AcDbLine
 10
-319.7182484224563
 20
934.6369789743354
 30
0.0
 11
-310.1554153037326
 21
944.1998120930582
 31
0.0
  0
LINE
  5
280
330
1F
100
AcDbEntity
  8
0-0
  6
JWW_DASHED1
 62
   120
370
     5
100
AcDbLine
 10
-319.718248422446
 20
941.7080467862119
 30
0.0
 11
-317.2264831155993
 21
944.1998120930582
 31
0.0
  0
LINE
  5
281
330
1F
100
AcDbEntity
  8
0-0
  6
JWW_DASHED1
 62
   120
370
     5
100
AcDbLine
 10
-659.7182484224472
 20
700.7029961523441
 30
0.0
 11
-416.2214324817326
 21
944.1998120930582
 31
0.0
  0
LINE
  5
282
330
1F
100
AcDbEntity
  8
0-0
  6
JWW_DASHED1
 62
   120
370
     5
100
AcDbLine
 10
-659.7182484224506
 20
707.7740639642068
 30
0.0
 11
-423.2925002935993
 21
944.1998120930582
 31
0.0
  0
LINE
  5
283
330
1F
100
AcDbEntity
  8
0-0
  6
JWW_DASHED1
 62
   120
370
     5
100
AcDbLine
 10
-659.7182484224592
 20
714.8451317760655
 30
0.0
 11
-430.363568105466
 21
944.1998120930582
 31
0.0
  0
LINE
  5
284
330
1F
100
AcDbEntity
  8
0-0
  6
JWW_DASHED1
 62
   120
370
     5
100
AcDbLine
 10
-659.7182484224489
 20
721.916199587942
 30
0.0
 11
-437.4346359173326
 21
944.1998120930582
 31
0.0
  0
LINE
  5
285
330
1F
100
AcDbEntity
  8
0-0
  6
JWW_DASHED1
 62
   120
370
     5
100
AcDbLine
 10
-659.718248422454
 20
728.9872673998049
 30
0.0
 11
-444.5057037291993
 21
944.1998120930582
 31
0.0
  0
LINE
  5
286
330
1F
100
AcDbEntity
  8
0-0
  6
JWW_DASHED1
 62
   120
370
     5
100
AcDbLine
 10
-659.7182484224609
 20
736.0583352116638
 30
0.0
 11
-451.576771541066
 21
944.1998120930582
 31
0.0
  0
LINE
  5
287
330
1F
100
AcDbEntity
  8
0-0
  6
JWW_DASHED1
 62
   120
370
     5
100
AcDbLine
 10
-659.7182484224506
 20
743.1294030235401
 30
0.0
 11
-458.6478393529326
 21
944.1998120930582
 31
0.0
  0
LINE
  5
288
330
1F
100
AcDbEntity
  8
0-0
  6
JWW_DASHED1
 62
   120
370
     5
100
AcDbLine
 10
-659.718248422454
 20
750.2004708354032
 30
0.0
 11
-465.7189071647993
 21
944.1998120930582
 31
0.0
  0
LINE
  5
289
330
1F
100
AcDbEntity
  8
0-0
  6
JWW_DASHED1
 62
   120
370
     5
100
AcDbLine
 10
-659.7182484224626
 20
757.2715386472621
 30
0.0
 11
-472.789974976666
 21
944.1998120930582
 31
0.0
  0
LINE
  5
28A
330
1F
100
AcDbEntity
  8
0-0
  6
JWW_DASHED1
 62
   120
370
     5
100
AcDbLine
 10
-659.718248422454
 20
764.3426064591092
 30
0.0
 11
-479.8610427885054
 21
944.1998120930582
 31
0.0
  0
LINE
  5
28B
330
1F
100
AcDbEntity
  8
0-0
  6
JWW_DASHED1
 62
   120
370
     5
100
AcDbLine
 10
-659.7182484224472
 20
771.4136742709562
 30
0.0
 11
-486.9321106003448
 21
944.1998120930582
 31
0.0
  0
LINE
  5
28C
330
1F
100
AcDbEntity
  8
0-0
  6
JWW_DASHED1
 62
   120
370
     5
100
AcDbLine
 10
-659.7182484224677
 20
778.4847420828029
 30
0.0
 11
-494.0031784122115
 21
944.1998120930582
 31
0.0
  0
LINE
  5
28D
330
1F
100
AcDbEntity
  8
0-0
  6
JWW_DASHED1
 62
   120
370
     5
100
AcDbLine
 10
-659.7182484224592
 20
785.5558098946781
 30
0.0
 11
-501.0742462240781
 21
944.1998120930582
 31
0.0
  0
LINE
  5
28E
330
1F
100
AcDbEntity
  8
0-0
  6
JWW_DASHED1
 62
   120
370
     5
100
AcDbLine
 10
-659.7182484224489
 20
792.6268777065545
 30
0.0
 11
-508.1453140359448
 21
944.1998120930582
 31
0.0
  0
LINE
  5
28F
330
1F
100
AcDbEntity
  8
0-0
  6
JWW_DASHED1
 62
   120
370
     5
100
AcDbLine
 10
-659.718248422454
 20
799.697945518417
 30
0.0
 11
-515.2163818478115
 21
944.1998120930582
 31
0.0
  0
LINE
  5
290
330
1F
100
AcDbEntity
  8
0-0
  6
JWW_DASHED1
 62
   120
370
     5
100
AcDbLine
 10
-659.7182484224609
 20
806.7690133302764
 30
0.0
 11
-522.2874496596781
 21
944.1998120930582
 31
0.0
  0
LINE
  5
291
330
1F
100
AcDbEntity
  8
0-0
  6
JWW_DASHED1
 62
   120
370
     5
100
AcDbLine
 10
-659.7182484224506
 20
813.8400811421528
 30
0.0
 11
-529.3585174715448
 21
944.1998120930582
 31
0.0
  0
LINE
  5
292
330
1F
100
AcDbEntity
  8
0-0
  6
JWW_DASHED1
 62
   120
370
     5
100
AcDbLine
 10
-659.7182484224558
 20
820.9111489540153
 30
0.0
 11
-536.4295852834115
 21
944.1998120930582
 31
0.0
  0
LINE
  5
293
330
1F
100
AcDbEntity
  8
0-0
  6
JWW_DASHED1
 62
   120
370
     5
100
AcDbLine
 10
-659.7182484224626
 20
827.9822167658742
 30
0.0
 11
-543.5006530952782
 21
944.1998120930582
 31
0.0
  0
LINE
  5
294
330
1F
100
AcDbEntity
  8
0-0
  6
JWW_DASHED1
 62
   120
370
     5
100
AcDbLine
 10
-659.7182484224523
 20
835.0532845777511
 30
0.0
 11
-550.5717209071448
 21
944.1998120930582
 31
0.0
  0
LINE
  5
295
330
1F
100
AcDbEntity
  8
0-0
  6
JWW_DASHED1
 62
   120
370
     5
100
AcDbLine
 10
-659.7182484224575
 20
842.1243523896131
 30
0.0
 11
-557.6427887190115
 21
944.1998120930582
 31
0.0
  0
LINE
  5
296
330
1F
100
AcDbEntity
  8
0-0
  6
JWW_DASHED1
 62
   120
370
     5
100
AcDbLine
 10
-659.7182484224643
 20
849.195420201473
 30
0.0
 11
-564.7138565308782
 21
944.1998120930582
 31
0.0
  0
LINE
  5
297
330
1F
100
AcDbEntity
  8
0-0
  6
JWW_DASHED1
 62
   120
370
     5
100
AcDbLine
 10
-659.718248422454
 20
856.2664880133494
 30
0.0
 11
-571.7849243427448
 21
944.1998120930582
 31
0.0
  0
LINE
  5
298
330
1F
100
AcDbEntity
  8
0-0
  6
JWW_DASHED1
 62
   120
370
     5
100
AcDbLine
 10
-659.7182484224592
 20
863.3375558252114
 30
0.0
 11
-578.8559921546115
 21
944.1998120930582
 31
0.0
  0
LINE
  5
299
330
1F
100
AcDbEntity
  8
0-0
  6
JWW_DASHED1
 62
   120
370
     5
100
AcDbLine
 10
-659.7182484224643
 20
870.4086236370717
 30
0.0
 11
-585.9270599664782
 21
944.1998120930582
 31
0.0
  0
LINE
  5
29A
330
1F
100
AcDbEntity
  8
0-0
  6
JWW_DASHED1
 62
   120
370
     5
100
AcDbLine
 10
-659.7182484224558
 20
877.4796914489477
 30
0.0
 11
-592.9981277783448
 21
944.1998120930582
 31
0.0
  0
LINE
  5
29B
330
1F
100
AcDbEntity
  8
0-0
  6
JWW_DASHED1
 62
   120
370
     5
100
AcDbLine
 10
-659.7182484224455
 20
884.5507592608246
 30
0.0
 11
-600.0691955902115
 21
944.1998120930582
 31
0.0
  0
LINE
  5
29C
330
1F
100
AcDbEntity
  8
0-0
  6
JWW_DASHED1
 62
   120
370
     5
100
AcDbLine
 10
-659.7182484224677
 20
891.62182707267
 30
0.0
 11
-607.1402634020782
 21
944.1998120930582
 31
0.0
  0
LINE
  5
29D
330
1F
100
AcDbEntity
  8
0-0
  6
JWW_DASHED1
 62
   120
370
     5
100
AcDbLine
 10
-659.7182484224575
 20
898.692894884546
 30
0.0
 11
-614.2113312139448
 21
944.1998120930582
 31
0.0
  0
LINE
  5
29E
330
1F
100
AcDbEntity
  8
0-0
  6
JWW_DASHED1
 62
   120
370
     5
100
AcDbLine
 10
-659.7182484224472
 20
905.7639626964229
 30
0.0
 11
-621.2823990258115
 21
944.1998120930582
 31
0.0
  0
LINE
  5
29F
330
1F
100
AcDbEntity
  8
0-0
  6
JWW_DASHED1
 62
   120
370
     5
100
AcDbLine
 10
-659.7182484224523
 20
912.8350305082837
 30
0.0
 11
-628.3534668376782
 21
944.1998120930582
 31
0.0
  0
LINE
  5
2A0
330
1F
100
AcDbEntity
  8
0-0
  6
JWW_DASHED1
 62
   120
370
     5
100
AcDbLine
 10
-659.7182484224592
 20
919.9060983201443
 30
0.0
 11
-635.4245346495449
 21
944.1998120930582
 31
0.0
  0
LINE
  5
2A1
330
1F
100
AcDbEntity
  8
0-0
  6
JWW_DASHED1
 62
   120
370
     5
100
AcDbLine
 10
-659.7182484224489
 20
926.9771661320212
 30
0.0
 11
-642.4956024614115
 21
944.1998120930582
 31
0.0
  0
LINE
  5
2A2
330
1F
100
AcDbEntity
  8
0-0
  6
JWW_DASHED1
 62
   120
370
     5
100
AcDbLine
 10
-659.718248422454
 20
934.048233943882
 30
0.0
 11
-649.5666702732782
 21
944.1998120930582
 31
0.0
  0
LINE
  5
2A3
330
1F
100
AcDbEntity
  8
0-0
  6
JWW_DASHED1
 62
   120
370
     5
100
AcDbLine
 10
-659.7182484224609
 20
941.1193017557426
 30
0.0
 11
-656.6377380851449
 21
944.1998120930582
 31
0.0
  0
LINE
  5
2A4
330
1F
100
AcDbEntity
  8
0-0
  6
JWW_DASHED1
 62
   120
370
     5
100
AcDbLine
 10
707.3882329593429
 20
-762.8001879069287
 30
0.0
 11
710.2817515775363
 21
-759.9066692887349
 31
0.0
  0
LINE
  5
2A5
330
1F
100
AcDbEntity
  8
0-0
  6
JWW_DASHED1
 62
   120
370
     5
100
AcDbLine
 10
700.3171651474643
 20
-762.800187906939
 30
0.0
 11
710.2817515775465
 21
-752.8356014768582
 31
0.0
  0
LINE
  5
2A6
330
1F
100
AcDbEntity
  8
0-0
  6
JWW_DASHED1
 62
   120
370
     5
100
AcDbLine
 10
693.2460973355891
 20
-762.8001879069478
 30
0.0
 11
710.281751577555
 21
-745.764533664982
 31
0.0
  0
LINE
  5
2A7
330
1F
100
AcDbEntity
  8
0-0
  6
JWW_DASHED1
 62
   120
370
     5
100
AcDbLine
 10
686.1750295237429
 20
-762.8001879069278
 30
0.0
 11
710.2817515775346
 21
-738.6934658531363
 31
0.0
  0
LINE
  5
2A8
330
1F
100
AcDbEntity
  8
0-0
  6
JWW_DASHED1
 62
   120
370
     5
100
AcDbLine
 10
679.103961711866
 20
-762.800187906938
 30
0.0
 11
710.2817515775448
 21
-731.6223980412601
 31
0.0
  0
LINE
  5
2A9
330
1F
100
AcDbEntity
  8
0-0
  6
JWW_DASHED1
 62
   120
370
     5
100
AcDbLine
 10
672.0328938999891
 20
-762.8001879069483
 30
0.0
 11
710.2817515775533
 21
-724.5513302293836
 31
0.0
  0
LINE
  5
2AA
330
1F
100
AcDbEntity
  8
0-0
  6
JWW_DASHED1
 62
   120
370
     5
100
AcDbLine
 10
664.9618260881156
 20
-762.8001879069556
 30
0.0
 11
710.2817515775636
 21
-717.4802624175071
 31
0.0
  0
LINE
  5
2AB
330
1F
100
AcDbEntity
  8
0-0
  6
JWW_DASHED1
 62
   120
370
     5
100
AcDbLine
 10
657.8907582762677
 20
-762.800187906937
 30
0.0
 11
710.2817515775414
 21
-710.4091946056618
 31
0.0
  0
LINE
  5
2AC
330
1F
100
AcDbEntity
  8
0-0
  6
JWW_DASHED1
 62
   120
370
     5
100
AcDbLine
 10
650.8196904643908
 20
-762.8001879069475
 30
0.0
 11
710.2817515775516
 21
-703.3381267937851
 31
0.0
  0
LINE
  5
2AD
330
1F
100
AcDbEntity
  8
0-0
  6
JWW_DASHED1
 62
   120
370
     5
100
AcDbLine
 10
643.7486226525173
 20
-762.8001879069532
 30
0.0
 11
710.2817515775619
 21
-696.2670589819088
 31
0.0
  0
LINE
  5
2AE
330
1F
100
AcDbEntity
  8
0-0
  6
JWW_DASHED1
 62
   120
370
     5
100
AcDbLine
 10
636.6775548406677
 20
-762.8001879069361
 30
0.0
 11
710.2817515775414
 21
-689.1959911700635
 31
0.0
  0
LINE
  5
2AF
330
1F
100
AcDbEntity
  8
0-0
  6
JWW_DASHED1
 62
   120
370
     5
100
AcDbLine
 10
629.6064870287908
 20
-762.8001879069463
 30
0.0
 11
710.2817515775516
 21
-682.1249233581866
 31
0.0
  0
LINE
  5
2B0
330
1F
100
AcDbEntity
  8
0-0
  6
JWW_DASHED1
 62
   120
370
     5
100
AcDbLine
 10
622.5354192169207
 20
-762.8001879069509
 30
0.0
 11
710.2817515775602
 21
-675.053855546311
 31
0.0
  0
LINE
  5
2B1
330
1F
100
AcDbEntity
  8
0-0
  6
JWW_DASHED1
 62
   120
370
     5
100
AcDbLine
 10
615.4643514050694
 20
-762.8001879069353
 30
0.0
 11
710.281751577538
 21
-667.9827877344652
 31
0.0
  0
LINE
  5
2B2
330
1F
100
AcDbEntity
  8
0-0
  6
JWW_DASHED1
 62
   120
370
     5
100
AcDbLine
 10
608.3932835931925
 20
-762.8001879069453
 30
0.0
 11
710.2817515775482
 21
-660.9117199225885
 31
0.0
  0
LINE
  5
2B3
330
1F
100
AcDbEntity
  8
0-0
  6
JWW_DASHED1
 62
   120
370
     5
100
AcDbLine
 10
601.3222157813224
 20
-762.8001879069487
 30
0.0
 11
710.2817515775585
 21
-653.8406521107124
 31
0.0
  0
LINE
  5
2B4
330
1F
100
AcDbEntity
  8
0-0
  6
JWW_DASHED1
 62
   120
370
     5
100
AcDbLine
 10
594.2511479694693
 20
-762.8001879069342
 30
0.0
 11
710.281751577538
 21
-646.7695842988669
 31
0.0
  0
LINE
  5
2B5
330
1F
100
AcDbEntity
  8
0-0
  6
JWW_DASHED1
 62
   120
370
     5
100
AcDbLine
 10
587.1800801575924
 20
-762.8001879069444
 30
0.0
 11
710.2817515775482
 21
-639.69851648699
 31
0.0
  0
LINE
  5
2B6
330
1F
100
AcDbEntity
  8
0-0
  6
JWW_DASHED1
 62
   120
370
     5
100
AcDbLine
 10
580.1090123457241
 20
-762.8001879069463
 30
0.0
 11
710.281751577555
 21
-632.6274486751148
 31
0.0
  0
LINE
  5
2B7
330
1F
100
AcDbEntity
  8
0-0
  6
JWW_DASHED1
 62
   120
370
     5
100
AcDbLine
 10
573.037944533871
 20
-762.8001879069332
 30
0.0
 11
710.2817515775346
 21
-625.5563808632686
 31
0.0
  0
LINE
  5
2B8
330
1F
100
AcDbEntity
  8
0-0
  6
JWW_DASHED1
 62
   120
370
     5
100
AcDbLine
 10
565.9668767219941
 20
-762.8001879069434
 30
0.0
 11
710.2817515775448
 21
-618.4853130513919
 31
0.0
  0
LINE
  5
2B9
330
1F
100
AcDbEntity
  8
0-0
  6
JWW_DASHED1
 62
   120
370
     5
100
AcDbLine
 10
558.8958089101258
 20
-762.8001879069443
 30
0.0
 11
710.281751577555
 21
-611.4142452395167
 31
0.0
  0
LINE
  5
2BA
330
1F
100
AcDbEntity
  8
0-0
  6
JWW_DASHED1
 62
   120
370
     5
100
AcDbLine
 10
551.8247410982506
 20
-762.8001879069541
 30
0.0
 11
710.2817515775636
 21
-604.34317742764
 31
0.0
  0
LINE
  5
2BB
330
1F
100
AcDbEntity
  8
0-0
  6
JWW_DASHED1
 62
   120
370
     5
100
AcDbLine
 10
544.7536732863941
 20
-762.8001879069428
 30
0.0
 11
710.2817515775431
 21
-597.2721096157937
 31
0.0
  0
LINE
  5
2BC
330
1F
100
AcDbEntity
  8
0-0
  6
JWW_DASHED1
 62
   120
370
     5
100
AcDbLine
 10
537.6826054745172
 20
-762.800187906953
 30
0.0
 11
710.2817515775516
 21
-590.2010418039187
 31
0.0
  0
LINE
  5
2BD
330
1F
100
AcDbEntity
  8
0-0
  6
JWW_DASHED1
 62
   120
370
     5
100
AcDbLine
 10
530.6115376626523
 20
-762.8001879069517
 30
0.0
 11
710.2817515775619
 21
-583.1299739920421
 31
0.0
  0
LINE
  5
2BE
330
1F
100
AcDbEntity
  8
0-0
  6
JWW_DASHED1
 62
   120
370
     5
100
AcDbLine
 10
523.5404698507958
 20
-762.8001879069417
 30
0.0
 11
710.2817515775414
 21
-576.0589061801953
 31
0.0
  0
LINE
  5
2BF
330
1F
100
AcDbEntity
  8
0-0
  6
JWW_DASHED1
 62
   120
370
     5
100
AcDbLine
 10
516.4694020389189
 20
-762.8001879069519
 30
0.0
 11
710.2817515775516
 21
-568.9878383683186
 31
0.0
  0
LINE
  5
2C0
330
1F
100
AcDbEntity
  8
0-0
  6
JWW_DASHED1
 62
   120
370
     5
100
AcDbLine
 10
509.398334227054
 20
-762.8001879069496
 30
0.0
 11
710.2817515775602
 21
-561.9167705564438
 31
0.0
  0
LINE
  5
2C1
330
1F
100
AcDbEntity
  8
0-0
  6
JWW_DASHED1
 62
   120
370
     5
100
AcDbLine
 10
502.3272664151958
 20
-762.8001879069409
 30
0.0
 11
710.2817515775397
 21
-554.8457027445971
 31
0.0
  0
LINE
  5
2C2
330
1F
100
AcDbEntity
  8
0-0
  6
JWW_DASHED1
 62
   120
370
     5
100
AcDbLine
 10
495.2561986033189
 20
-762.8001879069511
 30
0.0
 11
710.2817515775499
 21
-547.7746349327202
 31
0.0
  0
LINE
  5
2C3
330
1F
100
AcDbEntity
  8
0-0
  6
JWW_DASHED1
 62
   120
370
     5
100
AcDbLine
 10
488.1851307914574
 20
-762.8001879069473
 30
0.0
 11
710.2817515775585
 21
-540.7035671208455
 31
0.0
  0
LINE
  5
2C4
330
1F
100
AcDbEntity
  8
0-0
  6
JWW_DASHED1
 62
   120
370
     5
100
AcDbLine
 10
481.1140629795975
 20
-762.8001879069398
 30
0.0
 11
710.281751577538
 21
-533.632499308999
 31
0.0
  0
LINE
  5
2C5
330
1F
100
AcDbEntity
  8
0-0
  6
JWW_DASHED1
 62
   120
370
     5
100
AcDbLine
 10
474.0429951677207
 20
-762.80018790695
 30
0.0
 11
710.2817515775482
 21
-526.561431497122
 31
0.0
  0
LINE
  5
2C6
330
1F
100
AcDbEntity
  8
0-0
  6
JWW_DASHED1
 62
   120
370
     5
100
AcDbLine
 10
466.9719273558591
 20
-762.8001879069449
 30
0.0
 11
710.2817515775567
 21
-519.4903636852476
 31
0.0
  0
LINE
  5
2C7
330
1F
100
AcDbEntity
  8
0-0
  6
JWW_DASHED1
 62
   120
370
     5
100
AcDbLine
 10
460.2817515775454
 20
-762.4192958733914
 30
0.0
 11
710.2817515775363
 21
-512.4192958734005
 31
0.0
  0
LINE
  5
2C8
330
1F
100
AcDbEntity
  8
0-0
  6
JWW_DASHED1
 62
   120
370
     5
100
AcDbLine
 10
460.2817515775557
 20
-755.348228061515
 30
0.0
 11
710.2817515775465
 21
-505.3482280615236
 31
0.0
  0
LINE
  5
2C9
330
1F
100
AcDbEntity
  8
0-0
  6
JWW_DASHED1
 62
   120
370
     5
100
AcDbLine
 10
460.2817515775506
 20
-748.2771602496543
 30
0.0
 11
710.281751577555
 21
-498.2771602496498
 31
0.0
  0
LINE
  5
2CA
330
1F
100
AcDbEntity
  8
0-0
  6
JWW_DASHED1
 62
   120
370
     5
100
AcDbLine
 10
460.2817515775437
 20
-741.2060924377934
 30
0.0
 11
710.2817515775346
 21
-491.2060924378023
 31
0.0
  0
LINE
  5
2CB
330
1F
100
AcDbEntity
  8
0-0
  6
JWW_DASHED1
 62
   120
370
     5
100
AcDbLine
 10
460.281751577554
 20
-734.1350246259165
 30
0.0
 11
710.2817515775448
 21
-484.1350246259254
 31
0.0
  0
LINE
  5
2CC
330
1F
100
AcDbEntity
  8
0-0
  6
JWW_DASHED1
 62
   120
370
     5
100
AcDbLine
 10
460.2817515775591
 20
-727.063956814099
 30
0.0
 11
710.2817515775516
 21
-477.0639568141078
 31
0.0
  0
LINE
  5
2CD
330
1F
100
AcDbEntity
  8
0-0
  6
JWW_DASHED1
 62
   120
370
     5
100
AcDbLine
 10
460.281751577554
 20
-719.9928890022386
 30
0.0
 11
710.2817515775585
 21
-469.9928890022338
 31
0.0
  0
LINE
  5
2CE
330
1F
100
AcDbEntity
  8
0-0
  6
JWW_DASHED1
 62
   120
370
     5
100
AcDbLine
 10
460.2817515775471
 20
-712.9218211903775
 30
0.0
 11
710.2817515775397
 21
-462.9218211903859
 31
0.0
  0
LINE
  5
2CF
330
1F
100
AcDbEntity
  8
0-0
  6
JWW_DASHED1
 62
   120
370
     5
100
AcDbLine
 10
460.2817515775574
 20
-705.8507533785008
 30
0.0
 11
710.2817515775482
 21
-455.8507533785095
 31
0.0
  0
LINE
  5
2D0
330
1F
100
AcDbEntity
  8
0-0
  6
JWW_DASHED1
 62
   120
370
     5
100
AcDbLine
 10
460.2817515775506
 20
-698.7796855666405
 30
0.0
 11
710.2817515775567
 21
-448.7796855666357
 31
0.0
  0
LINE
  5
2D1
330
1F
100
AcDbEntity
  8
0-0
  6
JWW_DASHED1
 62
   120
370
     5
100
AcDbLine
 10
460.2817515775471
 20
-691.7086177547792
 30
0.0
 11
710.281751577538
 21
-441.7086177547878
 31
0.0
  0
LINE
  5
2D2
330
1F
100
AcDbEntity
  8
0-0
  6
JWW_DASHED1
 62
   120
370
     5
100
AcDbLine
 10
460.2817515775557
 20
-684.6375499429024
 30
0.0
 11
710.2817515775482
 21
-434.6375499429112
 31
0.0
  0
LINE
  5
2D3
330
1F
100
AcDbEntity
  8
0-0
  6
JWW_DASHED1
 62
   120
370
     5
100
AcDbLine
 10
460.2817515775488
 20
-677.5664821310424
 30
0.0
 11
710.281751577555
 21
-427.5664821310377
 31
0.0
  0
LINE
  5
2D4
330
1F
100
AcDbEntity
  8
0-0
  6
JWW_DASHED1
 62
   120
370
     5
100
AcDbLine
 10
367.9769779897786
 20
-762.800187906946
 30
0.0
 11
370.2817515775523
 21
-760.4954143191725
 31
0.0
  0
LINE
  5
2D5
330
1F
100
AcDbEntity
  8
0-0
  6
JWW_DASHED1
 62
   120
370
     5
100
AcDbLine
 10
460.2817515775437
 20
-670.4954143191809
 30
0.0
 11
710.2817515775363
 21
-420.4954143191898
 31
0.0
  0
LINE
  5
2D6
330
1F
100
AcDbEntity
  8
0-0
  6
JWW_DASHED1
 62
   120
370
     5
100
AcDbLine
 10
360.9059101779188
 20
-762.8001879069398
 30
0.0
 11
370.2817515775471
 21
-753.4243465073114
 31
0.0
  0
LINE
  5
2D7
330
1F
100
AcDbEntity
  8
0-0
  6
JWW_DASHED1
 62
   120
370
     5
100
AcDbLine
 10
460.281751577554
 20
-663.4243465073042
 30
0.0
 11
710.2817515775448
 21
-413.4243465073129
 31
0.0
  0
LINE
  5
2D8
330
1F
100
AcDbEntity
  8
0-0
  6
JWW_DASHED1
 62
   120
370
     5
100
AcDbLine
 10
353.8348423660419
 20
-762.8001879069498
 30
0.0
 11
370.2817515775574
 21
-746.3532786954352
 31
0.0
  0
LINE
  5
2D9
330
1F
100
AcDbEntity
  8
0-0
  6
JWW_DASHED1
 62
   120
370
     5
100
AcDbLine
 10
460.2817515775471
 20
-656.3532786954444
 30
0.0
 11
710.2817515775516
 21
-406.3532786954394
 31
0.0
  0
LINE
  5
2DA
330
1F
100
AcDbEntity
  8
0-0
  6
JWW_DASHED1
 62
   120
370
     5
100
AcDbLine
 10
346.7637745541667
 20
-762.8001879069581
 30
0.0
 11
370.2817515775676
 21
-739.2822108835585
 31
0.0
  0
LINE
  5
2DB
330
1F
100
AcDbEntity
  8
0-0
  6
JWW_DASHED1
 62
   120
370
     5
100
AcDbLine
 10
460.2817515775574
 20
-649.2822108835678
 30
0.0
 11
710.2817515775619
 21
-399.2822108835629
 31
0.0
  0
LINE
  5
2DC
330
1F
100
AcDbEntity
  8
0-0
  6
JWW_DASHED1
 62
   120
370
     5
100
AcDbLine
 10
339.6927067423205
 20
-762.8001879069376
 30
0.0
 11
370.2817515775454
 21
-732.2111430717133
 31
0.0
  0
LINE
  5
2DD
330
1F
100
AcDbEntity
  8
0-0
  6
JWW_DASHED1
 62
   120
370
     5
100
AcDbLine
 10
460.2817515775523
 20
-642.2111430717058
 30
0.0
 11
710.2817515775448
 21
-392.2111430717146
 31
0.0
  0
LINE
  5
2DE
330
1F
100
AcDbEntity
  8
0-0
  6
JWW_DASHED1
 62
   120
370
     5
100
AcDbLine
 10
332.6216389304453
 20
-762.8001879069475
 30
0.0
 11
370.2817515775557
 21
-725.1400752598369
 31
0.0
  0
LINE
  5
2DF
330
1F
100
AcDbEntity
  8
0-0
  6
JWW_DASHED1
 62
   120
370
     5
100
AcDbLine
 10
460.2817515775625
 20
-635.1400752598292
 30
0.0
 11
710.281751577555
 21
-385.1400752598381
 31
0.0
  0
LINE
  5
2E0
330
1F
100
AcDbEntity
  8
0-0
  6
JWW_DASHED1
 62
   120
370
     5
100
AcDbLine
 10
325.5505711185718
 20
-762.8001879069545
 30
0.0
 11
370.2817515775642
 21
-718.0690074479606
 31
0.0
  0
LINE
  5
2E1
330
1F
100
AcDbEntity
  8
0-0
  6
JWW_DASHED1
 62
   120
370
     5
100
AcDbLine
 10
460.2817515775557
 20
-628.0690074479695
 30
0.0
 11
710.2817515775602
 21
-378.069007447965
 31
0.0
  0
LINE
  5
2E2
330
1F
100
AcDbEntity
  8
0-0
  6
JWW_DASHED1
 62
   120
370
     5
100
AcDbLine
 10
318.4795033067222
 20
-762.8001879069355
 30
0.0
 11
370.2817515775437
 21
-710.9979396361148
 31
0.0
  0
LINE
  5
2E3
330
1F
100
AcDbEntity
  8
0-0
  6
JWW_DASHED1
 62
   120
370
     5
100
AcDbLine
 10
460.2817515775506
 20
-620.9979396361076
 30
0.0
 11
710.2817515775414
 21
-370.9979396361163
 31
0.0
  0
LINE
  5
2E4
330
1F
100
AcDbEntity
  8
0-0
  6
JWW_DASHED1
 62
   120
370
     5
100
AcDbLine
 10
311.408435494847
 20
-762.8001879069453
 30
0.0
 11
370.281751577554
 21
-703.9268718242386
 31
0.0
  0
LINE
  5
2E5
330
1F
100
AcDbEntity
  8
0-0
  6
JWW_DASHED1
 62
   120
370
     5
100
AcDbLine
 10
460.2817515775608
 20
-613.9268718242308
 30
0.0
 11
710.2817515775516
 21
-363.9268718242398
 31
0.0
  0
LINE
  5
2E6
330
1F
100
AcDbEntity
  8
0-0
  6
JWW_DASHED1
 62
   120
370
     5
100
AcDbLine
 10
304.3373676829701
 20
-762.8001879069551
 30
0.0
 11
370.2817515775625
 21
-696.8558040123626
 31
0.0
  0
LINE
  5
2E7
330
1F
100
AcDbEntity
  8
0-0
  6
JWW_DASHED1
 62
   120
370
     5
100
AcDbLine
 10
460.281751577554
 20
-606.8558040123714
 30
0.0
 11
710.2817515775585
 21
-356.8558040123667
 31
0.0
  0
LINE
  5
2E8
330
1F
100
AcDbEntity
  8
0-0
  6
JWW_DASHED1
 62
   120
370
     5
100
AcDbLine
 10
297.2662998711256
 20
-762.8001879069332
 30
0.0
 11
370.281751577542
 21
-689.7847362005167
 31
0.0
  0
LINE
  5
2E9
330
1F
100
AcDbEntity
  8
0-0
  6
JWW_DASHED1
 62
   120
370
     5
100
AcDbLine
 10
460.2817515775488
 20
-599.7847362005092
 30
0.0
 11
710.2817515775414
 21
-349.784736200518
 31
0.0
  0
LINE
  5
2EA
330
1F
100
AcDbEntity
  8
0-0
  6
JWW_DASHED1
 62
   120
370
     5
100
AcDbLine
 10
290.1952320592487
 20
-762.8001879069429
 30
0.0
 11
370.2817515775523
 21
-682.7136683886403
 31
0.0
  0
LINE
  5
2EB
330
1F
100
AcDbEntity
  8
0-0
  6
JWW_DASHED1
 62
   120
370
     5
100
AcDbLine
 10
460.2817515775591
 20
-592.7136683886328
 30
0.0
 11
710.2817515775516
 21
-342.7136683886411
 31
0.0
  0
LINE
  5
2EC
330
1F
100
AcDbEntity
  8
0-0
  6
JWW_DASHED1
 62
   120
370
     5
100
AcDbLine
 10
283.1241642473718
 20
-762.8001879069528
 30
0.0
 11
370.2817515775608
 21
-675.6426005767642
 31
0.0
  0
LINE
  5
2ED
330
1F
100
AcDbEntity
  8
0-0
  6
JWW_DASHED1
 62
   120
370
     5
100
AcDbLine
 10
460.2817515775523
 20
-585.6426005767734
 30
0.0
 11
710.2817515775567
 21
-335.6426005767688
 31
0.0
  0
LINE
  5
2EE
330
1F
100
AcDbEntity
  8
0-0
  6
JWW_DASHED1
 62
   120
370
     5
100
AcDbLine
 10
276.0530964355273
 20
-762.8001879069308
 30
0.0
 11
370.2817515775403
 21
-668.5715327649184
 31
0.0
  0
LINE
  5
2EF
330
1F
100
AcDbEntity
  8
0-0
  6
JWW_DASHED1
 62
   120
370
     5
100
AcDbLine
 10
460.2817515775471
 20
-578.571532764911
 30
0.0
 11
710.281751577538
 21
-328.5715327649197
 31
0.0
  0
LINE
  5
2F0
330
1F
100
AcDbEntity
  8
0-0
  6
JWW_DASHED1
 62
   120
370
     5
100
AcDbLine
 10
268.9820286236521
 20
-762.8001879069409
 30
0.0
 11
370.2817515775506
 21
-661.5004649530415
 31
0.0
  0
LINE
  5
2F1
330
1F
100
AcDbEntity
  8
0-0
  6
JWW_DASHED1
 62
   120
370
     5
100
AcDbLine
 10
460.2817515775574
 20
-571.5004649530345
 30
0.0
 11
710.2817515775482
 21
-321.5004649530428
 31
0.0
  0
LINE
  5
2F2
330
1F
100
AcDbEntity
  8
0-0
  6
JWW_DASHED1
 62
   120
370
     5
100
AcDbLine
 10
261.9109608117752
 20
-762.8001879069507
 30
0.0
 11
370.2817515775591
 21
-654.4293971411663
 31
0.0
  0
LINE
  5
2F3
330
1F
100
AcDbEntity
  8
0-0
  6
JWW_DASHED1
 62
   120
370
     5
100
AcDbLine
 10
460.2817515775506
 20
-564.4293971411755
 30
0.0
 11
710.281751577555
 21
-314.4293971411705
 31
0.0
  0
LINE
  5
2F4
330
1F
100
AcDbEntity
  8
0-0
  6
JWW_DASHED1
 62
   120
370
     5
100
AcDbLine
 10
254.8398929999221
 20
-762.8001879069373
 30
0.0
 11
370.281751577554
 21
-647.3583293293043
 31
0.0
  0
LINE
  5
2F5
330
1F
100
AcDbEntity
  8
0-0
  6
JWW_DASHED1
 62
   120
370
     5
100
AcDbLine
 10
460.2817515775454
 20
-557.3583293293126
 30
0.0
 11
710.281751577538
 21
-307.3583293293214
 31
0.0
  0
LINE
  5
2F6
330
1F
100
AcDbEntity
  8
0-0
  6
JWW_DASHED1
 62
   120
370
     5
100
AcDbLine
 10
247.7688251880538
 20
-762.8001879069385
 30
0.0
 11
370.2817515775488
 21
-640.2872615174437
 31
0.0
  0
LINE
  5
2F7
330
1F
100
AcDbEntity
  8
0-0
  6
JWW_DASHED1
 62
   120
370
     5
100
AcDbLine
 10
460.2817515775557
 20
-550.287261517436
 30
0.0
 11
710.2817515775465
 21
-300.2872615174448
 31
0.0
  0
LINE
  5
2F8
330
1F
100
AcDbEntity
  8
0-0
  6
JWW_DASHED1
 62
   120
370
     5
100
AcDbLine
 10
240.6977573761769
 20
-762.8001879069483
 30
0.0
 11
370.2817515775574
 21
-633.216193705568
 31
0.0
  0
LINE
  5
2F9
330
1F
100
AcDbEntity
  8
0-0
  6
JWW_DASHED1
 62
   120
370
     5
100
AcDbLine
 10
460.2817515775471
 20
-543.2161937055774
 30
0.0
 11
710.2817515775533
 21
-293.2161937055727
 31
0.0
  0
LINE
  5
2FA
330
1F
100
AcDbEntity
  8
0-0
  6
JWW_DASHED1
 62
   120
370
     5
100
AcDbLine
 10
233.6266895643085
 20
-762.8001879069494
 30
0.0
 11
370.2817515775676
 21
-626.1451258936916
 31
0.0
  0
LINE
  5
2FB
330
1F
100
AcDbEntity
  8
0-0
  6
JWW_DASHED1
 62
   120
370
     5
100
AcDbLine
 10
460.2817515775574
 20
-536.1451258937008
 30
0.0
 11
710.2817515775465
 21
-286.1451258937119
 31
0.0
  0
LINE
  5
2FC
330
1F
100
AcDbEntity
  8
0-0
  6
JWW_DASHED1
 62
   120
370
     5
100
AcDbLine
 10
226.5556217524555
 20
-762.8001879069363
 30
0.0
 11
370.2817515775471
 21
-619.0740580818454
 31
0.0
  0
LINE
  5
2FD
330
1F
100
AcDbEntity
  8
0-0
  6
JWW_DASHED1
 62
   120
370
     5
100
AcDbLine
 10
460.281751577554
 20
-529.0740580818376
 30
0.0
 11
710.2817515775448
 21
-279.0740580818465
 31
0.0
  0
LINE
  5
2FE
330
1F
100
AcDbEntity
  8
0-0
  6
JWW_DASHED1
 62
   120
370
     5
100
AcDbLine
 10
219.4845539405786
 20
-762.800187906946
 30
0.0
 11
370.2817515775557
 21
-612.0029902699699
 31
0.0
  0
LINE
  5
2FF
330
1F
100
AcDbEntity
  8
0-0
  6
JWW_DASHED1
 62
   120
370
     5
100
AcDbLine
 10
460.2817515775625
 20
-522.0029902699636
 30
0.0
 11
710.2817515775516
 21
-272.0029902699744
 31
0.0
  0
LINE
  5
300
330
1F
100
AcDbEntity
  8
0-0
  6
JWW_DASHED1
 62
   120
370
     5
100
AcDbLine
 10
212.4134861287119
 20
-762.800187906946
 30
0.0
 11
370.2817515775642
 21
-604.9319224580935
 31
0.0
  0
LINE
  5
301
330
1F
100
AcDbEntity
  8
0-0
  6
JWW_DASHED1
 62
   120
370
     5
100
AcDbLine
 10
460.2817515775557
 20
-514.9319224581023
 30
0.0
 11
710.2817515775602
 21
-264.9319224580979
 31
0.0
  0
LINE
  5
302
330
1F
100
AcDbEntity
  8
0-0
  6
JWW_DASHED1
 62
   120
370
     5
100
AcDbLine
 10
205.3424183168589
 20
-762.8001879069341
 30
0.0
 11
370.2817515775454
 21
-597.860854646247
 31
0.0
  0
LINE
  5
303
330
1F
100
AcDbEntity
  8
0-0
  6
JWW_DASHED1
 62
   120
370
     5
100
AcDbLine
 10
460.2817515775523
 20
-507.8608546462396
 30
0.0
 11
710.2817515775431
 21
-257.8608546462482
 31
0.0
  0
LINE
  5
304
330
1F
100
AcDbEntity
  8
0-0
  6
JWW_DASHED1
 62
   120
370
     5
100
AcDbLine
 10
198.271350504982
 20
-762.8001879069438
 30
0.0
 11
370.281751577554
 21
-590.7897868343704
 31
0.0
  0
LINE
  5
305
330
1F
100
AcDbEntity
  8
0-0
  6
JWW_DASHED1
 62
   120
370
     5
100
AcDbLine
 10
460.2817515775625
 20
-500.7897868343627
 30
0.0
 11
710.2817515775533
 21
-250.7897868343717
 31
0.0
  0
LINE
  5
306
330
1F
100
AcDbEntity
  8
0-0
  6
JWW_DASHED1
 62
   120
370
     5
100
AcDbLine
 10
191.2002826931051
 20
-762.8001879069532
 30
0.0
 11
370.2817515775625
 21
-583.7187190224954
 31
0.0
  0
LINE
  5
307
330
1F
100
AcDbEntity
  8
0-0
  6
JWW_DASHED1
 62
   120
370
     5
100
AcDbLine
 10
460.281751577554
 20
-493.7187190225043
 30
0.0
 11
710.2817515775585
 21
-243.7187190224996
 31
0.0
  0
LINE
  5
308
330
1F
100
AcDbEntity
  8
0-0
  6
JWW_DASHED1
 62
   120
370
     5
100
AcDbLine
 10
184.1292148812606
 20
-762.8001879069317
 30
0.0
 11
370.2817515775437
 21
-576.6476512106487
 31
0.0
  0
LINE
  5
309
330
1F
100
AcDbEntity
  8
0-0
  6
JWW_DASHED1
 62
   120
370
     5
100
AcDbLine
 10
460.2817515775506
 20
-486.6476512106413
 30
0.0
 11
710.2817515775414
 21
-236.6476512106499
 31
0.0
  0
LINE
  5
30A
330
1F
100
AcDbEntity
  8
0-0
  6
JWW_DASHED1
 62
   120
370
     5
100
AcDbLine
 10
177.0581470693837
 20
-762.8001879069415
 30
0.0
 11
370.281751577554
 21
-569.5765833987721
 31
0.0
  0
LINE
  5
30B
330
1F
100
AcDbEntity
  8
0-0
  6
JWW_DASHED1
 62
   120
370
     5
100
AcDbLine
 10
460.2817515775608
 20
-479.5765833987644
 30
0.0
 11
710.2817515775516
 21
-229.5765833987734
 31
0.0
  0
LINE
  5
30C
330
1F
100
AcDbEntity
  8
0-0
  6
JWW_DASHED1
 62
   120
370
     5
100
AcDbLine
 10
169.9870792575068
 20
-762.8001879069512
 30
0.0
 11
370.2817515775608
 21
-562.5055155868973
 31
0.0
  0
LINE
  5
30D
330
1F
100
AcDbEntity
  8
0-0
  6
JWW_DASHED1
 62
   120
370
     5
100
AcDbLine
 10
460.2817515775523
 20
-472.5055155869064
 30
0.0
 11
710.2817515775567
 21
-222.5055155869017
 31
0.0
  0
LINE
  5
30E
330
1F
100
AcDbEntity
  8
0-0
  6
JWW_DASHED1
 62
   120
370
     5
100
AcDbLine
 10
162.9160114456623
 20
-762.8001879069295
 30
0.0
 11
370.281751577542
 21
-555.4344477750502
 31
0.0
  0
LINE
  5
30F
330
1F
100
AcDbEntity
  8
0-0
  6
JWW_DASHED1
 62
   120
370
     5
100
AcDbLine
 10
460.2817515775488
 20
-465.434447775043
 30
0.0
 11
710.2817515775397
 21
-215.4344477750516
 31
0.0
  0
LINE
  5
310
330
1F
100
AcDbEntity
  8
0-0
  6
JWW_DASHED1
 62
   120
370
     5
100
AcDbLine
 10
155.8449436337854
 20
-762.8001879069394
 30
0.0
 11
370.2817515775506
 21
-548.3633799631738
 31
0.0
  0
LINE
  5
311
330
1F
100
AcDbEntity
  8
0-0
  6
JWW_DASHED1
 62
   120
370
     5
100
AcDbLine
 10
460.2817515775591
 20
-458.3633799631663
 30
0.0
 11
710.2817515775499
 21
-208.3633799631751
 31
0.0
  0
LINE
  5
312
330
1F
100
AcDbEntity
  8
0-0
  6
JWW_DASHED1
 62
   120
370
     5
100
AcDbLine
 10
148.7738758219102
 20
-762.8001879069492
 30
0.0
 11
370.2817515775591
 21
-541.2923121512993
 31
0.0
  0
LINE
  5
313
330
1F
100
AcDbEntity
  8
0-0
  6
JWW_DASHED1
 62
   120
370
     5
100
AcDbLine
 10
460.2817515775506
 20
-451.2923121513084
 30
0.0
 11
710.281751577555
 21
-201.2923121513033
 31
0.0
  0
LINE
  5
314
330
1F
100
AcDbEntity
  8
0-0
  6
JWW_DASHED1
 62
   120
370
     5
100
AcDbLine
 10
141.702808010064
 20
-762.8001879069287
 30
0.0
 11
370.2817515775557
 21
-534.2212443394361
 31
0.0
  0
LINE
  5
315
330
1F
100
AcDbEntity
  8
0-0
  6
JWW_DASHED1
 62
   120
370
     5
100
AcDbLine
 10
460.2817515775471
 20
-444.2212443394445
 30
0.0
 11
710.281751577538
 21
-194.2212443394533
 31
0.0
  0
LINE
  5
316
330
1F
100
AcDbEntity
  8
0-0
  6
JWW_DASHED1
 62
   120
370
     5
100
AcDbLine
 10
134.6317401981888
 20
-762.800187906937
 30
0.0
 11
370.2817515775506
 21
-527.1501765275755
 31
0.0
  0
LINE
  5
317
330
1F
100
AcDbEntity
  8
0-0
  6
JWW_DASHED1
 62
   120
370
     5
100
AcDbLine
 10
460.2817515775574
 20
-437.1501765275678
 30
0.0
 11
710.2817515775482
 21
-187.1501765275769
 31
0.0
  0
LINE
  5
318
330
1F
100
AcDbEntity
  8
0-0
  6
JWW_DASHED1
 62
   120
370
     5
100
AcDbLine
 10
127.5606723863699
 20
-762.8001879069426
 30
0.0
 11
370.2817515775557
 21
-520.0791087157578
 31
0.0
  0
LINE
  5
319
330
1F
100
AcDbEntity
  8
0-0
  6
JWW_DASHED1
 62
   120
370
     5
100
AcDbLine
 10
460.2817515775625
 20
-430.0791087157501
 30
0.0
 11
710.281751577555
 21
-180.0791087157588
 31
0.0
  0
LINE
  5
31A
330
1F
100
AcDbEntity
  8
0-0
  6
JWW_DASHED1
 62
   120
370
     5
100
AcDbLine
 10
120.4896045744947
 20
-762.8001879069521
 30
0.0
 11
370.2817515775625
 21
-513.0080409038834
 31
0.0
  0
LINE
  5
31B
330
1F
100
AcDbEntity
  8
0-0
  6
JWW_DASHED1
 62
   120
370
     5
100
AcDbLine
 10
460.281751577554
 20
-423.0080409038922
 30
0.0
 11
710.2817515775585
 21
-173.0080409038879
 31
0.0
  0
LINE
  5
31C
330
1F
100
AcDbEntity
  8
0-0
  6
JWW_DASHED1
 62
   120
370
     5
100
AcDbLine
 10
120.2817515775358
 20
-755.9369730920431
 30
0.0
 11
370.2817515775437
 21
-505.936973092036
 31
0.0
  0
LINE
  5
31D
330
1F
100
AcDbEntity
  8
0-0
  6
JWW_DASHED1
 62
   120
370
     5
100
AcDbLine
 10
460.2817515775506
 20
-415.9369730920287
 30
0.0
 11
710.2817515775431
 21
-165.9369730920374
 31
0.0
  0
LINE
  5
31E
330
1F
100
AcDbEntity
  8
0-0
  6
JWW_DASHED1
 62
   120
370
     5
100
AcDbLine
 10
120.281751577546
 20
-748.8659052801667
 30
0.0
 11
370.281751577554
 21
-498.8659052801595
 31
0.0
  0
LINE
  5
31F
330
1F
100
AcDbEntity
  8
0-0
  6
JWW_DASHED1
 62
   120
370
     5
100
AcDbLine
 10
460.2817515775608
 20
-408.8659052801522
 30
0.0
 11
710.2817515775516
 21
-158.8659052801605
 31
0.0
  0
LINE
  5
320
330
1F
100
AcDbEntity
  8
0-0
  6
JWW_DASHED1
 62
   120
370
     5
100
AcDbLine
 10
120.2817515775562
 20
-741.7948374682899
 30
0.0
 11
370.2817515775608
 21
-491.7948374682852
 31
0.0
  0
LINE
  5
321
330
1F
100
AcDbEntity
  8
0-0
  6
JWW_DASHED1
 62
   120
370
     5
100
AcDbLine
 10
460.2817515775523
 20
-401.7948374682945
 30
0.0
 11
710.2817515775567
 21
-151.7948374682896
 31
0.0
  0
LINE
  5
322
330
1F
100
AcDbEntity
  8
0-0
  6
JWW_DASHED1
 62
   120
370
     5
100
AcDbLine
 10
120.2817515775358
 20
-734.7237696564448
 30
0.0
 11
370.281751577542
 21
-484.7237696564377
 31
0.0
  0
LINE
  5
323
330
1F
100
AcDbEntity
  8
0-0
  6
JWW_DASHED1
 62
   120
370
     5
100
AcDbLine
 10
460.2817515775506
 20
-394.72376965643
 30
0.0
 11
710.2817515775414
 21
-144.7237696564391
 31
0.0
  0
LINE
  5
324
330
1F
100
AcDbEntity
  8
0-0
  6
JWW_DASHED1
 62
   120
370
     5
100
AcDbLine
 10
120.2817515775443
 20
-727.6527018445682
 30
0.0
 11
370.2817515775523
 21
-477.6527018445612
 31
0.0
  0
LINE
  5
325
330
1F
100
AcDbEntity
  8
0-0
  6
JWW_DASHED1
 62
   120
370
     5
100
AcDbLine
 10
460.2817515775591
 20
-387.6527018445539
 30
0.0
 11
710.2817515775516
 21
-137.6527018445622
 31
0.0
  0
LINE
  5
326
330
1F
100
AcDbEntity
  8
0-0
  6
JWW_DASHED1
 62
   120
370
     5
100
AcDbLine
 10
120.2817515775545
 20
-720.581634032692
 30
0.0
 11
370.2817515775591
 21
-470.5816340326873
 31
0.0
  0
LINE
  5
327
330
1F
100
AcDbEntity
  8
0-0
  6
JWW_DASHED1
 62
   120
370
     5
100
AcDbLine
 10
460.2817515775506
 20
-380.5816340326962
 30
0.0
 11
710.281751577555
 21
-130.5816340326917
 31
0.0
  0
LINE
  5
328
330
1F
100
AcDbEntity
  8
0-0
  6
JWW_DASHED1
 62
   120
370
     5
100
AcDbLine
 10
120.2817515775324
 20
-713.5105662208465
 30
0.0
 11
370.2817515775557
 21
-463.5105662208235
 31
0.0
  0
LINE
  5
329
330
1F
100
AcDbEntity
  8
0-0
  6
JWW_DASHED1
 62
   120
370
     5
100
AcDbLine
 10
460.2817515775471
 20
-373.5105662208317
 30
0.0
 11
710.2817515775397
 21
-123.5105662208408
 31
0.0
  0
LINE
  5
32A
330
1F
100
AcDbEntity
  8
0-0
  6
JWW_DASHED1
 62
   120
370
     5
100
AcDbLine
 10
120.2817515775426
 20
-706.43949840897
 30
0.0
 11
370.2817515775506
 21
-456.4394984089629
 31
0.0
  0
LINE
  5
32B
330
1F
100
AcDbEntity
  8
0-0
  6
JWW_DASHED1
 62
   120
370
     5
100
AcDbLine
 10
460.2817515775574
 20
-366.4394984089556
 30
0.0
 11
710.2817515775482
 21
-116.4394984089639
 31
0.0
  0
LINE
  5
32C
330
1F
100
AcDbEntity
  8
0-0
  6
JWW_DASHED1
 62
   120
370
     5
100
AcDbLine
 10
120.2817515775528
 20
-699.3684305970937
 30
0.0
 11
370.2817515775574
 21
-449.368430597089
 31
0.0
  0
LINE
  5
32D
330
1F
100
AcDbEntity
  8
0-0
  6
JWW_DASHED1
 62
   120
370
     5
100
AcDbLine
 10
460.2817515775488
 20
-359.3684305970984
 30
0.0
 11
710.2817515775533
 21
-109.3684305970934
 31
0.0
  0
LINE
  5
32E
330
1F
100
AcDbEntity
  8
0-0
  6
JWW_DASHED1
 62
   120
370
     5
100
AcDbLine
 10
120.2817515775324
 20
-692.2973627852484
 30
0.0
 11
370.281751577554
 21
-442.2973627852253
 31
0.0
  0
LINE
  5
32F
330
1F
100
AcDbEntity
  8
0-0
  6
JWW_DASHED1
 62
   120
370
     5
100
AcDbLine
 10
460.2817515775454
 20
-352.2973627852334
 30
0.0
 11
710.281751577538
 21
-102.2973627852425
 31
0.0
  0
LINE
  5
330
330
1F
100
AcDbEntity
  8
0-0
  6
JWW_DASHED1
 62
   120
370
     5
100
AcDbLine
 10
120.2817515775409
 20
-685.2262949733716
 30
0.0
 11
370.2817515775488
 21
-435.2262949733646
 31
0.0
  0
LINE
  5
331
330
1F
100
AcDbEntity
  8
0-0
  6
JWW_DASHED1
 62
   120
370
     5
100
AcDbLine
 10
460.2817515775557
 20
-345.2262949733573
 30
0.0
 11
710.2817515775482
 21
-95.2262949733656
 31
0.0
  0
LINE
  5
332
330
1F
100
AcDbEntity
  8
0-0
  6
JWW_DASHED1
 62
   120
370
     5
100
AcDbLine
 10
120.2817515775511
 20
-678.1552271614956
 30
0.0
 11
370.2817515775557
 21
-428.1552271614911
 31
0.0
  0
LINE
  5
333
330
1F
100
AcDbEntity
  8
0-0
  6
JWW_DASHED1
 62
   120
370
     5
100
AcDbLine
 10
460.2817515775454
 20
-338.1552271615005
 30
0.0
 11
710.2817515775516
 21
-88.15522716149552
 31
0.0
  0
LINE
  5
334
330
1F
100
AcDbEntity
  8
0-0
  6
JWW_DASHED1
 62
   120
370
     5
100
AcDbLine
 10
120.2817515775443
 20
-671.0841593496349
 30
0.0
 11
370.2817515775659
 21
-421.0841593496147
 31
0.0
  0
LINE
  5
335
330
1F
100
AcDbEntity
  8
0-0
  6
JWW_DASHED1
 62
   120
370
     5
100
AcDbLine
 10
460.2817515775557
 20
-331.0841593496236
 30
0.0
 11
710.2817515775619
 21
-81.08415934961904
 31
0.0
  0
LINE
  5
336
330
1F
100
AcDbEntity
  8
0-0
  6
JWW_DASHED1
 62
   120
370
     5
100
AcDbLine
 10
120.2817515775392
 20
-664.0130915377734
 30
0.0
 11
370.2817515775471
 21
-414.0130915377657
 31
0.0
  0
LINE
  5
337
330
1F
100
AcDbEntity
  8
0-0
  6
JWW_DASHED1
 62
   120
370
     5
100
AcDbLine
 10
460.281751577554
 20
-324.013091537759
 30
0.0
 11
710.2817515775448
 21
-74.0130915377673
 31
0.0
  0
LINE
  5
338
330
1F
100
AcDbEntity
  8
0-0
  6
JWW_DASHED1
 62
   120
370
     5
100
AcDbLine
 10
120.2817515775494
 20
-656.9420237258967
 30
0.0
 11
370.2817515775574
 21
-406.9420237258898
 31
0.0
  0
LINE
  5
339
330
1F
100
AcDbEntity
  8
0-0
  6
JWW_DASHED1
 62
   120
370
     5
100
AcDbLine
 10
460.2817515775642
 20
-316.9420237258821
 30
0.0
 11
710.281751577555
 21
-66.94202372589082
 31
0.0
  0
LINE
  5
33A
330
1F
100
AcDbEntity
  8
0-0
  6
JWW_DASHED1
 62
   120
370
     5
100
AcDbLine
 10
120.2817515775426
 20
-649.8709559140368
 30
0.0
 11
370.2817515775642
 21
-399.8709559140163
 31
0.0
  0
LINE
  5
33B
330
1F
100
AcDbEntity
  8
0-0
  6
JWW_DASHED1
 62
   120
370
     5
100
AcDbLine
 10
460.281751577554
 20
-309.8709559140257
 30
0.0
 11
710.2817515775585
 21
-59.87095591402074
 31
0.0
  0
LINE
  5
33C
330
1F
100
AcDbEntity
  8
0-0
  6
JWW_DASHED1
 62
   120
370
     5
100
AcDbLine
 10
120.2817515775375
 20
-642.799888102175
 30
0.0
 11
370.2817515775454
 21
-392.799888102168
 31
0.0
  0
LINE
  5
33D
330
1F
100
AcDbEntity
  8
0-0
  6
JWW_DASHED1
 62
   120
370
     5
100
AcDbLine
 10
460.2817515775523
 20
-302.7998881021607
 30
0.0
 11
710.2817515775448
 21
-52.79988810216942
 31
0.0
  0
LINE
  5
33E
330
1F
100
AcDbEntity
  8
0-0
  6
JWW_DASHED1
 62
   120
370
     5
100
AcDbLine
 10
120.2817515775477
 20
-635.7288202902985
 30
0.0
 11
370.2817515775557
 21
-385.7288202902915
 31
0.0
  0
LINE
  5
33F
330
1F
100
AcDbEntity
  8
0-0
  6
JWW_DASHED1
 62
   120
370
     5
100
AcDbLine
 10
460.2817515775625
 20
-295.7288202902838
 30
0.0
 11
710.2817515775533
 21
-45.72882029029252
 31
0.0
  0
LINE
  5
340
330
1F
100
AcDbEntity
  8
0-0
  6
JWW_DASHED1
 62
   120
370
     5
100
AcDbLine
 10
120.2817515775562
 20
-628.657752478423
 30
0.0
 11
370.2817515775608
 21
-378.6577524784184
 31
0.0
  0
LINE
  5
341
330
1F
100
AcDbEntity
  8
0-0
  6
JWW_DASHED1
 62
   120
370
     5
100
AcDbLine
 10
460.2817515775523
 20
-288.6577524784274
 30
0.0
 11
710.2817515775567
 21
-38.65775247842244
 31
0.0
  0
LINE
  5
342
330
1F
100
AcDbEntity
  8
0-0
  6
JWW_DASHED1
 62
   120
370
     5
100
AcDbLine
 10
120.2817515775358
 20
-621.5866846665768
 30
0.0
 11
370.2817515775437
 21
-371.5866846665692
 31
0.0
  0
LINE
  5
343
330
1F
100
AcDbEntity
  8
0-0
  6
JWW_DASHED1
 62
   120
370
     5
100
AcDbLine
 10
460.2817515775506
 20
-281.5866846665624
 30
0.0
 11
710.2817515775414
 21
-31.58668466657069
 31
0.0
  0
LINE
  5
344
330
1F
100
AcDbEntity
  8
0-0
  6
JWW_DASHED1
 62
   120
370
     5
100
AcDbLine
 10
120.281751577546
 20
-614.5156168547
 30
0.0
 11
370.281751577554
 21
-364.5156168546932
 31
0.0
  0
LINE
  5
345
330
1F
100
AcDbEntity
  8
0-0
  6
JWW_DASHED1
 62
   120
370
     5
100
AcDbLine
 10
460.2817515775608
 20
-274.5156168546855
 30
0.0
 11
710.2817515775516
 21
-24.51561685469422
 31
0.0
  0
LINE
  5
346
330
1F
100
AcDbEntity
  8
0-0
  6
JWW_DASHED1
 62
   120
370
     5
100
AcDbLine
 10
120.2817515775545
 20
-607.444549042825
 30
0.0
 11
370.2817515775591
 21
-357.4445490428201
 31
0.0
  0
LINE
  5
347
330
1F
100
AcDbEntity
  8
0-0
  6
JWW_DASHED1
 62
   120
370
     5
100
AcDbLine
 10
460.2817515775506
 20
-267.4445490428291
 30
0.0
 11
710.281751577555
 21
-17.44454904282456
 31
0.0
  0
LINE
  5
348
330
1F
100
AcDbEntity
  8
0-0
  6
JWW_DASHED1
 62
   120
370
     5
100
AcDbLine
 10
120.2817515775341
 20
-600.3734812309784
 30
0.0
 11
370.281751577542
 21
-350.3734812309714
 31
0.0
  0
LINE
  5
349
330
1F
100
AcDbEntity
  8
0-0
  6
JWW_DASHED1
 62
   120
370
     5
100
AcDbLine
 10
460.2817515775488
 20
-260.3734812309641
 30
0.0
 11
710.2817515775397
 21
-10.37348123097281
 31
0.0
  0
LINE
  5
34A
330
1F
100
AcDbEntity
  8
0-0
  6
JWW_DASHED1
 62
   120
370
     5
100
AcDbLine
 10
120.2817515775443
 20
-593.3024134191019
 30
0.0
 11
370.2817515775523
 21
-343.3024134190949
 31
0.0
  0
LINE
  5
34B
330
1F
100
AcDbEntity
  8
0-0
  6
JWW_DASHED1
 62
   120
370
     5
100
AcDbLine
 10
460.2817515775591
 20
-253.3024134190872
 30
0.0
 11
710.2817515775499
 21
-3.302413419095913
 31
0.0
  0
LINE
  5
34C
330
1F
100
AcDbEntity
  8
0-0
  6
JWW_DASHED1
 62
   120
370
     5
100
AcDbLine
 10
120.2817515775528
 20
-586.2313456072268
 30
0.0
 11
370.2817515775574
 21
-336.2313456072222
 31
0.0
  0
LINE
  5
34D
330
1F
100
AcDbEntity
  8
0-0
  6
JWW_DASHED1
 62
   120
370
     5
100
AcDbLine
 10
460.2817515775488
 20
-246.2313456072312
 30
0.0
 11
710.2817515775533
 21
3.76865439277374
 31
0.0
  0
LINE
  5
34E
330
1F
100
AcDbEntity
  8
0-0
  6
JWW_DASHED1
 62
   120
370
     5
100
AcDbLine
 10
120.2817515775324
 20
-579.1602777953802
 30
0.0
 11
370.2817515775557
 21
-329.1602777953573
 31
0.0
  0
LINE
  5
34F
330
1F
100
AcDbEntity
  8
0-0
  6
JWW_DASHED1
 62
   120
370
     5
100
AcDbLine
 10
460.2817515775471
 20
-239.1602777953654
 30
0.0
 11
710.281751577538
 21
10.83972220462591
 31
0.0
  0
LINE
  5
350
330
1F
100
AcDbEntity
  8
0-0
  6
JWW_DASHED1
 62
   120
370
     5
100
AcDbLine
 10
120.2817515775426
 20
-572.0892099835035
 30
0.0
 11
370.2817515775506
 21
-322.0892099834966
 31
0.0
  0
LINE
  5
351
330
1F
100
AcDbEntity
  8
0-0
  6
JWW_DASHED1
 62
   120
370
     5
100
AcDbLine
 10
460.2817515775574
 20
-232.0892099834889
 30
0.0
 11
710.2817515775482
 21
17.91079001650239
 31
0.0
  0
LINE
  5
352
330
1F
100
AcDbEntity
  8
0-0
  6
JWW_DASHED1
 62
   120
370
     5
100
AcDbLine
 10
120.2817515775511
 20
-565.0181421716287
 30
0.0
 11
370.2817515775557
 21
-315.0181421716239
 31
0.0
  0
LINE
  5
353
330
1F
100
AcDbEntity
  8
0-0
  6
JWW_DASHED1
 62
   120
370
     5
100
AcDbLine
 10
460.2817515775471
 20
-225.0181421716334
 30
0.0
 11
710.2817515775516
 21
24.98185782837162
 31
0.0
  0
LINE
  5
354
330
1F
100
AcDbEntity
  8
0-0
  6
JWW_DASHED1
 62
   120
370
     5
100
AcDbLine
 10
120.2817515775307
 20
-557.9470743597818
 30
0.0
 11
370.281751577554
 21
-307.947074359759
 31
0.0
  0
LINE
  5
355
330
1F
100
AcDbEntity
  8
0-0
  6
JWW_DASHED1
 62
   120
370
     5
100
AcDbLine
 10
460.2817515775454
 20
-217.9470743597675
 30
0.0
 11
710.2817515775363
 21
32.05292564022379
 31
0.0
  0
LINE
  5
356
330
1F
100
AcDbEntity
  8
0-0
  6
JWW_DASHED1
 62
   120
370
     5
100
AcDbLine
 10
120.2817515775409
 20
-550.8760065479053
 30
0.0
 11
370.2817515775488
 21
-300.8760065478983
 31
0.0
  0
LINE
  5
357
330
1F
100
AcDbEntity
  8
0-0
  6
JWW_DASHED1
 62
   120
370
     5
100
AcDbLine
 10
460.2817515775557
 20
-210.8760065478906
 30
0.0
 11
710.2817515775465
 21
39.12399345210069
 31
0.0
  0
LINE
  5
358
330
1F
100
AcDbEntity
  8
0-0
  6
JWW_DASHED1
 62
   120
370
     5
100
AcDbLine
 10
120.2817515775494
 20
-543.8049387360306
 30
0.0
 11
370.281751577554
 21
-293.8049387360256
 31
0.0
  0
LINE
  5
359
330
1F
100
AcDbEntity
  8
0-0
  6
JWW_DASHED1
 62
   120
370
     5
100
AcDbLine
 10
460.2817515775608
 20
-203.8049387360188
 30
0.0
 11
710.2817515775499
 21
46.19506126396992
 31
0.0
  0
LINE
  5
35A
330
1F
100
AcDbEntity
  8
0-0
  6
JWW_DASHED1
 62
   120
370
     5
100
AcDbLine
 10
120.2817515775426
 20
-536.73387092417
 30
0.0
 11
370.2817515775642
 21
-286.7338709241492
 31
0.0
  0
LINE
  5
35B
330
1F
100
AcDbEntity
  8
0-0
  6
JWW_DASHED1
 62
   120
370
     5
100
AcDbLine
 10
460.281751577554
 20
-196.7338709241586
 30
0.0
 11
710.2817515775585
 21
53.26612907584639
 31
0.0
  0
LINE
  5
35C
330
1F
100
AcDbEntity
  8
0-0
  6
JWW_DASHED1
 62
   120
370
     5
100
AcDbLine
 10
120.2817515775392
 20
-529.6628031123068
 30
0.0
 11
370.2817515775471
 21
-279.6628031123
 31
0.0
  0
LINE
  5
35D
330
1F
100
AcDbEntity
  8
0-0
  6
JWW_DASHED1
 62
   120
370
     5
100
AcDbLine
 10
460.281751577554
 20
-189.6628031122923
 30
0.0
 11
710.2817515775448
 21
60.33719688769857
 31
0.0
  0
LINE
  5
35E
330
1F
100
AcDbEntity
  8
0-0
  6
JWW_DASHED1
 62
   120
370
     5
100
AcDbLine
 10
120.2817515775494
 20
-522.5917353004302
 30
0.0
 11
370.2817515775574
 21
-272.5917353004231
 31
0.0
  0
LINE
  5
35F
330
1F
100
AcDbEntity
  8
0-0
  6
JWW_DASHED1
 62
   120
370
     5
100
AcDbLine
 10
460.2817515775642
 20
-182.5917353004155
 30
0.0
 11
710.281751577555
 21
67.40826469957547
 31
0.0
  0
LINE
  5
360
330
1F
100
AcDbEntity
  8
0-0
  6
JWW_DASHED1
 62
   120
370
     5
100
AcDbLine
 10
120.2817515775409
 20
-515.5206674885716
 30
0.0
 11
370.2817515775625
 21
-265.5206674885513
 31
0.0
  0
LINE
  5
361
330
1F
100
AcDbEntity
  8
0-0
  6
JWW_DASHED1
 62
   120
370
     5
100
AcDbLine
 10
460.2817515775523
 20
-175.5206674885603
 30
0.0
 11
710.2817515775585
 21
74.4793325114447
 31
0.0
  0
LINE
  5
362
330
1F
100
AcDbEntity
  8
0-0
  6
JWW_DASHED1
 62
   120
370
     5
100
AcDbLine
 10
120.2817515775375
 20
-508.4495996767086
 30
0.0
 11
370.2817515775454
 21
-258.4495996767017
 31
0.0
  0
LINE
  5
363
330
1F
100
AcDbEntity
  8
0-0
  6
JWW_DASHED1
 62
   120
370
     5
100
AcDbLine
 10
460.2817515775523
 20
-168.449599676694
 30
0.0
 11
710.2817515775431
 21
81.5504003232973
 31
0.0
  0
LINE
  5
364
330
1F
100
AcDbEntity
  8
0-0
  6
JWW_DASHED1
 62
   120
370
     5
100
AcDbLine
 10
120.2817515775477
 20
-501.3785318648319
 30
0.0
 11
370.281751577554
 21
-251.3785318648248
 31
0.0
  0
LINE
  5
365
330
1F
100
AcDbEntity
  8
0-0
  6
JWW_DASHED1
 62
   120
370
     5
100
AcDbLine
 10
460.2817515775625
 20
-161.3785318648175
 30
0.0
 11
710.2817515775533
 21
88.62146813517377
 31
0.0
  0
LINE
  5
366
330
1F
100
AcDbEntity
  8
0-0
  6
JWW_DASHED1
 62
   120
370
     5
100
AcDbLine
 10
120.2817515775545
 20
-494.3074640529579
 30
0.0
 11
370.2817515775591
 21
-244.3074640529534
 31
0.0
  0
LINE
  5
367
330
1F
100
AcDbEntity
  8
0-0
  6
JWW_DASHED1
 62
   120
370
     5
100
AcDbLine
 10
460.2817515775506
 20
-154.3074640529624
 30
0.0
 11
710.281751577555
 21
95.69253594704257
 31
0.0
  0
LINE
  5
368
330
1F
100
AcDbEntity
  8
0-0
  6
JWW_DASHED1
 62
   120
370
     5
100
AcDbLine
 10
120.2817515775358
 20
-487.2363962411103
 30
0.0
 11
370.2817515775437
 21
-237.2363962411034
 31
0.0
  0
LINE
  5
369
330
1F
100
AcDbEntity
  8
0-0
  6
JWW_DASHED1
 62
   120
370
     5
100
AcDbLine
 10
460.2817515775506
 20
-147.2363962410957
 30
0.0
 11
710.2817515775414
 21
102.7636037588956
 31
0.0
  0
LINE
  5
36A
330
1F
100
AcDbEntity
  8
0-0
  6
JWW_DASHED1
 62
   120
370
     5
100
AcDbLine
 10
120.281751577546
 20
-480.1653284292336
 30
0.0
 11
370.281751577554
 21
-230.1653284292265
 31
0.0
  0
LINE
  5
36B
330
1F
100
AcDbEntity
  8
0-0
  6
JWW_DASHED1
 62
   120
370
     5
100
AcDbLine
 10
460.2817515775608
 20
-140.1653284292192
 30
0.0
 11
710.2817515775516
 21
109.8346715707721
 31
0.0
  0
LINE
  5
36C
330
1F
100
AcDbEntity
  8
0-0
  6
JWW_DASHED1
 62
   120
370
     5
100
AcDbLine
 10
120.2817515775528
 20
-473.0942606173597
 30
0.0
 11
370.2817515775574
 21
-223.0942606173551
 31
0.0
  0
LINE
  5
36D
330
1F
100
AcDbEntity
  8
0-0
  6
JWW_DASHED1
 62
   120
370
     5
100
AcDbLine
 10
460.2817515775488
 20
-133.0942606173641
 30
0.0
 11
710.2817515775533
 21
116.9057393826409
 31
0.0
  0
LINE
  5
36E
330
1F
100
AcDbEntity
  8
0-0
  6
JWW_DASHED1
 62
   120
370
     5
100
AcDbLine
 10
120.2817515775341
 20
-466.023192805512
 30
0.0
 11
370.281751577542
 21
-216.0231928055051
 31
0.0
  0
LINE
  5
36F
330
1F
100
AcDbEntity
  8
0-0
  6
JWW_DASHED1
 62
   120
370
     5
100
AcDbLine
 10
460.2817515775488
 20
-126.0231928054974
 30
0.0
 11
710.2817515775397
 21
123.9768071944935
 31
0.0
  0
LINE
  5
370
330
1F
100
AcDbEntity
  8
0-0
  6
JWW_DASHED1
 62
   120
370
     5
100
AcDbLine
 10
120.2817515775443
 20
-458.9521249936355
 30
0.0
 11
370.2817515775506
 21
-208.9521249936282
 31
0.0
  0
LINE
  5
371
330
1F
100
AcDbEntity
  8
0-0
  6
JWW_DASHED1
 62
   120
370
     5
100
AcDbLine
 10
460.2817515775591
 20
-118.9521249936205
 30
0.0
 11
710.2817515775499
 21
131.0478750063704
 31
0.0
  0
LINE
  5
372
330
1F
100
AcDbEntity
  8
0-0
  6
JWW_DASHED1
 62
   120
370
     5
100
AcDbLine
 10
120.2817515775511
 20
-451.8810571817616
 30
0.0
 11
370.2817515775557
 21
-201.8810571817568
 31
0.0
  0
LINE
  5
373
330
1F
100
AcDbEntity
  8
0-0
  6
JWW_DASHED1
 62
   120
370
     5
100
AcDbLine
 10
460.2817515775471
 20
-111.8810571817658
 30
0.0
 11
710.2817515775516
 21
138.1189428182387
 31
0.0
  0
LINE
  5
374
330
1F
100
AcDbEntity
  8
0-0
  6
JWW_DASHED1
 62
   120
370
     5
100
AcDbLine
 10
120.2817515775324
 20
-444.8099893699139
 30
0.0
 11
370.2817515775557
 21
-194.809989369891
 31
0.0
  0
LINE
  5
375
330
1F
100
AcDbEntity
  8
0-0
  6
JWW_DASHED1
 62
   120
370
     5
100
AcDbLine
 10
460.2817515775471
 20
-104.8099893698991
 30
0.0
 11
710.281751577538
 21
145.1900106300918
 31
0.0
  0
LINE
  5
376
330
1F
100
AcDbEntity
  8
0-0
  6
JWW_DASHED1
 62
   120
370
     5
100
AcDbLine
 10
120.2817515775426
 20
-437.738921558037
 30
0.0
 11
370.2817515775488
 21
-187.7389215580303
 31
0.0
  0
LINE
  5
377
330
1F
100
AcDbEntity
  8
0-0
  6
JWW_DASHED1
 62
   120
370
     5
100
AcDbLine
 10
460.2817515775574
 20
-97.73892155802265
 30
0.0
 11
710.2817515775482
 21
152.2610784419687
 31
0.0
  0
LINE
  5
378
330
1F
100
AcDbEntity
  8
0-0
  6
JWW_DASHED1
 62
   120
370
     5
100
AcDbLine
 10
120.2817515775494
 20
-430.6678537461633
 30
0.0
 11
370.281751577554
 21
-180.667853746159
 31
0.0
  0
LINE
  5
379
330
1F
100
AcDbEntity
  8
0-0
  6
JWW_DASHED1
 62
   120
370
     5
100
AcDbLine
 10
460.2817515775454
 20
-90.66785374616792
 30
0.0
 11
710.2817515775499
 21
159.3321462538366
 31
0.0
  0
LINE
  5
37A
330
1F
100
AcDbEntity
  8
0-0
  6
JWW_DASHED1
 62
   120
370
     5
100
AcDbLine
 10
120.2817515775426
 20
-423.5967859343028
 30
0.0
 11
370.2817515775642
 21
-173.5967859342821
 31
0.0
  0
LINE
  5
37B
330
1F
100
AcDbEntity
  8
0-0
  6
JWW_DASHED1
 62
   120
370
     5
100
AcDbLine
 10
460.2817515775557
 20
-83.59678593429145
 30
0.0
 11
710.2817515775448
 21
166.4032140656977
 31
0.0
  0
LINE
  5
37C
330
1F
100
AcDbEntity
  8
0-0
  6
JWW_DASHED1
 62
   120
370
     5
100
AcDbLine
 10
120.2817515775409
 20
-416.5257181224391
 30
0.0
 11
370.2817515775471
 21
-166.525718122432
 31
0.0
  0
LINE
  5
37D
330
1F
100
AcDbEntity
  8
0-0
  6
JWW_DASHED1
 62
   120
370
     5
100
AcDbLine
 10
460.2817515775557
 20
-76.52571812242435
 30
0.0
 11
710.2817515775465
 21
173.474281877567
 31
0.0
  0
LINE
  5
37E
330
1F
100
AcDbEntity
  8
0-0
  6
JWW_DASHED1
 62
   120
370
     5
100
AcDbLine
 10
120.2817515775477
 20
-409.4546503105656
 30
0.0
 11
370.2817515775523
 21
-159.4546503105607
 31
0.0
  0
LINE
  5
37F
330
1F
100
AcDbEntity
  8
0-0
  6
JWW_DASHED1
 62
   120
370
     5
100
AcDbLine
 10
460.2817515775591
 20
-69.45465031055427
 30
0.0
 11
710.2817515775482
 21
180.5453496894345
 31
0.0
  0
LINE
  5
380
330
1F
100
AcDbEntity
  8
0-0
  6
JWW_DASHED1
 62
   120
370
     5
100
AcDbLine
 10
120.2817515775545
 20
-402.3835824987186
 30
0.0
 11
370.2817515775608
 21
-152.3835824987136
 31
0.0
  0
LINE
  5
381
330
1F
100
AcDbEntity
  8
0-0
  6
JWW_DASHED1
 62
   120
370
     5
100
AcDbLine
 10
460.2817515775506
 20
-62.38358249872299
 30
0.0
 11
710.281751577555
 21
187.6164175012824
 31
0.0
  0
LINE
  5
382
330
1F
100
AcDbEntity
  8
0-0
  6
JWW_DASHED1
 62
   120
370
     5
100
AcDbLine
 10
120.2817515775341
 20
-395.3125146868996
 30
0.0
 11
370.281751577542
 21
-145.3125146868921
 31
0.0
  0
LINE
  5
383
330
1F
100
AcDbEntity
  8
0-0
  6
JWW_DASHED1
 62
   120
370
     5
100
AcDbLine
 10
460.2817515775488
 20
-55.31251468688488
 30
0.0
 11
710.2817515775414
 21
194.6874853131064
 31
0.0
  0
LINE
  5
384
330
1F
100
AcDbEntity
  8
0-0
  6
JWW_DASHED1
 62
   120
370
     5
100
AcDbLine
 10
120.2817515775443
 20
-388.2414468750227
 30
0.0
 11
370.2817515775523
 21
-138.2414468750156
 31
0.0
  0
LINE
  5
385
330
1F
100
AcDbEntity
  8
0-0
  6
JWW_DASHED1
 62
   120
370
     5
100
AcDbLine
 10
460.2817515775591
 20
-48.24144687500841
 30
0.0
 11
710.2817515775499
 21
201.7585531249825
 31
0.0
  0
LINE
  5
386
330
1F
100
AcDbEntity
  8
0-0
  6
JWW_DASHED1
 62
   120
370
     5
100
AcDbLine
 10
120.2817515775511
 20
-381.1703790631497
 30
0.0
 11
370.2817515775557
 21
-131.1703790631452
 31
0.0
  0
LINE
  5
387
330
1F
100
AcDbEntity
  8
0-0
  6
JWW_DASHED1
 62
   120
370
     5
100
AcDbLine
 10
460.2817515775471
 20
-41.17037906315367
 30
0.0
 11
710.2817515775516
 21
208.8296209368509
 31
0.0
  0
LINE
  5
388
330
1F
100
AcDbEntity
  8
0-0
  6
JWW_DASHED1
 62
   120
370
     5
100
AcDbLine
 10
120.2817515775324
 20
-374.0993112513013
 30
0.0
 11
370.2817515775557
 21
-124.0993112512785
 31
0.0
  0
LINE
  5
389
330
1F
100
AcDbEntity
  8
0-0
  6
JWW_DASHED1
 62
   120
370
     5
100
AcDbLine
 10
460.2817515775471
 20
-34.09931125128658
 30
0.0
 11
710.2817515775397
 21
215.9006887487047
 31
0.0
  0
LINE
  5
38A
330
1F
100
AcDbEntity
  8
0-0
  6
JWW_DASHED1
 62
   120
370
     5
100
AcDbLine
 10
120.2817515775426
 20
-367.0282434394244
 30
0.0
 11
370.2817515775506
 21
-117.0282434394174
 31
0.0
  0
LINE
  5
38B
330
1F
100
AcDbEntity
  8
0-0
  6
JWW_DASHED1
 62
   120
370
     5
100
AcDbLine
 10
460.2817515775574
 20
-27.0282434394101
 30
0.0
 11
710.2817515775482
 21
222.9717565605812
 31
0.0
  0
LINE
  5
38C
330
1F
100
AcDbEntity
  8
0-0
  6
JWW_DASHED1
 62
   120
370
     5
100
AcDbLine
 10
120.2817515775494
 20
-359.9571756275518
 30
0.0
 11
370.281751577554
 21
-109.9571756275468
 31
0.0
  0
LINE
  5
38D
330
1F
100
AcDbEntity
  8
0-0
  6
JWW_DASHED1
 62
   120
370
     5
100
AcDbLine
 10
460.2817515775454
 20
-19.95717562755623
 30
0.0
 11
710.2817515775499
 21
230.0428243724483
 31
0.0
  0
LINE
  5
38E
330
1F
100
AcDbEntity
  8
0-0
  6
JWW_DASHED1
 62
   120
370
     5
100
AcDbLine
 10
120.2817515775426
 20
-352.8861078156911
 30
0.0
 11
370.2817515775642
 21
-102.8861078156704
 31
0.0
  0
LINE
  5
38F
330
1F
100
AcDbEntity
  8
0-0
  6
JWW_DASHED1
 62
   120
370
     5
100
AcDbLine
 10
460.281751577554
 20
-12.88610781567932
 30
0.0
 11
710.2817515775431
 21
237.1138921843099
 31
0.0
  0
LINE
  5
390
330
1F
100
AcDbEntity
  8
0-0
  6
JWW_DASHED1
 62
   120
370
     5
100
AcDbLine
 10
120.2817515775409
 20
-345.8150400038261
 30
0.0
 11
370.2817515775488
 21
-95.81504000381948
 31
0.0
  0
LINE
  5
391
330
1F
100
AcDbEntity
  8
0-0
  6
JWW_DASHED1
 62
   120
370
     5
100
AcDbLine
 10
460.2817515775557
 20
-5.815040003811802
 30
0.0
 11
710.2817515775465
 21
244.1849599961799
 31
0.0
  0
LINE
  5
392
330
1F
100
AcDbEntity
  8
0-0
  6
JWW_DASHED1
 62
   120
370
     5
100
AcDbLine
 10
120.2817515775477
 20
-338.7439721919535
 30
0.0
 11
370.2817515775523
 21
-88.74397219194897
 31
0.0
  0
LINE
  5
393
330
1F
100
AcDbEntity
  8
0-0
  6
JWW_DASHED1
 62
   120
370
     5
100
AcDbLine
 10
460.2817515775591
 20
1.256027808057851
 30
0.0
 11
710.2817515775482
 21
251.2560278080466
 31
0.0
  0
LINE
  5
394
330
1F
100
AcDbEntity
  8
0-0
  6
JWW_DASHED1
 62
   120
370
     5
100
AcDbLine
 10
120.2817515775409
 20
-331.6729043800928
 30
0.0
 11
370.2817515775625
 21
-81.67290438007207
 31
0.0
  0
LINE
  5
395
330
1F
100
AcDbEntity
  8
0-0
  6
JWW_DASHED1
 62
   120
370
     5
100
AcDbLine
 10
460.2817515775523
 20
8.327095619918552
 30
0.0
 11
710.2817515775585
 21
258.3270956199235
 31
0.0
  0
LINE
  5
396
330
1F
100
AcDbEntity
  8
0-0
  6
JWW_DASHED1
 62
   120
370
     5
100
AcDbLine
 10
120.2817515775392
 20
-324.6018365682278
 30
0.0
 11
370.2817515775471
 21
-74.60183656822117
 31
0.0
  0
LINE
  5
397
330
1F
100
AcDbEntity
  8
0-0
  6
JWW_DASHED1
 62
   120
370
     5
100
AcDbLine
 10
460.281751577554
 20
15.3981634317865
 30
0.0
 11
710.2817515775448
 21
265.3981634317778
 31
0.0
  0
LINE
  5
398
330
1F
100
AcDbEntity
  8
0-0
  6
JWW_DASHED1
 62
   120
370
     5
100
AcDbLine
 10
120.2817515775494
 20
-317.5307687563513
 30
0.0
 11
370.2817515775574
 21
-67.53076875634427
 31
0.0
  0
LINE
  5
399
330
1F
100
AcDbEntity
  8
0-0
  6
JWW_DASHED1
 62
   120
370
     5
100
AcDbLine
 10
460.2817515775642
 20
22.46923124366297
 30
0.0
 11
710.281751577555
 21
272.4692312436543
 31
0.0
  0
LINE
  5
39A
330
1F
100
AcDbEntity
  8
0-0
  6
JWW_DASHED1
 62
   120
370
     5
100
AcDbLine
 10
120.2817515775562
 20
-310.4597009444788
 30
0.0
 11
370.2817515775608
 21
-60.45970094447419
 31
0.0
  0
LINE
  5
39B
330
1F
100
AcDbEntity
  8
0-0
  6
JWW_DASHED1
 62
   120
370
     5
100
AcDbLine
 10
460.2817515775506
 20
29.54029905551685
 30
0.0
 11
710.281751577555
 21
279.5402990555218
 31
0.0
  0
LINE
  5
39C
330
1F
100
AcDbEntity
  8
0-0
  6
JWW_DASHED1
 62
   120
370
     5
100
AcDbLine
 10
120.2817515775375
 20
-303.3886331326295
 30
0.0
 11
370.2817515775454
 21
-53.38863313262287
 31
0.0
  0
LINE
  5
39D
330
1F
100
AcDbEntity
  8
0-0
  6
JWW_DASHED1
 62
   120
370
     5
100
AcDbLine
 10
460.2817515775523
 20
36.6113668673848
 30
0.0
 11
710.2817515775431
 21
286.6113668673765
 31
0.0
  0
LINE
  5
39E
330
1F
100
AcDbEntity
  8
0-0
  6
JWW_DASHED1
 62
   120
370
     5
100
AcDbLine
 10
120.2817515775477
 20
-296.317565320753
 30
0.0
 11
370.281751577554
 21
-46.31756532074597
 31
0.0
  0
LINE
  5
39F
330
1F
100
AcDbEntity
  8
0-0
  6
JWW_DASHED1
 62
   120
370
     5
100
AcDbLine
 10
460.2817515775625
 20
43.68243467926128
 30
0.0
 11
710.2817515775533
 21
293.6824346792526
 31
0.0
  0
LINE
  5
3A0
330
1F
100
AcDbEntity
  8
0-0
  6
JWW_DASHED1
 62
   120
370
     5
100
AcDbLine
 10
120.2817515775528
 20
-289.2464975088809
 30
0.0
 11
370.2817515775574
 21
-39.24649750887632
 31
0.0
  0
LINE
  5
3A1
330
1F
100
AcDbEntity
  8
0-0
  6
JWW_DASHED1
 62
   120
370
     5
100
AcDbLine
 10
460.2817515775488
 20
50.75350249111473
 30
0.0
 11
710.2817515775533
 21
300.7535024911197
 31
0.0
  0
LINE
  5
3A2
330
1F
100
AcDbEntity
  8
0-0
  6
JWW_DASHED1
 62
   120
370
     5
100
AcDbLine
 10
120.2817515775358
 20
-282.1754296970312
 30
0.0
 11
370.2817515775437
 21
-32.17542969702457
 31
0.0
  0
LINE
  5
3A3
330
1F
100
AcDbEntity
  8
0-0
  6
JWW_DASHED1
 62
   120
370
     5
100
AcDbLine
 10
460.2817515775506
 20
57.8245703029831
 30
0.0
 11
710.2817515775414
 21
307.8245703029748
 31
0.0
  0
LINE
  5
3A4
330
1F
100
AcDbEntity
  8
0-0
  6
JWW_DASHED1
 62
   120
370
     5
100
AcDbLine
 10
120.281751577546
 20
-275.1043618851547
 30
0.0
 11
370.281751577554
 21
-25.10436188514767
 31
0.0
  0
LINE
  5
3A5
330
1F
100
AcDbEntity
  8
0-0
  6
JWW_DASHED1
 62
   120
370
     5
100
AcDbLine
 10
460.2817515775608
 20
64.89563811486
 30
0.0
 11
710.2817515775516
 21
314.8956381148509
 31
0.0
  0
LINE
  5
3A6
330
1F
100
AcDbEntity
  8
0-0
  6
JWW_DASHED1
 62
   120
370
     5
100
AcDbLine
 10
120.2817515775511
 20
-268.0332940732825
 30
0.0
 11
370.2817515775557
 21
-18.03329407327801
 31
0.0
  0
LINE
  5
3A7
330
1F
100
AcDbEntity
  8
0-0
  6
JWW_DASHED1
 62
   120
370
     5
100
AcDbLine
 10
460.2817515775471
 20
71.96670592671303
 30
0.0
 11
710.2817515775516
 21
321.9667059267176
 31
0.0
  0
LINE
  5
3A8
330
1F
100
AcDbEntity
  8
0-0
  6
JWW_DASHED1
 62
   120
370
     5
100
AcDbLine
 10
120.2817515775341
 20
-260.9622262614329
 30
0.0
 11
370.2817515775574
 21
-10.96222626141049
 31
0.0
  0
LINE
  5
3A9
330
1F
100
AcDbEntity
  8
0-0
  6
JWW_DASHED1
 62
   120
370
     5
100
AcDbLine
 10
460.2817515775488
 20
79.03777373858141
 30
0.0
 11
710.2817515775397
 21
329.0377737385728
 31
0.0
  0
LINE
  5
3AA
330
1F
100
AcDbEntity
  8
0-0
  6
JWW_DASHED1
 62
   120
370
     5
100
AcDbLine
 10
120.2817515775443
 20
-253.8911584495564
 30
0.0
 11
370.2817515775506
 21
-3.891158449549366
 31
0.0
  0
LINE
  5
3AB
330
1F
100
AcDbEntity
  8
0-0
  6
JWW_DASHED1
 62
   120
370
     5
100
AcDbLine
 10
460.2817515775591
 20
86.10884155045831
 30
0.0
 11
710.2817515775499
 21
336.1088415504497
 31
0.0
  0
LINE
  5
3AC
330
1F
100
AcDbEntity
  8
0-0
  6
JWW_DASHED1
 62
   120
370
     5
100
AcDbLine
 10
120.2817515775494
 20
-246.8200906376846
 30
0.0
 11
370.281751577554
 21
3.179909362320288
 31
0.0
  0
LINE
  5
3AD
330
1F
100
AcDbEntity
  8
0-0
  6
JWW_DASHED1
 62
   120
370
     5
100
AcDbLine
 10
460.2817515775454
 20
93.17990936231091
 30
0.0
 11
710.2817515775499
 21
343.1799093623159
 31
0.0
  0
LINE
  5
3AE
330
1F
100
AcDbEntity
  8
0-0
  6
JWW_DASHED1
 62
   120
370
     5
100
AcDbLine
 10
120.2817515775324
 20
-239.7490228258346
 30
0.0
 11
370.2817515775557
 21
10.25097717418781
 31
0.0
  0
LINE
  5
3AF
330
1F
100
AcDbEntity
  8
0-0
  6
JWW_DASHED1
 62
   120
370
     5
100
AcDbLine
 10
460.2817515775471
 20
100.2509771741797
 30
0.0
 11
710.281751577538
 21
350.2509771741706
 31
0.0
  0
LINE
  5
3B0
330
1F
100
AcDbEntity
  8
0-0
  6
JWW_DASHED1
 62
   120
370
     5
100
AcDbLine
 10
120.2817515775426
 20
-232.6779550139581
 30
0.0
 11
370.2817515775506
 21
17.32204498604894
 31
0.0
  0
LINE
  5
3B1
330
1F
100
AcDbEntity
  8
0-0
  6
JWW_DASHED1
 62
   120
370
     5
100
AcDbLine
 10
460.2817515775574
 20
107.3220449860562
 30
0.0
 11
710.2817515775482
 21
357.3220449860475
 31
0.0
  0
LINE
  5
3B2
330
1F
100
AcDbEntity
  8
0-0
  6
JWW_DASHED1
 62
   120
370
     5
100
AcDbLine
 10
120.2817515775477
 20
-225.6068872020863
 30
0.0
 11
370.2817515775523
 21
24.39311279791816
 31
0.0
  0
LINE
  5
3B3
330
1F
100
AcDbEntity
  8
0-0
  6
JWW_DASHED1
 62
   120
370
     5
100
AcDbLine
 10
460.2817515775437
 20
114.3931127979092
 30
0.0
 11
710.2817515775482
 21
364.3931127979142
 31
0.0
  0
LINE
  5
3B4
330
1F
100
AcDbEntity
  8
0-0
  6
JWW_DASHED1
 62
   120
370
     5
100
AcDbLine
 10
120.2817515775426
 20
-218.5358193902257
 30
0.0
 11
370.2817515775625
 21
31.46418060979464
 31
0.0
  0
LINE
  5
3B5
330
1F
100
AcDbEntity
  8
0-0
  6
JWW_DASHED1
 62
   120
370
     5
100
AcDbLine
 10
460.281751577554
 20
121.4641806097857
 30
0.0
 11
710.2817515775585
 21
371.4641806097902
 31
0.0
  0
LINE
  5
3B6
330
1F
100
AcDbEntity
  8
0-0
  6
JWW_DASHED1
 62
   120
370
     5
100
AcDbLine
 10
120.2817515775409
 20
-211.4647515783598
 30
0.0
 11
370.2817515775471
 21
38.53524842164724
 31
0.0
  0
LINE
  5
3B7
330
1F
100
AcDbEntity
  8
0-0
  6
JWW_DASHED1
 62
   120
370
     5
100
AcDbLine
 10
460.2817515775557
 20
128.5352484216545
 30
0.0
 11
710.2817515775465
 21
378.5352484216458
 31
0.0
  0
LINE
  5
3B8
330
1F
100
AcDbEntity
  8
0-0
  6
JWW_DASHED1
 62
   120
370
     5
100
AcDbLine
 10
120.2817515775511
 20
-204.3936837664834
 30
0.0
 11
370.2817515775574
 21
45.60631623352371
 31
0.0
  0
LINE
  5
3B9
330
1F
100
AcDbEntity
  8
0-0
  6
JWW_DASHED1
 62
   120
370
     5
100
AcDbLine
 10
460.2817515775659
 20
135.6063162335314
 30
0.0
 11
710.2817515775567
 21
385.6063162335227
 31
0.0
  0
LINE
  5
3BA
330
1F
100
AcDbEntity
  8
0-0
  6
JWW_DASHED1
 62
   120
370
     5
100
AcDbLine
 10
120.2817515775392
 20
-197.3226159546274
 30
0.0
 11
370.2817515775608
 21
52.67738404539294
 31
0.0
  0
LINE
  5
3BB
330
1F
100
AcDbEntity
  8
0-0
  6
JWW_DASHED1
 62
   120
370
     5
100
AcDbLine
 10
460.2817515775506
 20
142.6773840453836
 30
0.0
 11
710.281751577555
 21
392.6773840453885
 31
0.0
  0
LINE
  5
3BC
330
1F
100
AcDbEntity
  8
0-0
  6
JWW_DASHED1
 62
   120
370
     5
100
AcDbLine
 10
120.2817515775392
 20
-190.2515481427615
 30
0.0
 11
370.2817515775471
 21
59.74845185724554
 31
0.0
  0
LINE
  5
3BD
330
1F
100
AcDbEntity
  8
0-0
  6
JWW_DASHED1
 62
   120
370
     5
100
AcDbLine
 10
460.281751577554
 20
149.7484518572532
 30
0.0
 11
710.2817515775448
 21
399.7484518572441
 31
0.0
  0
LINE
  5
3BE
330
1F
100
AcDbEntity
  8
0-0
  6
JWW_DASHED1
 62
   120
370
     5
100
AcDbLine
 10
120.2817515775494
 20
-183.1804803308847
 30
0.0
 11
370.2817515775574
 21
66.81951966912244
 31
0.0
  0
LINE
  5
3BF
330
1F
100
AcDbEntity
  8
0-0
  6
JWW_DASHED1
 62
   120
370
     5
100
AcDbLine
 10
460.2817515775642
 20
156.8195196691297
 30
0.0
 11
710.281751577555
 21
406.819519669121
 31
0.0
  0
LINE
  5
3C0
330
1F
100
AcDbEntity
  8
0-0
  6
JWW_DASHED1
 62
   120
370
     5
100
AcDbLine
 10
120.2817515775528
 20
-176.1094125190137
 30
0.0
 11
370.2817515775591
 21
73.89058748099082
 31
0.0
  0
LINE
  5
3C1
330
1F
100
AcDbEntity
  8
0-0
  6
JWW_DASHED1
 62
   120
370
     5
100
AcDbLine
 10
460.2817515775506
 20
163.8905874809819
 30
0.0
 11
710.281751577555
 21
413.8905874809868
 31
0.0
  0
LINE
  5
3C2
330
1F
100
AcDbEntity
  8
0-0
  6
JWW_DASHED1
 62
   120
370
     5
100
AcDbLine
 10
120.2817515775375
 20
-169.0383447071633
 30
0.0
 11
370.2817515775437
 21
80.96165529284384
 31
0.0
  0
LINE
  5
3C3
330
1F
100
AcDbEntity
  8
0-0
  6
JWW_DASHED1
 62
   120
370
     5
100
AcDbLine
 10
460.2817515775523
 20
170.9616552928511
 30
0.0
 11
710.2817515775431
 21
420.9616552928424
 31
0.0
  0
LINE
  5
3C4
330
1F
100
AcDbEntity
  8
0-0
  6
JWW_DASHED1
 62
   120
370
     5
100
AcDbLine
 10
120.2817515775477
 20
-161.9672768952868
 30
0.0
 11
370.281751577554
 21
88.03272310472074
 31
0.0
  0
LINE
  5
3C5
330
1F
100
AcDbEntity
  8
0-0
  6
JWW_DASHED1
 62
   120
370
     5
100
AcDbLine
 10
460.2817515775625
 20
178.032723104728
 30
0.0
 11
710.2817515775533
 21
428.0327231047193
 31
0.0
  0
LINE
  5
3C6
330
1F
100
AcDbEntity
  8
0-0
  6
JWW_DASHED1
 62
   120
370
     5
100
AcDbLine
 10
120.2817515775528
 20
-154.8962090834154
 30
0.0
 11
370.2817515775574
 21
95.10379091658912
 31
0.0
  0
LINE
  5
3C7
330
1F
100
AcDbEntity
  8
0-0
  6
JWW_DASHED1
 62
   120
370
     5
100
AcDbLine
 10
460.2817515775471
 20
185.1037909165797
 30
0.0
 11
710.2817515775516
 21
435.1037909165847
 31
0.0
  0
LINE
  5
3C8
330
1F
100
AcDbEntity
  8
0-0
  6
JWW_DASHED1
 62
   120
370
     5
100
AcDbLine
 10
120.2817515775358
 20
-147.825141271565
 30
0.0
 11
370.2817515775437
 21
102.1748587284421
 31
0.0
  0
LINE
  5
3C9
330
1F
100
AcDbEntity
  8
0-0
  6
JWW_DASHED1
 62
   120
370
     5
100
AcDbLine
 10
460.2817515775506
 20
192.1748587284494
 30
0.0
 11
710.2817515775414
 21
442.1748587284407
 31
0.0
  0
LINE
  5
3CA
330
1F
100
AcDbEntity
  8
0-0
  6
JWW_DASHED1
 62
   120
370
     5
100
AcDbLine
 10
120.281751577546
 20
-140.7540734596881
 30
0.0
 11
370.281751577554
 21
109.2459265403186
 31
0.0
  0
LINE
  5
3CB
330
1F
100
AcDbEntity
  8
0-0
  6
JWW_DASHED1
 62
   120
370
     5
100
AcDbLine
 10
460.2817515775608
 20
199.2459265403259
 30
0.0
 11
710.2817515775516
 21
449.2459265403176
 31
0.0
  0
LINE
  5
3CC
330
1F
100
AcDbEntity
  8
0-0
  6
JWW_DASHED1
 62
   120
370
     5
100
AcDbLine
 10
120.2817515775494
 20
-133.6830056478175
 30
0.0
 11
370.281751577554
 21
116.316994352187
 31
0.0
  0
LINE
  5
3CD
330
1F
100
AcDbEntity
  8
0-0
  6
JWW_DASHED1
 62
   120
370
     5
100
AcDbLine
 10
460.2817515775454
 20
206.316994352178
 30
0.0
 11
710.2817515775499
 21
456.316994352183
 31
0.0
  0
LINE
  5
3CE
330
1F
100
AcDbEntity
  8
0-0
  6
JWW_DASHED1
 62
   120
370
     5
100
AcDbLine
 10
120.2817515775341
 20
-126.6119378359667
 30
0.0
 11
370.2817515775574
 21
123.3880621640562
 31
0.0
  0
LINE
  5
3CF
330
1F
100
AcDbEntity
  8
0-0
  6
JWW_DASHED1
 62
   120
370
     5
100
AcDbLine
 10
460.2817515775488
 20
213.3880621640477
 30
0.0
 11
710.2817515775397
 21
463.388062164039
 31
0.0
  0
LINE
  5
3D0
330
1F
100
AcDbEntity
  8
0-0
  6
JWW_DASHED1
 62
   120
370
     5
100
AcDbLine
 10
120.2817515775443
 20
-119.5408700240898
 30
0.0
 11
370.2817515775506
 21
130.4591299759169
 31
0.0
  0
LINE
  5
3D1
330
1F
100
AcDbEntity
  8
0-0
  6
JWW_DASHED1
 62
   120
370
     5
100
AcDbLine
 10
460.2817515775591
 20
220.4591299759246
 30
0.0
 11
710.2817515775499
 21
470.4591299759159
 31
0.0
  0
LINE
  5
3D2
330
1F
100
AcDbEntity
  8
0-0
  6
JWW_DASHED1
 62
   120
370
     5
100
AcDbLine
 10
120.2817515775477
 20
-112.4698022122197
 30
0.0
 11
370.2817515775523
 21
137.5301977877853
 31
0.0
  0
LINE
  5
3D3
330
1F
100
AcDbEntity
  8
0-0
  6
JWW_DASHED1
 62
   120
370
     5
100
AcDbLine
 10
460.2817515775437
 20
227.5301977877759
 30
0.0
 11
710.2817515775482
 21
477.5301977877809
 31
0.0
  0
LINE
  5
3D4
330
1F
100
AcDbEntity
  8
0-0
  6
JWW_DASHED1
 62
   120
370
     5
100
AcDbLine
 10
120.2817515775426
 20
-105.3987344003585
 30
0.0
 11
370.2817515775625
 21
144.6012655996618
 31
0.0
  0
LINE
  5
3D5
330
1F
100
AcDbEntity
  8
0-0
  6
JWW_DASHED1
 62
   120
370
     5
100
AcDbLine
 10
460.281751577554
 20
234.6012655996528
 30
0.0
 11
710.2817515775431
 21
484.6012655996416
 31
0.0
  0
LINE
  5
3D6
330
1F
100
AcDbEntity
  8
0-0
  6
JWW_DASHED1
 62
   120
370
     5
100
AcDbLine
 10
120.2817515775426
 20
-98.32766658849188
 30
0.0
 11
370.2817515775488
 21
151.6723334115152
 31
0.0
  0
LINE
  5
3D7
330
1F
100
AcDbEntity
  8
0-0
  6
JWW_DASHED1
 62
   120
370
     5
100
AcDbLine
 10
460.2817515775574
 20
241.6723334115229
 30
0.0
 11
710.2817515775482
 21
491.6723334115142
 31
0.0
  0
LINE
  5
3D8
330
1F
100
AcDbEntity
  8
0-0
  6
JWW_DASHED1
 62
   120
370
     5
100
AcDbLine
 10
120.281751577546
 20
-91.25659877662137
 30
0.0
 11
370.2817515775506
 21
158.7434012233832
 31
0.0
  0
LINE
  5
3D9
330
1F
100
AcDbEntity
  8
0-0
  6
JWW_DASHED1
 62
   120
370
     5
100
AcDbLine
 10
460.2817515775574
 20
248.74340122339
 30
0.0
 11
710.2817515775465
 21
498.7434012233792
 31
0.0
  0
LINE
  5
3DA
330
1F
100
AcDbEntity
  8
0-0
  6
JWW_DASHED1
 62
   120
370
     5
100
AcDbLine
 10
120.2817515775409
 20
-84.18553096476067
 30
0.0
 11
370.2817515775608
 21
165.8144690352601
 31
0.0
  0
LINE
  5
3DB
330
1F
100
AcDbEntity
  8
0-0
  6
JWW_DASHED1
 62
   120
370
     5
100
AcDbLine
 10
460.2817515775523
 20
255.8144690352507
 30
0.0
 11
710.2817515775567
 21
505.8144690352552
 31
0.0
  0
LINE
  5
3DC
330
1F
100
AcDbEntity
  8
0-0
  6
JWW_DASHED1
 62
   120
370
     5
100
AcDbLine
 10
120.2817515775409
 20
-77.11446315289358
 30
0.0
 11
370.2817515775471
 21
172.8855368471139
 31
0.0
  0
LINE
  5
3DD
330
1F
100
AcDbEntity
  8
0-0
  6
JWW_DASHED1
 62
   120
370
     5
100
AcDbLine
 10
460.2817515775557
 20
262.8855368471212
 30
0.0
 11
710.2817515775465
 21
512.8855368471126
 31
0.0
  0
LINE
  5
3DE
330
1F
100
AcDbEntity
  8
0-0
  6
JWW_DASHED1
 62
   120
370
     5
100
AcDbLine
 10
120.2817515775511
 20
-70.04339534101668
 30
0.0
 11
370.2817515775574
 21
179.95660465899
 31
0.0
  0
LINE
  5
3DF
330
1F
100
AcDbEntity
  8
0-0
  6
JWW_DASHED1
 62
   120
370
     5
100
AcDbLine
 10
460.2817515775659
 20
269.9566046589977
 30
0.0
 11
710.2817515775567
 21
519.9566046589886
 31
0.0
  0
LINE
  5
3E0
330
1F
100
AcDbEntity
  8
0-0
  6
JWW_DASHED1
 62
   120
370
     5
100
AcDbLine
 10
120.2817515775545
 20
-62.9723275291466
 30
0.0
 11
370.2817515775591
 21
187.0276724708584
 31
0.0
  0
LINE
  5
3E1
330
1F
100
AcDbEntity
  8
0-0
  6
JWW_DASHED1
 62
   120
370
     5
100
AcDbLine
 10
460.2817515775506
 20
277.027672470849
 30
0.0
 11
710.281751577555
 21
527.0276724708535
 31
0.0
  0
LINE
  5
3E2
330
1F
100
AcDbEntity
  8
0-0
  6
JWW_DASHED1
 62
   120
370
     5
100
AcDbLine
 10
120.2817515775392
 20
-55.90125971729528
 30
0.0
 11
370.2817515775454
 21
194.0987402827118
 31
0.0
  0
LINE
  5
3E3
330
1F
100
AcDbEntity
  8
0-0
  6
JWW_DASHED1
 62
   120
370
     5
100
AcDbLine
 10
460.281751577554
 20
284.0987402827191
 30
0.0
 11
710.2817515775448
 21
534.0987402827109
 31
0.0
  0
LINE
  5
3E4
330
1F
100
AcDbEntity
  8
0-0
  6
JWW_DASHED1
 62
   120
370
     5
100
AcDbLine
 10
120.2817515775494
 20
-48.83019190541837
 30
0.0
 11
370.2817515775557
 21
201.1698080945883
 31
0.0
  0
LINE
  5
3E5
330
1F
100
AcDbEntity
  8
0-0
  6
JWW_DASHED1
 62
   120
370
     5
100
AcDbLine
 10
460.2817515775642
 20
291.169808094596
 30
0.0
 11
710.281751577555
 21
541.1698080945873
 31
0.0
  0
LINE
  5
3E6
330
1F
100
AcDbEntity
  8
0-0
  6
JWW_DASHED1
 62
   120
370
     5
100
AcDbLine
 10
120.2817515775528
 20
-41.75912409354872
 30
0.0
 11
370.2817515775574
 21
208.2408759064563
 31
0.0
  0
LINE
  5
3E7
330
1F
100
AcDbEntity
  8
0-0
  6
JWW_DASHED1
 62
   120
370
     5
100
AcDbLine
 10
460.2817515775471
 20
298.2408759064473
 30
0.0
 11
710.2817515775533
 21
548.2408759064518
 31
0.0
  0
LINE
  5
3E8
330
1F
100
AcDbEntity
  8
0-0
  6
JWW_DASHED1
 62
   120
370
     5
100
AcDbLine
 10
120.2817515775375
 20
-34.68805628169697
 30
0.0
 11
370.2817515775437
 21
215.3119437183101
 31
0.0
  0
LINE
  5
3E9
330
1F
100
AcDbEntity
  8
0-0
  6
JWW_DASHED1
 62
   120
370
     5
100
AcDbLine
 10
460.2817515775523
 20
305.3119437183178
 30
0.0
 11
710.2817515775431
 21
555.3119437183092
 31
0.0
  0
LINE
  5
3EA
330
1F
100
AcDbEntity
  8
0-0
  6
JWW_DASHED1
 62
   120
370
     5
100
AcDbLine
 10
120.2817515775477
 20
-27.61698846982007
 30
0.0
 11
370.281751577554
 21
222.3830115301866
 31
0.0
  0
LINE
  5
3EB
330
1F
100
AcDbEntity
  8
0-0
  6
JWW_DASHED1
 62
   120
370
     5
100
AcDbLine
 10
460.2817515775625
 20
312.3830115301943
 30
0.0
 11
710.2817515775533
 21
562.3830115301852
 31
0.0
  0
LINE
  5
3EC
330
1F
100
AcDbEntity
  8
0-0
  6
JWW_DASHED1
 62
   120
370
     5
100
AcDbLine
 10
120.2817515775494
 20
-20.54592065795042
 30
0.0
 11
370.2817515775557
 21
229.4540793420541
 31
0.0
  0
LINE
  5
3ED
330
1F
100
AcDbEntity
  8
0-0
  6
JWW_DASHED1
 62
   120
370
     5
100
AcDbLine
 10
460.2817515775454
 20
319.4540793420447
 30
0.0
 11
710.2817515775516
 21
569.4540793420501
 31
0.0
  0
LINE
  5
3EE
330
1F
100
AcDbEntity
  8
0-0
  6
JWW_DASHED1
 62
   120
370
     5
100
AcDbLine
 10
120.2817515775324
 20
-13.47485284612809
 30
0.0
 11
370.2817515775574
 21
236.5251471538948
 31
0.0
  0
LINE
  5
3EF
330
1F
100
AcDbEntity
  8
0-0
  6
JWW_DASHED1
 62
   120
370
     5
100
AcDbLine
 10
460.2817515775471
 20
326.5251471538866
 30
0.0
 11
710.281751577555
 21
576.5251471538938
 31
0.0
  0
LINE
  5
3F0
330
1F
100
AcDbEntity
  8
0-0
  6
JWW_DASHED1
 62
   120
370
     5
100
AcDbLine
 10
120.2817515775409
 20
-6.403785034281029
 30
0.0
 11
370.2817515775488
 21
243.5962149657261
 31
0.0
  0
LINE
  5
3F1
330
1F
100
AcDbEntity
  8
0-0
  6
JWW_DASHED1
 62
   120
370
     5
100
AcDbLine
 10
460.2817515775557
 20
333.5962149657337
 30
0.0
 11
710.2817515775465
 21
583.596214965725
 31
0.0
  0
LINE
  5
3F2
330
1F
100
AcDbEntity
  8
0-0
  6
JWW_DASHED1
 62
   120
370
     5
100
AcDbLine
 10
120.2817515775511
 20
0.6672827775958723
 30
0.0
 11
370.2817515775574
 21
250.667282777603
 31
0.0
  0
LINE
  5
3F3
330
1F
100
AcDbEntity
  8
0-0
  6
JWW_DASHED1
 62
   120
370
     5
100
AcDbLine
 10
460.2817515775659
 20
340.6672827776106
 30
0.0
 11
710.2817515775567
 21
590.6672827776016
 31
0.0
  0
LINE
  5
3F4
330
1F
100
AcDbEntity
  8
0-0
  6
JWW_DASHED1
 62
   120
370
     5
100
AcDbLine
 10
120.2817515775375
 20
7.738350589449325
 30
0.0
 11
370.2817515775591
 21
257.7383505894705
 31
0.0
  0
LINE
  5
3F5
330
1F
100
AcDbEntity
  8
0-0
  6
JWW_DASHED1
 62
   120
370
     5
100
AcDbLine
 10
460.2817515775488
 20
347.7383505894607
 30
0.0
 11
710.281751577555
 21
597.7383505894657
 31
0.0
  0
LINE
  5
3F6
330
1F
100
AcDbEntity
  8
0-0
  6
JWW_DASHED1
 62
   120
370
     5
100
AcDbLine
 10
120.2817515775392
 20
14.80941840131727
 30
0.0
 11
370.2817515775471
 21
264.8094184013244
 31
0.0
  0
LINE
  5
3F7
330
1F
100
AcDbEntity
  8
0-0
  6
JWW_DASHED1
 62
   120
370
     5
100
AcDbLine
 10
460.281751577554
 20
354.809418401332
 30
0.0
 11
710.2817515775448
 21
604.809418401323
 31
0.0
  0
LINE
  5
3F8
330
1F
100
AcDbEntity
  8
0-0
  6
JWW_DASHED1
 62
   120
370
     5
100
AcDbLine
 10
120.2817515775494
 20
21.88048621319417
 30
0.0
 11
370.2817515775574
 21
271.8804862132013
 31
0.0
  0
LINE
  5
3F9
330
1F
100
AcDbEntity
  8
0-0
  6
JWW_DASHED1
 62
   120
370
     5
100
AcDbLine
 10
460.2817515775642
 20
361.8804862132089
 30
0.0
 11
710.281751577555
 21
611.8804862131999
 31
0.0
  0
LINE
  5
3FA
330
1F
100
AcDbEntity
  8
0-0
  6
JWW_DASHED1
 62
   120
370
     5
100
AcDbLine
 10
120.2817515775528
 20
28.9515540250634
 30
0.0
 11
370.2817515775574
 21
278.9515540250679
 31
0.0
  0
LINE
  5
3FB
330
1F
100
AcDbEntity
  8
0-0
  6
JWW_DASHED1
 62
   120
370
     5
100
AcDbLine
 10
460.2817515775471
 20
368.951554025059
 30
0.0
 11
710.2817515775533
 21
618.951554025064
 31
0.0
  0
LINE
  5
3FC
330
1F
100
AcDbEntity
  8
0-0
  6
JWW_DASHED1
 62
   120
370
     5
100
AcDbLine
 10
120.2817515775375
 20
36.02262183691558
 30
0.0
 11
370.2817515775454
 21
286.0226218369227
 31
0.0
  0
LINE
  5
3FD
330
1F
100
AcDbEntity
  8
0-0
  6
JWW_DASHED1
 62
   120
370
     5
100
AcDbLine
 10
460.2817515775523
 20
376.0226218369303
 30
0.0
 11
710.2817515775431
 21
626.0226218369213
 31
0.0
  0
LINE
  5
3FE
330
1F
100
AcDbEntity
  8
0-0
  6
JWW_DASHED1
 62
   120
370
     5
100
AcDbLine
 10
120.2817515775477
 20
43.09368964879248
 30
0.0
 11
370.281751577554
 21
293.0936896487996
 31
0.0
  0
LINE
  5
3FF
330
1F
100
AcDbEntity
  8
0-0
  6
JWW_DASHED1
 62
   120
370
     5
100
AcDbLine
 10
460.2817515775625
 20
383.0936896488072
 30
0.0
 11
710.2817515775533
 21
633.0936896487982
 31
0.0
  0
LINE
  5
400
330
1F
100
AcDbEntity
  8
0-0
  6
JWW_DASHED1
 62
   120
370
     5
100
AcDbLine
 10
120.2817515775494
 20
50.16475746066128
 30
0.0
 11
370.2817515775557
 21
300.1647574606662
 31
0.0
  0
LINE
  5
401
330
1F
100
AcDbEntity
  8
0-0
  6
JWW_DASHED1
 62
   120
370
     5
100
AcDbLine
 10
460.2817515775454
 20
390.1647574606569
 30
0.0
 11
710.2817515775499
 21
640.1647574606623
 31
0.0
  0
LINE
  5
402
330
1F
100
AcDbEntity
  8
0-0
  6
JWW_DASHED1
 62
   120
370
     5
100
AcDbLine
 10
120.2817515775358
 20
57.23582527251388
 30
0.0
 11
370.2817515775591
 21
307.2358252725372
 31
0.0
  0
LINE
  5
403
330
1F
100
AcDbEntity
  8
0-0
  6
JWW_DASHED1
 62
   120
370
     5
100
AcDbLine
 10
460.2817515775506
 20
397.2358252725286
 30
0.0
 11
710.2817515775414
 21
647.2358252725196
 31
0.0
  0
LINE
  5
404
330
1F
100
AcDbEntity
  8
0-0
  6
JWW_DASHED1
 62
   120
370
     5
100
AcDbLine
 10
120.281751577546
 20
64.30689308439078
 30
0.0
 11
370.281751577554
 21
314.3068930843979
 31
0.0
  0
LINE
  5
405
330
1F
100
AcDbEntity
  8
0-0
  6
JWW_DASHED1
 62
   120
370
     5
100
AcDbLine
 10
460.2817515775608
 20
404.3068930844051
 30
0.0
 11
710.2817515775516
 21
654.3068930843965
 31
0.0
  0
LINE
  5
406
330
1F
100
AcDbEntity
  8
0-0
  6
JWW_DASHED1
 62
   120
370
     5
100
AcDbLine
 10
120.2817515775477
 20
71.37796089625958
 30
0.0
 11
370.281751577554
 21
321.3779608962645
 31
0.0
  0
LINE
  5
407
330
1F
100
AcDbEntity
  8
0-0
  6
JWW_DASHED1
 62
   120
370
     5
100
AcDbLine
 10
460.2817515775437
 20
411.3779608962552
 30
0.0
 11
710.2817515775482
 21
661.3779608962598
 31
0.0
  0
LINE
  5
408
330
1F
100
AcDbEntity
  8
0-0
  6
JWW_DASHED1
 62
   120
370
     5
100
AcDbLine
 10
120.2817515775341
 20
78.44902870811218
 30
0.0
 11
370.2817515775574
 21
328.4490287081355
 31
0.0
  0
LINE
  5
409
330
1F
100
AcDbEntity
  8
0-0
  6
JWW_DASHED1
 62
   120
370
     5
100
AcDbLine
 10
460.2817515775488
 20
418.4490287081269
 30
0.0
 11
710.2817515775397
 21
668.4490287081182
 31
0.0
  0
LINE
  5
40A
330
1F
100
AcDbEntity
  8
0-0
  6
JWW_DASHED1
 62
   120
370
     5
100
AcDbLine
 10
120.2817515775443
 20
85.52009651998908
 30
0.0
 11
370.2817515775506
 21
335.5200965199961
 31
0.0
  0
LINE
  5
40B
330
1F
100
AcDbEntity
  8
0-0
  6
JWW_DASHED1
 62
   120
370
     5
100
AcDbLine
 10
460.2817515775591
 20
425.5200965200034
 30
0.0
 11
710.2817515775499
 21
675.5200965199948
 31
0.0
  0
LINE
  5
40C
330
1F
100
AcDbEntity
  8
0-0
  6
JWW_DASHED1
 62
   120
370
     5
100
AcDbLine
 10
120.281751577546
 20
92.59116433185788
 30
0.0
 11
370.2817515775506
 21
342.5911643318624
 31
0.0
  0
LINE
  5
40D
330
1F
100
AcDbEntity
  8
0-0
  6
JWW_DASHED1
 62
   120
370
     5
100
AcDbLine
 10
460.281751577542
 20
432.5911643318535
 30
0.0
 11
710.2817515775465
 21
682.5911643318581
 31
0.0
  0
LINE
  5
40E
330
1F
100
AcDbEntity
  8
0-0
  6
JWW_DASHED1
 62
   120
370
     5
100
AcDbLine
 10
120.2817515775409
 20
99.66223214371858
 30
0.0
 11
370.2817515775608
 21
349.6622321437389
 31
0.0
  0
LINE
  5
40F
330
1F
100
AcDbEntity
  8
0-0
  6
JWW_DASHED1
 62
   120
370
     5
100
AcDbLine
 10
460.2817515775523
 20
439.66223214373
 30
0.0
 11
710.2817515775567
 21
689.662232143735
 31
0.0
  0
LINE
  5
410
330
1F
100
AcDbEntity
  8
0-0
  6
JWW_DASHED1
 62
   120
370
     5
100
AcDbLine
 10
120.2817515775426
 20
106.733299955587
 30
0.0
 11
370.2817515775506
 21
356.7332999555944
 31
0.0
  0
LINE
  5
411
330
1F
100
AcDbEntity
  8
0-0
  6
JWW_DASHED1
 62
   120
370
     5
100
AcDbLine
 10
460.2817515775574
 20
446.7332999556021
 30
0.0
 11
710.2817515775482
 21
696.7332999555931
 31
0.0
  0
LINE
  5
412
330
1F
100
AcDbEntity
  8
0-0
  6
JWW_DASHED1
 62
   120
370
     5
100
AcDbLine
 10
120.2817515775528
 20
113.8043677674639
 30
0.0
 11
370.2817515775591
 21
363.804367767471
 31
0.0
  0
LINE
  5
413
330
1F
100
AcDbEntity
  8
0-0
  6
JWW_DASHED1
 62
   120
370
     5
100
AcDbLine
 10
460.2817515775676
 20
453.8043677674781
 30
0.0
 11
710.2817515775585
 21
703.80436776747
 31
0.0
  0
LINE
  5
414
330
1F
100
AcDbEntity
  8
0-0
  6
JWW_DASHED1
 62
   120
370
     5
100
AcDbLine
 10
120.2817515775392
 20
120.8754355793165
 30
0.0
 11
370.2817515775591
 21
370.8754355793372
 31
0.0
  0
LINE
  5
415
330
1F
100
AcDbEntity
  8
0-0
  6
JWW_DASHED1
 62
   120
370
     5
100
AcDbLine
 10
460.2817515775506
 20
460.8754355793278
 30
0.0
 11
710.281751577555
 21
710.8754355793328
 31
0.0
  0
LINE
  5
416
330
1F
100
AcDbEntity
  8
0-0
  6
JWW_DASHED1
 62
   120
370
     5
100
AcDbLine
 10
120.2817515775409
 20
127.9465033911857
 30
0.0
 11
370.2817515775471
 21
377.9465033911924
 31
0.0
  0
LINE
  5
417
330
1F
100
AcDbEntity
  8
0-0
  6
JWW_DASHED1
 62
   120
370
     5
100
AcDbLine
 10
460.2817515775557
 20
467.9465033912001
 30
0.0
 11
710.2817515775465
 21
717.9465033911914
 31
0.0
  0
LINE
  5
418
330
1F
100
AcDbEntity
  8
0-0
  6
JWW_DASHED1
 62
   120
370
     5
100
AcDbLine
 10
120.2817515775511
 20
135.0175712030617
 30
0.0
 11
370.2817515775574
 21
385.0175712030693
 31
0.0
  0
LINE
  5
419
330
1F
100
AcDbEntity
  8
0-0
  6
JWW_DASHED1
 62
   120
370
     5
100
AcDbLine
 10
460.2817515775659
 20
475.0175712030764
 30
0.0
 11
710.2817515775567
 21
725.0175712030683
 31
0.0
  0
LINE
  5
41A
330
1F
100
AcDbEntity
  8
0-0
  6
JWW_DASHED1
 62
   120
370
     5
100
AcDbLine
 10
120.2817515775528
 20
142.0886390149305
 30
0.0
 11
370.2817515775574
 21
392.0886390149351
 31
0.0
  0
LINE
  5
41B
330
1F
100
AcDbEntity
  8
0-0
  6
JWW_DASHED1
 62
   120
370
     5
100
AcDbLine
 10
460.2817515775488
 20
482.0886390149261
 30
0.0
 11
710.2817515775533
 21
732.0886390149307
 31
0.0
  0
LINE
  5
41C
330
1F
100
AcDbEntity
  8
0-0
  6
JWW_DASHED1
 62
   120
370
     5
100
AcDbLine
 10
120.2817515775392
 20
149.159706826784
 30
0.0
 11
370.2817515775471
 21
399.159706826791
 31
0.0
  0
LINE
  5
41D
330
1F
100
AcDbEntity
  8
0-0
  6
JWW_DASHED1
 62
   120
370
     5
100
AcDbLine
 10
460.281751577554
 20
489.1597068267988
 30
0.0
 11
710.2817515775448
 21
739.1597068267897
 31
0.0
  0
LINE
  5
41E
330
1F
100
AcDbEntity
  8
0-0
  6
JWW_DASHED1
 62
   120
370
     5
100
AcDbLine
 10
120.2817515775494
 20
156.2307746386605
 30
0.0
 11
370.2817515775557
 21
406.2307746386671
 31
0.0
  0
LINE
  5
41F
330
1F
100
AcDbEntity
  8
0-0
  6
JWW_DASHED1
 62
   120
370
     5
100
AcDbLine
 10
460.2817515775642
 20
496.2307746386748
 30
0.0
 11
710.281751577555
 21
746.2307746386666
 31
0.0
  0
LINE
  5
420
330
1F
100
AcDbEntity
  8
0-0
  6
JWW_DASHED1
 62
   120
370
     5
100
AcDbLine
 10
120.2817515775511
 20
163.3018424505284
 30
0.0
 11
370.2817515775557
 21
413.3018424505329
 31
0.0
  0
LINE
  5
421
330
1F
100
AcDbEntity
  8
0-0
  6
JWW_DASHED1
 62
   120
370
     5
100
AcDbLine
 10
460.2817515775454
 20
503.301842450524
 30
0.0
 11
710.2817515775516
 21
753.301842450529
 31
0.0
  0
LINE
  5
422
330
1F
100
AcDbEntity
  8
0-0
  6
JWW_DASHED1
 62
   120
370
     5
100
AcDbLine
 10
120.2817515775375
 20
170.3729102623823
 30
0.0
 11
370.2817515775437
 21
420.3729102623893
 31
0.0
  0
LINE
  5
423
330
1F
100
AcDbEntity
  8
0-0
  6
JWW_DASHED1
 62
   120
370
     5
100
AcDbLine
 10
460.2817515775523
 20
510.3729102623971
 30
0.0
 11
710.2817515775431
 21
760.372910262388
 31
0.0
  0
LINE
  5
424
330
1F
100
AcDbEntity
  8
0-0
  6
JWW_DASHED1
 62
   120
370
     5
100
AcDbLine
 10
120.2817515775477
 20
177.4439780742588
 30
0.0
 11
370.281751577554
 21
427.4439780742659
 31
0.0
  0
LINE
  5
425
330
1F
100
AcDbEntity
  8
0-0
  6
JWW_DASHED1
 62
   120
370
     5
100
AcDbLine
 10
460.2817515775625
 20
517.4439780742731
 30
0.0
 11
710.2817515775533
 21
767.4439780742645
 31
0.0
  0
LINE
  5
426
330
1F
100
AcDbEntity
  8
0-0
  6
JWW_DASHED1
 62
   120
370
     5
100
AcDbLine
 10
120.2817515775494
 20
184.5150458861267
 30
0.0
 11
370.281751577554
 21
434.5150458861312
 31
0.0
  0
LINE
  5
427
330
1F
100
AcDbEntity
  8
0-0
  6
JWW_DASHED1
 62
   120
370
     5
100
AcDbLine
 10
460.2817515775437
 20
524.5150458861223
 30
0.0
 11
710.2817515775482
 21
774.5150458861273
 31
0.0
  0
LINE
  5
428
330
1F
100
AcDbEntity
  8
0-0
  6
JWW_DASHED1
 62
   120
370
     5
100
AcDbLine
 10
120.2817515775358
 20
191.5861136979806
 30
0.0
 11
370.2817515775591
 21
441.5861136980035
 31
0.0
  0
LINE
  5
429
330
1F
100
AcDbEntity
  8
0-0
  6
JWW_DASHED1
 62
   120
370
     5
100
AcDbLine
 10
460.2817515775506
 20
531.5861136979954
 30
0.0
 11
710.2817515775414
 21
781.5861136979863
 31
0.0
  0
LINE
  5
42A
330
1F
100
AcDbEntity
  8
0-0
  6
JWW_DASHED1
 62
   120
370
     5
100
AcDbLine
 10
120.281751577546
 20
198.6571815098571
 30
0.0
 11
370.2817515775523
 21
448.6571815098642
 31
0.0
  0
LINE
  5
42B
330
1F
100
AcDbEntity
  8
0-0
  6
JWW_DASHED1
 62
   120
370
     5
100
AcDbLine
 10
460.2817515775608
 20
538.6571815098714
 30
0.0
 11
710.2817515775516
 21
788.6571815098632
 31
0.0
  0
LINE
  5
42C
330
1F
100
AcDbEntity
  8
0-0
  6
JWW_DASHED1
 62
   120
370
     5
100
AcDbLine
 10
120.281751577546
 20
205.7282493217246
 30
0.0
 11
370.2817515775506
 21
455.7282493217295
 31
0.0
  0
LINE
  5
42D
330
1F
100
AcDbEntity
  8
0-0
  6
JWW_DASHED1
 62
   120
370
     5
100
AcDbLine
 10
460.281751577542
 20
545.7282493217202
 30
0.0
 11
710.2817515775465
 21
795.7282493217248
 31
0.0
  0
LINE
  5
42E
330
1F
100
AcDbEntity
  8
0-0
  6
JWW_DASHED1
 62
   120
370
     5
100
AcDbLine
 10
120.2817515775341
 20
212.7993171335789
 30
0.0
 11
370.2817515775574
 21
462.7993171336013
 31
0.0
  0
LINE
  5
42F
330
1F
100
AcDbEntity
  8
0-0
  6
JWW_DASHED1
 62
   120
370
     5
100
AcDbLine
 10
460.2817515775488
 20
552.7993171335933
 30
0.0
 11
710.2817515775397
 21
802.7993171335846
 31
0.0
  0
LINE
  5
430
330
1F
100
AcDbEntity
  8
0-0
  6
JWW_DASHED1
 62
   120
370
     5
100
AcDbLine
 10
120.2817515775443
 20
219.8703849454554
 30
0.0
 11
370.2817515775506
 21
469.870384945462
 31
0.0
  0
LINE
  5
431
330
1F
100
AcDbEntity
  8
0-0
  6
JWW_DASHED1
 62
   120
370
     5
100
AcDbLine
 10
460.2817515775591
 20
559.8703849454697
 30
0.0
 11
710.2817515775499
 21
809.8703849454615
 31
0.0
  0
LINE
  5
432
330
1F
100
AcDbEntity
  8
0-0
  6
JWW_DASHED1
 62
   120
370
     5
100
AcDbLine
 10
120.2817515775443
 20
226.9414527573229
 30
0.0
 11
370.2817515775506
 21
476.9414527573278
 31
0.0
  0
LINE
  5
433
330
1F
100
AcDbEntity
  8
0-0
  6
JWW_DASHED1
 62
   120
370
     5
100
AcDbLine
 10
460.2817515775557
 20
566.9414527573339
 30
0.0
 11
710.2817515775448
 21
816.9414527573233
 31
0.0
  0
LINE
  5
434
330
1F
100
AcDbEntity
  8
0-0
  6
JWW_DASHED1
 62
   120
370
     5
100
AcDbLine
 10
120.2817515775392
 20
234.0125205691836
 30
0.0
 11
370.2817515775591
 21
484.0125205692039
 31
0.0
  0
LINE
  5
435
330
1F
100
AcDbEntity
  8
0-0
  6
JWW_DASHED1
 62
   120
370
     5
100
AcDbLine
 10
460.2817515775506
 20
574.0125205691954
 30
0.0
 11
710.281751577555
 21
824.0125205692
 31
0.0
  0
LINE
  5
436
330
1F
100
AcDbEntity
  8
0-0
  6
JWW_DASHED1
 62
   120
370
     5
100
AcDbLine
 10
120.2817515775426
 20
241.0835883810537
 30
0.0
 11
370.2817515775488
 21
491.0835883810608
 31
0.0
  0
LINE
  5
437
330
1F
100
AcDbEntity
  8
0-0
  6
JWW_DASHED1
 62
   120
370
     5
100
AcDbLine
 10
460.2817515775574
 20
581.083588381068
 30
0.0
 11
710.2817515775482
 21
831.0835883810598
 31
0.0
  0
LINE
  5
438
330
1F
100
AcDbEntity
  8
0-0
  6
JWW_DASHED1
 62
   120
370
     5
100
AcDbLine
 10
120.2817515775528
 20
248.1546561929301
 30
0.0
 11
370.2817515775591
 21
498.1546561929372
 31
0.0
  0
LINE
  5
439
330
1F
100
AcDbEntity
  8
0-0
  6
JWW_DASHED1
 62
   120
370
     5
100
AcDbLine
 10
460.2817515775676
 20
588.1546561929449
 30
0.0
 11
710.2817515775585
 21
838.1546561929363
 31
0.0
  0
LINE
  5
43A
330
1F
100
AcDbEntity
  8
0-0
  6
JWW_DASHED1
 62
   120
370
     5
100
AcDbLine
 10
120.2817515775375
 20
255.2257240047819
 30
0.0
 11
370.2817515775574
 21
505.2257240048022
 31
0.0
  0
LINE
  5
43B
330
1F
100
AcDbEntity
  8
0-0
  6
JWW_DASHED1
 62
   120
370
     5
100
AcDbLine
 10
460.2817515775488
 20
595.2257240047928
 30
0.0
 11
710.2817515775533
 21
845.2257240047978
 31
0.0
  0
LINE
  5
43C
330
1F
100
AcDbEntity
  8
0-0
  6
JWW_DASHED1
 62
   120
370
     5
100
AcDbLine
 10
120.2817515775409
 20
262.296791816652
 30
0.0
 11
370.2817515775471
 21
512.2967918166587
 31
0.0
  0
LINE
  5
43D
330
1F
100
AcDbEntity
  8
0-0
  6
JWW_DASHED1
 62
   120
370
     5
100
AcDbLine
 10
460.2817515775557
 20
602.2967918166663
 30
0.0
 11
710.2817515775465
 21
852.2967918166581
 31
0.0
  0
LINE
  5
43E
330
1F
100
AcDbEntity
  8
0-0
  6
JWW_DASHED1
 62
   120
370
     5
100
AcDbLine
 10
120.2817515775511
 20
269.3678596285284
 30
0.0
 11
370.2817515775574
 21
519.3678596285356
 31
0.0
  0
LINE
  5
43F
330
1F
100
AcDbEntity
  8
0-0
  6
JWW_DASHED1
 62
   120
370
     5
100
AcDbLine
 10
460.2817515775659
 20
609.3678596285432
 30
0.0
 11
710.2817515775567
 21
859.3678596285341
 31
0.0
  0
LINE
  5
440
330
1F
100
AcDbEntity
  8
0-0
  6
JWW_DASHED1
 62
   120
370
     5
100
AcDbLine
 10
120.2817515775511
 20
276.4389274403951
 30
0.0
 11
370.2817515775557
 21
526.4389274404006
 31
0.0
  0
LINE
  5
441
330
1F
100
AcDbEntity
  8
0-0
  6
JWW_DASHED1
 62
   120
370
     5
100
AcDbLine
 10
460.2817515775471
 20
616.4389274403911
 30
0.0
 11
710.2817515775516
 21
866.4389274403961
 31
0.0
  0
LINE
  5
442
330
1F
100
AcDbEntity
  8
0-0
  6
JWW_DASHED1
 62
   120
370
     5
100
AcDbLine
 10
120.2817515775392
 20
283.5099952522503
 30
0.0
 11
370.2817515775454
 21
533.5099952522573
 31
0.0
  0
LINE
  5
443
330
1F
100
AcDbEntity
  8
0-0
  6
JWW_DASHED1
 62
   120
370
     5
100
AcDbLine
 10
460.281751577554
 20
623.5099952522646
 30
0.0
 11
710.2817515775448
 21
873.5099952522564
 31
0.0
  0
LINE
  5
444
330
1F
100
AcDbEntity
  8
0-0
  6
JWW_DASHED1
 62
   120
370
     5
100
AcDbLine
 10
120.2817515775494
 20
290.5810630641267
 30
0.0
 11
370.2817515775557
 21
540.5810630641339
 31
0.0
  0
LINE
  5
445
330
1F
100
AcDbEntity
  8
0-0
  6
JWW_DASHED1
 62
   120
370
     5
100
AcDbLine
 10
460.2817515775642
 20
630.5810630641415
 30
0.0
 11
710.281751577555
 21
880.5810630641324
 31
0.0
  0
LINE
  5
446
330
1F
100
AcDbEntity
  8
0-0
  6
JWW_DASHED1
 62
   120
370
     5
100
AcDbLine
 10
120.2817515775494
 20
297.6521308759939
 30
0.0
 11
370.281751577554
 21
547.6521308759989
 31
0.0
  0
LINE
  5
447
330
1F
100
AcDbEntity
  8
0-0
  6
JWW_DASHED1
 62
   120
370
     5
100
AcDbLine
 10
460.2817515775437
 20
637.6521308759894
 30
0.0
 11
710.2817515775499
 21
887.652130875994
 31
0.0
  0
LINE
  5
448
330
1F
100
AcDbEntity
  8
0-0
  6
JWW_DASHED1
 62
   120
370
     5
100
AcDbLine
 10
120.2817515775375
 20
304.7231986878486
 30
0.0
 11
370.2817515775437
 21
554.7231986878553
 31
0.0
  0
LINE
  5
449
330
1F
100
AcDbEntity
  8
0-0
  6
JWW_DASHED1
 62
   120
370
     5
100
AcDbLine
 10
460.2817515775523
 20
644.7231986878629
 30
0.0
 11
710.2817515775431
 21
894.7231986878547
 31
0.0
  0
LINE
  5
44A
330
1F
100
AcDbEntity
  8
0-0
  6
JWW_DASHED1
 62
   120
370
     5
100
AcDbLine
 10
120.281751577546
 20
311.794266499725
 30
0.0
 11
370.281751577554
 21
561.7942664997322
 31
0.0
  0
LINE
  5
44B
330
1F
100
AcDbEntity
  8
0-0
  6
JWW_DASHED1
 62
   120
370
     5
100
AcDbLine
 10
460.2817515775608
 20
651.7942664997398
 30
0.0
 11
710.2817515775533
 21
901.7942664997307
 31
0.0
  0
LINE
  5
44C
330
1F
100
AcDbEntity
  8
0-0
  6
JWW_DASHED1
 62
   120
370
     5
100
AcDbLine
 10
120.281751577546
 20
318.8653343115917
 30
0.0
 11
370.2817515775523
 21
568.8653343115967
 31
0.0
  0
LINE
  5
44D
330
1F
100
AcDbEntity
  8
0-0
  6
JWW_DASHED1
 62
   120
370
     5
100
AcDbLine
 10
460.281751577542
 20
658.8653343115873
 30
0.0
 11
710.2817515775482
 21
908.8653343115923
 31
0.0
  0
LINE
  5
44E
330
1F
100
AcDbEntity
  8
0-0
  6
JWW_DASHED1
 62
   120
370
     5
100
AcDbLine
 10
120.2817515775358
 20
325.9364021234469
 30
0.0
 11
370.2817515775591
 21
575.9364021234697
 31
0.0
  0
LINE
  5
44F
330
1F
100
AcDbEntity
  8
0-0
  6
JWW_DASHED1
 62
   120
370
     5
100
AcDbLine
 10
460.2817515775506
 20
665.9364021234612
 30
0.0
 11
710.2817515775414
 21
915.936402123453
 31
0.0
  0
LINE
  5
450
330
1F
100
AcDbEntity
  8
0-0
  6
JWW_DASHED1
 62
   120
370
     5
100
AcDbLine
 10
120.281751577546
 20
333.0074699353233
 30
0.0
 11
370.2817515775523
 21
583.0074699353305
 31
0.0
  0
LINE
  5
451
330
1F
100
AcDbEntity
  8
0-0
  6
JWW_DASHED1
 62
   120
370
     5
100
AcDbLine
 10
460.2817515775608
 20
673.0074699353381
 30
0.0
 11
710.2817515775516
 21
923.007469935329
 31
0.0
  0
LINE
  5
452
330
1F
100
AcDbEntity
  8
0-0
  6
JWW_DASHED1
 62
   120
370
     5
100
AcDbLine
 10
120.281751577546
 20
340.07853774719
 30
0.0
 11
370.2817515775506
 21
590.0785377471946
 31
0.0
  0
LINE
  5
453
330
1F
100
AcDbEntity
  8
0-0
  6
JWW_DASHED1
 62
   120
370
     5
100
AcDbLine
 10
460.2817515775403
 20
680.0785377471855
 30
0.0
 11
710.2817515775448
 21
930.07853774719
 31
0.0
  0
LINE
  5
454
330
1F
100
AcDbEntity
  8
0-0
  6
JWW_DASHED1
 62
   120
370
     5
100
AcDbLine
 10
120.2817515775392
 20
347.1496055590507
 30
0.0
 11
370.2817515775608
 21
597.1496055590715
 31
0.0
  0
LINE
  5
455
330
1F
100
AcDbEntity
  8
0-0
  6
JWW_DASHED1
 62
   120
370
     5
100
AcDbLine
 10
460.2817515775506
 20
687.1496055590621
 30
0.0
 11
710.2817515775397
 21
937.1496055590513
 31
0.0
  0
LINE
  5
456
330
1F
100
AcDbEntity
  8
0-0
  6
JWW_DASHED1
 62
   120
370
     5
100
AcDbLine
 10
120.2817515775426
 20
354.2206733709216
 30
0.0
 11
370.2817515775506
 21
604.2206733709288
 31
0.0
  0
LINE
  5
457
330
1F
100
AcDbEntity
  8
0-0
  6
JWW_DASHED1
 62
   120
370
     5
100
AcDbLine
 10
120.2817515775426
 20
361.2917411827879
 30
0.0
 11
370.2817515775471
 21
611.2917411827929
 31
0.0
  0
LINE
  5
458
330
1F
100
AcDbEntity
  8
0-0
  6
JWW_DASHED1
 62
   120
370
     5
100
AcDbLine
 10
120.2817515775375
 20
368.3628089946486
 30
0.0
 11
370.2817515775574
 21
618.362808994669
 31
0.0
  0
LINE
  5
459
330
1F
100
AcDbEntity
  8
0-0
  6
JWW_DASHED1
 62
   120
370
     5
100
AcDbLine
 10
120.2817515775392
 20
375.4338768064906
 30
0.0
 11
370.2817515775471
 21
625.4338768064977
 31
0.0
  0
LINE
  5
45A
330
1F
100
AcDbEntity
  8
0-0
  6
JWW_DASHED1
 62
   120
370
     5
100
AcDbLine
 10
120.2817515775477
 20
382.5049446183376
 30
0.0
 11
370.281751577554
 21
632.5049446183446
 31
0.0
  0
LINE
  5
45B
330
1F
100
AcDbEntity
  8
0-0
  6
JWW_DASHED1
 62
   120
370
     5
100
AcDbLine
 10
120.281751577546
 20
389.5760124302038
 30
0.0
 11
370.2817515775523
 21
639.5760124302084
 31
0.0
  0
LINE
  5
45C
330
1F
100
AcDbEntity
  8
0-0
  6
JWW_DASHED1
 62
   120
370
     5
100
AcDbLine
 10
120.2817515775358
 20
396.6470802420594
 30
0.0
 11
370.2817515775591
 21
646.6470802420828
 31
0.0
  0
LINE
  5
45D
330
1F
100
AcDbEntity
  8
0-0
  6
JWW_DASHED1
 62
   120
370
     5
100
AcDbLine
 10
120.281751577546
 20
403.7181480539359
 30
0.0
 11
370.281751577554
 21
653.7181480539434
 31
0.0
  0
LINE
  5
45E
330
1F
100
AcDbEntity
  8
0-0
  6
JWW_DASHED1
 62
   120
370
     5
100
AcDbLine
 10
120.2817515775443
 20
410.7892158658017
 30
0.0
 11
370.2817515775506
 21
660.7892158658067
 31
0.0
  0
LINE
  5
45F
330
1F
100
AcDbEntity
  8
0-0
  6
JWW_DASHED1
 62
   120
370
     5
100
AcDbLine
 10
120.2817515775392
 20
417.8602836776628
 30
0.0
 11
370.2817515775608
 21
667.8602836776836
 31
0.0
  0
LINE
  5
460
330
1F
100
AcDbEntity
  8
0-0
  6
JWW_DASHED1
 62
   120
370
     5
100
AcDbLine
 10
120.2817515775443
 20
424.9313514895342
 30
0.0
 11
370.2817515775506
 21
674.9313514895412
 31
0.0
  0
LINE
  5
461
330
1F
100
AcDbEntity
  8
0-0
  6
JWW_DASHED1
 62
   120
370
     5
100
AcDbLine
 10
120.2817515775426
 20
432.0024193014
 30
0.0
 11
370.2817515775471
 21
682.002419301405
 31
0.0
  0
LINE
  5
462
330
1F
100
AcDbEntity
  8
0-0
  6
JWW_DASHED1
 62
   120
370
     5
100
AcDbLine
 10
120.2817515775375
 20
439.0734871132607
 30
0.0
 11
370.2817515775574
 21
689.0734871132811
 31
0.0
  0
LINE
  5
463
330
1F
100
AcDbEntity
  8
0-0
  6
JWW_DASHED1
 62
   120
370
     5
100
AcDbLine
 10
120.2817515775426
 20
446.1445549251329
 30
0.0
 11
370.2817515775488
 21
696.1445549251396
 31
0.0
  0
LINE
  5
464
330
1F
100
AcDbEntity
  8
0-0
  6
JWW_DASHED1
 62
   120
370
     5
100
AcDbLine
 10
120.2817515775528
 20
453.2156227370094
 30
0.0
 11
370.2817515775591
 21
703.2156227370161
 31
0.0
  0
LINE
  5
465
330
1F
100
AcDbEntity
  8
0-0
  6
JWW_DASHED1
 62
   120
370
     5
100
AcDbLine
 10
120.2817515775511
 20
460.2866905488748
 30
0.0
 11
370.2817515775557
 21
710.2866905488794
 31
0.0
  0
LINE
  5
466
330
1F
100
AcDbEntity
  8
0-0
  6
JWW_DASHED1
 62
   120
370
     5
100
AcDbLine
 10
120.2817515775409
 20
467.3577583607303
 30
0.0
 11
370.2817515775471
 21
717.3577583607378
 31
0.0
  0
LINE
  5
467
330
1F
100
AcDbEntity
  8
0-0
  6
JWW_DASHED1
 62
   120
370
     5
100
AcDbLine
 10
120.2817515775511
 20
474.4288261726077
 30
0.0
 11
370.2817515775574
 21
724.4288261726147
 31
0.0
  0
LINE
  5
468
330
1F
100
AcDbEntity
  8
0-0
  6
JWW_DASHED1
 62
   120
370
     5
100
AcDbLine
 10
120.2817515775494
 20
481.4998939844727
 30
0.0
 11
370.281751577554
 21
731.4998939844777
 31
0.0
  0
LINE
  5
469
330
1F
100
AcDbEntity
  8
0-0
  6
JWW_DASHED1
 62
   120
370
     5
100
AcDbLine
 10
120.2817515775392
 20
488.5709617963291
 30
0.0
 11
370.2817515775454
 21
738.5709617963366
 31
0.0
  0
LINE
  5
46A
330
1F
100
AcDbEntity
  8
0-0
  6
JWW_DASHED1
 62
   120
370
     5
100
AcDbLine
 10
120.2817515775494
 20
495.642029608206
 30
0.0
 11
370.2817515775557
 21
745.6420296082131
 31
0.0
  0
LINE
  5
46B
330
1F
100
AcDbEntity
  8
0-0
  6
JWW_DASHED1
 62
   120
370
     5
100
AcDbLine
 10
120.2817515775477
 20
502.713097420071
 30
0.0
 11
370.2817515775523
 21
752.713097420076
 31
0.0
  0
LINE
  5
46C
330
1F
100
AcDbEntity
  8
0-0
  6
JWW_DASHED1
 62
   120
370
     5
100
AcDbLine
 10
120.2817515775375
 20
509.7841652319274
 30
0.0
 11
370.2817515775608
 21
759.7841652319503
 31
0.0
  0
LINE
  5
46D
330
1F
100
AcDbEntity
  8
0-0
  6
JWW_DASHED1
 62
   120
370
     5
100
AcDbLine
 10
120.2817515775477
 20
516.8552330438043
 30
0.0
 11
370.281751577554
 21
766.855233043811
 31
0.0
  0
LINE
  5
46E
330
1F
100
AcDbEntity
  8
0-0
  6
JWW_DASHED1
 62
   120
370
     5
100
AcDbLine
 10
120.281751577546
 20
523.9263008556688
 30
0.0
 11
370.2817515775506
 21
773.9263008556734
 31
0.0
  0
LINE
  5
46F
330
1F
100
AcDbEntity
  8
0-0
  6
JWW_DASHED1
 62
   120
370
     5
100
AcDbLine
 10
120.2817515775358
 20
530.9973686675257
 30
0.0
 11
370.2817515775591
 21
780.9973686675486
 31
0.0
  0
LINE
  5
470
330
1F
100
AcDbEntity
  8
0-0
  6
JWW_DASHED1
 62
   120
370
     5
100
AcDbLine
 10
120.281751577546
 20
538.0684364794026
 30
0.0
 11
370.2817515775523
 21
788.0684364794093
 31
0.0
  0
LINE
  5
471
330
1F
100
AcDbEntity
  8
0-0
  6
JWW_DASHED1
 62
   120
370
     5
100
AcDbLine
 10
120.2817515775426
 20
545.1395042912671
 30
0.0
 11
370.2817515775488
 21
795.1395042912717
 31
0.0
  0
LINE
  5
472
330
1F
100
AcDbEntity
  8
0-0
  6
JWW_DASHED1
 62
   120
370
     5
100
AcDbLine
 10
120.2817515775375
 20
552.2105721031279
 30
0.0
 11
370.2817515775574
 21
802.2105721031486
 31
0.0
  0
LINE
  5
473
330
1F
100
AcDbEntity
  8
0-0
  6
JWW_DASHED1
 62
   120
370
     5
100
AcDbLine
 10
120.2817515775443
 20
559.2816399150009
 30
0.0
 11
370.2817515775506
 21
809.2816399150079
 31
0.0
  0
LINE
  5
474
330
1F
100
AcDbEntity
  8
0-0
  6
JWW_DASHED1
 62
   120
370
     5
100
AcDbLine
 10
120.2817515775528
 20
566.3527077268774
 30
0.0
 11
370.2817515775608
 21
816.3527077268845
 31
0.0
  0
LINE
  5
475
330
1F
100
AcDbEntity
  8
0-0
  6
JWW_DASHED1
 62
   120
370
     5
100
AcDbLine
 10
120.2817515775358
 20
573.4237755387262
 30
0.0
 11
370.2817515775557
 21
823.4237755387464
 31
0.0
  0
LINE
  5
476
330
1F
100
AcDbEntity
  8
0-0
  6
JWW_DASHED1
 62
   120
370
     5
100
AcDbLine
 10
120.2817515775426
 20
580.4948433505988
 30
0.0
 11
370.2817515775488
 21
830.494843350606
 31
0.0
  0
LINE
  5
477
330
1F
100
AcDbEntity
  8
0-0
  6
JWW_DASHED1
 62
   120
370
     5
100
AcDbLine
 10
120.2817515775528
 20
587.5659111624757
 30
0.0
 11
370.2817515775591
 21
837.5659111624828
 31
0.0
  0
LINE
  5
478
330
1F
100
AcDbEntity
  8
0-0
  6
JWW_DASHED1
 62
   120
370
     5
100
AcDbLine
 10
120.2817515775494
 20
594.6369789743399
 30
0.0
 11
370.281751577554
 21
844.6369789743444
 31
0.0
  0
LINE
  5
479
330
1F
100
AcDbEntity
  8
0-0
  6
JWW_DASHED1
 62
   120
370
     5
100
AcDbLine
 10
120.2817515775409
 20
601.7080467861975
 30
0.0
 11
370.2817515775471
 21
851.7080467862042
 31
0.0
  0
LINE
  5
47A
330
1F
100
AcDbEntity
  8
0-0
  6
JWW_DASHED1
 62
   120
370
     5
100
AcDbLine
 10
120.2817515775494
 20
608.779114598074
 30
0.0
 11
370.2817515775574
 21
858.7791145980812
 31
0.0
  0
LINE
  5
47B
330
1F
100
AcDbEntity
  8
0-0
  6
JWW_DASHED1
 62
   120
370
     5
100
AcDbLine
 10
120.2817515775477
 20
615.8501824099377
 30
0.0
 11
370.2817515775523
 21
865.8501824099427
 31
0.0
  0
LINE
  5
47C
330
1F
100
AcDbEntity
  8
0-0
  6
JWW_DASHED1
 62
   120
370
     5
100
AcDbLine
 10
120.2817515775392
 20
622.9212502217958
 30
0.0
 11
370.2817515775454
 21
872.9212502218026
 31
0.0
  0
LINE
  5
47D
330
1F
100
AcDbEntity
  8
0-0
  6
JWW_DASHED1
 62
   120
370
     5
100
AcDbLine
 10
120.2817515775494
 20
629.9923180336723
 30
0.0
 11
370.2817515775557
 21
879.9923180336795
 31
0.0
  0
LINE
  5
47E
330
1F
100
AcDbEntity
  8
0-0
  6
JWW_DASHED1
 62
   120
370
     5
100
AcDbLine
 10
120.281751577546
 20
637.063385845536
 30
0.0
 11
370.2817515775506
 21
887.0633858455406
 31
0.0
  0
LINE
  5
47F
330
1F
100
AcDbEntity
  8
0-0
  6
JWW_DASHED1
 62
   120
370
     5
100
AcDbLine
 10
120.2817515775375
 20
644.1344536573937
 30
0.0
 11
370.2817515775591
 21
894.1344536574165
 31
0.0
  0
LINE
  5
480
330
1F
100
AcDbEntity
  8
0-0
  6
JWW_DASHED1
 62
   120
370
     5
100
AcDbLine
 10
120.281751577546
 20
651.2055214692706
 30
0.0
 11
370.281751577554
 21
901.2055214692778
 31
0.0
  0
LINE
  5
481
330
1F
100
AcDbEntity
  8
0-0
  6
JWW_DASHED1
 62
   120
370
     5
100
AcDbLine
 10
120.2817515775443
 20
658.2765892811339
 30
0.0
 11
370.2817515775488
 21
908.2765892811384
 31
0.0
  0
LINE
  5
482
330
1F
100
AcDbEntity
  8
0-0
  6
JWW_DASHED1
 62
   120
370
     5
100
AcDbLine
 10
120.2817515775375
 20
665.347657092995
 30
0.0
 11
370.2817515775591
 21
915.3476570930153
 31
0.0
  0
LINE
  5
483
330
1F
100
AcDbEntity
  8
0-0
  6
JWW_DASHED1
 62
   120
370
     5
100
AcDbLine
 10
120.281751577546
 20
672.4187249048689
 30
0.0
 11
370.2817515775523
 21
922.4187249048761
 31
0.0
  0
LINE
  5
484
330
1F
100
AcDbEntity
  8
0-0
  6
JWW_DASHED1
 62
   120
370
     5
100
AcDbLine
 10
120.2817515775426
 20
679.4897927167322
 30
0.0
 11
370.2817515775471
 21
929.4897927167367
 31
0.0
  0
LINE
  5
485
330
1F
100
AcDbEntity
  8
0-0
  6
JWW_DASHED1
 62
   120
370
     5
100
AcDbLine
 10
120.2817515775358
 20
686.5608605285929
 30
0.0
 11
370.2817515775574
 21
936.5608605286136
 31
0.0
  0
LINE
  5
486
330
1F
100
AcDbEntity
  8
0-0
  6
JWW_DASHED1
 62
   120
370
     5
100
AcDbLine
 10
120.2817515775426
 20
693.6319283404672
 30
0.0
 11
370.2817515775506
 21
943.6319283404744
 31
0.0
  0
LINE
  5
487
330
1F
100
AcDbEntity
  8
0-0
  6
JWW_DASHED1
 62
   120
370
     5
100
AcDbLine
 10
460.2817515775574
 20
694.2206733709364
 30
0.0
 11
710.2608902996813
 21
944.1998120930582
 31
0.0
  0
LINE
  5
488
330
1F
100
AcDbEntity
  8
0-0
  6
JWW_DASHED1
 62
   120
370
     5
100
AcDbLine
 10
460.281751577554
 20
701.2917411827997
 30
0.0
 11
703.1898224878146
 21
944.1998120930582
 31
0.0
  0
LINE
  5
489
330
1F
100
AcDbEntity
  8
0-0
  6
JWW_DASHED1
 62
   120
370
     5
100
AcDbLine
 10
460.2817515775488
 20
708.3628089946604
 30
0.0
 11
696.1187546759462
 21
944.1998120930582
 31
0.0
  0
LINE
  5
48A
330
1F
100
AcDbEntity
  8
0-0
  6
JWW_DASHED1
 62
   120
370
     5
100
AcDbLine
 10
460.281751577554
 20
715.4338768065049
 30
0.0
 11
689.0476868641068
 21
944.1998120930582
 31
0.0
  0
LINE
  5
48B
330
1F
100
AcDbEntity
  8
0-0
  6
JWW_DASHED1
 62
   120
370
     5
100
AcDbLine
 10
460.2817515775625
 20
722.5049446183524
 30
0.0
 11
681.9766190522674
 21
944.1998120930582
 31
0.0
  0
LINE
  5
48C
330
1F
100
AcDbEntity
  8
0-0
  6
JWW_DASHED1
 62
   120
370
     5
100
AcDbLine
 10
460.281751577542
 20
729.5760124301994
 30
0.0
 11
674.9055512404008
 21
944.1998120930582
 31
0.0
  0
LINE
  5
48D
330
1F
100
AcDbEntity
  8
0-0
  6
JWW_DASHED1
 62
   120
370
     5
100
AcDbLine
 10
460.2817515775506
 20
736.6470802420738
 30
0.0
 11
667.8344834285341
 21
944.1998120930582
 31
0.0
  0
LINE
  5
48E
330
1F
100
AcDbEntity
  8
0-0
  6
JWW_DASHED1
 62
   120
370
     5
100
AcDbLine
 10
460.2817515775608
 20
743.7181480539502
 30
0.0
 11
660.7634156166674
 21
944.1998120930582
 31
0.0
  0
LINE
  5
48F
330
1F
100
AcDbEntity
  8
0-0
  6
JWW_DASHED1
 62
   120
370
     5
100
AcDbLine
 10
460.2817515775403
 20
750.7892158657974
 30
0.0
 11
653.6923478048008
 21
944.1998120930582
 31
0.0
  0
LINE
  5
490
330
1F
100
AcDbEntity
  8
0-0
  6
JWW_DASHED1
 62
   120
370
     5
100
AcDbLine
 10
460.2817515775506
 20
757.8602836776743
 30
0.0
 11
646.6212799929341
 21
944.1998120930582
 31
0.0
  0
LINE
  5
491
330
1F
100
AcDbEntity
  8
0-0
  6
JWW_DASHED1
 62
   120
370
     5
100
AcDbLine
 10
460.2817515775591
 20
764.9313514895485
 30
0.0
 11
639.5502121810674
 21
944.1998120930582
 31
0.0
  0
LINE
  5
492
330
1F
100
AcDbEntity
  8
0-0
  6
JWW_DASHED1
 62
   120
370
     5
100
AcDbLine
 10
460.281751577554
 20
772.0024193014112
 30
0.0
 11
632.4791443692025
 21
944.1998120930582
 31
0.0
  0
LINE
  5
493
330
1F
100
AcDbEntity
  8
0-0
  6
JWW_DASHED1
 62
   120
370
     5
100
AcDbLine
 10
460.2817515775488
 20
779.0734871132726
 30
0.0
 11
625.4080765573341
 21
944.1998120930582
 31
0.0
  0
LINE
  5
494
330
1F
100
AcDbEntity
  8
0-0
  6
JWW_DASHED1
 62
   120
370
     5
100
AcDbLine
 10
460.2817515775574
 20
786.1445549251468
 30
0.0
 11
618.3370087454674
 21
944.1998120930582
 31
0.0
  0
LINE
  5
495
330
1F
100
AcDbEntity
  8
0-0
  6
JWW_DASHED1
 62
   120
370
     5
100
AcDbLine
 10
460.2817515775676
 20
793.2156227370238
 30
0.0
 11
611.2659409336007
 21
944.1998120930582
 31
0.0
  0
LINE
  5
496
330
1F
100
AcDbEntity
  8
0-0
  6
JWW_DASHED1
 62
   120
370
     5
100
AcDbLine
 10
460.2817515775471
 20
800.28669054887
 30
0.0
 11
604.1948731217358
 21
944.1998120930582
 31
0.0
  0
LINE
  5
497
330
1F
100
AcDbEntity
  8
0-0
  6
JWW_DASHED1
 62
   120
370
     5
100
AcDbLine
 10
460.2817515775557
 20
807.3577583607456
 30
0.0
 11
597.1238053098674
 21
944.1998120930582
 31
0.0
  0
LINE
  5
498
330
1F
100
AcDbEntity
  8
0-0
  6
JWW_DASHED1
 62
   120
370
     5
100
AcDbLine
 10
460.2817515775659
 20
814.428826172622
 30
0.0
 11
590.0527374980007
 21
944.1998120930582
 31
0.0
  0
LINE
  5
499
330
1F
100
AcDbEntity
  8
0-0
  6
JWW_DASHED1
 62
   120
370
     5
100
AcDbLine
 10
460.2817515775454
 20
821.4998939844683
 30
0.0
 11
582.9816696861341
 21
944.1998120930582
 31
0.0
  0
LINE
  5
49A
330
1F
100
AcDbEntity
  8
0-0
  6
JWW_DASHED1
 62
   120
370
     5
100
AcDbLine
 10
460.281751577554
 20
828.5709617963435
 30
0.0
 11
575.9106018742674
 21
944.1998120930582
 31
0.0
  0
LINE
  5
49B
330
1F
100
AcDbEntity
  8
0-0
  6
JWW_DASHED1
 62
   120
370
     5
100
AcDbLine
 10
460.2817515775642
 20
835.6420296082204
 30
0.0
 11
568.8395340624007
 21
944.1998120930582
 31
0.0
  0
LINE
  5
49C
330
1F
100
AcDbEntity
  8
0-0
  6
JWW_DASHED1
 62
   120
370
     5
100
AcDbLine
 10
460.2817515775437
 20
842.7130974200666
 30
0.0
 11
561.7684662505358
 21
944.1998120930582
 31
0.0
  0
LINE
  5
49D
330
1F
100
AcDbEntity
  8
0-0
  6
JWW_DASHED1
 62
   120
370
     5
100
AcDbLine
 10
460.2817515775523
 20
849.7841652319418
 30
0.0
 11
554.6973984386691
 21
944.1998120930582
 31
0.0
  0
LINE
  5
49E
330
1F
100
AcDbEntity
  8
0-0
  6
JWW_DASHED1
 62
   120
370
     5
100
AcDbLine
 10
460.2817515775625
 20
856.8552330438187
 30
0.0
 11
547.6263306268007
 21
944.1998120930582
 31
0.0
  0
LINE
  5
49F
330
1F
100
AcDbEntity
  8
0-0
  6
JWW_DASHED1
 62
   120
370
     5
100
AcDbLine
 10
460.2817515775403
 20
863.9263008556649
 30
0.0
 11
540.555262814934
 21
944.1998120930582
 31
0.0
  0
LINE
  5
4A0
330
1F
100
AcDbEntity
  8
0-0
  6
JWW_DASHED1
 62
   120
370
     5
100
AcDbLine
 10
460.2817515775506
 20
870.9973686675405
 30
0.0
 11
533.4841950030691
 21
944.1998120930582
 31
0.0
  0
LINE
  5
4A1
330
1F
100
AcDbEntity
  8
0-0
  6
JWW_DASHED1
 62
   120
370
     5
100
AcDbLine
 10
460.2817515775608
 20
878.068436479417
 30
0.0
 11
526.4131271912024
 21
944.1998120930582
 31
0.0
  0
LINE
  5
4A2
330
1F
100
AcDbEntity
  8
0-0
  6
JWW_DASHED1
 62
   120
370
     5
100
AcDbLine
 10
460.2817515775386
 20
885.1395042912624
 30
0.0
 11
519.342059379334
 21
944.1998120930582
 31
0.0
  0
LINE
  5
4A3
330
1F
100
AcDbEntity
  8
0-0
  6
JWW_DASHED1
 62
   120
370
     5
100
AcDbLine
 10
460.2817515775488
 20
892.2105721031393
 30
0.0
 11
512.2709915674691
 21
944.1998120930582
 31
0.0
  0
LINE
  5
4A4
330
1F
100
AcDbEntity
  8
0-0
  6
JWW_DASHED1
 62
   120
370
     5
100
AcDbLine
 10
460.2817515775591
 20
899.2816399150153
 30
0.0
 11
505.1999237556007
 21
944.1998120930582
 31
0.0
  0
LINE
  5
4A5
330
1F
100
AcDbEntity
  8
0-0
  6
JWW_DASHED1
 62
   120
370
     5
100
AcDbLine
 10
460.2817515775676
 20
906.3527077268916
 30
0.0
 11
498.1288559437357
 21
944.1998120930582
 31
0.0
  0
LINE
  5
4A6
330
1F
100
AcDbEntity
  8
0-0
  6
JWW_DASHED1
 62
   120
370
     5
100
AcDbLine
 10
460.2817515775471
 20
913.4237755387371
 30
0.0
 11
491.0577881318674
 21
944.1998120930582
 31
0.0
  0
LINE
  5
4A7
330
1F
100
AcDbEntity
  8
0-0
  6
JWW_DASHED1
 62
   120
370
     5
100
AcDbLine
 10
460.2817515775574
 20
920.4948433506136
 30
0.0
 11
483.9867203200007
 21
944.1998120930582
 31
0.0
  0
LINE
  5
4A8
330
1F
100
AcDbEntity
  8
0-0
  6
JWW_DASHED1
 62
   120
370
     5
100
AcDbLine
 10
460.2817515775659
 20
927.56591116249
 30
0.0
 11
476.9156525081358
 21
944.1998120930582
 31
0.0
  0
LINE
  5
4A9
330
1F
100
AcDbEntity
  8
0-0
  6
JWW_DASHED1
 62
   120
370
     5
100
AcDbLine
 10
460.2817515775454
 20
934.6369789743354
 30
0.0
 11
469.8445846962674
 21
944.1998120930582
 31
0.0
  0
LINE
  5
4AA
330
1F
100
AcDbEntity
  8
0-0
  6
JWW_DASHED1
 62
   120
370
     5
100
AcDbLine
 10
460.2817515775557
 20
941.7080467862119
 30
0.0
 11
462.7735168844007
 21
944.1998120930582
 31
0.0
  0
LINE
  5
4AB
330
1F
100
AcDbEntity
  8
0-0
  6
JWW_DASHED1
 62
   120
370
     5
100
AcDbLine
 10
120.2817515775528
 20
700.7029961523441
 30
0.0
 11
363.7785675182674
 21
944.1998120930582
 31
0.0
  0
LINE
  5
4AC
330
1F
100
AcDbEntity
  8
0-0
  6
JWW_DASHED1
 62
   120
370
     5
100
AcDbLine
 10
120.2817515775494
 20
707.7740639642068
 30
0.0
 11
356.7074997064007
 21
944.1998120930582
 31
0.0
  0
LINE
  5
4AD
330
1F
100
AcDbEntity
  8
0-0
  6
JWW_DASHED1
 62
   120
370
     5
100
AcDbLine
 10
120.2817515775426
 20
714.8451317760655
 30
0.0
 11
349.636431894534
 21
944.1998120930582
 31
0.0
  0
LINE
  5
4AE
330
1F
100
AcDbEntity
  8
0-0
  6
JWW_DASHED1
 62
   120
370
     5
100
AcDbLine
 10
120.2817515775511
 20
721.916199587942
 30
0.0
 11
342.5653640826691
 21
944.1998120930582
 31
0.0
  0
LINE
  5
4AF
330
1F
100
AcDbEntity
  8
0-0
  6
JWW_DASHED1
 62
   120
370
     5
100
AcDbLine
 10
120.2817515775477
 20
728.9872673998049
 30
0.0
 11
335.4942962708007
 21
944.1998120930582
 31
0.0
  0
LINE
  5
4B0
330
1F
100
AcDbEntity
  8
0-0
  6
JWW_DASHED1
 62
   120
370
     5
100
AcDbLine
 10
120.2817515775392
 20
736.0583352116638
 30
0.0
 11
328.423228458934
 21
944.1998120930582
 31
0.0
  0
LINE
  5
4B1
330
1F
100
AcDbEntity
  8
0-0
  6
JWW_DASHED1
 62
   120
370
     5
100
AcDbLine
 10
120.2817515775494
 20
743.1294030235401
 30
0.0
 11
321.3521606470674
 21
944.1998120930582
 31
0.0
  0
LINE
  5
4B2
330
1F
100
AcDbEntity
  8
0-0
  6
JWW_DASHED1
 62
   120
370
     5
100
AcDbLine
 10
120.281751577546
 20
750.2004708354032
 30
0.0
 11
314.2810928352007
 21
944.1998120930582
 31
0.0
  0
LINE
  5
4B3
330
1F
100
AcDbEntity
  8
0-0
  6
JWW_DASHED1
 62
   120
370
     5
100
AcDbLine
 10
120.2817515775392
 20
757.2715386472621
 30
0.0
 11
307.2100250233357
 21
944.1998120930582
 31
0.0
  0
LINE
  5
4B4
330
1F
100
AcDbEntity
  8
0-0
  6
JWW_DASHED1
 62
   120
370
     5
100
AcDbLine
 10
120.281751577546
 20
764.3426064591092
 30
0.0
 11
300.1389572114963
 21
944.1998120930582
 31
0.0
  0
LINE
  5
4B5
330
1F
100
AcDbEntity
  8
0-0
  6
JWW_DASHED1
 62
   120
370
     5
100
AcDbLine
 10
120.2817515775545
 20
771.4136742709562
 30
0.0
 11
293.0678893996553
 21
944.1998120930582
 31
0.0
  0
LINE
  5
4B6
330
1F
100
AcDbEntity
  8
0-0
  6
JWW_DASHED1
 62
   120
370
     5
100
AcDbLine
 10
120.2817515775341
 20
778.4847420828029
 30
0.0
 11
285.9968215877903
 21
944.1998120930582
 31
0.0
  0
LINE
  5
4B7
330
1F
100
AcDbEntity
  8
0-0
  6
JWW_DASHED1
 62
   120
370
     5
100
AcDbLine
 10
120.2817515775426
 20
785.5558098946781
 30
0.0
 11
278.9257537759236
 21
944.1998120930582
 31
0.0
  0
LINE
  5
4B8
330
1F
100
AcDbEntity
  8
0-0
  6
JWW_DASHED1
 62
   120
370
     5
100
AcDbLine
 10
120.2817515775528
 20
792.6268777065545
 30
0.0
 11
271.8546859640552
 21
944.1998120930582
 31
0.0
  0
LINE
  5
4B9
330
1F
100
AcDbEntity
  8
0-0
  6
JWW_DASHED1
 62
   120
370
     5
100
AcDbLine
 10
120.2817515775477
 20
799.697945518417
 30
0.0
 11
264.7836181521886
 21
944.1998120930582
 31
0.0
  0
LINE
  5
4BA
330
1F
100
AcDbEntity
  8
0-0
  6
JWW_DASHED1
 62
   120
370
     5
100
AcDbLine
 10
120.2817515775409
 20
806.7690133302764
 30
0.0
 11
257.7125503403219
 21
944.1998120930582
 31
0.0
  0
LINE
  5
4BB
330
1F
100
AcDbEntity
  8
0-0
  6
JWW_DASHED1
 62
   120
370
     5
100
AcDbLine
 10
120.2817515775511
 20
813.8400811421528
 30
0.0
 11
250.6414825284552
 21
944.1998120930582
 31
0.0
  0
LINE
  5
4BC
330
1F
100
AcDbEntity
  8
0-0
  6
JWW_DASHED1
 62
   120
370
     5
100
AcDbLine
 10
120.281751577546
 20
820.9111489540153
 30
0.0
 11
243.5704147165886
 21
944.1998120930582
 31
0.0
  0
LINE
  5
4BD
330
1F
100
AcDbEntity
  8
0-0
  6
JWW_DASHED1
 62
   120
370
     5
100
AcDbLine
 10
120.2817515775392
 20
827.9822167658742
 30
0.0
 11
236.4993469047219
 21
944.1998120930582
 31
0.0
  0
LINE
  5
4BE
330
1F
100
AcDbEntity
  8
0-0
  6
JWW_DASHED1
 62
   120
370
     5
100
AcDbLine
 10
120.2817515775494
 20
835.0532845777511
 30
0.0
 11
229.4282790928569
 21
944.1998120930582
 31
0.0
  0
LINE
  5
4BF
330
1F
100
AcDbEntity
  8
0-0
  6
JWW_DASHED1
 62
   120
370
     5
100
AcDbLine
 10
120.2817515775443
 20
842.1243523896131
 30
0.0
 11
222.3572112809903
 21
944.1998120930582
 31
0.0
  0
LINE
  5
4C0
330
1F
100
AcDbEntity
  8
0-0
  6
JWW_DASHED1
 62
   120
370
     5
100
AcDbLine
 10
120.2817515775375
 20
849.195420201473
 30
0.0
 11
215.2861434691219
 21
944.1998120930582
 31
0.0
  0
LINE
  5
4C1
330
1F
100
AcDbEntity
  8
0-0
  6
JWW_DASHED1
 62
   120
370
     5
100
AcDbLine
 10
120.2817515775477
 20
856.2664880133494
 30
0.0
 11
208.2150756572552
 21
944.1998120930582
 31
0.0
  0
LINE
  5
4C2
330
1F
100
AcDbEntity
  8
0-0
  6
JWW_DASHED1
 62
   120
370
     5
100
AcDbLine
 10
120.2817515775426
 20
863.3375558252114
 30
0.0
 11
201.1440078453886
 21
944.1998120930582
 31
0.0
  0
LINE
  5
4C3
330
1F
100
AcDbEntity
  8
0-0
  6
JWW_DASHED1
 62
   120
370
     5
100
AcDbLine
 10
120.2817515775358
 20
870.4086236370717
 30
0.0
 11
194.0729400335236
 21
944.1998120930582
 31
0.0
  0
LINE
  5
4C4
330
1F
100
AcDbEntity
  8
0-0
  6
JWW_DASHED1
 62
   120
370
     5
100
AcDbLine
 10
120.281751577546
 20
877.4796914489477
 30
0.0
 11
187.0018722216552
 21
944.1998120930582
 31
0.0
  0
LINE
  5
4C5
330
1F
100
AcDbEntity
  8
0-0
  6
JWW_DASHED1
 62
   120
370
     5
100
AcDbLine
 10
120.2817515775562
 20
884.5507592608246
 30
0.0
 11
179.9308044097885
 21
944.1998120930582
 31
0.0
  0
LINE
  5
4C6
330
1F
100
AcDbEntity
  8
0-0
  6
JWW_DASHED1
 62
   120
370
     5
100
AcDbLine
 10
120.2817515775341
 20
891.62182707267
 30
0.0
 11
172.8597365979219
 21
944.1998120930582
 31
0.0
  0
LINE
  5
4C7
330
1F
100
AcDbEntity
  8
0-0
  6
JWW_DASHED1
 62
   120
370
     5
100
AcDbLine
 10
120.2817515775426
 20
898.692894884546
 30
0.0
 11
165.7886687860569
 21
944.1998120930582
 31
0.0
  0
LINE
  5
4C8
330
1F
100
AcDbEntity
  8
0-0
  6
JWW_DASHED1
 62
   120
370
     5
100
AcDbLine
 10
120.2817515775545
 20
905.7639626964229
 30
0.0
 11
158.7176009741885
 21
944.1998120930582
 31
0.0
  0
LINE
  5
4C9
330
1F
100
AcDbEntity
  8
0-0
  6
JWW_DASHED1
 62
   120
370
     5
100
AcDbLine
 10
120.2817515775477
 20
912.8350305082837
 30
0.0
 11
151.6465331623219
 21
944.1998120930582
 31
0.0
  0
LINE
  5
4CA
330
1F
100
AcDbEntity
  8
0-0
  6
JWW_DASHED1
 62
   120
370
     5
100
AcDbLine
 10
120.2817515775426
 20
919.9060983201443
 30
0.0
 11
144.5754653504552
 21
944.1998120930582
 31
0.0
  0
LINE
  5
4CB
330
1F
100
AcDbEntity
  8
0-0
  6
JWW_DASHED1
 62
   120
370
     5
100
AcDbLine
 10
120.2817515775528
 20
926.9771661320212
 30
0.0
 11
137.5043975385885
 21
944.1998120930582
 31
0.0
  0
LINE
  5
4CC
330
1F
100
AcDbEntity
  8
0-0
  6
JWW_DASHED1
 62
   120
370
     5
100
AcDbLine
 10
120.281751577546
 20
934.048233943882
 30
0.0
 11
130.4333297267219
 21
944.1998120930582
 31
0.0
  0
LINE
  5
4CD
330
1F
100
AcDbEntity
  8
0-0
  6
JWW_DASHED1
 62
   120
370
     5
100
AcDbLine
 10
120.2817515775409
 20
941.1193017557426
 30
0.0
 11
123.3622619148552
 21
944.1998120930582
 31
0.0
  0
LWPOLYLINE
  5
4CE
330
1F
100
AcDbEntity
  8
寸法
  6
Continuous
 62
     7
370
     9
100
AcDbPolyline
 90
        4
 70
     1
 43
3.0
 10
-1295.218248422453
 20
-912.3001879069411
 42
0.4142135623731
 10
-1296.718248422453
 20
-910.8001879069411
 42
0.4142135623731
 10
-1298.218248422453
 20
-912.3001879069411
 42
0.4142135623731
 10
-1296.718248422453
 20
-913.8001879069411
 42
0.4142135623731
  0
LINE
  5
4CF
330
1F
100
AcDbEntity
  8
寸法
  6
Continuous
 62
   120
370
     5
100
AcDbLine
 10
-1296.718248422453
 20
-912.3001879069411
 30
0.0
 11
-846.7182484224528
 21
-912.3001879069411
 31
0.0
  0
LINE
  5
4D0
330
1F
100
AcDbEntity
  8
寸法
  6
Continuous
 62
   120
370
     5
100
AcDbLine
 10
-766.7182484224522
 20
-1362.300187906941
 30
0.0
 11
-766.7182484224522
 21
-962.3001879069408
 31
0.0
  0
LINE
  5
4D1
330
1F
100
AcDbEntity
  8
寸法
  6
Continuous
 62
   120
370
     5
100
AcDbLine
 10
-796.7182484224522
 20
-1562.30018790694
 30
0.0
 11
-796.7182484224522
 21
-962.3001879069408
 31
0.0
  0
LINE
  5
4D2
330
1F
100
AcDbEntity
  8
寸法
  6
Continuous
 62
   120
370
     5
100
AcDbLine
 10
820.2817515775471
 20
-1162.30018790694
 30
0.0
 11
820.2817515775471
 21
-962.3001879069408
 31
0.0
  0
LINE
  5
4D3
330
1F
100
AcDbEntity
  8
寸法
  6
Continuous
 62
   120
370
     5
100
AcDbLine
 10
-766.7182484224522
 20
-1362.300187906941
 30
0.0
 11
817.2817515775464
 21
-1362.300187906941
 31
0.0
  0
LINE
  5
4D4
330
1F
100
AcDbEntity
  8
寸法
  6
Continuous
 62
   120
370
     5
100
AcDbLine
 10
817.2817515775464
 20
-1362.300187906941
 30
0.0
 11
817.2817515775464
 21
-962.3001879069408
 31
0.0
  0
LINE
  5
4D5
330
1F
100
AcDbEntity
  8
寸法
  6
Continuous
 62
   120
370
     5
100
AcDbLine
 10
-796.7182484224522
 20
-1562.30018790694
 30
0.0
 11
847.2817515775464
 21
-1562.30018790694
 31
0.0
  0
LINE
  5
4D6
330
1F
100
AcDbEntity
  8
寸法
  6
Continuous
 62
   120
370
     5
100
AcDbLine
 10
847.2817515775464
 20
-1562.30018790694
 30
0.0
 11
847.2817515775464
 21
-962.3001879069408
 31
0.0
  0
LINE
  5
4D7
330
1F
100
AcDbEntity
  8
寸法
  6
Continuous
 62
   120
370
     5
100
AcDbLine
 10
10.28175157754715
 20
-1162.30018790694
 30
0.0
 11
10.28175157754715
 21
-962.3001879069408
 31
0.0
  0
LINE
  5
4D8
330
1F
100
AcDbEntity
  8
寸法
  6
Continuous
 62
   120
370
     5
100
AcDbLine
 10
10.28175157754715
 20
-1162.30018790694
 30
0.0
 11
820.2817515775471
 21
-1162.30018790694
 31
0.0
  0
LWPOLYLINE
  5
4D9
330
1F
100
AcDbEntity
  8
寸法
  6
Continuous
 62
     7
370
     9
100
AcDbPolyline
 90
        4
 70
     1
 43
3.0
 10
-765.2182484224522
 20
-1362.300187906941
 42
0.4142135623731
 10
-766.7182484224522
 20
-1360.800187906941
 42
0.4142135623731
 10
-768.2182484224522
 20
-1362.300187906941
 42
0.4142135623731
 10
-766.7182484224522
 20
-1363.800187906941
 42
0.4142135623731
  0
LWPOLYLINE
  5
4DA
330
1F
100
AcDbEntity
  8
寸法
  6
Continuous
 62
     7
370
     9
100
AcDbPolyline
 90
        4
 70
     1
 43
3.0
 10
-795.2182484224522
 20
-1562.30018790694
 42
0.4142135623731
 10
-796.7182484224522
 20
-1560.80018790694
 42
0.4142135623731
 10
-798.2182484224522
 20
-1562.30018790694
 42
0.4142135623731
 10
-796.7182484224522
 20
-1563.80018790694
 42
0.4142135623731
  0
LWPOLYLINE
  5
4DB
330
1F
100
AcDbEntity
  8
寸法
  6
Continuous
 62
     7
370
     9
100
AcDbPolyline
 90
        4
 70
     1
 43
3.0
 10
821.7817515775471
 20
-1162.30018790694
 42
0.4142135623731
 10
820.2817515775471
 20
-1160.800187906941
 42
0.4142135623731
 10
818.7817515775471
 20
-1162.30018790694
 42
0.4142135623731
 10
820.2817515775471
 20
-1163.80018790694
 42
0.4142135623731
  0
LWPOLYLINE
  5
4DC
330
1F
100
AcDbEntity
  8
寸法
  6
Continuous
 62
     7
370
     9
100
AcDbPolyline
 90
        4
 70
     1
 43
3.0
 10
818.7817515775464
 20
-1362.300187906941
 42
0.4142135623731
 10
817.2817515775464
 20
-1360.800187906941
 42
0.4142135623731
 10
815.7817515775464
 20
-1362.300187906941
 42
0.4142135623731
 10
817.2817515775464
 20
-1363.800187906941
 42
0.4142135623731
  0
LWPOLYLINE
  5
4DD
330
1F
100
AcDbEntity
  8
寸法
  6
Continuous
 62
     7
370
     9
100
AcDbPolyline
 90
        4
 70
     1
 43
3.0
 10
848.7817515775464
 20
-1562.30018790694
 42
0.4142135623731
 10
847.2817515775464
 20
-1560.80018790694
 42
0.4142135623731
 10
845.7817515775464
 20
-1562.30018790694
 42
0.4142135623731
 10
847.2817515775464
 20
-1563.80018790694
 42
0.4142135623731
  0
LWPOLYLINE
  5
4DE
330
1F
100
AcDbEntity
  8
寸法
  6
Continuous
 62
     7
370
     9
100
AcDbPolyline
 90
        4
 70
     1
 43
3.0
 10
11.78175157754715
 20
-1162.30018790694
 42
0.4142135623731
 10
10.28175157754715
 20
-1160.800187906941
 42
0.4142135623731
 10
8.781751577547151
 20
-1162.30018790694
 42
0.4142135623731
 10
10.28175157754715
 20
-1163.80018790694
 42
0.4142135623731
  0
LINE
  5
4DF
330
1F
100
AcDbEntity
  8
寸法
  6
Continuous
 62
   120
370
     5
100
AcDbLine
 10
-1296.718248422453
 20
1123.19981209306
 30
0.0
 11
-1296.718248422453
 21
-912.3001879069411
 31
0.0
  0
LINE
  5
4E0
330
1F
100
AcDbEntity
  8
寸法
  6
Continuous
 62
   120
370
     5
100
AcDbLine
 10
-1296.718248422453
 20
1123.19981209306
 30
0.0
 11
-846.7182484224528
 21
1123.19981209306
 31
0.0
  0
LINE
  5
4E1
330
1F
100
AcDbEntity
  8
寸法
  6
Continuous
 62
   120
370
     5
100
AcDbLine
 10
-1096.718248422452
 20
-903.8001879069411
 30
0.0
 11
-846.7182484224528
 21
-903.8001879069411
 31
0.0
  0
LWPOLYLINE
  5
4E2
330
1F
100
AcDbEntity
  8
寸法
  6
Continuous
 62
     7
370
     9
100
AcDbPolyline
 90
        4
 70
     1
 43
3.0
 10
-1295.218248422453
 20
1123.19981209306
 42
0.4142135623731
 10
-1296.718248422453
 20
1124.69981209306
 42
0.4142135623731
 10
-1298.218248422453
 20
1123.19981209306
 42
0.4142135623731
 10
-1296.718248422453
 20
1121.69981209306
 42
0.4142135623731
  0
LWPOLYLINE
  5
4E3
330
1F
100
AcDbEntity
  8
寸法
  6
Continuous
 62
     7
370
     9
100
AcDbPolyline
 90
        4
 70
     1
 43
3.0
 10
-1095.218248422452
 20
-903.8001879069411
 42
0.4142135623731
 10
-1096.718248422452
 20
-902.3001879069411
 42
0.4142135623731
 10
-1098.218248422452
 20
-903.8001879069411
 42
0.4142135623731
 10
-1096.718248422452
 20
-905.3001879069412
 42
0.4142135623731
  0
LINE
  5
4E4
330
1F
100
AcDbEntity
  8
寸法
  6
Continuous
 62
   120
370
     5
100
AcDbLine
 10
-1096.718248422452
 20
1079.199812093059
 30
0.0
 11
-846.7182484224528
 21
1079.199812093059
 31
0.0
  0
LINE
  5
4E5
330
1F
100
AcDbEntity
  8
寸法
  6
Continuous
 62
   120
370
     5
100
AcDbLine
 10
-1096.718248422452
 20
1079.199812093059
 30
0.0
 11
-1096.718248422452
 21
-903.8001879069411
 31
0.0
  0
LWPOLYLINE
  5
4E6
330
1F
100
AcDbEntity
  8
寸法
  6
Continuous
 62
     7
370
     9
100
AcDbPolyline
 90
        4
 70
     1
 43
3.0
 10
-1095.218248422452
 20
1079.199812093059
 42
0.4142135623731
 10
-1096.718248422452
 20
1080.699812093059
 42
0.4142135623731
 10
-1098.218248422452
 20
1079.199812093059
 42
0.4142135623731
 10
-1096.718248422452
 20
1077.699812093059
 42
0.4142135623731
  0
MTEXT
  5
4E7
330
1F
100
AcDbEntity
  8
寸法
  6
Continuous
 62
     7
370
    70
100
AcDbMText
 10
-1311.718248422453
 20
-124.4751879069427
 30
0.0
 40
57.14999999999999
 41
412.5
 46
0.0
 71
     7
 72
     1
  1
{\fＭＳ ゴシック|b0|i0|c128|p49;枠外＝2,035}
 11
6.123031769111886E-17
 21
1.0
 31
0.0
 73
     1
 44
1.0
  0
MTEXT
  5
4E8
330
1F
100
AcDbEntity
  8
寸法
  6
Continuous
 62
     7
370
    70
100
AcDbMText
 10
-1111.718248422452
 20
-130.4751879069406
 30
0.0
 40
57.14999999999999
 41
412.5
 46
0.0
 71
     7
 72
     1
  1
{\fＭＳ ゴシック|b0|i0|c128|p49;ＤＨ＝1,983}
 11
6.123031769111886E-17
 21
1.0
 31
0.0
 73
     1
 44
1.0
  0
MTEXT
  5
4E9
330
1F
100
AcDbEntity
  8
寸法
  6
Continuous
 62
     7
370
   211
100
AcDbMText
 10
246.5317515775471
 20
-1156.22518790694
 30
0.0
 40
57.15
 41
337.5
 46
0.0
 71
     7
 72
     1
  1
{\fＭＳ ゴシック|b0|i0|c128|p49;ＤＷ＝810}
 73
     1
 44
1.0
  0
MTEXT
  5
4EA
330
1F
100
AcDbEntity
  8
寸法
  6
Continuous
 62
     7
370
   211
100
AcDbMText
 10
-180.9682484224528
 20
-1356.225187906941
 30
0.0
 40
57.14999999999999
 41
412.5
 46
0.0
 71
     7
 72
     1
  1
{\fＭＳ ゴシック|b0|i0|c128|p49;枠内＝1,584}
 73
     1
 44
1.0
  0
MTEXT
  5
4EB
330
1F
100
AcDbEntity
  8
寸法
  6
Continuous
 62
     7
370
   211
100
AcDbMText
 10
-180.9682484224528
 20
-1556.225187906941
 30
0.0
 40
57.14999999999999
 41
412.5
 46
0.0
 71
     7
 72
     1
  1
{\fＭＳ ゴシック|b0|i0|c128|p49;枠外＝1,644}
 73
     1
 44
1.0
  0
ENDSEC
  0
SECTION
  2
OBJECTS
  0
DICTIONARY
  5
C
330
0
100
AcDbDictionary
281
     1
  3
ACAD_GROUP
350
D
  3
ACAD_LAYOUT
350
1A
  3
ACAD_MATERIAL
350
3B
  3
ACAD_MLEADERSTYLE
350
4ED
  3
ACAD_MLINESTYLE
350
17
  3
ACAD_PLOTSETTINGS
350
19
  3
ACAD_PLOTSTYLENAME
350
E
  3
ACAD_TABLESTYLE
350
4EC
  3
ACAD_VISUALSTYLE
350
2A
  0
DICTIONARY
  5
D
102
{ACAD_REACTORS
330
C
102
}
330
C
100
AcDbDictionary
281
     1
  0
DICTIONARY
  5
1A
102
{ACAD_REACTORS
330
C
102
}
330
C
100
AcDbDictionary
281
     1
  3
Layout1
350
1E
  3
Layout2
350
26
  3
Model
350
22
  0
DICTIONARY
  5
3B
102
{ACAD_REACTORS
330
C
102
}
330
C
100
AcDbDictionary
281
     1
  3
ByBlock
350
3D
  3
ByLayer
350
3C
  3
Global
350
3E
  0
DICTIONARY
  5
4ED
102
{ACAD_REACTORS
330
C
102
}
330
C
100
AcDbDictionary
281
     1
  0
DICTIONARY
  5
17
102
{ACAD_REACTORS
330
C
102
}
330
C
100
AcDbDictionary
281
     1
  3
Standard
350
18
  0
DICTIONARY
  5
19
102
{ACAD_REACTORS
330
C
102
}
330
C
100
AcDbDictionary
281
     1
  0
ACDBDICTIONARYWDFLT
  5
E
102
{ACAD_REACTORS
330
C
102
}
330
C
100
AcDbDictionary
281
     1
  3
Normal
350
F
100
AcDbDictionaryWithDefault
340
F
  0
DICTIONARY
  5
4EC
102
{ACAD_REACTORS
330
C
102
}
330
C
100
AcDbDictionary
281
     1
  0
DICTIONARY
  5
2A
102
{ACAD_REACTORS
330
C
102
}
330
C
100
AcDbDictionary
281
     1
  3
2dWireframe
350
2F
  3
3D Hidden
350
31
  3
3dWireframe
350
30
  3
Basic
350
32
  3
Brighten
350
36
  3
ColorChange
350
3A
  3
Conceptual
350
34
  3
Dim
350
35
  3
Facepattern
350
39
  3
Flat
350
2B
  3
FlatWithEdges
350
2C
  3
Gouraud
350
2D
  3
GouraudWithEdges
350
2E
  3
Linepattern
350
38
  3
Realistic
350
33
  3
Thicken
350
37
  0
LAYOUT
  5
1E
102
{ACAD_REACTORS
330
1A
102
}
330
1A
100
AcDbPlotSettings
  1

  2
none_device
  4

  6

 40
0.0
 41
0.0
 42
0.0
 43
0.0
 44
0.0
 45
0.0
 46
0.0
 47
0.0
 48
0.0
 49
0.0
140
0.0
141
0.0
142
1.0
143
1.0
 70
   688
 72
     0
 73
     0
 74
     5
  7

 75
    16
 76
     0
 77
     5
 78
   300
147
1.0
148
0.0
149
0.0
100
AcDbLayout
  1
Layout1
 70
     1
 71
     1
 10
0.0
 20
0.0
 11
420.0
 21
297.0
 12
0.0
 22
0.0
 32
0.0
 14
1.000000000000000E+20
 24
1.000000000000000E+20
 34
1.000000000000000E+20
 15
-1.000000000000000E+20
 25
-1.000000000000000E+20
 35
-1.000000000000000E+20
146
0.0
 13
0.0
 23
0.0
 33
0.0
 16
1.0
 26
0.0
 36
0.0
 17
0.0
 27
1.0
 37
0.0
 76
     0
330
1B
  0
LAYOUT
  5
26
102
{ACAD_REACTORS
330
1A
102
}
330
1A
100
AcDbPlotSettings
  1

  2
none_device
  4

  6

 40
0.0
 41
0.0
 42
0.0
 43
0.0
 44
0.0
 45
0.0
 46
0.0
 47
0.0
 48
0.0
 49
0.0
140
0.0
141
0.0
142
1.0
143
1.0
 70
   688
 72
     0
 73
     0
 74
     5
  7

 75
    16
 76
     0
 77
     5
 78
   300
147
1.0
148
0.0
149
0.0
100
AcDbLayout
  1
Layout2
 70
     1
 71
     2
 10
0.0
 20
0.0
 11
0.0
 21
0.0
 12
0.0
 22
0.0
 32
0.0
 14
0.0
 24
0.0
 34
0.0
 15
0.0
 25
0.0
 35
0.0
146
0.0
 13
0.0
 23
0.0
 33
0.0
 16
1.0
 26
0.0
 36
0.0
 17
0.0
 27
1.0
 37
0.0
 76
     0
330
23
  0
LAYOUT
  5
22
102
{ACAD_REACTORS
330
1A
102
}
330
1A
100
AcDbPlotSettings
  1

  2
none_device
  4

  6

 40
0.0
 41
0.0
 42
0.0
 43
0.0
 44
0.0
 45
0.0
 46
0.0
 47
0.0
 48
0.0
 49
0.0
140
0.0
141
0.0
142
1.0
143
1.0
 70
  1712
 72
     0
 73
     0
 74
     0
  7

 75
     0
 76
     0
 77
     5
 78
   300
147
1.0
148
0.0
149
0.0
100
AcDbLayout
  1
Model
 70
     1
 71
     0
 10
-4455.0
 20
-3150.0
 11
4455.0
 21
3150.0
 12
0.0
 22
0.0
 32
0.0
 14
-4455.0
 24
-3150.0
 34
0.0
 15
4455.0
 25
3150.0
 35
0.0
146
0.0
 13
0.0
 23
0.0
 33
0.0
 16
1.0
 26
0.0
 36
0.0
 17
0.0
 27
1.0
 37
0.0
 76
     0
330
1F
331
29
  0
MATERIAL
  5
3D
102
{ACAD_REACTORS
330
3B
102
}
330
3B
100
AcDbMaterial
  1
ByBlock
 72
     1
 94
      127
  0
MATERIAL
  5
3C
102
{ACAD_REACTORS
330
3B
102
}
330
3B
100
AcDbMaterial
  1
ByLayer
 72
     1
 94
      127
  0
MATERIAL
  5
3E
102
{ACAD_REACTORS
330
3B
102
}
330
3B
100
AcDbMaterial
  1
Global
 72
     1
 94
      127
  0
MLINESTYLE
  5
18
102
{ACAD_REACTORS
330
17
102
}
330
17
100
AcDbMlineStyle
  2
Standard
 70
     0
  3

 62
   256
 51
90.0
 52
90.0
 71
     2
 49
0.5
 62
   256
  6
BYLAYER
 49
-0.5
 62
   256
  6
BYLAYER
  0
ACDBPLACEHOLDER
  5
F
102
{ACAD_REACTORS
330
E
102
}
330
E
  0
VISUALSTYLE
  5
2F
102
{ACAD_REACTORS
330
2A
102
}
330
2A
100
AcDbVisualStyle
  2
2dWireframe
 70
     4
177
     2
291
     0
 71
     0
176
     1
 72
     2
176
     1
 73
     0
176
     1
 90
        0
176
     1
 40
-0.6
176
     1
 41
-30.0
176
     1
 62
     5
 63
     7
421
 16777215
176
     1
 74
     1
176
     1
 91
        4
176
     1
 64
     7
176
     1
 65
   257
176
     1
 75
     1
176
     1
175
     1
176
     1
 42
1.0
176
     1
 92
        0
176
     1
 66
   257
176
     1
 43
1.0
176
     1
 76
     1
176
     1
 77
     6
176
     1
 78
     2
176
     1
 67
     7
176
     1
 79
     5
176
     1
170
     0
176
     1
171
     0
176
     1
290
     0
176
     1
 93
        1
176
     1
 44
0.0
176
     1
173
     0
176
     1
  0
VISUALSTYLE
  5
31
102
{ACAD_REACTORS
330
2A
102
}
330
2A
100
AcDbVisualStyle
  2
3D Hidden
 70
     6
177
     2
291
     0
 71
     1
176
     1
 72
     2
176
     1
 73
     2
176
     1
 90
        0
176
     1
 40
-0.6
176
     1
 41
-30.0
176
     1
 62
     5
 63
     7
421
 16777215
176
     1
 74
     2
176
     1
 91
        2
176
     1
 64
     7
176
     1
 65
   257
176
     1
 75
     2
176
     1
175
     1
176
     1
 42
40.0
176
     1
 92
        0
176
     1
 66
   257
176
     1
 43
1.0
176
     1
 76
     1
176
     1
 77
     6
176
     1
 78
     2
176
     1
 67
     7
176
     1
 79
     3
176
     1
170
     0
176
     1
171
     0
176
     1
290
     0
176
     1
 93
        1
176
     1
 44
0.0
176
     1
173
     0
176
     1
  0
VISUALSTYLE
  5
30
102
{ACAD_REACTORS
330
2A
102
}
330
2A
100
AcDbVisualStyle
  2
3dWireframe
 70
     5
177
     2
291
     0
 71
     0
176
     1
 72
     2
176
     1
 73
     0
176
     1
 90
        0
176
     1
 40
-0.6
176
     1
 41
-30.0
176
     1
 62
     5
 63
     7
421
 16777215
176
     1
 74
     1
176
     1
 91
        4
176
     1
 64
     7
176
     1
 65
   257
176
     1
 75
     1
176
     1
175
     1
176
     1
 42
1.0
176
     1
 92
        0
176
     1
 66
   257
176
     1
 43
1.0
176
     1
 76
     1
176
     1
 77
     6
176
     1
 78
     2
176
     1
 67
     7
176
     1
 79
     5
176
     1
170
     0
176
     1
171
     0
176
     1
290
     0
176
     1
 93
        1
176
     1
 44
0.0
176
     1
173
     0
176
     1
  0
VISUALSTYLE
  5
32
102
{ACAD_REACTORS
330
2A
102
}
330
2A
100
AcDbVisualStyle
  2
Basic
 70
     7
177
     2
291
     1
 71
     1
176
     1
 72
     0
176
     1
 73
     1
176
     1
 90
        0
176
     1
 40
-0.6
176
     1
 41
-30.0
176
     1
 62
     5
 63
     7
421
 16777215
176
     1
 74
     0
176
     1
 91
        4
176
     1
 64
     7
176
     1
 65
   257
176
     1
 75
     1
176
     1
175
     1
176
     1
 42
1.0
176
     1
 92
        8
176
     1
 66
     7
176
     1
 43
1.0
176
     1
 76
     1
176
     1
 77
     6
176
     1
 78
     2
176
     1
 67
     7
176
     1
 79
     5
176
     1
170
     0
176
     1
171
     0
176
     1
290
     0
176
     1
 93
        1
176
     1
 44
0.0
176
     1
173
     0
176
     1
  0
VISUALSTYLE
  5
36
102
{ACAD_REACTORS
330
2A
102
}
330
2A
100
AcDbVisualStyle
  2
Brighten
 70
    12
177
     2
291
     1
 71
     2
176
     1
 72
     2
176
     1
 73
     0
176
     1
 90
        0
176
     1
 40
-0.6
176
     1
 41
-30.0
176
     1
 62
     5
 63
     7
421
 16777215
176
     1
 74
     1
176
     1
 91
        4
176
     1
 64
     7
176
     1
 65
   257
176
     1
 75
     1
176
     1
175
     1
176
     1
 42
1.0
176
     1
 92
        8
176
     1
 66
     7
176
     1
 43
1.0
176
     1
 76
     1
176
     1
 77
     6
176
     1
 78
     2
176
     1
 67
     7
176
     1
 79
     5
176
     1
170
     0
176
     1
171
     0
176
     1
290
     0
176
     1
 93
        1
176
     1
 44
50.0
176
     1
173
     0
176
     1
  0
VISUALSTYLE
  5
3A
102
{ACAD_REACTORS
330
2A
102
}
330
2A
100
AcDbVisualStyle
  2
ColorChange
 70
    16
177
     2
291
     1
 71
     2
176
     1
 72
     2
176
     1
 73
     3
176
     1
 90
        0
176
     1
 40
-0.6
176
     1
 41
-30.0
176
     1
 62
     5
 63
     8
421
  8421504
176
     1
 74
     1
176
     1
 91
        4
176
     1
 64
     7
176
     1
 65
   257
176
     1
 75
     1
176
     1
175
     1
176
     1
 42
1.0
176
     1
 92
        8
176
     1
 66
     8
424
  8421504
176
     1
 43
1.0
176
     1
 76
     1
176
     1
 77
     6
176
     1
 78
     2
176
     1
 67
     7
176
     1
 79
     5
176
     1
170
     0
176
     1
171
     0
176
     1
290
     0
176
     1
 93
        1
176
     1
 44
0.0
176
     1
173
     0
176
     1
  0
VISUALSTYLE
  5
34
102
{ACAD_REACTORS
330
2A
102
}
330
2A
100
AcDbVisualStyle
  2
Conceptual
 70
     9
177
     2
291
     0
 71
     3
176
     1
 72
     2
176
     1
 73
     0
176
     1
 90
        0
176
     1
 40
-0.6
176
     1
 41
-30.0
176
     1
 62
     5
 63
     7
421
 16777215
176
     1
 74
     2
176
     1
 91
        2
176
     1
 64
     7
176
     1
 65
   257
176
     1
 75
     1
176
     1
175
     1
176
     1
 42
40.0
176
     1
 92
        8
176
     1
 66
     7
176
     1
 43
1.0
176
     1
 76
     1
176
     1
 77
     6
176
     1
 78
     2
176
     1
 67
     7
176
     1
 79
     3
176
     1
170
     0
176
     1
171
     0
176
     1
290
     0
176
     1
 93
        1
176
     1
 44
0.0
176
     1
173
     0
176
     1
  0
VISUALSTYLE
  5
35
102
{ACAD_REACTORS
330
2A
102
}
330
2A
100
AcDbVisualStyle
  2
Dim
 70
    11
177
     2
291
     1
 71
     2
176
     1
 72
     2
176
     1
 73
     0
176
     1
 90
        0
176
     1
 40
-0.6
176
     1
 41
-30.0
176
     1
 62
     5
 63
     7
421
 16777215
176
     1
 74
     1
176
     1
 91
        4
176
     1
 64
     7
176
     1
 65
   257
176
     1
 75
     1
176
     1
175
     1
176
     1
 42
1.0
176
     1
 92
        8
176
     1
 66
     7
176
     1
 43
1.0
176
     1
 76
     1
176
     1
 77
     6
176
     1
 78
     2
176
     1
 67
     7
176
     1
 79
     5
176
     1
170
     0
176
     1
171
     0
176
     1
290
     0
176
     1
 93
        1
176
     1
 44
-50.0
176
     1
173
     0
176
     1
  0
VISUALSTYLE
  5
39
102
{ACAD_REACTORS
330
2A
102
}
330
2A
100
AcDbVisualStyle
  2
Facepattern
 70
    15
177
     2
291
     1
 71
     2
176
     1
 72
     2
176
     1
 73
     0
176
     1
 90
        0
176
     1
 40
-0.6
176
     1
 41
-30.0
176
     1
 62
     5
 63
     7
421
 16777215
176
     1
 74
     1
176
     1
 91
        4
176
     1
 64
     7
176
     1
 65
   257
176
     1
 75
     1
176
     1
175
     1
176
     1
 42
1.0
176
     1
 92
        8
176
     1
 66
     7
176
     1
 43
1.0
176
     1
 76
     1
176
     1
 77
     6
176
     1
 78
     2
176
     1
 67
     7
176
     1
 79
     5
176
     1
170
     0
176
     1
171
     0
176
     1
290
     0
176
     1
 93
        1
176
     1
 44
0.0
176
     1
173
     0
176
     1
  0
VISUALSTYLE
  5
2B
102
{ACAD_REACTORS
330
2A
102
}
330
2A
100
AcDbVisualStyle
  2
Flat
 70
     0
177
     2
291
     1
 71
     2
176
     1
 72
     1
176
     1
 73
     1
176
     1
 90
        2
176
     1
 40
-0.6
176
     1
 41
30.0
176
     1
 62
     5
 63
     7
421
 16777215
176
     1
 74
     0
176
     1
 91
        4
176
     1
 64
     7
176
     1
 65
   257
176
     1
 75
     1
176
     1
175
     1
176
     1
 42
1.0
176
     1
 92
        8
176
     1
 66
     7
176
     1
 43
1.0
176
     1
 76
     1
176
     1
 77
     6
176
     1
 78
     2
176
     1
 67
     7
176
     1
 79
     5
176
     1
170
     0
176
     1
171
     0
176
     1
290
     0
176
     1
 93
       13
176
     1
 44
0.0
176
     1
173
     0
176
     1
  0
VISUALSTYLE
  5
2C
102
{ACAD_REACTORS
330
2A
102
}
330
2A
100
AcDbVisualStyle
  2
FlatWithEdges
 70
     1
177
     2
291
     1
 71
     2
176
     1
 72
     1
176
     1
 73
     1
176
     1
 90
        2
176
     1
 40
-0.6
176
     1
 41
30.0
176
     1
 62
     5
 63
     7
421
 16777215
176
     1
 74
     1
176
     1
 91
        4
176
     1
 64
     7
176
     1
 65
   257
176
     1
 75
     1
176
     1
175
     1
176
     1
 42
1.0
176
     1
 92
        0
176
     1
 66
   257
176
     1
 43
1.0
176
     1
 76
     1
176
     1
 77
     6
176
     1
 78
     2
176
     1
 67
     7
176
     1
 79
     5
176
     1
170
     0
176
     1
171
     0
176
     1
290
     0
176
     1
 93
       13
176
     1
 44
0.0
176
     1
173
     0
176
     1
  0
VISUALSTYLE
  5
2D
102
{ACAD_REACTORS
330
2A
102
}
330
2A
100
AcDbVisualStyle
  2
Gouraud
 70
     2
177
     2
291
     1
 71
     2
176
     1
 72
     2
176
     1
 73
     1
176
     1
 90
        2
176
     1
 40
-0.6
176
     1
 41
30.0
176
     1
 62
     5
 63
     7
421
 16777215
176
     1
 74
     0
176
     1
 91
        4
176
     1
 64
     7
176
     1
 65
   257
176
     1
 75
     1
176
     1
175
     1
176
     1
 42
1.0
176
     1
 92
        0
176
     1
 66
     7
176
     1
 43
1.0
176
     1
 76
     1
176
     1
 77
     6
176
     1
 78
     2
176
     1
 67
     7
176
     1
 79
     5
176
     1
170
     0
176
     1
171
     0
176
     1
290
     0
176
     1
 93
       13
176
     1
 44
0.0
176
     1
173
     0
176
     1
  0
VISUALSTYLE
  5
2E
102
{ACAD_REACTORS
330
2A
102
}
330
2A
100
AcDbVisualStyle
  2
GouraudWithEdges
 70
     3
177
     2
291
     1
 71
     2
176
     1
 72
     2
176
     1
 73
     1
176
     1
 90
        2
176
     1
 40
-0.6
176
     1
 41
30.0
176
     1
 62
     5
 63
     7
421
 16777215
176
     1
 74
     1
176
     1
 91
        4
176
     1
 64
     7
176
     1
 65
   257
176
     1
 75
     1
176
     1
175
     1
176
     1
 42
1.0
176
     1
 92
        0
176
     1
 66
   257
176
     1
 43
1.0
176
     1
 76
     1
176
     1
 77
     6
176
     1
 78
     2
176
     1
 67
     7
176
     1
 79
     5
176
     1
170
     0
176
     1
171
     0
176
     1
290
     0
176
     1
 93
       13
176
     1
 44
0.0
176
     1
173
     0
176
     1
  0
VISUALSTYLE
  5
38
102
{ACAD_REACTORS
330
2A
102
}
330
2A
100
AcDbVisualStyle
  2
Linepattern
 70
    14
177
     2
291
     1
 71
     2
176
     1
 72
     2
176
     1
 73
     0
176
     1
 90
        0
176
     1
 40
-0.6
176
     1
 41
-30.0
176
     1
 62
     5
 63
     7
421
 16777215
176
     1
 74
     1
176
     1
 91
        4
176
     1
 64
     7
176
     1
 65
   257
176
     1
 75
     7
176
     1
175
     7
176
     1
 42
1.0
176
     1
 92
        8
176
     1
 66
     7
176
     1
 43
1.0
176
     1
 76
     1
176
     1
 77
     6
176
     1
 78
     2
176
     1
 67
     7
176
     1
 79
     5
176
     1
170
     0
176
     1
171
     0
176
     1
290
     0
176
     1
 93
        1
176
     1
 44
0.0
176
     1
173
     0
176
     1
  0
VISUALSTYLE
  5
33
102
{ACAD_REACTORS
330
2A
102
}
330
2A
100
AcDbVisualStyle
  2
Realistic
 70
     8
177
     2
291
     0
 71
     2
176
     1
 72
     2
176
     1
 73
     0
176
     1
 90
        0
176
     1
 40
-0.6
176
     1
 41
-30.0
176
     1
 62
     5
 63
     7
421
 16777215
176
     1
 74
     1
176
     1
 91
        0
176
     1
 64
     7
176
     1
 65
   257
176
     1
 75
     1
176
     1
175
     1
176
     1
 42
1.0
176
     1
 92
        8
176
     1
 66
     8
424
  7895160
176
     1
 43
1.0
176
     1
 76
     1
176
     1
 77
     6
176
     1
 78
     2
176
     1
 67
     7
176
     1
 79
     5
176
     1
170
     0
176
     1
171
     0
176
     1
290
     0
176
     1
 93
       13
176
     1
 44
0.0
176
     1
173
     0
176
     1
  0
VISUALSTYLE
  5
37
102
{ACAD_REACTORS
330
2A
102
}
330
2A
100
AcDbVisualStyle
  2
Thicken
 70
    13
177
     2
291
     1
 71
     2
176
     1
 72
     2
176
     1
 73
     0
176
     1
 90
        0
176
     1
 40
-0.6
176
     1
 41
-30.0
176
     1
 62
     5
 63
     7
421
 16777215
176
     1
 74
     1
176
     1
 91
        4
176
     1
 64
     7
176
     1
 65
   257
176
     1
 75
     1
176
     1
175
     1
176
     1
 42
1.0
176
     1
 92
       12
176
     1
 66
     7
176
     1
 43
1.0
176
     1
 76
     1
176
     1
 77
     6
176
     1
 78
     2
176
     1
 67
     7
176
     1
 79
     5
176
     1
170
     0
176
     1
171
     0
176
     1
290
     0
176
     1
 93
        1
176
     1
 44
0.0
176
     1
173
     0
176
     1
  0
ENDSEC
  0
EOF
