  0
SECTION
  2
HEADER
  9
$ACADVER
  1
AC1024
  9
$ACADMAINTVER
 70
     6
  9
$DWGCODEPAGE
  3
ANSI_932
  9
$INSBASE
 10
0.0
 20
0.0
 30
0.0
  9
$EXTMIN
 10
-4455.0
 20
-3150.0
 30
0.0
  9
$EXTMAX
 10
4455.0
 20
3150.0
 30
0.0
  9
$LIMMIN
 10
-4455.0
 20
-3150.0
  9
$LIMMAX
 10
4455.0
 20
3150.0
  9
$ORTHOMODE
 70
     0
  9
$REGENMODE
 70
     1
  9
$FILLMODE
 70
     1
  9
$QTEXTMODE
 70
     0
  9
$MIRRTEXT
 70
     1
  9
$LTSCALE
 40
30.0
  9
$ATTMODE
 70
     1
  9
$TEXTSIZE
 40
2.5
  9
$TRACEWID
 40
1.0
  9
$TEXTSTYLE
  7
Standard
  9
$CLAYER
  8
0
  9
$CELTYPE
  6
ByLayer
  9
$CECOLOR
 62
   256
  9
$CELTSCALE
 40
1.0
  9
$DISPSILH
 70
     0
  9
$DIMSCALE
 40
1.0
  9
$DIMASZ
 40
2.5
  9
$DIMEXO
 40
0.625
  9
$DIMDLI
 40
3.75
  9
$DIMRND
 40
0.0
  9
$DIMDLE
 40
0.0
  9
$DIMEXE
 40
1.25
  9
$DIMTP
 40
0.0
  9
$DIMTM
 40
0.0
  9
$DIMTXT
 40
2.5
  9
$DIMCEN
 40
2.5
  9
$DIMTSZ
 40
0.0
  9
$DIMTOL
 70
     0
  9
$DIMLIM
 70
     0
  9
$DIMTIH
 70
     0
  9
$DIMTOH
 70
     0
  9
$DIMSE1
 70
     0
  9
$DIMSE2
 70
     0
  9
$DIMTAD
 70
     1
  9
$DIMZIN
 70
     8
  9
$DIMBLK
  1

  9
$DIMASO
 70
     1
  9
$DIMSHO
 70
     1
  9
$DIMPOST
  1

  9
$DIMAPOST
  1

  9
$DIMALT
 70
     0
  9
$DIMALTD
 70
     3
  9
$DIMALTF
 40
0.03937007874016
  9
$DIMLFAC
 40
1.0
  9
$DIMTOFL
 70
     1
  9
$DIMTVP
 40
0.0
  9
$DIMTIX
 70
     0
  9
$DIMSOXD
 70
     0
  9
$DIMSAH
 70
     0
  9
$DIMBLK1
  1

  9
$DIMBLK2
  1

  9
$DIMSTYLE
  2
ISO-25
  9
$DIMCLRD
 70
     0
  9
$DIMCLRE
 70
     0
  9
$DIMCLRT
 70
     0
  9
$DIMTFAC
 40
1.0
  9
$DIMGAP
 40
0.625
  9
$DIMJUST
 70
     0
  9
$DIMSD1
 70
     0
  9
$DIMSD2
 70
     0
  9
$DIMTOLJ
 70
     0
  9
$DIMTZIN
 70
     8
  9
$DIMALTZ
 70
     0
  9
$DIMALTTZ
 70
     0
  9
$DIMUPT
 70
     0
  9
$DIMDEC
 70
     2
  9
$DIMTDEC
 70
     2
  9
$DIMALTU
 70
     2
  9
$DIMALTTD
 70
     3
  9
$DIMTXSTY
  7
Standard
  9
$DIMAUNIT
 70
     0
  9
$DIMADEC
 70
     0
  9
$DIMALTRND
 40
0.0
  9
$DIMAZIN
 70
     0
  9
$DIMDSEP
 70
    44
  9
$DIMATFIT
 70
     3
  9
$DIMFRAC
 70
     0
  9
$DIMLDRBLK
  1

  9
$DIMLUNIT
 70
     2
  9
$DIMLWD
 70
    -2
  9
$DIMLWE
 70
    -2
  9
$DIMTMOVE
 70
     0
  9
$DIMFXL
 40
1.0
  9
$DIMFXLON
 70
     0
  9
$DIMJOGANG
 40
0.7853981633974483
  9
$DIMTFILL
 70
     0
  9
$DIMTFILLCLR
 70
     0
  9
$DIMARCSYM
 70
     0
  9
$DIMLTYPE
  6

  9
$DIMLTEX1
  6

  9
$DIMLTEX2
  6

  9
$DIMTXTDIRECTION
 70
     0
  9
$LUNITS
 70
     2
  9
$LUPREC
 70
     4
  9
$SKETCHINC
 40
1.0
  9
$FILLETRAD
 40
10.0
  9
$AUNITS
 70
     0
  9
$AUPREC
 70
     0
  9
$MENU
  1
.
  9
$ELEVATION
 40
0.0
  9
$PELEVATION
 40
0.0
  9
$THICKNESS
 40
0.0
  9
$LIMCHECK
 70
     0
  9
$CHAMFERA
 40
10.0
  9
$CHAMFERB
 40
10.0
  9
$CHAMFERC
 40
20.0
  9
$CHAMFERD
 40
0.0
  9
$SKPOLY
 70
     0
  9
$TDCREATE
 40
2457953.400010996
  9
$TDUCREATE
 40
2457953.025010996
  9
$TDUPDATE
 40
2457953.400011007
  9
$TDUUPDATE
 40
2457953.025011007
  9
$TDINDWG
 40
0.0000000116
  9
$TDUSRTIMER
 40
0.0000000116
  9
$USRTIMER
 70
     1
  9
$ANGBASE
 50
0.0
  9
$ANGDIR
 70
     0
  9
$PDMODE
 70
     0
  9
$PDSIZE
 40
0.0
  9
$PLINEWID
 40
0.0
  9
$SPLFRAME
 70
     0
  9
$SPLINETYPE
 70
     6
  9
$SPLINESEGS
 70
     8
  9
$HANDSEED
  5
508
  9
$SURFTAB1
 70
     6
  9
$SURFTAB2
 70
     6
  9
$SURFTYPE
 70
     6
  9
$SURFU
 70
     6
  9
$SURFV
 70
     6
  9
$UCSBASE
  2

  9
$UCSNAME
  2

  9
$UCSORG
 10
0.0
 20
0.0
 30
0.0
  9
$UCSXDIR
 10
1.0
 20
0.0
 30
0.0
  9
$UCSYDIR
 10
0.0
 20
1.0
 30
0.0
  9
$UCSORTHOREF
  2

  9
$UCSORTHOVIEW
 70
     0
  9
$UCSORGTOP
 10
0.0
 20
0.0
 30
0.0
  9
$UCSORGBOTTOM
 10
0.0
 20
0.0
 30
0.0
  9
$UCSORGLEFT
 10
0.0
 20
0.0
 30
0.0
  9
$UCSORGRIGHT
 10
0.0
 20
0.0
 30
0.0
  9
$UCSORGFRONT
 10
0.0
 20
0.0
 30
0.0
  9
$UCSORGBACK
 10
0.0
 20
0.0
 30
0.0
  9
$PUCSBASE
  2

  9
$PUCSNAME
  2

  9
$PUCSORG
 10
0.0
 20
0.0
 30
0.0
  9
$PUCSXDIR
 10
1.0
 20
0.0
 30
0.0
  9
$PUCSYDIR
 10
0.0
 20
1.0
 30
0.0
  9
$PUCSORTHOREF
  2

  9
$PUCSORTHOVIEW
 70
     0
  9
$PUCSORGTOP
 10
0.0
 20
0.0
 30
0.0
  9
$PUCSORGBOTTOM
 10
0.0
 20
0.0
 30
0.0
  9
$PUCSORGLEFT
 10
0.0
 20
0.0
 30
0.0
  9
$PUCSORGRIGHT
 10
0.0
 20
0.0
 30
0.0
  9
$PUCSORGFRONT
 10
0.0
 20
0.0
 30
0.0
  9
$PUCSORGBACK
 10
0.0
 20
0.0
 30
0.0
  9
$USERI1
 70
     0
  9
$USERI2
 70
     0
  9
$USERI3
 70
     0
  9
$USERI4
 70
     0
  9
$USERI5
 70
     0
  9
$USERR1
 40
0.0
  9
$USERR2
 40
0.0
  9
$USERR3
 40
0.0
  9
$USERR4
 40
0.0
  9
$USERR5
 40
0.0
  9
$WORLDVIEW
 70
     1
  9
$SHADEDGE
 70
     3
  9
$SHADEDIF
 70
    70
  9
$TILEMODE
 70
     1
  9
$MAXACTVP
 70
    64
  9
$PINSBASE
 10
0.0
 20
0.0
 30
0.0
  9
$PLIMCHECK
 70
     0
  9
$PEXTMIN
 10
1.000000000000000E+20
 20
1.000000000000000E+20
 30
1.000000000000000E+20
  9
$PEXTMAX
 10
-1.000000000000000E+20
 20
-1.000000000000000E+20
 30
-1.000000000000000E+20
  9
$PLIMMIN
 10
0.0
 20
0.0
  9
$PLIMMAX
 10
420.0
 20
297.0
  9
$UNITMODE
 70
     0
  9
$VISRETAIN
 70
     1
  9
$PLINEGEN
 70
     0
  9
$PSLTSCALE
 70
     1
  9
$TREEDEPTH
 70
  3020
  9
$CMLSTYLE
  2
Standard
  9
$CMLJUST
 70
     0
  9
$CMLSCALE
 40
20.0
  9
$PROXYGRAPHICS
 70
     1
  9
$MEASUREMENT
 70
     1
  9
$CELWEIGHT
370
    -1
  9
$ENDCAPS
280
     0
  9
$JOINSTYLE
280
     0
  9
$LWDISPLAY
290
     0
  9
$INSUNITS
 70
     4
  9
$HYPERLINKBASE
  1

  9
$STYLESHEET
  1

  9
$XEDIT
290
     1
  9
$CEPSNTYPE
380
     0
  9
$PSTYLEMODE
290
     1
  9
$FINGERPRINTGUID
  2
{3DBEDB7D-480E-4645-8DD8-C4CC2386BCCE}
  9
$VERSIONGUID
  2
{FAEB1C32-E019-11D5-929B-00C0DF256EC4}
  9
$EXTNAMES
290
     1
  9
$PSVPSCALE
 40
0.0
  9
$OLESTARTUP
290
     0
  9
$SORTENTS
280
   127
  9
$INDEXCTL
280
     0
  9
$HIDETEXT
280
     1
  9
$XCLIPFRAME
280
     2
  9
$HALOGAP
280
     0
  9
$OBSCOLOR
 70
   257
  9
$OBSLTYPE
280
     0
  9
$INTERSECTIONDISPLAY
280
     0
  9
$INTERSECTIONCOLOR
 70
   257
  9
$DIMASSOC
280
     2
  9
$PROJECTNAME
  1

  9
$CAMERADISPLAY
290
     0
  9
$LENSLENGTH
 40
50.0
  9
$CAMERAHEIGHT
 40
0.0
  9
$STEPSPERSEC
 40
2.0
  9
$STEPSIZE
 40
6.0
  9
$3DDWFPREC
 40
2.0
  9
$PSOLWIDTH
 40
5.0
  9
$PSOLHEIGHT
 40
80.0
  9
$LOFTANG1
 40
1.570796326794897
  9
$LOFTANG2
 40
1.570796326794897
  9
$LOFTMAG1
 40
0.0
  9
$LOFTMAG2
 40
0.0
  9
$LOFTPARAM
 70
     7
  9
$LOFTNORMALS
280
     1
  9
$LATITUDE
 40
37.795
  9
$LONGITUDE
 40
-122.394
  9
$NORTHDIRECTION
 40
0.0
  9
$TIMEZONE
 70
 -8000
  9
$LIGHTGLYPHDISPLAY
280
     1
  9
$TILEMODELIGHTSYNCH
280
     1
  9
$SOLIDHIST
280
     1
  9
$SHOWHIST
280
     1
  9
$DWFFRAME
280
     2
  9
$DGNFRAME
280
     2
  9
$REALWORLDSCALE
290
     1
  9
$INTERFERECOLOR
 62
   256
  9
$CSHADOW
280
     0
  9
$SHADOWPLANELOCATION
 40
0.0
  0
ENDSEC
  0
SECTION
  2
CLASSES
  0
CLASS
  1
ACDBDICTIONARYWDFLT
  2
AcDbDictionaryWithDefault
  3
ObjectDBX Classes
 90
        0
 91
        4
280
     0
281
     0
  0
CLASS
  1
VISUALSTYLE
  2
AcDbVisualStyle
  3
ObjectDBX Classes
 90
     4095
 91
        4
280
     0
281
     0
  0
CLASS
  1
MATERIAL
  2
AcDbMaterial
  3
ObjectDBX Classes
 90
     1153
 91
        4
280
     0
281
     0
  0
ENDSEC
  0
SECTION
  2
TABLES
  0
TABLE
  2
VPORT
  5
8
330
0
100
AcDbSymbolTable
 70
     1
  0
VPORT
  5
29
330
8
100
AcDbSymbolTableRecord
100
AcDbViewportTableRecord
  2
*Active
 70
     0
 10
0.0
 20
0.0
 11
1.0
 21
1.0
 12
0.0
 22
0.0
 13
0.0
 23
0.0
 14
10.0
 24
10.0
 15
10.0
 25
10.0
 16
0.0
 26
0.0
 36
1.0
 17
0.0
 27
0.0
 37
0.0
 40
6930.000000000001
 41
1.414285714285714
 42
50.0
 43
0.0
 44
0.0
 50
0.0
 51
0.0
 71
     0
 72
 10000
 73
     1
 74
     3
 75
     0
 76
     0
 77
     0
 78
     0
281
     0
 65
     1
110
0.0
120
0.0
130
0.0
111
1.0
121
0.0
131
0.0
112
0.0
122
1.0
132
0.0
 79
     0
146
0.0
 60
     3
 61
     5
292
     1
282
     1
141
0.0
142
0.0
 63
   250
  0
ENDTAB
  0
TABLE
  2
LTYPE
  5
5
330
0
100
AcDbSymbolTable
 70
     2
  0
LTYPE
  5
14
330
5
100
AcDbSymbolTableRecord
100
AcDbLinetypeTableRecord
  2
ByBlock
 70
     0
  3

 72
    65
 73
     0
 40
0.0
  0
LTYPE
  5
15
330
5
100
AcDbSymbolTableRecord
100
AcDbLinetypeTableRecord
  2
ByLayer
 70
     0
  3

 72
    65
 73
     0
 40
0.0
  0
LTYPE
  5
16
330
5
100
AcDbSymbolTableRecord
100
AcDbLinetypeTableRecord
  2
Continuous
 70
     0
  3
Solid line
 72
    65
 73
     0
 40
0.0
  0
LTYPE
  5
3F
330
5
100
AcDbSymbolTableRecord
100
AcDbLinetypeTableRecord
  2
JWW_DASHED1
 70
     0
  3
-  --  --  --  --  --  --  --  -
 72
    65
 73
     2
 40
1.693333333333333
 49
0.8466666666666667
 74
     0
 49
-0.8466666666666667
 74
     0
  0
ENDTAB
  0
TABLE
  2
LAYER
  5
2
330
0
100
AcDbSymbolTable
 70
     3
  0
LAYER
  5
10
330
2
100
AcDbSymbolTableRecord
100
AcDbLayerTableRecord
  2
0
 70
     0
 62
     7
  6
Continuous
370
    -3
390
F
347
3E
  0
LAYER
  5
40
330
2
100
AcDbSymbolTableRecord
100
AcDbLayerTableRecord
  2
寸法
 70
     0
 62
     7
  6
Continuous
370
    -3
390
F
347
3E
  0
LAYER
  5
41
330
2
100
AcDbSymbolTableRecord
100
AcDbLayerTableRecord
  2
0-0
 70
     0
 62
     7
  6
Continuous
370
    -3
390
F
347
3E
  0
ENDTAB
  0
TABLE
  2
STYLE
  5
3
330
0
100
AcDbSymbolTable
 70
     1
  0
STYLE
  5
11
330
3
100
AcDbSymbolTableRecord
100
AcDbTextStyleTableRecord
  2
Standard
 70
     0
 40
0.0
 41
1.0
 50
0.0
 71
     0
 42
2.5
  3
txt
  4

  0
ENDTAB
  0
TABLE
  2
VIEW
  5
6
330
0
100
AcDbSymbolTable
 70
     0
  0
ENDTAB
  0
TABLE
  2
UCS
  5
7
330
0
100
AcDbSymbolTable
 70
     0
  0
ENDTAB
  0
TABLE
  2
APPID
  5
9
330
0
100
AcDbSymbolTable
 70
     1
  0
APPID
  5
12
330
9
100
AcDbSymbolTableRecord
100
AcDbRegAppTableRecord
  2
ACAD
 70
     0
  0
ENDTAB
  0
TABLE
  2
DIMSTYLE
  5
A
330
0
100
AcDbSymbolTable
 70
     1
100
AcDbDimStyleTable
  0
DIMSTYLE
105
27
330
A
100
AcDbSymbolTableRecord
100
AcDbDimStyleTableRecord
  2
ISO-25
 70
     0
 41
2.5
 42
0.625
 43
3.75
 44
1.25
 73
     0
 74
     0
 77
     1
 78
     8
140
2.5
141
2.5
143
0.03937007874016
147
0.625
171
     3
172
     1
178
     0
271
     2
272
     2
274
     3
278
    44
283
     0
284
     8
340
11
  0
ENDTAB
  0
TABLE
  2
BLOCK_RECORD
  5
1
330
0
100
AcDbSymbolTable
 70
     1
  0
BLOCK_RECORD
  5
1F
330
1
100
AcDbSymbolTableRecord
100
AcDbBlockTableRecord
  2
*Model_Space
340
22
 70
     0
280
     1
281
     0
  0
BLOCK_RECORD
  5
1B
330
1
100
AcDbSymbolTableRecord
100
AcDbBlockTableRecord
  2
*Paper_Space
340
1E
 70
     0
280
     1
281
     0
  0
BLOCK_RECORD
  5
23
330
1
100
AcDbSymbolTableRecord
100
AcDbBlockTableRecord
  2
*Paper_Space0
340
26
 70
     0
280
     1
281
     0
  0
ENDTAB
  0
ENDSEC
  0
SECTION
  2
BLOCKS
  0
BLOCK
  5
20
330
1F
100
AcDbEntity
  8
0
100
AcDbBlockBegin
  2
*Model_Space
 70
     0
 10
0.0
 20
0.0
 30
0.0
  3
*Model_Space
  1

  0
ENDBLK
  5
21
330
1F
100
AcDbEntity
  8
0
100
AcDbBlockEnd
  0
BLOCK
  5
1C
330
1B
100
AcDbEntity
 67
     1
  8
0
100
AcDbBlockBegin
  2
*Paper_Space
 70
     0
 10
0.0
 20
0.0
 30
0.0
  3
*Paper_Space
  1

  0
ENDBLK
  5
1D
330
1B
100
AcDbEntity
 67
     1
  8
0
100
AcDbBlockEnd
  0
BLOCK
  5
24
330
23
100
AcDbEntity
  8
0
100
AcDbBlockBegin
  2
*Paper_Space0
 70
     0
 10
0.0
 20
0.0
 30
0.0
  3
*Paper_Space0
  1

  0
ENDBLK
  5
25
330
23
100
AcDbEntity
  8
0
100
AcDbBlockEnd
  0
ENDSEC
  0
SECTION
  2
ENTITIES
  0
LINE
  5
42
330
1F
100
AcDbEntity
  8
寸法
  6
Continuous
 62
   120
370
     5
100
AcDbLine
 10
-1988.172390100141
 20
1183.988333333328
 30
0.0
 11
-1588.17239010014
 21
1183.988333333328
 31
0.0
  0
LWPOLYLINE
  5
43
330
1F
100
AcDbEntity
  8
寸法
  6
Continuous
 62
     7
370
     9
100
AcDbPolyline
 90
        4
 70
     1
 43
3.0
 10
-1986.672390100141
 20
1183.988333333328
 42
0.4142135623731
 10
-1988.172390100141
 20
1185.488333333328
 42
0.4142135623731
 10
-1989.672390100141
 20
1183.988333333328
 42
0.4142135623731
 10
-1988.172390100141
 20
1182.488333333328
 42
0.4142135623731
  0
LINE
  5
44
330
1F
100
AcDbEntity
  8
寸法
  6
Continuous
 62
   120
370
     5
100
AcDbLine
 10
-1988.172390100141
 20
1183.988333333328
 30
0.0
 11
-1988.172390100141
 21
-863.0116666666736
 31
0.0
  0
LWPOLYLINE
  5
45
330
1F
100
AcDbEntity
  8
寸法
  6
Continuous
 62
     7
370
     9
100
AcDbPolyline
 90
        4
 70
     1
 43
3.0
 10
-1986.672390100141
 20
-863.0116666666736
 42
0.4142135623731
 10
-1988.172390100141
 20
-861.5116666666736
 42
0.4142135623731
 10
-1989.672390100141
 20
-863.0116666666736
 42
0.4142135623731
 10
-1988.172390100141
 20
-864.5116666666736
 42
0.4142135623731
  0
LWPOLYLINE
  5
46
330
1F
100
AcDbEntity
  8
寸法
  6
Continuous
 62
     7
370
     9
100
AcDbPolyline
 90
        4
 70
     1
 43
3.0
 10
-1786.672390100142
 20
-843.011666666673
 42
0.4142135623731
 10
-1788.172390100142
 20
-841.511666666673
 42
0.4142135623731
 10
-1789.672390100141
 20
-843.011666666673
 42
0.4142135623731
 10
-1788.172390100142
 20
-844.511666666673
 42
0.4142135623731
  0
LINE
  5
47
330
1F
100
AcDbEntity
  8
寸法
  6
Continuous
 62
   120
370
     5
100
AcDbLine
 10
-1988.172390100141
 20
-863.0116666666736
 30
0.0
 11
-1588.17239010014
 21
-863.0116666666736
 31
0.0
  0
LINE
  5
48
330
1F
100
AcDbEntity
  8
寸法
  6
Continuous
 62
   120
370
     5
100
AcDbLine
 10
-1788.172390100142
 20
-843.011666666673
 30
0.0
 11
-1588.17239010014
 21
-843.011666666673
 31
0.0
  0
LINE
  5
49
330
1F
100
AcDbEntity
  8
寸法
  6
Continuous
 62
   120
370
     5
100
AcDbLine
 10
-1788.172390100142
 20
1139.988333333327
 30
0.0
 11
-1588.17239010014
 21
1139.988333333327
 31
0.0
  0
LWPOLYLINE
  5
4A
330
1F
100
AcDbEntity
  8
寸法
  6
Continuous
 62
     7
370
     9
100
AcDbPolyline
 90
        4
 70
     1
 43
3.0
 10
-1786.672390100142
 20
1139.988333333327
 42
0.4142135623731
 10
-1788.172390100142
 20
1141.488333333327
 42
0.4142135623731
 10
-1789.672390100141
 20
1139.988333333327
 42
0.4142135623731
 10
-1788.172390100142
 20
1138.488333333327
 42
0.4142135623731
  0
LINE
  5
4B
330
1F
100
AcDbEntity
  8
寸法
  6
Continuous
 62
   120
370
     5
100
AcDbLine
 10
-1788.172390100142
 20
1139.988333333327
 30
0.0
 11
-1788.172390100142
 21
-843.011666666673
 31
0.0
  0
LINE
  5
4C
330
1F
100
AcDbEntity
  8
寸法
  6
Continuous
 62
   120
370
     5
100
AcDbLine
 10
-1508.172390100141
 20
-1313.011666666675
 30
0.0
 11
-1508.172390100141
 21
-913.0116666666759
 31
0.0
  0
LINE
  5
4D
330
1F
100
AcDbEntity
  8
寸法
  6
Continuous
 62
   120
370
     5
100
AcDbLine
 10
-1538.172390100141
 20
-1513.011666666673
 30
0.0
 11
-1538.172390100141
 21
-913.0116666666759
 31
0.0
  0
LINE
  5
4E
330
1F
100
AcDbEntity
  8
寸法
  6
Continuous
 62
   120
370
     5
100
AcDbLine
 10
78.82760989985798
 20
-1113.011666666673
 30
0.0
 11
78.82760989985798
 21
-913.0116666666759
 31
0.0
  0
LINE
  5
4F
330
1F
100
AcDbEntity
  8
寸法
  6
Continuous
 62
   120
370
     5
100
AcDbLine
 10
-731.172390100142
 20
-1113.011666666673
 30
0.0
 11
-731.172390100142
 21
-913.0116666666759
 31
0.0
  0
LINE
  5
50
330
1F
100
AcDbEntity
  8
寸法
  6
Continuous
 62
   120
370
     5
100
AcDbLine
 10
-731.172390100142
 20
-1113.011666666673
 30
0.0
 11
888.827609899858
 21
-1113.011666666673
 31
0.0
  0
LINE
  5
51
330
1F
100
AcDbEntity
  8
寸法
  6
Continuous
 62
   120
370
     5
100
AcDbLine
 10
-1508.172390100141
 20
-1313.011666666675
 30
0.0
 11
1665.827609899857
 21
-1313.011666666673
 31
0.0
  0
LINE
  5
52
330
1F
100
AcDbEntity
  8
寸法
  6
Continuous
 62
   120
370
     5
100
AcDbLine
 10
1665.827609899857
 20
-1313.011666666673
 30
0.0
 11
1665.827609899857
 21
-913.0116666666732
 31
0.0
  0
LINE
  5
53
330
1F
100
AcDbEntity
  8
寸法
  6
Continuous
 62
   120
370
     5
100
AcDbLine
 10
-1538.172390100141
 20
-1513.011666666673
 30
0.0
 11
1695.827609899857
 21
-1513.011666666672
 31
0.0
  0
LINE
  5
54
330
1F
100
AcDbEntity
  8
寸法
  6
Continuous
 62
   120
370
     5
100
AcDbLine
 10
1695.827609899857
 20
-1513.011666666672
 30
0.0
 11
1695.827609899857
 21
-913.0116666666732
 31
0.0
  0
LINE
  5
55
330
1F
100
AcDbEntity
  8
寸法
  6
Continuous
 62
   120
370
     5
100
AcDbLine
 10
888.827609899858
 20
-1113.011666666673
 30
0.0
 11
888.827609899858
 21
-913.0116666666759
 31
0.0
  0
LWPOLYLINE
  5
56
330
1F
100
AcDbEntity
  8
寸法
  6
Continuous
 62
     7
370
     9
100
AcDbPolyline
 90
        4
 70
     1
 43
3.0
 10
-1506.672390100141
 20
-1313.011666666675
 42
0.4142135623731
 10
-1508.172390100141
 20
-1311.511666666675
 42
0.4142135623731
 10
-1509.672390100141
 20
-1313.011666666675
 42
0.4142135623731
 10
-1508.172390100141
 20
-1314.511666666674
 42
0.4142135623731
  0
LWPOLYLINE
  5
57
330
1F
100
AcDbEntity
  8
寸法
  6
Continuous
 62
     7
370
     9
100
AcDbPolyline
 90
        4
 70
     1
 43
3.0
 10
-1536.672390100141
 20
-1513.011666666673
 42
0.4142135623731
 10
-1538.172390100141
 20
-1511.511666666673
 42
0.4142135623731
 10
-1539.672390100141
 20
-1513.011666666673
 42
0.4142135623731
 10
-1538.172390100141
 20
-1514.511666666673
 42
0.4142135623731
  0
LWPOLYLINE
  5
58
330
1F
100
AcDbEntity
  8
寸法
  6
Continuous
 62
     7
370
     9
100
AcDbPolyline
 90
        4
 70
     1
 43
3.0
 10
80.32760989985798
 20
-1113.011666666673
 42
0.4142135623731
 10
78.82760989985798
 20
-1111.511666666673
 42
0.4142135623731
 10
77.32760989985798
 20
-1113.011666666673
 42
0.4142135623731
 10
78.82760989985798
 20
-1114.511666666673
 42
0.4142135623731
  0
LWPOLYLINE
  5
59
330
1F
100
AcDbEntity
  8
寸法
  6
Continuous
 62
     7
370
     9
100
AcDbPolyline
 90
        4
 70
     1
 43
3.0
 10
-729.672390100142
 20
-1113.011666666673
 42
0.4142135623731
 10
-731.172390100142
 20
-1111.511666666673
 42
0.4142135623731
 10
-732.672390100142
 20
-1113.011666666673
 42
0.4142135623731
 10
-731.172390100142
 20
-1114.511666666673
 42
0.4142135623731
  0
LWPOLYLINE
  5
5A
330
1F
100
AcDbEntity
  8
寸法
  6
Continuous
 62
     7
370
     9
100
AcDbPolyline
 90
        4
 70
     1
 43
3.0
 10
1667.327609899857
 20
-1313.011666666673
 42
0.4142135623731
 10
1665.827609899857
 20
-1311.511666666673
 42
0.4142135623731
 10
1664.327609899857
 20
-1313.011666666673
 42
0.4142135623731
 10
1665.827609899857
 20
-1314.511666666673
 42
0.4142135623731
  0
LWPOLYLINE
  5
5B
330
1F
100
AcDbEntity
  8
寸法
  6
Continuous
 62
     7
370
     9
100
AcDbPolyline
 90
        4
 70
     1
 43
3.0
 10
1697.327609899857
 20
-1513.011666666672
 42
0.4142135623731
 10
1695.827609899857
 20
-1511.511666666672
 42
0.4142135623731
 10
1694.327609899857
 20
-1513.011666666672
 42
0.4142135623731
 10
1695.827609899857
 20
-1514.511666666672
 42
0.4142135623731
  0
LWPOLYLINE
  5
5C
330
1F
100
AcDbEntity
  8
寸法
  6
Continuous
 62
     7
370
     9
100
AcDbPolyline
 90
        4
 70
     1
 43
3.0
 10
890.327609899858
 20
-1113.011666666673
 42
0.4142135623731
 10
888.827609899858
 20
-1111.511666666673
 42
0.4142135623731
 10
887.327609899858
 20
-1113.011666666673
 42
0.4142135623731
 10
888.827609899858
 20
-1114.511666666673
 42
0.4142135623731
  0
MTEXT
  5
5D
330
1F
100
AcDbEntity
  8
寸法
  6
Continuous
 62
     7
370
    70
100
AcDbMText
 10
-2003.172390100141
 20
-54.68666666667249
 30
0.0
 40
57.14999999999999
 41
412.5
 46
0.0
 71
     7
 72
     1
  1
{\fＭＳ ゴシック|b0|i0|c128|p49;枠外＝2,047}
 11
6.123031769111886E-17
 21
1.0
 31
0.0
 73
     1
 44
1.0
  0
MTEXT
  5
5E
330
1F
100
AcDbEntity
  8
寸法
  6
Continuous
 62
     7
370
    70
100
AcDbMText
 10
-1803.172390100142
 20
-60.68666666667215
 30
0.0
 40
57.14999999999999
 41
412.5
 46
0.0
 71
     7
 72
     1
  1
{\fＭＳ ゴシック|b0|i0|c128|p49;ＤＨ＝1,983}
 11
6.123031769111886E-17
 21
1.0
 31
0.0
 73
     1
 44
1.0
  0
MTEXT
  5
5F
330
1F
100
AcDbEntity
  8
寸法
  6
Continuous
 62
     7
370
   211
100
AcDbMText
 10
-494.922390100142
 20
-1106.936666666673
 30
0.0
 40
57.15
 41
337.5
 46
0.0
 71
     7
 72
     1
  1
{\fＭＳ ゴシック|b0|i0|c128|p49;ＤＷ＝810}
 73
     1
 44
1.0
  0
MTEXT
  5
60
330
1F
100
AcDbEntity
  8
寸法
  6
Continuous
 62
     7
370
   211
100
AcDbMText
 10
315.077609899858
 20
-1106.936666666673
 30
0.0
 40
57.15
 41
337.5
 46
0.0
 71
     7
 72
     1
  1
{\fＭＳ ゴシック|b0|i0|c128|p49;ＤＷ＝810}
 73
     1
 44
1.0
  0
MTEXT
  5
61
330
1F
100
AcDbEntity
  8
寸法
  6
Continuous
 62
     7
370
   211
100
AcDbMText
 10
-127.422390100142
 20
-1306.936666666674
 30
0.0
 40
57.14999999999999
 41
412.5
 46
0.0
 71
     7
 72
     1
  1
{\fＭＳ ゴシック|b0|i0|c128|p49;枠内＝3,174}
 73
     1
 44
1.0
  0
MTEXT
  5
62
330
1F
100
AcDbEntity
  8
寸法
  6
Continuous
 62
     7
370
   211
100
AcDbMText
 10
-127.422390100142
 20
-1506.936666666673
 30
0.0
 40
57.14999999999999
 41
412.5
 46
0.0
 71
     7
 72
     1
  1
{\fＭＳ ゴシック|b0|i0|c128|p49;枠外＝3,234}
 73
     1
 44
1.0
  0
LINE
  5
63
330
1F
100
AcDbEntity
  8
0-0
  6
Continuous
 62
    92
370
    13
100
AcDbLine
 10
-1538.172390100141
 20
1183.988333333327
 30
0.0
 11
1695.827609899857
 21
1183.988333333327
 31
0.0
  0
LINE
  5
64
330
1F
100
AcDbEntity
  8
0-0
  6
Continuous
 62
    92
370
    13
100
AcDbLine
 10
-1508.172390100141
 20
1147.988333333325
 30
0.0
 11
1665.827609899857
 21
1147.988333333325
 31
0.0
  0
LINE
  5
65
330
1F
100
AcDbEntity
  8
0-0
  6
Continuous
 62
    92
370
    13
100
AcDbLine
 10
1665.827609899857
 20
-863.0116666666736
 30
0.0
 11
1665.827609899857
 21
1183.988333333327
 31
0.0
  0
LINE
  5
66
330
1F
100
AcDbEntity
  8
0-0
  6
Continuous
 62
    92
370
    13
100
AcDbLine
 10
-1508.172390100141
 20
-863.0116666666736
 30
0.0
 11
-1508.172390100141
 21
1183.988333333327
 31
0.0
  0
LINE
  5
67
330
1F
100
AcDbEntity
  8
0-0
  6
Continuous
 62
    92
370
    13
100
AcDbLine
 10
1695.827609899857
 20
-863.0116666666736
 30
0.0
 11
1695.827609899857
 21
1183.988333333327
 31
0.0
  0
LINE
  5
68
330
1F
100
AcDbEntity
  8
0-0
  6
Continuous
 62
    92
370
    13
100
AcDbLine
 10
-1538.172390100141
 20
-863.0116666666736
 30
0.0
 11
-1538.172390100141
 21
1183.988333333327
 31
0.0
  0
LINE
  5
69
330
1F
100
AcDbEntity
  8
0-0
  6
Continuous
 62
    92
370
    13
100
AcDbLine
 10
1695.827609899857
 20
-863.0116666666736
 30
0.0
 11
-1538.172390100141
 21
-863.0116666666736
 31
0.0
  0
LINE
  5
6A
330
1F
100
AcDbEntity
  8
0-0
  6
Continuous
 62
    92
370
    13
100
AcDbLine
 10
1665.827609899857
 20
-848.0116666666736
 30
0.0
 11
-1508.172390100141
 21
-848.0116666666736
 31
0.0
  0
ARC
  5
6B
330
1F
100
AcDbEntity
  8
0-0
  6
Continuous
 62
    92
370
    13
100
AcDbCircle
 10
-1479.67239010014
 20
173.9883333333272
 30
0.0
 40
1.5
100
AcDbArc
 50
90.0
 51
180.0
  0
LINE
  5
6C
330
1F
100
AcDbEntity
  8
0-0
  6
Continuous
 62
    92
370
    13
100
AcDbLine
 10
-1440.672390100141
 20
175.4883333333267
 30
0.0
 11
-1479.67239010014
 21
175.4883333333267
 31
0.0
  0
ARC
  5
6D
330
1F
100
AcDbEntity
  8
0-0
  6
Continuous
 62
    92
370
    13
100
AcDbCircle
 10
-1440.672390100141
 20
173.9883333333272
 30
0.0
 40
1.5
100
AcDbArc
 50
0.0
 51
90.00000000000001
  0
LINE
  5
6E
330
1F
100
AcDbEntity
  8
0-0
  6
Continuous
 62
    92
370
    13
100
AcDbLine
 10
-1439.172390100141
 20
54.98833333332712
 30
0.0
 11
-1439.172390100141
 21
173.9883333333272
 31
0.0
  0
ARC
  5
6F
330
1F
100
AcDbEntity
  8
0-0
  6
Continuous
 62
    92
370
    13
100
AcDbCircle
 10
-1440.672390100141
 20
54.98833333332712
 30
0.0
 40
1.5
100
AcDbArc
 50
270.0
 51
0.0
  0
LINE
  5
70
330
1F
100
AcDbEntity
  8
0-0
  6
Continuous
 62
    92
370
    13
100
AcDbLine
 10
-1479.67239010014
 20
53.48833333332507
 30
0.0
 11
-1440.672390100141
 21
53.48833333332507
 31
0.0
  0
LINE
  5
71
330
1F
100
AcDbEntity
  8
0-0
  6
Continuous
 62
    92
370
    13
100
AcDbLine
 10
-1481.17239010014
 20
54.98833333332712
 30
0.0
 11
-1481.17239010014
 21
173.9883333333272
 31
0.0
  0
ARC
  5
72
330
1F
100
AcDbEntity
  8
0-0
  6
Continuous
 62
    92
370
    13
100
AcDbCircle
 10
-1479.67239010014
 20
54.98833333332712
 30
0.0
 40
1.5
100
AcDbArc
 50
180.0
 51
270.0
  0
ARC
  5
73
330
1F
100
AcDbEntity
  8
0-0
  6
Continuous
 62
     7
370
     9
100
AcDbCircle
 10
-1460.172390100141
 20
84.88833333332721
 30
0.0
 40
15.0
100
AcDbArc
 50
180.0
 51
0.0
  0
ARC
  5
74
330
1F
100
AcDbEntity
  8
0-0
  6
Continuous
 62
     7
370
     9
100
AcDbCircle
 10
-1460.172390100141
 20
144.0883333333271
 30
0.0
 40
15.0
100
AcDbArc
 50
0.0
 51
180.0
  0
LINE
  5
75
330
1F
100
AcDbEntity
  8
0-0
  6
Continuous
 62
     7
370
     9
100
AcDbLine
 10
-1445.172390100141
 20
84.88833333332721
 30
0.0
 11
-1445.172390100141
 21
144.0883333333271
 31
0.0
  0
LINE
  5
76
330
1F
100
AcDbEntity
  8
0-0
  6
Continuous
 62
     7
370
     9
100
AcDbLine
 10
-1475.172390100141
 20
144.0883333333271
 30
0.0
 11
-1475.172390100141
 21
84.88833333332721
 31
0.0
  0
ARC
  5
77
330
1F
100
AcDbEntity
  8
0-0
  6
Continuous
 62
    92
370
    13
100
AcDbCircle
 10
8.327609899860704
 20
173.9883333333272
 30
0.0
 40
1.5
100
AcDbArc
 50
90.0
 51
180.0
  0
LINE
  5
78
330
1F
100
AcDbEntity
  8
0-0
  6
Continuous
 62
    92
370
    13
100
AcDbLine
 10
47.32760989985934
 20
175.4883333333267
 30
0.0
 11
8.327609899860704
 21
175.4883333333267
 31
0.0
  0
ARC
  5
79
330
1F
100
AcDbEntity
  8
0-0
  6
Continuous
 62
    92
370
    13
100
AcDbCircle
 10
47.32760989985934
 20
173.9883333333272
 30
0.0
 40
1.5
100
AcDbArc
 50
0.0
 51
90.00000000000001
  0
LINE
  5
7A
330
1F
100
AcDbEntity
  8
0-0
  6
Continuous
 62
    92
370
    13
100
AcDbLine
 10
48.82760989985947
 20
54.98833333332712
 30
0.0
 11
48.82760989985947
 21
173.9883333333272
 31
0.0
  0
ARC
  5
7B
330
1F
100
AcDbEntity
  8
0-0
  6
Continuous
 62
    92
370
    13
100
AcDbCircle
 10
47.32760989985934
 20
54.98833333332712
 30
0.0
 40
1.5
100
AcDbArc
 50
270.0
 51
0.0
  0
LINE
  5
7C
330
1F
100
AcDbEntity
  8
0-0
  6
Continuous
 62
    92
370
    13
100
AcDbLine
 10
8.327609899860704
 20
53.48833333332507
 30
0.0
 11
47.32760989985934
 21
53.48833333332507
 31
0.0
  0
LINE
  5
7D
330
1F
100
AcDbEntity
  8
0-0
  6
Continuous
 62
    92
370
    13
100
AcDbLine
 10
6.827609899860363
 20
54.98833333332712
 30
0.0
 11
6.827609899860363
 21
173.9883333333272
 31
0.0
  0
ARC
  5
7E
330
1F
100
AcDbEntity
  8
0-0
  6
Continuous
 62
    92
370
    13
100
AcDbCircle
 10
8.327609899860704
 20
54.98833333332712
 30
0.0
 40
1.5
100
AcDbArc
 50
180.0
 51
270.0
  0
ARC
  5
7F
330
1F
100
AcDbEntity
  8
0-0
  6
Continuous
 62
     7
370
     9
100
AcDbCircle
 10
27.82760989986002
 20
84.88833333332721
 30
0.0
 40
15.0
100
AcDbArc
 50
180.0
 51
0.0
  0
ARC
  5
80
330
1F
100
AcDbEntity
  8
0-0
  6
Continuous
 62
     7
370
     9
100
AcDbCircle
 10
27.82760989986002
 20
144.0883333333271
 30
0.0
 40
15.0
100
AcDbArc
 50
0.0
 51
180.0
  0
LINE
  5
81
330
1F
100
AcDbEntity
  8
0-0
  6
Continuous
 62
     7
370
     9
100
AcDbLine
 10
42.82760989986002
 20
84.88833333332721
 30
0.0
 11
42.82760989986002
 21
144.0883333333271
 31
0.0
  0
LINE
  5
82
330
1F
100
AcDbEntity
  8
0-0
  6
Continuous
 62
     7
370
     9
100
AcDbLine
 10
12.82760989986002
 20
144.0883333333271
 30
0.0
 11
12.82760989986002
 21
84.88833333332721
 31
0.0
  0
ARC
  5
83
330
1F
100
AcDbEntity
  8
0-0
  6
Continuous
 62
    92
370
    13
100
AcDbCircle
 10
110.3276098998566
 20
173.9883333333272
 30
0.0
 40
1.5
100
AcDbArc
 50
90.0
 51
180.0
  0
LINE
  5
84
330
1F
100
AcDbEntity
  8
0-0
  6
Continuous
 62
    92
370
    13
100
AcDbLine
 10
149.3276098998552
 20
175.4883333333267
 30
0.0
 11
110.3276098998566
 21
175.4883333333267
 31
0.0
  0
ARC
  5
85
330
1F
100
AcDbEntity
  8
0-0
  6
Continuous
 62
    92
370
    13
100
AcDbCircle
 10
149.3276098998552
 20
173.9883333333272
 30
0.0
 40
1.5
100
AcDbArc
 50
0.0
 51
90.00000000000001
  0
LINE
  5
86
330
1F
100
AcDbEntity
  8
0-0
  6
Continuous
 62
    92
370
    13
100
AcDbLine
 10
150.8276098998554
 20
54.98833333332712
 30
0.0
 11
150.8276098998554
 21
173.9883333333272
 31
0.0
  0
ARC
  5
87
330
1F
100
AcDbEntity
  8
0-0
  6
Continuous
 62
    92
370
    13
100
AcDbCircle
 10
149.3276098998552
 20
54.98833333332712
 30
0.0
 40
1.5
100
AcDbArc
 50
270.0
 51
0.0
  0
LINE
  5
88
330
1F
100
AcDbEntity
  8
0-0
  6
Continuous
 62
    92
370
    13
100
AcDbLine
 10
110.3276098998566
 20
53.48833333332507
 30
0.0
 11
149.3276098998552
 21
53.48833333332507
 31
0.0
  0
LINE
  5
89
330
1F
100
AcDbEntity
  8
0-0
  6
Continuous
 62
    92
370
    13
100
AcDbLine
 10
108.8276098998563
 20
54.98833333332712
 30
0.0
 11
108.8276098998563
 21
173.9883333333272
 31
0.0
  0
ARC
  5
8A
330
1F
100
AcDbEntity
  8
0-0
  6
Continuous
 62
    92
370
    13
100
AcDbCircle
 10
110.3276098998566
 20
54.98833333332712
 30
0.0
 40
1.5
100
AcDbArc
 50
180.0
 51
270.0
  0
ARC
  5
8B
330
1F
100
AcDbEntity
  8
0-0
  6
Continuous
 62
     7
370
     9
100
AcDbCircle
 10
129.8276098998559
 20
84.88833333332721
 30
0.0
 40
15.0
100
AcDbArc
 50
180.0
 51
0.0
  0
ARC
  5
8C
330
1F
100
AcDbEntity
  8
0-0
  6
Continuous
 62
     7
370
     9
100
AcDbCircle
 10
129.8276098998559
 20
144.0883333333271
 30
0.0
 40
15.0
100
AcDbArc
 50
0.0
 51
180.0
  0
LINE
  5
8D
330
1F
100
AcDbEntity
  8
0-0
  6
Continuous
 62
     7
370
     9
100
AcDbLine
 10
144.8276098998559
 20
84.88833333332721
 30
0.0
 11
144.8276098998559
 21
144.0883333333271
 31
0.0
  0
LINE
  5
8E
330
1F
100
AcDbEntity
  8
0-0
  6
Continuous
 62
     7
370
     9
100
AcDbLine
 10
114.8276098998559
 20
144.0883333333271
 30
0.0
 11
114.8276098998559
 21
84.88833333332721
 31
0.0
  0
ARC
  5
8F
330
1F
100
AcDbEntity
  8
0-0
  6
Continuous
 62
    92
370
    13
100
AcDbCircle
 10
1598.32760989986
 20
173.9883333333272
 30
0.0
 40
1.5
100
AcDbArc
 50
90.0
 51
180.0
  0
LINE
  5
90
330
1F
100
AcDbEntity
  8
0-0
  6
Continuous
 62
    92
370
    13
100
AcDbLine
 10
1637.32760989986
 20
175.4883333333267
 30
0.0
 11
1598.32760989986
 21
175.4883333333267
 31
0.0
  0
ARC
  5
91
330
1F
100
AcDbEntity
  8
0-0
  6
Continuous
 62
    92
370
    13
100
AcDbCircle
 10
1637.32760989986
 20
173.9883333333272
 30
0.0
 40
1.5
100
AcDbArc
 50
0.0
 51
90.00000000000001
  0
LINE
  5
92
330
1F
100
AcDbEntity
  8
0-0
  6
Continuous
 62
    92
370
    13
100
AcDbLine
 10
1638.82760989986
 20
54.98833333332712
 30
0.0
 11
1638.82760989986
 21
173.9883333333272
 31
0.0
  0
ARC
  5
93
330
1F
100
AcDbEntity
  8
0-0
  6
Continuous
 62
    92
370
    13
100
AcDbCircle
 10
1637.32760989986
 20
54.98833333332712
 30
0.0
 40
1.5
100
AcDbArc
 50
270.0
 51
0.0
  0
LINE
  5
94
330
1F
100
AcDbEntity
  8
0-0
  6
Continuous
 62
    92
370
    13
100
AcDbLine
 10
1598.32760989986
 20
53.48833333332507
 30
0.0
 11
1637.32760989986
 21
53.48833333332507
 31
0.0
  0
LINE
  5
95
330
1F
100
AcDbEntity
  8
0-0
  6
Continuous
 62
    92
370
    13
100
AcDbLine
 10
1596.82760989986
 20
54.98833333332712
 30
0.0
 11
1596.82760989986
 21
173.9883333333272
 31
0.0
  0
ARC
  5
96
330
1F
100
AcDbEntity
  8
0-0
  6
Continuous
 62
    92
370
    13
100
AcDbCircle
 10
1598.32760989986
 20
54.98833333332712
 30
0.0
 40
1.5
100
AcDbArc
 50
180.0
 51
270.0
  0
ARC
  5
97
330
1F
100
AcDbEntity
  8
0-0
  6
Continuous
 62
     7
370
     9
100
AcDbCircle
 10
1617.82760989986
 20
84.88833333332721
 30
0.0
 40
15.0
100
AcDbArc
 50
180.0
 51
0.0
  0
ARC
  5
98
330
1F
100
AcDbEntity
  8
0-0
  6
Continuous
 62
     7
370
     9
100
AcDbCircle
 10
1617.82760989986
 20
144.0883333333271
 30
0.0
 40
15.0
100
AcDbArc
 50
0.0
 51
180.0
  0
LINE
  5
99
330
1F
100
AcDbEntity
  8
0-0
  6
Continuous
 62
     7
370
     9
100
AcDbLine
 10
1632.82760989986
 20
84.88833333332721
 30
0.0
 11
1632.82760989986
 21
144.0883333333271
 31
0.0
  0
LINE
  5
9A
330
1F
100
AcDbEntity
  8
0-0
  6
Continuous
 62
     7
370
     9
100
AcDbLine
 10
1602.82760989986
 20
144.0883333333271
 30
0.0
 11
1602.82760989986
 21
84.88833333332721
 31
0.0
  0
LINE
  5
9B
330
1F
100
AcDbEntity
  8
0-0
  6
Continuous
 62
    92
370
    13
100
AcDbLine
 10
-731.172390100142
 20
-843.0116666666738
 30
0.0
 11
-731.172390100142
 21
1139.988333333326
 31
0.0
  0
LINE
  5
9C
330
1F
100
AcDbEntity
  8
0-0
  6
JWW_DASHED1
 62
   120
370
     5
100
AcDbLine
 10
-701.172390100142
 20
-843.0116666666738
 30
0.0
 11
-701.172390100142
 21
1139.988333333326
 31
0.0
  0
LINE
  5
9D
330
1F
100
AcDbEntity
  8
0-0
  6
Continuous
 62
    92
370
    13
100
AcDbLine
 10
-1508.172390100141
 20
-843.0116666666738
 30
0.0
 11
78.82760989985798
 21
-843.0116666666738
 31
0.0
  0
LINE
  5
9E
330
1F
100
AcDbEntity
  8
0-0
  6
Continuous
 62
    92
370
    13
100
AcDbLine
 10
-1508.172390100141
 20
1139.988333333326
 30
0.0
 11
78.82760989985798
 21
1139.988333333326
 31
0.0
  0
LINE
  5
9F
330
1F
100
AcDbEntity
  8
0-0
  6
Continuous
 62
    92
370
    13
100
AcDbLine
 10
78.82760989985798
 20
-843.0116666666738
 30
0.0
 11
78.82760989985798
 21
1139.988333333326
 31
0.0
  0
LINE
  5
A0
330
1F
100
AcDbEntity
  8
0-0
  6
Continuous
 62
    92
370
    13
100
AcDbLine
 10
888.8276098998575
 20
-843.0116666666738
 30
0.0
 11
888.8276098998575
 21
1139.988333333326
 31
0.0
  0
LINE
  5
A1
330
1F
100
AcDbEntity
  8
0-0
  6
JWW_DASHED1
 62
   120
370
     5
100
AcDbLine
 10
858.8276098998575
 20
-843.0116666666738
 30
0.0
 11
858.8276098998575
 21
1139.988333333326
 31
0.0
  0
LINE
  5
A2
330
1F
100
AcDbEntity
  8
0-0
  6
Continuous
 62
    92
370
    13
100
AcDbLine
 10
1665.827609899857
 20
-843.0116666666738
 30
0.0
 11
78.82760989985798
 21
-843.0116666666738
 31
0.0
  0
LINE
  5
A3
330
1F
100
AcDbEntity
  8
0-0
  6
Continuous
 62
    92
370
    13
100
AcDbLine
 10
1665.827609899857
 20
1139.988333333326
 30
0.0
 11
78.82760989985798
 21
1139.988333333326
 31
0.0
  0
LINE
  5
A4
330
1F
100
AcDbEntity
  8
0-0
  6
JWW_DASHED1
 62
   120
370
     5
100
AcDbLine
 10
-1508.172390100141
 20
-843.0116666666738
 30
0.0
 11
-1511.172390100142
 21
-843.0116666666738
 31
0.0
  0
LINE
  5
A5
330
1F
100
AcDbEntity
  8
0-0
  6
JWW_DASHED1
 62
   120
370
     5
100
AcDbLine
 10
-1511.172390100142
 20
-843.0116666666738
 30
0.0
 11
-1511.172390100142
 21
1139.988333333326
 31
0.0
  0
LINE
  5
A6
330
1F
100
AcDbEntity
  8
0-0
  6
JWW_DASHED1
 62
   120
370
     5
100
AcDbLine
 10
-1511.172390100142
 20
1139.988333333326
 30
0.0
 11
-1508.172390100141
 21
1139.988333333326
 31
0.0
  0
LINE
  5
A7
330
1F
100
AcDbEntity
  8
0-0
  6
JWW_DASHED1
 62
   120
370
     5
100
AcDbLine
 10
1665.827609899857
 20
-843.0116666666738
 30
0.0
 11
1668.827609899858
 21
-843.0116666666738
 31
0.0
  0
LINE
  5
A8
330
1F
100
AcDbEntity
  8
0-0
  6
JWW_DASHED1
 62
   120
370
     5
100
AcDbLine
 10
1668.827609899858
 20
-843.0116666666738
 30
0.0
 11
1668.827609899858
 21
1139.988333333326
 31
0.0
  0
LINE
  5
A9
330
1F
100
AcDbEntity
  8
0-0
  6
JWW_DASHED1
 62
   120
370
     5
100
AcDbLine
 10
1668.827609899858
 20
1139.988333333326
 30
0.0
 11
1665.827609899857
 21
1139.988333333326
 31
0.0
  0
LINE
  5
AA
330
1F
100
AcDbEntity
  8
0-0
  6
Continuous
 62
     7
370
     9
100
AcDbLine
 10
-1392.672390100141
 20
-693.0116666666738
 30
0.0
 11
-1407.672390100141
 21
-708.0116666666738
 31
0.0
  0
LINE
  5
AB
330
1F
100
AcDbEntity
  8
0-0
  6
Continuous
 62
     7
370
     9
100
AcDbLine
 10
-1407.672390100141
 20
1019.988333333326
 30
0.0
 11
-1392.672390100141
 21
1004.988333333326
 31
0.0
  0
LINE
  5
AC
330
1F
100
AcDbEntity
  8
0-0
  6
Continuous
 62
     7
370
     9
100
AcDbLine
 10
-1407.672390100141
 20
-843.0116666666738
 30
0.0
 11
-1407.672390100141
 21
1139.988333333326
 31
0.0
  0
LINE
  5
AD
330
1F
100
AcDbEntity
  8
0-0
  6
Continuous
 62
     7
370
     9
100
AcDbLine
 10
-819.6723901001426
 20
-693.0116666666738
 30
0.0
 11
-804.6723901001426
 21
-708.0116666666738
 31
0.0
  0
LINE
  5
AE
330
1F
100
AcDbEntity
  8
0-0
  6
Continuous
 62
     7
370
     9
100
AcDbLine
 10
-804.6723901001426
 20
1019.988333333326
 30
0.0
 11
-819.6723901001426
 21
1004.988333333326
 31
0.0
  0
LINE
  5
AF
330
1F
100
AcDbEntity
  8
0-0
  6
Continuous
 62
     7
370
     9
100
AcDbLine
 10
-804.6723901001426
 20
-843.0116666666738
 30
0.0
 11
-804.6723901001426
 21
1139.988333333326
 31
0.0
  0
LINE
  5
B0
330
1F
100
AcDbEntity
  8
0-0
  6
Continuous
 62
     7
370
     9
100
AcDbLine
 10
-1407.672390100141
 20
1019.988333333326
 30
0.0
 11
-804.6723901001426
 21
1019.988333333326
 31
0.0
  0
LINE
  5
B1
330
1F
100
AcDbEntity
  8
0-0
  6
Continuous
 62
     7
370
     9
100
AcDbLine
 10
-1407.672390100141
 20
-708.0116666666738
 30
0.0
 11
-804.6723901001426
 21
-708.0116666666738
 31
0.0
  0
LINE
  5
B2
330
1F
100
AcDbEntity
  8
0-0
  6
Continuous
 62
     7
370
     9
100
AcDbLine
 10
-1392.672390100141
 20
-170.0116666666738
 30
0.0
 11
-1407.672390100141
 21
-185.0116666666738
 31
0.0
  0
LINE
  5
B3
330
1F
100
AcDbEntity
  8
0-0
  6
Continuous
 62
     7
370
     9
100
AcDbLine
 10
-1407.672390100141
 20
-260.0116666666738
 30
0.0
 11
-1392.672390100141
 21
-275.0116666666738
 31
0.0
  0
LINE
  5
B4
330
1F
100
AcDbEntity
  8
0-0
  6
Continuous
 62
     7
370
     9
100
AcDbLine
 10
-819.6723901001426
 20
-170.0116666666738
 30
0.0
 11
-804.6723901001426
 21
-185.0116666666738
 31
0.0
  0
LINE
  5
B5
330
1F
100
AcDbEntity
  8
0-0
  6
Continuous
 62
     7
370
     9
100
AcDbLine
 10
-804.6723901001426
 20
-260.0116666666738
 30
0.0
 11
-819.6723901001426
 21
-275.0116666666738
 31
0.0
  0
LINE
  5
B6
330
1F
100
AcDbEntity
  8
0-0
  6
Continuous
 62
     7
370
     9
100
AcDbLine
 10
-1407.672390100141
 20
-185.0116666666738
 30
0.0
 11
-804.6723901001426
 21
-185.0116666666738
 31
0.0
  0
LINE
  5
B7
330
1F
100
AcDbEntity
  8
0-0
  6
Continuous
 62
     7
370
     9
100
AcDbLine
 10
-1407.672390100141
 20
-260.0116666666738
 30
0.0
 11
-804.6723901001426
 21
-260.0116666666738
 31
0.0
  0
LINE
  5
B8
330
1F
100
AcDbEntity
  8
0-0
  6
Continuous
 62
     7
370
     9
100
AcDbLine
 10
-1362.672390100141
 20
-663.0116666666738
 30
0.0
 11
-1362.672390100141
 21
-305.0116666666738
 31
0.0
  0
LINE
  5
B9
330
1F
100
AcDbEntity
  8
0-0
  6
Continuous
 62
     7
370
     9
100
AcDbLine
 10
-1362.672390100141
 20
-663.0116666666738
 30
0.0
 11
-1377.672390100141
 21
-678.0116666666738
 31
0.0
  0
LINE
  5
BA
330
1F
100
AcDbEntity
  8
0-0
  6
Continuous
 62
     7
370
     9
100
AcDbLine
 10
-1377.672390100141
 20
-290.0116666666738
 30
0.0
 11
-1362.672390100141
 21
-305.0116666666738
 31
0.0
  0
LINE
  5
BB
330
1F
100
AcDbEntity
  8
0-0
  6
Continuous
 62
     7
370
     9
100
AcDbLine
 10
-849.6723901001426
 20
-663.0116666666738
 30
0.0
 11
-834.6723901001426
 21
-678.0116666666738
 31
0.0
  0
LINE
  5
BC
330
1F
100
AcDbEntity
  8
0-0
  6
Continuous
 62
     7
370
     9
100
AcDbLine
 10
-834.6723901001426
 20
-290.0116666666738
 30
0.0
 11
-849.6723901001426
 21
-305.0116666666738
 31
0.0
  0
LINE
  5
BD
330
1F
100
AcDbEntity
  8
0-0
  6
Continuous
 62
     7
370
     9
100
AcDbLine
 10
-1362.672390100141
 20
-305.0116666666738
 30
0.0
 11
-849.6723901001426
 21
-305.0116666666738
 31
0.0
  0
LINE
  5
BE
330
1F
100
AcDbEntity
  8
0-0
  6
Continuous
 62
     7
370
     9
100
AcDbLine
 10
-849.6723901001426
 20
-663.0116666666738
 30
0.0
 11
-849.6723901001426
 21
-305.0116666666738
 31
0.0
  0
LINE
  5
BF
330
1F
100
AcDbEntity
  8
0-0
  6
Continuous
 62
     7
370
     9
100
AcDbLine
 10
-1362.672390100141
 20
-663.0116666666738
 30
0.0
 11
-849.6723901001426
 21
-663.0116666666738
 31
0.0
  0
LINE
  5
C0
330
1F
100
AcDbEntity
  8
0-0
  6
Continuous
 62
    92
370
    13
100
AcDbLine
 10
-1392.672390100141
 20
1004.988333333326
 30
0.0
 11
-819.6723901001426
 21
1004.988333333326
 31
0.0
  0
LINE
  5
C1
330
1F
100
AcDbEntity
  8
0-0
  6
Continuous
 62
    92
370
    13
100
AcDbLine
 10
-1392.672390100141
 20
-693.0116666666738
 30
0.0
 11
-819.6723901001426
 21
-693.0116666666738
 31
0.0
  0
LINE
  5
C2
330
1F
100
AcDbEntity
  8
0-0
  6
Continuous
 62
    92
370
    13
100
AcDbLine
 10
-1392.672390100141
 20
-170.0116666666738
 30
0.0
 11
-819.6723901001426
 21
-170.0116666666738
 31
0.0
  0
LINE
  5
C3
330
1F
100
AcDbEntity
  8
0-0
  6
Continuous
 62
    92
370
    13
100
AcDbLine
 10
-1392.672390100141
 20
-275.0116666666738
 30
0.0
 11
-819.6723901001426
 21
-275.0116666666738
 31
0.0
  0
LINE
  5
C4
330
1F
100
AcDbEntity
  8
0-0
  6
Continuous
 62
    92
370
    13
100
AcDbLine
 10
-1392.672390100141
 20
-170.0116666666738
 30
0.0
 11
-1392.672390100141
 21
1004.988333333326
 31
0.0
  0
LINE
  5
C5
330
1F
100
AcDbEntity
  8
0-0
  6
Continuous
 62
    92
370
    13
100
AcDbLine
 10
-1392.672390100141
 20
-693.0116666666738
 30
0.0
 11
-1392.672390100141
 21
-275.0116666666738
 31
0.0
  0
LINE
  5
C6
330
1F
100
AcDbEntity
  8
0-0
  6
Continuous
 62
    92
370
    13
100
AcDbLine
 10
-819.6723901001426
 20
-170.0116666666738
 30
0.0
 11
-819.6723901001426
 21
1004.988333333326
 31
0.0
  0
LINE
  5
C7
330
1F
100
AcDbEntity
  8
0-0
  6
Continuous
 62
    92
370
    13
100
AcDbLine
 10
-819.6723901001426
 20
-693.0116666666738
 30
0.0
 11
-819.6723901001426
 21
-275.0116666666738
 31
0.0
  0
LINE
  5
C8
330
1F
100
AcDbEntity
  8
0-0
  6
Continuous
 62
     7
370
     9
100
AcDbLine
 10
-612.6723901001416
 20
-693.0116666666738
 30
0.0
 11
-627.6723901001416
 21
-708.0116666666738
 31
0.0
  0
LINE
  5
C9
330
1F
100
AcDbEntity
  8
0-0
  6
Continuous
 62
     7
370
     9
100
AcDbLine
 10
-627.6723901001416
 20
1019.988333333326
 30
0.0
 11
-612.6723901001416
 21
1004.988333333326
 31
0.0
  0
LINE
  5
CA
330
1F
100
AcDbEntity
  8
0-0
  6
Continuous
 62
     7
370
     9
100
AcDbLine
 10
-627.6723901001416
 20
-843.0116666666738
 30
0.0
 11
-627.6723901001416
 21
1139.988333333326
 31
0.0
  0
LINE
  5
CB
330
1F
100
AcDbEntity
  8
0-0
  6
Continuous
 62
     7
370
     9
100
AcDbLine
 10
-39.67239010014254
 20
-693.0116666666738
 30
0.0
 11
-24.67239010014254
 21
-708.0116666666738
 31
0.0
  0
LINE
  5
CC
330
1F
100
AcDbEntity
  8
0-0
  6
Continuous
 62
     7
370
     9
100
AcDbLine
 10
-24.67239010014254
 20
1019.988333333326
 30
0.0
 11
-39.67239010014254
 21
1004.988333333326
 31
0.0
  0
LINE
  5
CD
330
1F
100
AcDbEntity
  8
0-0
  6
Continuous
 62
     7
370
     9
100
AcDbLine
 10
-24.67239010014254
 20
-843.0116666666738
 30
0.0
 11
-24.67239010014254
 21
1139.988333333326
 31
0.0
  0
LINE
  5
CE
330
1F
100
AcDbEntity
  8
0-0
  6
Continuous
 62
     7
370
     9
100
AcDbLine
 10
-627.6723901001416
 20
1019.988333333326
 30
0.0
 11
-24.67239010014254
 21
1019.988333333326
 31
0.0
  0
LINE
  5
CF
330
1F
100
AcDbEntity
  8
0-0
  6
Continuous
 62
     7
370
     9
100
AcDbLine
 10
-627.6723901001416
 20
-708.0116666666738
 30
0.0
 11
-24.67239010014254
 21
-708.0116666666738
 31
0.0
  0
LINE
  5
D0
330
1F
100
AcDbEntity
  8
0-0
  6
Continuous
 62
     7
370
     9
100
AcDbLine
 10
-612.6723901001416
 20
-170.0116666666738
 30
0.0
 11
-627.6723901001416
 21
-185.0116666666738
 31
0.0
  0
LINE
  5
D1
330
1F
100
AcDbEntity
  8
0-0
  6
Continuous
 62
     7
370
     9
100
AcDbLine
 10
-627.6723901001416
 20
-260.0116666666738
 30
0.0
 11
-612.6723901001416
 21
-275.0116666666738
 31
0.0
  0
LINE
  5
D2
330
1F
100
AcDbEntity
  8
0-0
  6
Continuous
 62
     7
370
     9
100
AcDbLine
 10
-39.67239010014254
 20
-170.0116666666738
 30
0.0
 11
-24.67239010014254
 21
-185.0116666666738
 31
0.0
  0
LINE
  5
D3
330
1F
100
AcDbEntity
  8
0-0
  6
Continuous
 62
     7
370
     9
100
AcDbLine
 10
-24.67239010014254
 20
-260.0116666666738
 30
0.0
 11
-39.67239010014254
 21
-275.0116666666738
 31
0.0
  0
LINE
  5
D4
330
1F
100
AcDbEntity
  8
0-0
  6
Continuous
 62
     7
370
     9
100
AcDbLine
 10
-627.6723901001416
 20
-185.0116666666738
 30
0.0
 11
-24.67239010014254
 21
-185.0116666666738
 31
0.0
  0
LINE
  5
D5
330
1F
100
AcDbEntity
  8
0-0
  6
Continuous
 62
     7
370
     9
100
AcDbLine
 10
-627.6723901001416
 20
-260.0116666666738
 30
0.0
 11
-24.67239010014254
 21
-260.0116666666738
 31
0.0
  0
LINE
  5
D6
330
1F
100
AcDbEntity
  8
0-0
  6
Continuous
 62
     7
370
     9
100
AcDbLine
 10
-582.6723901001416
 20
-663.0116666666738
 30
0.0
 11
-582.6723901001416
 21
-305.0116666666738
 31
0.0
  0
LINE
  5
D7
330
1F
100
AcDbEntity
  8
0-0
  6
Continuous
 62
     7
370
     9
100
AcDbLine
 10
-582.6723901001416
 20
-663.0116666666738
 30
0.0
 11
-597.6723901001416
 21
-678.0116666666738
 31
0.0
  0
LINE
  5
D8
330
1F
100
AcDbEntity
  8
0-0
  6
Continuous
 62
     7
370
     9
100
AcDbLine
 10
-597.6723901001416
 20
-290.0116666666738
 30
0.0
 11
-582.6723901001416
 21
-305.0116666666738
 31
0.0
  0
LINE
  5
D9
330
1F
100
AcDbEntity
  8
0-0
  6
Continuous
 62
     7
370
     9
100
AcDbLine
 10
-69.67239010014254
 20
-663.0116666666738
 30
0.0
 11
-54.67239010014254
 21
-678.0116666666738
 31
0.0
  0
LINE
  5
DA
330
1F
100
AcDbEntity
  8
0-0
  6
Continuous
 62
     7
370
     9
100
AcDbLine
 10
-54.67239010014254
 20
-290.0116666666738
 30
0.0
 11
-69.67239010014254
 21
-305.0116666666738
 31
0.0
  0
LINE
  5
DB
330
1F
100
AcDbEntity
  8
0-0
  6
Continuous
 62
     7
370
     9
100
AcDbLine
 10
-582.6723901001416
 20
-305.0116666666738
 30
0.0
 11
-69.67239010014254
 21
-305.0116666666738
 31
0.0
  0
LINE
  5
DC
330
1F
100
AcDbEntity
  8
0-0
  6
Continuous
 62
     7
370
     9
100
AcDbLine
 10
-69.67239010014254
 20
-663.0116666666738
 30
0.0
 11
-69.67239010014254
 21
-305.0116666666738
 31
0.0
  0
LINE
  5
DD
330
1F
100
AcDbEntity
  8
0-0
  6
Continuous
 62
     7
370
     9
100
AcDbLine
 10
-582.6723901001416
 20
-663.0116666666738
 30
0.0
 11
-69.67239010014254
 21
-663.0116666666738
 31
0.0
  0
LINE
  5
DE
330
1F
100
AcDbEntity
  8
0-0
  6
Continuous
 62
    92
370
    13
100
AcDbLine
 10
-612.6723901001416
 20
1004.988333333326
 30
0.0
 11
-39.67239010014254
 21
1004.988333333326
 31
0.0
  0
LINE
  5
DF
330
1F
100
AcDbEntity
  8
0-0
  6
Continuous
 62
    92
370
    13
100
AcDbLine
 10
-612.6723901001416
 20
-693.0116666666738
 30
0.0
 11
-39.67239010014254
 21
-693.0116666666738
 31
0.0
  0
LINE
  5
E0
330
1F
100
AcDbEntity
  8
0-0
  6
Continuous
 62
    92
370
    13
100
AcDbLine
 10
-612.6723901001416
 20
-170.0116666666738
 30
0.0
 11
-39.67239010014254
 21
-170.0116666666738
 31
0.0
  0
LINE
  5
E1
330
1F
100
AcDbEntity
  8
0-0
  6
Continuous
 62
    92
370
    13
100
AcDbLine
 10
-612.6723901001416
 20
-275.0116666666738
 30
0.0
 11
-39.67239010014254
 21
-275.0116666666738
 31
0.0
  0
LINE
  5
E2
330
1F
100
AcDbEntity
  8
0-0
  6
Continuous
 62
    92
370
    13
100
AcDbLine
 10
-612.6723901001416
 20
-170.0116666666738
 30
0.0
 11
-612.6723901001416
 21
1004.988333333326
 31
0.0
  0
LINE
  5
E3
330
1F
100
AcDbEntity
  8
0-0
  6
Continuous
 62
    92
370
    13
100
AcDbLine
 10
-612.6723901001416
 20
-693.0116666666738
 30
0.0
 11
-612.6723901001416
 21
-275.0116666666738
 31
0.0
  0
LINE
  5
E4
330
1F
100
AcDbEntity
  8
0-0
  6
Continuous
 62
    92
370
    13
100
AcDbLine
 10
-39.67239010014254
 20
-170.0116666666738
 30
0.0
 11
-39.67239010014254
 21
1004.988333333326
 31
0.0
  0
LINE
  5
E5
330
1F
100
AcDbEntity
  8
0-0
  6
Continuous
 62
    92
370
    13
100
AcDbLine
 10
-39.67239010014254
 20
-693.0116666666738
 30
0.0
 11
-39.67239010014254
 21
-275.0116666666738
 31
0.0
  0
LINE
  5
E6
330
1F
100
AcDbEntity
  8
0-0
  6
Continuous
 62
     7
370
     9
100
AcDbLine
 10
197.3276098998585
 20
-693.0116666666738
 30
0.0
 11
182.3276098998585
 21
-708.0116666666738
 31
0.0
  0
LINE
  5
E7
330
1F
100
AcDbEntity
  8
0-0
  6
Continuous
 62
     7
370
     9
100
AcDbLine
 10
182.3276098998585
 20
1019.988333333326
 30
0.0
 11
197.3276098998585
 21
1004.988333333326
 31
0.0
  0
LINE
  5
E8
330
1F
100
AcDbEntity
  8
0-0
  6
Continuous
 62
     7
370
     9
100
AcDbLine
 10
182.3276098998585
 20
-843.0116666666738
 30
0.0
 11
182.3276098998585
 21
1139.988333333326
 31
0.0
  0
LINE
  5
E9
330
1F
100
AcDbEntity
  8
0-0
  6
Continuous
 62
     7
370
     9
100
AcDbLine
 10
770.3276098998574
 20
-693.0116666666738
 30
0.0
 11
785.3276098998574
 21
-708.0116666666738
 31
0.0
  0
LINE
  5
EA
330
1F
100
AcDbEntity
  8
0-0
  6
Continuous
 62
     7
370
     9
100
AcDbLine
 10
785.3276098998574
 20
1019.988333333326
 30
0.0
 11
770.3276098998574
 21
1004.988333333326
 31
0.0
  0
LINE
  5
EB
330
1F
100
AcDbEntity
  8
0-0
  6
Continuous
 62
     7
370
     9
100
AcDbLine
 10
785.3276098998574
 20
-843.0116666666738
 30
0.0
 11
785.3276098998574
 21
1139.988333333326
 31
0.0
  0
LINE
  5
EC
330
1F
100
AcDbEntity
  8
0-0
  6
Continuous
 62
     7
370
     9
100
AcDbLine
 10
182.3276098998585
 20
1019.988333333326
 30
0.0
 11
785.3276098998574
 21
1019.988333333326
 31
0.0
  0
LINE
  5
ED
330
1F
100
AcDbEntity
  8
0-0
  6
Continuous
 62
     7
370
     9
100
AcDbLine
 10
182.3276098998585
 20
-708.0116666666738
 30
0.0
 11
785.3276098998574
 21
-708.0116666666738
 31
0.0
  0
LINE
  5
EE
330
1F
100
AcDbEntity
  8
0-0
  6
Continuous
 62
     7
370
     9
100
AcDbLine
 10
197.3276098998585
 20
-170.0116666666738
 30
0.0
 11
182.3276098998585
 21
-185.0116666666738
 31
0.0
  0
LINE
  5
EF
330
1F
100
AcDbEntity
  8
0-0
  6
Continuous
 62
     7
370
     9
100
AcDbLine
 10
182.3276098998585
 20
-260.0116666666738
 30
0.0
 11
197.3276098998585
 21
-275.0116666666738
 31
0.0
  0
LINE
  5
F0
330
1F
100
AcDbEntity
  8
0-0
  6
Continuous
 62
     7
370
     9
100
AcDbLine
 10
770.3276098998574
 20
-170.0116666666738
 30
0.0
 11
785.3276098998574
 21
-185.0116666666738
 31
0.0
  0
LINE
  5
F1
330
1F
100
AcDbEntity
  8
0-0
  6
Continuous
 62
     7
370
     9
100
AcDbLine
 10
785.3276098998574
 20
-260.0116666666738
 30
0.0
 11
770.3276098998574
 21
-275.0116666666738
 31
0.0
  0
LINE
  5
F2
330
1F
100
AcDbEntity
  8
0-0
  6
Continuous
 62
     7
370
     9
100
AcDbLine
 10
182.3276098998585
 20
-185.0116666666738
 30
0.0
 11
785.3276098998574
 21
-185.0116666666738
 31
0.0
  0
LINE
  5
F3
330
1F
100
AcDbEntity
  8
0-0
  6
Continuous
 62
     7
370
     9
100
AcDbLine
 10
182.3276098998585
 20
-260.0116666666738
 30
0.0
 11
785.3276098998574
 21
-260.0116666666738
 31
0.0
  0
LINE
  5
F4
330
1F
100
AcDbEntity
  8
0-0
  6
Continuous
 62
     7
370
     9
100
AcDbLine
 10
227.3276098998585
 20
-663.0116666666738
 30
0.0
 11
227.3276098998585
 21
-305.0116666666738
 31
0.0
  0
LINE
  5
F5
330
1F
100
AcDbEntity
  8
0-0
  6
Continuous
 62
     7
370
     9
100
AcDbLine
 10
227.3276098998585
 20
-663.0116666666738
 30
0.0
 11
212.3276098998585
 21
-678.0116666666738
 31
0.0
  0
LINE
  5
F6
330
1F
100
AcDbEntity
  8
0-0
  6
Continuous
 62
     7
370
     9
100
AcDbLine
 10
212.3276098998585
 20
-290.0116666666738
 30
0.0
 11
227.3276098998585
 21
-305.0116666666738
 31
0.0
  0
LINE
  5
F7
330
1F
100
AcDbEntity
  8
0-0
  6
Continuous
 62
     7
370
     9
100
AcDbLine
 10
740.3276098998574
 20
-663.0116666666738
 30
0.0
 11
755.3276098998574
 21
-678.0116666666738
 31
0.0
  0
LINE
  5
F8
330
1F
100
AcDbEntity
  8
0-0
  6
Continuous
 62
     7
370
     9
100
AcDbLine
 10
755.3276098998574
 20
-290.0116666666738
 30
0.0
 11
740.3276098998574
 21
-305.0116666666738
 31
0.0
  0
LINE
  5
F9
330
1F
100
AcDbEntity
  8
0-0
  6
Continuous
 62
     7
370
     9
100
AcDbLine
 10
227.3276098998585
 20
-305.0116666666738
 30
0.0
 11
740.3276098998574
 21
-305.0116666666738
 31
0.0
  0
LINE
  5
FA
330
1F
100
AcDbEntity
  8
0-0
  6
Continuous
 62
     7
370
     9
100
AcDbLine
 10
740.3276098998574
 20
-663.0116666666738
 30
0.0
 11
740.3276098998574
 21
-305.0116666666738
 31
0.0
  0
LINE
  5
FB
330
1F
100
AcDbEntity
  8
0-0
  6
Continuous
 62
     7
370
     9
100
AcDbLine
 10
227.3276098998585
 20
-663.0116666666738
 30
0.0
 11
740.3276098998574
 21
-663.0116666666738
 31
0.0
  0
LINE
  5
FC
330
1F
100
AcDbEntity
  8
0-0
  6
Continuous
 62
    92
370
    13
100
AcDbLine
 10
197.3276098998585
 20
1004.988333333326
 30
0.0
 11
770.3276098998574
 21
1004.988333333326
 31
0.0
  0
LINE
  5
FD
330
1F
100
AcDbEntity
  8
0-0
  6
Continuous
 62
    92
370
    13
100
AcDbLine
 10
197.3276098998585
 20
-693.0116666666738
 30
0.0
 11
770.3276098998574
 21
-693.0116666666738
 31
0.0
  0
LINE
  5
FE
330
1F
100
AcDbEntity
  8
0-0
  6
Continuous
 62
    92
370
    13
100
AcDbLine
 10
197.3276098998585
 20
-170.0116666666738
 30
0.0
 11
770.3276098998574
 21
-170.0116666666738
 31
0.0
  0
LINE
  5
FF
330
1F
100
AcDbEntity
  8
0-0
  6
Continuous
 62
    92
370
    13
100
AcDbLine
 10
197.3276098998585
 20
-275.0116666666738
 30
0.0
 11
770.3276098998574
 21
-275.0116666666738
 31
0.0
  0
LINE
  5
100
330
1F
100
AcDbEntity
  8
0-0
  6
Continuous
 62
    92
370
    13
100
AcDbLine
 10
197.3276098998585
 20
-170.0116666666738
 30
0.0
 11
197.3276098998585
 21
1004.988333333326
 31
0.0
  0
LINE
  5
101
330
1F
100
AcDbEntity
  8
0-0
  6
Continuous
 62
    92
370
    13
100
AcDbLine
 10
197.3276098998585
 20
-693.0116666666738
 30
0.0
 11
197.3276098998585
 21
-275.0116666666738
 31
0.0
  0
LINE
  5
102
330
1F
100
AcDbEntity
  8
0-0
  6
Continuous
 62
    92
370
    13
100
AcDbLine
 10
770.3276098998574
 20
-170.0116666666738
 30
0.0
 11
770.3276098998574
 21
1004.988333333326
 31
0.0
  0
LINE
  5
103
330
1F
100
AcDbEntity
  8
0-0
  6
Continuous
 62
    92
370
    13
100
AcDbLine
 10
770.3276098998574
 20
-693.0116666666738
 30
0.0
 11
770.3276098998574
 21
-275.0116666666738
 31
0.0
  0
LINE
  5
104
330
1F
100
AcDbEntity
  8
0-0
  6
Continuous
 62
     7
370
     9
100
AcDbLine
 10
977.3276098998585
 20
-693.0116666666738
 30
0.0
 11
962.3276098998585
 21
-708.0116666666738
 31
0.0
  0
LINE
  5
105
330
1F
100
AcDbEntity
  8
0-0
  6
Continuous
 62
     7
370
     9
100
AcDbLine
 10
962.3276098998585
 20
1019.988333333326
 30
0.0
 11
977.3276098998585
 21
1004.988333333326
 31
0.0
  0
LINE
  5
106
330
1F
100
AcDbEntity
  8
0-0
  6
Continuous
 62
     7
370
     9
100
AcDbLine
 10
962.3276098998585
 20
-843.0116666666738
 30
0.0
 11
962.3276098998585
 21
1139.988333333326
 31
0.0
  0
LINE
  5
107
330
1F
100
AcDbEntity
  8
0-0
  6
Continuous
 62
     7
370
     9
100
AcDbLine
 10
1550.327609899857
 20
-693.0116666666738
 30
0.0
 11
1565.327609899857
 21
-708.0116666666738
 31
0.0
  0
LINE
  5
108
330
1F
100
AcDbEntity
  8
0-0
  6
Continuous
 62
     7
370
     9
100
AcDbLine
 10
1565.327609899857
 20
1019.988333333326
 30
0.0
 11
1550.327609899857
 21
1004.988333333326
 31
0.0
  0
LINE
  5
109
330
1F
100
AcDbEntity
  8
0-0
  6
Continuous
 62
     7
370
     9
100
AcDbLine
 10
1565.327609899857
 20
-843.0116666666738
 30
0.0
 11
1565.327609899857
 21
1139.988333333326
 31
0.0
  0
LINE
  5
10A
330
1F
100
AcDbEntity
  8
0-0
  6
Continuous
 62
     7
370
     9
100
AcDbLine
 10
962.3276098998585
 20
1019.988333333326
 30
0.0
 11
1565.327609899857
 21
1019.988333333326
 31
0.0
  0
LINE
  5
10B
330
1F
100
AcDbEntity
  8
0-0
  6
Continuous
 62
     7
370
     9
100
AcDbLine
 10
962.3276098998585
 20
-708.0116666666738
 30
0.0
 11
1565.327609899857
 21
-708.0116666666738
 31
0.0
  0
LINE
  5
10C
330
1F
100
AcDbEntity
  8
0-0
  6
Continuous
 62
     7
370
     9
100
AcDbLine
 10
977.3276098998585
 20
-170.0116666666738
 30
0.0
 11
962.3276098998585
 21
-185.0116666666738
 31
0.0
  0
LINE
  5
10D
330
1F
100
AcDbEntity
  8
0-0
  6
Continuous
 62
     7
370
     9
100
AcDbLine
 10
962.3276098998585
 20
-260.0116666666738
 30
0.0
 11
977.3276098998585
 21
-275.0116666666738
 31
0.0
  0
LINE
  5
10E
330
1F
100
AcDbEntity
  8
0-0
  6
Continuous
 62
     7
370
     9
100
AcDbLine
 10
1550.327609899857
 20
-170.0116666666738
 30
0.0
 11
1565.327609899857
 21
-185.0116666666738
 31
0.0
  0
LINE
  5
10F
330
1F
100
AcDbEntity
  8
0-0
  6
Continuous
 62
     7
370
     9
100
AcDbLine
 10
1565.327609899857
 20
-260.0116666666738
 30
0.0
 11
1550.327609899857
 21
-275.0116666666738
 31
0.0
  0
LINE
  5
110
330
1F
100
AcDbEntity
  8
0-0
  6
Continuous
 62
     7
370
     9
100
AcDbLine
 10
962.3276098998585
 20
-185.0116666666738
 30
0.0
 11
1565.327609899857
 21
-185.0116666666738
 31
0.0
  0
LINE
  5
111
330
1F
100
AcDbEntity
  8
0-0
  6
Continuous
 62
     7
370
     9
100
AcDbLine
 10
962.3276098998585
 20
-260.0116666666738
 30
0.0
 11
1565.327609899857
 21
-260.0116666666738
 31
0.0
  0
LINE
  5
112
330
1F
100
AcDbEntity
  8
0-0
  6
Continuous
 62
     7
370
     9
100
AcDbLine
 10
1007.327609899859
 20
-663.0116666666738
 30
0.0
 11
1007.327609899859
 21
-305.0116666666738
 31
0.0
  0
LINE
  5
113
330
1F
100
AcDbEntity
  8
0-0
  6
Continuous
 62
     7
370
     9
100
AcDbLine
 10
1007.327609899859
 20
-663.0116666666738
 30
0.0
 11
992.3276098998585
 21
-678.0116666666738
 31
0.0
  0
LINE
  5
114
330
1F
100
AcDbEntity
  8
0-0
  6
Continuous
 62
     7
370
     9
100
AcDbLine
 10
992.3276098998585
 20
-290.0116666666738
 30
0.0
 11
1007.327609899859
 21
-305.0116666666738
 31
0.0
  0
LINE
  5
115
330
1F
100
AcDbEntity
  8
0-0
  6
Continuous
 62
     7
370
     9
100
AcDbLine
 10
1520.327609899857
 20
-663.0116666666738
 30
0.0
 11
1535.327609899857
 21
-678.0116666666738
 31
0.0
  0
LINE
  5
116
330
1F
100
AcDbEntity
  8
0-0
  6
Continuous
 62
     7
370
     9
100
AcDbLine
 10
1535.327609899857
 20
-290.0116666666738
 30
0.0
 11
1520.327609899857
 21
-305.0116666666738
 31
0.0
  0
LINE
  5
117
330
1F
100
AcDbEntity
  8
0-0
  6
Continuous
 62
     7
370
     9
100
AcDbLine
 10
1007.327609899859
 20
-305.0116666666738
 30
0.0
 11
1520.327609899857
 21
-305.0116666666738
 31
0.0
  0
LINE
  5
118
330
1F
100
AcDbEntity
  8
0-0
  6
Continuous
 62
     7
370
     9
100
AcDbLine
 10
1520.327609899857
 20
-663.0116666666738
 30
0.0
 11
1520.327609899857
 21
-305.0116666666738
 31
0.0
  0
LINE
  5
119
330
1F
100
AcDbEntity
  8
0-0
  6
Continuous
 62
     7
370
     9
100
AcDbLine
 10
1007.327609899859
 20
-663.0116666666738
 30
0.0
 11
1520.327609899857
 21
-663.0116666666738
 31
0.0
  0
LINE
  5
11A
330
1F
100
AcDbEntity
  8
0-0
  6
Continuous
 62
    92
370
    13
100
AcDbLine
 10
977.3276098998585
 20
1004.988333333326
 30
0.0
 11
1550.327609899857
 21
1004.988333333326
 31
0.0
  0
LINE
  5
11B
330
1F
100
AcDbEntity
  8
0-0
  6
Continuous
 62
    92
370
    13
100
AcDbLine
 10
977.3276098998585
 20
-693.0116666666738
 30
0.0
 11
1550.327609899857
 21
-693.0116666666738
 31
0.0
  0
LINE
  5
11C
330
1F
100
AcDbEntity
  8
0-0
  6
Continuous
 62
    92
370
    13
100
AcDbLine
 10
977.3276098998585
 20
-170.0116666666738
 30
0.0
 11
1550.327609899857
 21
-170.0116666666738
 31
0.0
  0
LINE
  5
11D
330
1F
100
AcDbEntity
  8
0-0
  6
Continuous
 62
    92
370
    13
100
AcDbLine
 10
977.3276098998585
 20
-275.0116666666738
 30
0.0
 11
1550.327609899857
 21
-275.0116666666738
 31
0.0
  0
LINE
  5
11E
330
1F
100
AcDbEntity
  8
0-0
  6
Continuous
 62
    92
370
    13
100
AcDbLine
 10
977.3276098998585
 20
-170.0116666666738
 30
0.0
 11
977.3276098998585
 21
1004.988333333326
 31
0.0
  0
LINE
  5
11F
330
1F
100
AcDbEntity
  8
0-0
  6
Continuous
 62
    92
370
    13
100
AcDbLine
 10
977.3276098998585
 20
-693.0116666666738
 30
0.0
 11
977.3276098998585
 21
-275.0116666666738
 31
0.0
  0
LINE
  5
120
330
1F
100
AcDbEntity
  8
0-0
  6
Continuous
 62
    92
370
    13
100
AcDbLine
 10
1550.327609899857
 20
-170.0116666666738
 30
0.0
 11
1550.327609899857
 21
1004.988333333326
 31
0.0
  0
LINE
  5
121
330
1F
100
AcDbEntity
  8
0-0
  6
Continuous
 62
    92
370
    13
100
AcDbLine
 10
1550.327609899857
 20
-693.0116666666738
 30
0.0
 11
1550.327609899857
 21
-275.0116666666738
 31
0.0
  0
LINE
  5
122
330
1F
100
AcDbEntity
  8
0-0
  6
JWW_DASHED1
 62
   120
370
     5
100
AcDbLine
 10
-1392.672390100142
 20
-169.0118149806173
 30
0.0
 11
-819.6723901001417
 21
-169.0118149806173
 31
0.0
  0
LINE
  5
123
330
1F
100
AcDbEntity
  8
0-0
  6
JWW_DASHED1
 62
   120
370
     5
100
AcDbLine
 10
-1392.672390100142
 20
-156.0118149795178
 30
0.0
 11
-819.6723901001417
 21
-156.0118149795178
 31
0.0
  0
LINE
  5
124
330
1F
100
AcDbEntity
  8
0-0
  6
JWW_DASHED1
 62
   120
370
     5
100
AcDbLine
 10
-1392.672390100142
 20
-155.0118149796176
 30
0.0
 11
-819.6723901001417
 21
-155.0118149796176
 31
0.0
  0
LINE
  5
125
330
1F
100
AcDbEntity
  8
0-0
  6
JWW_DASHED1
 62
   120
370
     5
100
AcDbLine
 10
-1392.672390100142
 20
-142.0118149785179
 30
0.0
 11
-819.6723901001417
 21
-142.0118149785179
 31
0.0
  0
LINE
  5
126
330
1F
100
AcDbEntity
  8
0-0
  6
JWW_DASHED1
 62
   120
370
     5
100
AcDbLine
 10
-1392.672390100142
 20
-141.0118149786177
 30
0.0
 11
-819.6723901001417
 21
-141.0118149786177
 31
0.0
  0
LINE
  5
127
330
1F
100
AcDbEntity
  8
0-0
  6
JWW_DASHED1
 62
   120
370
     5
100
AcDbLine
 10
-1392.672390100142
 20
-128.0118149775181
 30
0.0
 11
-819.6723901001417
 21
-128.0118149775181
 31
0.0
  0
LINE
  5
128
330
1F
100
AcDbEntity
  8
0-0
  6
JWW_DASHED1
 62
   120
370
     5
100
AcDbLine
 10
-1392.672390100142
 20
-127.0118149776179
 30
0.0
 11
-819.6723901001417
 21
-127.0118149776179
 31
0.0
  0
LINE
  5
129
330
1F
100
AcDbEntity
  8
0-0
  6
JWW_DASHED1
 62
   120
370
     5
100
AcDbLine
 10
-1392.672390100142
 20
-114.0118149765183
 30
0.0
 11
-819.6723901001417
 21
-114.0118149765183
 31
0.0
  0
LINE
  5
12A
330
1F
100
AcDbEntity
  8
0-0
  6
JWW_DASHED1
 62
   120
370
     5
100
AcDbLine
 10
-1392.672390100142
 20
-113.0118149766182
 30
0.0
 11
-819.6723901001417
 21
-113.0118149766182
 31
0.0
  0
LINE
  5
12B
330
1F
100
AcDbEntity
  8
0-0
  6
JWW_DASHED1
 62
   120
370
     5
100
AcDbLine
 10
-1392.672390100142
 20
-100.0118149755185
 30
0.0
 11
-819.6723901001417
 21
-100.0118149755185
 31
0.0
  0
LINE
  5
12C
330
1F
100
AcDbEntity
  8
0-0
  6
JWW_DASHED1
 62
   120
370
     5
100
AcDbLine
 10
-1392.672390100142
 20
-99.01181497561836
 30
0.0
 11
-819.6723901001417
 21
-99.01181497561836
 31
0.0
  0
LINE
  5
12D
330
1F
100
AcDbEntity
  8
0-0
  6
JWW_DASHED1
 62
   120
370
     5
100
AcDbLine
 10
-1392.672390100142
 20
-86.01181497451876
 30
0.0
 11
-819.6723901001417
 21
-86.01181497451876
 31
0.0
  0
LINE
  5
12E
330
1F
100
AcDbEntity
  8
0-0
  6
JWW_DASHED1
 62
   120
370
     5
100
AcDbLine
 10
-1392.672390100142
 20
-85.01181497461857
 30
0.0
 11
-819.6723901001417
 21
-85.01181497461857
 31
0.0
  0
LINE
  5
12F
330
1F
100
AcDbEntity
  8
0-0
  6
JWW_DASHED1
 62
   120
370
     5
100
AcDbLine
 10
-1392.672390100142
 20
-72.01181497351897
 30
0.0
 11
-819.6723901001417
 21
-72.01181497351897
 31
0.0
  0
LINE
  5
130
330
1F
100
AcDbEntity
  8
0-0
  6
JWW_DASHED1
 62
   120
370
     5
100
AcDbLine
 10
-1392.672390100142
 20
-71.01181497361878
 30
0.0
 11
-819.6723901001417
 21
-71.01181497361878
 31
0.0
  0
LINE
  5
131
330
1F
100
AcDbEntity
  8
0-0
  6
JWW_DASHED1
 62
   120
370
     5
100
AcDbLine
 10
-1392.672390100142
 20
-58.01181497251918
 30
0.0
 11
-819.6723901001417
 21
-58.01181497251918
 31
0.0
  0
LINE
  5
132
330
1F
100
AcDbEntity
  8
0-0
  6
JWW_DASHED1
 62
   120
370
     5
100
AcDbLine
 10
-1392.672390100142
 20
-57.01181497261899
 30
0.0
 11
-819.6723901001417
 21
-57.01181497261899
 31
0.0
  0
LINE
  5
133
330
1F
100
AcDbEntity
  8
0-0
  6
JWW_DASHED1
 62
   120
370
     5
100
AcDbLine
 10
-1392.672390100142
 20
-44.01181497151949
 30
0.0
 11
-819.6723901001417
 21
-44.01181497151949
 31
0.0
  0
LINE
  5
134
330
1F
100
AcDbEntity
  8
0-0
  6
JWW_DASHED1
 62
   120
370
     5
100
AcDbLine
 10
-1392.672390100142
 20
-43.01181497161931
 30
0.0
 11
-819.6723901001417
 21
-43.01181497161931
 31
0.0
  0
LINE
  5
135
330
1F
100
AcDbEntity
  8
0-0
  6
JWW_DASHED1
 62
   120
370
     5
100
AcDbLine
 10
-1392.672390100142
 20
-30.01181497051959
 30
0.0
 11
-819.6723901001417
 21
-30.01181497051959
 31
0.0
  0
LINE
  5
136
330
1F
100
AcDbEntity
  8
0-0
  6
JWW_DASHED1
 62
   120
370
     5
100
AcDbLine
 10
-1392.672390100142
 20
-29.01181497061941
 30
0.0
 11
-819.6723901001417
 21
-29.01181497061941
 31
0.0
  0
LINE
  5
137
330
1F
100
AcDbEntity
  8
0-0
  6
JWW_DASHED1
 62
   120
370
     5
100
AcDbLine
 10
-1392.672390100142
 20
-16.0118149695198
 30
0.0
 11
-819.6723901001417
 21
-16.0118149695198
 31
0.0
  0
LINE
  5
138
330
1F
100
AcDbEntity
  8
0-0
  6
JWW_DASHED1
 62
   120
370
     5
100
AcDbLine
 10
-1392.672390100142
 20
-15.01181496961962
 30
0.0
 11
-819.6723901001417
 21
-15.01181496961962
 31
0.0
  0
LINE
  5
139
330
1F
100
AcDbEntity
  8
0-0
  6
JWW_DASHED1
 62
   120
370
     5
100
AcDbLine
 10
-1392.672390100142
 20
-2.011814968520014
 30
0.0
 11
-819.6723901001417
 21
-2.011814968520014
 31
0.0
  0
LINE
  5
13A
330
1F
100
AcDbEntity
  8
0-0
  6
JWW_DASHED1
 62
   120
370
     5
100
AcDbLine
 10
-1392.672390100142
 20
-1.011814968619831
 30
0.0
 11
-819.6723901001417
 21
-1.011814968619831
 31
0.0
  0
LINE
  5
13B
330
1F
100
AcDbEntity
  8
0-0
  6
JWW_DASHED1
 62
   120
370
     5
100
AcDbLine
 10
-1392.672390100142
 20
11.98818503247978
 30
0.0
 11
-819.6723901001417
 21
11.98818503247978
 31
0.0
  0
LINE
  5
13C
330
1F
100
AcDbEntity
  8
0-0
  6
JWW_DASHED1
 62
   120
370
     5
100
AcDbLine
 10
-1392.672390100142
 20
12.98818503237996
 30
0.0
 11
-819.6723901001417
 21
12.98818503237996
 31
0.0
  0
LINE
  5
13D
330
1F
100
AcDbEntity
  8
0-0
  6
JWW_DASHED1
 62
   120
370
     5
100
AcDbLine
 10
-1392.672390100142
 20
25.98818503347957
 30
0.0
 11
-819.6723901001417
 21
25.98818503347957
 31
0.0
  0
LINE
  5
13E
330
1F
100
AcDbEntity
  8
0-0
  6
JWW_DASHED1
 62
   120
370
     5
100
AcDbLine
 10
-1392.672390100142
 20
26.98818503337975
 30
0.0
 11
-819.6723901001417
 21
26.98818503337975
 31
0.0
  0
LINE
  5
13F
330
1F
100
AcDbEntity
  8
0-0
  6
JWW_DASHED1
 62
   120
370
     5
100
AcDbLine
 10
-1392.672390100142
 20
39.98818503447936
 30
0.0
 11
-819.6723901001417
 21
39.98818503447936
 31
0.0
  0
LINE
  5
140
330
1F
100
AcDbEntity
  8
0-0
  6
JWW_DASHED1
 62
   120
370
     5
100
AcDbLine
 10
-1392.672390100142
 20
40.98818503437954
 30
0.0
 11
-819.6723901001417
 21
40.98818503437954
 31
0.0
  0
LINE
  5
141
330
1F
100
AcDbEntity
  8
0-0
  6
JWW_DASHED1
 62
   120
370
     5
100
AcDbLine
 10
-1392.672390100142
 20
53.98818503547915
 30
0.0
 11
-819.6723901001417
 21
53.98818503547915
 31
0.0
  0
LINE
  5
142
330
1F
100
AcDbEntity
  8
0-0
  6
JWW_DASHED1
 62
   120
370
     5
100
AcDbLine
 10
-1392.672390100142
 20
54.98818503537933
 30
0.0
 11
-819.6723901001417
 21
54.98818503537933
 31
0.0
  0
LINE
  5
143
330
1F
100
AcDbEntity
  8
0-0
  6
JWW_DASHED1
 62
   120
370
     5
100
AcDbLine
 10
-1392.672390100142
 20
67.98818503647882
 30
0.0
 11
-819.6723901001417
 21
67.98818503647882
 31
0.0
  0
LINE
  5
144
330
1F
100
AcDbEntity
  8
0-0
  6
JWW_DASHED1
 62
   120
370
     5
100
AcDbLine
 10
-1392.672390100142
 20
68.98818503637901
 30
0.0
 11
-819.6723901001417
 21
68.98818503637901
 31
0.0
  0
LINE
  5
145
330
1F
100
AcDbEntity
  8
0-0
  6
JWW_DASHED1
 62
   120
370
     5
100
AcDbLine
 10
-1392.672390100142
 20
81.98818503747873
 30
0.0
 11
-819.6723901001417
 21
81.98818503747873
 31
0.0
  0
LINE
  5
146
330
1F
100
AcDbEntity
  8
0-0
  6
JWW_DASHED1
 62
   120
370
     5
100
AcDbLine
 10
-1392.672390100142
 20
82.98818503737891
 30
0.0
 11
-819.6723901001417
 21
82.98818503737891
 31
0.0
  0
LINE
  5
147
330
1F
100
AcDbEntity
  8
0-0
  6
JWW_DASHED1
 62
   120
370
     5
100
AcDbLine
 10
-1392.672390100142
 20
95.98818503847852
 30
0.0
 11
-819.6723901001417
 21
95.98818503847852
 31
0.0
  0
LINE
  5
148
330
1F
100
AcDbEntity
  8
0-0
  6
JWW_DASHED1
 62
   120
370
     5
100
AcDbLine
 10
-1392.672390100142
 20
96.9881850383787
 30
0.0
 11
-819.6723901001417
 21
96.9881850383787
 31
0.0
  0
LINE
  5
149
330
1F
100
AcDbEntity
  8
0-0
  6
JWW_DASHED1
 62
   120
370
     5
100
AcDbLine
 10
-1392.672390100142
 20
109.9881850394783
 30
0.0
 11
-819.6723901001417
 21
109.9881850394783
 31
0.0
  0
LINE
  5
14A
330
1F
100
AcDbEntity
  8
0-0
  6
JWW_DASHED1
 62
   120
370
     5
100
AcDbLine
 10
-1392.672390100142
 20
110.9881850393785
 30
0.0
 11
-819.6723901001417
 21
110.9881850393785
 31
0.0
  0
LINE
  5
14B
330
1F
100
AcDbEntity
  8
0-0
  6
JWW_DASHED1
 62
   120
370
     5
100
AcDbLine
 10
-1392.672390100142
 20
123.9881850404781
 30
0.0
 11
-819.6723901001417
 21
123.9881850404781
 31
0.0
  0
LINE
  5
14C
330
1F
100
AcDbEntity
  8
0-0
  6
JWW_DASHED1
 62
   120
370
     5
100
AcDbLine
 10
-1392.672390100142
 20
124.9881850403783
 30
0.0
 11
-819.6723901001417
 21
124.9881850403783
 31
0.0
  0
LINE
  5
14D
330
1F
100
AcDbEntity
  8
0-0
  6
JWW_DASHED1
 62
   120
370
     5
100
AcDbLine
 10
-1392.672390100142
 20
137.9881850414779
 30
0.0
 11
-819.6723901001417
 21
137.9881850414779
 31
0.0
  0
LINE
  5
14E
330
1F
100
AcDbEntity
  8
0-0
  6
JWW_DASHED1
 62
   120
370
     5
100
AcDbLine
 10
-1392.672390100142
 20
138.9881850413781
 30
0.0
 11
-819.6723901001417
 21
138.9881850413781
 31
0.0
  0
LINE
  5
14F
330
1F
100
AcDbEntity
  8
0-0
  6
JWW_DASHED1
 62
   120
370
     5
100
AcDbLine
 10
-1392.672390100142
 20
151.9881850424777
 30
0.0
 11
-819.6723901001417
 21
151.9881850424777
 31
0.0
  0
LINE
  5
150
330
1F
100
AcDbEntity
  8
0-0
  6
JWW_DASHED1
 62
   120
370
     5
100
AcDbLine
 10
-1392.672390100142
 20
152.9881850423779
 30
0.0
 11
-819.6723901001417
 21
152.9881850423779
 31
0.0
  0
LINE
  5
151
330
1F
100
AcDbEntity
  8
0-0
  6
JWW_DASHED1
 62
   120
370
     5
100
AcDbLine
 10
-1392.672390100142
 20
165.9881850434775
 30
0.0
 11
-819.6723901001417
 21
165.9881850434775
 31
0.0
  0
LINE
  5
152
330
1F
100
AcDbEntity
  8
0-0
  6
JWW_DASHED1
 62
   120
370
     5
100
AcDbLine
 10
-1392.672390100142
 20
166.9881850433777
 30
0.0
 11
-819.6723901001417
 21
166.9881850433777
 31
0.0
  0
LINE
  5
153
330
1F
100
AcDbEntity
  8
0-0
  6
JWW_DASHED1
 62
   120
370
     5
100
AcDbLine
 10
-1392.672390100142
 20
179.9881850444773
 30
0.0
 11
-819.6723901001417
 21
179.9881850444773
 31
0.0
  0
LINE
  5
154
330
1F
100
AcDbEntity
  8
0-0
  6
JWW_DASHED1
 62
   120
370
     5
100
AcDbLine
 10
-1392.672390100142
 20
180.9881850443774
 30
0.0
 11
-819.6723901001417
 21
180.9881850443774
 31
0.0
  0
LINE
  5
155
330
1F
100
AcDbEntity
  8
0-0
  6
JWW_DASHED1
 62
   120
370
     5
100
AcDbLine
 10
-1392.672390100142
 20
193.9881850454771
 30
0.0
 11
-819.6723901001417
 21
193.9881850454771
 31
0.0
  0
LINE
  5
156
330
1F
100
AcDbEntity
  8
0-0
  6
JWW_DASHED1
 62
   120
370
     5
100
AcDbLine
 10
-1392.672390100142
 20
194.9881850453772
 30
0.0
 11
-819.6723901001417
 21
194.9881850453772
 31
0.0
  0
LINE
  5
157
330
1F
100
AcDbEntity
  8
0-0
  6
JWW_DASHED1
 62
   120
370
     5
100
AcDbLine
 10
-1392.672390100142
 20
207.9881850464766
 30
0.0
 11
-819.6723901001417
 21
207.9881850464766
 31
0.0
  0
LINE
  5
158
330
1F
100
AcDbEntity
  8
0-0
  6
JWW_DASHED1
 62
   120
370
     5
100
AcDbLine
 10
-1392.672390100142
 20
208.988185046377
 30
0.0
 11
-819.6723901001417
 21
208.988185046377
 31
0.0
  0
LINE
  5
159
330
1F
100
AcDbEntity
  8
0-0
  6
JWW_DASHED1
 62
   120
370
     5
100
AcDbLine
 10
-1392.672390100142
 20
221.9881850474766
 30
0.0
 11
-819.6723901001417
 21
221.9881850474766
 31
0.0
  0
LINE
  5
15A
330
1F
100
AcDbEntity
  8
0-0
  6
JWW_DASHED1
 62
   120
370
     5
100
AcDbLine
 10
-1392.672390100142
 20
222.9881850473768
 30
0.0
 11
-819.6723901001417
 21
222.9881850473768
 31
0.0
  0
LINE
  5
15B
330
1F
100
AcDbEntity
  8
0-0
  6
JWW_DASHED1
 62
   120
370
     5
100
AcDbLine
 10
-1392.672390100142
 20
235.9881850484764
 30
0.0
 11
-819.6723901001417
 21
235.9881850484764
 31
0.0
  0
LINE
  5
15C
330
1F
100
AcDbEntity
  8
0-0
  6
JWW_DASHED1
 62
   120
370
     5
100
AcDbLine
 10
-1392.672390100142
 20
236.9881850483766
 30
0.0
 11
-819.6723901001417
 21
236.9881850483766
 31
0.0
  0
LINE
  5
15D
330
1F
100
AcDbEntity
  8
0-0
  6
JWW_DASHED1
 62
   120
370
     5
100
AcDbLine
 10
-1392.672390100142
 20
249.9881850494762
 30
0.0
 11
-819.6723901001417
 21
249.9881850494762
 31
0.0
  0
LINE
  5
15E
330
1F
100
AcDbEntity
  8
0-0
  6
JWW_DASHED1
 62
   120
370
     5
100
AcDbLine
 10
-1392.672390100142
 20
250.9881850493764
 30
0.0
 11
-819.6723901001417
 21
250.9881850493764
 31
0.0
  0
LINE
  5
15F
330
1F
100
AcDbEntity
  8
0-0
  6
JWW_DASHED1
 62
   120
370
     5
100
AcDbLine
 10
-1392.672390100142
 20
263.988185050476
 30
0.0
 11
-819.6723901001417
 21
263.988185050476
 31
0.0
  0
LINE
  5
160
330
1F
100
AcDbEntity
  8
0-0
  6
JWW_DASHED1
 62
   120
370
     5
100
AcDbLine
 10
-1392.672390100142
 20
264.9881850503762
 30
0.0
 11
-819.6723901001417
 21
264.9881850503762
 31
0.0
  0
LINE
  5
161
330
1F
100
AcDbEntity
  8
0-0
  6
JWW_DASHED1
 62
   120
370
     5
100
AcDbLine
 10
-1392.672390100142
 20
277.9881850514758
 30
0.0
 11
-819.6723901001417
 21
277.9881850514758
 31
0.0
  0
LINE
  5
162
330
1F
100
AcDbEntity
  8
0-0
  6
JWW_DASHED1
 62
   120
370
     5
100
AcDbLine
 10
-1392.672390100142
 20
278.988185051376
 30
0.0
 11
-819.6723901001417
 21
278.988185051376
 31
0.0
  0
LINE
  5
163
330
1F
100
AcDbEntity
  8
0-0
  6
JWW_DASHED1
 62
   120
370
     5
100
AcDbLine
 10
-1392.672390100142
 20
291.9881850524756
 30
0.0
 11
-819.6723901001417
 21
291.9881850524756
 31
0.0
  0
LINE
  5
164
330
1F
100
AcDbEntity
  8
0-0
  6
JWW_DASHED1
 62
   120
370
     5
100
AcDbLine
 10
-1392.672390100142
 20
292.9881850523758
 30
0.0
 11
-819.6723901001417
 21
292.9881850523758
 31
0.0
  0
LINE
  5
165
330
1F
100
AcDbEntity
  8
0-0
  6
JWW_DASHED1
 62
   120
370
     5
100
AcDbLine
 10
-1392.672390100142
 20
305.9881850534754
 30
0.0
 11
-819.6723901001417
 21
305.9881850534754
 31
0.0
  0
LINE
  5
166
330
1F
100
AcDbEntity
  8
0-0
  6
JWW_DASHED1
 62
   120
370
     5
100
AcDbLine
 10
-1392.672390100142
 20
306.9881850533756
 30
0.0
 11
-819.6723901001417
 21
306.9881850533756
 31
0.0
  0
LINE
  5
167
330
1F
100
AcDbEntity
  8
0-0
  6
JWW_DASHED1
 62
   120
370
     5
100
AcDbLine
 10
-1392.672390100142
 20
319.9881850544751
 30
0.0
 11
-819.6723901001417
 21
319.9881850544751
 31
0.0
  0
LINE
  5
168
330
1F
100
AcDbEntity
  8
0-0
  6
JWW_DASHED1
 62
   120
370
     5
100
AcDbLine
 10
-1392.672390100142
 20
320.9881850543752
 30
0.0
 11
-819.6723901001417
 21
320.9881850543752
 31
0.0
  0
LINE
  5
169
330
1F
100
AcDbEntity
  8
0-0
  6
JWW_DASHED1
 62
   120
370
     5
100
AcDbLine
 10
-1392.672390100142
 20
333.988185055475
 30
0.0
 11
-819.6723901001417
 21
333.988185055475
 31
0.0
  0
LINE
  5
16A
330
1F
100
AcDbEntity
  8
0-0
  6
JWW_DASHED1
 62
   120
370
     5
100
AcDbLine
 10
-1392.672390100142
 20
334.9881850553751
 30
0.0
 11
-819.6723901001417
 21
334.9881850553751
 31
0.0
  0
LINE
  5
16B
330
1F
100
AcDbEntity
  8
0-0
  6
JWW_DASHED1
 62
   120
370
     5
100
AcDbLine
 10
-1392.672390100142
 20
347.9881850564748
 30
0.0
 11
-819.6723901001417
 21
347.9881850564748
 31
0.0
  0
LINE
  5
16C
330
1F
100
AcDbEntity
  8
0-0
  6
JWW_DASHED1
 62
   120
370
     5
100
AcDbLine
 10
-1392.672390100142
 20
348.988185056375
 30
0.0
 11
-819.6723901001417
 21
348.988185056375
 31
0.0
  0
LINE
  5
16D
330
1F
100
AcDbEntity
  8
0-0
  6
JWW_DASHED1
 62
   120
370
     5
100
AcDbLine
 10
-1392.672390100142
 20
361.9881850574745
 30
0.0
 11
-819.6723901001417
 21
361.9881850574745
 31
0.0
  0
LINE
  5
16E
330
1F
100
AcDbEntity
  8
0-0
  6
JWW_DASHED1
 62
   120
370
     5
100
AcDbLine
 10
-1392.672390100142
 20
362.9881850573747
 30
0.0
 11
-819.6723901001417
 21
362.9881850573747
 31
0.0
  0
LINE
  5
16F
330
1F
100
AcDbEntity
  8
0-0
  6
JWW_DASHED1
 62
   120
370
     5
100
AcDbLine
 10
-1392.672390100142
 20
375.9881850584743
 30
0.0
 11
-819.6723901001417
 21
375.9881850584743
 31
0.0
  0
LINE
  5
170
330
1F
100
AcDbEntity
  8
0-0
  6
JWW_DASHED1
 62
   120
370
     5
100
AcDbLine
 10
-1392.672390100142
 20
376.9881850583745
 30
0.0
 11
-819.6723901001417
 21
376.9881850583745
 31
0.0
  0
LINE
  5
171
330
1F
100
AcDbEntity
  8
0-0
  6
JWW_DASHED1
 62
   120
370
     5
100
AcDbLine
 10
-1392.672390100142
 20
389.9881850594741
 30
0.0
 11
-819.6723901001417
 21
389.9881850594741
 31
0.0
  0
LINE
  5
172
330
1F
100
AcDbEntity
  8
0-0
  6
JWW_DASHED1
 62
   120
370
     5
100
AcDbLine
 10
-1392.672390100142
 20
390.9881850593743
 30
0.0
 11
-819.6723901001417
 21
390.9881850593743
 31
0.0
  0
LINE
  5
173
330
1F
100
AcDbEntity
  8
0-0
  6
JWW_DASHED1
 62
   120
370
     5
100
AcDbLine
 10
-1392.672390100142
 20
403.9881850604739
 30
0.0
 11
-819.6723901001417
 21
403.9881850604739
 31
0.0
  0
LINE
  5
174
330
1F
100
AcDbEntity
  8
0-0
  6
JWW_DASHED1
 62
   120
370
     5
100
AcDbLine
 10
-1392.672390100142
 20
404.9881850603741
 30
0.0
 11
-819.6723901001417
 21
404.9881850603741
 31
0.0
  0
LINE
  5
175
330
1F
100
AcDbEntity
  8
0-0
  6
JWW_DASHED1
 62
   120
370
     5
100
AcDbLine
 10
-1392.672390100142
 20
417.9881850614737
 30
0.0
 11
-819.6723901001417
 21
417.9881850614737
 31
0.0
  0
LINE
  5
176
330
1F
100
AcDbEntity
  8
0-0
  6
JWW_DASHED1
 62
   120
370
     5
100
AcDbLine
 10
-1392.672390100142
 20
418.9881850613739
 30
0.0
 11
-819.6723901001417
 21
418.9881850613739
 31
0.0
  0
LINE
  5
177
330
1F
100
AcDbEntity
  8
0-0
  6
JWW_DASHED1
 62
   120
370
     5
100
AcDbLine
 10
-1392.672390100142
 20
431.9881850624733
 30
0.0
 11
-819.6723901001417
 21
431.9881850624733
 31
0.0
  0
LINE
  5
178
330
1F
100
AcDbEntity
  8
0-0
  6
JWW_DASHED1
 62
   120
370
     5
100
AcDbLine
 10
-1392.672390100142
 20
432.9881850623736
 30
0.0
 11
-819.6723901001417
 21
432.9881850623736
 31
0.0
  0
LINE
  5
179
330
1F
100
AcDbEntity
  8
0-0
  6
JWW_DASHED1
 62
   120
370
     5
100
AcDbLine
 10
-1392.672390100142
 20
445.9881850634733
 30
0.0
 11
-819.6723901001417
 21
445.9881850634733
 31
0.0
  0
LINE
  5
17A
330
1F
100
AcDbEntity
  8
0-0
  6
JWW_DASHED1
 62
   120
370
     5
100
AcDbLine
 10
-1392.672390100142
 20
446.9881850633735
 30
0.0
 11
-819.6723901001417
 21
446.9881850633735
 31
0.0
  0
LINE
  5
17B
330
1F
100
AcDbEntity
  8
0-0
  6
JWW_DASHED1
 62
   120
370
     5
100
AcDbLine
 10
-1392.672390100142
 20
459.9881850644731
 30
0.0
 11
-819.6723901001417
 21
459.9881850644731
 31
0.0
  0
LINE
  5
17C
330
1F
100
AcDbEntity
  8
0-0
  6
JWW_DASHED1
 62
   120
370
     5
100
AcDbLine
 10
-1392.672390100142
 20
460.9881850643733
 30
0.0
 11
-819.6723901001417
 21
460.9881850643733
 31
0.0
  0
LINE
  5
17D
330
1F
100
AcDbEntity
  8
0-0
  6
JWW_DASHED1
 62
   120
370
     5
100
AcDbLine
 10
-1392.672390100142
 20
473.9881850654729
 30
0.0
 11
-819.6723901001417
 21
473.9881850654729
 31
0.0
  0
LINE
  5
17E
330
1F
100
AcDbEntity
  8
0-0
  6
JWW_DASHED1
 62
   120
370
     5
100
AcDbLine
 10
-1392.672390100142
 20
474.988185065373
 30
0.0
 11
-819.6723901001417
 21
474.988185065373
 31
0.0
  0
LINE
  5
17F
330
1F
100
AcDbEntity
  8
0-0
  6
JWW_DASHED1
 62
   120
370
     5
100
AcDbLine
 10
-1392.672390100142
 20
487.9881850664726
 30
0.0
 11
-819.6723901001417
 21
487.9881850664726
 31
0.0
  0
LINE
  5
180
330
1F
100
AcDbEntity
  8
0-0
  6
JWW_DASHED1
 62
   120
370
     5
100
AcDbLine
 10
-1392.672390100142
 20
488.9881850663728
 30
0.0
 11
-819.6723901001417
 21
488.9881850663728
 31
0.0
  0
LINE
  5
181
330
1F
100
AcDbEntity
  8
0-0
  6
JWW_DASHED1
 62
   120
370
     5
100
AcDbLine
 10
-1392.672390100142
 20
501.9881850674724
 30
0.0
 11
-819.6723901001417
 21
501.9881850674724
 31
0.0
  0
LINE
  5
182
330
1F
100
AcDbEntity
  8
0-0
  6
JWW_DASHED1
 62
   120
370
     5
100
AcDbLine
 10
-1392.672390100142
 20
502.9881850673726
 30
0.0
 11
-819.6723901001417
 21
502.9881850673726
 31
0.0
  0
LINE
  5
183
330
1F
100
AcDbEntity
  8
0-0
  6
JWW_DASHED1
 62
   120
370
     5
100
AcDbLine
 10
-1392.672390100142
 20
515.9881850684723
 30
0.0
 11
-819.6723901001417
 21
515.9881850684723
 31
0.0
  0
LINE
  5
184
330
1F
100
AcDbEntity
  8
0-0
  6
JWW_DASHED1
 62
   120
370
     5
100
AcDbLine
 10
-1392.672390100142
 20
516.9881850683724
 30
0.0
 11
-819.6723901001417
 21
516.9881850683724
 31
0.0
  0
LINE
  5
185
330
1F
100
AcDbEntity
  8
0-0
  6
JWW_DASHED1
 62
   120
370
     5
100
AcDbLine
 10
-1392.672390100142
 20
529.988185069472
 30
0.0
 11
-819.6723901001417
 21
529.988185069472
 31
0.0
  0
LINE
  5
186
330
1F
100
AcDbEntity
  8
0-0
  6
JWW_DASHED1
 62
   120
370
     5
100
AcDbLine
 10
-1392.672390100142
 20
530.9881850693722
 30
0.0
 11
-819.6723901001417
 21
530.9881850693722
 31
0.0
  0
LINE
  5
187
330
1F
100
AcDbEntity
  8
0-0
  6
JWW_DASHED1
 62
   120
370
     5
100
AcDbLine
 10
-1392.672390100142
 20
543.9881850704718
 30
0.0
 11
-819.6723901001417
 21
543.9881850704718
 31
0.0
  0
LINE
  5
188
330
1F
100
AcDbEntity
  8
0-0
  6
JWW_DASHED1
 62
   120
370
     5
100
AcDbLine
 10
-1392.672390100142
 20
544.9881850703717
 30
0.0
 11
-819.6723901001417
 21
544.9881850703717
 31
0.0
  0
LINE
  5
189
330
1F
100
AcDbEntity
  8
0-0
  6
JWW_DASHED1
 62
   120
370
     5
100
AcDbLine
 10
-1392.672390100142
 20
557.9881850714717
 30
0.0
 11
-819.6723901001417
 21
557.9881850714717
 31
0.0
  0
LINE
  5
18A
330
1F
100
AcDbEntity
  8
0-0
  6
JWW_DASHED1
 62
   120
370
     5
100
AcDbLine
 10
-1392.672390100142
 20
558.9881850713718
 30
0.0
 11
-819.6723901001417
 21
558.9881850713718
 31
0.0
  0
LINE
  5
18B
330
1F
100
AcDbEntity
  8
0-0
  6
JWW_DASHED1
 62
   120
370
     5
100
AcDbLine
 10
-1392.672390100142
 20
571.9881850724714
 30
0.0
 11
-819.6723901001417
 21
571.9881850724714
 31
0.0
  0
LINE
  5
18C
330
1F
100
AcDbEntity
  8
0-0
  6
JWW_DASHED1
 62
   120
370
     5
100
AcDbLine
 10
-1392.672390100142
 20
572.9881850723716
 30
0.0
 11
-819.6723901001417
 21
572.9881850723716
 31
0.0
  0
LINE
  5
18D
330
1F
100
AcDbEntity
  8
0-0
  6
JWW_DASHED1
 62
   120
370
     5
100
AcDbLine
 10
-1392.672390100142
 20
585.9881850734712
 30
0.0
 11
-819.6723901001417
 21
585.9881850734712
 31
0.0
  0
LINE
  5
18E
330
1F
100
AcDbEntity
  8
0-0
  6
JWW_DASHED1
 62
   120
370
     5
100
AcDbLine
 10
-1392.672390100142
 20
586.9881850733714
 30
0.0
 11
-819.6723901001417
 21
586.9881850733714
 31
0.0
  0
LINE
  5
18F
330
1F
100
AcDbEntity
  8
0-0
  6
JWW_DASHED1
 62
   120
370
     5
100
AcDbLine
 10
-1392.672390100142
 20
599.988185074471
 30
0.0
 11
-819.6723901001417
 21
599.988185074471
 31
0.0
  0
LINE
  5
190
330
1F
100
AcDbEntity
  8
0-0
  6
JWW_DASHED1
 62
   120
370
     5
100
AcDbLine
 10
-1392.672390100142
 20
600.9881850743711
 30
0.0
 11
-819.6723901001417
 21
600.9881850743711
 31
0.0
  0
LINE
  5
191
330
1F
100
AcDbEntity
  8
0-0
  6
JWW_DASHED1
 62
   120
370
     5
100
AcDbLine
 10
-1392.672390100142
 20
613.9881850754707
 30
0.0
 11
-819.6723901001417
 21
613.9881850754707
 31
0.0
  0
LINE
  5
192
330
1F
100
AcDbEntity
  8
0-0
  6
JWW_DASHED1
 62
   120
370
     5
100
AcDbLine
 10
-1392.672390100142
 20
614.9881850753709
 30
0.0
 11
-819.6723901001417
 21
614.9881850753709
 31
0.0
  0
LINE
  5
193
330
1F
100
AcDbEntity
  8
0-0
  6
JWW_DASHED1
 62
   120
370
     5
100
AcDbLine
 10
-1392.672390100142
 20
627.9881850764706
 30
0.0
 11
-819.6723901001417
 21
627.9881850764706
 31
0.0
  0
LINE
  5
194
330
1F
100
AcDbEntity
  8
0-0
  6
JWW_DASHED1
 62
   120
370
     5
100
AcDbLine
 10
-1392.672390100142
 20
628.9881850763708
 30
0.0
 11
-819.6723901001417
 21
628.9881850763708
 31
0.0
  0
LINE
  5
195
330
1F
100
AcDbEntity
  8
0-0
  6
JWW_DASHED1
 62
   120
370
     5
100
AcDbLine
 10
-1392.672390100142
 20
641.9881850774703
 30
0.0
 11
-819.6723901001417
 21
641.9881850774703
 31
0.0
  0
LINE
  5
196
330
1F
100
AcDbEntity
  8
0-0
  6
JWW_DASHED1
 62
   120
370
     5
100
AcDbLine
 10
-1392.672390100142
 20
642.9881850773705
 30
0.0
 11
-819.6723901001417
 21
642.9881850773705
 31
0.0
  0
LINE
  5
197
330
1F
100
AcDbEntity
  8
0-0
  6
JWW_DASHED1
 62
   120
370
     5
100
AcDbLine
 10
-1392.672390100142
 20
655.9881850784699
 30
0.0
 11
-819.6723901001417
 21
655.9881850784699
 31
0.0
  0
LINE
  5
198
330
1F
100
AcDbEntity
  8
0-0
  6
JWW_DASHED1
 62
   120
370
     5
100
AcDbLine
 10
-1392.672390100142
 20
656.9881850783703
 30
0.0
 11
-819.6723901001417
 21
656.9881850783703
 31
0.0
  0
LINE
  5
199
330
1F
100
AcDbEntity
  8
0-0
  6
JWW_DASHED1
 62
   120
370
     5
100
AcDbLine
 10
-1392.672390100142
 20
669.98818507947
 30
0.0
 11
-819.6723901001417
 21
669.98818507947
 31
0.0
  0
LINE
  5
19A
330
1F
100
AcDbEntity
  8
0-0
  6
JWW_DASHED1
 62
   120
370
     5
100
AcDbLine
 10
-1392.672390100142
 20
670.9881850793702
 30
0.0
 11
-819.6723901001417
 21
670.9881850793702
 31
0.0
  0
LINE
  5
19B
330
1F
100
AcDbEntity
  8
0-0
  6
JWW_DASHED1
 62
   120
370
     5
100
AcDbLine
 10
-1392.672390100142
 20
683.9881850804697
 30
0.0
 11
-819.6723901001417
 21
683.9881850804697
 31
0.0
  0
LINE
  5
19C
330
1F
100
AcDbEntity
  8
0-0
  6
JWW_DASHED1
 62
   120
370
     5
100
AcDbLine
 10
-1392.672390100142
 20
684.9881850803699
 30
0.0
 11
-819.6723901001417
 21
684.9881850803699
 31
0.0
  0
LINE
  5
19D
330
1F
100
AcDbEntity
  8
0-0
  6
JWW_DASHED1
 62
   120
370
     5
100
AcDbLine
 10
-1392.672390100142
 20
697.9881850814695
 30
0.0
 11
-819.6723901001417
 21
697.9881850814695
 31
0.0
  0
LINE
  5
19E
330
1F
100
AcDbEntity
  8
0-0
  6
JWW_DASHED1
 62
   120
370
     5
100
AcDbLine
 10
-1392.672390100142
 20
698.9881850813697
 30
0.0
 11
-819.6723901001417
 21
698.9881850813697
 31
0.0
  0
LINE
  5
19F
330
1F
100
AcDbEntity
  8
0-0
  6
JWW_DASHED1
 62
   120
370
     5
100
AcDbLine
 10
-1392.672390100142
 20
711.9881850824693
 30
0.0
 11
-819.6723901001417
 21
711.9881850824693
 31
0.0
  0
LINE
  5
1A0
330
1F
100
AcDbEntity
  8
0-0
  6
JWW_DASHED1
 62
   120
370
     5
100
AcDbLine
 10
-1392.672390100142
 20
712.9881850823695
 30
0.0
 11
-819.6723901001417
 21
712.9881850823695
 31
0.0
  0
LINE
  5
1A1
330
1F
100
AcDbEntity
  8
0-0
  6
JWW_DASHED1
 62
   120
370
     5
100
AcDbLine
 10
-1392.672390100142
 20
725.988185083469
 30
0.0
 11
-819.6723901001417
 21
725.988185083469
 31
0.0
  0
LINE
  5
1A2
330
1F
100
AcDbEntity
  8
0-0
  6
JWW_DASHED1
 62
   120
370
     5
100
AcDbLine
 10
-1392.672390100142
 20
726.9881850833692
 30
0.0
 11
-819.6723901001417
 21
726.9881850833692
 31
0.0
  0
LINE
  5
1A3
330
1F
100
AcDbEntity
  8
0-0
  6
JWW_DASHED1
 62
   120
370
     5
100
AcDbLine
 10
-1392.672390100142
 20
739.9881850844689
 30
0.0
 11
-819.6723901001417
 21
739.9881850844689
 31
0.0
  0
LINE
  5
1A4
330
1F
100
AcDbEntity
  8
0-0
  6
JWW_DASHED1
 62
   120
370
     5
100
AcDbLine
 10
-1392.672390100142
 20
740.9881850843691
 30
0.0
 11
-819.6723901001417
 21
740.9881850843691
 31
0.0
  0
LINE
  5
1A5
330
1F
100
AcDbEntity
  8
0-0
  6
JWW_DASHED1
 62
   120
370
     5
100
AcDbLine
 10
-1392.672390100142
 20
753.9881850854684
 30
0.0
 11
-819.6723901001417
 21
753.9881850854684
 31
0.0
  0
LINE
  5
1A6
330
1F
100
AcDbEntity
  8
0-0
  6
JWW_DASHED1
 62
   120
370
     5
100
AcDbLine
 10
-1392.672390100142
 20
754.9881850853686
 30
0.0
 11
-819.6723901001417
 21
754.9881850853686
 31
0.0
  0
LINE
  5
1A7
330
1F
100
AcDbEntity
  8
0-0
  6
JWW_DASHED1
 62
   120
370
     5
100
AcDbLine
 10
-1392.672390100142
 20
767.9881850864684
 30
0.0
 11
-819.6723901001417
 21
767.9881850864684
 31
0.0
  0
LINE
  5
1A8
330
1F
100
AcDbEntity
  8
0-0
  6
JWW_DASHED1
 62
   120
370
     5
100
AcDbLine
 10
-1392.672390100142
 20
768.9881850863684
 30
0.0
 11
-819.6723901001417
 21
768.9881850863684
 31
0.0
  0
LINE
  5
1A9
330
1F
100
AcDbEntity
  8
0-0
  6
JWW_DASHED1
 62
   120
370
     5
100
AcDbLine
 10
-1392.672390100142
 20
781.9881850874683
 30
0.0
 11
-819.6723901001417
 21
781.9881850874683
 31
0.0
  0
LINE
  5
1AA
330
1F
100
AcDbEntity
  8
0-0
  6
JWW_DASHED1
 62
   120
370
     5
100
AcDbLine
 10
-1392.672390100142
 20
782.9881850873685
 30
0.0
 11
-819.6723901001417
 21
782.9881850873685
 31
0.0
  0
LINE
  5
1AB
330
1F
100
AcDbEntity
  8
0-0
  6
JWW_DASHED1
 62
   120
370
     5
100
AcDbLine
 10
-1392.672390100142
 20
795.9881850884681
 30
0.0
 11
-819.6723901001417
 21
795.9881850884681
 31
0.0
  0
LINE
  5
1AC
330
1F
100
AcDbEntity
  8
0-0
  6
JWW_DASHED1
 62
   120
370
     5
100
AcDbLine
 10
-1392.672390100142
 20
796.9881850883683
 30
0.0
 11
-819.6723901001417
 21
796.9881850883683
 31
0.0
  0
LINE
  5
1AD
330
1F
100
AcDbEntity
  8
0-0
  6
JWW_DASHED1
 62
   120
370
     5
100
AcDbLine
 10
-1392.672390100142
 20
809.9881850894678
 30
0.0
 11
-819.6723901001417
 21
809.9881850894678
 31
0.0
  0
LINE
  5
1AE
330
1F
100
AcDbEntity
  8
0-0
  6
JWW_DASHED1
 62
   120
370
     5
100
AcDbLine
 10
-1392.672390100142
 20
810.988185089368
 30
0.0
 11
-819.6723901001417
 21
810.988185089368
 31
0.0
  0
LINE
  5
1AF
330
1F
100
AcDbEntity
  8
0-0
  6
JWW_DASHED1
 62
   120
370
     5
100
AcDbLine
 10
-1392.672390100142
 20
823.9881850904676
 30
0.0
 11
-819.6723901001417
 21
823.9881850904676
 31
0.0
  0
LINE
  5
1B0
330
1F
100
AcDbEntity
  8
0-0
  6
JWW_DASHED1
 62
   120
370
     5
100
AcDbLine
 10
-1392.672390100142
 20
824.9881850903678
 30
0.0
 11
-819.6723901001417
 21
824.9881850903678
 31
0.0
  0
LINE
  5
1B1
330
1F
100
AcDbEntity
  8
0-0
  6
JWW_DASHED1
 62
   120
370
     5
100
AcDbLine
 10
-1392.672390100142
 20
837.9881850914674
 30
0.0
 11
-819.6723901001417
 21
837.9881850914674
 31
0.0
  0
LINE
  5
1B2
330
1F
100
AcDbEntity
  8
0-0
  6
JWW_DASHED1
 62
   120
370
     5
100
AcDbLine
 10
-1392.672390100142
 20
838.9881850913675
 30
0.0
 11
-819.6723901001417
 21
838.9881850913675
 31
0.0
  0
LINE
  5
1B3
330
1F
100
AcDbEntity
  8
0-0
  6
JWW_DASHED1
 62
   120
370
     5
100
AcDbLine
 10
-1392.672390100142
 20
851.9881850924672
 30
0.0
 11
-819.6723901001417
 21
851.9881850924672
 31
0.0
  0
LINE
  5
1B4
330
1F
100
AcDbEntity
  8
0-0
  6
JWW_DASHED1
 62
   120
370
     5
100
AcDbLine
 10
-1392.672390100142
 20
852.9881850923674
 30
0.0
 11
-819.6723901001417
 21
852.9881850923674
 31
0.0
  0
LINE
  5
1B5
330
1F
100
AcDbEntity
  8
0-0
  6
JWW_DASHED1
 62
   120
370
     5
100
AcDbLine
 10
-1392.672390100142
 20
865.9881850934668
 30
0.0
 11
-819.6723901001417
 21
865.9881850934668
 31
0.0
  0
LINE
  5
1B6
330
1F
100
AcDbEntity
  8
0-0
  6
JWW_DASHED1
 62
   120
370
     5
100
AcDbLine
 10
-1392.672390100142
 20
866.988185093367
 30
0.0
 11
-819.6723901001417
 21
866.988185093367
 31
0.0
  0
LINE
  5
1B7
330
1F
100
AcDbEntity
  8
0-0
  6
JWW_DASHED1
 62
   120
370
     5
100
AcDbLine
 10
-1392.672390100142
 20
879.9881850944665
 30
0.0
 11
-819.6723901001417
 21
879.9881850944665
 31
0.0
  0
LINE
  5
1B8
330
1F
100
AcDbEntity
  8
0-0
  6
JWW_DASHED1
 62
   120
370
     5
100
AcDbLine
 10
-1392.672390100142
 20
880.9881850943669
 30
0.0
 11
-819.6723901001417
 21
880.9881850943669
 31
0.0
  0
LINE
  5
1B9
330
1F
100
AcDbEntity
  8
0-0
  6
JWW_DASHED1
 62
   120
370
     5
100
AcDbLine
 10
-1392.672390100142
 20
893.9881850954666
 30
0.0
 11
-819.6723901001417
 21
893.9881850954666
 31
0.0
  0
LINE
  5
1BA
330
1F
100
AcDbEntity
  8
0-0
  6
JWW_DASHED1
 62
   120
370
     5
100
AcDbLine
 10
-1392.672390100142
 20
894.9881850953668
 30
0.0
 11
-819.6723901001417
 21
894.9881850953668
 31
0.0
  0
LINE
  5
1BB
330
1F
100
AcDbEntity
  8
0-0
  6
JWW_DASHED1
 62
   120
370
     5
100
AcDbLine
 10
-1392.672390100142
 20
907.9881850964664
 30
0.0
 11
-819.6723901001417
 21
907.9881850964664
 31
0.0
  0
LINE
  5
1BC
330
1F
100
AcDbEntity
  8
0-0
  6
JWW_DASHED1
 62
   120
370
     5
100
AcDbLine
 10
-1392.672390100142
 20
908.9881850963666
 30
0.0
 11
-819.6723901001417
 21
908.9881850963666
 31
0.0
  0
LINE
  5
1BD
330
1F
100
AcDbEntity
  8
0-0
  6
JWW_DASHED1
 62
   120
370
     5
100
AcDbLine
 10
-1392.672390100142
 20
921.9881850974662
 30
0.0
 11
-819.6723901001417
 21
921.9881850974662
 31
0.0
  0
LINE
  5
1BE
330
1F
100
AcDbEntity
  8
0-0
  6
JWW_DASHED1
 62
   120
370
     5
100
AcDbLine
 10
-1392.672390100142
 20
922.9881850973663
 30
0.0
 11
-819.6723901001417
 21
922.9881850973663
 31
0.0
  0
LINE
  5
1BF
330
1F
100
AcDbEntity
  8
0-0
  6
JWW_DASHED1
 62
   120
370
     5
100
AcDbLine
 10
-1392.672390100142
 20
935.9881850984659
 30
0.0
 11
-819.6723901001417
 21
935.9881850984659
 31
0.0
  0
LINE
  5
1C0
330
1F
100
AcDbEntity
  8
0-0
  6
JWW_DASHED1
 62
   120
370
     5
100
AcDbLine
 10
-1392.672390100142
 20
936.9881850983661
 30
0.0
 11
-819.6723901001417
 21
936.9881850983661
 31
0.0
  0
LINE
  5
1C1
330
1F
100
AcDbEntity
  8
0-0
  6
JWW_DASHED1
 62
   120
370
     5
100
AcDbLine
 10
-1386.672371642111
 20
-170.0116666666738
 30
0.0
 11
-1386.672371642111
 21
1004.988333333326
 31
0.0
  0
LINE
  5
1C2
330
1F
100
AcDbEntity
  8
0-0
  6
JWW_DASHED1
 62
   120
370
     5
100
AcDbLine
 10
-853.6723716042103
 20
-170.0116666666738
 30
0.0
 11
-853.6723716042103
 21
1004.988333333326
 31
0.0
  0
LINE
  5
1C3
330
1F
100
AcDbEntity
  8
0-0
  6
JWW_DASHED1
 62
   120
370
     5
100
AcDbLine
 10
-854.6723716041105
 20
-170.0116666666738
 30
0.0
 11
-854.67237160411
 21
1004.988333333326
 31
0.0
  0
LINE
  5
1C4
330
1F
100
AcDbEntity
  8
0-0
  6
JWW_DASHED1
 62
   120
370
     5
100
AcDbLine
 10
-867.6723716052105
 20
-170.0116666666738
 30
0.0
 11
-867.6723716052101
 21
1004.988333333326
 31
0.0
  0
LINE
  5
1C5
330
1F
100
AcDbEntity
  8
0-0
  6
JWW_DASHED1
 62
   120
370
     5
100
AcDbLine
 10
-868.6723716051102
 20
-170.0116666666738
 30
0.0
 11
-868.6723716051102
 21
1004.988333333326
 31
0.0
  0
LINE
  5
1C6
330
1F
100
AcDbEntity
  8
0-0
  6
JWW_DASHED1
 62
   120
370
     5
100
AcDbLine
 10
-881.6723716062107
 20
-170.0116666666738
 30
0.0
 11
-881.6723716062107
 21
1004.988333333326
 31
0.0
  0
LINE
  5
1C7
330
1F
100
AcDbEntity
  8
0-0
  6
JWW_DASHED1
 62
   120
370
     5
100
AcDbLine
 10
-882.6723716061105
 20
-170.0116666666738
 30
0.0
 11
-882.6723716061105
 21
1004.988333333326
 31
0.0
  0
LINE
  5
1C8
330
1F
100
AcDbEntity
  8
0-0
  6
JWW_DASHED1
 62
   120
370
     5
100
AcDbLine
 10
-895.6723716072105
 20
-170.0116666666738
 30
0.0
 11
-895.6723716072105
 21
1004.988333333326
 31
0.0
  0
LINE
  5
1C9
330
1F
100
AcDbEntity
  8
0-0
  6
JWW_DASHED1
 62
   120
370
     5
100
AcDbLine
 10
-896.6723716071107
 20
-170.0116666666738
 30
0.0
 11
-896.6723716071107
 21
1004.988333333326
 31
0.0
  0
LINE
  5
1CA
330
1F
100
AcDbEntity
  8
0-0
  6
JWW_DASHED1
 62
   120
370
     5
100
AcDbLine
 10
-909.6723716082107
 20
-170.0116666666738
 30
0.0
 11
-909.6723716082107
 21
1004.988333333326
 31
0.0
  0
LINE
  5
1CB
330
1F
100
AcDbEntity
  8
0-0
  6
JWW_DASHED1
 62
   120
370
     5
100
AcDbLine
 10
-910.6723716081104
 20
-170.0116666666738
 30
0.0
 11
-910.6723716081101
 21
1004.988333333326
 31
0.0
  0
LINE
  5
1CC
330
1F
100
AcDbEntity
  8
0-0
  6
JWW_DASHED1
 62
   120
370
     5
100
AcDbLine
 10
-923.6723716092105
 20
-170.0116666666738
 30
0.0
 11
-923.6723716092101
 21
1004.988333333326
 31
0.0
  0
LINE
  5
1CD
330
1F
100
AcDbEntity
  8
0-0
  6
JWW_DASHED1
 62
   120
370
     5
100
AcDbLine
 10
-924.6723716091103
 20
-170.0116666666738
 30
0.0
 11
-924.6723716091103
 21
1004.988333333326
 31
0.0
  0
LINE
  5
1CE
330
1F
100
AcDbEntity
  8
0-0
  6
JWW_DASHED1
 62
   120
370
     5
100
AcDbLine
 10
-937.6723716102103
 20
-170.0116666666738
 30
0.0
 11
-937.6723716102103
 21
1004.988333333326
 31
0.0
  0
LINE
  5
1CF
330
1F
100
AcDbEntity
  8
0-0
  6
JWW_DASHED1
 62
   120
370
     5
100
AcDbLine
 10
-938.6723716101105
 20
-170.0116666666738
 30
0.0
 11
-938.6723716101105
 21
1004.988333333326
 31
0.0
  0
LINE
  5
1D0
330
1F
100
AcDbEntity
  8
0-0
  6
JWW_DASHED1
 62
   120
370
     5
100
AcDbLine
 10
-951.6723716112101
 20
-170.0116666666738
 30
0.0
 11
-951.6723716112101
 21
1004.988333333326
 31
0.0
  0
LINE
  5
1D1
330
1F
100
AcDbEntity
  8
0-0
  6
JWW_DASHED1
 62
   120
370
     5
100
AcDbLine
 10
-952.6723716111103
 20
-170.0116666666738
 30
0.0
 11
-952.6723716111103
 21
1004.988333333326
 31
0.0
  0
LINE
  5
1D2
330
1F
100
AcDbEntity
  8
0-0
  6
JWW_DASHED1
 62
   120
370
     5
100
AcDbLine
 10
-965.6723716122099
 20
-170.0116666666738
 30
0.0
 11
-965.6723716122099
 21
1004.988333333326
 31
0.0
  0
LINE
  5
1D3
330
1F
100
AcDbEntity
  8
0-0
  6
JWW_DASHED1
 62
   120
370
     5
100
AcDbLine
 10
-966.67237161211
 20
-170.0116666666738
 30
0.0
 11
-966.67237161211
 21
1004.988333333326
 31
0.0
  0
LINE
  5
1D4
330
1F
100
AcDbEntity
  8
0-0
  6
JWW_DASHED1
 62
   120
370
     5
100
AcDbLine
 10
-979.6723716132101
 20
-170.0116666666738
 30
0.0
 11
-979.6723716132101
 21
1004.988333333326
 31
0.0
  0
LINE
  5
1D5
330
1F
100
AcDbEntity
  8
0-0
  6
JWW_DASHED1
 62
   120
370
     5
100
AcDbLine
 10
-980.6723716131103
 20
-170.0116666666738
 30
0.0
 11
-980.6723716131103
 21
1004.988333333326
 31
0.0
  0
LINE
  5
1D6
330
1F
100
AcDbEntity
  8
0-0
  6
JWW_DASHED1
 62
   120
370
     5
100
AcDbLine
 10
-993.6723716142103
 20
-170.0116666666738
 30
0.0
 11
-993.6723716142103
 21
1004.988333333326
 31
0.0
  0
LINE
  5
1D7
330
1F
100
AcDbEntity
  8
0-0
  6
JWW_DASHED1
 62
   120
370
     5
100
AcDbLine
 10
-994.6723716141105
 20
-170.0116666666738
 30
0.0
 11
-994.6723716141105
 21
1004.988333333326
 31
0.0
  0
LINE
  5
1D8
330
1F
100
AcDbEntity
  8
0-0
  6
JWW_DASHED1
 62
   120
370
     5
100
AcDbLine
 10
-1007.67237161521
 20
-170.0116666666738
 30
0.0
 11
-1007.67237161521
 21
1004.988333333326
 31
0.0
  0
LINE
  5
1D9
330
1F
100
AcDbEntity
  8
0-0
  6
JWW_DASHED1
 62
   120
370
     5
100
AcDbLine
 10
-1008.67237161511
 20
-170.0116666666738
 30
0.0
 11
-1008.67237161511
 21
1004.988333333326
 31
0.0
  0
LINE
  5
1DA
330
1F
100
AcDbEntity
  8
0-0
  6
JWW_DASHED1
 62
   120
370
     5
100
AcDbLine
 10
-1021.67237161621
 20
-170.0116666666738
 30
0.0
 11
-1021.67237161621
 21
1004.988333333326
 31
0.0
  0
LINE
  5
1DB
330
1F
100
AcDbEntity
  8
0-0
  6
JWW_DASHED1
 62
   120
370
     5
100
AcDbLine
 10
-1022.67237161611
 20
-170.0116666666738
 30
0.0
 11
-1022.67237161611
 21
1004.988333333326
 31
0.0
  0
LINE
  5
1DC
330
1F
100
AcDbEntity
  8
0-0
  6
JWW_DASHED1
 62
   120
370
     5
100
AcDbLine
 10
-1035.67237161721
 20
-170.0116666666738
 30
0.0
 11
-1035.67237161721
 21
1004.988333333326
 31
0.0
  0
LINE
  5
1DD
330
1F
100
AcDbEntity
  8
0-0
  6
JWW_DASHED1
 62
   120
370
     5
100
AcDbLine
 10
-1036.67237161711
 20
-170.0116666666738
 30
0.0
 11
-1036.67237161711
 21
1004.988333333326
 31
0.0
  0
LINE
  5
1DE
330
1F
100
AcDbEntity
  8
0-0
  6
JWW_DASHED1
 62
   120
370
     5
100
AcDbLine
 10
-1049.67237161821
 20
-170.0116666666738
 30
0.0
 11
-1049.67237161821
 21
1004.988333333326
 31
0.0
  0
LINE
  5
1DF
330
1F
100
AcDbEntity
  8
0-0
  6
JWW_DASHED1
 62
   120
370
     5
100
AcDbLine
 10
-1050.67237161811
 20
-170.0116666666738
 30
0.0
 11
-1050.67237161811
 21
1004.988333333326
 31
0.0
  0
LINE
  5
1E0
330
1F
100
AcDbEntity
  8
0-0
  6
JWW_DASHED1
 62
   120
370
     5
100
AcDbLine
 10
-1063.67237161921
 20
-170.0116666666738
 30
0.0
 11
-1063.67237161921
 21
1004.988333333326
 31
0.0
  0
LINE
  5
1E1
330
1F
100
AcDbEntity
  8
0-0
  6
JWW_DASHED1
 62
   120
370
     5
100
AcDbLine
 10
-1064.67237161911
 20
-170.0116666666738
 30
0.0
 11
-1064.67237161911
 21
1004.988333333326
 31
0.0
  0
LINE
  5
1E2
330
1F
100
AcDbEntity
  8
0-0
  6
JWW_DASHED1
 62
   120
370
     5
100
AcDbLine
 10
-1077.67237162021
 20
-170.0116666666738
 30
0.0
 11
-1077.67237162021
 21
1004.988333333326
 31
0.0
  0
LINE
  5
1E3
330
1F
100
AcDbEntity
  8
0-0
  6
JWW_DASHED1
 62
   120
370
     5
100
AcDbLine
 10
-1078.67237162011
 20
-170.0116666666738
 30
0.0
 11
-1078.67237162011
 21
1004.988333333326
 31
0.0
  0
LINE
  5
1E4
330
1F
100
AcDbEntity
  8
0-0
  6
JWW_DASHED1
 62
   120
370
     5
100
AcDbLine
 10
-1091.67237162121
 20
-170.0116666666738
 30
0.0
 11
-1091.67237162121
 21
1004.988333333326
 31
0.0
  0
LINE
  5
1E5
330
1F
100
AcDbEntity
  8
0-0
  6
JWW_DASHED1
 62
   120
370
     5
100
AcDbLine
 10
-1092.67237162111
 20
-170.0116666666738
 30
0.0
 11
-1092.67237162111
 21
1004.988333333326
 31
0.0
  0
LINE
  5
1E6
330
1F
100
AcDbEntity
  8
0-0
  6
JWW_DASHED1
 62
   120
370
     5
100
AcDbLine
 10
-1105.67237162221
 20
-170.0116666666738
 30
0.0
 11
-1105.67237162221
 21
1004.988333333326
 31
0.0
  0
LINE
  5
1E7
330
1F
100
AcDbEntity
  8
0-0
  6
JWW_DASHED1
 62
   120
370
     5
100
AcDbLine
 10
-1106.67237162211
 20
-170.0116666666738
 30
0.0
 11
-1106.67237162211
 21
1004.988333333326
 31
0.0
  0
LINE
  5
1E8
330
1F
100
AcDbEntity
  8
0-0
  6
JWW_DASHED1
 62
   120
370
     5
100
AcDbLine
 10
-1119.67237162321
 20
-170.0116666666738
 30
0.0
 11
-1119.67237162321
 21
1004.988333333326
 31
0.0
  0
LINE
  5
1E9
330
1F
100
AcDbEntity
  8
0-0
  6
JWW_DASHED1
 62
   120
370
     5
100
AcDbLine
 10
-1120.67237162311
 20
-170.0116666666738
 30
0.0
 11
-1120.67237162311
 21
1004.988333333326
 31
0.0
  0
LINE
  5
1EA
330
1F
100
AcDbEntity
  8
0-0
  6
JWW_DASHED1
 62
   120
370
     5
100
AcDbLine
 10
-1133.67237162421
 20
-170.0116666666738
 30
0.0
 11
-1133.67237162421
 21
1004.988333333326
 31
0.0
  0
LINE
  5
1EB
330
1F
100
AcDbEntity
  8
0-0
  6
JWW_DASHED1
 62
   120
370
     5
100
AcDbLine
 10
-1134.67237162411
 20
-170.0116666666738
 30
0.0
 11
-1134.67237162411
 21
1004.988333333326
 31
0.0
  0
LINE
  5
1EC
330
1F
100
AcDbEntity
  8
0-0
  6
JWW_DASHED1
 62
   120
370
     5
100
AcDbLine
 10
-1147.67237162521
 20
-170.0116666666738
 30
0.0
 11
-1147.67237162521
 21
1004.988333333326
 31
0.0
  0
LINE
  5
1ED
330
1F
100
AcDbEntity
  8
0-0
  6
JWW_DASHED1
 62
   120
370
     5
100
AcDbLine
 10
-1148.67237162511
 20
-170.0116666666738
 30
0.0
 11
-1148.67237162511
 21
1004.988333333326
 31
0.0
  0
LINE
  5
1EE
330
1F
100
AcDbEntity
  8
0-0
  6
JWW_DASHED1
 62
   120
370
     5
100
AcDbLine
 10
-1161.67237162621
 20
-170.0116666666738
 30
0.0
 11
-1161.67237162621
 21
1004.988333333326
 31
0.0
  0
LINE
  5
1EF
330
1F
100
AcDbEntity
  8
0-0
  6
JWW_DASHED1
 62
   120
370
     5
100
AcDbLine
 10
-1162.672371626111
 20
-170.0116666666738
 30
0.0
 11
-1162.672371626111
 21
1004.988333333326
 31
0.0
  0
LINE
  5
1F0
330
1F
100
AcDbEntity
  8
0-0
  6
JWW_DASHED1
 62
   120
370
     5
100
AcDbLine
 10
-1175.67237162721
 20
-170.0116666666738
 30
0.0
 11
-1175.67237162721
 21
1004.988333333326
 31
0.0
  0
LINE
  5
1F1
330
1F
100
AcDbEntity
  8
0-0
  6
JWW_DASHED1
 62
   120
370
     5
100
AcDbLine
 10
-1176.67237162711
 20
-170.0116666666738
 30
0.0
 11
-1176.67237162711
 21
1004.988333333326
 31
0.0
  0
LINE
  5
1F2
330
1F
100
AcDbEntity
  8
0-0
  6
JWW_DASHED1
 62
   120
370
     5
100
AcDbLine
 10
-1189.67237162821
 20
-170.0116666666738
 30
0.0
 11
-1189.67237162821
 21
1004.988333333326
 31
0.0
  0
LINE
  5
1F3
330
1F
100
AcDbEntity
  8
0-0
  6
JWW_DASHED1
 62
   120
370
     5
100
AcDbLine
 10
-1190.67237162811
 20
-170.0116666666738
 30
0.0
 11
-1190.67237162811
 21
1004.988333333326
 31
0.0
  0
LINE
  5
1F4
330
1F
100
AcDbEntity
  8
0-0
  6
JWW_DASHED1
 62
   120
370
     5
100
AcDbLine
 10
-1203.67237162921
 20
-170.0116666666738
 30
0.0
 11
-1203.67237162921
 21
1004.988333333326
 31
0.0
  0
LINE
  5
1F5
330
1F
100
AcDbEntity
  8
0-0
  6
JWW_DASHED1
 62
   120
370
     5
100
AcDbLine
 10
-1204.67237162911
 20
-170.0116666666738
 30
0.0
 11
-1204.67237162911
 21
1004.988333333326
 31
0.0
  0
LINE
  5
1F6
330
1F
100
AcDbEntity
  8
0-0
  6
JWW_DASHED1
 62
   120
370
     5
100
AcDbLine
 10
-1217.67237163021
 20
-170.0116666666738
 30
0.0
 11
-1217.67237163021
 21
1004.988333333326
 31
0.0
  0
LINE
  5
1F7
330
1F
100
AcDbEntity
  8
0-0
  6
JWW_DASHED1
 62
   120
370
     5
100
AcDbLine
 10
-1218.672371630111
 20
-170.0116666666738
 30
0.0
 11
-1218.672371630111
 21
1004.988333333326
 31
0.0
  0
LINE
  5
1F8
330
1F
100
AcDbEntity
  8
0-0
  6
JWW_DASHED1
 62
   120
370
     5
100
AcDbLine
 10
-1231.67237163121
 20
-170.0116666666738
 30
0.0
 11
-1231.67237163121
 21
1004.988333333326
 31
0.0
  0
LINE
  5
1F9
330
1F
100
AcDbEntity
  8
0-0
  6
JWW_DASHED1
 62
   120
370
     5
100
AcDbLine
 10
-1232.67237163111
 20
-170.0116666666738
 30
0.0
 11
-1232.67237163111
 21
1004.988333333326
 31
0.0
  0
LINE
  5
1FA
330
1F
100
AcDbEntity
  8
0-0
  6
JWW_DASHED1
 62
   120
370
     5
100
AcDbLine
 10
-1245.67237163221
 20
-170.0116666666738
 30
0.0
 11
-1245.67237163221
 21
1004.988333333326
 31
0.0
  0
LINE
  5
1FB
330
1F
100
AcDbEntity
  8
0-0
  6
JWW_DASHED1
 62
   120
370
     5
100
AcDbLine
 10
-1246.67237163211
 20
-170.0116666666738
 30
0.0
 11
-1246.67237163211
 21
1004.988333333326
 31
0.0
  0
LINE
  5
1FC
330
1F
100
AcDbEntity
  8
0-0
  6
JWW_DASHED1
 62
   120
370
     5
100
AcDbLine
 10
-1259.67237163321
 20
-170.0116666666738
 30
0.0
 11
-1259.67237163321
 21
1004.988333333326
 31
0.0
  0
LINE
  5
1FD
330
1F
100
AcDbEntity
  8
0-0
  6
JWW_DASHED1
 62
   120
370
     5
100
AcDbLine
 10
-1260.67237163311
 20
-170.0116666666738
 30
0.0
 11
-1260.67237163311
 21
1004.988333333326
 31
0.0
  0
LINE
  5
1FE
330
1F
100
AcDbEntity
  8
0-0
  6
JWW_DASHED1
 62
   120
370
     5
100
AcDbLine
 10
-1273.67237163421
 20
-170.0116666666738
 30
0.0
 11
-1273.67237163421
 21
1004.988333333326
 31
0.0
  0
LINE
  5
1FF
330
1F
100
AcDbEntity
  8
0-0
  6
JWW_DASHED1
 62
   120
370
     5
100
AcDbLine
 10
-1274.672371634111
 20
-170.0116666666738
 30
0.0
 11
-1274.672371634111
 21
1004.988333333326
 31
0.0
  0
LINE
  5
200
330
1F
100
AcDbEntity
  8
0-0
  6
JWW_DASHED1
 62
   120
370
     5
100
AcDbLine
 10
-1287.67237163521
 20
-170.0116666666738
 30
0.0
 11
-1287.67237163521
 21
1004.988333333326
 31
0.0
  0
LINE
  5
201
330
1F
100
AcDbEntity
  8
0-0
  6
JWW_DASHED1
 62
   120
370
     5
100
AcDbLine
 10
-1288.67237163511
 20
-170.0116666666738
 30
0.0
 11
-1288.67237163511
 21
1004.988333333326
 31
0.0
  0
LINE
  5
202
330
1F
100
AcDbEntity
  8
0-0
  6
JWW_DASHED1
 62
   120
370
     5
100
AcDbLine
 10
-1301.67237163621
 20
-170.0116666666738
 30
0.0
 11
-1301.67237163621
 21
1004.988333333326
 31
0.0
  0
LINE
  5
203
330
1F
100
AcDbEntity
  8
0-0
  6
JWW_DASHED1
 62
   120
370
     5
100
AcDbLine
 10
-1302.67237163611
 20
-170.0116666666738
 30
0.0
 11
-1302.67237163611
 21
1004.988333333326
 31
0.0
  0
LINE
  5
204
330
1F
100
AcDbEntity
  8
0-0
  6
JWW_DASHED1
 62
   120
370
     5
100
AcDbLine
 10
-1315.67237163721
 20
-170.0116666666738
 30
0.0
 11
-1315.67237163721
 21
1004.988333333326
 31
0.0
  0
LINE
  5
205
330
1F
100
AcDbEntity
  8
0-0
  6
JWW_DASHED1
 62
   120
370
     5
100
AcDbLine
 10
-1316.672371637111
 20
-170.0116666666738
 30
0.0
 11
-1316.672371637111
 21
1004.988333333326
 31
0.0
  0
LINE
  5
206
330
1F
100
AcDbEntity
  8
0-0
  6
JWW_DASHED1
 62
   120
370
     5
100
AcDbLine
 10
-1329.67237163821
 20
-170.0116666666738
 30
0.0
 11
-1329.67237163821
 21
1004.988333333326
 31
0.0
  0
LINE
  5
207
330
1F
100
AcDbEntity
  8
0-0
  6
JWW_DASHED1
 62
   120
370
     5
100
AcDbLine
 10
-1330.672371638111
 20
-170.0116666666738
 30
0.0
 11
-1330.672371638111
 21
1004.988333333326
 31
0.0
  0
LINE
  5
208
330
1F
100
AcDbEntity
  8
0-0
  6
JWW_DASHED1
 62
   120
370
     5
100
AcDbLine
 10
-1343.67237163921
 20
-170.0116666666738
 30
0.0
 11
-1343.67237163921
 21
1004.988333333326
 31
0.0
  0
LINE
  5
209
330
1F
100
AcDbEntity
  8
0-0
  6
JWW_DASHED1
 62
   120
370
     5
100
AcDbLine
 10
-1344.672371639111
 20
-170.0116666666738
 30
0.0
 11
-1344.672371639111
 21
1004.988333333326
 31
0.0
  0
LINE
  5
20A
330
1F
100
AcDbEntity
  8
0-0
  6
JWW_DASHED1
 62
   120
370
     5
100
AcDbLine
 10
-1357.67237164021
 20
-170.0116666666738
 30
0.0
 11
-1357.67237164021
 21
1004.988333333326
 31
0.0
  0
LINE
  5
20B
330
1F
100
AcDbEntity
  8
0-0
  6
JWW_DASHED1
 62
   120
370
     5
100
AcDbLine
 10
-1358.67237164011
 20
-170.0116666666738
 30
0.0
 11
-1358.67237164011
 21
1004.988333333326
 31
0.0
  0
LINE
  5
20C
330
1F
100
AcDbEntity
  8
0-0
  6
JWW_DASHED1
 62
   120
370
     5
100
AcDbLine
 10
-1371.67237164121
 20
-170.0116666666738
 30
0.0
 11
-1371.67237164121
 21
1004.988333333326
 31
0.0
  0
LINE
  5
20D
330
1F
100
AcDbEntity
  8
0-0
  6
JWW_DASHED1
 62
   120
370
     5
100
AcDbLine
 10
-1372.67237164111
 20
-170.0116666666738
 30
0.0
 11
-1372.67237164111
 21
1004.988333333326
 31
0.0
  0
LINE
  5
20E
330
1F
100
AcDbEntity
  8
0-0
  6
JWW_DASHED1
 62
   120
370
     5
100
AcDbLine
 10
-1385.67237164221
 20
-170.0116666666738
 30
0.0
 11
-1385.67237164221
 21
1004.988333333326
 31
0.0
  0
LINE
  5
20F
330
1F
100
AcDbEntity
  8
0-0
  6
JWW_DASHED1
 62
   120
370
     5
100
AcDbLine
 10
-825.6723716022103
 20
-170.0116666666738
 30
0.0
 11
-825.6723716022103
 21
1004.988333333326
 31
0.0
  0
LINE
  5
210
330
1F
100
AcDbEntity
  8
0-0
  6
JWW_DASHED1
 62
   120
370
     5
100
AcDbLine
 10
-840.6723716031103
 20
-170.0116666666738
 30
0.0
 11
-840.6723716031103
 21
1004.988333333326
 31
0.0
  0
LINE
  5
211
330
1F
100
AcDbEntity
  8
0-0
  6
JWW_DASHED1
 62
   120
370
     5
100
AcDbLine
 10
-826.6723716021105
 20
-170.0116666666738
 30
0.0
 11
-826.6723716021105
 21
1004.988333333326
 31
0.0
  0
LINE
  5
212
330
1F
100
AcDbEntity
  8
0-0
  6
JWW_DASHED1
 62
   120
370
     5
100
AcDbLine
 10
-839.6723716032105
 20
-170.0116666666738
 30
0.0
 11
-839.6723716032105
 21
1004.988333333326
 31
0.0
  0
LINE
  5
213
330
1F
100
AcDbEntity
  8
0-0
  6
JWW_DASHED1
 62
   120
370
     5
100
AcDbLine
 10
-1392.672390100141
 20
992.988185102365
 30
0.0
 11
-819.6723901001426
 21
992.988185102365
 31
0.0
  0
LINE
  5
214
330
1F
100
AcDbEntity
  8
0-0
  6
JWW_DASHED1
 62
   120
370
     5
100
AcDbLine
 10
-1392.672390100141
 20
949.9881850994657
 30
0.0
 11
-819.6723901001426
 21
949.9881850994657
 31
0.0
  0
LINE
  5
215
330
1F
100
AcDbEntity
  8
0-0
  6
JWW_DASHED1
 62
   120
370
     5
100
AcDbLine
 10
-1392.672390100141
 20
950.9881850993659
 30
0.0
 11
-819.6723901001426
 21
950.9881850993659
 31
0.0
  0
LINE
  5
216
330
1F
100
AcDbEntity
  8
0-0
  6
JWW_DASHED1
 62
   120
370
     5
100
AcDbLine
 10
-1392.672390100141
 20
963.9881851004656
 30
0.0
 11
-819.6723901001426
 21
963.9881851004656
 31
0.0
  0
LINE
  5
217
330
1F
100
AcDbEntity
  8
0-0
  6
JWW_DASHED1
 62
   120
370
     5
100
AcDbLine
 10
-1392.672390100141
 20
964.9881851003657
 30
0.0
 11
-819.6723901001426
 21
964.9881851003657
 31
0.0
  0
LINE
  5
218
330
1F
100
AcDbEntity
  8
0-0
  6
JWW_DASHED1
 62
   120
370
     5
100
AcDbLine
 10
-1392.672390100141
 20
977.9881851014651
 30
0.0
 11
-819.6723901001426
 21
977.9881851014651
 31
0.0
  0
LINE
  5
219
330
1F
100
AcDbEntity
  8
0-0
  6
JWW_DASHED1
 62
   120
370
     5
100
AcDbLine
 10
-1392.672390100141
 20
978.9881851013653
 30
0.0
 11
-819.6723901001426
 21
978.9881851013653
 31
0.0
  0
LINE
  5
21A
330
1F
100
AcDbEntity
  8
0-0
  6
JWW_DASHED1
 62
   120
370
     5
100
AcDbLine
 10
-1392.672390100141
 20
991.9881851024651
 30
0.0
 11
-819.6723901001426
 21
991.9881851024651
 31
0.0
  0
LINE
  5
21B
330
1F
100
AcDbEntity
  8
0-0
  6
JWW_DASHED1
 62
   120
370
     5
100
AcDbLine
 10
-612.6723901001424
 20
-169.0118149806173
 30
0.0
 11
-39.6723901001419
 21
-169.0118149806173
 31
0.0
  0
LINE
  5
21C
330
1F
100
AcDbEntity
  8
0-0
  6
JWW_DASHED1
 62
   120
370
     5
100
AcDbLine
 10
-612.6723901001424
 20
-156.0118149795178
 30
0.0
 11
-39.6723901001419
 21
-156.0118149795178
 31
0.0
  0
LINE
  5
21D
330
1F
100
AcDbEntity
  8
0-0
  6
JWW_DASHED1
 62
   120
370
     5
100
AcDbLine
 10
-612.6723901001424
 20
-155.0118149796176
 30
0.0
 11
-39.6723901001419
 21
-155.0118149796176
 31
0.0
  0
LINE
  5
21E
330
1F
100
AcDbEntity
  8
0-0
  6
JWW_DASHED1
 62
   120
370
     5
100
AcDbLine
 10
-612.6723901001424
 20
-142.0118149785179
 30
0.0
 11
-39.6723901001419
 21
-142.0118149785179
 31
0.0
  0
LINE
  5
21F
330
1F
100
AcDbEntity
  8
0-0
  6
JWW_DASHED1
 62
   120
370
     5
100
AcDbLine
 10
-612.6723901001424
 20
-141.0118149786177
 30
0.0
 11
-39.6723901001419
 21
-141.0118149786177
 31
0.0
  0
LINE
  5
220
330
1F
100
AcDbEntity
  8
0-0
  6
JWW_DASHED1
 62
   120
370
     5
100
AcDbLine
 10
-612.6723901001424
 20
-128.0118149775181
 30
0.0
 11
-39.6723901001419
 21
-128.0118149775181
 31
0.0
  0
LINE
  5
221
330
1F
100
AcDbEntity
  8
0-0
  6
JWW_DASHED1
 62
   120
370
     5
100
AcDbLine
 10
-612.6723901001424
 20
-127.0118149776179
 30
0.0
 11
-39.6723901001419
 21
-127.0118149776179
 31
0.0
  0
LINE
  5
222
330
1F
100
AcDbEntity
  8
0-0
  6
JWW_DASHED1
 62
   120
370
     5
100
AcDbLine
 10
-612.6723901001424
 20
-114.0118149765183
 30
0.0
 11
-39.6723901001419
 21
-114.0118149765183
 31
0.0
  0
LINE
  5
223
330
1F
100
AcDbEntity
  8
0-0
  6
JWW_DASHED1
 62
   120
370
     5
100
AcDbLine
 10
-612.6723901001424
 20
-113.0118149766182
 30
0.0
 11
-39.6723901001419
 21
-113.0118149766182
 31
0.0
  0
LINE
  5
224
330
1F
100
AcDbEntity
  8
0-0
  6
JWW_DASHED1
 62
   120
370
     5
100
AcDbLine
 10
-612.6723901001424
 20
-100.0118149755185
 30
0.0
 11
-39.6723901001419
 21
-100.0118149755185
 31
0.0
  0
LINE
  5
225
330
1F
100
AcDbEntity
  8
0-0
  6
JWW_DASHED1
 62
   120
370
     5
100
AcDbLine
 10
-612.6723901001424
 20
-99.01181497561836
 30
0.0
 11
-39.6723901001419
 21
-99.01181497561836
 31
0.0
  0
LINE
  5
226
330
1F
100
AcDbEntity
  8
0-0
  6
JWW_DASHED1
 62
   120
370
     5
100
AcDbLine
 10
-612.6723901001424
 20
-86.01181497451876
 30
0.0
 11
-39.6723901001419
 21
-86.01181497451876
 31
0.0
  0
LINE
  5
227
330
1F
100
AcDbEntity
  8
0-0
  6
JWW_DASHED1
 62
   120
370
     5
100
AcDbLine
 10
-612.6723901001424
 20
-85.01181497461857
 30
0.0
 11
-39.6723901001419
 21
-85.01181497461857
 31
0.0
  0
LINE
  5
228
330
1F
100
AcDbEntity
  8
0-0
  6
JWW_DASHED1
 62
   120
370
     5
100
AcDbLine
 10
-612.6723901001424
 20
-72.01181497351897
 30
0.0
 11
-39.6723901001419
 21
-72.01181497351897
 31
0.0
  0
LINE
  5
229
330
1F
100
AcDbEntity
  8
0-0
  6
JWW_DASHED1
 62
   120
370
     5
100
AcDbLine
 10
-612.6723901001424
 20
-71.01181497361878
 30
0.0
 11
-39.6723901001419
 21
-71.01181497361878
 31
0.0
  0
LINE
  5
22A
330
1F
100
AcDbEntity
  8
0-0
  6
JWW_DASHED1
 62
   120
370
     5
100
AcDbLine
 10
-612.6723901001424
 20
-58.01181497251918
 30
0.0
 11
-39.6723901001419
 21
-58.01181497251918
 31
0.0
  0
LINE
  5
22B
330
1F
100
AcDbEntity
  8
0-0
  6
JWW_DASHED1
 62
   120
370
     5
100
AcDbLine
 10
-612.6723901001424
 20
-57.01181497261899
 30
0.0
 11
-39.6723901001419
 21
-57.01181497261899
 31
0.0
  0
LINE
  5
22C
330
1F
100
AcDbEntity
  8
0-0
  6
JWW_DASHED1
 62
   120
370
     5
100
AcDbLine
 10
-612.6723901001424
 20
-44.01181497151949
 30
0.0
 11
-39.6723901001419
 21
-44.01181497151949
 31
0.0
  0
LINE
  5
22D
330
1F
100
AcDbEntity
  8
0-0
  6
JWW_DASHED1
 62
   120
370
     5
100
AcDbLine
 10
-612.6723901001424
 20
-43.01181497161931
 30
0.0
 11
-39.6723901001419
 21
-43.01181497161931
 31
0.0
  0
LINE
  5
22E
330
1F
100
AcDbEntity
  8
0-0
  6
JWW_DASHED1
 62
   120
370
     5
100
AcDbLine
 10
-612.6723901001424
 20
-30.01181497051959
 30
0.0
 11
-39.6723901001419
 21
-30.01181497051959
 31
0.0
  0
LINE
  5
22F
330
1F
100
AcDbEntity
  8
0-0
  6
JWW_DASHED1
 62
   120
370
     5
100
AcDbLine
 10
-612.6723901001424
 20
-29.01181497061941
 30
0.0
 11
-39.6723901001419
 21
-29.01181497061941
 31
0.0
  0
LINE
  5
230
330
1F
100
AcDbEntity
  8
0-0
  6
JWW_DASHED1
 62
   120
370
     5
100
AcDbLine
 10
-612.6723901001424
 20
-16.0118149695198
 30
0.0
 11
-39.6723901001419
 21
-16.0118149695198
 31
0.0
  0
LINE
  5
231
330
1F
100
AcDbEntity
  8
0-0
  6
JWW_DASHED1
 62
   120
370
     5
100
AcDbLine
 10
-612.6723901001424
 20
-15.01181496961962
 30
0.0
 11
-39.6723901001419
 21
-15.01181496961962
 31
0.0
  0
LINE
  5
232
330
1F
100
AcDbEntity
  8
0-0
  6
JWW_DASHED1
 62
   120
370
     5
100
AcDbLine
 10
-612.6723901001424
 20
-2.011814968520014
 30
0.0
 11
-39.6723901001419
 21
-2.011814968520014
 31
0.0
  0
LINE
  5
233
330
1F
100
AcDbEntity
  8
0-0
  6
JWW_DASHED1
 62
   120
370
     5
100
AcDbLine
 10
-612.6723901001424
 20
-1.011814968619831
 30
0.0
 11
-39.6723901001419
 21
-1.011814968619831
 31
0.0
  0
LINE
  5
234
330
1F
100
AcDbEntity
  8
0-0
  6
JWW_DASHED1
 62
   120
370
     5
100
AcDbLine
 10
-612.6723901001424
 20
11.98818503247978
 30
0.0
 11
-39.6723901001419
 21
11.98818503247978
 31
0.0
  0
LINE
  5
235
330
1F
100
AcDbEntity
  8
0-0
  6
JWW_DASHED1
 62
   120
370
     5
100
AcDbLine
 10
-612.6723901001424
 20
12.98818503237996
 30
0.0
 11
-39.6723901001419
 21
12.98818503237996
 31
0.0
  0
LINE
  5
236
330
1F
100
AcDbEntity
  8
0-0
  6
JWW_DASHED1
 62
   120
370
     5
100
AcDbLine
 10
-612.6723901001424
 20
25.98818503347957
 30
0.0
 11
-39.6723901001419
 21
25.98818503347957
 31
0.0
  0
LINE
  5
237
330
1F
100
AcDbEntity
  8
0-0
  6
JWW_DASHED1
 62
   120
370
     5
100
AcDbLine
 10
-612.6723901001424
 20
26.98818503337975
 30
0.0
 11
-39.6723901001419
 21
26.98818503337975
 31
0.0
  0
LINE
  5
238
330
1F
100
AcDbEntity
  8
0-0
  6
JWW_DASHED1
 62
   120
370
     5
100
AcDbLine
 10
-612.6723901001424
 20
39.98818503447936
 30
0.0
 11
-39.6723901001419
 21
39.98818503447936
 31
0.0
  0
LINE
  5
239
330
1F
100
AcDbEntity
  8
0-0
  6
JWW_DASHED1
 62
   120
370
     5
100
AcDbLine
 10
-612.6723901001424
 20
40.98818503437954
 30
0.0
 11
-39.6723901001419
 21
40.98818503437954
 31
0.0
  0
LINE
  5
23A
330
1F
100
AcDbEntity
  8
0-0
  6
JWW_DASHED1
 62
   120
370
     5
100
AcDbLine
 10
-612.6723901001424
 20
53.98818503547915
 30
0.0
 11
-39.6723901001419
 21
53.98818503547915
 31
0.0
  0
LINE
  5
23B
330
1F
100
AcDbEntity
  8
0-0
  6
JWW_DASHED1
 62
   120
370
     5
100
AcDbLine
 10
-612.6723901001424
 20
54.98818503537933
 30
0.0
 11
-39.6723901001419
 21
54.98818503537933
 31
0.0
  0
LINE
  5
23C
330
1F
100
AcDbEntity
  8
0-0
  6
JWW_DASHED1
 62
   120
370
     5
100
AcDbLine
 10
-612.6723901001424
 20
67.98818503647882
 30
0.0
 11
-39.6723901001419
 21
67.98818503647882
 31
0.0
  0
LINE
  5
23D
330
1F
100
AcDbEntity
  8
0-0
  6
JWW_DASHED1
 62
   120
370
     5
100
AcDbLine
 10
-612.6723901001424
 20
68.98818503637901
 30
0.0
 11
-39.6723901001419
 21
68.98818503637901
 31
0.0
  0
LINE
  5
23E
330
1F
100
AcDbEntity
  8
0-0
  6
JWW_DASHED1
 62
   120
370
     5
100
AcDbLine
 10
-612.6723901001424
 20
81.98818503747873
 30
0.0
 11
-39.6723901001419
 21
81.98818503747873
 31
0.0
  0
LINE
  5
23F
330
1F
100
AcDbEntity
  8
0-0
  6
JWW_DASHED1
 62
   120
370
     5
100
AcDbLine
 10
-612.6723901001424
 20
82.98818503737891
 30
0.0
 11
-39.6723901001419
 21
82.98818503737891
 31
0.0
  0
LINE
  5
240
330
1F
100
AcDbEntity
  8
0-0
  6
JWW_DASHED1
 62
   120
370
     5
100
AcDbLine
 10
-612.6723901001424
 20
95.98818503847852
 30
0.0
 11
-39.6723901001419
 21
95.98818503847852
 31
0.0
  0
LINE
  5
241
330
1F
100
AcDbEntity
  8
0-0
  6
JWW_DASHED1
 62
   120
370
     5
100
AcDbLine
 10
-612.6723901001424
 20
96.9881850383787
 30
0.0
 11
-39.6723901001419
 21
96.9881850383787
 31
0.0
  0
LINE
  5
242
330
1F
100
AcDbEntity
  8
0-0
  6
JWW_DASHED1
 62
   120
370
     5
100
AcDbLine
 10
-612.6723901001424
 20
109.9881850394783
 30
0.0
 11
-39.6723901001419
 21
109.9881850394783
 31
0.0
  0
LINE
  5
243
330
1F
100
AcDbEntity
  8
0-0
  6
JWW_DASHED1
 62
   120
370
     5
100
AcDbLine
 10
-612.6723901001424
 20
110.9881850393785
 30
0.0
 11
-39.6723901001419
 21
110.9881850393785
 31
0.0
  0
LINE
  5
244
330
1F
100
AcDbEntity
  8
0-0
  6
JWW_DASHED1
 62
   120
370
     5
100
AcDbLine
 10
-612.6723901001424
 20
123.9881850404781
 30
0.0
 11
-39.6723901001419
 21
123.9881850404781
 31
0.0
  0
LINE
  5
245
330
1F
100
AcDbEntity
  8
0-0
  6
JWW_DASHED1
 62
   120
370
     5
100
AcDbLine
 10
-612.6723901001424
 20
124.9881850403783
 30
0.0
 11
-39.6723901001419
 21
124.9881850403783
 31
0.0
  0
LINE
  5
246
330
1F
100
AcDbEntity
  8
0-0
  6
JWW_DASHED1
 62
   120
370
     5
100
AcDbLine
 10
-612.6723901001424
 20
137.9881850414779
 30
0.0
 11
-39.6723901001419
 21
137.9881850414779
 31
0.0
  0
LINE
  5
247
330
1F
100
AcDbEntity
  8
0-0
  6
JWW_DASHED1
 62
   120
370
     5
100
AcDbLine
 10
-612.6723901001424
 20
138.9881850413781
 30
0.0
 11
-39.6723901001419
 21
138.9881850413781
 31
0.0
  0
LINE
  5
248
330
1F
100
AcDbEntity
  8
0-0
  6
JWW_DASHED1
 62
   120
370
     5
100
AcDbLine
 10
-612.6723901001424
 20
151.9881850424777
 30
0.0
 11
-39.6723901001419
 21
151.9881850424777
 31
0.0
  0
LINE
  5
249
330
1F
100
AcDbEntity
  8
0-0
  6
JWW_DASHED1
 62
   120
370
     5
100
AcDbLine
 10
-612.6723901001424
 20
152.9881850423779
 30
0.0
 11
-39.6723901001419
 21
152.9881850423779
 31
0.0
  0
LINE
  5
24A
330
1F
100
AcDbEntity
  8
0-0
  6
JWW_DASHED1
 62
   120
370
     5
100
AcDbLine
 10
-612.6723901001424
 20
165.9881850434775
 30
0.0
 11
-39.6723901001419
 21
165.9881850434775
 31
0.0
  0
LINE
  5
24B
330
1F
100
AcDbEntity
  8
0-0
  6
JWW_DASHED1
 62
   120
370
     5
100
AcDbLine
 10
-612.6723901001424
 20
166.9881850433777
 30
0.0
 11
-39.6723901001419
 21
166.9881850433777
 31
0.0
  0
LINE
  5
24C
330
1F
100
AcDbEntity
  8
0-0
  6
JWW_DASHED1
 62
   120
370
     5
100
AcDbLine
 10
-612.6723901001424
 20
179.9881850444773
 30
0.0
 11
-39.6723901001419
 21
179.9881850444773
 31
0.0
  0
LINE
  5
24D
330
1F
100
AcDbEntity
  8
0-0
  6
JWW_DASHED1
 62
   120
370
     5
100
AcDbLine
 10
-612.6723901001424
 20
180.9881850443774
 30
0.0
 11
-39.6723901001419
 21
180.9881850443774
 31
0.0
  0
LINE
  5
24E
330
1F
100
AcDbEntity
  8
0-0
  6
JWW_DASHED1
 62
   120
370
     5
100
AcDbLine
 10
-612.6723901001424
 20
193.9881850454771
 30
0.0
 11
-39.6723901001419
 21
193.9881850454771
 31
0.0
  0
LINE
  5
24F
330
1F
100
AcDbEntity
  8
0-0
  6
JWW_DASHED1
 62
   120
370
     5
100
AcDbLine
 10
-612.6723901001424
 20
194.9881850453772
 30
0.0
 11
-39.6723901001419
 21
194.9881850453772
 31
0.0
  0
LINE
  5
250
330
1F
100
AcDbEntity
  8
0-0
  6
JWW_DASHED1
 62
   120
370
     5
100
AcDbLine
 10
-612.6723901001424
 20
207.9881850464766
 30
0.0
 11
-39.6723901001419
 21
207.9881850464766
 31
0.0
  0
LINE
  5
251
330
1F
100
AcDbEntity
  8
0-0
  6
JWW_DASHED1
 62
   120
370
     5
100
AcDbLine
 10
-612.6723901001424
 20
208.988185046377
 30
0.0
 11
-39.6723901001419
 21
208.988185046377
 31
0.0
  0
LINE
  5
252
330
1F
100
AcDbEntity
  8
0-0
  6
JWW_DASHED1
 62
   120
370
     5
100
AcDbLine
 10
-612.6723901001424
 20
221.9881850474766
 30
0.0
 11
-39.6723901001419
 21
221.9881850474766
 31
0.0
  0
LINE
  5
253
330
1F
100
AcDbEntity
  8
0-0
  6
JWW_DASHED1
 62
   120
370
     5
100
AcDbLine
 10
-612.6723901001424
 20
222.9881850473768
 30
0.0
 11
-39.6723901001419
 21
222.9881850473768
 31
0.0
  0
LINE
  5
254
330
1F
100
AcDbEntity
  8
0-0
  6
JWW_DASHED1
 62
   120
370
     5
100
AcDbLine
 10
-612.6723901001424
 20
235.9881850484764
 30
0.0
 11
-39.6723901001419
 21
235.9881850484764
 31
0.0
  0
LINE
  5
255
330
1F
100
AcDbEntity
  8
0-0
  6
JWW_DASHED1
 62
   120
370
     5
100
AcDbLine
 10
-612.6723901001424
 20
236.9881850483766
 30
0.0
 11
-39.6723901001419
 21
236.9881850483766
 31
0.0
  0
LINE
  5
256
330
1F
100
AcDbEntity
  8
0-0
  6
JWW_DASHED1
 62
   120
370
     5
100
AcDbLine
 10
-612.6723901001424
 20
249.9881850494762
 30
0.0
 11
-39.6723901001419
 21
249.9881850494762
 31
0.0
  0
LINE
  5
257
330
1F
100
AcDbEntity
  8
0-0
  6
JWW_DASHED1
 62
   120
370
     5
100
AcDbLine
 10
-612.6723901001424
 20
250.9881850493764
 30
0.0
 11
-39.6723901001419
 21
250.9881850493764
 31
0.0
  0
LINE
  5
258
330
1F
100
AcDbEntity
  8
0-0
  6
JWW_DASHED1
 62
   120
370
     5
100
AcDbLine
 10
-612.6723901001424
 20
263.988185050476
 30
0.0
 11
-39.6723901001419
 21
263.988185050476
 31
0.0
  0
LINE
  5
259
330
1F
100
AcDbEntity
  8
0-0
  6
JWW_DASHED1
 62
   120
370
     5
100
AcDbLine
 10
-612.6723901001424
 20
264.9881850503762
 30
0.0
 11
-39.6723901001419
 21
264.9881850503762
 31
0.0
  0
LINE
  5
25A
330
1F
100
AcDbEntity
  8
0-0
  6
JWW_DASHED1
 62
   120
370
     5
100
AcDbLine
 10
-612.6723901001424
 20
277.9881850514758
 30
0.0
 11
-39.6723901001419
 21
277.9881850514758
 31
0.0
  0
LINE
  5
25B
330
1F
100
AcDbEntity
  8
0-0
  6
JWW_DASHED1
 62
   120
370
     5
100
AcDbLine
 10
-612.6723901001424
 20
278.988185051376
 30
0.0
 11
-39.6723901001419
 21
278.988185051376
 31
0.0
  0
LINE
  5
25C
330
1F
100
AcDbEntity
  8
0-0
  6
JWW_DASHED1
 62
   120
370
     5
100
AcDbLine
 10
-612.6723901001424
 20
291.9881850524756
 30
0.0
 11
-39.6723901001419
 21
291.9881850524756
 31
0.0
  0
LINE
  5
25D
330
1F
100
AcDbEntity
  8
0-0
  6
JWW_DASHED1
 62
   120
370
     5
100
AcDbLine
 10
-612.6723901001424
 20
292.9881850523758
 30
0.0
 11
-39.6723901001419
 21
292.9881850523758
 31
0.0
  0
LINE
  5
25E
330
1F
100
AcDbEntity
  8
0-0
  6
JWW_DASHED1
 62
   120
370
     5
100
AcDbLine
 10
-612.6723901001424
 20
305.9881850534754
 30
0.0
 11
-39.6723901001419
 21
305.9881850534754
 31
0.0
  0
LINE
  5
25F
330
1F
100
AcDbEntity
  8
0-0
  6
JWW_DASHED1
 62
   120
370
     5
100
AcDbLine
 10
-612.6723901001424
 20
306.9881850533756
 30
0.0
 11
-39.6723901001419
 21
306.9881850533756
 31
0.0
  0
LINE
  5
260
330
1F
100
AcDbEntity
  8
0-0
  6
JWW_DASHED1
 62
   120
370
     5
100
AcDbLine
 10
-612.6723901001424
 20
319.9881850544751
 30
0.0
 11
-39.6723901001419
 21
319.9881850544751
 31
0.0
  0
LINE
  5
261
330
1F
100
AcDbEntity
  8
0-0
  6
JWW_DASHED1
 62
   120
370
     5
100
AcDbLine
 10
-612.6723901001424
 20
320.9881850543752
 30
0.0
 11
-39.6723901001419
 21
320.9881850543752
 31
0.0
  0
LINE
  5
262
330
1F
100
AcDbEntity
  8
0-0
  6
JWW_DASHED1
 62
   120
370
     5
100
AcDbLine
 10
-612.6723901001424
 20
333.988185055475
 30
0.0
 11
-39.6723901001419
 21
333.988185055475
 31
0.0
  0
LINE
  5
263
330
1F
100
AcDbEntity
  8
0-0
  6
JWW_DASHED1
 62
   120
370
     5
100
AcDbLine
 10
-612.6723901001424
 20
334.9881850553751
 30
0.0
 11
-39.6723901001419
 21
334.9881850553751
 31
0.0
  0
LINE
  5
264
330
1F
100
AcDbEntity
  8
0-0
  6
JWW_DASHED1
 62
   120
370
     5
100
AcDbLine
 10
-612.6723901001424
 20
347.9881850564748
 30
0.0
 11
-39.6723901001419
 21
347.9881850564748
 31
0.0
  0
LINE
  5
265
330
1F
100
AcDbEntity
  8
0-0
  6
JWW_DASHED1
 62
   120
370
     5
100
AcDbLine
 10
-612.6723901001424
 20
348.988185056375
 30
0.0
 11
-39.6723901001419
 21
348.988185056375
 31
0.0
  0
LINE
  5
266
330
1F
100
AcDbEntity
  8
0-0
  6
JWW_DASHED1
 62
   120
370
     5
100
AcDbLine
 10
-612.6723901001424
 20
361.9881850574745
 30
0.0
 11
-39.6723901001419
 21
361.9881850574745
 31
0.0
  0
LINE
  5
267
330
1F
100
AcDbEntity
  8
0-0
  6
JWW_DASHED1
 62
   120
370
     5
100
AcDbLine
 10
-612.6723901001424
 20
362.9881850573747
 30
0.0
 11
-39.6723901001419
 21
362.9881850573747
 31
0.0
  0
LINE
  5
268
330
1F
100
AcDbEntity
  8
0-0
  6
JWW_DASHED1
 62
   120
370
     5
100
AcDbLine
 10
-612.6723901001424
 20
375.9881850584743
 30
0.0
 11
-39.6723901001419
 21
375.9881850584743
 31
0.0
  0
LINE
  5
269
330
1F
100
AcDbEntity
  8
0-0
  6
JWW_DASHED1
 62
   120
370
     5
100
AcDbLine
 10
-612.6723901001424
 20
376.9881850583745
 30
0.0
 11
-39.6723901001419
 21
376.9881850583745
 31
0.0
  0
LINE
  5
26A
330
1F
100
AcDbEntity
  8
0-0
  6
JWW_DASHED1
 62
   120
370
     5
100
AcDbLine
 10
-612.6723901001424
 20
389.9881850594741
 30
0.0
 11
-39.6723901001419
 21
389.9881850594741
 31
0.0
  0
LINE
  5
26B
330
1F
100
AcDbEntity
  8
0-0
  6
JWW_DASHED1
 62
   120
370
     5
100
AcDbLine
 10
-612.6723901001424
 20
390.9881850593743
 30
0.0
 11
-39.6723901001419
 21
390.9881850593743
 31
0.0
  0
LINE
  5
26C
330
1F
100
AcDbEntity
  8
0-0
  6
JWW_DASHED1
 62
   120
370
     5
100
AcDbLine
 10
-612.6723901001424
 20
403.9881850604739
 30
0.0
 11
-39.6723901001419
 21
403.9881850604739
 31
0.0
  0
LINE
  5
26D
330
1F
100
AcDbEntity
  8
0-0
  6
JWW_DASHED1
 62
   120
370
     5
100
AcDbLine
 10
-612.6723901001424
 20
404.9881850603741
 30
0.0
 11
-39.6723901001419
 21
404.9881850603741
 31
0.0
  0
LINE
  5
26E
330
1F
100
AcDbEntity
  8
0-0
  6
JWW_DASHED1
 62
   120
370
     5
100
AcDbLine
 10
-612.6723901001424
 20
417.9881850614737
 30
0.0
 11
-39.6723901001419
 21
417.9881850614737
 31
0.0
  0
LINE
  5
26F
330
1F
100
AcDbEntity
  8
0-0
  6
JWW_DASHED1
 62
   120
370
     5
100
AcDbLine
 10
-612.6723901001424
 20
418.9881850613739
 30
0.0
 11
-39.6723901001419
 21
418.9881850613739
 31
0.0
  0
LINE
  5
270
330
1F
100
AcDbEntity
  8
0-0
  6
JWW_DASHED1
 62
   120
370
     5
100
AcDbLine
 10
-612.6723901001424
 20
431.9881850624733
 30
0.0
 11
-39.6723901001419
 21
431.9881850624733
 31
0.0
  0
LINE
  5
271
330
1F
100
AcDbEntity
  8
0-0
  6
JWW_DASHED1
 62
   120
370
     5
100
AcDbLine
 10
-612.6723901001424
 20
432.9881850623736
 30
0.0
 11
-39.6723901001419
 21
432.9881850623736
 31
0.0
  0
LINE
  5
272
330
1F
100
AcDbEntity
  8
0-0
  6
JWW_DASHED1
 62
   120
370
     5
100
AcDbLine
 10
-612.6723901001424
 20
445.9881850634733
 30
0.0
 11
-39.6723901001419
 21
445.9881850634733
 31
0.0
  0
LINE
  5
273
330
1F
100
AcDbEntity
  8
0-0
  6
JWW_DASHED1
 62
   120
370
     5
100
AcDbLine
 10
-612.6723901001424
 20
446.9881850633735
 30
0.0
 11
-39.6723901001419
 21
446.9881850633735
 31
0.0
  0
LINE
  5
274
330
1F
100
AcDbEntity
  8
0-0
  6
JWW_DASHED1
 62
   120
370
     5
100
AcDbLine
 10
-612.6723901001424
 20
459.9881850644731
 30
0.0
 11
-39.6723901001419
 21
459.9881850644731
 31
0.0
  0
LINE
  5
275
330
1F
100
AcDbEntity
  8
0-0
  6
JWW_DASHED1
 62
   120
370
     5
100
AcDbLine
 10
-612.6723901001424
 20
460.9881850643733
 30
0.0
 11
-39.6723901001419
 21
460.9881850643733
 31
0.0
  0
LINE
  5
276
330
1F
100
AcDbEntity
  8
0-0
  6
JWW_DASHED1
 62
   120
370
     5
100
AcDbLine
 10
-612.6723901001424
 20
473.9881850654729
 30
0.0
 11
-39.6723901001419
 21
473.9881850654729
 31
0.0
  0
LINE
  5
277
330
1F
100
AcDbEntity
  8
0-0
  6
JWW_DASHED1
 62
   120
370
     5
100
AcDbLine
 10
-612.6723901001424
 20
474.988185065373
 30
0.0
 11
-39.6723901001419
 21
474.988185065373
 31
0.0
  0
LINE
  5
278
330
1F
100
AcDbEntity
  8
0-0
  6
JWW_DASHED1
 62
   120
370
     5
100
AcDbLine
 10
-612.6723901001424
 20
487.9881850664726
 30
0.0
 11
-39.6723901001419
 21
487.9881850664726
 31
0.0
  0
LINE
  5
279
330
1F
100
AcDbEntity
  8
0-0
  6
JWW_DASHED1
 62
   120
370
     5
100
AcDbLine
 10
-612.6723901001424
 20
488.9881850663728
 30
0.0
 11
-39.6723901001419
 21
488.9881850663728
 31
0.0
  0
LINE
  5
27A
330
1F
100
AcDbEntity
  8
0-0
  6
JWW_DASHED1
 62
   120
370
     5
100
AcDbLine
 10
-612.6723901001424
 20
501.9881850674724
 30
0.0
 11
-39.6723901001419
 21
501.9881850674724
 31
0.0
  0
LINE
  5
27B
330
1F
100
AcDbEntity
  8
0-0
  6
JWW_DASHED1
 62
   120
370
     5
100
AcDbLine
 10
-612.6723901001424
 20
502.9881850673726
 30
0.0
 11
-39.6723901001419
 21
502.9881850673726
 31
0.0
  0
LINE
  5
27C
330
1F
100
AcDbEntity
  8
0-0
  6
JWW_DASHED1
 62
   120
370
     5
100
AcDbLine
 10
-612.6723901001424
 20
515.9881850684723
 30
0.0
 11
-39.6723901001419
 21
515.9881850684723
 31
0.0
  0
LINE
  5
27D
330
1F
100
AcDbEntity
  8
0-0
  6
JWW_DASHED1
 62
   120
370
     5
100
AcDbLine
 10
-612.6723901001424
 20
516.9881850683724
 30
0.0
 11
-39.6723901001419
 21
516.9881850683724
 31
0.0
  0
LINE
  5
27E
330
1F
100
AcDbEntity
  8
0-0
  6
JWW_DASHED1
 62
   120
370
     5
100
AcDbLine
 10
-612.6723901001424
 20
529.988185069472
 30
0.0
 11
-39.6723901001419
 21
529.988185069472
 31
0.0
  0
LINE
  5
27F
330
1F
100
AcDbEntity
  8
0-0
  6
JWW_DASHED1
 62
   120
370
     5
100
AcDbLine
 10
-612.6723901001424
 20
530.9881850693722
 30
0.0
 11
-39.6723901001419
 21
530.9881850693722
 31
0.0
  0
LINE
  5
280
330
1F
100
AcDbEntity
  8
0-0
  6
JWW_DASHED1
 62
   120
370
     5
100
AcDbLine
 10
-612.6723901001424
 20
543.9881850704718
 30
0.0
 11
-39.6723901001419
 21
543.9881850704718
 31
0.0
  0
LINE
  5
281
330
1F
100
AcDbEntity
  8
0-0
  6
JWW_DASHED1
 62
   120
370
     5
100
AcDbLine
 10
-612.6723901001424
 20
544.9881850703717
 30
0.0
 11
-39.6723901001419
 21
544.9881850703717
 31
0.0
  0
LINE
  5
282
330
1F
100
AcDbEntity
  8
0-0
  6
JWW_DASHED1
 62
   120
370
     5
100
AcDbLine
 10
-612.6723901001424
 20
557.9881850714717
 30
0.0
 11
-39.6723901001419
 21
557.9881850714717
 31
0.0
  0
LINE
  5
283
330
1F
100
AcDbEntity
  8
0-0
  6
JWW_DASHED1
 62
   120
370
     5
100
AcDbLine
 10
-612.6723901001424
 20
558.9881850713718
 30
0.0
 11
-39.6723901001419
 21
558.9881850713718
 31
0.0
  0
LINE
  5
284
330
1F
100
AcDbEntity
  8
0-0
  6
JWW_DASHED1
 62
   120
370
     5
100
AcDbLine
 10
-612.6723901001424
 20
571.9881850724714
 30
0.0
 11
-39.6723901001419
 21
571.9881850724714
 31
0.0
  0
LINE
  5
285
330
1F
100
AcDbEntity
  8
0-0
  6
JWW_DASHED1
 62
   120
370
     5
100
AcDbLine
 10
-612.6723901001424
 20
572.9881850723716
 30
0.0
 11
-39.6723901001419
 21
572.9881850723716
 31
0.0
  0
LINE
  5
286
330
1F
100
AcDbEntity
  8
0-0
  6
JWW_DASHED1
 62
   120
370
     5
100
AcDbLine
 10
-612.6723901001424
 20
585.9881850734712
 30
0.0
 11
-39.6723901001419
 21
585.9881850734712
 31
0.0
  0
LINE
  5
287
330
1F
100
AcDbEntity
  8
0-0
  6
JWW_DASHED1
 62
   120
370
     5
100
AcDbLine
 10
-612.6723901001424
 20
586.9881850733714
 30
0.0
 11
-39.6723901001419
 21
586.9881850733714
 31
0.0
  0
LINE
  5
288
330
1F
100
AcDbEntity
  8
0-0
  6
JWW_DASHED1
 62
   120
370
     5
100
AcDbLine
 10
-612.6723901001424
 20
599.988185074471
 30
0.0
 11
-39.6723901001419
 21
599.988185074471
 31
0.0
  0
LINE
  5
289
330
1F
100
AcDbEntity
  8
0-0
  6
JWW_DASHED1
 62
   120
370
     5
100
AcDbLine
 10
-612.6723901001424
 20
600.9881850743711
 30
0.0
 11
-39.6723901001419
 21
600.9881850743711
 31
0.0
  0
LINE
  5
28A
330
1F
100
AcDbEntity
  8
0-0
  6
JWW_DASHED1
 62
   120
370
     5
100
AcDbLine
 10
-612.6723901001424
 20
613.9881850754707
 30
0.0
 11
-39.6723901001419
 21
613.9881850754707
 31
0.0
  0
LINE
  5
28B
330
1F
100
AcDbEntity
  8
0-0
  6
JWW_DASHED1
 62
   120
370
     5
100
AcDbLine
 10
-612.6723901001424
 20
614.9881850753709
 30
0.0
 11
-39.6723901001419
 21
614.9881850753709
 31
0.0
  0
LINE
  5
28C
330
1F
100
AcDbEntity
  8
0-0
  6
JWW_DASHED1
 62
   120
370
     5
100
AcDbLine
 10
-612.6723901001424
 20
627.9881850764706
 30
0.0
 11
-39.6723901001419
 21
627.9881850764706
 31
0.0
  0
LINE
  5
28D
330
1F
100
AcDbEntity
  8
0-0
  6
JWW_DASHED1
 62
   120
370
     5
100
AcDbLine
 10
-612.6723901001424
 20
628.9881850763708
 30
0.0
 11
-39.6723901001419
 21
628.9881850763708
 31
0.0
  0
LINE
  5
28E
330
1F
100
AcDbEntity
  8
0-0
  6
JWW_DASHED1
 62
   120
370
     5
100
AcDbLine
 10
-612.6723901001424
 20
641.9881850774703
 30
0.0
 11
-39.6723901001419
 21
641.9881850774703
 31
0.0
  0
LINE
  5
28F
330
1F
100
AcDbEntity
  8
0-0
  6
JWW_DASHED1
 62
   120
370
     5
100
AcDbLine
 10
-612.6723901001424
 20
642.9881850773705
 30
0.0
 11
-39.6723901001419
 21
642.9881850773705
 31
0.0
  0
LINE
  5
290
330
1F
100
AcDbEntity
  8
0-0
  6
JWW_DASHED1
 62
   120
370
     5
100
AcDbLine
 10
-612.6723901001424
 20
655.9881850784699
 30
0.0
 11
-39.6723901001419
 21
655.9881850784699
 31
0.0
  0
LINE
  5
291
330
1F
100
AcDbEntity
  8
0-0
  6
JWW_DASHED1
 62
   120
370
     5
100
AcDbLine
 10
-612.6723901001424
 20
656.9881850783703
 30
0.0
 11
-39.6723901001419
 21
656.9881850783703
 31
0.0
  0
LINE
  5
292
330
1F
100
AcDbEntity
  8
0-0
  6
JWW_DASHED1
 62
   120
370
     5
100
AcDbLine
 10
-612.6723901001424
 20
669.98818507947
 30
0.0
 11
-39.6723901001419
 21
669.98818507947
 31
0.0
  0
LINE
  5
293
330
1F
100
AcDbEntity
  8
0-0
  6
JWW_DASHED1
 62
   120
370
     5
100
AcDbLine
 10
-612.6723901001424
 20
670.9881850793702
 30
0.0
 11
-39.6723901001419
 21
670.9881850793702
 31
0.0
  0
LINE
  5
294
330
1F
100
AcDbEntity
  8
0-0
  6
JWW_DASHED1
 62
   120
370
     5
100
AcDbLine
 10
-612.6723901001424
 20
683.9881850804697
 30
0.0
 11
-39.6723901001419
 21
683.9881850804697
 31
0.0
  0
LINE
  5
295
330
1F
100
AcDbEntity
  8
0-0
  6
JWW_DASHED1
 62
   120
370
     5
100
AcDbLine
 10
-612.6723901001424
 20
684.9881850803699
 30
0.0
 11
-39.6723901001419
 21
684.9881850803699
 31
0.0
  0
LINE
  5
296
330
1F
100
AcDbEntity
  8
0-0
  6
JWW_DASHED1
 62
   120
370
     5
100
AcDbLine
 10
-612.6723901001424
 20
697.9881850814695
 30
0.0
 11
-39.6723901001419
 21
697.9881850814695
 31
0.0
  0
LINE
  5
297
330
1F
100
AcDbEntity
  8
0-0
  6
JWW_DASHED1
 62
   120
370
     5
100
AcDbLine
 10
-612.6723901001424
 20
698.9881850813697
 30
0.0
 11
-39.6723901001419
 21
698.9881850813697
 31
0.0
  0
LINE
  5
298
330
1F
100
AcDbEntity
  8
0-0
  6
JWW_DASHED1
 62
   120
370
     5
100
AcDbLine
 10
-612.6723901001424
 20
711.9881850824693
 30
0.0
 11
-39.6723901001419
 21
711.9881850824693
 31
0.0
  0
LINE
  5
299
330
1F
100
AcDbEntity
  8
0-0
  6
JWW_DASHED1
 62
   120
370
     5
100
AcDbLine
 10
-612.6723901001424
 20
712.9881850823695
 30
0.0
 11
-39.6723901001419
 21
712.9881850823695
 31
0.0
  0
LINE
  5
29A
330
1F
100
AcDbEntity
  8
0-0
  6
JWW_DASHED1
 62
   120
370
     5
100
AcDbLine
 10
-612.6723901001424
 20
725.988185083469
 30
0.0
 11
-39.6723901001419
 21
725.988185083469
 31
0.0
  0
LINE
  5
29B
330
1F
100
AcDbEntity
  8
0-0
  6
JWW_DASHED1
 62
   120
370
     5
100
AcDbLine
 10
-612.6723901001424
 20
726.9881850833692
 30
0.0
 11
-39.6723901001419
 21
726.9881850833692
 31
0.0
  0
LINE
  5
29C
330
1F
100
AcDbEntity
  8
0-0
  6
JWW_DASHED1
 62
   120
370
     5
100
AcDbLine
 10
-612.6723901001424
 20
739.9881850844689
 30
0.0
 11
-39.6723901001419
 21
739.9881850844689
 31
0.0
  0
LINE
  5
29D
330
1F
100
AcDbEntity
  8
0-0
  6
JWW_DASHED1
 62
   120
370
     5
100
AcDbLine
 10
-612.6723901001424
 20
740.9881850843691
 30
0.0
 11
-39.6723901001419
 21
740.9881850843691
 31
0.0
  0
LINE
  5
29E
330
1F
100
AcDbEntity
  8
0-0
  6
JWW_DASHED1
 62
   120
370
     5
100
AcDbLine
 10
-612.6723901001424
 20
753.9881850854684
 30
0.0
 11
-39.6723901001419
 21
753.9881850854684
 31
0.0
  0
LINE
  5
29F
330
1F
100
AcDbEntity
  8
0-0
  6
JWW_DASHED1
 62
   120
370
     5
100
AcDbLine
 10
-612.6723901001424
 20
754.9881850853686
 30
0.0
 11
-39.6723901001419
 21
754.9881850853686
 31
0.0
  0
LINE
  5
2A0
330
1F
100
AcDbEntity
  8
0-0
  6
JWW_DASHED1
 62
   120
370
     5
100
AcDbLine
 10
-612.6723901001424
 20
767.9881850864684
 30
0.0
 11
-39.6723901001419
 21
767.9881850864684
 31
0.0
  0
LINE
  5
2A1
330
1F
100
AcDbEntity
  8
0-0
  6
JWW_DASHED1
 62
   120
370
     5
100
AcDbLine
 10
-612.6723901001424
 20
768.9881850863684
 30
0.0
 11
-39.6723901001419
 21
768.9881850863684
 31
0.0
  0
LINE
  5
2A2
330
1F
100
AcDbEntity
  8
0-0
  6
JWW_DASHED1
 62
   120
370
     5
100
AcDbLine
 10
-612.6723901001424
 20
781.9881850874683
 30
0.0
 11
-39.6723901001419
 21
781.9881850874683
 31
0.0
  0
LINE
  5
2A3
330
1F
100
AcDbEntity
  8
0-0
  6
JWW_DASHED1
 62
   120
370
     5
100
AcDbLine
 10
-612.6723901001424
 20
782.9881850873685
 30
0.0
 11
-39.6723901001419
 21
782.9881850873685
 31
0.0
  0
LINE
  5
2A4
330
1F
100
AcDbEntity
  8
0-0
  6
JWW_DASHED1
 62
   120
370
     5
100
AcDbLine
 10
-612.6723901001424
 20
795.9881850884681
 30
0.0
 11
-39.6723901001419
 21
795.9881850884681
 31
0.0
  0
LINE
  5
2A5
330
1F
100
AcDbEntity
  8
0-0
  6
JWW_DASHED1
 62
   120
370
     5
100
AcDbLine
 10
-612.6723901001424
 20
796.9881850883683
 30
0.0
 11
-39.6723901001419
 21
796.9881850883683
 31
0.0
  0
LINE
  5
2A6
330
1F
100
AcDbEntity
  8
0-0
  6
JWW_DASHED1
 62
   120
370
     5
100
AcDbLine
 10
-612.6723901001424
 20
809.9881850894678
 30
0.0
 11
-39.6723901001419
 21
809.9881850894678
 31
0.0
  0
LINE
  5
2A7
330
1F
100
AcDbEntity
  8
0-0
  6
JWW_DASHED1
 62
   120
370
     5
100
AcDbLine
 10
-612.6723901001424
 20
810.988185089368
 30
0.0
 11
-39.6723901001419
 21
810.988185089368
 31
0.0
  0
LINE
  5
2A8
330
1F
100
AcDbEntity
  8
0-0
  6
JWW_DASHED1
 62
   120
370
     5
100
AcDbLine
 10
-612.6723901001424
 20
823.9881850904676
 30
0.0
 11
-39.6723901001419
 21
823.9881850904676
 31
0.0
  0
LINE
  5
2A9
330
1F
100
AcDbEntity
  8
0-0
  6
JWW_DASHED1
 62
   120
370
     5
100
AcDbLine
 10
-612.6723901001424
 20
824.9881850903678
 30
0.0
 11
-39.6723901001419
 21
824.9881850903678
 31
0.0
  0
LINE
  5
2AA
330
1F
100
AcDbEntity
  8
0-0
  6
JWW_DASHED1
 62
   120
370
     5
100
AcDbLine
 10
-612.6723901001424
 20
837.9881850914674
 30
0.0
 11
-39.6723901001419
 21
837.9881850914674
 31
0.0
  0
LINE
  5
2AB
330
1F
100
AcDbEntity
  8
0-0
  6
JWW_DASHED1
 62
   120
370
     5
100
AcDbLine
 10
-612.6723901001424
 20
838.9881850913675
 30
0.0
 11
-39.6723901001419
 21
838.9881850913675
 31
0.0
  0
LINE
  5
2AC
330
1F
100
AcDbEntity
  8
0-0
  6
JWW_DASHED1
 62
   120
370
     5
100
AcDbLine
 10
-612.6723901001424
 20
851.9881850924672
 30
0.0
 11
-39.6723901001419
 21
851.9881850924672
 31
0.0
  0
LINE
  5
2AD
330
1F
100
AcDbEntity
  8
0-0
  6
JWW_DASHED1
 62
   120
370
     5
100
AcDbLine
 10
-612.6723901001424
 20
852.9881850923674
 30
0.0
 11
-39.6723901001419
 21
852.9881850923674
 31
0.0
  0
LINE
  5
2AE
330
1F
100
AcDbEntity
  8
0-0
  6
JWW_DASHED1
 62
   120
370
     5
100
AcDbLine
 10
-612.6723901001424
 20
865.9881850934668
 30
0.0
 11
-39.6723901001419
 21
865.9881850934668
 31
0.0
  0
LINE
  5
2AF
330
1F
100
AcDbEntity
  8
0-0
  6
JWW_DASHED1
 62
   120
370
     5
100
AcDbLine
 10
-612.6723901001424
 20
866.988185093367
 30
0.0
 11
-39.6723901001419
 21
866.988185093367
 31
0.0
  0
LINE
  5
2B0
330
1F
100
AcDbEntity
  8
0-0
  6
JWW_DASHED1
 62
   120
370
     5
100
AcDbLine
 10
-612.6723901001424
 20
879.9881850944665
 30
0.0
 11
-39.6723901001419
 21
879.9881850944665
 31
0.0
  0
LINE
  5
2B1
330
1F
100
AcDbEntity
  8
0-0
  6
JWW_DASHED1
 62
   120
370
     5
100
AcDbLine
 10
-612.6723901001424
 20
880.9881850943669
 30
0.0
 11
-39.6723901001419
 21
880.9881850943669
 31
0.0
  0
LINE
  5
2B2
330
1F
100
AcDbEntity
  8
0-0
  6
JWW_DASHED1
 62
   120
370
     5
100
AcDbLine
 10
-612.6723901001424
 20
893.9881850954666
 30
0.0
 11
-39.6723901001419
 21
893.9881850954666
 31
0.0
  0
LINE
  5
2B3
330
1F
100
AcDbEntity
  8
0-0
  6
JWW_DASHED1
 62
   120
370
     5
100
AcDbLine
 10
-612.6723901001424
 20
894.9881850953668
 30
0.0
 11
-39.6723901001419
 21
894.9881850953668
 31
0.0
  0
LINE
  5
2B4
330
1F
100
AcDbEntity
  8
0-0
  6
JWW_DASHED1
 62
   120
370
     5
100
AcDbLine
 10
-612.6723901001424
 20
907.9881850964664
 30
0.0
 11
-39.6723901001419
 21
907.9881850964664
 31
0.0
  0
LINE
  5
2B5
330
1F
100
AcDbEntity
  8
0-0
  6
JWW_DASHED1
 62
   120
370
     5
100
AcDbLine
 10
-612.6723901001424
 20
908.9881850963666
 30
0.0
 11
-39.6723901001419
 21
908.9881850963666
 31
0.0
  0
LINE
  5
2B6
330
1F
100
AcDbEntity
  8
0-0
  6
JWW_DASHED1
 62
   120
370
     5
100
AcDbLine
 10
-612.6723901001424
 20
921.9881850974662
 30
0.0
 11
-39.6723901001419
 21
921.9881850974662
 31
0.0
  0
LINE
  5
2B7
330
1F
100
AcDbEntity
  8
0-0
  6
JWW_DASHED1
 62
   120
370
     5
100
AcDbLine
 10
-612.6723901001424
 20
922.9881850973663
 30
0.0
 11
-39.6723901001419
 21
922.9881850973663
 31
0.0
  0
LINE
  5
2B8
330
1F
100
AcDbEntity
  8
0-0
  6
JWW_DASHED1
 62
   120
370
     5
100
AcDbLine
 10
-612.6723901001424
 20
935.9881850984659
 30
0.0
 11
-39.6723901001419
 21
935.9881850984659
 31
0.0
  0
LINE
  5
2B9
330
1F
100
AcDbEntity
  8
0-0
  6
JWW_DASHED1
 62
   120
370
     5
100
AcDbLine
 10
-612.6723901001424
 20
936.9881850983661
 30
0.0
 11
-39.6723901001419
 21
936.9881850983661
 31
0.0
  0
LINE
  5
2BA
330
1F
100
AcDbEntity
  8
0-0
  6
JWW_DASHED1
 62
   120
370
     5
100
AcDbLine
 10
-606.6723716421106
 20
-170.0116666666738
 30
0.0
 11
-606.6723716421106
 21
1004.988333333326
 31
0.0
  0
LINE
  5
2BB
330
1F
100
AcDbEntity
  8
0-0
  6
JWW_DASHED1
 62
   120
370
     5
100
AcDbLine
 10
-73.67237160421027
 20
-170.0116666666738
 30
0.0
 11
-73.67237160421027
 21
1004.988333333326
 31
0.0
  0
LINE
  5
2BC
330
1F
100
AcDbEntity
  8
0-0
  6
JWW_DASHED1
 62
   120
370
     5
100
AcDbLine
 10
-74.67237160411045
 20
-170.0116666666738
 30
0.0
 11
-74.67237160411003
 21
1004.988333333326
 31
0.0
  0
LINE
  5
2BD
330
1F
100
AcDbEntity
  8
0-0
  6
JWW_DASHED1
 62
   120
370
     5
100
AcDbLine
 10
-87.67237160521049
 20
-170.0116666666738
 30
0.0
 11
-87.67237160521006
 21
1004.988333333326
 31
0.0
  0
LINE
  5
2BE
330
1F
100
AcDbEntity
  8
0-0
  6
JWW_DASHED1
 62
   120
370
     5
100
AcDbLine
 10
-88.67237160511024
 20
-170.0116666666738
 30
0.0
 11
-88.67237160511024
 21
1004.988333333326
 31
0.0
  0
LINE
  5
2BF
330
1F
100
AcDbEntity
  8
0-0
  6
JWW_DASHED1
 62
   120
370
     5
100
AcDbLine
 10
-101.6723716062107
 20
-170.0116666666738
 30
0.0
 11
-101.6723716062107
 21
1004.988333333326
 31
0.0
  0
LINE
  5
2C0
330
1F
100
AcDbEntity
  8
0-0
  6
JWW_DASHED1
 62
   120
370
     5
100
AcDbLine
 10
-102.6723716061105
 20
-170.0116666666738
 30
0.0
 11
-102.6723716061105
 21
1004.988333333326
 31
0.0
  0
LINE
  5
2C1
330
1F
100
AcDbEntity
  8
0-0
  6
JWW_DASHED1
 62
   120
370
     5
100
AcDbLine
 10
-115.6723716072105
 20
-170.0116666666738
 30
0.0
 11
-115.6723716072105
 21
1004.988333333326
 31
0.0
  0
LINE
  5
2C2
330
1F
100
AcDbEntity
  8
0-0
  6
JWW_DASHED1
 62
   120
370
     5
100
AcDbLine
 10
-116.6723716071107
 20
-170.0116666666738
 30
0.0
 11
-116.6723716071107
 21
1004.988333333326
 31
0.0
  0
LINE
  5
2C3
330
1F
100
AcDbEntity
  8
0-0
  6
JWW_DASHED1
 62
   120
370
     5
100
AcDbLine
 10
-129.6723716082107
 20
-170.0116666666738
 30
0.0
 11
-129.6723716082107
 21
1004.988333333326
 31
0.0
  0
LINE
  5
2C4
330
1F
100
AcDbEntity
  8
0-0
  6
JWW_DASHED1
 62
   120
370
     5
100
AcDbLine
 10
-130.6723716081105
 20
-170.0116666666738
 30
0.0
 11
-130.67237160811
 21
1004.988333333326
 31
0.0
  0
LINE
  5
2C5
330
1F
100
AcDbEntity
  8
0-0
  6
JWW_DASHED1
 62
   120
370
     5
100
AcDbLine
 10
-143.6723716092105
 20
-170.0116666666738
 30
0.0
 11
-143.6723716092101
 21
1004.988333333326
 31
0.0
  0
LINE
  5
2C6
330
1F
100
AcDbEntity
  8
0-0
  6
JWW_DASHED1
 62
   120
370
     5
100
AcDbLine
 10
-144.6723716091103
 20
-170.0116666666738
 30
0.0
 11
-144.6723716091103
 21
1004.988333333326
 31
0.0
  0
LINE
  5
2C7
330
1F
100
AcDbEntity
  8
0-0
  6
JWW_DASHED1
 62
   120
370
     5
100
AcDbLine
 10
-157.6723716102103
 20
-170.0116666666738
 30
0.0
 11
-157.6723716102103
 21
1004.988333333326
 31
0.0
  0
LINE
  5
2C8
330
1F
100
AcDbEntity
  8
0-0
  6
JWW_DASHED1
 62
   120
370
     5
100
AcDbLine
 10
-158.6723716101105
 20
-170.0116666666738
 30
0.0
 11
-158.6723716101105
 21
1004.988333333326
 31
0.0
  0
LINE
  5
2C9
330
1F
100
AcDbEntity
  8
0-0
  6
JWW_DASHED1
 62
   120
370
     5
100
AcDbLine
 10
-171.6723716112101
 20
-170.0116666666738
 30
0.0
 11
-171.6723716112101
 21
1004.988333333326
 31
0.0
  0
LINE
  5
2CA
330
1F
100
AcDbEntity
  8
0-0
  6
JWW_DASHED1
 62
   120
370
     5
100
AcDbLine
 10
-172.6723716111103
 20
-170.0116666666738
 30
0.0
 11
-172.6723716111103
 21
1004.988333333326
 31
0.0
  0
LINE
  5
2CB
330
1F
100
AcDbEntity
  8
0-0
  6
JWW_DASHED1
 62
   120
370
     5
100
AcDbLine
 10
-185.6723716122101
 20
-170.0116666666738
 30
0.0
 11
-185.6723716122101
 21
1004.988333333326
 31
0.0
  0
LINE
  5
2CC
330
1F
100
AcDbEntity
  8
0-0
  6
JWW_DASHED1
 62
   120
370
     5
100
AcDbLine
 10
-186.6723716121101
 20
-170.0116666666738
 30
0.0
 11
-186.6723716121101
 21
1004.988333333326
 31
0.0
  0
LINE
  5
2CD
330
1F
100
AcDbEntity
  8
0-0
  6
JWW_DASHED1
 62
   120
370
     5
100
AcDbLine
 10
-199.6723716132101
 20
-170.0116666666738
 30
0.0
 11
-199.6723716132101
 21
1004.988333333326
 31
0.0
  0
LINE
  5
2CE
330
1F
100
AcDbEntity
  8
0-0
  6
JWW_DASHED1
 62
   120
370
     5
100
AcDbLine
 10
-200.6723716131105
 20
-170.0116666666738
 30
0.0
 11
-200.6723716131105
 21
1004.988333333326
 31
0.0
  0
LINE
  5
2CF
330
1F
100
AcDbEntity
  8
0-0
  6
JWW_DASHED1
 62
   120
370
     5
100
AcDbLine
 10
-213.6723716142105
 20
-170.0116666666738
 30
0.0
 11
-213.6723716142105
 21
1004.988333333326
 31
0.0
  0
LINE
  5
2D0
330
1F
100
AcDbEntity
  8
0-0
  6
JWW_DASHED1
 62
   120
370
     5
100
AcDbLine
 10
-214.6723716141105
 20
-170.0116666666738
 30
0.0
 11
-214.6723716141105
 21
1004.988333333326
 31
0.0
  0
LINE
  5
2D1
330
1F
100
AcDbEntity
  8
0-0
  6
JWW_DASHED1
 62
   120
370
     5
100
AcDbLine
 10
-227.6723716152101
 20
-170.0116666666738
 30
0.0
 11
-227.6723716152101
 21
1004.988333333326
 31
0.0
  0
LINE
  5
2D2
330
1F
100
AcDbEntity
  8
0-0
  6
JWW_DASHED1
 62
   120
370
     5
100
AcDbLine
 10
-228.6723716151103
 20
-170.0116666666738
 30
0.0
 11
-228.6723716151103
 21
1004.988333333326
 31
0.0
  0
LINE
  5
2D3
330
1F
100
AcDbEntity
  8
0-0
  6
JWW_DASHED1
 62
   120
370
     5
100
AcDbLine
 10
-241.6723716162099
 20
-170.0116666666738
 30
0.0
 11
-241.6723716162099
 21
1004.988333333326
 31
0.0
  0
LINE
  5
2D4
330
1F
100
AcDbEntity
  8
0-0
  6
JWW_DASHED1
 62
   120
370
     5
100
AcDbLine
 10
-242.6723716161101
 20
-170.0116666666738
 30
0.0
 11
-242.6723716161101
 21
1004.988333333326
 31
0.0
  0
LINE
  5
2D5
330
1F
100
AcDbEntity
  8
0-0
  6
JWW_DASHED1
 62
   120
370
     5
100
AcDbLine
 10
-255.6723716172101
 20
-170.0116666666738
 30
0.0
 11
-255.6723716172101
 21
1004.988333333326
 31
0.0
  0
LINE
  5
2D6
330
1F
100
AcDbEntity
  8
0-0
  6
JWW_DASHED1
 62
   120
370
     5
100
AcDbLine
 10
-256.6723716171103
 20
-170.0116666666738
 30
0.0
 11
-256.6723716171103
 21
1004.988333333326
 31
0.0
  0
LINE
  5
2D7
330
1F
100
AcDbEntity
  8
0-0
  6
JWW_DASHED1
 62
   120
370
     5
100
AcDbLine
 10
-269.6723716182103
 20
-170.0116666666738
 30
0.0
 11
-269.6723716182103
 21
1004.988333333326
 31
0.0
  0
LINE
  5
2D8
330
1F
100
AcDbEntity
  8
0-0
  6
JWW_DASHED1
 62
   120
370
     5
100
AcDbLine
 10
-270.6723716181105
 20
-170.0116666666738
 30
0.0
 11
-270.6723716181105
 21
1004.988333333326
 31
0.0
  0
LINE
  5
2D9
330
1F
100
AcDbEntity
  8
0-0
  6
JWW_DASHED1
 62
   120
370
     5
100
AcDbLine
 10
-283.6723716192101
 20
-170.0116666666738
 30
0.0
 11
-283.6723716192101
 21
1004.988333333326
 31
0.0
  0
LINE
  5
2DA
330
1F
100
AcDbEntity
  8
0-0
  6
JWW_DASHED1
 62
   120
370
     5
100
AcDbLine
 10
-284.6723716191103
 20
-170.0116666666738
 30
0.0
 11
-284.6723716191103
 21
1004.988333333326
 31
0.0
  0
LINE
  5
2DB
330
1F
100
AcDbEntity
  8
0-0
  6
JWW_DASHED1
 62
   120
370
     5
100
AcDbLine
 10
-297.6723716202099
 20
-170.0116666666738
 30
0.0
 11
-297.6723716202099
 21
1004.988333333326
 31
0.0
  0
LINE
  5
2DC
330
1F
100
AcDbEntity
  8
0-0
  6
JWW_DASHED1
 62
   120
370
     5
100
AcDbLine
 10
-298.6723716201105
 20
-170.0116666666738
 30
0.0
 11
-298.6723716201105
 21
1004.988333333326
 31
0.0
  0
LINE
  5
2DD
330
1F
100
AcDbEntity
  8
0-0
  6
JWW_DASHED1
 62
   120
370
     5
100
AcDbLine
 10
-311.6723716212101
 20
-170.0116666666738
 30
0.0
 11
-311.6723716212101
 21
1004.988333333326
 31
0.0
  0
LINE
  5
2DE
330
1F
100
AcDbEntity
  8
0-0
  6
JWW_DASHED1
 62
   120
370
     5
100
AcDbLine
 10
-312.6723716211103
 20
-170.0116666666738
 30
0.0
 11
-312.6723716211103
 21
1004.988333333326
 31
0.0
  0
LINE
  5
2DF
330
1F
100
AcDbEntity
  8
0-0
  6
JWW_DASHED1
 62
   120
370
     5
100
AcDbLine
 10
-325.6723716222103
 20
-170.0116666666738
 30
0.0
 11
-325.6723716222103
 21
1004.988333333326
 31
0.0
  0
LINE
  5
2E0
330
1F
100
AcDbEntity
  8
0-0
  6
JWW_DASHED1
 62
   120
370
     5
100
AcDbLine
 10
-326.6723716221105
 20
-170.0116666666738
 30
0.0
 11
-326.6723716221105
 21
1004.988333333326
 31
0.0
  0
LINE
  5
2E1
330
1F
100
AcDbEntity
  8
0-0
  6
JWW_DASHED1
 62
   120
370
     5
100
AcDbLine
 10
-339.6723716232106
 20
-170.0116666666738
 30
0.0
 11
-339.6723716232106
 21
1004.988333333326
 31
0.0
  0
LINE
  5
2E2
330
1F
100
AcDbEntity
  8
0-0
  6
JWW_DASHED1
 62
   120
370
     5
100
AcDbLine
 10
-340.6723716231103
 20
-170.0116666666738
 30
0.0
 11
-340.6723716231103
 21
1004.988333333326
 31
0.0
  0
LINE
  5
2E3
330
1F
100
AcDbEntity
  8
0-0
  6
JWW_DASHED1
 62
   120
370
     5
100
AcDbLine
 10
-353.6723716242099
 20
-170.0116666666738
 30
0.0
 11
-353.6723716242099
 21
1004.988333333326
 31
0.0
  0
LINE
  5
2E4
330
1F
100
AcDbEntity
  8
0-0
  6
JWW_DASHED1
 62
   120
370
     5
100
AcDbLine
 10
-354.6723716241101
 20
-170.0116666666738
 30
0.0
 11
-354.6723716241101
 21
1004.988333333326
 31
0.0
  0
LINE
  5
2E5
330
1F
100
AcDbEntity
  8
0-0
  6
JWW_DASHED1
 62
   120
370
     5
100
AcDbLine
 10
-367.6723716252101
 20
-170.0116666666738
 30
0.0
 11
-367.6723716252101
 21
1004.988333333326
 31
0.0
  0
LINE
  5
2E6
330
1F
100
AcDbEntity
  8
0-0
  6
JWW_DASHED1
 62
   120
370
     5
100
AcDbLine
 10
-368.6723716251103
 20
-170.0116666666738
 30
0.0
 11
-368.6723716251103
 21
1004.988333333326
 31
0.0
  0
LINE
  5
2E7
330
1F
100
AcDbEntity
  8
0-0
  6
JWW_DASHED1
 62
   120
370
     5
100
AcDbLine
 10
-381.6723716262103
 20
-170.0116666666738
 30
0.0
 11
-381.6723716262103
 21
1004.988333333326
 31
0.0
  0
LINE
  5
2E8
330
1F
100
AcDbEntity
  8
0-0
  6
JWW_DASHED1
 62
   120
370
     5
100
AcDbLine
 10
-382.6723716261105
 20
-170.0116666666738
 30
0.0
 11
-382.6723716261105
 21
1004.988333333326
 31
0.0
  0
LINE
  5
2E9
330
1F
100
AcDbEntity
  8
0-0
  6
JWW_DASHED1
 62
   120
370
     5
100
AcDbLine
 10
-395.6723716272102
 20
-170.0116666666738
 30
0.0
 11
-395.6723716272102
 21
1004.988333333326
 31
0.0
  0
LINE
  5
2EA
330
1F
100
AcDbEntity
  8
0-0
  6
JWW_DASHED1
 62
   120
370
     5
100
AcDbLine
 10
-396.6723716271104
 20
-170.0116666666738
 30
0.0
 11
-396.6723716271104
 21
1004.988333333326
 31
0.0
  0
LINE
  5
2EB
330
1F
100
AcDbEntity
  8
0-0
  6
JWW_DASHED1
 62
   120
370
     5
100
AcDbLine
 10
-409.6723716282099
 20
-170.0116666666738
 30
0.0
 11
-409.6723716282099
 21
1004.988333333326
 31
0.0
  0
LINE
  5
2EC
330
1F
100
AcDbEntity
  8
0-0
  6
JWW_DASHED1
 62
   120
370
     5
100
AcDbLine
 10
-410.6723716281103
 20
-170.0116666666738
 30
0.0
 11
-410.6723716281103
 21
1004.988333333326
 31
0.0
  0
LINE
  5
2ED
330
1F
100
AcDbEntity
  8
0-0
  6
JWW_DASHED1
 62
   120
370
     5
100
AcDbLine
 10
-423.6723716292104
 20
-170.0116666666738
 30
0.0
 11
-423.6723716292104
 21
1004.988333333326
 31
0.0
  0
LINE
  5
2EE
330
1F
100
AcDbEntity
  8
0-0
  6
JWW_DASHED1
 62
   120
370
     5
100
AcDbLine
 10
-424.6723716291103
 20
-170.0116666666738
 30
0.0
 11
-424.6723716291103
 21
1004.988333333326
 31
0.0
  0
LINE
  5
2EF
330
1F
100
AcDbEntity
  8
0-0
  6
JWW_DASHED1
 62
   120
370
     5
100
AcDbLine
 10
-437.6723716302104
 20
-170.0116666666738
 30
0.0
 11
-437.6723716302104
 21
1004.988333333326
 31
0.0
  0
LINE
  5
2F0
330
1F
100
AcDbEntity
  8
0-0
  6
JWW_DASHED1
 62
   120
370
     5
100
AcDbLine
 10
-438.6723716301108
 20
-170.0116666666738
 30
0.0
 11
-438.6723716301108
 21
1004.988333333326
 31
0.0
  0
LINE
  5
2F1
330
1F
100
AcDbEntity
  8
0-0
  6
JWW_DASHED1
 62
   120
370
     5
100
AcDbLine
 10
-451.6723716312101
 20
-170.0116666666738
 30
0.0
 11
-451.6723716312101
 21
1004.988333333326
 31
0.0
  0
LINE
  5
2F2
330
1F
100
AcDbEntity
  8
0-0
  6
JWW_DASHED1
 62
   120
370
     5
100
AcDbLine
 10
-452.6723716311103
 20
-170.0116666666738
 30
0.0
 11
-452.6723716311103
 21
1004.988333333326
 31
0.0
  0
LINE
  5
2F3
330
1F
100
AcDbEntity
  8
0-0
  6
JWW_DASHED1
 62
   120
370
     5
100
AcDbLine
 10
-465.6723716322099
 20
-170.0116666666738
 30
0.0
 11
-465.6723716322099
 21
1004.988333333326
 31
0.0
  0
LINE
  5
2F4
330
1F
100
AcDbEntity
  8
0-0
  6
JWW_DASHED1
 62
   120
370
     5
100
AcDbLine
 10
-466.6723716321101
 20
-170.0116666666738
 30
0.0
 11
-466.6723716321101
 21
1004.988333333326
 31
0.0
  0
LINE
  5
2F5
330
1F
100
AcDbEntity
  8
0-0
  6
JWW_DASHED1
 62
   120
370
     5
100
AcDbLine
 10
-479.6723716332102
 20
-170.0116666666738
 30
0.0
 11
-479.6723716332102
 21
1004.988333333326
 31
0.0
  0
LINE
  5
2F6
330
1F
100
AcDbEntity
  8
0-0
  6
JWW_DASHED1
 62
   120
370
     5
100
AcDbLine
 10
-480.6723716331103
 20
-170.0116666666738
 30
0.0
 11
-480.6723716331103
 21
1004.988333333326
 31
0.0
  0
LINE
  5
2F7
330
1F
100
AcDbEntity
  8
0-0
  6
JWW_DASHED1
 62
   120
370
     5
100
AcDbLine
 10
-493.6723716342104
 20
-170.0116666666738
 30
0.0
 11
-493.6723716342104
 21
1004.988333333326
 31
0.0
  0
LINE
  5
2F8
330
1F
100
AcDbEntity
  8
0-0
  6
JWW_DASHED1
 62
   120
370
     5
100
AcDbLine
 10
-494.6723716341106
 20
-170.0116666666738
 30
0.0
 11
-494.6723716341106
 21
1004.988333333326
 31
0.0
  0
LINE
  5
2F9
330
1F
100
AcDbEntity
  8
0-0
  6
JWW_DASHED1
 62
   120
370
     5
100
AcDbLine
 10
-507.6723716352102
 20
-170.0116666666738
 30
0.0
 11
-507.6723716352102
 21
1004.988333333326
 31
0.0
  0
LINE
  5
2FA
330
1F
100
AcDbEntity
  8
0-0
  6
JWW_DASHED1
 62
   120
370
     5
100
AcDbLine
 10
-508.6723716351104
 20
-170.0116666666738
 30
0.0
 11
-508.6723716351104
 21
1004.988333333326
 31
0.0
  0
LINE
  5
2FB
330
1F
100
AcDbEntity
  8
0-0
  6
JWW_DASHED1
 62
   120
370
     5
100
AcDbLine
 10
-521.6723716362104
 20
-170.0116666666738
 30
0.0
 11
-521.6723716362104
 21
1004.988333333326
 31
0.0
  0
LINE
  5
2FC
330
1F
100
AcDbEntity
  8
0-0
  6
JWW_DASHED1
 62
   120
370
     5
100
AcDbLine
 10
-522.6723716361101
 20
-170.0116666666738
 30
0.0
 11
-522.6723716361101
 21
1004.988333333326
 31
0.0
  0
LINE
  5
2FD
330
1F
100
AcDbEntity
  8
0-0
  6
JWW_DASHED1
 62
   120
370
     5
100
AcDbLine
 10
-535.6723716372102
 20
-170.0116666666738
 30
0.0
 11
-535.6723716372102
 21
1004.988333333326
 31
0.0
  0
LINE
  5
2FE
330
1F
100
AcDbEntity
  8
0-0
  6
JWW_DASHED1
 62
   120
370
     5
100
AcDbLine
 10
-536.6723716371108
 20
-170.0116666666738
 30
0.0
 11
-536.6723716371108
 21
1004.988333333326
 31
0.0
  0
LINE
  5
2FF
330
1F
100
AcDbEntity
  8
0-0
  6
JWW_DASHED1
 62
   120
370
     5
100
AcDbLine
 10
-549.6723716382104
 20
-170.0116666666738
 30
0.0
 11
-549.6723716382104
 21
1004.988333333326
 31
0.0
  0
LINE
  5
300
330
1F
100
AcDbEntity
  8
0-0
  6
JWW_DASHED1
 62
   120
370
     5
100
AcDbLine
 10
-550.6723716381106
 20
-170.0116666666738
 30
0.0
 11
-550.6723716381106
 21
1004.988333333326
 31
0.0
  0
LINE
  5
301
330
1F
100
AcDbEntity
  8
0-0
  6
JWW_DASHED1
 62
   120
370
     5
100
AcDbLine
 10
-563.6723716392102
 20
-170.0116666666738
 30
0.0
 11
-563.6723716392102
 21
1004.988333333326
 31
0.0
  0
LINE
  5
302
330
1F
100
AcDbEntity
  8
0-0
  6
JWW_DASHED1
 62
   120
370
     5
100
AcDbLine
 10
-564.6723716391108
 20
-170.0116666666738
 30
0.0
 11
-564.6723716391108
 21
1004.988333333326
 31
0.0
  0
LINE
  5
303
330
1F
100
AcDbEntity
  8
0-0
  6
JWW_DASHED1
 62
   120
370
     5
100
AcDbLine
 10
-577.67237164021
 20
-170.0116666666738
 30
0.0
 11
-577.67237164021
 21
1004.988333333326
 31
0.0
  0
LINE
  5
304
330
1F
100
AcDbEntity
  8
0-0
  6
JWW_DASHED1
 62
   120
370
     5
100
AcDbLine
 10
-578.6723716401102
 20
-170.0116666666738
 30
0.0
 11
-578.6723716401102
 21
1004.988333333326
 31
0.0
  0
LINE
  5
305
330
1F
100
AcDbEntity
  8
0-0
  6
JWW_DASHED1
 62
   120
370
     5
100
AcDbLine
 10
-591.6723716412102
 20
-170.0116666666738
 30
0.0
 11
-591.6723716412102
 21
1004.988333333326
 31
0.0
  0
LINE
  5
306
330
1F
100
AcDbEntity
  8
0-0
  6
JWW_DASHED1
 62
   120
370
     5
100
AcDbLine
 10
-592.6723716411104
 20
-170.0116666666738
 30
0.0
 11
-592.6723716411104
 21
1004.988333333326
 31
0.0
  0
LINE
  5
307
330
1F
100
AcDbEntity
  8
0-0
  6
JWW_DASHED1
 62
   120
370
     5
100
AcDbLine
 10
-605.6723716422105
 20
-170.0116666666738
 30
0.0
 11
-605.6723716422105
 21
1004.988333333326
 31
0.0
  0
LINE
  5
308
330
1F
100
AcDbEntity
  8
0-0
  6
JWW_DASHED1
 62
   120
370
     5
100
AcDbLine
 10
-45.67237160221026
 20
-170.0116666666738
 30
0.0
 11
-45.67237160221026
 21
1004.988333333326
 31
0.0
  0
LINE
  5
309
330
1F
100
AcDbEntity
  8
0-0
  6
JWW_DASHED1
 62
   120
370
     5
100
AcDbLine
 10
-60.67237160311024
 20
-170.0116666666738
 30
0.0
 11
-60.67237160311024
 21
1004.988333333326
 31
0.0
  0
LINE
  5
30A
330
1F
100
AcDbEntity
  8
0-0
  6
JWW_DASHED1
 62
   120
370
     5
100
AcDbLine
 10
-46.67237160211045
 20
-170.0116666666738
 30
0.0
 11
-46.67237160211045
 21
1004.988333333326
 31
0.0
  0
LINE
  5
30B
330
1F
100
AcDbEntity
  8
0-0
  6
JWW_DASHED1
 62
   120
370
     5
100
AcDbLine
 10
-59.67237160321048
 20
-170.0116666666738
 30
0.0
 11
-59.67237160321048
 21
1004.988333333326
 31
0.0
  0
LINE
  5
30C
330
1F
100
AcDbEntity
  8
0-0
  6
JWW_DASHED1
 62
   120
370
     5
100
AcDbLine
 10
-612.6723901001416
 20
992.988185102365
 30
0.0
 11
-39.67239010014254
 21
992.988185102365
 31
0.0
  0
LINE
  5
30D
330
1F
100
AcDbEntity
  8
0-0
  6
JWW_DASHED1
 62
   120
370
     5
100
AcDbLine
 10
-612.6723901001416
 20
949.9881850994657
 30
0.0
 11
-39.67239010014254
 21
949.9881850994657
 31
0.0
  0
LINE
  5
30E
330
1F
100
AcDbEntity
  8
0-0
  6
JWW_DASHED1
 62
   120
370
     5
100
AcDbLine
 10
-612.6723901001416
 20
950.9881850993659
 30
0.0
 11
-39.67239010014254
 21
950.9881850993659
 31
0.0
  0
LINE
  5
30F
330
1F
100
AcDbEntity
  8
0-0
  6
JWW_DASHED1
 62
   120
370
     5
100
AcDbLine
 10
-612.6723901001416
 20
963.9881851004656
 30
0.0
 11
-39.67239010014254
 21
963.9881851004656
 31
0.0
  0
LINE
  5
310
330
1F
100
AcDbEntity
  8
0-0
  6
JWW_DASHED1
 62
   120
370
     5
100
AcDbLine
 10
-612.6723901001416
 20
964.9881851003657
 30
0.0
 11
-39.67239010014254
 21
964.9881851003657
 31
0.0
  0
LINE
  5
311
330
1F
100
AcDbEntity
  8
0-0
  6
JWW_DASHED1
 62
   120
370
     5
100
AcDbLine
 10
-612.6723901001416
 20
977.9881851014651
 30
0.0
 11
-39.67239010014254
 21
977.9881851014651
 31
0.0
  0
LINE
  5
312
330
1F
100
AcDbEntity
  8
0-0
  6
JWW_DASHED1
 62
   120
370
     5
100
AcDbLine
 10
-612.6723901001416
 20
978.9881851013653
 30
0.0
 11
-39.67239010014254
 21
978.9881851013653
 31
0.0
  0
LINE
  5
313
330
1F
100
AcDbEntity
  8
0-0
  6
JWW_DASHED1
 62
   120
370
     5
100
AcDbLine
 10
-612.6723901001416
 20
991.9881851024651
 30
0.0
 11
-39.67239010014254
 21
991.9881851024651
 31
0.0
  0
LINE
  5
314
330
1F
100
AcDbEntity
  8
0-0
  6
JWW_DASHED1
 62
   120
370
     5
100
AcDbLine
 10
197.3276098998576
 20
-169.0118149806173
 30
0.0
 11
770.3276098998583
 21
-169.0118149806173
 31
0.0
  0
LINE
  5
315
330
1F
100
AcDbEntity
  8
0-0
  6
JWW_DASHED1
 62
   120
370
     5
100
AcDbLine
 10
197.3276098998576
 20
-156.0118149795178
 30
0.0
 11
770.3276098998583
 21
-156.0118149795178
 31
0.0
  0
LINE
  5
316
330
1F
100
AcDbEntity
  8
0-0
  6
JWW_DASHED1
 62
   120
370
     5
100
AcDbLine
 10
197.3276098998576
 20
-155.0118149796176
 30
0.0
 11
770.3276098998583
 21
-155.0118149796176
 31
0.0
  0
LINE
  5
317
330
1F
100
AcDbEntity
  8
0-0
  6
JWW_DASHED1
 62
   120
370
     5
100
AcDbLine
 10
197.3276098998576
 20
-142.0118149785179
 30
0.0
 11
770.3276098998583
 21
-142.0118149785179
 31
0.0
  0
LINE
  5
318
330
1F
100
AcDbEntity
  8
0-0
  6
JWW_DASHED1
 62
   120
370
     5
100
AcDbLine
 10
197.3276098998576
 20
-141.0118149786177
 30
0.0
 11
770.3276098998583
 21
-141.0118149786177
 31
0.0
  0
LINE
  5
319
330
1F
100
AcDbEntity
  8
0-0
  6
JWW_DASHED1
 62
   120
370
     5
100
AcDbLine
 10
197.3276098998576
 20
-128.0118149775181
 30
0.0
 11
770.3276098998583
 21
-128.0118149775181
 31
0.0
  0
LINE
  5
31A
330
1F
100
AcDbEntity
  8
0-0
  6
JWW_DASHED1
 62
   120
370
     5
100
AcDbLine
 10
197.3276098998576
 20
-127.0118149776179
 30
0.0
 11
770.3276098998583
 21
-127.0118149776179
 31
0.0
  0
LINE
  5
31B
330
1F
100
AcDbEntity
  8
0-0
  6
JWW_DASHED1
 62
   120
370
     5
100
AcDbLine
 10
197.3276098998576
 20
-114.0118149765183
 30
0.0
 11
770.3276098998583
 21
-114.0118149765183
 31
0.0
  0
LINE
  5
31C
330
1F
100
AcDbEntity
  8
0-0
  6
JWW_DASHED1
 62
   120
370
     5
100
AcDbLine
 10
197.3276098998576
 20
-113.0118149766182
 30
0.0
 11
770.3276098998583
 21
-113.0118149766182
 31
0.0
  0
LINE
  5
31D
330
1F
100
AcDbEntity
  8
0-0
  6
JWW_DASHED1
 62
   120
370
     5
100
AcDbLine
 10
197.3276098998576
 20
-100.0118149755185
 30
0.0
 11
770.3276098998583
 21
-100.0118149755185
 31
0.0
  0
LINE
  5
31E
330
1F
100
AcDbEntity
  8
0-0
  6
JWW_DASHED1
 62
   120
370
     5
100
AcDbLine
 10
197.3276098998576
 20
-99.01181497561836
 30
0.0
 11
770.3276098998583
 21
-99.01181497561836
 31
0.0
  0
LINE
  5
31F
330
1F
100
AcDbEntity
  8
0-0
  6
JWW_DASHED1
 62
   120
370
     5
100
AcDbLine
 10
197.3276098998576
 20
-86.01181497451876
 30
0.0
 11
770.3276098998583
 21
-86.01181497451876
 31
0.0
  0
LINE
  5
320
330
1F
100
AcDbEntity
  8
0-0
  6
JWW_DASHED1
 62
   120
370
     5
100
AcDbLine
 10
197.3276098998576
 20
-85.01181497461857
 30
0.0
 11
770.3276098998583
 21
-85.01181497461857
 31
0.0
  0
LINE
  5
321
330
1F
100
AcDbEntity
  8
0-0
  6
JWW_DASHED1
 62
   120
370
     5
100
AcDbLine
 10
197.3276098998576
 20
-72.01181497351897
 30
0.0
 11
770.3276098998583
 21
-72.01181497351897
 31
0.0
  0
LINE
  5
322
330
1F
100
AcDbEntity
  8
0-0
  6
JWW_DASHED1
 62
   120
370
     5
100
AcDbLine
 10
197.3276098998576
 20
-71.01181497361878
 30
0.0
 11
770.3276098998583
 21
-71.01181497361878
 31
0.0
  0
LINE
  5
323
330
1F
100
AcDbEntity
  8
0-0
  6
JWW_DASHED1
 62
   120
370
     5
100
AcDbLine
 10
197.3276098998576
 20
-58.01181497251918
 30
0.0
 11
770.3276098998583
 21
-58.01181497251918
 31
0.0
  0
LINE
  5
324
330
1F
100
AcDbEntity
  8
0-0
  6
JWW_DASHED1
 62
   120
370
     5
100
AcDbLine
 10
197.3276098998576
 20
-57.01181497261899
 30
0.0
 11
770.3276098998583
 21
-57.01181497261899
 31
0.0
  0
LINE
  5
325
330
1F
100
AcDbEntity
  8
0-0
  6
JWW_DASHED1
 62
   120
370
     5
100
AcDbLine
 10
197.3276098998576
 20
-44.01181497151949
 30
0.0
 11
770.3276098998583
 21
-44.01181497151949
 31
0.0
  0
LINE
  5
326
330
1F
100
AcDbEntity
  8
0-0
  6
JWW_DASHED1
 62
   120
370
     5
100
AcDbLine
 10
197.3276098998576
 20
-43.01181497161931
 30
0.0
 11
770.3276098998583
 21
-43.01181497161931
 31
0.0
  0
LINE
  5
327
330
1F
100
AcDbEntity
  8
0-0
  6
JWW_DASHED1
 62
   120
370
     5
100
AcDbLine
 10
197.3276098998576
 20
-30.01181497051959
 30
0.0
 11
770.3276098998583
 21
-30.01181497051959
 31
0.0
  0
LINE
  5
328
330
1F
100
AcDbEntity
  8
0-0
  6
JWW_DASHED1
 62
   120
370
     5
100
AcDbLine
 10
197.3276098998576
 20
-29.01181497061941
 30
0.0
 11
770.3276098998583
 21
-29.01181497061941
 31
0.0
  0
LINE
  5
329
330
1F
100
AcDbEntity
  8
0-0
  6
JWW_DASHED1
 62
   120
370
     5
100
AcDbLine
 10
197.3276098998576
 20
-16.0118149695198
 30
0.0
 11
770.3276098998583
 21
-16.0118149695198
 31
0.0
  0
LINE
  5
32A
330
1F
100
AcDbEntity
  8
0-0
  6
JWW_DASHED1
 62
   120
370
     5
100
AcDbLine
 10
197.3276098998576
 20
-15.01181496961962
 30
0.0
 11
770.3276098998583
 21
-15.01181496961962
 31
0.0
  0
LINE
  5
32B
330
1F
100
AcDbEntity
  8
0-0
  6
JWW_DASHED1
 62
   120
370
     5
100
AcDbLine
 10
197.3276098998576
 20
-2.011814968520014
 30
0.0
 11
770.3276098998583
 21
-2.011814968520014
 31
0.0
  0
LINE
  5
32C
330
1F
100
AcDbEntity
  8
0-0
  6
JWW_DASHED1
 62
   120
370
     5
100
AcDbLine
 10
197.3276098998576
 20
-1.011814968619831
 30
0.0
 11
770.3276098998583
 21
-1.011814968619831
 31
0.0
  0
LINE
  5
32D
330
1F
100
AcDbEntity
  8
0-0
  6
JWW_DASHED1
 62
   120
370
     5
100
AcDbLine
 10
197.3276098998576
 20
11.98818503247978
 30
0.0
 11
770.3276098998583
 21
11.98818503247978
 31
0.0
  0
LINE
  5
32E
330
1F
100
AcDbEntity
  8
0-0
  6
JWW_DASHED1
 62
   120
370
     5
100
AcDbLine
 10
197.3276098998576
 20
12.98818503237996
 30
0.0
 11
770.3276098998583
 21
12.98818503237996
 31
0.0
  0
LINE
  5
32F
330
1F
100
AcDbEntity
  8
0-0
  6
JWW_DASHED1
 62
   120
370
     5
100
AcDbLine
 10
197.3276098998576
 20
25.98818503347957
 30
0.0
 11
770.3276098998583
 21
25.98818503347957
 31
0.0
  0
LINE
  5
330
330
1F
100
AcDbEntity
  8
0-0
  6
JWW_DASHED1
 62
   120
370
     5
100
AcDbLine
 10
197.3276098998576
 20
26.98818503337975
 30
0.0
 11
770.3276098998583
 21
26.98818503337975
 31
0.0
  0
LINE
  5
331
330
1F
100
AcDbEntity
  8
0-0
  6
JWW_DASHED1
 62
   120
370
     5
100
AcDbLine
 10
197.3276098998576
 20
39.98818503447936
 30
0.0
 11
770.3276098998583
 21
39.98818503447936
 31
0.0
  0
LINE
  5
332
330
1F
100
AcDbEntity
  8
0-0
  6
JWW_DASHED1
 62
   120
370
     5
100
AcDbLine
 10
197.3276098998576
 20
40.98818503437954
 30
0.0
 11
770.3276098998583
 21
40.98818503437954
 31
0.0
  0
LINE
  5
333
330
1F
100
AcDbEntity
  8
0-0
  6
JWW_DASHED1
 62
   120
370
     5
100
AcDbLine
 10
197.3276098998576
 20
53.98818503547915
 30
0.0
 11
770.3276098998583
 21
53.98818503547915
 31
0.0
  0
LINE
  5
334
330
1F
100
AcDbEntity
  8
0-0
  6
JWW_DASHED1
 62
   120
370
     5
100
AcDbLine
 10
197.3276098998576
 20
54.98818503537933
 30
0.0
 11
770.3276098998583
 21
54.98818503537933
 31
0.0
  0
LINE
  5
335
330
1F
100
AcDbEntity
  8
0-0
  6
JWW_DASHED1
 62
   120
370
     5
100
AcDbLine
 10
197.3276098998576
 20
67.98818503647882
 30
0.0
 11
770.3276098998583
 21
67.98818503647882
 31
0.0
  0
LINE
  5
336
330
1F
100
AcDbEntity
  8
0-0
  6
JWW_DASHED1
 62
   120
370
     5
100
AcDbLine
 10
197.3276098998576
 20
68.98818503637901
 30
0.0
 11
770.3276098998583
 21
68.98818503637901
 31
0.0
  0
LINE
  5
337
330
1F
100
AcDbEntity
  8
0-0
  6
JWW_DASHED1
 62
   120
370
     5
100
AcDbLine
 10
197.3276098998576
 20
81.98818503747873
 30
0.0
 11
770.3276098998583
 21
81.98818503747873
 31
0.0
  0
LINE
  5
338
330
1F
100
AcDbEntity
  8
0-0
  6
JWW_DASHED1
 62
   120
370
     5
100
AcDbLine
 10
197.3276098998576
 20
82.98818503737891
 30
0.0
 11
770.3276098998583
 21
82.98818503737891
 31
0.0
  0
LINE
  5
339
330
1F
100
AcDbEntity
  8
0-0
  6
JWW_DASHED1
 62
   120
370
     5
100
AcDbLine
 10
197.3276098998576
 20
95.98818503847852
 30
0.0
 11
770.3276098998583
 21
95.98818503847852
 31
0.0
  0
LINE
  5
33A
330
1F
100
AcDbEntity
  8
0-0
  6
JWW_DASHED1
 62
   120
370
     5
100
AcDbLine
 10
197.3276098998576
 20
96.9881850383787
 30
0.0
 11
770.3276098998583
 21
96.9881850383787
 31
0.0
  0
LINE
  5
33B
330
1F
100
AcDbEntity
  8
0-0
  6
JWW_DASHED1
 62
   120
370
     5
100
AcDbLine
 10
197.3276098998576
 20
109.9881850394783
 30
0.0
 11
770.3276098998583
 21
109.9881850394783
 31
0.0
  0
LINE
  5
33C
330
1F
100
AcDbEntity
  8
0-0
  6
JWW_DASHED1
 62
   120
370
     5
100
AcDbLine
 10
197.3276098998576
 20
110.9881850393785
 30
0.0
 11
770.3276098998583
 21
110.9881850393785
 31
0.0
  0
LINE
  5
33D
330
1F
100
AcDbEntity
  8
0-0
  6
JWW_DASHED1
 62
   120
370
     5
100
AcDbLine
 10
197.3276098998576
 20
123.9881850404781
 30
0.0
 11
770.3276098998583
 21
123.9881850404781
 31
0.0
  0
LINE
  5
33E
330
1F
100
AcDbEntity
  8
0-0
  6
JWW_DASHED1
 62
   120
370
     5
100
AcDbLine
 10
197.3276098998576
 20
124.9881850403783
 30
0.0
 11
770.3276098998583
 21
124.9881850403783
 31
0.0
  0
LINE
  5
33F
330
1F
100
AcDbEntity
  8
0-0
  6
JWW_DASHED1
 62
   120
370
     5
100
AcDbLine
 10
197.3276098998576
 20
137.9881850414779
 30
0.0
 11
770.3276098998583
 21
137.9881850414779
 31
0.0
  0
LINE
  5
340
330
1F
100
AcDbEntity
  8
0-0
  6
JWW_DASHED1
 62
   120
370
     5
100
AcDbLine
 10
197.3276098998576
 20
138.9881850413781
 30
0.0
 11
770.3276098998583
 21
138.9881850413781
 31
0.0
  0
LINE
  5
341
330
1F
100
AcDbEntity
  8
0-0
  6
JWW_DASHED1
 62
   120
370
     5
100
AcDbLine
 10
197.3276098998576
 20
151.9881850424777
 30
0.0
 11
770.3276098998583
 21
151.9881850424777
 31
0.0
  0
LINE
  5
342
330
1F
100
AcDbEntity
  8
0-0
  6
JWW_DASHED1
 62
   120
370
     5
100
AcDbLine
 10
197.3276098998576
 20
152.9881850423779
 30
0.0
 11
770.3276098998583
 21
152.9881850423779
 31
0.0
  0
LINE
  5
343
330
1F
100
AcDbEntity
  8
0-0
  6
JWW_DASHED1
 62
   120
370
     5
100
AcDbLine
 10
197.3276098998576
 20
165.9881850434775
 30
0.0
 11
770.3276098998583
 21
165.9881850434775
 31
0.0
  0
LINE
  5
344
330
1F
100
AcDbEntity
  8
0-0
  6
JWW_DASHED1
 62
   120
370
     5
100
AcDbLine
 10
197.3276098998576
 20
166.9881850433777
 30
0.0
 11
770.3276098998583
 21
166.9881850433777
 31
0.0
  0
LINE
  5
345
330
1F
100
AcDbEntity
  8
0-0
  6
JWW_DASHED1
 62
   120
370
     5
100
AcDbLine
 10
197.3276098998576
 20
179.9881850444773
 30
0.0
 11
770.3276098998583
 21
179.9881850444773
 31
0.0
  0
LINE
  5
346
330
1F
100
AcDbEntity
  8
0-0
  6
JWW_DASHED1
 62
   120
370
     5
100
AcDbLine
 10
197.3276098998576
 20
180.9881850443774
 30
0.0
 11
770.3276098998583
 21
180.9881850443774
 31
0.0
  0
LINE
  5
347
330
1F
100
AcDbEntity
  8
0-0
  6
JWW_DASHED1
 62
   120
370
     5
100
AcDbLine
 10
197.3276098998576
 20
193.9881850454771
 30
0.0
 11
770.3276098998583
 21
193.9881850454771
 31
0.0
  0
LINE
  5
348
330
1F
100
AcDbEntity
  8
0-0
  6
JWW_DASHED1
 62
   120
370
     5
100
AcDbLine
 10
197.3276098998576
 20
194.9881850453772
 30
0.0
 11
770.3276098998583
 21
194.9881850453772
 31
0.0
  0
LINE
  5
349
330
1F
100
AcDbEntity
  8
0-0
  6
JWW_DASHED1
 62
   120
370
     5
100
AcDbLine
 10
197.3276098998576
 20
207.9881850464766
 30
0.0
 11
770.3276098998583
 21
207.9881850464766
 31
0.0
  0
LINE
  5
34A
330
1F
100
AcDbEntity
  8
0-0
  6
JWW_DASHED1
 62
   120
370
     5
100
AcDbLine
 10
197.3276098998576
 20
208.988185046377
 30
0.0
 11
770.3276098998583
 21
208.988185046377
 31
0.0
  0
LINE
  5
34B
330
1F
100
AcDbEntity
  8
0-0
  6
JWW_DASHED1
 62
   120
370
     5
100
AcDbLine
 10
197.3276098998576
 20
221.9881850474766
 30
0.0
 11
770.3276098998583
 21
221.9881850474766
 31
0.0
  0
LINE
  5
34C
330
1F
100
AcDbEntity
  8
0-0
  6
JWW_DASHED1
 62
   120
370
     5
100
AcDbLine
 10
197.3276098998576
 20
222.9881850473768
 30
0.0
 11
770.3276098998583
 21
222.9881850473768
 31
0.0
  0
LINE
  5
34D
330
1F
100
AcDbEntity
  8
0-0
  6
JWW_DASHED1
 62
   120
370
     5
100
AcDbLine
 10
197.3276098998576
 20
235.9881850484764
 30
0.0
 11
770.3276098998583
 21
235.9881850484764
 31
0.0
  0
LINE
  5
34E
330
1F
100
AcDbEntity
  8
0-0
  6
JWW_DASHED1
 62
   120
370
     5
100
AcDbLine
 10
197.3276098998576
 20
236.9881850483766
 30
0.0
 11
770.3276098998583
 21
236.9881850483766
 31
0.0
  0
LINE
  5
34F
330
1F
100
AcDbEntity
  8
0-0
  6
JWW_DASHED1
 62
   120
370
     5
100
AcDbLine
 10
197.3276098998576
 20
249.9881850494762
 30
0.0
 11
770.3276098998583
 21
249.9881850494762
 31
0.0
  0
LINE
  5
350
330
1F
100
AcDbEntity
  8
0-0
  6
JWW_DASHED1
 62
   120
370
     5
100
AcDbLine
 10
197.3276098998576
 20
250.9881850493764
 30
0.0
 11
770.3276098998583
 21
250.9881850493764
 31
0.0
  0
LINE
  5
351
330
1F
100
AcDbEntity
  8
0-0
  6
JWW_DASHED1
 62
   120
370
     5
100
AcDbLine
 10
197.3276098998576
 20
263.988185050476
 30
0.0
 11
770.3276098998583
 21
263.988185050476
 31
0.0
  0
LINE
  5
352
330
1F
100
AcDbEntity
  8
0-0
  6
JWW_DASHED1
 62
   120
370
     5
100
AcDbLine
 10
197.3276098998576
 20
264.9881850503762
 30
0.0
 11
770.3276098998583
 21
264.9881850503762
 31
0.0
  0
LINE
  5
353
330
1F
100
AcDbEntity
  8
0-0
  6
JWW_DASHED1
 62
   120
370
     5
100
AcDbLine
 10
197.3276098998576
 20
277.9881850514758
 30
0.0
 11
770.3276098998583
 21
277.9881850514758
 31
0.0
  0
LINE
  5
354
330
1F
100
AcDbEntity
  8
0-0
  6
JWW_DASHED1
 62
   120
370
     5
100
AcDbLine
 10
197.3276098998576
 20
278.988185051376
 30
0.0
 11
770.3276098998583
 21
278.988185051376
 31
0.0
  0
LINE
  5
355
330
1F
100
AcDbEntity
  8
0-0
  6
JWW_DASHED1
 62
   120
370
     5
100
AcDbLine
 10
197.3276098998576
 20
291.9881850524756
 30
0.0
 11
770.3276098998583
 21
291.9881850524756
 31
0.0
  0
LINE
  5
356
330
1F
100
AcDbEntity
  8
0-0
  6
JWW_DASHED1
 62
   120
370
     5
100
AcDbLine
 10
197.3276098998576
 20
292.9881850523758
 30
0.0
 11
770.3276098998583
 21
292.9881850523758
 31
0.0
  0
LINE
  5
357
330
1F
100
AcDbEntity
  8
0-0
  6
JWW_DASHED1
 62
   120
370
     5
100
AcDbLine
 10
197.3276098998576
 20
305.9881850534754
 30
0.0
 11
770.3276098998583
 21
305.9881850534754
 31
0.0
  0
LINE
  5
358
330
1F
100
AcDbEntity
  8
0-0
  6
JWW_DASHED1
 62
   120
370
     5
100
AcDbLine
 10
197.3276098998576
 20
306.9881850533756
 30
0.0
 11
770.3276098998583
 21
306.9881850533756
 31
0.0
  0
LINE
  5
359
330
1F
100
AcDbEntity
  8
0-0
  6
JWW_DASHED1
 62
   120
370
     5
100
AcDbLine
 10
197.3276098998576
 20
319.9881850544751
 30
0.0
 11
770.3276098998583
 21
319.9881850544751
 31
0.0
  0
LINE
  5
35A
330
1F
100
AcDbEntity
  8
0-0
  6
JWW_DASHED1
 62
   120
370
     5
100
AcDbLine
 10
197.3276098998576
 20
320.9881850543752
 30
0.0
 11
770.3276098998583
 21
320.9881850543752
 31
0.0
  0
LINE
  5
35B
330
1F
100
AcDbEntity
  8
0-0
  6
JWW_DASHED1
 62
   120
370
     5
100
AcDbLine
 10
197.3276098998576
 20
333.988185055475
 30
0.0
 11
770.3276098998583
 21
333.988185055475
 31
0.0
  0
LINE
  5
35C
330
1F
100
AcDbEntity
  8
0-0
  6
JWW_DASHED1
 62
   120
370
     5
100
AcDbLine
 10
197.3276098998576
 20
334.9881850553751
 30
0.0
 11
770.3276098998583
 21
334.9881850553751
 31
0.0
  0
LINE
  5
35D
330
1F
100
AcDbEntity
  8
0-0
  6
JWW_DASHED1
 62
   120
370
     5
100
AcDbLine
 10
197.3276098998576
 20
347.9881850564748
 30
0.0
 11
770.3276098998583
 21
347.9881850564748
 31
0.0
  0
LINE
  5
35E
330
1F
100
AcDbEntity
  8
0-0
  6
JWW_DASHED1
 62
   120
370
     5
100
AcDbLine
 10
197.3276098998576
 20
348.988185056375
 30
0.0
 11
770.3276098998583
 21
348.988185056375
 31
0.0
  0
LINE
  5
35F
330
1F
100
AcDbEntity
  8
0-0
  6
JWW_DASHED1
 62
   120
370
     5
100
AcDbLine
 10
197.3276098998576
 20
361.9881850574745
 30
0.0
 11
770.3276098998583
 21
361.9881850574745
 31
0.0
  0
LINE
  5
360
330
1F
100
AcDbEntity
  8
0-0
  6
JWW_DASHED1
 62
   120
370
     5
100
AcDbLine
 10
197.3276098998576
 20
362.9881850573747
 30
0.0
 11
770.3276098998583
 21
362.9881850573747
 31
0.0
  0
LINE
  5
361
330
1F
100
AcDbEntity
  8
0-0
  6
JWW_DASHED1
 62
   120
370
     5
100
AcDbLine
 10
197.3276098998576
 20
375.9881850584743
 30
0.0
 11
770.3276098998583
 21
375.9881850584743
 31
0.0
  0
LINE
  5
362
330
1F
100
AcDbEntity
  8
0-0
  6
JWW_DASHED1
 62
   120
370
     5
100
AcDbLine
 10
197.3276098998576
 20
376.9881850583745
 30
0.0
 11
770.3276098998583
 21
376.9881850583745
 31
0.0
  0
LINE
  5
363
330
1F
100
AcDbEntity
  8
0-0
  6
JWW_DASHED1
 62
   120
370
     5
100
AcDbLine
 10
197.3276098998576
 20
389.9881850594741
 30
0.0
 11
770.3276098998583
 21
389.9881850594741
 31
0.0
  0
LINE
  5
364
330
1F
100
AcDbEntity
  8
0-0
  6
JWW_DASHED1
 62
   120
370
     5
100
AcDbLine
 10
197.3276098998576
 20
390.9881850593743
 30
0.0
 11
770.3276098998583
 21
390.9881850593743
 31
0.0
  0
LINE
  5
365
330
1F
100
AcDbEntity
  8
0-0
  6
JWW_DASHED1
 62
   120
370
     5
100
AcDbLine
 10
197.3276098998576
 20
403.9881850604739
 30
0.0
 11
770.3276098998583
 21
403.9881850604739
 31
0.0
  0
LINE
  5
366
330
1F
100
AcDbEntity
  8
0-0
  6
JWW_DASHED1
 62
   120
370
     5
100
AcDbLine
 10
197.3276098998576
 20
404.9881850603741
 30
0.0
 11
770.3276098998583
 21
404.9881850603741
 31
0.0
  0
LINE
  5
367
330
1F
100
AcDbEntity
  8
0-0
  6
JWW_DASHED1
 62
   120
370
     5
100
AcDbLine
 10
197.3276098998576
 20
417.9881850614737
 30
0.0
 11
770.3276098998583
 21
417.9881850614737
 31
0.0
  0
LINE
  5
368
330
1F
100
AcDbEntity
  8
0-0
  6
JWW_DASHED1
 62
   120
370
     5
100
AcDbLine
 10
197.3276098998576
 20
418.9881850613739
 30
0.0
 11
770.3276098998583
 21
418.9881850613739
 31
0.0
  0
LINE
  5
369
330
1F
100
AcDbEntity
  8
0-0
  6
JWW_DASHED1
 62
   120
370
     5
100
AcDbLine
 10
197.3276098998576
 20
431.9881850624733
 30
0.0
 11
770.3276098998583
 21
431.9881850624733
 31
0.0
  0
LINE
  5
36A
330
1F
100
AcDbEntity
  8
0-0
  6
JWW_DASHED1
 62
   120
370
     5
100
AcDbLine
 10
197.3276098998576
 20
432.9881850623736
 30
0.0
 11
770.3276098998583
 21
432.9881850623736
 31
0.0
  0
LINE
  5
36B
330
1F
100
AcDbEntity
  8
0-0
  6
JWW_DASHED1
 62
   120
370
     5
100
AcDbLine
 10
197.3276098998576
 20
445.9881850634733
 30
0.0
 11
770.3276098998583
 21
445.9881850634733
 31
0.0
  0
LINE
  5
36C
330
1F
100
AcDbEntity
  8
0-0
  6
JWW_DASHED1
 62
   120
370
     5
100
AcDbLine
 10
197.3276098998576
 20
446.9881850633735
 30
0.0
 11
770.3276098998583
 21
446.9881850633735
 31
0.0
  0
LINE
  5
36D
330
1F
100
AcDbEntity
  8
0-0
  6
JWW_DASHED1
 62
   120
370
     5
100
AcDbLine
 10
197.3276098998576
 20
459.9881850644731
 30
0.0
 11
770.3276098998583
 21
459.9881850644731
 31
0.0
  0
LINE
  5
36E
330
1F
100
AcDbEntity
  8
0-0
  6
JWW_DASHED1
 62
   120
370
     5
100
AcDbLine
 10
197.3276098998576
 20
460.9881850643733
 30
0.0
 11
770.3276098998583
 21
460.9881850643733
 31
0.0
  0
LINE
  5
36F
330
1F
100
AcDbEntity
  8
0-0
  6
JWW_DASHED1
 62
   120
370
     5
100
AcDbLine
 10
197.3276098998576
 20
473.9881850654729
 30
0.0
 11
770.3276098998583
 21
473.9881850654729
 31
0.0
  0
LINE
  5
370
330
1F
100
AcDbEntity
  8
0-0
  6
JWW_DASHED1
 62
   120
370
     5
100
AcDbLine
 10
197.3276098998576
 20
474.988185065373
 30
0.0
 11
770.3276098998583
 21
474.988185065373
 31
0.0
  0
LINE
  5
371
330
1F
100
AcDbEntity
  8
0-0
  6
JWW_DASHED1
 62
   120
370
     5
100
AcDbLine
 10
197.3276098998576
 20
487.9881850664726
 30
0.0
 11
770.3276098998583
 21
487.9881850664726
 31
0.0
  0
LINE
  5
372
330
1F
100
AcDbEntity
  8
0-0
  6
JWW_DASHED1
 62
   120
370
     5
100
AcDbLine
 10
197.3276098998576
 20
488.9881850663728
 30
0.0
 11
770.3276098998583
 21
488.9881850663728
 31
0.0
  0
LINE
  5
373
330
1F
100
AcDbEntity
  8
0-0
  6
JWW_DASHED1
 62
   120
370
     5
100
AcDbLine
 10
197.3276098998576
 20
501.9881850674724
 30
0.0
 11
770.3276098998583
 21
501.9881850674724
 31
0.0
  0
LINE
  5
374
330
1F
100
AcDbEntity
  8
0-0
  6
JWW_DASHED1
 62
   120
370
     5
100
AcDbLine
 10
197.3276098998576
 20
502.9881850673726
 30
0.0
 11
770.3276098998583
 21
502.9881850673726
 31
0.0
  0
LINE
  5
375
330
1F
100
AcDbEntity
  8
0-0
  6
JWW_DASHED1
 62
   120
370
     5
100
AcDbLine
 10
197.3276098998576
 20
515.9881850684723
 30
0.0
 11
770.3276098998583
 21
515.9881850684723
 31
0.0
  0
LINE
  5
376
330
1F
100
AcDbEntity
  8
0-0
  6
JWW_DASHED1
 62
   120
370
     5
100
AcDbLine
 10
197.3276098998576
 20
516.9881850683724
 30
0.0
 11
770.3276098998583
 21
516.9881850683724
 31
0.0
  0
LINE
  5
377
330
1F
100
AcDbEntity
  8
0-0
  6
JWW_DASHED1
 62
   120
370
     5
100
AcDbLine
 10
197.3276098998576
 20
529.988185069472
 30
0.0
 11
770.3276098998583
 21
529.988185069472
 31
0.0
  0
LINE
  5
378
330
1F
100
AcDbEntity
  8
0-0
  6
JWW_DASHED1
 62
   120
370
     5
100
AcDbLine
 10
197.3276098998576
 20
530.9881850693722
 30
0.0
 11
770.3276098998583
 21
530.9881850693722
 31
0.0
  0
LINE
  5
379
330
1F
100
AcDbEntity
  8
0-0
  6
JWW_DASHED1
 62
   120
370
     5
100
AcDbLine
 10
197.3276098998576
 20
543.9881850704718
 30
0.0
 11
770.3276098998583
 21
543.9881850704718
 31
0.0
  0
LINE
  5
37A
330
1F
100
AcDbEntity
  8
0-0
  6
JWW_DASHED1
 62
   120
370
     5
100
AcDbLine
 10
197.3276098998576
 20
544.9881850703717
 30
0.0
 11
770.3276098998583
 21
544.9881850703717
 31
0.0
  0
LINE
  5
37B
330
1F
100
AcDbEntity
  8
0-0
  6
JWW_DASHED1
 62
   120
370
     5
100
AcDbLine
 10
197.3276098998576
 20
557.9881850714717
 30
0.0
 11
770.3276098998583
 21
557.9881850714717
 31
0.0
  0
LINE
  5
37C
330
1F
100
AcDbEntity
  8
0-0
  6
JWW_DASHED1
 62
   120
370
     5
100
AcDbLine
 10
197.3276098998576
 20
558.9881850713718
 30
0.0
 11
770.3276098998583
 21
558.9881850713718
 31
0.0
  0
LINE
  5
37D
330
1F
100
AcDbEntity
  8
0-0
  6
JWW_DASHED1
 62
   120
370
     5
100
AcDbLine
 10
197.3276098998576
 20
571.9881850724714
 30
0.0
 11
770.3276098998583
 21
571.9881850724714
 31
0.0
  0
LINE
  5
37E
330
1F
100
AcDbEntity
  8
0-0
  6
JWW_DASHED1
 62
   120
370
     5
100
AcDbLine
 10
197.3276098998576
 20
572.9881850723716
 30
0.0
 11
770.3276098998583
 21
572.9881850723716
 31
0.0
  0
LINE
  5
37F
330
1F
100
AcDbEntity
  8
0-0
  6
JWW_DASHED1
 62
   120
370
     5
100
AcDbLine
 10
197.3276098998576
 20
585.9881850734712
 30
0.0
 11
770.3276098998583
 21
585.9881850734712
 31
0.0
  0
LINE
  5
380
330
1F
100
AcDbEntity
  8
0-0
  6
JWW_DASHED1
 62
   120
370
     5
100
AcDbLine
 10
197.3276098998576
 20
586.9881850733714
 30
0.0
 11
770.3276098998583
 21
586.9881850733714
 31
0.0
  0
LINE
  5
381
330
1F
100
AcDbEntity
  8
0-0
  6
JWW_DASHED1
 62
   120
370
     5
100
AcDbLine
 10
197.3276098998576
 20
599.988185074471
 30
0.0
 11
770.3276098998583
 21
599.988185074471
 31
0.0
  0
LINE
  5
382
330
1F
100
AcDbEntity
  8
0-0
  6
JWW_DASHED1
 62
   120
370
     5
100
AcDbLine
 10
197.3276098998576
 20
600.9881850743711
 30
0.0
 11
770.3276098998583
 21
600.9881850743711
 31
0.0
  0
LINE
  5
383
330
1F
100
AcDbEntity
  8
0-0
  6
JWW_DASHED1
 62
   120
370
     5
100
AcDbLine
 10
197.3276098998576
 20
613.9881850754707
 30
0.0
 11
770.3276098998583
 21
613.9881850754707
 31
0.0
  0
LINE
  5
384
330
1F
100
AcDbEntity
  8
0-0
  6
JWW_DASHED1
 62
   120
370
     5
100
AcDbLine
 10
197.3276098998576
 20
614.9881850753709
 30
0.0
 11
770.3276098998583
 21
614.9881850753709
 31
0.0
  0
LINE
  5
385
330
1F
100
AcDbEntity
  8
0-0
  6
JWW_DASHED1
 62
   120
370
     5
100
AcDbLine
 10
197.3276098998576
 20
627.9881850764706
 30
0.0
 11
770.3276098998583
 21
627.9881850764706
 31
0.0
  0
LINE
  5
386
330
1F
100
AcDbEntity
  8
0-0
  6
JWW_DASHED1
 62
   120
370
     5
100
AcDbLine
 10
197.3276098998576
 20
628.9881850763708
 30
0.0
 11
770.3276098998583
 21
628.9881850763708
 31
0.0
  0
LINE
  5
387
330
1F
100
AcDbEntity
  8
0-0
  6
JWW_DASHED1
 62
   120
370
     5
100
AcDbLine
 10
197.3276098998576
 20
641.9881850774703
 30
0.0
 11
770.3276098998583
 21
641.9881850774703
 31
0.0
  0
LINE
  5
388
330
1F
100
AcDbEntity
  8
0-0
  6
JWW_DASHED1
 62
   120
370
     5
100
AcDbLine
 10
197.3276098998576
 20
642.9881850773705
 30
0.0
 11
770.3276098998583
 21
642.9881850773705
 31
0.0
  0
LINE
  5
389
330
1F
100
AcDbEntity
  8
0-0
  6
JWW_DASHED1
 62
   120
370
     5
100
AcDbLine
 10
197.3276098998576
 20
655.9881850784699
 30
0.0
 11
770.3276098998583
 21
655.9881850784699
 31
0.0
  0
LINE
  5
38A
330
1F
100
AcDbEntity
  8
0-0
  6
JWW_DASHED1
 62
   120
370
     5
100
AcDbLine
 10
197.3276098998576
 20
656.9881850783703
 30
0.0
 11
770.3276098998583
 21
656.9881850783703
 31
0.0
  0
LINE
  5
38B
330
1F
100
AcDbEntity
  8
0-0
  6
JWW_DASHED1
 62
   120
370
     5
100
AcDbLine
 10
197.3276098998576
 20
669.98818507947
 30
0.0
 11
770.3276098998583
 21
669.98818507947
 31
0.0
  0
LINE
  5
38C
330
1F
100
AcDbEntity
  8
0-0
  6
JWW_DASHED1
 62
   120
370
     5
100
AcDbLine
 10
197.3276098998576
 20
670.9881850793702
 30
0.0
 11
770.3276098998583
 21
670.9881850793702
 31
0.0
  0
LINE
  5
38D
330
1F
100
AcDbEntity
  8
0-0
  6
JWW_DASHED1
 62
   120
370
     5
100
AcDbLine
 10
197.3276098998576
 20
683.9881850804697
 30
0.0
 11
770.3276098998583
 21
683.9881850804697
 31
0.0
  0
LINE
  5
38E
330
1F
100
AcDbEntity
  8
0-0
  6
JWW_DASHED1
 62
   120
370
     5
100
AcDbLine
 10
197.3276098998576
 20
684.9881850803699
 30
0.0
 11
770.3276098998583
 21
684.9881850803699
 31
0.0
  0
LINE
  5
38F
330
1F
100
AcDbEntity
  8
0-0
  6
JWW_DASHED1
 62
   120
370
     5
100
AcDbLine
 10
197.3276098998576
 20
697.9881850814695
 30
0.0
 11
770.3276098998583
 21
697.9881850814695
 31
0.0
  0
LINE
  5
390
330
1F
100
AcDbEntity
  8
0-0
  6
JWW_DASHED1
 62
   120
370
     5
100
AcDbLine
 10
197.3276098998576
 20
698.9881850813697
 30
0.0
 11
770.3276098998583
 21
698.9881850813697
 31
0.0
  0
LINE
  5
391
330
1F
100
AcDbEntity
  8
0-0
  6
JWW_DASHED1
 62
   120
370
     5
100
AcDbLine
 10
197.3276098998576
 20
711.9881850824693
 30
0.0
 11
770.3276098998583
 21
711.9881850824693
 31
0.0
  0
LINE
  5
392
330
1F
100
AcDbEntity
  8
0-0
  6
JWW_DASHED1
 62
   120
370
     5
100
AcDbLine
 10
197.3276098998576
 20
712.9881850823695
 30
0.0
 11
770.3276098998583
 21
712.9881850823695
 31
0.0
  0
LINE
  5
393
330
1F
100
AcDbEntity
  8
0-0
  6
JWW_DASHED1
 62
   120
370
     5
100
AcDbLine
 10
197.3276098998576
 20
725.988185083469
 30
0.0
 11
770.3276098998583
 21
725.988185083469
 31
0.0
  0
LINE
  5
394
330
1F
100
AcDbEntity
  8
0-0
  6
JWW_DASHED1
 62
   120
370
     5
100
AcDbLine
 10
197.3276098998576
 20
726.9881850833692
 30
0.0
 11
770.3276098998583
 21
726.9881850833692
 31
0.0
  0
LINE
  5
395
330
1F
100
AcDbEntity
  8
0-0
  6
JWW_DASHED1
 62
   120
370
     5
100
AcDbLine
 10
197.3276098998576
 20
739.9881850844689
 30
0.0
 11
770.3276098998583
 21
739.9881850844689
 31
0.0
  0
LINE
  5
396
330
1F
100
AcDbEntity
  8
0-0
  6
JWW_DASHED1
 62
   120
370
     5
100
AcDbLine
 10
197.3276098998576
 20
740.9881850843691
 30
0.0
 11
770.3276098998583
 21
740.9881850843691
 31
0.0
  0
LINE
  5
397
330
1F
100
AcDbEntity
  8
0-0
  6
JWW_DASHED1
 62
   120
370
     5
100
AcDbLine
 10
197.3276098998576
 20
753.9881850854684
 30
0.0
 11
770.3276098998583
 21
753.9881850854684
 31
0.0
  0
LINE
  5
398
330
1F
100
AcDbEntity
  8
0-0
  6
JWW_DASHED1
 62
   120
370
     5
100
AcDbLine
 10
197.3276098998576
 20
754.9881850853686
 30
0.0
 11
770.3276098998583
 21
754.9881850853686
 31
0.0
  0
LINE
  5
399
330
1F
100
AcDbEntity
  8
0-0
  6
JWW_DASHED1
 62
   120
370
     5
100
AcDbLine
 10
197.3276098998576
 20
767.9881850864684
 30
0.0
 11
770.3276098998583
 21
767.9881850864684
 31
0.0
  0
LINE
  5
39A
330
1F
100
AcDbEntity
  8
0-0
  6
JWW_DASHED1
 62
   120
370
     5
100
AcDbLine
 10
197.3276098998576
 20
768.9881850863684
 30
0.0
 11
770.3276098998583
 21
768.9881850863684
 31
0.0
  0
LINE
  5
39B
330
1F
100
AcDbEntity
  8
0-0
  6
JWW_DASHED1
 62
   120
370
     5
100
AcDbLine
 10
197.3276098998576
 20
781.9881850874683
 30
0.0
 11
770.3276098998583
 21
781.9881850874683
 31
0.0
  0
LINE
  5
39C
330
1F
100
AcDbEntity
  8
0-0
  6
JWW_DASHED1
 62
   120
370
     5
100
AcDbLine
 10
197.3276098998576
 20
782.9881850873685
 30
0.0
 11
770.3276098998583
 21
782.9881850873685
 31
0.0
  0
LINE
  5
39D
330
1F
100
AcDbEntity
  8
0-0
  6
JWW_DASHED1
 62
   120
370
     5
100
AcDbLine
 10
197.3276098998576
 20
795.9881850884681
 30
0.0
 11
770.3276098998583
 21
795.9881850884681
 31
0.0
  0
LINE
  5
39E
330
1F
100
AcDbEntity
  8
0-0
  6
JWW_DASHED1
 62
   120
370
     5
100
AcDbLine
 10
197.3276098998576
 20
796.9881850883683
 30
0.0
 11
770.3276098998583
 21
796.9881850883683
 31
0.0
  0
LINE
  5
39F
330
1F
100
AcDbEntity
  8
0-0
  6
JWW_DASHED1
 62
   120
370
     5
100
AcDbLine
 10
197.3276098998576
 20
809.9881850894678
 30
0.0
 11
770.3276098998583
 21
809.9881850894678
 31
0.0
  0
LINE
  5
3A0
330
1F
100
AcDbEntity
  8
0-0
  6
JWW_DASHED1
 62
   120
370
     5
100
AcDbLine
 10
197.3276098998576
 20
810.988185089368
 30
0.0
 11
770.3276098998583
 21
810.988185089368
 31
0.0
  0
LINE
  5
3A1
330
1F
100
AcDbEntity
  8
0-0
  6
JWW_DASHED1
 62
   120
370
     5
100
AcDbLine
 10
197.3276098998576
 20
823.9881850904676
 30
0.0
 11
770.3276098998583
 21
823.9881850904676
 31
0.0
  0
LINE
  5
3A2
330
1F
100
AcDbEntity
  8
0-0
  6
JWW_DASHED1
 62
   120
370
     5
100
AcDbLine
 10
197.3276098998576
 20
824.9881850903678
 30
0.0
 11
770.3276098998583
 21
824.9881850903678
 31
0.0
  0
LINE
  5
3A3
330
1F
100
AcDbEntity
  8
0-0
  6
JWW_DASHED1
 62
   120
370
     5
100
AcDbLine
 10
197.3276098998576
 20
837.9881850914674
 30
0.0
 11
770.3276098998583
 21
837.9881850914674
 31
0.0
  0
LINE
  5
3A4
330
1F
100
AcDbEntity
  8
0-0
  6
JWW_DASHED1
 62
   120
370
     5
100
AcDbLine
 10
197.3276098998576
 20
838.9881850913675
 30
0.0
 11
770.3276098998583
 21
838.9881850913675
 31
0.0
  0
LINE
  5
3A5
330
1F
100
AcDbEntity
  8
0-0
  6
JWW_DASHED1
 62
   120
370
     5
100
AcDbLine
 10
197.3276098998576
 20
851.9881850924672
 30
0.0
 11
770.3276098998583
 21
851.9881850924672
 31
0.0
  0
LINE
  5
3A6
330
1F
100
AcDbEntity
  8
0-0
  6
JWW_DASHED1
 62
   120
370
     5
100
AcDbLine
 10
197.3276098998576
 20
852.9881850923674
 30
0.0
 11
770.3276098998583
 21
852.9881850923674
 31
0.0
  0
LINE
  5
3A7
330
1F
100
AcDbEntity
  8
0-0
  6
JWW_DASHED1
 62
   120
370
     5
100
AcDbLine
 10
197.3276098998576
 20
865.9881850934668
 30
0.0
 11
770.3276098998583
 21
865.9881850934668
 31
0.0
  0
LINE
  5
3A8
330
1F
100
AcDbEntity
  8
0-0
  6
JWW_DASHED1
 62
   120
370
     5
100
AcDbLine
 10
197.3276098998576
 20
866.988185093367
 30
0.0
 11
770.3276098998583
 21
866.988185093367
 31
0.0
  0
LINE
  5
3A9
330
1F
100
AcDbEntity
  8
0-0
  6
JWW_DASHED1
 62
   120
370
     5
100
AcDbLine
 10
197.3276098998576
 20
879.9881850944665
 30
0.0
 11
770.3276098998583
 21
879.9881850944665
 31
0.0
  0
LINE
  5
3AA
330
1F
100
AcDbEntity
  8
0-0
  6
JWW_DASHED1
 62
   120
370
     5
100
AcDbLine
 10
197.3276098998576
 20
880.9881850943669
 30
0.0
 11
770.3276098998583
 21
880.9881850943669
 31
0.0
  0
LINE
  5
3AB
330
1F
100
AcDbEntity
  8
0-0
  6
JWW_DASHED1
 62
   120
370
     5
100
AcDbLine
 10
197.3276098998576
 20
893.9881850954666
 30
0.0
 11
770.3276098998583
 21
893.9881850954666
 31
0.0
  0
LINE
  5
3AC
330
1F
100
AcDbEntity
  8
0-0
  6
JWW_DASHED1
 62
   120
370
     5
100
AcDbLine
 10
197.3276098998576
 20
894.9881850953668
 30
0.0
 11
770.3276098998583
 21
894.9881850953668
 31
0.0
  0
LINE
  5
3AD
330
1F
100
AcDbEntity
  8
0-0
  6
JWW_DASHED1
 62
   120
370
     5
100
AcDbLine
 10
197.3276098998576
 20
907.9881850964664
 30
0.0
 11
770.3276098998583
 21
907.9881850964664
 31
0.0
  0
LINE
  5
3AE
330
1F
100
AcDbEntity
  8
0-0
  6
JWW_DASHED1
 62
   120
370
     5
100
AcDbLine
 10
197.3276098998576
 20
908.9881850963666
 30
0.0
 11
770.3276098998583
 21
908.9881850963666
 31
0.0
  0
LINE
  5
3AF
330
1F
100
AcDbEntity
  8
0-0
  6
JWW_DASHED1
 62
   120
370
     5
100
AcDbLine
 10
197.3276098998576
 20
921.9881850974662
 30
0.0
 11
770.3276098998583
 21
921.9881850974662
 31
0.0
  0
LINE
  5
3B0
330
1F
100
AcDbEntity
  8
0-0
  6
JWW_DASHED1
 62
   120
370
     5
100
AcDbLine
 10
197.3276098998576
 20
922.9881850973663
 30
0.0
 11
770.3276098998583
 21
922.9881850973663
 31
0.0
  0
LINE
  5
3B1
330
1F
100
AcDbEntity
  8
0-0
  6
JWW_DASHED1
 62
   120
370
     5
100
AcDbLine
 10
197.3276098998576
 20
935.9881850984659
 30
0.0
 11
770.3276098998583
 21
935.9881850984659
 31
0.0
  0
LINE
  5
3B2
330
1F
100
AcDbEntity
  8
0-0
  6
JWW_DASHED1
 62
   120
370
     5
100
AcDbLine
 10
197.3276098998576
 20
936.9881850983661
 30
0.0
 11
770.3276098998583
 21
936.9881850983661
 31
0.0
  0
LINE
  5
3B3
330
1F
100
AcDbEntity
  8
0-0
  6
JWW_DASHED1
 62
   120
370
     5
100
AcDbLine
 10
203.3276283578894
 20
-170.0116666666738
 30
0.0
 11
203.3276283578894
 21
1004.988333333326
 31
0.0
  0
LINE
  5
3B4
330
1F
100
AcDbEntity
  8
0-0
  6
JWW_DASHED1
 62
   120
370
     5
100
AcDbLine
 10
736.3276283957902
 20
-170.0116666666738
 30
0.0
 11
736.3276283957902
 21
1004.988333333326
 31
0.0
  0
LINE
  5
3B5
330
1F
100
AcDbEntity
  8
0-0
  6
JWW_DASHED1
 62
   120
370
     5
100
AcDbLine
 10
735.32762839589
 20
-170.0116666666738
 30
0.0
 11
735.32762839589
 21
1004.988333333326
 31
0.0
  0
LINE
  5
3B6
330
1F
100
AcDbEntity
  8
0-0
  6
JWW_DASHED1
 62
   120
370
     5
100
AcDbLine
 10
722.3276283947899
 20
-170.0116666666738
 30
0.0
 11
722.3276283947899
 21
1004.988333333326
 31
0.0
  0
LINE
  5
3B7
330
1F
100
AcDbEntity
  8
0-0
  6
JWW_DASHED1
 62
   120
370
     5
100
AcDbLine
 10
721.3276283948898
 20
-170.0116666666738
 30
0.0
 11
721.3276283948898
 21
1004.988333333326
 31
0.0
  0
LINE
  5
3B8
330
1F
100
AcDbEntity
  8
0-0
  6
JWW_DASHED1
 62
   120
370
     5
100
AcDbLine
 10
708.3276283937893
 20
-170.0116666666738
 30
0.0
 11
708.3276283937893
 21
1004.988333333326
 31
0.0
  0
LINE
  5
3B9
330
1F
100
AcDbEntity
  8
0-0
  6
JWW_DASHED1
 62
   120
370
     5
100
AcDbLine
 10
707.3276283938895
 20
-170.0116666666738
 30
0.0
 11
707.3276283938895
 21
1004.988333333326
 31
0.0
  0
LINE
  5
3BA
330
1F
100
AcDbEntity
  8
0-0
  6
JWW_DASHED1
 62
   120
370
     5
100
AcDbLine
 10
694.3276283927895
 20
-170.0116666666738
 30
0.0
 11
694.3276283927895
 21
1004.988333333326
 31
0.0
  0
LINE
  5
3BB
330
1F
100
AcDbEntity
  8
0-0
  6
JWW_DASHED1
 62
   120
370
     5
100
AcDbLine
 10
693.3276283928889
 20
-170.0116666666738
 30
0.0
 11
693.3276283928889
 21
1004.988333333326
 31
0.0
  0
LINE
  5
3BC
330
1F
100
AcDbEntity
  8
0-0
  6
JWW_DASHED1
 62
   120
370
     5
100
AcDbLine
 10
680.3276283917893
 20
-170.0116666666738
 30
0.0
 11
680.3276283917893
 21
1004.988333333326
 31
0.0
  0
LINE
  5
3BD
330
1F
100
AcDbEntity
  8
0-0
  6
JWW_DASHED1
 62
   120
370
     5
100
AcDbLine
 10
679.3276283918891
 20
-170.0116666666738
 30
0.0
 11
679.3276283918899
 21
1004.988333333326
 31
0.0
  0
LINE
  5
3BE
330
1F
100
AcDbEntity
  8
0-0
  6
JWW_DASHED1
 62
   120
370
     5
100
AcDbLine
 10
666.3276283907891
 20
-170.0116666666738
 30
0.0
 11
666.3276283907899
 21
1004.988333333326
 31
0.0
  0
LINE
  5
3BF
330
1F
100
AcDbEntity
  8
0-0
  6
JWW_DASHED1
 62
   120
370
     5
100
AcDbLine
 10
665.3276283908897
 20
-170.0116666666738
 30
0.0
 11
665.3276283908897
 21
1004.988333333326
 31
0.0
  0
LINE
  5
3C0
330
1F
100
AcDbEntity
  8
0-0
  6
JWW_DASHED1
 62
   120
370
     5
100
AcDbLine
 10
652.3276283897897
 20
-170.0116666666738
 30
0.0
 11
652.3276283897897
 21
1004.988333333326
 31
0.0
  0
LINE
  5
3C1
330
1F
100
AcDbEntity
  8
0-0
  6
JWW_DASHED1
 62
   120
370
     5
100
AcDbLine
 10
651.3276283898895
 20
-170.0116666666738
 30
0.0
 11
651.3276283898895
 21
1004.988333333326
 31
0.0
  0
LINE
  5
3C2
330
1F
100
AcDbEntity
  8
0-0
  6
JWW_DASHED1
 62
   120
370
     5
100
AcDbLine
 10
638.3276283887903
 20
-170.0116666666738
 30
0.0
 11
638.3276283887903
 21
1004.988333333326
 31
0.0
  0
LINE
  5
3C3
330
1F
100
AcDbEntity
  8
0-0
  6
JWW_DASHED1
 62
   120
370
     5
100
AcDbLine
 10
637.3276283888902
 20
-170.0116666666738
 30
0.0
 11
637.3276283888902
 21
1004.988333333326
 31
0.0
  0
LINE
  5
3C4
330
1F
100
AcDbEntity
  8
0-0
  6
JWW_DASHED1
 62
   120
370
     5
100
AcDbLine
 10
624.3276283877901
 20
-170.0116666666738
 30
0.0
 11
624.3276283877901
 21
1004.988333333326
 31
0.0
  0
LINE
  5
3C5
330
1F
100
AcDbEntity
  8
0-0
  6
JWW_DASHED1
 62
   120
370
     5
100
AcDbLine
 10
623.32762838789
 20
-170.0116666666738
 30
0.0
 11
623.32762838789
 21
1004.988333333326
 31
0.0
  0
LINE
  5
3C6
330
1F
100
AcDbEntity
  8
0-0
  6
JWW_DASHED1
 62
   120
370
     5
100
AcDbLine
 10
610.3276283867899
 20
-170.0116666666738
 30
0.0
 11
610.3276283867899
 21
1004.988333333326
 31
0.0
  0
LINE
  5
3C7
330
1F
100
AcDbEntity
  8
0-0
  6
JWW_DASHED1
 62
   120
370
     5
100
AcDbLine
 10
609.3276283868897
 20
-170.0116666666738
 30
0.0
 11
609.3276283868897
 21
1004.988333333326
 31
0.0
  0
LINE
  5
3C8
330
1F
100
AcDbEntity
  8
0-0
  6
JWW_DASHED1
 62
   120
370
     5
100
AcDbLine
 10
596.3276283857897
 20
-170.0116666666738
 30
0.0
 11
596.3276283857897
 21
1004.988333333326
 31
0.0
  0
LINE
  5
3C9
330
1F
100
AcDbEntity
  8
0-0
  6
JWW_DASHED1
 62
   120
370
     5
100
AcDbLine
 10
595.3276283858895
 20
-170.0116666666738
 30
0.0
 11
595.3276283858895
 21
1004.988333333326
 31
0.0
  0
LINE
  5
3CA
330
1F
100
AcDbEntity
  8
0-0
  6
JWW_DASHED1
 62
   120
370
     5
100
AcDbLine
 10
582.3276283847895
 20
-170.0116666666738
 30
0.0
 11
582.3276283847895
 21
1004.988333333326
 31
0.0
  0
LINE
  5
3CB
330
1F
100
AcDbEntity
  8
0-0
  6
JWW_DASHED1
 62
   120
370
     5
100
AcDbLine
 10
581.3276283848893
 20
-170.0116666666738
 30
0.0
 11
581.3276283848893
 21
1004.988333333326
 31
0.0
  0
LINE
  5
3CC
330
1F
100
AcDbEntity
  8
0-0
  6
JWW_DASHED1
 62
   120
370
     5
100
AcDbLine
 10
568.3276283837902
 20
-170.0116666666738
 30
0.0
 11
568.3276283837902
 21
1004.988333333326
 31
0.0
  0
LINE
  5
3CD
330
1F
100
AcDbEntity
  8
0-0
  6
JWW_DASHED1
 62
   120
370
     5
100
AcDbLine
 10
567.32762838389
 20
-170.0116666666738
 30
0.0
 11
567.32762838389
 21
1004.988333333326
 31
0.0
  0
LINE
  5
3CE
330
1F
100
AcDbEntity
  8
0-0
  6
JWW_DASHED1
 62
   120
370
     5
100
AcDbLine
 10
554.32762838279
 20
-170.0116666666738
 30
0.0
 11
554.32762838279
 21
1004.988333333326
 31
0.0
  0
LINE
  5
3CF
330
1F
100
AcDbEntity
  8
0-0
  6
JWW_DASHED1
 62
   120
370
     5
100
AcDbLine
 10
553.3276283828898
 20
-170.0116666666738
 30
0.0
 11
553.3276283828898
 21
1004.988333333326
 31
0.0
  0
LINE
  5
3D0
330
1F
100
AcDbEntity
  8
0-0
  6
JWW_DASHED1
 62
   120
370
     5
100
AcDbLine
 10
540.3276283817897
 20
-170.0116666666738
 30
0.0
 11
540.3276283817897
 21
1004.988333333326
 31
0.0
  0
LINE
  5
3D1
330
1F
100
AcDbEntity
  8
0-0
  6
JWW_DASHED1
 62
   120
370
     5
100
AcDbLine
 10
539.3276283818896
 20
-170.0116666666738
 30
0.0
 11
539.3276283818896
 21
1004.988333333326
 31
0.0
  0
LINE
  5
3D2
330
1F
100
AcDbEntity
  8
0-0
  6
JWW_DASHED1
 62
   120
370
     5
100
AcDbLine
 10
526.3276283807899
 20
-170.0116666666738
 30
0.0
 11
526.3276283807899
 21
1004.988333333326
 31
0.0
  0
LINE
  5
3D3
330
1F
100
AcDbEntity
  8
0-0
  6
JWW_DASHED1
 62
   120
370
     5
100
AcDbLine
 10
525.3276283808901
 20
-170.0116666666738
 30
0.0
 11
525.3276283808901
 21
1004.988333333326
 31
0.0
  0
LINE
  5
3D4
330
1F
100
AcDbEntity
  8
0-0
  6
JWW_DASHED1
 62
   120
370
     5
100
AcDbLine
 10
512.3276283797901
 20
-170.0116666666738
 30
0.0
 11
512.3276283797901
 21
1004.988333333326
 31
0.0
  0
LINE
  5
3D5
330
1F
100
AcDbEntity
  8
0-0
  6
JWW_DASHED1
 62
   120
370
     5
100
AcDbLine
 10
511.3276283798895
 20
-170.0116666666738
 30
0.0
 11
511.3276283798895
 21
1004.988333333326
 31
0.0
  0
LINE
  5
3D6
330
1F
100
AcDbEntity
  8
0-0
  6
JWW_DASHED1
 62
   120
370
     5
100
AcDbLine
 10
498.3276283787899
 20
-170.0116666666738
 30
0.0
 11
498.3276283787899
 21
1004.988333333326
 31
0.0
  0
LINE
  5
3D7
330
1F
100
AcDbEntity
  8
0-0
  6
JWW_DASHED1
 62
   120
370
     5
100
AcDbLine
 10
497.3276283788897
 20
-170.0116666666738
 30
0.0
 11
497.3276283788897
 21
1004.988333333326
 31
0.0
  0
LINE
  5
3D8
330
1F
100
AcDbEntity
  8
0-0
  6
JWW_DASHED1
 62
   120
370
     5
100
AcDbLine
 10
484.3276283777897
 20
-170.0116666666738
 30
0.0
 11
484.3276283777897
 21
1004.988333333326
 31
0.0
  0
LINE
  5
3D9
330
1F
100
AcDbEntity
  8
0-0
  6
JWW_DASHED1
 62
   120
370
     5
100
AcDbLine
 10
483.3276283778895
 20
-170.0116666666738
 30
0.0
 11
483.3276283778895
 21
1004.988333333326
 31
0.0
  0
LINE
  5
3DA
330
1F
100
AcDbEntity
  8
0-0
  6
JWW_DASHED1
 62
   120
370
     5
100
AcDbLine
 10
470.3276283767894
 20
-170.0116666666738
 30
0.0
 11
470.3276283767894
 21
1004.988333333326
 31
0.0
  0
LINE
  5
3DB
330
1F
100
AcDbEntity
  8
0-0
  6
JWW_DASHED1
 62
   120
370
     5
100
AcDbLine
 10
469.3276283768893
 20
-170.0116666666738
 30
0.0
 11
469.3276283768893
 21
1004.988333333326
 31
0.0
  0
LINE
  5
3DC
330
1F
100
AcDbEntity
  8
0-0
  6
JWW_DASHED1
 62
   120
370
     5
100
AcDbLine
 10
456.3276283757901
 20
-170.0116666666738
 30
0.0
 11
456.3276283757901
 21
1004.988333333326
 31
0.0
  0
LINE
  5
3DD
330
1F
100
AcDbEntity
  8
0-0
  6
JWW_DASHED1
 62
   120
370
     5
100
AcDbLine
 10
455.3276283758899
 20
-170.0116666666738
 30
0.0
 11
455.3276283758899
 21
1004.988333333326
 31
0.0
  0
LINE
  5
3DE
330
1F
100
AcDbEntity
  8
0-0
  6
JWW_DASHED1
 62
   120
370
     5
100
AcDbLine
 10
442.3276283747899
 20
-170.0116666666738
 30
0.0
 11
442.3276283747899
 21
1004.988333333326
 31
0.0
  0
LINE
  5
3DF
330
1F
100
AcDbEntity
  8
0-0
  6
JWW_DASHED1
 62
   120
370
     5
100
AcDbLine
 10
441.3276283748897
 20
-170.0116666666738
 30
0.0
 11
441.3276283748897
 21
1004.988333333326
 31
0.0
  0
LINE
  5
3E0
330
1F
100
AcDbEntity
  8
0-0
  6
JWW_DASHED1
 62
   120
370
     5
100
AcDbLine
 10
428.3276283737897
 20
-170.0116666666738
 30
0.0
 11
428.3276283737897
 21
1004.988333333326
 31
0.0
  0
LINE
  5
3E1
330
1F
100
AcDbEntity
  8
0-0
  6
JWW_DASHED1
 62
   120
370
     5
100
AcDbLine
 10
427.3276283738895
 20
-170.0116666666738
 30
0.0
 11
427.3276283738895
 21
1004.988333333326
 31
0.0
  0
LINE
  5
3E2
330
1F
100
AcDbEntity
  8
0-0
  6
JWW_DASHED1
 62
   120
370
     5
100
AcDbLine
 10
414.3276283727903
 20
-170.0116666666738
 30
0.0
 11
414.3276283727903
 21
1004.988333333326
 31
0.0
  0
LINE
  5
3E3
330
1F
100
AcDbEntity
  8
0-0
  6
JWW_DASHED1
 62
   120
370
     5
100
AcDbLine
 10
413.3276283728901
 20
-170.0116666666738
 30
0.0
 11
413.3276283728901
 21
1004.988333333326
 31
0.0
  0
LINE
  5
3E4
330
1F
100
AcDbEntity
  8
0-0
  6
JWW_DASHED1
 62
   120
370
     5
100
AcDbLine
 10
400.3276283717901
 20
-170.0116666666738
 30
0.0
 11
400.3276283717901
 21
1004.988333333326
 31
0.0
  0
LINE
  5
3E5
330
1F
100
AcDbEntity
  8
0-0
  6
JWW_DASHED1
 62
   120
370
     5
100
AcDbLine
 10
399.3276283718899
 20
-170.0116666666738
 30
0.0
 11
399.3276283718899
 21
1004.988333333326
 31
0.0
  0
LINE
  5
3E6
330
1F
100
AcDbEntity
  8
0-0
  6
JWW_DASHED1
 62
   120
370
     5
100
AcDbLine
 10
386.3276283707899
 20
-170.0116666666738
 30
0.0
 11
386.3276283707899
 21
1004.988333333326
 31
0.0
  0
LINE
  5
3E7
330
1F
100
AcDbEntity
  8
0-0
  6
JWW_DASHED1
 62
   120
370
     5
100
AcDbLine
 10
385.3276283708897
 20
-170.0116666666738
 30
0.0
 11
385.3276283708897
 21
1004.988333333326
 31
0.0
  0
LINE
  5
3E8
330
1F
100
AcDbEntity
  8
0-0
  6
JWW_DASHED1
 62
   120
370
     5
100
AcDbLine
 10
372.3276283697896
 20
-170.0116666666738
 30
0.0
 11
372.3276283697896
 21
1004.988333333326
 31
0.0
  0
LINE
  5
3E9
330
1F
100
AcDbEntity
  8
0-0
  6
JWW_DASHED1
 62
   120
370
     5
100
AcDbLine
 10
371.3276283698892
 20
-170.0116666666738
 30
0.0
 11
371.3276283698892
 21
1004.988333333326
 31
0.0
  0
LINE
  5
3EA
330
1F
100
AcDbEntity
  8
0-0
  6
JWW_DASHED1
 62
   120
370
     5
100
AcDbLine
 10
358.3276283687892
 20
-170.0116666666738
 30
0.0
 11
358.3276283687892
 21
1004.988333333326
 31
0.0
  0
LINE
  5
3EB
330
1F
100
AcDbEntity
  8
0-0
  6
JWW_DASHED1
 62
   120
370
     5
100
AcDbLine
 10
357.3276283688892
 20
-170.0116666666738
 30
0.0
 11
357.3276283688892
 21
1004.988333333326
 31
0.0
  0
LINE
  5
3EC
330
1F
100
AcDbEntity
  8
0-0
  6
JWW_DASHED1
 62
   120
370
     5
100
AcDbLine
 10
344.3276283677901
 20
-170.0116666666738
 30
0.0
 11
344.3276283677901
 21
1004.988333333326
 31
0.0
  0
LINE
  5
3ED
330
1F
100
AcDbEntity
  8
0-0
  6
JWW_DASHED1
 62
   120
370
     5
100
AcDbLine
 10
343.3276283678899
 20
-170.0116666666738
 30
0.0
 11
343.3276283678899
 21
1004.988333333326
 31
0.0
  0
LINE
  5
3EE
330
1F
100
AcDbEntity
  8
0-0
  6
JWW_DASHED1
 62
   120
370
     5
100
AcDbLine
 10
330.3276283667898
 20
-170.0116666666738
 30
0.0
 11
330.3276283667898
 21
1004.988333333326
 31
0.0
  0
LINE
  5
3EF
330
1F
100
AcDbEntity
  8
0-0
  6
JWW_DASHED1
 62
   120
370
     5
100
AcDbLine
 10
329.3276283668897
 20
-170.0116666666738
 30
0.0
 11
329.3276283668897
 21
1004.988333333326
 31
0.0
  0
LINE
  5
3F0
330
1F
100
AcDbEntity
  8
0-0
  6
JWW_DASHED1
 62
   120
370
     5
100
AcDbLine
 10
316.3276283657896
 20
-170.0116666666738
 30
0.0
 11
316.3276283657896
 21
1004.988333333326
 31
0.0
  0
LINE
  5
3F1
330
1F
100
AcDbEntity
  8
0-0
  6
JWW_DASHED1
 62
   120
370
     5
100
AcDbLine
 10
315.3276283658894
 20
-170.0116666666738
 30
0.0
 11
315.3276283658894
 21
1004.988333333326
 31
0.0
  0
LINE
  5
3F2
330
1F
100
AcDbEntity
  8
0-0
  6
JWW_DASHED1
 62
   120
370
     5
100
AcDbLine
 10
302.3276283647903
 20
-170.0116666666738
 30
0.0
 11
302.3276283647903
 21
1004.988333333326
 31
0.0
  0
LINE
  5
3F3
330
1F
100
AcDbEntity
  8
0-0
  6
JWW_DASHED1
 62
   120
370
     5
100
AcDbLine
 10
301.3276283648901
 20
-170.0116666666738
 30
0.0
 11
301.3276283648901
 21
1004.988333333326
 31
0.0
  0
LINE
  5
3F4
330
1F
100
AcDbEntity
  8
0-0
  6
JWW_DASHED1
 62
   120
370
     5
100
AcDbLine
 10
288.32762836379
 20
-170.0116666666738
 30
0.0
 11
288.32762836379
 21
1004.988333333326
 31
0.0
  0
LINE
  5
3F5
330
1F
100
AcDbEntity
  8
0-0
  6
JWW_DASHED1
 62
   120
370
     5
100
AcDbLine
 10
287.3276283638899
 20
-170.0116666666738
 30
0.0
 11
287.3276283638899
 21
1004.988333333326
 31
0.0
  0
LINE
  5
3F6
330
1F
100
AcDbEntity
  8
0-0
  6
JWW_DASHED1
 62
   120
370
     5
100
AcDbLine
 10
274.3276283627898
 20
-170.0116666666738
 30
0.0
 11
274.3276283627898
 21
1004.988333333326
 31
0.0
  0
LINE
  5
3F7
330
1F
100
AcDbEntity
  8
0-0
  6
JWW_DASHED1
 62
   120
370
     5
100
AcDbLine
 10
273.3276283628896
 20
-170.0116666666738
 30
0.0
 11
273.3276283628896
 21
1004.988333333326
 31
0.0
  0
LINE
  5
3F8
330
1F
100
AcDbEntity
  8
0-0
  6
JWW_DASHED1
 62
   120
370
     5
100
AcDbLine
 10
260.3276283617896
 20
-170.0116666666738
 30
0.0
 11
260.3276283617896
 21
1004.988333333326
 31
0.0
  0
LINE
  5
3F9
330
1F
100
AcDbEntity
  8
0-0
  6
JWW_DASHED1
 62
   120
370
     5
100
AcDbLine
 10
259.3276283618894
 20
-170.0116666666738
 30
0.0
 11
259.3276283618894
 21
1004.988333333326
 31
0.0
  0
LINE
  5
3FA
330
1F
100
AcDbEntity
  8
0-0
  6
JWW_DASHED1
 62
   120
370
     5
100
AcDbLine
 10
246.3276283607894
 20
-170.0116666666738
 30
0.0
 11
246.3276283607894
 21
1004.988333333326
 31
0.0
  0
LINE
  5
3FB
330
1F
100
AcDbEntity
  8
0-0
  6
JWW_DASHED1
 62
   120
370
     5
100
AcDbLine
 10
245.3276283608892
 20
-170.0116666666738
 30
0.0
 11
245.3276283608892
 21
1004.988333333326
 31
0.0
  0
LINE
  5
3FC
330
1F
100
AcDbEntity
  8
0-0
  6
JWW_DASHED1
 62
   120
370
     5
100
AcDbLine
 10
232.32762835979
 20
-170.0116666666738
 30
0.0
 11
232.32762835979
 21
1004.988333333326
 31
0.0
  0
LINE
  5
3FD
330
1F
100
AcDbEntity
  8
0-0
  6
JWW_DASHED1
 62
   120
370
     5
100
AcDbLine
 10
231.3276283598898
 20
-170.0116666666738
 30
0.0
 11
231.3276283598898
 21
1004.988333333326
 31
0.0
  0
LINE
  5
3FE
330
1F
100
AcDbEntity
  8
0-0
  6
JWW_DASHED1
 62
   120
370
     5
100
AcDbLine
 10
218.3276283587898
 20
-170.0116666666738
 30
0.0
 11
218.3276283587898
 21
1004.988333333326
 31
0.0
  0
LINE
  5
3FF
330
1F
100
AcDbEntity
  8
0-0
  6
JWW_DASHED1
 62
   120
370
     5
100
AcDbLine
 10
217.3276283588896
 20
-170.0116666666738
 30
0.0
 11
217.3276283588896
 21
1004.988333333326
 31
0.0
  0
LINE
  5
400
330
1F
100
AcDbEntity
  8
0-0
  6
JWW_DASHED1
 62
   120
370
     5
100
AcDbLine
 10
204.3276283577896
 20
-170.0116666666738
 30
0.0
 11
204.3276283577896
 21
1004.988333333326
 31
0.0
  0
LINE
  5
401
330
1F
100
AcDbEntity
  8
0-0
  6
JWW_DASHED1
 62
   120
370
     5
100
AcDbLine
 10
764.3276283977898
 20
-170.0116666666738
 30
0.0
 11
764.3276283977898
 21
1004.988333333326
 31
0.0
  0
LINE
  5
402
330
1F
100
AcDbEntity
  8
0-0
  6
JWW_DASHED1
 62
   120
370
     5
100
AcDbLine
 10
749.3276283968894
 20
-170.0116666666738
 30
0.0
 11
749.3276283968894
 21
1004.988333333326
 31
0.0
  0
LINE
  5
403
330
1F
100
AcDbEntity
  8
0-0
  6
JWW_DASHED1
 62
   120
370
     5
100
AcDbLine
 10
763.3276283978896
 20
-170.0116666666738
 30
0.0
 11
763.3276283978896
 21
1004.988333333326
 31
0.0
  0
LINE
  5
404
330
1F
100
AcDbEntity
  8
0-0
  6
JWW_DASHED1
 62
   120
370
     5
100
AcDbLine
 10
750.3276283967896
 20
-170.0116666666738
 30
0.0
 11
750.3276283967896
 21
1004.988333333326
 31
0.0
  0
LINE
  5
405
330
1F
100
AcDbEntity
  8
0-0
  6
JWW_DASHED1
 62
   120
370
     5
100
AcDbLine
 10
197.3276098998585
 20
992.988185102365
 30
0.0
 11
770.3276098998574
 21
992.988185102365
 31
0.0
  0
LINE
  5
406
330
1F
100
AcDbEntity
  8
0-0
  6
JWW_DASHED1
 62
   120
370
     5
100
AcDbLine
 10
197.3276098998585
 20
949.9881850994657
 30
0.0
 11
770.3276098998574
 21
949.9881850994657
 31
0.0
  0
LINE
  5
407
330
1F
100
AcDbEntity
  8
0-0
  6
JWW_DASHED1
 62
   120
370
     5
100
AcDbLine
 10
197.3276098998585
 20
950.9881850993659
 30
0.0
 11
770.3276098998574
 21
950.9881850993659
 31
0.0
  0
LINE
  5
408
330
1F
100
AcDbEntity
  8
0-0
  6
JWW_DASHED1
 62
   120
370
     5
100
AcDbLine
 10
197.3276098998585
 20
963.9881851004656
 30
0.0
 11
770.3276098998574
 21
963.9881851004656
 31
0.0
  0
LINE
  5
409
330
1F
100
AcDbEntity
  8
0-0
  6
JWW_DASHED1
 62
   120
370
     5
100
AcDbLine
 10
197.3276098998585
 20
964.9881851003657
 30
0.0
 11
770.3276098998574
 21
964.9881851003657
 31
0.0
  0
LINE
  5
40A
330
1F
100
AcDbEntity
  8
0-0
  6
JWW_DASHED1
 62
   120
370
     5
100
AcDbLine
 10
197.3276098998585
 20
977.9881851014651
 30
0.0
 11
770.3276098998574
 21
977.9881851014651
 31
0.0
  0
LINE
  5
40B
330
1F
100
AcDbEntity
  8
0-0
  6
JWW_DASHED1
 62
   120
370
     5
100
AcDbLine
 10
197.3276098998585
 20
978.9881851013653
 30
0.0
 11
770.3276098998574
 21
978.9881851013653
 31
0.0
  0
LINE
  5
40C
330
1F
100
AcDbEntity
  8
0-0
  6
JWW_DASHED1
 62
   120
370
     5
100
AcDbLine
 10
197.3276098998585
 20
991.9881851024651
 30
0.0
 11
770.3276098998574
 21
991.9881851024651
 31
0.0
  0
LINE
  5
40D
330
1F
100
AcDbEntity
  8
0-0
  6
JWW_DASHED1
 62
   120
370
     5
100
AcDbLine
 10
977.3276098998576
 20
-169.0118149806173
 30
0.0
 11
1550.327609899858
 21
-169.0118149806173
 31
0.0
  0
LINE
  5
40E
330
1F
100
AcDbEntity
  8
0-0
  6
JWW_DASHED1
 62
   120
370
     5
100
AcDbLine
 10
977.3276098998576
 20
-156.0118149795178
 30
0.0
 11
1550.327609899858
 21
-156.0118149795178
 31
0.0
  0
LINE
  5
40F
330
1F
100
AcDbEntity
  8
0-0
  6
JWW_DASHED1
 62
   120
370
     5
100
AcDbLine
 10
977.3276098998576
 20
-155.0118149796176
 30
0.0
 11
1550.327609899858
 21
-155.0118149796176
 31
0.0
  0
LINE
  5
410
330
1F
100
AcDbEntity
  8
0-0
  6
JWW_DASHED1
 62
   120
370
     5
100
AcDbLine
 10
977.3276098998576
 20
-142.0118149785179
 30
0.0
 11
1550.327609899858
 21
-142.0118149785179
 31
0.0
  0
LINE
  5
411
330
1F
100
AcDbEntity
  8
0-0
  6
JWW_DASHED1
 62
   120
370
     5
100
AcDbLine
 10
977.3276098998576
 20
-141.0118149786177
 30
0.0
 11
1550.327609899858
 21
-141.0118149786177
 31
0.0
  0
LINE
  5
412
330
1F
100
AcDbEntity
  8
0-0
  6
JWW_DASHED1
 62
   120
370
     5
100
AcDbLine
 10
977.3276098998576
 20
-128.0118149775181
 30
0.0
 11
1550.327609899858
 21
-128.0118149775181
 31
0.0
  0
LINE
  5
413
330
1F
100
AcDbEntity
  8
0-0
  6
JWW_DASHED1
 62
   120
370
     5
100
AcDbLine
 10
977.3276098998576
 20
-127.0118149776179
 30
0.0
 11
1550.327609899858
 21
-127.0118149776179
 31
0.0
  0
LINE
  5
414
330
1F
100
AcDbEntity
  8
0-0
  6
JWW_DASHED1
 62
   120
370
     5
100
AcDbLine
 10
977.3276098998576
 20
-114.0118149765183
 30
0.0
 11
1550.327609899858
 21
-114.0118149765183
 31
0.0
  0
LINE
  5
415
330
1F
100
AcDbEntity
  8
0-0
  6
JWW_DASHED1
 62
   120
370
     5
100
AcDbLine
 10
977.3276098998576
 20
-113.0118149766182
 30
0.0
 11
1550.327609899858
 21
-113.0118149766182
 31
0.0
  0
LINE
  5
416
330
1F
100
AcDbEntity
  8
0-0
  6
JWW_DASHED1
 62
   120
370
     5
100
AcDbLine
 10
977.3276098998576
 20
-100.0118149755185
 30
0.0
 11
1550.327609899858
 21
-100.0118149755185
 31
0.0
  0
LINE
  5
417
330
1F
100
AcDbEntity
  8
0-0
  6
JWW_DASHED1
 62
   120
370
     5
100
AcDbLine
 10
977.3276098998576
 20
-99.01181497561836
 30
0.0
 11
1550.327609899858
 21
-99.01181497561836
 31
0.0
  0
LINE
  5
418
330
1F
100
AcDbEntity
  8
0-0
  6
JWW_DASHED1
 62
   120
370
     5
100
AcDbLine
 10
977.3276098998576
 20
-86.01181497451876
 30
0.0
 11
1550.327609899858
 21
-86.01181497451876
 31
0.0
  0
LINE
  5
419
330
1F
100
AcDbEntity
  8
0-0
  6
JWW_DASHED1
 62
   120
370
     5
100
AcDbLine
 10
977.3276098998576
 20
-85.01181497461857
 30
0.0
 11
1550.327609899858
 21
-85.01181497461857
 31
0.0
  0
LINE
  5
41A
330
1F
100
AcDbEntity
  8
0-0
  6
JWW_DASHED1
 62
   120
370
     5
100
AcDbLine
 10
977.3276098998576
 20
-72.01181497351897
 30
0.0
 11
1550.327609899858
 21
-72.01181497351897
 31
0.0
  0
LINE
  5
41B
330
1F
100
AcDbEntity
  8
0-0
  6
JWW_DASHED1
 62
   120
370
     5
100
AcDbLine
 10
977.3276098998576
 20
-71.01181497361878
 30
0.0
 11
1550.327609899858
 21
-71.01181497361878
 31
0.0
  0
LINE
  5
41C
330
1F
100
AcDbEntity
  8
0-0
  6
JWW_DASHED1
 62
   120
370
     5
100
AcDbLine
 10
977.3276098998576
 20
-58.01181497251918
 30
0.0
 11
1550.327609899858
 21
-58.01181497251918
 31
0.0
  0
LINE
  5
41D
330
1F
100
AcDbEntity
  8
0-0
  6
JWW_DASHED1
 62
   120
370
     5
100
AcDbLine
 10
977.3276098998576
 20
-57.01181497261899
 30
0.0
 11
1550.327609899858
 21
-57.01181497261899
 31
0.0
  0
LINE
  5
41E
330
1F
100
AcDbEntity
  8
0-0
  6
JWW_DASHED1
 62
   120
370
     5
100
AcDbLine
 10
977.3276098998576
 20
-44.01181497151949
 30
0.0
 11
1550.327609899858
 21
-44.01181497151949
 31
0.0
  0
LINE
  5
41F
330
1F
100
AcDbEntity
  8
0-0
  6
JWW_DASHED1
 62
   120
370
     5
100
AcDbLine
 10
977.3276098998576
 20
-43.01181497161931
 30
0.0
 11
1550.327609899858
 21
-43.01181497161931
 31
0.0
  0
LINE
  5
420
330
1F
100
AcDbEntity
  8
0-0
  6
JWW_DASHED1
 62
   120
370
     5
100
AcDbLine
 10
977.3276098998576
 20
-30.01181497051959
 30
0.0
 11
1550.327609899858
 21
-30.01181497051959
 31
0.0
  0
LINE
  5
421
330
1F
100
AcDbEntity
  8
0-0
  6
JWW_DASHED1
 62
   120
370
     5
100
AcDbLine
 10
977.3276098998576
 20
-29.01181497061941
 30
0.0
 11
1550.327609899858
 21
-29.01181497061941
 31
0.0
  0
LINE
  5
422
330
1F
100
AcDbEntity
  8
0-0
  6
JWW_DASHED1
 62
   120
370
     5
100
AcDbLine
 10
977.3276098998576
 20
-16.0118149695198
 30
0.0
 11
1550.327609899858
 21
-16.0118149695198
 31
0.0
  0
LINE
  5
423
330
1F
100
AcDbEntity
  8
0-0
  6
JWW_DASHED1
 62
   120
370
     5
100
AcDbLine
 10
977.3276098998576
 20
-15.01181496961962
 30
0.0
 11
1550.327609899858
 21
-15.01181496961962
 31
0.0
  0
LINE
  5
424
330
1F
100
AcDbEntity
  8
0-0
  6
JWW_DASHED1
 62
   120
370
     5
100
AcDbLine
 10
977.3276098998576
 20
-2.011814968520014
 30
0.0
 11
1550.327609899858
 21
-2.011814968520014
 31
0.0
  0
LINE
  5
425
330
1F
100
AcDbEntity
  8
0-0
  6
JWW_DASHED1
 62
   120
370
     5
100
AcDbLine
 10
977.3276098998576
 20
-1.011814968619831
 30
0.0
 11
1550.327609899858
 21
-1.011814968619831
 31
0.0
  0
LINE
  5
426
330
1F
100
AcDbEntity
  8
0-0
  6
JWW_DASHED1
 62
   120
370
     5
100
AcDbLine
 10
977.3276098998576
 20
11.98818503247978
 30
0.0
 11
1550.327609899858
 21
11.98818503247978
 31
0.0
  0
LINE
  5
427
330
1F
100
AcDbEntity
  8
0-0
  6
JWW_DASHED1
 62
   120
370
     5
100
AcDbLine
 10
977.3276098998576
 20
12.98818503237996
 30
0.0
 11
1550.327609899858
 21
12.98818503237996
 31
0.0
  0
LINE
  5
428
330
1F
100
AcDbEntity
  8
0-0
  6
JWW_DASHED1
 62
   120
370
     5
100
AcDbLine
 10
977.3276098998576
 20
25.98818503347957
 30
0.0
 11
1550.327609899858
 21
25.98818503347957
 31
0.0
  0
LINE
  5
429
330
1F
100
AcDbEntity
  8
0-0
  6
JWW_DASHED1
 62
   120
370
     5
100
AcDbLine
 10
977.3276098998576
 20
26.98818503337975
 30
0.0
 11
1550.327609899858
 21
26.98818503337975
 31
0.0
  0
LINE
  5
42A
330
1F
100
AcDbEntity
  8
0-0
  6
JWW_DASHED1
 62
   120
370
     5
100
AcDbLine
 10
977.3276098998576
 20
39.98818503447936
 30
0.0
 11
1550.327609899858
 21
39.98818503447936
 31
0.0
  0
LINE
  5
42B
330
1F
100
AcDbEntity
  8
0-0
  6
JWW_DASHED1
 62
   120
370
     5
100
AcDbLine
 10
977.3276098998576
 20
40.98818503437954
 30
0.0
 11
1550.327609899858
 21
40.98818503437954
 31
0.0
  0
LINE
  5
42C
330
1F
100
AcDbEntity
  8
0-0
  6
JWW_DASHED1
 62
   120
370
     5
100
AcDbLine
 10
977.3276098998576
 20
53.98818503547915
 30
0.0
 11
1550.327609899858
 21
53.98818503547915
 31
0.0
  0
LINE
  5
42D
330
1F
100
AcDbEntity
  8
0-0
  6
JWW_DASHED1
 62
   120
370
     5
100
AcDbLine
 10
977.3276098998576
 20
54.98818503537933
 30
0.0
 11
1550.327609899858
 21
54.98818503537933
 31
0.0
  0
LINE
  5
42E
330
1F
100
AcDbEntity
  8
0-0
  6
JWW_DASHED1
 62
   120
370
     5
100
AcDbLine
 10
977.3276098998576
 20
67.98818503647882
 30
0.0
 11
1550.327609899858
 21
67.98818503647882
 31
0.0
  0
LINE
  5
42F
330
1F
100
AcDbEntity
  8
0-0
  6
JWW_DASHED1
 62
   120
370
     5
100
AcDbLine
 10
977.3276098998576
 20
68.98818503637901
 30
0.0
 11
1550.327609899858
 21
68.98818503637901
 31
0.0
  0
LINE
  5
430
330
1F
100
AcDbEntity
  8
0-0
  6
JWW_DASHED1
 62
   120
370
     5
100
AcDbLine
 10
977.3276098998576
 20
81.98818503747873
 30
0.0
 11
1550.327609899858
 21
81.98818503747873
 31
0.0
  0
LINE
  5
431
330
1F
100
AcDbEntity
  8
0-0
  6
JWW_DASHED1
 62
   120
370
     5
100
AcDbLine
 10
977.3276098998576
 20
82.98818503737891
 30
0.0
 11
1550.327609899858
 21
82.98818503737891
 31
0.0
  0
LINE
  5
432
330
1F
100
AcDbEntity
  8
0-0
  6
JWW_DASHED1
 62
   120
370
     5
100
AcDbLine
 10
977.3276098998576
 20
95.98818503847852
 30
0.0
 11
1550.327609899858
 21
95.98818503847852
 31
0.0
  0
LINE
  5
433
330
1F
100
AcDbEntity
  8
0-0
  6
JWW_DASHED1
 62
   120
370
     5
100
AcDbLine
 10
977.3276098998576
 20
96.9881850383787
 30
0.0
 11
1550.327609899858
 21
96.9881850383787
 31
0.0
  0
LINE
  5
434
330
1F
100
AcDbEntity
  8
0-0
  6
JWW_DASHED1
 62
   120
370
     5
100
AcDbLine
 10
977.3276098998576
 20
109.9881850394783
 30
0.0
 11
1550.327609899858
 21
109.9881850394783
 31
0.0
  0
LINE
  5
435
330
1F
100
AcDbEntity
  8
0-0
  6
JWW_DASHED1
 62
   120
370
     5
100
AcDbLine
 10
977.3276098998576
 20
110.9881850393785
 30
0.0
 11
1550.327609899858
 21
110.9881850393785
 31
0.0
  0
LINE
  5
436
330
1F
100
AcDbEntity
  8
0-0
  6
JWW_DASHED1
 62
   120
370
     5
100
AcDbLine
 10
977.3276098998576
 20
123.9881850404781
 30
0.0
 11
1550.327609899858
 21
123.9881850404781
 31
0.0
  0
LINE
  5
437
330
1F
100
AcDbEntity
  8
0-0
  6
JWW_DASHED1
 62
   120
370
     5
100
AcDbLine
 10
977.3276098998576
 20
124.9881850403783
 30
0.0
 11
1550.327609899858
 21
124.9881850403783
 31
0.0
  0
LINE
  5
438
330
1F
100
AcDbEntity
  8
0-0
  6
JWW_DASHED1
 62
   120
370
     5
100
AcDbLine
 10
977.3276098998576
 20
137.9881850414779
 30
0.0
 11
1550.327609899858
 21
137.9881850414779
 31
0.0
  0
LINE
  5
439
330
1F
100
AcDbEntity
  8
0-0
  6
JWW_DASHED1
 62
   120
370
     5
100
AcDbLine
 10
977.3276098998576
 20
138.9881850413781
 30
0.0
 11
1550.327609899858
 21
138.9881850413781
 31
0.0
  0
LINE
  5
43A
330
1F
100
AcDbEntity
  8
0-0
  6
JWW_DASHED1
 62
   120
370
     5
100
AcDbLine
 10
977.3276098998576
 20
151.9881850424777
 30
0.0
 11
1550.327609899858
 21
151.9881850424777
 31
0.0
  0
LINE
  5
43B
330
1F
100
AcDbEntity
  8
0-0
  6
JWW_DASHED1
 62
   120
370
     5
100
AcDbLine
 10
977.3276098998576
 20
152.9881850423779
 30
0.0
 11
1550.327609899858
 21
152.9881850423779
 31
0.0
  0
LINE
  5
43C
330
1F
100
AcDbEntity
  8
0-0
  6
JWW_DASHED1
 62
   120
370
     5
100
AcDbLine
 10
977.3276098998576
 20
165.9881850434775
 30
0.0
 11
1550.327609899858
 21
165.9881850434775
 31
0.0
  0
LINE
  5
43D
330
1F
100
AcDbEntity
  8
0-0
  6
JWW_DASHED1
 62
   120
370
     5
100
AcDbLine
 10
977.3276098998576
 20
166.9881850433777
 30
0.0
 11
1550.327609899858
 21
166.9881850433777
 31
0.0
  0
LINE
  5
43E
330
1F
100
AcDbEntity
  8
0-0
  6
JWW_DASHED1
 62
   120
370
     5
100
AcDbLine
 10
977.3276098998576
 20
179.9881850444773
 30
0.0
 11
1550.327609899858
 21
179.9881850444773
 31
0.0
  0
LINE
  5
43F
330
1F
100
AcDbEntity
  8
0-0
  6
JWW_DASHED1
 62
   120
370
     5
100
AcDbLine
 10
977.3276098998576
 20
180.9881850443774
 30
0.0
 11
1550.327609899858
 21
180.9881850443774
 31
0.0
  0
LINE
  5
440
330
1F
100
AcDbEntity
  8
0-0
  6
JWW_DASHED1
 62
   120
370
     5
100
AcDbLine
 10
977.3276098998576
 20
193.9881850454771
 30
0.0
 11
1550.327609899858
 21
193.9881850454771
 31
0.0
  0
LINE
  5
441
330
1F
100
AcDbEntity
  8
0-0
  6
JWW_DASHED1
 62
   120
370
     5
100
AcDbLine
 10
977.3276098998576
 20
194.9881850453772
 30
0.0
 11
1550.327609899858
 21
194.9881850453772
 31
0.0
  0
LINE
  5
442
330
1F
100
AcDbEntity
  8
0-0
  6
JWW_DASHED1
 62
   120
370
     5
100
AcDbLine
 10
977.3276098998576
 20
207.9881850464766
 30
0.0
 11
1550.327609899858
 21
207.9881850464766
 31
0.0
  0
LINE
  5
443
330
1F
100
AcDbEntity
  8
0-0
  6
JWW_DASHED1
 62
   120
370
     5
100
AcDbLine
 10
977.3276098998576
 20
208.988185046377
 30
0.0
 11
1550.327609899858
 21
208.988185046377
 31
0.0
  0
LINE
  5
444
330
1F
100
AcDbEntity
  8
0-0
  6
JWW_DASHED1
 62
   120
370
     5
100
AcDbLine
 10
977.3276098998576
 20
221.9881850474766
 30
0.0
 11
1550.327609899858
 21
221.9881850474766
 31
0.0
  0
LINE
  5
445
330
1F
100
AcDbEntity
  8
0-0
  6
JWW_DASHED1
 62
   120
370
     5
100
AcDbLine
 10
977.3276098998576
 20
222.9881850473768
 30
0.0
 11
1550.327609899858
 21
222.9881850473768
 31
0.0
  0
LINE
  5
446
330
1F
100
AcDbEntity
  8
0-0
  6
JWW_DASHED1
 62
   120
370
     5
100
AcDbLine
 10
977.3276098998576
 20
235.9881850484764
 30
0.0
 11
1550.327609899858
 21
235.9881850484764
 31
0.0
  0
LINE
  5
447
330
1F
100
AcDbEntity
  8
0-0
  6
JWW_DASHED1
 62
   120
370
     5
100
AcDbLine
 10
977.3276098998576
 20
236.9881850483766
 30
0.0
 11
1550.327609899858
 21
236.9881850483766
 31
0.0
  0
LINE
  5
448
330
1F
100
AcDbEntity
  8
0-0
  6
JWW_DASHED1
 62
   120
370
     5
100
AcDbLine
 10
977.3276098998576
 20
249.9881850494762
 30
0.0
 11
1550.327609899858
 21
249.9881850494762
 31
0.0
  0
LINE
  5
449
330
1F
100
AcDbEntity
  8
0-0
  6
JWW_DASHED1
 62
   120
370
     5
100
AcDbLine
 10
977.3276098998576
 20
250.9881850493764
 30
0.0
 11
1550.327609899858
 21
250.9881850493764
 31
0.0
  0
LINE
  5
44A
330
1F
100
AcDbEntity
  8
0-0
  6
JWW_DASHED1
 62
   120
370
     5
100
AcDbLine
 10
977.3276098998576
 20
263.988185050476
 30
0.0
 11
1550.327609899858
 21
263.988185050476
 31
0.0
  0
LINE
  5
44B
330
1F
100
AcDbEntity
  8
0-0
  6
JWW_DASHED1
 62
   120
370
     5
100
AcDbLine
 10
977.3276098998576
 20
264.9881850503762
 30
0.0
 11
1550.327609899858
 21
264.9881850503762
 31
0.0
  0
LINE
  5
44C
330
1F
100
AcDbEntity
  8
0-0
  6
JWW_DASHED1
 62
   120
370
     5
100
AcDbLine
 10
977.3276098998576
 20
277.9881850514758
 30
0.0
 11
1550.327609899858
 21
277.9881850514758
 31
0.0
  0
LINE
  5
44D
330
1F
100
AcDbEntity
  8
0-0
  6
JWW_DASHED1
 62
   120
370
     5
100
AcDbLine
 10
977.3276098998576
 20
278.988185051376
 30
0.0
 11
1550.327609899858
 21
278.988185051376
 31
0.0
  0
LINE
  5
44E
330
1F
100
AcDbEntity
  8
0-0
  6
JWW_DASHED1
 62
   120
370
     5
100
AcDbLine
 10
977.3276098998576
 20
291.9881850524756
 30
0.0
 11
1550.327609899858
 21
291.9881850524756
 31
0.0
  0
LINE
  5
44F
330
1F
100
AcDbEntity
  8
0-0
  6
JWW_DASHED1
 62
   120
370
     5
100
AcDbLine
 10
977.3276098998576
 20
292.9881850523758
 30
0.0
 11
1550.327609899858
 21
292.9881850523758
 31
0.0
  0
LINE
  5
450
330
1F
100
AcDbEntity
  8
0-0
  6
JWW_DASHED1
 62
   120
370
     5
100
AcDbLine
 10
977.3276098998576
 20
305.9881850534754
 30
0.0
 11
1550.327609899858
 21
305.9881850534754
 31
0.0
  0
LINE
  5
451
330
1F
100
AcDbEntity
  8
0-0
  6
JWW_DASHED1
 62
   120
370
     5
100
AcDbLine
 10
977.3276098998576
 20
306.9881850533756
 30
0.0
 11
1550.327609899858
 21
306.9881850533756
 31
0.0
  0
LINE
  5
452
330
1F
100
AcDbEntity
  8
0-0
  6
JWW_DASHED1
 62
   120
370
     5
100
AcDbLine
 10
977.3276098998576
 20
319.9881850544751
 30
0.0
 11
1550.327609899858
 21
319.9881850544751
 31
0.0
  0
LINE
  5
453
330
1F
100
AcDbEntity
  8
0-0
  6
JWW_DASHED1
 62
   120
370
     5
100
AcDbLine
 10
977.3276098998576
 20
320.9881850543752
 30
0.0
 11
1550.327609899858
 21
320.9881850543752
 31
0.0
  0
LINE
  5
454
330
1F
100
AcDbEntity
  8
0-0
  6
JWW_DASHED1
 62
   120
370
     5
100
AcDbLine
 10
977.3276098998576
 20
333.988185055475
 30
0.0
 11
1550.327609899858
 21
333.988185055475
 31
0.0
  0
LINE
  5
455
330
1F
100
AcDbEntity
  8
0-0
  6
JWW_DASHED1
 62
   120
370
     5
100
AcDbLine
 10
977.3276098998576
 20
334.9881850553751
 30
0.0
 11
1550.327609899858
 21
334.9881850553751
 31
0.0
  0
LINE
  5
456
330
1F
100
AcDbEntity
  8
0-0
  6
JWW_DASHED1
 62
   120
370
     5
100
AcDbLine
 10
977.3276098998576
 20
347.9881850564748
 30
0.0
 11
1550.327609899858
 21
347.9881850564748
 31
0.0
  0
LINE
  5
457
330
1F
100
AcDbEntity
  8
0-0
  6
JWW_DASHED1
 62
   120
370
     5
100
AcDbLine
 10
977.3276098998576
 20
348.988185056375
 30
0.0
 11
1550.327609899858
 21
348.988185056375
 31
0.0
  0
LINE
  5
458
330
1F
100
AcDbEntity
  8
0-0
  6
JWW_DASHED1
 62
   120
370
     5
100
AcDbLine
 10
977.3276098998576
 20
361.9881850574745
 30
0.0
 11
1550.327609899858
 21
361.9881850574745
 31
0.0
  0
LINE
  5
459
330
1F
100
AcDbEntity
  8
0-0
  6
JWW_DASHED1
 62
   120
370
     5
100
AcDbLine
 10
977.3276098998576
 20
362.9881850573747
 30
0.0
 11
1550.327609899858
 21
362.9881850573747
 31
0.0
  0
LINE
  5
45A
330
1F
100
AcDbEntity
  8
0-0
  6
JWW_DASHED1
 62
   120
370
     5
100
AcDbLine
 10
977.3276098998576
 20
375.9881850584743
 30
0.0
 11
1550.327609899858
 21
375.9881850584743
 31
0.0
  0
LINE
  5
45B
330
1F
100
AcDbEntity
  8
0-0
  6
JWW_DASHED1
 62
   120
370
     5
100
AcDbLine
 10
977.3276098998576
 20
376.9881850583745
 30
0.0
 11
1550.327609899858
 21
376.9881850583745
 31
0.0
  0
LINE
  5
45C
330
1F
100
AcDbEntity
  8
0-0
  6
JWW_DASHED1
 62
   120
370
     5
100
AcDbLine
 10
977.3276098998576
 20
389.9881850594741
 30
0.0
 11
1550.327609899858
 21
389.9881850594741
 31
0.0
  0
LINE
  5
45D
330
1F
100
AcDbEntity
  8
0-0
  6
JWW_DASHED1
 62
   120
370
     5
100
AcDbLine
 10
977.3276098998576
 20
390.9881850593743
 30
0.0
 11
1550.327609899858
 21
390.9881850593743
 31
0.0
  0
LINE
  5
45E
330
1F
100
AcDbEntity
  8
0-0
  6
JWW_DASHED1
 62
   120
370
     5
100
AcDbLine
 10
977.3276098998576
 20
403.9881850604739
 30
0.0
 11
1550.327609899858
 21
403.9881850604739
 31
0.0
  0
LINE
  5
45F
330
1F
100
AcDbEntity
  8
0-0
  6
JWW_DASHED1
 62
   120
370
     5
100
AcDbLine
 10
977.3276098998576
 20
404.9881850603741
 30
0.0
 11
1550.327609899858
 21
404.9881850603741
 31
0.0
  0
LINE
  5
460
330
1F
100
AcDbEntity
  8
0-0
  6
JWW_DASHED1
 62
   120
370
     5
100
AcDbLine
 10
977.3276098998576
 20
417.9881850614737
 30
0.0
 11
1550.327609899858
 21
417.9881850614737
 31
0.0
  0
LINE
  5
461
330
1F
100
AcDbEntity
  8
0-0
  6
JWW_DASHED1
 62
   120
370
     5
100
AcDbLine
 10
977.3276098998576
 20
418.9881850613739
 30
0.0
 11
1550.327609899858
 21
418.9881850613739
 31
0.0
  0
LINE
  5
462
330
1F
100
AcDbEntity
  8
0-0
  6
JWW_DASHED1
 62
   120
370
     5
100
AcDbLine
 10
977.3276098998576
 20
431.9881850624733
 30
0.0
 11
1550.327609899858
 21
431.9881850624733
 31
0.0
  0
LINE
  5
463
330
1F
100
AcDbEntity
  8
0-0
  6
JWW_DASHED1
 62
   120
370
     5
100
AcDbLine
 10
977.3276098998576
 20
432.9881850623736
 30
0.0
 11
1550.327609899858
 21
432.9881850623736
 31
0.0
  0
LINE
  5
464
330
1F
100
AcDbEntity
  8
0-0
  6
JWW_DASHED1
 62
   120
370
     5
100
AcDbLine
 10
977.3276098998576
 20
445.9881850634733
 30
0.0
 11
1550.327609899858
 21
445.9881850634733
 31
0.0
  0
LINE
  5
465
330
1F
100
AcDbEntity
  8
0-0
  6
JWW_DASHED1
 62
   120
370
     5
100
AcDbLine
 10
977.3276098998576
 20
446.9881850633735
 30
0.0
 11
1550.327609899858
 21
446.9881850633735
 31
0.0
  0
LINE
  5
466
330
1F
100
AcDbEntity
  8
0-0
  6
JWW_DASHED1
 62
   120
370
     5
100
AcDbLine
 10
977.3276098998576
 20
459.9881850644731
 30
0.0
 11
1550.327609899858
 21
459.9881850644731
 31
0.0
  0
LINE
  5
467
330
1F
100
AcDbEntity
  8
0-0
  6
JWW_DASHED1
 62
   120
370
     5
100
AcDbLine
 10
977.3276098998576
 20
460.9881850643733
 30
0.0
 11
1550.327609899858
 21
460.9881850643733
 31
0.0
  0
LINE
  5
468
330
1F
100
AcDbEntity
  8
0-0
  6
JWW_DASHED1
 62
   120
370
     5
100
AcDbLine
 10
977.3276098998576
 20
473.9881850654729
 30
0.0
 11
1550.327609899858
 21
473.9881850654729
 31
0.0
  0
LINE
  5
469
330
1F
100
AcDbEntity
  8
0-0
  6
JWW_DASHED1
 62
   120
370
     5
100
AcDbLine
 10
977.3276098998576
 20
474.988185065373
 30
0.0
 11
1550.327609899858
 21
474.988185065373
 31
0.0
  0
LINE
  5
46A
330
1F
100
AcDbEntity
  8
0-0
  6
JWW_DASHED1
 62
   120
370
     5
100
AcDbLine
 10
977.3276098998576
 20
487.9881850664726
 30
0.0
 11
1550.327609899858
 21
487.9881850664726
 31
0.0
  0
LINE
  5
46B
330
1F
100
AcDbEntity
  8
0-0
  6
JWW_DASHED1
 62
   120
370
     5
100
AcDbLine
 10
977.3276098998576
 20
488.9881850663728
 30
0.0
 11
1550.327609899858
 21
488.9881850663728
 31
0.0
  0
LINE
  5
46C
330
1F
100
AcDbEntity
  8
0-0
  6
JWW_DASHED1
 62
   120
370
     5
100
AcDbLine
 10
977.3276098998576
 20
501.9881850674724
 30
0.0
 11
1550.327609899858
 21
501.9881850674724
 31
0.0
  0
LINE
  5
46D
330
1F
100
AcDbEntity
  8
0-0
  6
JWW_DASHED1
 62
   120
370
     5
100
AcDbLine
 10
977.3276098998576
 20
502.9881850673726
 30
0.0
 11
1550.327609899858
 21
502.9881850673726
 31
0.0
  0
LINE
  5
46E
330
1F
100
AcDbEntity
  8
0-0
  6
JWW_DASHED1
 62
   120
370
     5
100
AcDbLine
 10
977.3276098998576
 20
515.9881850684723
 30
0.0
 11
1550.327609899858
 21
515.9881850684723
 31
0.0
  0
LINE
  5
46F
330
1F
100
AcDbEntity
  8
0-0
  6
JWW_DASHED1
 62
   120
370
     5
100
AcDbLine
 10
977.3276098998576
 20
516.9881850683724
 30
0.0
 11
1550.327609899858
 21
516.9881850683724
 31
0.0
  0
LINE
  5
470
330
1F
100
AcDbEntity
  8
0-0
  6
JWW_DASHED1
 62
   120
370
     5
100
AcDbLine
 10
977.3276098998576
 20
529.988185069472
 30
0.0
 11
1550.327609899858
 21
529.988185069472
 31
0.0
  0
LINE
  5
471
330
1F
100
AcDbEntity
  8
0-0
  6
JWW_DASHED1
 62
   120
370
     5
100
AcDbLine
 10
977.3276098998576
 20
530.9881850693722
 30
0.0
 11
1550.327609899858
 21
530.9881850693722
 31
0.0
  0
LINE
  5
472
330
1F
100
AcDbEntity
  8
0-0
  6
JWW_DASHED1
 62
   120
370
     5
100
AcDbLine
 10
977.3276098998576
 20
543.9881850704718
 30
0.0
 11
1550.327609899858
 21
543.9881850704718
 31
0.0
  0
LINE
  5
473
330
1F
100
AcDbEntity
  8
0-0
  6
JWW_DASHED1
 62
   120
370
     5
100
AcDbLine
 10
977.3276098998576
 20
544.9881850703717
 30
0.0
 11
1550.327609899858
 21
544.9881850703717
 31
0.0
  0
LINE
  5
474
330
1F
100
AcDbEntity
  8
0-0
  6
JWW_DASHED1
 62
   120
370
     5
100
AcDbLine
 10
977.3276098998576
 20
557.9881850714717
 30
0.0
 11
1550.327609899858
 21
557.9881850714717
 31
0.0
  0
LINE
  5
475
330
1F
100
AcDbEntity
  8
0-0
  6
JWW_DASHED1
 62
   120
370
     5
100
AcDbLine
 10
977.3276098998576
 20
558.9881850713718
 30
0.0
 11
1550.327609899858
 21
558.9881850713718
 31
0.0
  0
LINE
  5
476
330
1F
100
AcDbEntity
  8
0-0
  6
JWW_DASHED1
 62
   120
370
     5
100
AcDbLine
 10
977.3276098998576
 20
571.9881850724714
 30
0.0
 11
1550.327609899858
 21
571.9881850724714
 31
0.0
  0
LINE
  5
477
330
1F
100
AcDbEntity
  8
0-0
  6
JWW_DASHED1
 62
   120
370
     5
100
AcDbLine
 10
977.3276098998576
 20
572.9881850723716
 30
0.0
 11
1550.327609899858
 21
572.9881850723716
 31
0.0
  0
LINE
  5
478
330
1F
100
AcDbEntity
  8
0-0
  6
JWW_DASHED1
 62
   120
370
     5
100
AcDbLine
 10
977.3276098998576
 20
585.9881850734712
 30
0.0
 11
1550.327609899858
 21
585.9881850734712
 31
0.0
  0
LINE
  5
479
330
1F
100
AcDbEntity
  8
0-0
  6
JWW_DASHED1
 62
   120
370
     5
100
AcDbLine
 10
977.3276098998576
 20
586.9881850733714
 30
0.0
 11
1550.327609899858
 21
586.9881850733714
 31
0.0
  0
LINE
  5
47A
330
1F
100
AcDbEntity
  8
0-0
  6
JWW_DASHED1
 62
   120
370
     5
100
AcDbLine
 10
977.3276098998576
 20
599.988185074471
 30
0.0
 11
1550.327609899858
 21
599.988185074471
 31
0.0
  0
LINE
  5
47B
330
1F
100
AcDbEntity
  8
0-0
  6
JWW_DASHED1
 62
   120
370
     5
100
AcDbLine
 10
977.3276098998576
 20
600.9881850743711
 30
0.0
 11
1550.327609899858
 21
600.9881850743711
 31
0.0
  0
LINE
  5
47C
330
1F
100
AcDbEntity
  8
0-0
  6
JWW_DASHED1
 62
   120
370
     5
100
AcDbLine
 10
977.3276098998576
 20
613.9881850754707
 30
0.0
 11
1550.327609899858
 21
613.9881850754707
 31
0.0
  0
LINE
  5
47D
330
1F
100
AcDbEntity
  8
0-0
  6
JWW_DASHED1
 62
   120
370
     5
100
AcDbLine
 10
977.3276098998576
 20
614.9881850753709
 30
0.0
 11
1550.327609899858
 21
614.9881850753709
 31
0.0
  0
LINE
  5
47E
330
1F
100
AcDbEntity
  8
0-0
  6
JWW_DASHED1
 62
   120
370
     5
100
AcDbLine
 10
977.3276098998576
 20
627.9881850764706
 30
0.0
 11
1550.327609899858
 21
627.9881850764706
 31
0.0
  0
LINE
  5
47F
330
1F
100
AcDbEntity
  8
0-0
  6
JWW_DASHED1
 62
   120
370
     5
100
AcDbLine
 10
977.3276098998576
 20
628.9881850763708
 30
0.0
 11
1550.327609899858
 21
628.9881850763708
 31
0.0
  0
LINE
  5
480
330
1F
100
AcDbEntity
  8
0-0
  6
JWW_DASHED1
 62
   120
370
     5
100
AcDbLine
 10
977.3276098998576
 20
641.9881850774703
 30
0.0
 11
1550.327609899858
 21
641.9881850774703
 31
0.0
  0
LINE
  5
481
330
1F
100
AcDbEntity
  8
0-0
  6
JWW_DASHED1
 62
   120
370
     5
100
AcDbLine
 10
977.3276098998576
 20
642.9881850773705
 30
0.0
 11
1550.327609899858
 21
642.9881850773705
 31
0.0
  0
LINE
  5
482
330
1F
100
AcDbEntity
  8
0-0
  6
JWW_DASHED1
 62
   120
370
     5
100
AcDbLine
 10
977.3276098998576
 20
655.9881850784699
 30
0.0
 11
1550.327609899858
 21
655.9881850784699
 31
0.0
  0
LINE
  5
483
330
1F
100
AcDbEntity
  8
0-0
  6
JWW_DASHED1
 62
   120
370
     5
100
AcDbLine
 10
977.3276098998576
 20
656.9881850783703
 30
0.0
 11
1550.327609899858
 21
656.9881850783703
 31
0.0
  0
LINE
  5
484
330
1F
100
AcDbEntity
  8
0-0
  6
JWW_DASHED1
 62
   120
370
     5
100
AcDbLine
 10
977.3276098998576
 20
669.98818507947
 30
0.0
 11
1550.327609899858
 21
669.98818507947
 31
0.0
  0
LINE
  5
485
330
1F
100
AcDbEntity
  8
0-0
  6
JWW_DASHED1
 62
   120
370
     5
100
AcDbLine
 10
977.3276098998576
 20
670.9881850793702
 30
0.0
 11
1550.327609899858
 21
670.9881850793702
 31
0.0
  0
LINE
  5
486
330
1F
100
AcDbEntity
  8
0-0
  6
JWW_DASHED1
 62
   120
370
     5
100
AcDbLine
 10
977.3276098998576
 20
683.9881850804697
 30
0.0
 11
1550.327609899858
 21
683.9881850804697
 31
0.0
  0
LINE
  5
487
330
1F
100
AcDbEntity
  8
0-0
  6
JWW_DASHED1
 62
   120
370
     5
100
AcDbLine
 10
977.3276098998576
 20
684.9881850803699
 30
0.0
 11
1550.327609899858
 21
684.9881850803699
 31
0.0
  0
LINE
  5
488
330
1F
100
AcDbEntity
  8
0-0
  6
JWW_DASHED1
 62
   120
370
     5
100
AcDbLine
 10
977.3276098998576
 20
697.9881850814695
 30
0.0
 11
1550.327609899858
 21
697.9881850814695
 31
0.0
  0
LINE
  5
489
330
1F
100
AcDbEntity
  8
0-0
  6
JWW_DASHED1
 62
   120
370
     5
100
AcDbLine
 10
977.3276098998576
 20
698.9881850813697
 30
0.0
 11
1550.327609899858
 21
698.9881850813697
 31
0.0
  0
LINE
  5
48A
330
1F
100
AcDbEntity
  8
0-0
  6
JWW_DASHED1
 62
   120
370
     5
100
AcDbLine
 10
977.3276098998576
 20
711.9881850824693
 30
0.0
 11
1550.327609899858
 21
711.9881850824693
 31
0.0
  0
LINE
  5
48B
330
1F
100
AcDbEntity
  8
0-0
  6
JWW_DASHED1
 62
   120
370
     5
100
AcDbLine
 10
977.3276098998576
 20
712.9881850823695
 30
0.0
 11
1550.327609899858
 21
712.9881850823695
 31
0.0
  0
LINE
  5
48C
330
1F
100
AcDbEntity
  8
0-0
  6
JWW_DASHED1
 62
   120
370
     5
100
AcDbLine
 10
977.3276098998576
 20
725.988185083469
 30
0.0
 11
1550.327609899858
 21
725.988185083469
 31
0.0
  0
LINE
  5
48D
330
1F
100
AcDbEntity
  8
0-0
  6
JWW_DASHED1
 62
   120
370
     5
100
AcDbLine
 10
977.3276098998576
 20
726.9881850833692
 30
0.0
 11
1550.327609899858
 21
726.9881850833692
 31
0.0
  0
LINE
  5
48E
330
1F
100
AcDbEntity
  8
0-0
  6
JWW_DASHED1
 62
   120
370
     5
100
AcDbLine
 10
977.3276098998576
 20
739.9881850844689
 30
0.0
 11
1550.327609899858
 21
739.9881850844689
 31
0.0
  0
LINE
  5
48F
330
1F
100
AcDbEntity
  8
0-0
  6
JWW_DASHED1
 62
   120
370
     5
100
AcDbLine
 10
977.3276098998576
 20
740.9881850843691
 30
0.0
 11
1550.327609899858
 21
740.9881850843691
 31
0.0
  0
LINE
  5
490
330
1F
100
AcDbEntity
  8
0-0
  6
JWW_DASHED1
 62
   120
370
     5
100
AcDbLine
 10
977.3276098998576
 20
753.9881850854684
 30
0.0
 11
1550.327609899858
 21
753.9881850854684
 31
0.0
  0
LINE
  5
491
330
1F
100
AcDbEntity
  8
0-0
  6
JWW_DASHED1
 62
   120
370
     5
100
AcDbLine
 10
977.3276098998576
 20
754.9881850853686
 30
0.0
 11
1550.327609899858
 21
754.9881850853686
 31
0.0
  0
LINE
  5
492
330
1F
100
AcDbEntity
  8
0-0
  6
JWW_DASHED1
 62
   120
370
     5
100
AcDbLine
 10
977.3276098998576
 20
767.9881850864684
 30
0.0
 11
1550.327609899858
 21
767.9881850864684
 31
0.0
  0
LINE
  5
493
330
1F
100
AcDbEntity
  8
0-0
  6
JWW_DASHED1
 62
   120
370
     5
100
AcDbLine
 10
977.3276098998576
 20
768.9881850863684
 30
0.0
 11
1550.327609899858
 21
768.9881850863684
 31
0.0
  0
LINE
  5
494
330
1F
100
AcDbEntity
  8
0-0
  6
JWW_DASHED1
 62
   120
370
     5
100
AcDbLine
 10
977.3276098998576
 20
781.9881850874683
 30
0.0
 11
1550.327609899858
 21
781.9881850874683
 31
0.0
  0
LINE
  5
495
330
1F
100
AcDbEntity
  8
0-0
  6
JWW_DASHED1
 62
   120
370
     5
100
AcDbLine
 10
977.3276098998576
 20
782.9881850873685
 30
0.0
 11
1550.327609899858
 21
782.9881850873685
 31
0.0
  0
LINE
  5
496
330
1F
100
AcDbEntity
  8
0-0
  6
JWW_DASHED1
 62
   120
370
     5
100
AcDbLine
 10
977.3276098998576
 20
795.9881850884681
 30
0.0
 11
1550.327609899858
 21
795.9881850884681
 31
0.0
  0
LINE
  5
497
330
1F
100
AcDbEntity
  8
0-0
  6
JWW_DASHED1
 62
   120
370
     5
100
AcDbLine
 10
977.3276098998576
 20
796.9881850883683
 30
0.0
 11
1550.327609899858
 21
796.9881850883683
 31
0.0
  0
LINE
  5
498
330
1F
100
AcDbEntity
  8
0-0
  6
JWW_DASHED1
 62
   120
370
     5
100
AcDbLine
 10
977.3276098998576
 20
809.9881850894678
 30
0.0
 11
1550.327609899858
 21
809.9881850894678
 31
0.0
  0
LINE
  5
499
330
1F
100
AcDbEntity
  8
0-0
  6
JWW_DASHED1
 62
   120
370
     5
100
AcDbLine
 10
977.3276098998576
 20
810.988185089368
 30
0.0
 11
1550.327609899858
 21
810.988185089368
 31
0.0
  0
LINE
  5
49A
330
1F
100
AcDbEntity
  8
0-0
  6
JWW_DASHED1
 62
   120
370
     5
100
AcDbLine
 10
977.3276098998576
 20
823.9881850904676
 30
0.0
 11
1550.327609899858
 21
823.9881850904676
 31
0.0
  0
LINE
  5
49B
330
1F
100
AcDbEntity
  8
0-0
  6
JWW_DASHED1
 62
   120
370
     5
100
AcDbLine
 10
977.3276098998576
 20
824.9881850903678
 30
0.0
 11
1550.327609899858
 21
824.9881850903678
 31
0.0
  0
LINE
  5
49C
330
1F
100
AcDbEntity
  8
0-0
  6
JWW_DASHED1
 62
   120
370
     5
100
AcDbLine
 10
977.3276098998576
 20
837.9881850914674
 30
0.0
 11
1550.327609899858
 21
837.9881850914674
 31
0.0
  0
LINE
  5
49D
330
1F
100
AcDbEntity
  8
0-0
  6
JWW_DASHED1
 62
   120
370
     5
100
AcDbLine
 10
977.3276098998576
 20
838.9881850913675
 30
0.0
 11
1550.327609899858
 21
838.9881850913675
 31
0.0
  0
LINE
  5
49E
330
1F
100
AcDbEntity
  8
0-0
  6
JWW_DASHED1
 62
   120
370
     5
100
AcDbLine
 10
977.3276098998576
 20
851.9881850924672
 30
0.0
 11
1550.327609899858
 21
851.9881850924672
 31
0.0
  0
LINE
  5
49F
330
1F
100
AcDbEntity
  8
0-0
  6
JWW_DASHED1
 62
   120
370
     5
100
AcDbLine
 10
977.3276098998576
 20
852.9881850923674
 30
0.0
 11
1550.327609899858
 21
852.9881850923674
 31
0.0
  0
LINE
  5
4A0
330
1F
100
AcDbEntity
  8
0-0
  6
JWW_DASHED1
 62
   120
370
     5
100
AcDbLine
 10
977.3276098998576
 20
865.9881850934668
 30
0.0
 11
1550.327609899858
 21
865.9881850934668
 31
0.0
  0
LINE
  5
4A1
330
1F
100
AcDbEntity
  8
0-0
  6
JWW_DASHED1
 62
   120
370
     5
100
AcDbLine
 10
977.3276098998576
 20
866.988185093367
 30
0.0
 11
1550.327609899858
 21
866.988185093367
 31
0.0
  0
LINE
  5
4A2
330
1F
100
AcDbEntity
  8
0-0
  6
JWW_DASHED1
 62
   120
370
     5
100
AcDbLine
 10
977.3276098998576
 20
879.9881850944665
 30
0.0
 11
1550.327609899858
 21
879.9881850944665
 31
0.0
  0
LINE
  5
4A3
330
1F
100
AcDbEntity
  8
0-0
  6
JWW_DASHED1
 62
   120
370
     5
100
AcDbLine
 10
977.3276098998576
 20
880.9881850943669
 30
0.0
 11
1550.327609899858
 21
880.9881850943669
 31
0.0
  0
LINE
  5
4A4
330
1F
100
AcDbEntity
  8
0-0
  6
JWW_DASHED1
 62
   120
370
     5
100
AcDbLine
 10
977.3276098998576
 20
893.9881850954666
 30
0.0
 11
1550.327609899858
 21
893.9881850954666
 31
0.0
  0
LINE
  5
4A5
330
1F
100
AcDbEntity
  8
0-0
  6
JWW_DASHED1
 62
   120
370
     5
100
AcDbLine
 10
977.3276098998576
 20
894.9881850953668
 30
0.0
 11
1550.327609899858
 21
894.9881850953668
 31
0.0
  0
LINE
  5
4A6
330
1F
100
AcDbEntity
  8
0-0
  6
JWW_DASHED1
 62
   120
370
     5
100
AcDbLine
 10
977.3276098998576
 20
907.9881850964664
 30
0.0
 11
1550.327609899858
 21
907.9881850964664
 31
0.0
  0
LINE
  5
4A7
330
1F
100
AcDbEntity
  8
0-0
  6
JWW_DASHED1
 62
   120
370
     5
100
AcDbLine
 10
977.3276098998576
 20
908.9881850963666
 30
0.0
 11
1550.327609899858
 21
908.9881850963666
 31
0.0
  0
LINE
  5
4A8
330
1F
100
AcDbEntity
  8
0-0
  6
JWW_DASHED1
 62
   120
370
     5
100
AcDbLine
 10
977.3276098998576
 20
921.9881850974662
 30
0.0
 11
1550.327609899858
 21
921.9881850974662
 31
0.0
  0
LINE
  5
4A9
330
1F
100
AcDbEntity
  8
0-0
  6
JWW_DASHED1
 62
   120
370
     5
100
AcDbLine
 10
977.3276098998576
 20
922.9881850973663
 30
0.0
 11
1550.327609899858
 21
922.9881850973663
 31
0.0
  0
LINE
  5
4AA
330
1F
100
AcDbEntity
  8
0-0
  6
JWW_DASHED1
 62
   120
370
     5
100
AcDbLine
 10
977.3276098998576
 20
935.9881850984659
 30
0.0
 11
1550.327609899858
 21
935.9881850984659
 31
0.0
  0
LINE
  5
4AB
330
1F
100
AcDbEntity
  8
0-0
  6
JWW_DASHED1
 62
   120
370
     5
100
AcDbLine
 10
977.3276098998576
 20
936.9881850983661
 30
0.0
 11
1550.327609899858
 21
936.9881850983661
 31
0.0
  0
LINE
  5
4AC
330
1F
100
AcDbEntity
  8
0-0
  6
JWW_DASHED1
 62
   120
370
     5
100
AcDbLine
 10
983.3276283578894
 20
-170.0116666666738
 30
0.0
 11
983.3276283578894
 21
1004.988333333326
 31
0.0
  0
LINE
  5
4AD
330
1F
100
AcDbEntity
  8
0-0
  6
JWW_DASHED1
 62
   120
370
     5
100
AcDbLine
 10
1516.32762839579
 20
-170.0116666666738
 30
0.0
 11
1516.32762839579
 21
1004.988333333326
 31
0.0
  0
LINE
  5
4AE
330
1F
100
AcDbEntity
  8
0-0
  6
JWW_DASHED1
 62
   120
370
     5
100
AcDbLine
 10
1515.32762839589
 20
-170.0116666666738
 30
0.0
 11
1515.32762839589
 21
1004.988333333326
 31
0.0
  0
LINE
  5
4AF
330
1F
100
AcDbEntity
  8
0-0
  6
JWW_DASHED1
 62
   120
370
     5
100
AcDbLine
 10
1502.32762839479
 20
-170.0116666666738
 30
0.0
 11
1502.32762839479
 21
1004.988333333326
 31
0.0
  0
LINE
  5
4B0
330
1F
100
AcDbEntity
  8
0-0
  6
JWW_DASHED1
 62
   120
370
     5
100
AcDbLine
 10
1501.32762839489
 20
-170.0116666666738
 30
0.0
 11
1501.32762839489
 21
1004.988333333326
 31
0.0
  0
LINE
  5
4B1
330
1F
100
AcDbEntity
  8
0-0
  6
JWW_DASHED1
 62
   120
370
     5
100
AcDbLine
 10
1488.327628393789
 20
-170.0116666666738
 30
0.0
 11
1488.327628393789
 21
1004.988333333326
 31
0.0
  0
LINE
  5
4B2
330
1F
100
AcDbEntity
  8
0-0
  6
JWW_DASHED1
 62
   120
370
     5
100
AcDbLine
 10
1487.327628393889
 20
-170.0116666666738
 30
0.0
 11
1487.327628393889
 21
1004.988333333326
 31
0.0
  0
LINE
  5
4B3
330
1F
100
AcDbEntity
  8
0-0
  6
JWW_DASHED1
 62
   120
370
     5
100
AcDbLine
 10
1474.327628392789
 20
-170.0116666666738
 30
0.0
 11
1474.327628392789
 21
1004.988333333326
 31
0.0
  0
LINE
  5
4B4
330
1F
100
AcDbEntity
  8
0-0
  6
JWW_DASHED1
 62
   120
370
     5
100
AcDbLine
 10
1473.327628392889
 20
-170.0116666666738
 30
0.0
 11
1473.327628392889
 21
1004.988333333326
 31
0.0
  0
LINE
  5
4B5
330
1F
100
AcDbEntity
  8
0-0
  6
JWW_DASHED1
 62
   120
370
     5
100
AcDbLine
 10
1460.327628391789
 20
-170.0116666666738
 30
0.0
 11
1460.327628391789
 21
1004.988333333326
 31
0.0
  0
LINE
  5
4B6
330
1F
100
AcDbEntity
  8
0-0
  6
JWW_DASHED1
 62
   120
370
     5
100
AcDbLine
 10
1459.327628391889
 20
-170.0116666666738
 30
0.0
 11
1459.32762839189
 21
1004.988333333326
 31
0.0
  0
LINE
  5
4B7
330
1F
100
AcDbEntity
  8
0-0
  6
JWW_DASHED1
 62
   120
370
     5
100
AcDbLine
 10
1446.327628390789
 20
-170.0116666666738
 30
0.0
 11
1446.32762839079
 21
1004.988333333326
 31
0.0
  0
LINE
  5
4B8
330
1F
100
AcDbEntity
  8
0-0
  6
JWW_DASHED1
 62
   120
370
     5
100
AcDbLine
 10
1445.32762839089
 20
-170.0116666666738
 30
0.0
 11
1445.32762839089
 21
1004.988333333326
 31
0.0
  0
LINE
  5
4B9
330
1F
100
AcDbEntity
  8
0-0
  6
JWW_DASHED1
 62
   120
370
     5
100
AcDbLine
 10
1432.32762838979
 20
-170.0116666666738
 30
0.0
 11
1432.32762838979
 21
1004.988333333326
 31
0.0
  0
LINE
  5
4BA
330
1F
100
AcDbEntity
  8
0-0
  6
JWW_DASHED1
 62
   120
370
     5
100
AcDbLine
 10
1431.327628389889
 20
-170.0116666666738
 30
0.0
 11
1431.327628389889
 21
1004.988333333326
 31
0.0
  0
LINE
  5
4BB
330
1F
100
AcDbEntity
  8
0-0
  6
JWW_DASHED1
 62
   120
370
     5
100
AcDbLine
 10
1418.32762838879
 20
-170.0116666666738
 30
0.0
 11
1418.32762838879
 21
1004.988333333326
 31
0.0
  0
LINE
  5
4BC
330
1F
100
AcDbEntity
  8
0-0
  6
JWW_DASHED1
 62
   120
370
     5
100
AcDbLine
 10
1417.32762838889
 20
-170.0116666666738
 30
0.0
 11
1417.32762838889
 21
1004.988333333326
 31
0.0
  0
LINE
  5
4BD
330
1F
100
AcDbEntity
  8
0-0
  6
JWW_DASHED1
 62
   120
370
     5
100
AcDbLine
 10
1404.32762838779
 20
-170.0116666666738
 30
0.0
 11
1404.32762838779
 21
1004.988333333326
 31
0.0
  0
LINE
  5
4BE
330
1F
100
AcDbEntity
  8
0-0
  6
JWW_DASHED1
 62
   120
370
     5
100
AcDbLine
 10
1403.32762838789
 20
-170.0116666666738
 30
0.0
 11
1403.32762838789
 21
1004.988333333326
 31
0.0
  0
LINE
  5
4BF
330
1F
100
AcDbEntity
  8
0-0
  6
JWW_DASHED1
 62
   120
370
     5
100
AcDbLine
 10
1390.32762838679
 20
-170.0116666666738
 30
0.0
 11
1390.32762838679
 21
1004.988333333326
 31
0.0
  0
LINE
  5
4C0
330
1F
100
AcDbEntity
  8
0-0
  6
JWW_DASHED1
 62
   120
370
     5
100
AcDbLine
 10
1389.32762838689
 20
-170.0116666666738
 30
0.0
 11
1389.32762838689
 21
1004.988333333326
 31
0.0
  0
LINE
  5
4C1
330
1F
100
AcDbEntity
  8
0-0
  6
JWW_DASHED1
 62
   120
370
     5
100
AcDbLine
 10
1376.32762838579
 20
-170.0116666666738
 30
0.0
 11
1376.32762838579
 21
1004.988333333326
 31
0.0
  0
LINE
  5
4C2
330
1F
100
AcDbEntity
  8
0-0
  6
JWW_DASHED1
 62
   120
370
     5
100
AcDbLine
 10
1375.32762838589
 20
-170.0116666666738
 30
0.0
 11
1375.32762838589
 21
1004.988333333326
 31
0.0
  0
LINE
  5
4C3
330
1F
100
AcDbEntity
  8
0-0
  6
JWW_DASHED1
 62
   120
370
     5
100
AcDbLine
 10
1362.327628384789
 20
-170.0116666666738
 30
0.0
 11
1362.327628384789
 21
1004.988333333326
 31
0.0
  0
LINE
  5
4C4
330
1F
100
AcDbEntity
  8
0-0
  6
JWW_DASHED1
 62
   120
370
     5
100
AcDbLine
 10
1361.327628384889
 20
-170.0116666666738
 30
0.0
 11
1361.327628384889
 21
1004.988333333326
 31
0.0
  0
LINE
  5
4C5
330
1F
100
AcDbEntity
  8
0-0
  6
JWW_DASHED1
 62
   120
370
     5
100
AcDbLine
 10
1348.32762838379
 20
-170.0116666666738
 30
0.0
 11
1348.32762838379
 21
1004.988333333326
 31
0.0
  0
LINE
  5
4C6
330
1F
100
AcDbEntity
  8
0-0
  6
JWW_DASHED1
 62
   120
370
     5
100
AcDbLine
 10
1347.32762838389
 20
-170.0116666666738
 30
0.0
 11
1347.32762838389
 21
1004.988333333326
 31
0.0
  0
LINE
  5
4C7
330
1F
100
AcDbEntity
  8
0-0
  6
JWW_DASHED1
 62
   120
370
     5
100
AcDbLine
 10
1334.32762838279
 20
-170.0116666666738
 30
0.0
 11
1334.32762838279
 21
1004.988333333326
 31
0.0
  0
LINE
  5
4C8
330
1F
100
AcDbEntity
  8
0-0
  6
JWW_DASHED1
 62
   120
370
     5
100
AcDbLine
 10
1333.32762838289
 20
-170.0116666666738
 30
0.0
 11
1333.32762838289
 21
1004.988333333326
 31
0.0
  0
LINE
  5
4C9
330
1F
100
AcDbEntity
  8
0-0
  6
JWW_DASHED1
 62
   120
370
     5
100
AcDbLine
 10
1320.32762838179
 20
-170.0116666666738
 30
0.0
 11
1320.32762838179
 21
1004.988333333326
 31
0.0
  0
LINE
  5
4CA
330
1F
100
AcDbEntity
  8
0-0
  6
JWW_DASHED1
 62
   120
370
     5
100
AcDbLine
 10
1319.32762838189
 20
-170.0116666666738
 30
0.0
 11
1319.32762838189
 21
1004.988333333326
 31
0.0
  0
LINE
  5
4CB
330
1F
100
AcDbEntity
  8
0-0
  6
JWW_DASHED1
 62
   120
370
     5
100
AcDbLine
 10
1306.32762838079
 20
-170.0116666666738
 30
0.0
 11
1306.32762838079
 21
1004.988333333326
 31
0.0
  0
LINE
  5
4CC
330
1F
100
AcDbEntity
  8
0-0
  6
JWW_DASHED1
 62
   120
370
     5
100
AcDbLine
 10
1305.32762838089
 20
-170.0116666666738
 30
0.0
 11
1305.32762838089
 21
1004.988333333326
 31
0.0
  0
LINE
  5
4CD
330
1F
100
AcDbEntity
  8
0-0
  6
JWW_DASHED1
 62
   120
370
     5
100
AcDbLine
 10
1292.32762837979
 20
-170.0116666666738
 30
0.0
 11
1292.32762837979
 21
1004.988333333326
 31
0.0
  0
LINE
  5
4CE
330
1F
100
AcDbEntity
  8
0-0
  6
JWW_DASHED1
 62
   120
370
     5
100
AcDbLine
 10
1291.32762837989
 20
-170.0116666666738
 30
0.0
 11
1291.32762837989
 21
1004.988333333326
 31
0.0
  0
LINE
  5
4CF
330
1F
100
AcDbEntity
  8
0-0
  6
JWW_DASHED1
 62
   120
370
     5
100
AcDbLine
 10
1278.32762837879
 20
-170.0116666666738
 30
0.0
 11
1278.32762837879
 21
1004.988333333326
 31
0.0
  0
LINE
  5
4D0
330
1F
100
AcDbEntity
  8
0-0
  6
JWW_DASHED1
 62
   120
370
     5
100
AcDbLine
 10
1277.32762837889
 20
-170.0116666666738
 30
0.0
 11
1277.32762837889
 21
1004.988333333326
 31
0.0
  0
LINE
  5
4D1
330
1F
100
AcDbEntity
  8
0-0
  6
JWW_DASHED1
 62
   120
370
     5
100
AcDbLine
 10
1264.32762837779
 20
-170.0116666666738
 30
0.0
 11
1264.32762837779
 21
1004.988333333326
 31
0.0
  0
LINE
  5
4D2
330
1F
100
AcDbEntity
  8
0-0
  6
JWW_DASHED1
 62
   120
370
     5
100
AcDbLine
 10
1263.32762837789
 20
-170.0116666666738
 30
0.0
 11
1263.32762837789
 21
1004.988333333326
 31
0.0
  0
LINE
  5
4D3
330
1F
100
AcDbEntity
  8
0-0
  6
JWW_DASHED1
 62
   120
370
     5
100
AcDbLine
 10
1250.327628376789
 20
-170.0116666666738
 30
0.0
 11
1250.327628376789
 21
1004.988333333326
 31
0.0
  0
LINE
  5
4D4
330
1F
100
AcDbEntity
  8
0-0
  6
JWW_DASHED1
 62
   120
370
     5
100
AcDbLine
 10
1249.327628376889
 20
-170.0116666666738
 30
0.0
 11
1249.327628376889
 21
1004.988333333326
 31
0.0
  0
LINE
  5
4D5
330
1F
100
AcDbEntity
  8
0-0
  6
JWW_DASHED1
 62
   120
370
     5
100
AcDbLine
 10
1236.32762837579
 20
-170.0116666666738
 30
0.0
 11
1236.32762837579
 21
1004.988333333326
 31
0.0
  0
LINE
  5
4D6
330
1F
100
AcDbEntity
  8
0-0
  6
JWW_DASHED1
 62
   120
370
     5
100
AcDbLine
 10
1235.32762837589
 20
-170.0116666666738
 30
0.0
 11
1235.32762837589
 21
1004.988333333326
 31
0.0
  0
LINE
  5
4D7
330
1F
100
AcDbEntity
  8
0-0
  6
JWW_DASHED1
 62
   120
370
     5
100
AcDbLine
 10
1222.32762837479
 20
-170.0116666666738
 30
0.0
 11
1222.32762837479
 21
1004.988333333326
 31
0.0
  0
LINE
  5
4D8
330
1F
100
AcDbEntity
  8
0-0
  6
JWW_DASHED1
 62
   120
370
     5
100
AcDbLine
 10
1221.32762837489
 20
-170.0116666666738
 30
0.0
 11
1221.32762837489
 21
1004.988333333326
 31
0.0
  0
LINE
  5
4D9
330
1F
100
AcDbEntity
  8
0-0
  6
JWW_DASHED1
 62
   120
370
     5
100
AcDbLine
 10
1208.32762837379
 20
-170.0116666666738
 30
0.0
 11
1208.32762837379
 21
1004.988333333326
 31
0.0
  0
LINE
  5
4DA
330
1F
100
AcDbEntity
  8
0-0
  6
JWW_DASHED1
 62
   120
370
     5
100
AcDbLine
 10
1207.327628373889
 20
-170.0116666666738
 30
0.0
 11
1207.327628373889
 21
1004.988333333326
 31
0.0
  0
LINE
  5
4DB
330
1F
100
AcDbEntity
  8
0-0
  6
JWW_DASHED1
 62
   120
370
     5
100
AcDbLine
 10
1194.32762837279
 20
-170.0116666666738
 30
0.0
 11
1194.32762837279
 21
1004.988333333326
 31
0.0
  0
LINE
  5
4DC
330
1F
100
AcDbEntity
  8
0-0
  6
JWW_DASHED1
 62
   120
370
     5
100
AcDbLine
 10
1193.32762837289
 20
-170.0116666666738
 30
0.0
 11
1193.32762837289
 21
1004.988333333326
 31
0.0
  0
LINE
  5
4DD
330
1F
100
AcDbEntity
  8
0-0
  6
JWW_DASHED1
 62
   120
370
     5
100
AcDbLine
 10
1180.32762837179
 20
-170.0116666666738
 30
0.0
 11
1180.32762837179
 21
1004.988333333326
 31
0.0
  0
LINE
  5
4DE
330
1F
100
AcDbEntity
  8
0-0
  6
JWW_DASHED1
 62
   120
370
     5
100
AcDbLine
 10
1179.32762837189
 20
-170.0116666666738
 30
0.0
 11
1179.32762837189
 21
1004.988333333326
 31
0.0
  0
LINE
  5
4DF
330
1F
100
AcDbEntity
  8
0-0
  6
JWW_DASHED1
 62
   120
370
     5
100
AcDbLine
 10
1166.32762837079
 20
-170.0116666666738
 30
0.0
 11
1166.32762837079
 21
1004.988333333326
 31
0.0
  0
LINE
  5
4E0
330
1F
100
AcDbEntity
  8
0-0
  6
JWW_DASHED1
 62
   120
370
     5
100
AcDbLine
 10
1165.32762837089
 20
-170.0116666666738
 30
0.0
 11
1165.32762837089
 21
1004.988333333326
 31
0.0
  0
LINE
  5
4E1
330
1F
100
AcDbEntity
  8
0-0
  6
JWW_DASHED1
 62
   120
370
     5
100
AcDbLine
 10
1152.32762836979
 20
-170.0116666666738
 30
0.0
 11
1152.32762836979
 21
1004.988333333326
 31
0.0
  0
LINE
  5
4E2
330
1F
100
AcDbEntity
  8
0-0
  6
JWW_DASHED1
 62
   120
370
     5
100
AcDbLine
 10
1151.327628369889
 20
-170.0116666666738
 30
0.0
 11
1151.327628369889
 21
1004.988333333326
 31
0.0
  0
LINE
  5
4E3
330
1F
100
AcDbEntity
  8
0-0
  6
JWW_DASHED1
 62
   120
370
     5
100
AcDbLine
 10
1138.327628368789
 20
-170.0116666666738
 30
0.0
 11
1138.327628368789
 21
1004.988333333326
 31
0.0
  0
LINE
  5
4E4
330
1F
100
AcDbEntity
  8
0-0
  6
JWW_DASHED1
 62
   120
370
     5
100
AcDbLine
 10
1137.327628368889
 20
-170.0116666666738
 30
0.0
 11
1137.327628368889
 21
1004.988333333326
 31
0.0
  0
LINE
  5
4E5
330
1F
100
AcDbEntity
  8
0-0
  6
JWW_DASHED1
 62
   120
370
     5
100
AcDbLine
 10
1124.32762836779
 20
-170.0116666666738
 30
0.0
 11
1124.32762836779
 21
1004.988333333326
 31
0.0
  0
LINE
  5
4E6
330
1F
100
AcDbEntity
  8
0-0
  6
JWW_DASHED1
 62
   120
370
     5
100
AcDbLine
 10
1123.32762836789
 20
-170.0116666666738
 30
0.0
 11
1123.32762836789
 21
1004.988333333326
 31
0.0
  0
LINE
  5
4E7
330
1F
100
AcDbEntity
  8
0-0
  6
JWW_DASHED1
 62
   120
370
     5
100
AcDbLine
 10
1110.32762836679
 20
-170.0116666666738
 30
0.0
 11
1110.32762836679
 21
1004.988333333326
 31
0.0
  0
LINE
  5
4E8
330
1F
100
AcDbEntity
  8
0-0
  6
JWW_DASHED1
 62
   120
370
     5
100
AcDbLine
 10
1109.32762836689
 20
-170.0116666666738
 30
0.0
 11
1109.32762836689
 21
1004.988333333326
 31
0.0
  0
LINE
  5
4E9
330
1F
100
AcDbEntity
  8
0-0
  6
JWW_DASHED1
 62
   120
370
     5
100
AcDbLine
 10
1096.32762836579
 20
-170.0116666666738
 30
0.0
 11
1096.32762836579
 21
1004.988333333326
 31
0.0
  0
LINE
  5
4EA
330
1F
100
AcDbEntity
  8
0-0
  6
JWW_DASHED1
 62
   120
370
     5
100
AcDbLine
 10
1095.327628365889
 20
-170.0116666666738
 30
0.0
 11
1095.327628365889
 21
1004.988333333326
 31
0.0
  0
LINE
  5
4EB
330
1F
100
AcDbEntity
  8
0-0
  6
JWW_DASHED1
 62
   120
370
     5
100
AcDbLine
 10
1082.32762836479
 20
-170.0116666666738
 30
0.0
 11
1082.32762836479
 21
1004.988333333326
 31
0.0
  0
LINE
  5
4EC
330
1F
100
AcDbEntity
  8
0-0
  6
JWW_DASHED1
 62
   120
370
     5
100
AcDbLine
 10
1081.32762836489
 20
-170.0116666666738
 30
0.0
 11
1081.32762836489
 21
1004.988333333326
 31
0.0
  0
LINE
  5
4ED
330
1F
100
AcDbEntity
  8
0-0
  6
JWW_DASHED1
 62
   120
370
     5
100
AcDbLine
 10
1068.32762836379
 20
-170.0116666666738
 30
0.0
 11
1068.32762836379
 21
1004.988333333326
 31
0.0
  0
LINE
  5
4EE
330
1F
100
AcDbEntity
  8
0-0
  6
JWW_DASHED1
 62
   120
370
     5
100
AcDbLine
 10
1067.32762836389
 20
-170.0116666666738
 30
0.0
 11
1067.32762836389
 21
1004.988333333326
 31
0.0
  0
LINE
  5
4EF
330
1F
100
AcDbEntity
  8
0-0
  6
JWW_DASHED1
 62
   120
370
     5
100
AcDbLine
 10
1054.32762836279
 20
-170.0116666666738
 30
0.0
 11
1054.32762836279
 21
1004.988333333326
 31
0.0
  0
LINE
  5
4F0
330
1F
100
AcDbEntity
  8
0-0
  6
JWW_DASHED1
 62
   120
370
     5
100
AcDbLine
 10
1053.327628362889
 20
-170.0116666666738
 30
0.0
 11
1053.327628362889
 21
1004.988333333326
 31
0.0
  0
LINE
  5
4F1
330
1F
100
AcDbEntity
  8
0-0
  6
JWW_DASHED1
 62
   120
370
     5
100
AcDbLine
 10
1040.32762836179
 20
-170.0116666666738
 30
0.0
 11
1040.32762836179
 21
1004.988333333326
 31
0.0
  0
LINE
  5
4F2
330
1F
100
AcDbEntity
  8
0-0
  6
JWW_DASHED1
 62
   120
370
     5
100
AcDbLine
 10
1039.327628361889
 20
-170.0116666666738
 30
0.0
 11
1039.327628361889
 21
1004.988333333326
 31
0.0
  0
LINE
  5
4F3
330
1F
100
AcDbEntity
  8
0-0
  6
JWW_DASHED1
 62
   120
370
     5
100
AcDbLine
 10
1026.327628360789
 20
-170.0116666666738
 30
0.0
 11
1026.327628360789
 21
1004.988333333326
 31
0.0
  0
LINE
  5
4F4
330
1F
100
AcDbEntity
  8
0-0
  6
JWW_DASHED1
 62
   120
370
     5
100
AcDbLine
 10
1025.327628360889
 20
-170.0116666666738
 30
0.0
 11
1025.327628360889
 21
1004.988333333326
 31
0.0
  0
LINE
  5
4F5
330
1F
100
AcDbEntity
  8
0-0
  6
JWW_DASHED1
 62
   120
370
     5
100
AcDbLine
 10
1012.32762835979
 20
-170.0116666666738
 30
0.0
 11
1012.32762835979
 21
1004.988333333326
 31
0.0
  0
LINE
  5
4F6
330
1F
100
AcDbEntity
  8
0-0
  6
JWW_DASHED1
 62
   120
370
     5
100
AcDbLine
 10
1011.32762835989
 20
-170.0116666666738
 30
0.0
 11
1011.32762835989
 21
1004.988333333326
 31
0.0
  0
LINE
  5
4F7
330
1F
100
AcDbEntity
  8
0-0
  6
JWW_DASHED1
 62
   120
370
     5
100
AcDbLine
 10
998.3276283587898
 20
-170.0116666666738
 30
0.0
 11
998.3276283587898
 21
1004.988333333326
 31
0.0
  0
LINE
  5
4F8
330
1F
100
AcDbEntity
  8
0-0
  6
JWW_DASHED1
 62
   120
370
     5
100
AcDbLine
 10
997.3276283588896
 20
-170.0116666666738
 30
0.0
 11
997.3276283588896
 21
1004.988333333326
 31
0.0
  0
LINE
  5
4F9
330
1F
100
AcDbEntity
  8
0-0
  6
JWW_DASHED1
 62
   120
370
     5
100
AcDbLine
 10
984.3276283577895
 20
-170.0116666666738
 30
0.0
 11
984.3276283577895
 21
1004.988333333326
 31
0.0
  0
LINE
  5
4FA
330
1F
100
AcDbEntity
  8
0-0
  6
JWW_DASHED1
 62
   120
370
     5
100
AcDbLine
 10
1544.32762839779
 20
-170.0116666666738
 30
0.0
 11
1544.32762839779
 21
1004.988333333326
 31
0.0
  0
LINE
  5
4FB
330
1F
100
AcDbEntity
  8
0-0
  6
JWW_DASHED1
 62
   120
370
     5
100
AcDbLine
 10
1529.327628396889
 20
-170.0116666666738
 30
0.0
 11
1529.327628396889
 21
1004.988333333326
 31
0.0
  0
LINE
  5
4FC
330
1F
100
AcDbEntity
  8
0-0
  6
JWW_DASHED1
 62
   120
370
     5
100
AcDbLine
 10
1543.32762839789
 20
-170.0116666666738
 30
0.0
 11
1543.32762839789
 21
1004.988333333326
 31
0.0
  0
LINE
  5
4FD
330
1F
100
AcDbEntity
  8
0-0
  6
JWW_DASHED1
 62
   120
370
     5
100
AcDbLine
 10
1530.32762839679
 20
-170.0116666666738
 30
0.0
 11
1530.32762839679
 21
1004.988333333326
 31
0.0
  0
LINE
  5
4FE
330
1F
100
AcDbEntity
  8
0-0
  6
JWW_DASHED1
 62
   120
370
     5
100
AcDbLine
 10
977.3276098998585
 20
992.988185102365
 30
0.0
 11
1550.327609899857
 21
992.988185102365
 31
0.0
  0
LINE
  5
4FF
330
1F
100
AcDbEntity
  8
0-0
  6
JWW_DASHED1
 62
   120
370
     5
100
AcDbLine
 10
977.3276098998585
 20
949.9881850994657
 30
0.0
 11
1550.327609899857
 21
949.9881850994657
 31
0.0
  0
LINE
  5
500
330
1F
100
AcDbEntity
  8
0-0
  6
JWW_DASHED1
 62
   120
370
     5
100
AcDbLine
 10
977.3276098998585
 20
950.9881850993659
 30
0.0
 11
1550.327609899857
 21
950.9881850993659
 31
0.0
  0
LINE
  5
501
330
1F
100
AcDbEntity
  8
0-0
  6
JWW_DASHED1
 62
   120
370
     5
100
AcDbLine
 10
977.3276098998585
 20
963.9881851004656
 30
0.0
 11
1550.327609899857
 21
963.9881851004656
 31
0.0
  0
LINE
  5
502
330
1F
100
AcDbEntity
  8
0-0
  6
JWW_DASHED1
 62
   120
370
     5
100
AcDbLine
 10
977.3276098998585
 20
964.9881851003657
 30
0.0
 11
1550.327609899857
 21
964.9881851003657
 31
0.0
  0
LINE
  5
503
330
1F
100
AcDbEntity
  8
0-0
  6
JWW_DASHED1
 62
   120
370
     5
100
AcDbLine
 10
977.3276098998585
 20
977.9881851014651
 30
0.0
 11
1550.327609899857
 21
977.9881851014651
 31
0.0
  0
LINE
  5
504
330
1F
100
AcDbEntity
  8
0-0
  6
JWW_DASHED1
 62
   120
370
     5
100
AcDbLine
 10
977.3276098998585
 20
978.9881851013653
 30
0.0
 11
1550.327609899857
 21
978.9881851013653
 31
0.0
  0
LINE
  5
505
330
1F
100
AcDbEntity
  8
0-0
  6
JWW_DASHED1
 62
   120
370
     5
100
AcDbLine
 10
977.3276098998585
 20
991.9881851024651
 30
0.0
 11
1550.327609899857
 21
991.9881851024651
 31
0.0
  0
ENDSEC
  0
SECTION
  2
OBJECTS
  0
DICTIONARY
  5
C
330
0
100
AcDbDictionary
281
     1
  3
ACAD_GROUP
350
D
  3
ACAD_LAYOUT
350
1A
  3
ACAD_MATERIAL
350
3B
  3
ACAD_MLEADERSTYLE
350
507
  3
ACAD_MLINESTYLE
350
17
  3
ACAD_PLOTSETTINGS
350
19
  3
ACAD_PLOTSTYLENAME
350
E
  3
ACAD_TABLESTYLE
350
506
  3
ACAD_VISUALSTYLE
350
2A
  0
DICTIONARY
  5
D
102
{ACAD_REACTORS
330
C
102
}
330
C
100
AcDbDictionary
281
     1
  0
DICTIONARY
  5
1A
102
{ACAD_REACTORS
330
C
102
}
330
C
100
AcDbDictionary
281
     1
  3
Layout1
350
1E
  3
Layout2
350
26
  3
Model
350
22
  0
DICTIONARY
  5
3B
102
{ACAD_REACTORS
330
C
102
}
330
C
100
AcDbDictionary
281
     1
  3
ByBlock
350
3D
  3
ByLayer
350
3C
  3
Global
350
3E
  0
DICTIONARY
  5
507
102
{ACAD_REACTORS
330
C
102
}
330
C
100
AcDbDictionary
281
     1
  0
DICTIONARY
  5
17
102
{ACAD_REACTORS
330
C
102
}
330
C
100
AcDbDictionary
281
     1
  3
Standard
350
18
  0
DICTIONARY
  5
19
102
{ACAD_REACTORS
330
C
102
}
330
C
100
AcDbDictionary
281
     1
  0
ACDBDICTIONARYWDFLT
  5
E
102
{ACAD_REACTORS
330
C
102
}
330
C
100
AcDbDictionary
281
     1
  3
Normal
350
F
100
AcDbDictionaryWithDefault
340
F
  0
DICTIONARY
  5
506
102
{ACAD_REACTORS
330
C
102
}
330
C
100
AcDbDictionary
281
     1
  0
DICTIONARY
  5
2A
102
{ACAD_REACTORS
330
C
102
}
330
C
100
AcDbDictionary
281
     1
  3
2dWireframe
350
2F
  3
3D Hidden
350
31
  3
3dWireframe
350
30
  3
Basic
350
32
  3
Brighten
350
36
  3
ColorChange
350
3A
  3
Conceptual
350
34
  3
Dim
350
35
  3
Facepattern
350
39
  3
Flat
350
2B
  3
FlatWithEdges
350
2C
  3
Gouraud
350
2D
  3
GouraudWithEdges
350
2E
  3
Linepattern
350
38
  3
Realistic
350
33
  3
Thicken
350
37
  0
LAYOUT
  5
1E
102
{ACAD_REACTORS
330
1A
102
}
330
1A
100
AcDbPlotSettings
  1

  2
none_device
  4

  6

 40
0.0
 41
0.0
 42
0.0
 43
0.0
 44
0.0
 45
0.0
 46
0.0
 47
0.0
 48
0.0
 49
0.0
140
0.0
141
0.0
142
1.0
143
1.0
 70
   688
 72
     0
 73
     0
 74
     5
  7

 75
    16
 76
     0
 77
     5
 78
   300
147
1.0
148
0.0
149
0.0
100
AcDbLayout
  1
Layout1
 70
     1
 71
     1
 10
0.0
 20
0.0
 11
420.0
 21
297.0
 12
0.0
 22
0.0
 32
0.0
 14
1.000000000000000E+20
 24
1.000000000000000E+20
 34
1.000000000000000E+20
 15
-1.000000000000000E+20
 25
-1.000000000000000E+20
 35
-1.000000000000000E+20
146
0.0
 13
0.0
 23
0.0
 33
0.0
 16
1.0
 26
0.0
 36
0.0
 17
0.0
 27
1.0
 37
0.0
 76
     0
330
1B
  0
LAYOUT
  5
26
102
{ACAD_REACTORS
330
1A
102
}
330
1A
100
AcDbPlotSettings
  1

  2
none_device
  4

  6

 40
0.0
 41
0.0
 42
0.0
 43
0.0
 44
0.0
 45
0.0
 46
0.0
 47
0.0
 48
0.0
 49
0.0
140
0.0
141
0.0
142
1.0
143
1.0
 70
   688
 72
     0
 73
     0
 74
     5
  7

 75
    16
 76
     0
 77
     5
 78
   300
147
1.0
148
0.0
149
0.0
100
AcDbLayout
  1
Layout2
 70
     1
 71
     2
 10
0.0
 20
0.0
 11
0.0
 21
0.0
 12
0.0
 22
0.0
 32
0.0
 14
0.0
 24
0.0
 34
0.0
 15
0.0
 25
0.0
 35
0.0
146
0.0
 13
0.0
 23
0.0
 33
0.0
 16
1.0
 26
0.0
 36
0.0
 17
0.0
 27
1.0
 37
0.0
 76
     0
330
23
  0
LAYOUT
  5
22
102
{ACAD_REACTORS
330
1A
102
}
330
1A
100
AcDbPlotSettings
  1

  2
none_device
  4

  6

 40
0.0
 41
0.0
 42
0.0
 43
0.0
 44
0.0
 45
0.0
 46
0.0
 47
0.0
 48
0.0
 49
0.0
140
0.0
141
0.0
142
1.0
143
1.0
 70
  1712
 72
     0
 73
     0
 74
     0
  7

 75
     0
 76
     0
 77
     5
 78
   300
147
1.0
148
0.0
149
0.0
100
AcDbLayout
  1
Model
 70
     1
 71
     0
 10
-4455.0
 20
-3150.0
 11
4455.0
 21
3150.0
 12
0.0
 22
0.0
 32
0.0
 14
-4455.0
 24
-3150.0
 34
0.0
 15
4455.0
 25
3150.0
 35
0.0
146
0.0
 13
0.0
 23
0.0
 33
0.0
 16
1.0
 26
0.0
 36
0.0
 17
0.0
 27
1.0
 37
0.0
 76
     0
330
1F
331
29
  0
MATERIAL
  5
3D
102
{ACAD_REACTORS
330
3B
102
}
330
3B
100
AcDbMaterial
  1
ByBlock
 72
     1
 94
      127
  0
MATERIAL
  5
3C
102
{ACAD_REACTORS
330
3B
102
}
330
3B
100
AcDbMaterial
  1
ByLayer
 72
     1
 94
      127
  0
MATERIAL
  5
3E
102
{ACAD_REACTORS
330
3B
102
}
330
3B
100
AcDbMaterial
  1
Global
 72
     1
 94
      127
  0
MLINESTYLE
  5
18
102
{ACAD_REACTORS
330
17
102
}
330
17
100
AcDbMlineStyle
  2
Standard
 70
     0
  3

 62
   256
 51
90.0
 52
90.0
 71
     2
 49
0.5
 62
   256
  6
BYLAYER
 49
-0.5
 62
   256
  6
BYLAYER
  0
ACDBPLACEHOLDER
  5
F
102
{ACAD_REACTORS
330
E
102
}
330
E
  0
VISUALSTYLE
  5
2F
102
{ACAD_REACTORS
330
2A
102
}
330
2A
100
AcDbVisualStyle
  2
2dWireframe
 70
     4
177
     2
291
     0
 71
     0
176
     1
 72
     2
176
     1
 73
     0
176
     1
 90
        0
176
     1
 40
-0.6
176
     1
 41
-30.0
176
     1
 62
     5
 63
     7
421
 16777215
176
     1
 74
     1
176
     1
 91
        4
176
     1
 64
     7
176
     1
 65
   257
176
     1
 75
     1
176
     1
175
     1
176
     1
 42
1.0
176
     1
 92
        0
176
     1
 66
   257
176
     1
 43
1.0
176
     1
 76
     1
176
     1
 77
     6
176
     1
 78
     2
176
     1
 67
     7
176
     1
 79
     5
176
     1
170
     0
176
     1
171
     0
176
     1
290
     0
176
     1
 93
        1
176
     1
 44
0.0
176
     1
173
     0
176
     1
  0
VISUALSTYLE
  5
31
102
{ACAD_REACTORS
330
2A
102
}
330
2A
100
AcDbVisualStyle
  2
3D Hidden
 70
     6
177
     2
291
     0
 71
     1
176
     1
 72
     2
176
     1
 73
     2
176
     1
 90
        0
176
     1
 40
-0.6
176
     1
 41
-30.0
176
     1
 62
     5
 63
     7
421
 16777215
176
     1
 74
     2
176
     1
 91
        2
176
     1
 64
     7
176
     1
 65
   257
176
     1
 75
     2
176
     1
175
     1
176
     1
 42
40.0
176
     1
 92
        0
176
     1
 66
   257
176
     1
 43
1.0
176
     1
 76
     1
176
     1
 77
     6
176
     1
 78
     2
176
     1
 67
     7
176
     1
 79
     3
176
     1
170
     0
176
     1
171
     0
176
     1
290
     0
176
     1
 93
        1
176
     1
 44
0.0
176
     1
173
     0
176
     1
  0
VISUALSTYLE
  5
30
102
{ACAD_REACTORS
330
2A
102
}
330
2A
100
AcDbVisualStyle
  2
3dWireframe
 70
     5
177
     2
291
     0
 71
     0
176
     1
 72
     2
176
     1
 73
     0
176
     1
 90
        0
176
     1
 40
-0.6
176
     1
 41
-30.0
176
     1
 62
     5
 63
     7
421
 16777215
176
     1
 74
     1
176
     1
 91
        4
176
     1
 64
     7
176
     1
 65
   257
176
     1
 75
     1
176
     1
175
     1
176
     1
 42
1.0
176
     1
 92
        0
176
     1
 66
   257
176
     1
 43
1.0
176
     1
 76
     1
176
     1
 77
     6
176
     1
 78
     2
176
     1
 67
     7
176
     1
 79
     5
176
     1
170
     0
176
     1
171
     0
176
     1
290
     0
176
     1
 93
        1
176
     1
 44
0.0
176
     1
173
     0
176
     1
  0
VISUALSTYLE
  5
32
102
{ACAD_REACTORS
330
2A
102
}
330
2A
100
AcDbVisualStyle
  2
Basic
 70
     7
177
     2
291
     1
 71
     1
176
     1
 72
     0
176
     1
 73
     1
176
     1
 90
        0
176
     1
 40
-0.6
176
     1
 41
-30.0
176
     1
 62
     5
 63
     7
421
 16777215
176
     1
 74
     0
176
     1
 91
        4
176
     1
 64
     7
176
     1
 65
   257
176
     1
 75
     1
176
     1
175
     1
176
     1
 42
1.0
176
     1
 92
        8
176
     1
 66
     7
176
     1
 43
1.0
176
     1
 76
     1
176
     1
 77
     6
176
     1
 78
     2
176
     1
 67
     7
176
     1
 79
     5
176
     1
170
     0
176
     1
171
     0
176
     1
290
     0
176
     1
 93
        1
176
     1
 44
0.0
176
     1
173
     0
176
     1
  0
VISUALSTYLE
  5
36
102
{ACAD_REACTORS
330
2A
102
}
330
2A
100
AcDbVisualStyle
  2
Brighten
 70
    12
177
     2
291
     1
 71
     2
176
     1
 72
     2
176
     1
 73
     0
176
     1
 90
        0
176
     1
 40
-0.6
176
     1
 41
-30.0
176
     1
 62
     5
 63
     7
421
 16777215
176
     1
 74
     1
176
     1
 91
        4
176
     1
 64
     7
176
     1
 65
   257
176
     1
 75
     1
176
     1
175
     1
176
     1
 42
1.0
176
     1
 92
        8
176
     1
 66
     7
176
     1
 43
1.0
176
     1
 76
     1
176
     1
 77
     6
176
     1
 78
     2
176
     1
 67
     7
176
     1
 79
     5
176
     1
170
     0
176
     1
171
     0
176
     1
290
     0
176
     1
 93
        1
176
     1
 44
50.0
176
     1
173
     0
176
     1
  0
VISUALSTYLE
  5
3A
102
{ACAD_REACTORS
330
2A
102
}
330
2A
100
AcDbVisualStyle
  2
ColorChange
 70
    16
177
     2
291
     1
 71
     2
176
     1
 72
     2
176
     1
 73
     3
176
     1
 90
        0
176
     1
 40
-0.6
176
     1
 41
-30.0
176
     1
 62
     5
 63
     8
421
  8421504
176
     1
 74
     1
176
     1
 91
        4
176
     1
 64
     7
176
     1
 65
   257
176
     1
 75
     1
176
     1
175
     1
176
     1
 42
1.0
176
     1
 92
        8
176
     1
 66
     8
424
  8421504
176
     1
 43
1.0
176
     1
 76
     1
176
     1
 77
     6
176
     1
 78
     2
176
     1
 67
     7
176
     1
 79
     5
176
     1
170
     0
176
     1
171
     0
176
     1
290
     0
176
     1
 93
        1
176
     1
 44
0.0
176
     1
173
     0
176
     1
  0
VISUALSTYLE
  5
34
102
{ACAD_REACTORS
330
2A
102
}
330
2A
100
AcDbVisualStyle
  2
Conceptual
 70
     9
177
     2
291
     0
 71
     3
176
     1
 72
     2
176
     1
 73
     0
176
     1
 90
        0
176
     1
 40
-0.6
176
     1
 41
-30.0
176
     1
 62
     5
 63
     7
421
 16777215
176
     1
 74
     2
176
     1
 91
        2
176
     1
 64
     7
176
     1
 65
   257
176
     1
 75
     1
176
     1
175
     1
176
     1
 42
40.0
176
     1
 92
        8
176
     1
 66
     7
176
     1
 43
1.0
176
     1
 76
     1
176
     1
 77
     6
176
     1
 78
     2
176
     1
 67
     7
176
     1
 79
     3
176
     1
170
     0
176
     1
171
     0
176
     1
290
     0
176
     1
 93
        1
176
     1
 44
0.0
176
     1
173
     0
176
     1
  0
VISUALSTYLE
  5
35
102
{ACAD_REACTORS
330
2A
102
}
330
2A
100
AcDbVisualStyle
  2
Dim
 70
    11
177
     2
291
     1
 71
     2
176
     1
 72
     2
176
     1
 73
     0
176
     1
 90
        0
176
     1
 40
-0.6
176
     1
 41
-30.0
176
     1
 62
     5
 63
     7
421
 16777215
176
     1
 74
     1
176
     1
 91
        4
176
     1
 64
     7
176
     1
 65
   257
176
     1
 75
     1
176
     1
175
     1
176
     1
 42
1.0
176
     1
 92
        8
176
     1
 66
     7
176
     1
 43
1.0
176
     1
 76
     1
176
     1
 77
     6
176
     1
 78
     2
176
     1
 67
     7
176
     1
 79
     5
176
     1
170
     0
176
     1
171
     0
176
     1
290
     0
176
     1
 93
        1
176
     1
 44
-50.0
176
     1
173
     0
176
     1
  0
VISUALSTYLE
  5
39
102
{ACAD_REACTORS
330
2A
102
}
330
2A
100
AcDbVisualStyle
  2
Facepattern
 70
    15
177
     2
291
     1
 71
     2
176
     1
 72
     2
176
     1
 73
     0
176
     1
 90
        0
176
     1
 40
-0.6
176
     1
 41
-30.0
176
     1
 62
     5
 63
     7
421
 16777215
176
     1
 74
     1
176
     1
 91
        4
176
     1
 64
     7
176
     1
 65
   257
176
     1
 75
     1
176
     1
175
     1
176
     1
 42
1.0
176
     1
 92
        8
176
     1
 66
     7
176
     1
 43
1.0
176
     1
 76
     1
176
     1
 77
     6
176
     1
 78
     2
176
     1
 67
     7
176
     1
 79
     5
176
     1
170
     0
176
     1
171
     0
176
     1
290
     0
176
     1
 93
        1
176
     1
 44
0.0
176
     1
173
     0
176
     1
  0
VISUALSTYLE
  5
2B
102
{ACAD_REACTORS
330
2A
102
}
330
2A
100
AcDbVisualStyle
  2
Flat
 70
     0
177
     2
291
     1
 71
     2
176
     1
 72
     1
176
     1
 73
     1
176
     1
 90
        2
176
     1
 40
-0.6
176
     1
 41
30.0
176
     1
 62
     5
 63
     7
421
 16777215
176
     1
 74
     0
176
     1
 91
        4
176
     1
 64
     7
176
     1
 65
   257
176
     1
 75
     1
176
     1
175
     1
176
     1
 42
1.0
176
     1
 92
        8
176
     1
 66
     7
176
     1
 43
1.0
176
     1
 76
     1
176
     1
 77
     6
176
     1
 78
     2
176
     1
 67
     7
176
     1
 79
     5
176
     1
170
     0
176
     1
171
     0
176
     1
290
     0
176
     1
 93
       13
176
     1
 44
0.0
176
     1
173
     0
176
     1
  0
VISUALSTYLE
  5
2C
102
{ACAD_REACTORS
330
2A
102
}
330
2A
100
AcDbVisualStyle
  2
FlatWithEdges
 70
     1
177
     2
291
     1
 71
     2
176
     1
 72
     1
176
     1
 73
     1
176
     1
 90
        2
176
     1
 40
-0.6
176
     1
 41
30.0
176
     1
 62
     5
 63
     7
421
 16777215
176
     1
 74
     1
176
     1
 91
        4
176
     1
 64
     7
176
     1
 65
   257
176
     1
 75
     1
176
     1
175
     1
176
     1
 42
1.0
176
     1
 92
        0
176
     1
 66
   257
176
     1
 43
1.0
176
     1
 76
     1
176
     1
 77
     6
176
     1
 78
     2
176
     1
 67
     7
176
     1
 79
     5
176
     1
170
     0
176
     1
171
     0
176
     1
290
     0
176
     1
 93
       13
176
     1
 44
0.0
176
     1
173
     0
176
     1
  0
VISUALSTYLE
  5
2D
102
{ACAD_REACTORS
330
2A
102
}
330
2A
100
AcDbVisualStyle
  2
Gouraud
 70
     2
177
     2
291
     1
 71
     2
176
     1
 72
     2
176
     1
 73
     1
176
     1
 90
        2
176
     1
 40
-0.6
176
     1
 41
30.0
176
     1
 62
     5
 63
     7
421
 16777215
176
     1
 74
     0
176
     1
 91
        4
176
     1
 64
     7
176
     1
 65
   257
176
     1
 75
     1
176
     1
175
     1
176
     1
 42
1.0
176
     1
 92
        0
176
     1
 66
     7
176
     1
 43
1.0
176
     1
 76
     1
176
     1
 77
     6
176
     1
 78
     2
176
     1
 67
     7
176
     1
 79
     5
176
     1
170
     0
176
     1
171
     0
176
     1
290
     0
176
     1
 93
       13
176
     1
 44
0.0
176
     1
173
     0
176
     1
  0
VISUALSTYLE
  5
2E
102
{ACAD_REACTORS
330
2A
102
}
330
2A
100
AcDbVisualStyle
  2
GouraudWithEdges
 70
     3
177
     2
291
     1
 71
     2
176
     1
 72
     2
176
     1
 73
     1
176
     1
 90
        2
176
     1
 40
-0.6
176
     1
 41
30.0
176
     1
 62
     5
 63
     7
421
 16777215
176
     1
 74
     1
176
     1
 91
        4
176
     1
 64
     7
176
     1
 65
   257
176
     1
 75
     1
176
     1
175
     1
176
     1
 42
1.0
176
     1
 92
        0
176
     1
 66
   257
176
     1
 43
1.0
176
     1
 76
     1
176
     1
 77
     6
176
     1
 78
     2
176
     1
 67
     7
176
     1
 79
     5
176
     1
170
     0
176
     1
171
     0
176
     1
290
     0
176
     1
 93
       13
176
     1
 44
0.0
176
     1
173
     0
176
     1
  0
VISUALSTYLE
  5
38
102
{ACAD_REACTORS
330
2A
102
}
330
2A
100
AcDbVisualStyle
  2
Linepattern
 70
    14
177
     2
291
     1
 71
     2
176
     1
 72
     2
176
     1
 73
     0
176
     1
 90
        0
176
     1
 40
-0.6
176
     1
 41
-30.0
176
     1
 62
     5
 63
     7
421
 16777215
176
     1
 74
     1
176
     1
 91
        4
176
     1
 64
     7
176
     1
 65
   257
176
     1
 75
     7
176
     1
175
     7
176
     1
 42
1.0
176
     1
 92
        8
176
     1
 66
     7
176
     1
 43
1.0
176
     1
 76
     1
176
     1
 77
     6
176
     1
 78
     2
176
     1
 67
     7
176
     1
 79
     5
176
     1
170
     0
176
     1
171
     0
176
     1
290
     0
176
     1
 93
        1
176
     1
 44
0.0
176
     1
173
     0
176
     1
  0
VISUALSTYLE
  5
33
102
{ACAD_REACTORS
330
2A
102
}
330
2A
100
AcDbVisualStyle
  2
Realistic
 70
     8
177
     2
291
     0
 71
     2
176
     1
 72
     2
176
     1
 73
     0
176
     1
 90
        0
176
     1
 40
-0.6
176
     1
 41
-30.0
176
     1
 62
     5
 63
     7
421
 16777215
176
     1
 74
     1
176
     1
 91
        0
176
     1
 64
     7
176
     1
 65
   257
176
     1
 75
     1
176
     1
175
     1
176
     1
 42
1.0
176
     1
 92
        8
176
     1
 66
     8
424
  7895160
176
     1
 43
1.0
176
     1
 76
     1
176
     1
 77
     6
176
     1
 78
     2
176
     1
 67
     7
176
     1
 79
     5
176
     1
170
     0
176
     1
171
     0
176
     1
290
     0
176
     1
 93
       13
176
     1
 44
0.0
176
     1
173
     0
176
     1
  0
VISUALSTYLE
  5
37
102
{ACAD_REACTORS
330
2A
102
}
330
2A
100
AcDbVisualStyle
  2
Thicken
 70
    13
177
     2
291
     1
 71
     2
176
     1
 72
     2
176
     1
 73
     0
176
     1
 90
        0
176
     1
 40
-0.6
176
     1
 41
-30.0
176
     1
 62
     5
 63
     7
421
 16777215
176
     1
 74
     1
176
     1
 91
        4
176
     1
 64
     7
176
     1
 65
   257
176
     1
 75
     1
176
     1
175
     1
176
     1
 42
1.0
176
     1
 92
       12
176
     1
 66
     7
176
     1
 43
1.0
176
     1
 76
     1
176
     1
 77
     6
176
     1
 78
     2
176
     1
 67
     7
176
     1
 79
     5
176
     1
170
     0
176
     1
171
     0
176
     1
290
     0
176
     1
 93
        1
176
     1
 44
0.0
176
     1
173
     0
176
     1
  0
ENDSEC
  0
EOF
