  0
SECTION
  2
HEADER
  9
$ACADVER
  1
AC1024
  9
$ACADMAINTVER
 70
     6
  9
$DWGCODEPAGE
  3
ANSI_932
  9
$INSBASE
 10
0.0
 20
0.0
 30
0.0
  9
$EXTMIN
 10
-4455.0
 20
-3150.0
 30
0.0
  9
$EXTMAX
 10
4455.0
 20
3150.0
 30
0.0
  9
$LIMMIN
 10
-4455.0
 20
-3150.0
  9
$LIMMAX
 10
4455.0
 20
3150.0
  9
$ORTHOMODE
 70
     0
  9
$REGENMODE
 70
     1
  9
$FILLMODE
 70
     1
  9
$QTEXTMODE
 70
     0
  9
$MIRRTEXT
 70
     1
  9
$LTSCALE
 40
30.0
  9
$ATTMODE
 70
     1
  9
$TEXTSIZE
 40
2.5
  9
$TRACEWID
 40
1.0
  9
$TEXTSTYLE
  7
Standard
  9
$CLAYER
  8
0
  9
$CELTYPE
  6
ByLayer
  9
$CECOLOR
 62
   256
  9
$CELTSCALE
 40
1.0
  9
$DISPSILH
 70
     0
  9
$DIMSCALE
 40
1.0
  9
$DIMASZ
 40
2.5
  9
$DIMEXO
 40
0.625
  9
$DIMDLI
 40
3.75
  9
$DIMRND
 40
0.0
  9
$DIMDLE
 40
0.0
  9
$DIMEXE
 40
1.25
  9
$DIMTP
 40
0.0
  9
$DIMTM
 40
0.0
  9
$DIMTXT
 40
2.5
  9
$DIMCEN
 40
2.5
  9
$DIMTSZ
 40
0.0
  9
$DIMTOL
 70
     0
  9
$DIMLIM
 70
     0
  9
$DIMTIH
 70
     0
  9
$DIMTOH
 70
     0
  9
$DIMSE1
 70
     0
  9
$DIMSE2
 70
     0
  9
$DIMTAD
 70
     1
  9
$DIMZIN
 70
     8
  9
$DIMBLK
  1

  9
$DIMASO
 70
     1
  9
$DIMSHO
 70
     1
  9
$DIMPOST
  1

  9
$DIMAPOST
  1

  9
$DIMALT
 70
     0
  9
$DIMALTD
 70
     3
  9
$DIMALTF
 40
0.03937007874016
  9
$DIMLFAC
 40
1.0
  9
$DIMTOFL
 70
     1
  9
$DIMTVP
 40
0.0
  9
$DIMTIX
 70
     0
  9
$DIMSOXD
 70
     0
  9
$DIMSAH
 70
     0
  9
$DIMBLK1
  1

  9
$DIMBLK2
  1

  9
$DIMSTYLE
  2
ISO-25
  9
$DIMCLRD
 70
     0
  9
$DIMCLRE
 70
     0
  9
$DIMCLRT
 70
     0
  9
$DIMTFAC
 40
1.0
  9
$DIMGAP
 40
0.625
  9
$DIMJUST
 70
     0
  9
$DIMSD1
 70
     0
  9
$DIMSD2
 70
     0
  9
$DIMTOLJ
 70
     0
  9
$DIMTZIN
 70
     8
  9
$DIMALTZ
 70
     0
  9
$DIMALTTZ
 70
     0
  9
$DIMUPT
 70
     0
  9
$DIMDEC
 70
     2
  9
$DIMTDEC
 70
     2
  9
$DIMALTU
 70
     2
  9
$DIMALTTD
 70
     3
  9
$DIMTXSTY
  7
Standard
  9
$DIMAUNIT
 70
     0
  9
$DIMADEC
 70
     0
  9
$DIMALTRND
 40
0.0
  9
$DIMAZIN
 70
     0
  9
$DIMDSEP
 70
    44
  9
$DIMATFIT
 70
     3
  9
$DIMFRAC
 70
     0
  9
$DIMLDRBLK
  1

  9
$DIMLUNIT
 70
     2
  9
$DIMLWD
 70
    -2
  9
$DIMLWE
 70
    -2
  9
$DIMTMOVE
 70
     0
  9
$DIMFXL
 40
1.0
  9
$DIMFXLON
 70
     0
  9
$DIMJOGANG
 40
0.7853981633974483
  9
$DIMTFILL
 70
     0
  9
$DIMTFILLCLR
 70
     0
  9
$DIMARCSYM
 70
     0
  9
$DIMLTYPE
  6

  9
$DIMLTEX1
  6

  9
$DIMLTEX2
  6

  9
$DIMTXTDIRECTION
 70
     0
  9
$LUNITS
 70
     2
  9
$LUPREC
 70
     4
  9
$SKETCHINC
 40
1.0
  9
$FILLETRAD
 40
10.0
  9
$AUNITS
 70
     0
  9
$AUPREC
 70
     0
  9
$MENU
  1
.
  9
$ELEVATION
 40
0.0
  9
$PELEVATION
 40
0.0
  9
$THICKNESS
 40
0.0
  9
$LIMCHECK
 70
     0
  9
$CHAMFERA
 40
10.0
  9
$CHAMFERB
 40
10.0
  9
$CHAMFERC
 40
20.0
  9
$CHAMFERD
 40
0.0
  9
$SKPOLY
 70
     0
  9
$TDCREATE
 40
2457953.399989479
  9
$TDUCREATE
 40
2457953.024989479
  9
$TDUPDATE
 40
2457953.399989491
  9
$TDUUPDATE
 40
2457953.024989491
  9
$TDINDWG
 40
0.0000000116
  9
$TDUSRTIMER
 40
0.0000000116
  9
$USRTIMER
 70
     1
  9
$ANGBASE
 50
0.0
  9
$ANGDIR
 70
     0
  9
$PDMODE
 70
     0
  9
$PDSIZE
 40
0.0
  9
$PLINEWID
 40
0.0
  9
$SPLFRAME
 70
     0
  9
$SPLINETYPE
 70
     6
  9
$SPLINESEGS
 70
     8
  9
$HANDSEED
  5
3F6
  9
$SURFTAB1
 70
     6
  9
$SURFTAB2
 70
     6
  9
$SURFTYPE
 70
     6
  9
$SURFU
 70
     6
  9
$SURFV
 70
     6
  9
$UCSBASE
  2

  9
$UCSNAME
  2

  9
$UCSORG
 10
0.0
 20
0.0
 30
0.0
  9
$UCSXDIR
 10
1.0
 20
0.0
 30
0.0
  9
$UCSYDIR
 10
0.0
 20
1.0
 30
0.0
  9
$UCSORTHOREF
  2

  9
$UCSORTHOVIEW
 70
     0
  9
$UCSORGTOP
 10
0.0
 20
0.0
 30
0.0
  9
$UCSORGBOTTOM
 10
0.0
 20
0.0
 30
0.0
  9
$UCSORGLEFT
 10
0.0
 20
0.0
 30
0.0
  9
$UCSORGRIGHT
 10
0.0
 20
0.0
 30
0.0
  9
$UCSORGFRONT
 10
0.0
 20
0.0
 30
0.0
  9
$UCSORGBACK
 10
0.0
 20
0.0
 30
0.0
  9
$PUCSBASE
  2

  9
$PUCSNAME
  2

  9
$PUCSORG
 10
0.0
 20
0.0
 30
0.0
  9
$PUCSXDIR
 10
1.0
 20
0.0
 30
0.0
  9
$PUCSYDIR
 10
0.0
 20
1.0
 30
0.0
  9
$PUCSORTHOREF
  2

  9
$PUCSORTHOVIEW
 70
     0
  9
$PUCSORGTOP
 10
0.0
 20
0.0
 30
0.0
  9
$PUCSORGBOTTOM
 10
0.0
 20
0.0
 30
0.0
  9
$PUCSORGLEFT
 10
0.0
 20
0.0
 30
0.0
  9
$PUCSORGRIGHT
 10
0.0
 20
0.0
 30
0.0
  9
$PUCSORGFRONT
 10
0.0
 20
0.0
 30
0.0
  9
$PUCSORGBACK
 10
0.0
 20
0.0
 30
0.0
  9
$USERI1
 70
     0
  9
$USERI2
 70
     0
  9
$USERI3
 70
     0
  9
$USERI4
 70
     0
  9
$USERI5
 70
     0
  9
$USERR1
 40
0.0
  9
$USERR2
 40
0.0
  9
$USERR3
 40
0.0
  9
$USERR4
 40
0.0
  9
$USERR5
 40
0.0
  9
$WORLDVIEW
 70
     1
  9
$SHADEDGE
 70
     3
  9
$SHADEDIF
 70
    70
  9
$TILEMODE
 70
     1
  9
$MAXACTVP
 70
    64
  9
$PINSBASE
 10
0.0
 20
0.0
 30
0.0
  9
$PLIMCHECK
 70
     0
  9
$PEXTMIN
 10
1.000000000000000E+20
 20
1.000000000000000E+20
 30
1.000000000000000E+20
  9
$PEXTMAX
 10
-1.000000000000000E+20
 20
-1.000000000000000E+20
 30
-1.000000000000000E+20
  9
$PLIMMIN
 10
0.0
 20
0.0
  9
$PLIMMAX
 10
420.0
 20
297.0
  9
$UNITMODE
 70
     0
  9
$VISRETAIN
 70
     1
  9
$PLINEGEN
 70
     0
  9
$PSLTSCALE
 70
     1
  9
$TREEDEPTH
 70
  3020
  9
$CMLSTYLE
  2
Standard
  9
$CMLJUST
 70
     0
  9
$CMLSCALE
 40
20.0
  9
$PROXYGRAPHICS
 70
     1
  9
$MEASUREMENT
 70
     1
  9
$CELWEIGHT
370
    -1
  9
$ENDCAPS
280
     0
  9
$JOINSTYLE
280
     0
  9
$LWDISPLAY
290
     0
  9
$INSUNITS
 70
     4
  9
$HYPERLINKBASE
  1

  9
$STYLESHEET
  1

  9
$XEDIT
290
     1
  9
$CEPSNTYPE
380
     0
  9
$PSTYLEMODE
290
     1
  9
$FINGERPRINTGUID
  2
{93DCEEA0-ACCC-4FD3-B4DF-1BB927BE3865}
  9
$VERSIONGUID
  2
{FAEB1C32-E019-11D5-929B-00C0DF256EC4}
  9
$EXTNAMES
290
     1
  9
$PSVPSCALE
 40
0.0
  9
$OLESTARTUP
290
     0
  9
$SORTENTS
280
   127
  9
$INDEXCTL
280
     0
  9
$HIDETEXT
280
     1
  9
$XCLIPFRAME
280
     2
  9
$HALOGAP
280
     0
  9
$OBSCOLOR
 70
   257
  9
$OBSLTYPE
280
     0
  9
$INTERSECTIONDISPLAY
280
     0
  9
$INTERSECTIONCOLOR
 70
   257
  9
$DIMASSOC
280
     2
  9
$PROJECTNAME
  1

  9
$CAMERADISPLAY
290
     0
  9
$LENSLENGTH
 40
50.0
  9
$CAMERAHEIGHT
 40
0.0
  9
$STEPSPERSEC
 40
2.0
  9
$STEPSIZE
 40
6.0
  9
$3DDWFPREC
 40
2.0
  9
$PSOLWIDTH
 40
5.0
  9
$PSOLHEIGHT
 40
80.0
  9
$LOFTANG1
 40
1.570796326794897
  9
$LOFTANG2
 40
1.570796326794897
  9
$LOFTMAG1
 40
0.0
  9
$LOFTMAG2
 40
0.0
  9
$LOFTPARAM
 70
     7
  9
$LOFTNORMALS
280
     1
  9
$LATITUDE
 40
37.795
  9
$LONGITUDE
 40
-122.394
  9
$NORTHDIRECTION
 40
0.0
  9
$TIMEZONE
 70
 -8000
  9
$LIGHTGLYPHDISPLAY
280
     1
  9
$TILEMODELIGHTSYNCH
280
     1
  9
$SOLIDHIST
280
     1
  9
$SHOWHIST
280
     1
  9
$DWFFRAME
280
     2
  9
$DGNFRAME
280
     2
  9
$REALWORLDSCALE
290
     1
  9
$INTERFERECOLOR
 62
   256
  9
$CSHADOW
280
     0
  9
$SHADOWPLANELOCATION
 40
0.0
  0
ENDSEC
  0
SECTION
  2
CLASSES
  0
CLASS
  1
ACDBDICTIONARYWDFLT
  2
AcDbDictionaryWithDefault
  3
ObjectDBX Classes
 90
        0
 91
        4
280
     0
281
     0
  0
CLASS
  1
VISUALSTYLE
  2
AcDbVisualStyle
  3
ObjectDBX Classes
 90
     4095
 91
        4
280
     0
281
     0
  0
CLASS
  1
MATERIAL
  2
AcDbMaterial
  3
ObjectDBX Classes
 90
     1153
 91
        4
280
     0
281
     0
  0
ENDSEC
  0
SECTION
  2
TABLES
  0
TABLE
  2
VPORT
  5
8
330
0
100
AcDbSymbolTable
 70
     1
  0
VPORT
  5
29
330
8
100
AcDbSymbolTableRecord
100
AcDbViewportTableRecord
  2
*Active
 70
     0
 10
0.0
 20
0.0
 11
1.0
 21
1.0
 12
0.0
 22
0.0
 13
0.0
 23
0.0
 14
10.0
 24
10.0
 15
10.0
 25
10.0
 16
0.0
 26
0.0
 36
1.0
 17
0.0
 27
0.0
 37
0.0
 40
6930.000000000001
 41
1.414285714285714
 42
50.0
 43
0.0
 44
0.0
 50
0.0
 51
0.0
 71
     0
 72
 10000
 73
     1
 74
     3
 75
     0
 76
     0
 77
     0
 78
     0
281
     0
 65
     1
110
0.0
120
0.0
130
0.0
111
1.0
121
0.0
131
0.0
112
0.0
122
1.0
132
0.0
 79
     0
146
0.0
 60
     3
 61
     5
292
     1
282
     1
141
0.0
142
0.0
 63
   250
  0
ENDTAB
  0
TABLE
  2
LTYPE
  5
5
330
0
100
AcDbSymbolTable
 70
     2
  0
LTYPE
  5
14
330
5
100
AcDbSymbolTableRecord
100
AcDbLinetypeTableRecord
  2
ByBlock
 70
     0
  3

 72
    65
 73
     0
 40
0.0
  0
LTYPE
  5
15
330
5
100
AcDbSymbolTableRecord
100
AcDbLinetypeTableRecord
  2
ByLayer
 70
     0
  3

 72
    65
 73
     0
 40
0.0
  0
LTYPE
  5
16
330
5
100
AcDbSymbolTableRecord
100
AcDbLinetypeTableRecord
  2
Continuous
 70
     0
  3
Solid line
 72
    65
 73
     0
 40
0.0
  0
LTYPE
  5
3F
330
5
100
AcDbSymbolTableRecord
100
AcDbLinetypeTableRecord
  2
JWW_DASHED1
 70
     0
  3
-  --  --  --  --  --  --  --  -
 72
    65
 73
     2
 40
1.693333333333333
 49
0.8466666666666667
 74
     0
 49
-0.8466666666666667
 74
     0
  0
ENDTAB
  0
TABLE
  2
LAYER
  5
2
330
0
100
AcDbSymbolTable
 70
     4
  0
LAYER
  5
10
330
2
100
AcDbSymbolTableRecord
100
AcDbLayerTableRecord
  2
0
 70
     0
 62
     7
  6
Continuous
370
    -3
390
F
347
3E
  0
LAYER
  5
40
330
2
100
AcDbSymbolTableRecord
100
AcDbLayerTableRecord
  2
0-0
 70
     0
 62
     7
  6
Continuous
370
    -3
390
F
347
3E
  0
LAYER
  5
41
330
2
100
AcDbSymbolTableRecord
100
AcDbLayerTableRecord
  2
文字
 70
     0
 62
     7
  6
Continuous
370
    -3
390
F
347
3E
  0
LAYER
  5
42
330
2
100
AcDbSymbolTableRecord
100
AcDbLayerTableRecord
  2
寸法
 70
     0
 62
     7
  6
Continuous
370
    -3
390
F
347
3E
  0
ENDTAB
  0
TABLE
  2
STYLE
  5
3
330
0
100
AcDbSymbolTable
 70
     1
  0
STYLE
  5
11
330
3
100
AcDbSymbolTableRecord
100
AcDbTextStyleTableRecord
  2
Standard
 70
     0
 40
0.0
 41
1.0
 50
0.0
 71
     0
 42
2.5
  3
txt
  4

  0
ENDTAB
  0
TABLE
  2
VIEW
  5
6
330
0
100
AcDbSymbolTable
 70
     0
  0
ENDTAB
  0
TABLE
  2
UCS
  5
7
330
0
100
AcDbSymbolTable
 70
     0
  0
ENDTAB
  0
TABLE
  2
APPID
  5
9
330
0
100
AcDbSymbolTable
 70
     1
  0
APPID
  5
12
330
9
100
AcDbSymbolTableRecord
100
AcDbRegAppTableRecord
  2
ACAD
 70
     0
  0
ENDTAB
  0
TABLE
  2
DIMSTYLE
  5
A
330
0
100
AcDbSymbolTable
 70
     1
100
AcDbDimStyleTable
  0
DIMSTYLE
105
27
330
A
100
AcDbSymbolTableRecord
100
AcDbDimStyleTableRecord
  2
ISO-25
 70
     0
 41
2.5
 42
0.625
 43
3.75
 44
1.25
 73
     0
 74
     0
 77
     1
 78
     8
140
2.5
141
2.5
143
0.03937007874016
147
0.625
171
     3
172
     1
178
     0
271
     2
272
     2
274
     3
278
    44
283
     0
284
     8
340
11
  0
ENDTAB
  0
TABLE
  2
BLOCK_RECORD
  5
1
330
0
100
AcDbSymbolTable
 70
     1
  0
BLOCK_RECORD
  5
1F
330
1
100
AcDbSymbolTableRecord
100
AcDbBlockTableRecord
  2
*Model_Space
340
22
 70
     0
280
     1
281
     0
  0
BLOCK_RECORD
  5
1B
330
1
100
AcDbSymbolTableRecord
100
AcDbBlockTableRecord
  2
*Paper_Space
340
1E
 70
     0
280
     1
281
     0
  0
BLOCK_RECORD
  5
23
330
1
100
AcDbSymbolTableRecord
100
AcDbBlockTableRecord
  2
*Paper_Space0
340
26
 70
     0
280
     1
281
     0
  0
ENDTAB
  0
ENDSEC
  0
SECTION
  2
BLOCKS
  0
BLOCK
  5
20
330
1F
100
AcDbEntity
  8
0
100
AcDbBlockBegin
  2
*Model_Space
 70
     0
 10
0.0
 20
0.0
 30
0.0
  3
*Model_Space
  1

  0
ENDBLK
  5
21
330
1F
100
AcDbEntity
  8
0
100
AcDbBlockEnd
  0
BLOCK
  5
1C
330
1B
100
AcDbEntity
 67
     1
  8
0
100
AcDbBlockBegin
  2
*Paper_Space
 70
     0
 10
0.0
 20
0.0
 30
0.0
  3
*Paper_Space
  1

  0
ENDBLK
  5
1D
330
1B
100
AcDbEntity
 67
     1
  8
0
100
AcDbBlockEnd
  0
BLOCK
  5
24
330
23
100
AcDbEntity
  8
0
100
AcDbBlockBegin
  2
*Paper_Space0
 70
     0
 10
0.0
 20
0.0
 30
0.0
  3
*Paper_Space0
  1

  0
ENDBLK
  5
25
330
23
100
AcDbEntity
  8
0
100
AcDbBlockEnd
  0
ENDSEC
  0
SECTION
  2
ENTITIES
  0
LINE
  5
43
330
1F
100
AcDbEntity
  8
0-0
  6
Continuous
 62
    92
370
    13
100
AcDbLine
 10
-1591.155877947166
 20
1065.152028803941
 30
0.0
 11
1642.844122052833
 21
1065.152028803941
 31
0.0
  0
LINE
  5
44
330
1F
100
AcDbEntity
  8
0-0
  6
Continuous
 62
    92
370
    13
100
AcDbLine
 10
-1561.155877947166
 20
1029.15202880394
 30
0.0
 11
1612.844122052833
 21
1029.15202880394
 31
0.0
  0
LINE
  5
45
330
1F
100
AcDbEntity
  8
0-0
  6
Continuous
 62
    92
370
    13
100
AcDbLine
 10
1612.844122052833
 20
-981.8479711960589
 30
0.0
 11
1612.844122052833
 21
1065.152028803941
 31
0.0
  0
LINE
  5
46
330
1F
100
AcDbEntity
  8
0-0
  6
Continuous
 62
    92
370
    13
100
AcDbLine
 10
-1561.155877947166
 20
-981.8479711960589
 30
0.0
 11
-1561.155877947166
 21
1065.152028803941
 31
0.0
  0
LINE
  5
47
330
1F
100
AcDbEntity
  8
0-0
  6
Continuous
 62
    92
370
    13
100
AcDbLine
 10
1642.844122052833
 20
-981.8479711960589
 30
0.0
 11
1642.844122052833
 21
1065.152028803941
 31
0.0
  0
LINE
  5
48
330
1F
100
AcDbEntity
  8
0-0
  6
Continuous
 62
    92
370
    13
100
AcDbLine
 10
-1591.155877947166
 20
-981.8479711960589
 30
0.0
 11
-1591.155877947166
 21
1065.152028803941
 31
0.0
  0
LINE
  5
49
330
1F
100
AcDbEntity
  8
0-0
  6
Continuous
 62
    92
370
    13
100
AcDbLine
 10
1642.844122052833
 20
-981.8479711960589
 30
0.0
 11
-1591.155877947166
 21
-981.8479711960589
 31
0.0
  0
LINE
  5
4A
330
1F
100
AcDbEntity
  8
0-0
  6
Continuous
 62
    92
370
    13
100
AcDbLine
 10
1612.844122052833
 20
-966.8479711960589
 30
0.0
 11
-1561.155877947166
 21
-966.8479711960589
 31
0.0
  0
ARC
  5
4B
330
1F
100
AcDbEntity
  8
0-0
  6
Continuous
 62
    92
370
    13
100
AcDbCircle
 10
-1532.655877947164
 20
55.15202880394185
 30
0.0
 40
1.5
100
AcDbArc
 50
90.0
 51
180.0
  0
LINE
  5
4C
330
1F
100
AcDbEntity
  8
0-0
  6
Continuous
 62
    92
370
    13
100
AcDbLine
 10
-1493.655877947166
 20
56.65202880394133
 30
0.0
 11
-1532.655877947164
 21
56.65202880394133
 31
0.0
  0
ARC
  5
4D
330
1F
100
AcDbEntity
  8
0-0
  6
Continuous
 62
    92
370
    13
100
AcDbCircle
 10
-1493.655877947166
 20
55.15202880394185
 30
0.0
 40
1.5
100
AcDbArc
 50
0.0
 51
90.00000000000001
  0
LINE
  5
4E
330
1F
100
AcDbEntity
  8
0-0
  6
Continuous
 62
    92
370
    13
100
AcDbLine
 10
-1492.155877947165
 20
-63.84797119605821
 30
0.0
 11
-1492.155877947165
 21
55.15202880394185
 31
0.0
  0
ARC
  5
4F
330
1F
100
AcDbEntity
  8
0-0
  6
Continuous
 62
    92
370
    13
100
AcDbCircle
 10
-1493.655877947166
 20
-63.84797119605821
 30
0.0
 40
1.5
100
AcDbArc
 50
270.0
 51
0.0
  0
LINE
  5
50
330
1F
100
AcDbEntity
  8
0-0
  6
Continuous
 62
    92
370
    13
100
AcDbLine
 10
-1532.655877947164
 20
-65.34797119606026
 30
0.0
 11
-1493.655877947166
 21
-65.34797119606026
 31
0.0
  0
LINE
  5
51
330
1F
100
AcDbEntity
  8
0-0
  6
Continuous
 62
    92
370
    13
100
AcDbLine
 10
-1534.155877947165
 20
-63.84797119605821
 30
0.0
 11
-1534.155877947165
 21
55.15202880394185
 31
0.0
  0
ARC
  5
52
330
1F
100
AcDbEntity
  8
0-0
  6
Continuous
 62
    92
370
    13
100
AcDbCircle
 10
-1532.655877947164
 20
-63.84797119605821
 30
0.0
 40
1.5
100
AcDbArc
 50
180.0
 51
270.0
  0
ARC
  5
53
330
1F
100
AcDbEntity
  8
0-0
  6
Continuous
 62
     7
370
     9
100
AcDbCircle
 10
-1513.155877947165
 20
-33.94797119605812
 30
0.0
 40
15.0
100
AcDbArc
 50
180.0
 51
0.0
  0
ARC
  5
54
330
1F
100
AcDbEntity
  8
0-0
  6
Continuous
 62
     7
370
     9
100
AcDbCircle
 10
-1513.155877947165
 20
25.25202880394176
 30
0.0
 40
15.0
100
AcDbArc
 50
0.0
 51
180.0
  0
LINE
  5
55
330
1F
100
AcDbEntity
  8
0-0
  6
Continuous
 62
     7
370
     9
100
AcDbLine
 10
-1498.155877947165
 20
-33.94797119605812
 30
0.0
 11
-1498.155877947165
 21
25.25202880394176
 31
0.0
  0
LINE
  5
56
330
1F
100
AcDbEntity
  8
0-0
  6
Continuous
 62
     7
370
     9
100
AcDbLine
 10
-1528.155877947165
 20
25.25202880394176
 30
0.0
 11
-1528.155877947165
 21
-33.94797119605812
 31
0.0
  0
ARC
  5
57
330
1F
100
AcDbEntity
  8
0-0
  6
Continuous
 62
    92
370
    13
100
AcDbCircle
 10
-44.65587794716356
 20
55.15202880394185
 30
0.0
 40
1.5
100
AcDbArc
 50
90.0
 51
180.0
  0
LINE
  5
58
330
1F
100
AcDbEntity
  8
0-0
  6
Continuous
 62
    92
370
    13
100
AcDbLine
 10
-5.655877947164925
 20
56.65202880394133
 30
0.0
 11
-44.65587794716356
 21
56.65202880394133
 31
0.0
  0
ARC
  5
59
330
1F
100
AcDbEntity
  8
0-0
  6
Continuous
 62
    92
370
    13
100
AcDbCircle
 10
-5.655877947164925
 20
55.15202880394185
 30
0.0
 40
1.5
100
AcDbArc
 50
0.0
 51
90.00000000000001
  0
LINE
  5
5A
330
1F
100
AcDbEntity
  8
0-0
  6
Continuous
 62
    92
370
    13
100
AcDbLine
 10
-4.155877947164583
 20
-63.84797119605821
 30
0.0
 11
-4.155877947164583
 21
55.15202880394185
 31
0.0
  0
ARC
  5
5B
330
1F
100
AcDbEntity
  8
0-0
  6
Continuous
 62
    92
370
    13
100
AcDbCircle
 10
-5.655877947164925
 20
-63.84797119605821
 30
0.0
 40
1.5
100
AcDbArc
 50
270.0
 51
0.0
  0
LINE
  5
5C
330
1F
100
AcDbEntity
  8
0-0
  6
Continuous
 62
    92
370
    13
100
AcDbLine
 10
-44.65587794716356
 20
-65.34797119606026
 30
0.0
 11
-5.655877947164925
 21
-65.34797119606026
 31
0.0
  0
LINE
  5
5D
330
1F
100
AcDbEntity
  8
0-0
  6
Continuous
 62
    92
370
    13
100
AcDbLine
 10
-46.1558779471639
 20
-63.84797119605821
 30
0.0
 11
-46.1558779471639
 21
55.15202880394185
 31
0.0
  0
ARC
  5
5E
330
1F
100
AcDbEntity
  8
0-0
  6
Continuous
 62
    92
370
    13
100
AcDbCircle
 10
-44.65587794716356
 20
-63.84797119605821
 30
0.0
 40
1.5
100
AcDbArc
 50
180.0
 51
270.0
  0
ARC
  5
5F
330
1F
100
AcDbEntity
  8
0-0
  6
Continuous
 62
     7
370
     9
100
AcDbCircle
 10
-25.15587794716424
 20
-33.94797119605812
 30
0.0
 40
15.0
100
AcDbArc
 50
180.0
 51
0.0
  0
ARC
  5
60
330
1F
100
AcDbEntity
  8
0-0
  6
Continuous
 62
     7
370
     9
100
AcDbCircle
 10
-25.15587794716424
 20
25.25202880394176
 30
0.0
 40
15.0
100
AcDbArc
 50
0.0
 51
180.0
  0
LINE
  5
61
330
1F
100
AcDbEntity
  8
0-0
  6
Continuous
 62
     7
370
     9
100
AcDbLine
 10
-10.15587794716424
 20
-33.94797119605812
 30
0.0
 11
-10.15587794716424
 21
25.25202880394176
 31
0.0
  0
LINE
  5
62
330
1F
100
AcDbEntity
  8
0-0
  6
Continuous
 62
     7
370
     9
100
AcDbLine
 10
-40.15587794716424
 20
25.25202880394176
 30
0.0
 11
-40.15587794716424
 21
-33.94797119605812
 31
0.0
  0
ARC
  5
63
330
1F
100
AcDbEntity
  8
0-0
  6
Continuous
 62
    92
370
    13
100
AcDbCircle
 10
57.34412205283235
 20
55.15202880394185
 30
0.0
 40
1.5
100
AcDbArc
 50
90.0
 51
180.0
  0
LINE
  5
64
330
1F
100
AcDbEntity
  8
0-0
  6
Continuous
 62
    92
370
    13
100
AcDbLine
 10
96.34412205283098
 20
56.65202880394133
 30
0.0
 11
57.34412205283235
 21
56.65202880394133
 31
0.0
  0
ARC
  5
65
330
1F
100
AcDbEntity
  8
0-0
  6
Continuous
 62
    92
370
    13
100
AcDbCircle
 10
96.34412205283098
 20
55.15202880394185
 30
0.0
 40
1.5
100
AcDbArc
 50
0.0
 51
90.00000000000001
  0
LINE
  5
66
330
1F
100
AcDbEntity
  8
0-0
  6
Continuous
 62
    92
370
    13
100
AcDbLine
 10
97.84412205283132
 20
-63.84797119605821
 30
0.0
 11
97.84412205283132
 21
55.15202880394185
 31
0.0
  0
ARC
  5
67
330
1F
100
AcDbEntity
  8
0-0
  6
Continuous
 62
    92
370
    13
100
AcDbCircle
 10
96.34412205283098
 20
-63.84797119605821
 30
0.0
 40
1.5
100
AcDbArc
 50
270.0
 51
0.0
  0
LINE
  5
68
330
1F
100
AcDbEntity
  8
0-0
  6
Continuous
 62
    92
370
    13
100
AcDbLine
 10
57.34412205283235
 20
-65.34797119606026
 30
0.0
 11
96.34412205283098
 21
-65.34797119606026
 31
0.0
  0
LINE
  5
69
330
1F
100
AcDbEntity
  8
0-0
  6
Continuous
 62
    92
370
    13
100
AcDbLine
 10
55.84412205283201
 20
-63.84797119605821
 30
0.0
 11
55.84412205283201
 21
55.15202880394185
 31
0.0
  0
ARC
  5
6A
330
1F
100
AcDbEntity
  8
0-0
  6
Continuous
 62
    92
370
    13
100
AcDbCircle
 10
57.34412205283235
 20
-63.84797119605821
 30
0.0
 40
1.5
100
AcDbArc
 50
180.0
 51
270.0
  0
ARC
  5
6B
330
1F
100
AcDbEntity
  8
0-0
  6
Continuous
 62
     7
370
     9
100
AcDbCircle
 10
76.84412205283166
 20
-33.94797119605812
 30
0.0
 40
15.0
100
AcDbArc
 50
180.0
 51
0.0
  0
ARC
  5
6C
330
1F
100
AcDbEntity
  8
0-0
  6
Continuous
 62
     7
370
     9
100
AcDbCircle
 10
76.84412205283166
 20
25.25202880394176
 30
0.0
 40
15.0
100
AcDbArc
 50
0.0
 51
180.0
  0
LINE
  5
6D
330
1F
100
AcDbEntity
  8
0-0
  6
Continuous
 62
     7
370
     9
100
AcDbLine
 10
91.84412205283166
 20
-33.94797119605812
 30
0.0
 11
91.84412205283166
 21
25.25202880394176
 31
0.0
  0
LINE
  5
6E
330
1F
100
AcDbEntity
  8
0-0
  6
Continuous
 62
     7
370
     9
100
AcDbLine
 10
61.84412205283166
 20
25.25202880394176
 30
0.0
 11
61.84412205283166
 21
-33.94797119605812
 31
0.0
  0
ARC
  5
6F
330
1F
100
AcDbEntity
  8
0-0
  6
Continuous
 62
    92
370
    13
100
AcDbCircle
 10
1545.344122052836
 20
55.15202880394185
 30
0.0
 40
1.5
100
AcDbArc
 50
90.0
 51
180.0
  0
LINE
  5
70
330
1F
100
AcDbEntity
  8
0-0
  6
Continuous
 62
    92
370
    13
100
AcDbLine
 10
1584.344122052836
 20
56.65202880394133
 30
0.0
 11
1545.344122052836
 21
56.65202880394133
 31
0.0
  0
ARC
  5
71
330
1F
100
AcDbEntity
  8
0-0
  6
Continuous
 62
    92
370
    13
100
AcDbCircle
 10
1584.344122052836
 20
55.15202880394185
 30
0.0
 40
1.5
100
AcDbArc
 50
0.0
 51
90.00000000000001
  0
LINE
  5
72
330
1F
100
AcDbEntity
  8
0-0
  6
Continuous
 62
    92
370
    13
100
AcDbLine
 10
1585.844122052835
 20
-63.84797119605821
 30
0.0
 11
1585.844122052835
 21
55.15202880394185
 31
0.0
  0
ARC
  5
73
330
1F
100
AcDbEntity
  8
0-0
  6
Continuous
 62
    92
370
    13
100
AcDbCircle
 10
1584.344122052836
 20
-63.84797119605821
 30
0.0
 40
1.5
100
AcDbArc
 50
270.0
 51
0.0
  0
LINE
  5
74
330
1F
100
AcDbEntity
  8
0-0
  6
Continuous
 62
    92
370
    13
100
AcDbLine
 10
1545.344122052836
 20
-65.34797119606026
 30
0.0
 11
1584.344122052836
 21
-65.34797119606026
 31
0.0
  0
LINE
  5
75
330
1F
100
AcDbEntity
  8
0-0
  6
Continuous
 62
    92
370
    13
100
AcDbLine
 10
1543.844122052836
 20
-63.84797119605821
 30
0.0
 11
1543.844122052836
 21
55.15202880394185
 31
0.0
  0
ARC
  5
76
330
1F
100
AcDbEntity
  8
0-0
  6
Continuous
 62
    92
370
    13
100
AcDbCircle
 10
1545.344122052836
 20
-63.84797119605821
 30
0.0
 40
1.5
100
AcDbArc
 50
180.0
 51
270.0
  0
ARC
  5
77
330
1F
100
AcDbEntity
  8
0-0
  6
Continuous
 62
     7
370
     9
100
AcDbCircle
 10
1564.844122052836
 20
-33.94797119605812
 30
0.0
 40
15.0
100
AcDbArc
 50
180.0
 51
0.0
  0
ARC
  5
78
330
1F
100
AcDbEntity
  8
0-0
  6
Continuous
 62
     7
370
     9
100
AcDbCircle
 10
1564.844122052836
 20
25.25202880394176
 30
0.0
 40
15.0
100
AcDbArc
 50
0.0
 51
180.0
  0
LINE
  5
79
330
1F
100
AcDbEntity
  8
0-0
  6
Continuous
 62
     7
370
     9
100
AcDbLine
 10
1579.844122052836
 20
-33.94797119605812
 30
0.0
 11
1579.844122052836
 21
25.25202880394176
 31
0.0
  0
LINE
  5
7A
330
1F
100
AcDbEntity
  8
0-0
  6
Continuous
 62
     7
370
     9
100
AcDbLine
 10
1549.844122052836
 20
25.25202880394176
 30
0.0
 11
1549.844122052836
 21
-33.94797119605812
 31
0.0
  0
LINE
  5
7B
330
1F
100
AcDbEntity
  8
0-0
  6
Continuous
 62
    92
370
    13
100
AcDbLine
 10
-784.1558779471663
 20
-961.8479711960592
 30
0.0
 11
-784.1558779471663
 21
1021.152028803941
 31
0.0
  0
LINE
  5
7C
330
1F
100
AcDbEntity
  8
0-0
  6
JWW_DASHED1
 62
   120
370
     5
100
AcDbLine
 10
-754.1558779471663
 20
-961.8479711960592
 30
0.0
 11
-754.1558779471663
 21
1021.152028803941
 31
0.0
  0
LINE
  5
7D
330
1F
100
AcDbEntity
  8
0-0
  6
Continuous
 62
    92
370
    13
100
AcDbLine
 10
-1561.155877947166
 20
-961.8479711960592
 30
0.0
 11
25.84412205283371
 21
-961.8479711960592
 31
0.0
  0
LINE
  5
7E
330
1F
100
AcDbEntity
  8
0-0
  6
Continuous
 62
    92
370
    13
100
AcDbLine
 10
-1561.155877947166
 20
1021.152028803941
 30
0.0
 11
25.84412205283371
 21
1021.152028803941
 31
0.0
  0
LINE
  5
7F
330
1F
100
AcDbEntity
  8
0-0
  6
Continuous
 62
    92
370
    13
100
AcDbLine
 10
25.84412205283371
 20
-961.8479711960592
 30
0.0
 11
25.84412205283371
 21
1021.152028803941
 31
0.0
  0
LINE
  5
80
330
1F
100
AcDbEntity
  8
0-0
  6
Continuous
 62
    92
370
    13
100
AcDbLine
 10
835.8441220528337
 20
-961.8479711960592
 30
0.0
 11
835.8441220528337
 21
1021.152028803941
 31
0.0
  0
LINE
  5
81
330
1F
100
AcDbEntity
  8
0-0
  6
JWW_DASHED1
 62
   120
370
     5
100
AcDbLine
 10
805.8441220528337
 20
-961.8479711960592
 30
0.0
 11
805.8441220528337
 21
1021.152028803941
 31
0.0
  0
LINE
  5
82
330
1F
100
AcDbEntity
  8
0-0
  6
Continuous
 62
    92
370
    13
100
AcDbLine
 10
1612.844122052833
 20
-961.8479711960592
 30
0.0
 11
25.84412205283371
 21
-961.8479711960592
 31
0.0
  0
LINE
  5
83
330
1F
100
AcDbEntity
  8
0-0
  6
Continuous
 62
    92
370
    13
100
AcDbLine
 10
1612.844122052833
 20
1021.152028803941
 30
0.0
 11
25.84412205283371
 21
1021.152028803941
 31
0.0
  0
LINE
  5
84
330
1F
100
AcDbEntity
  8
0-0
  6
JWW_DASHED1
 62
   120
370
     5
100
AcDbLine
 10
-1561.155877947166
 20
-961.8479711960592
 30
0.0
 11
-1564.155877947166
 21
-961.8479711960592
 31
0.0
  0
LINE
  5
85
330
1F
100
AcDbEntity
  8
0-0
  6
JWW_DASHED1
 62
   120
370
     5
100
AcDbLine
 10
-1564.155877947166
 20
-961.8479711960592
 30
0.0
 11
-1564.155877947166
 21
1021.152028803941
 31
0.0
  0
LINE
  5
86
330
1F
100
AcDbEntity
  8
0-0
  6
JWW_DASHED1
 62
   120
370
     5
100
AcDbLine
 10
-1564.155877947166
 20
1021.152028803941
 30
0.0
 11
-1561.155877947166
 21
1021.152028803941
 31
0.0
  0
LINE
  5
87
330
1F
100
AcDbEntity
  8
0-0
  6
JWW_DASHED1
 62
   120
370
     5
100
AcDbLine
 10
1612.844122052833
 20
-961.8479711960592
 30
0.0
 11
1615.844122052834
 21
-961.8479711960592
 31
0.0
  0
LINE
  5
88
330
1F
100
AcDbEntity
  8
0-0
  6
JWW_DASHED1
 62
   120
370
     5
100
AcDbLine
 10
1615.844122052834
 20
-961.8479711960592
 30
0.0
 11
1615.844122052834
 21
1021.152028803941
 31
0.0
  0
LINE
  5
89
330
1F
100
AcDbEntity
  8
0-0
  6
JWW_DASHED1
 62
   120
370
     5
100
AcDbLine
 10
1615.844122052834
 20
1021.152028803941
 30
0.0
 11
1612.844122052833
 21
1021.152028803941
 31
0.0
  0
LINE
  5
8A
330
1F
100
AcDbEntity
  8
0-0
  6
JWW_DASHED1
 62
   120
370
     5
100
AcDbLine
 10
1425.844122052834
 20
1005.340739032893
 30
0.0
 11
1433.655411823881
 21
1013.15202880394
 31
0.0
  0
LINE
  5
8B
330
1F
100
AcDbEntity
  8
0-0
  6
JWW_DASHED1
 62
   120
370
     5
100
AcDbLine
 10
1425.844122052828
 20
995.4412440976691
 30
0.0
 11
1443.554906759102
 21
1013.152028803944
 31
0.0
  0
LINE
  5
8C
330
1F
100
AcDbEntity
  8
0-0
  6
JWW_DASHED1
 62
   120
370
     5
100
AcDbLine
 10
1425.84412205282
 20
985.5417491624451
 30
0.0
 11
1453.454401694324
 21
1013.15202880395
 31
0.0
  0
LINE
  5
8D
330
1F
100
AcDbEntity
  8
0-0
  6
JWW_DASHED1
 62
   120
370
     5
100
AcDbLine
 10
1425.844122052833
 20
975.642254227296
 30
0.0
 11
1463.353896629478
 21
1013.152028803942
 31
0.0
  0
LINE
  5
8E
330
1F
100
AcDbEntity
  8
0-0
  6
JWW_DASHED1
 62
   120
370
     5
100
AcDbLine
 10
1425.844122052841
 20
965.7427592920883
 30
0.0
 11
1473.253391564687
 21
1013.152028803934
 31
0.0
  0
LINE
  5
8F
330
1F
100
AcDbEntity
  8
0-0
  6
JWW_DASHED1
 62
   120
370
     5
100
AcDbLine
 10
1425.844122052817
 20
955.8432643568481
 30
0.0
 11
1483.152886499915
 21
1013.152028803946
 31
0.0
  0
LINE
  5
90
330
1F
100
AcDbEntity
  8
0-0
  6
JWW_DASHED1
 62
   120
370
     5
100
AcDbLine
 10
1425.84412205283
 20
945.9437694216995
 30
0.0
 11
1493.052381435076
 21
1013.152028803945
 31
0.0
  0
LINE
  5
91
330
1F
100
AcDbEntity
  8
0-0
  6
JWW_DASHED1
 62
   120
370
     5
100
AcDbLine
 10
1425.844122052838
 20
936.0442744864916
 30
0.0
 11
1502.951876370284
 21
1013.152028803937
 31
0.0
  0
LINE
  5
92
330
1F
100
AcDbEntity
  8
0-0
  6
JWW_DASHED1
 62
   120
370
     5
100
AcDbLine
 10
1425.844122052816
 20
926.1447795512527
 30
0.0
 11
1505.84412205283
 21
1006.144779551266
 31
0.0
  0
LINE
  5
93
330
1F
100
AcDbEntity
  8
0-0
  6
JWW_DASHED1
 62
   120
370
     5
100
AcDbLine
 10
1425.844122052828
 20
916.2452846161028
 30
0.0
 11
1505.844122052826
 21
996.2452846161012
 31
0.0
  0
LINE
  5
94
330
1F
100
AcDbEntity
  8
0-0
  6
JWW_DASHED1
 62
   120
370
     5
100
AcDbLine
 10
1425.844122052836
 20
906.3457896808945
 30
0.0
 11
1505.844122052835
 21
986.3457896808934
 31
0.0
  0
LINE
  5
95
330
1F
100
AcDbEntity
  8
0-0
  6
JWW_DASHED1
 62
   120
370
     5
100
AcDbLine
 10
1425.844122052814
 20
896.4462947456557
 30
0.0
 11
1505.844122052828
 21
976.4462947456698
 31
0.0
  0
LINE
  5
96
330
1F
100
AcDbEntity
  8
0-0
  6
JWW_DASHED1
 62
   120
370
     5
100
AcDbLine
 10
1425.844122052826
 20
886.5467998105062
 30
0.0
 11
1505.844122052825
 21
966.5467998105046
 31
0.0
  0
LINE
  5
97
330
1F
100
AcDbEntity
  8
0-0
  6
JWW_DASHED1
 62
   120
370
     5
100
AcDbLine
 10
1425.844122052834
 20
876.647304875298
 30
0.0
 11
1505.844122052833
 21
956.6473048752969
 31
0.0
  0
LINE
  5
98
330
1F
100
AcDbEntity
  8
0-0
  6
JWW_DASHED1
 62
   120
370
     5
100
AcDbLine
 10
1425.844122052843
 20
866.7478099400901
 30
0.0
 11
1505.844122052842
 21
946.7478099400889
 31
0.0
  0
LINE
  5
99
330
1F
100
AcDbEntity
  8
0-0
  6
JWW_DASHED1
 62
   120
370
     5
100
AcDbLine
 10
1425.844122052823
 20
856.8483150049092
 30
0.0
 11
1505.844122052823
 21
936.848315004908
 31
0.0
  0
LINE
  5
9A
330
1F
100
AcDbEntity
  8
0-0
  6
JWW_DASHED1
 62
   120
370
     5
100
AcDbLine
 10
1425.844122052833
 20
846.9488200697014
 30
0.0
 11
1505.844122052831
 21
926.9488200697002
 31
0.0
  0
LINE
  5
9B
330
1F
100
AcDbEntity
  8
0-0
  6
JWW_DASHED1
 62
   120
370
     5
100
AcDbLine
 10
1425.84412205284
 20
837.0493251344931
 30
0.0
 11
1505.844122052839
 21
917.0493251344919
 31
0.0
  0
LINE
  5
9C
330
1F
100
AcDbEntity
  8
0-0
  6
JWW_DASHED1
 62
   120
370
     5
100
AcDbLine
 10
1425.844122052822
 20
827.1498301993125
 30
0.0
 11
1505.844122052837
 21
907.1498301993272
 31
0.0
  0
LINE
  5
9D
330
1F
100
AcDbEntity
  8
0-0
  6
JWW_DASHED1
 62
   120
370
     5
100
AcDbLine
 10
1425.84412205283
 20
817.2503352641047
 30
0.0
 11
1505.844122052829
 21
897.2503352641036
 31
0.0
  0
LINE
  5
9E
330
1F
100
AcDbEntity
  8
0-0
  6
JWW_DASHED1
 62
   120
370
     5
100
AcDbLine
 10
1425.844122052838
 20
807.3508403288961
 30
0.0
 11
1505.844122052837
 21
887.350840328895
 31
0.0
  0
LINE
  5
9F
330
1F
100
AcDbEntity
  8
0-0
  6
JWW_DASHED1
 62
   120
370
     5
100
AcDbLine
 10
1425.844122052819
 20
797.4513453937159
 30
0.0
 11
1505.844122052834
 21
877.4513453937305
 31
0.0
  0
LINE
  5
A0
330
1F
100
AcDbEntity
  8
0-0
  6
JWW_DASHED1
 62
   120
370
     5
100
AcDbLine
 10
1425.844122052828
 20
787.5518504585077
 30
0.0
 11
1505.844122052826
 21
867.5518504585066
 31
0.0
  0
LINE
  5
A1
330
1F
100
AcDbEntity
  8
0-0
  6
JWW_DASHED1
 62
   120
370
     5
100
AcDbLine
 10
1425.844122052836
 20
777.6523555232998
 30
0.0
 11
1505.844122052835
 21
857.6523555232986
 31
0.0
  0
LINE
  5
A2
330
1F
100
AcDbEntity
  8
0-0
  6
JWW_DASHED1
 62
   120
370
     5
100
AcDbLine
 10
1425.844122052817
 20
767.7528605881193
 30
0.0
 11
1505.844122052831
 21
847.7528605881339
 31
0.0
  0
LINE
  5
A3
330
1F
100
AcDbEntity
  8
0-0
  6
JWW_DASHED1
 62
   120
370
     5
100
AcDbLine
 10
1425.844122052826
 20
757.8533656529114
 30
0.0
 11
1505.844122052824
 21
837.8533656529099
 31
0.0
  0
LINE
  5
A4
330
1F
100
AcDbEntity
  8
0-0
  6
JWW_DASHED1
 62
   120
370
     5
100
AcDbLine
 10
1425.844122052833
 20
747.9538707177032
 30
0.0
 11
1505.844122052833
 21
827.9538707177021
 31
0.0
  0
LINE
  5
A5
330
1F
100
AcDbEntity
  8
0-0
  6
JWW_DASHED1
 62
   120
370
     5
100
AcDbLine
 10
1425.844122052817
 20
738.0543757825249
 30
0.0
 11
1505.844122052831
 21
818.0543757825386
 31
0.0
  0
LINE
  5
A6
330
1F
100
AcDbEntity
  8
0-0
  6
JWW_DASHED1
 62
   120
370
     5
100
AcDbLine
 10
1425.844122052823
 20
728.1548808473144
 30
0.0
 11
1505.844122052822
 21
808.1548808473133
 31
0.0
  0
LINE
  5
A7
330
1F
100
AcDbEntity
  8
0-0
  6
JWW_DASHED1
 62
   120
370
     5
100
AcDbLine
 10
1425.844122052834
 20
718.255385912136
 30
0.0
 11
1505.844122052832
 21
798.2553859121344
 31
0.0
  0
LINE
  5
A8
330
1F
100
AcDbEntity
  8
0-0
  6
JWW_DASHED1
 62
   120
370
     5
100
AcDbLine
 10
1425.844122052828
 20
708.3558909769414
 30
0.0
 11
1505.844122052843
 21
788.3558909769561
 31
0.0
  0
LINE
  5
A9
330
1F
100
AcDbEntity
  8
0-0
  6
JWW_DASHED1
 62
   120
370
     5
100
AcDbLine
 10
1425.844122052822
 20
698.4563960417182
 30
0.0
 11
1505.844122052836
 21
778.4563960417324
 31
0.0
  0
LINE
  5
AA
330
1F
100
AcDbEntity
  8
0-0
  6
JWW_DASHED1
 62
   120
370
     5
100
AcDbLine
 10
1425.844122052832
 20
688.5569011065394
 30
0.0
 11
1505.844122052831
 21
768.5569011065382
 31
0.0
  0
LINE
  5
AB
330
1F
100
AcDbEntity
  8
0-0
  6
JWW_DASHED1
 62
   120
370
     5
100
AcDbLine
 10
1425.844122052842
 20
678.657406171361
 30
0.0
 11
1505.844122052841
 21
758.6574061713594
 31
0.0
  0
LINE
  5
AC
330
1F
100
AcDbEntity
  8
0-0
  6
JWW_DASHED1
 62
   120
370
     5
100
AcDbLine
 10
1425.844122052819
 20
668.7579112361211
 30
0.0
 11
1505.844122052833
 21
748.7579112361354
 31
0.0
  0
LINE
  5
AD
330
1F
100
AcDbEntity
  8
0-0
  6
JWW_DASHED1
 62
   120
370
     5
100
AcDbLine
 10
1425.844122052829
 20
658.8584163009427
 30
0.0
 11
1505.844122052828
 21
738.8584163009411
 31
0.0
  0
LINE
  5
AE
330
1F
100
AcDbEntity
  8
0-0
  6
JWW_DASHED1
 62
   120
370
     5
100
AcDbLine
 10
1425.844122052839
 20
648.9589213657639
 30
0.0
 11
1505.844122052838
 21
728.9589213657628
 31
0.0
  0
LINE
  5
AF
330
1F
100
AcDbEntity
  8
0-0
  6
JWW_DASHED1
 62
   120
370
     5
100
AcDbLine
 10
1425.84412205282
 20
639.0594264305275
 30
0.0
 11
1505.844122052833
 21
719.059426430541
 31
0.0
  0
LINE
  5
B0
330
1F
100
AcDbEntity
  8
0-0
  6
JWW_DASHED1
 62
   120
370
     5
100
AcDbLine
 10
1425.844122052828
 20
629.1599314953457
 30
0.0
 11
1505.844122052825
 21
709.1599314953446
 31
0.0
  0
LINE
  5
B1
330
1F
100
AcDbEntity
  8
0-0
  6
JWW_DASHED1
 62
   120
370
     5
100
AcDbLine
 10
1425.844122052838
 20
619.2604365601674
 30
0.0
 11
1505.844122052837
 21
699.2604365601662
 31
0.0
  0
LINE
  5
B2
330
1F
100
AcDbEntity
  8
0-0
  6
JWW_DASHED1
 62
   120
370
     5
100
AcDbLine
 10
1425.84412205283
 20
609.3609416249433
 30
0.0
 11
1505.844122052845
 21
689.3609416249583
 31
0.0
  0
LINE
  5
B3
330
1F
100
AcDbEntity
  8
0-0
  6
JWW_DASHED1
 62
   120
370
     5
100
AcDbLine
 10
1425.844122052828
 20
599.4614466897785
 30
0.0
 11
1505.844122052825
 21
679.4614466897774
 31
0.0
  0
LINE
  5
B4
330
1F
100
AcDbEntity
  8
0-0
  6
JWW_DASHED1
 62
   120
370
     5
100
AcDbLine
 10
1425.844122052836
 20
589.5619517545707
 30
0.0
 11
1505.844122052834
 21
669.5619517545691
 31
0.0
  0
LINE
  5
B5
330
1F
100
AcDbEntity
  8
0-0
  6
JWW_DASHED1
 62
   120
370
     5
100
AcDbLine
 10
1425.844122052844
 20
579.6624568193624
 30
0.0
 11
1505.844122052843
 21
659.6624568193613
 31
0.0
  0
LINE
  5
B6
330
1F
100
AcDbEntity
  8
0-0
  6
JWW_DASHED1
 62
   120
370
     5
100
AcDbLine
 10
1425.844122052825
 20
569.7629618841819
 30
0.0
 11
1505.844122052824
 21
649.7629618841808
 31
0.0
  0
LINE
  5
B7
330
1F
100
AcDbEntity
  8
0-0
  6
JWW_DASHED1
 62
   120
370
     5
100
AcDbLine
 10
1425.844122052833
 20
559.8634669489741
 30
0.0
 11
1505.844122052831
 21
639.8634669489725
 31
0.0
  0
LINE
  5
B8
330
1F
100
AcDbEntity
  8
0-0
  6
JWW_DASHED1
 62
   120
370
     5
100
AcDbLine
 10
1425.844122052841
 20
549.9639720137658
 30
0.0
 11
1505.844122052841
 21
629.9639720137651
 31
0.0
  0
LINE
  5
B9
330
1F
100
AcDbEntity
  8
0-0
  6
JWW_DASHED1
 62
   120
370
     5
100
AcDbLine
 10
1425.844122052822
 20
540.0644770785852
 30
0.0
 11
1505.844122052838
 21
620.0644770785999
 31
0.0
  0
LINE
  5
BA
330
1F
100
AcDbEntity
  8
0-0
  6
JWW_DASHED1
 62
   120
370
     5
100
AcDbLine
 10
1425.844122052831
 20
530.1649821433774
 30
0.0
 11
1505.84412205283
 21
610.1649821433759
 31
0.0
  0
LINE
  5
BB
330
1F
100
AcDbEntity
  8
0-0
  6
JWW_DASHED1
 62
   120
370
     5
100
AcDbLine
 10
1425.844122052839
 20
520.2654872081691
 30
0.0
 11
1505.844122052838
 21
600.265487208168
 31
0.0
  0
LINE
  5
BC
330
1F
100
AcDbEntity
  8
0-0
  6
JWW_DASHED1
 62
   120
370
     5
100
AcDbLine
 10
1425.844122052821
 20
510.3659922729886
 30
0.0
 11
1505.844122052835
 21
590.3659922730028
 31
0.0
  0
LINE
  5
BD
330
1F
100
AcDbEntity
  8
0-0
  6
JWW_DASHED1
 62
   120
370
     5
100
AcDbLine
 10
1425.844122052829
 20
500.4664973377804
 30
0.0
 11
1505.844122052828
 21
580.4664973377793
 31
0.0
  0
LINE
  5
BE
330
1F
100
AcDbEntity
  8
0-0
  6
JWW_DASHED1
 62
   120
370
     5
100
AcDbLine
 10
1425.844122052837
 20
490.5670024025726
 30
0.0
 11
1505.844122052837
 21
570.5670024025715
 31
0.0
  0
LINE
  5
BF
330
1F
100
AcDbEntity
  8
0-0
  6
JWW_DASHED1
 62
   120
370
     5
100
AcDbLine
 10
1425.844122052818
 20
480.6675074673921
 30
0.0
 11
1505.844122052832
 21
560.6675074674063
 31
0.0
  0
LINE
  5
C0
330
1F
100
AcDbEntity
  8
0-0
  6
JWW_DASHED1
 62
   120
370
     5
100
AcDbLine
 10
1425.844122052827
 20
470.7680125321838
 30
0.0
 11
1505.844122052825
 21
550.7680125321826
 31
0.0
  0
LINE
  5
C1
330
1F
100
AcDbEntity
  8
0-0
  6
JWW_DASHED1
 62
   120
370
     5
100
AcDbLine
 10
1425.844122052835
 20
460.8685175969759
 30
0.0
 11
1505.844122052834
 21
540.8685175969748
 31
0.0
  0
LINE
  5
C2
330
1F
100
AcDbEntity
  8
0-0
  6
JWW_DASHED1
 62
   120
370
     5
100
AcDbLine
 10
1425.844122052821
 20
450.9690226617997
 30
0.0
 11
1505.844122052834
 21
530.9690226618135
 31
0.0
  0
LINE
  5
C3
330
1F
100
AcDbEntity
  8
0-0
  6
JWW_DASHED1
 62
   120
370
     5
100
AcDbLine
 10
1425.844122052824
 20
441.0695277265871
 30
0.0
 11
1505.844122052839
 21
521.0695277266018
 31
0.0
  0
LINE
  5
C4
330
1F
100
AcDbEntity
  8
0-0
  6
JWW_DASHED1
 62
   120
370
     5
100
AcDbLine
 10
1425.844122052833
 20
431.1700327913789
 30
0.0
 11
1505.844122052831
 21
511.1700327913778
 31
0.0
  0
LINE
  5
C5
330
1F
100
AcDbEntity
  8
0-0
  6
JWW_DASHED1
 62
   120
370
     5
100
AcDbLine
 10
1425.844122052845
 20
421.2705378562299
 30
0.0
 11
1505.844122052844
 21
501.2705378562288
 31
0.0
  0
LINE
  5
C6
330
1F
100
AcDbEntity
  8
0-0
  6
JWW_DASHED1
 62
   120
370
     5
100
AcDbLine
 10
1425.844122052822
 20
411.3710429209905
 30
0.0
 11
1505.844122052837
 21
491.3710429210051
 31
0.0
  0
LINE
  5
C7
330
1F
100
AcDbEntity
  8
0-0
  6
JWW_DASHED1
 62
   120
370
     5
100
AcDbLine
 10
1425.844122052831
 20
401.4715479857827
 30
0.0
 11
1505.84412205283
 21
481.4715479857812
 31
0.0
  0
LINE
  5
C8
330
1F
100
AcDbEntity
  8
0-0
  6
JWW_DASHED1
 62
   120
370
     5
100
AcDbLine
 10
1425.844122052843
 20
391.5720530506333
 30
0.0
 11
1505.844122052842
 21
471.5720530506321
 31
0.0
  0
LINE
  5
C9
330
1F
100
AcDbEntity
  8
0-0
  6
JWW_DASHED1
 62
   120
370
     5
100
AcDbLine
 10
1425.84412205282
 20
381.6725581153939
 30
0.0
 11
1505.844122052835
 21
461.6725581154085
 31
0.0
  0
LINE
  5
CA
330
1F
100
AcDbEntity
  8
0-0
  6
JWW_DASHED1
 62
   120
370
     5
100
AcDbLine
 10
1425.844122052828
 20
371.7730631801857
 30
0.0
 11
1505.844122052827
 21
451.7730631801845
 31
0.0
  0
LINE
  5
CB
330
1F
100
AcDbEntity
  8
0-0
  6
JWW_DASHED1
 62
   120
370
     5
100
AcDbLine
 10
1425.844122052841
 20
361.8735682450367
 30
0.0
 11
1505.84412205284
 21
441.8735682450355
 31
0.0
  0
LINE
  5
CC
330
1F
100
AcDbEntity
  8
0-0
  6
JWW_DASHED1
 62
   120
370
     5
100
AcDbLine
 10
1425.844122052823
 20
351.9740733098024
 30
0.0
 11
1505.844122052837
 21
431.9740733098162
 31
0.0
  0
LINE
  5
CD
330
1F
100
AcDbEntity
  8
0-0
  6
JWW_DASHED1
 62
   120
370
     5
100
AcDbLine
 10
1425.844122052826
 20
342.074578374589
 30
0.0
 11
1505.844122052825
 21
422.0745783745879
 31
0.0
  0
LINE
  5
CE
330
1F
100
AcDbEntity
  8
0-0
  6
JWW_DASHED1
 62
   120
370
     5
100
AcDbLine
 10
1425.844122052838
 20
332.1750834394401
 30
0.0
 11
1505.844122052838
 21
412.1750834394393
 31
0.0
  0
LINE
  5
CF
330
1F
100
AcDbEntity
  8
0-0
  6
JWW_DASHED1
 62
   120
370
     5
100
AcDbLine
 10
1425.844122052831
 20
322.275588504216
 30
0.0
 11
1505.844122052846
 21
402.2755885042307
 31
0.0
  0
LINE
  5
D0
330
1F
100
AcDbEntity
  8
0-0
  6
JWW_DASHED1
 62
   120
370
     5
100
AcDbLine
 10
1425.844122052824
 20
312.3760935689924
 30
0.0
 11
1505.844122052838
 21
392.376093569007
 31
0.0
  0
LINE
  5
D1
330
1F
100
AcDbEntity
  8
0-0
  6
JWW_DASHED1
 62
   120
370
     5
100
AcDbLine
 10
1425.844122052837
 20
302.4765986338434
 30
0.0
 11
1505.844122052835
 21
382.4765986338423
 31
0.0
  0
LINE
  5
D2
330
1F
100
AcDbEntity
  8
0-0
  6
JWW_DASHED1
 62
   120
370
     5
100
AcDbLine
 10
1425.844122052845
 20
292.5771036986356
 30
0.0
 11
1505.844122052843
 21
372.577103698634
 31
0.0
  0
LINE
  5
D3
330
1F
100
AcDbEntity
  8
0-0
  6
JWW_DASHED1
 62
   120
370
     5
100
AcDbLine
 10
1425.844122052822
 20
282.6776087633962
 30
0.0
 11
1505.844122052837
 21
362.6776087634104
 31
0.0
  0
LINE
  5
D4
330
1F
100
AcDbEntity
  8
0-0
  6
JWW_DASHED1
 62
   120
370
     5
100
AcDbLine
 10
1425.844122052834
 20
272.7781138282464
 30
0.0
 11
1505.844122052833
 21
352.7781138282452
 31
0.0
  0
LINE
  5
D5
330
1F
100
AcDbEntity
  8
0-0
  6
JWW_DASHED1
 62
   120
370
     5
100
AcDbLine
 10
1425.844122052843
 20
262.8786188930385
 30
0.0
 11
1505.844122052842
 21
342.8786188930374
 31
0.0
  0
LINE
  5
D6
330
1F
100
AcDbEntity
  8
0-0
  6
JWW_DASHED1
 62
   120
370
     5
100
AcDbLine
 10
1425.84412205282
 20
252.9791239577992
 30
0.0
 11
1505.844122052834
 21
332.9791239578134
 31
0.0
  0
LINE
  5
D7
330
1F
100
AcDbEntity
  8
0-0
  6
JWW_DASHED1
 62
   120
370
     5
100
AcDbLine
 10
1425.844122052832
 20
243.0796290226498
 30
0.0
 11
1505.844122052831
 21
323.079629022649
 31
0.0
  0
LINE
  5
D8
330
1F
100
AcDbEntity
  8
0-0
  6
JWW_DASHED1
 62
   120
370
     5
100
AcDbLine
 10
1425.844122052841
 20
233.1801340874424
 30
0.0
 11
1505.844122052839
 21
313.1801340874408
 31
0.0
  0
LINE
  5
D9
330
1F
100
AcDbEntity
  8
0-0
  6
JWW_DASHED1
 62
   120
370
     5
100
AcDbLine
 10
1425.844122052824
 20
223.2806391522089
 30
0.0
 11
1505.844122052838
 21
303.2806391522223
 31
0.0
  0
LINE
  5
DA
330
1F
100
AcDbEntity
  8
0-0
  6
JWW_DASHED1
 62
   120
370
     5
100
AcDbLine
 10
1425.84412205283
 20
213.3811442170531
 30
0.0
 11
1505.844122052829
 21
293.381144217052
 31
0.0
  0
LINE
  5
DB
330
1F
100
AcDbEntity
  8
0-0
  6
JWW_DASHED1
 62
   120
370
     5
100
AcDbLine
 10
1425.844122052838
 20
203.4816492818453
 30
0.0
 11
1505.844122052838
 21
283.4816492818442
 31
0.0
  0
LINE
  5
DC
330
1F
100
AcDbEntity
  8
0-0
  6
JWW_DASHED1
 62
   120
370
     5
100
AcDbLine
 10
1425.844122052846
 20
193.5821543466371
 30
0.0
 11
1505.844122052845
 21
273.5821543466359
 31
0.0
  0
LINE
  5
DD
330
1F
100
AcDbEntity
  8
0-0
  6
JWW_DASHED1
 62
   120
370
     5
100
AcDbLine
 10
1425.844122052828
 20
183.6826594114565
 30
0.0
 11
1505.844122052826
 21
263.6826594114553
 31
0.0
  0
LINE
  5
DE
330
1F
100
AcDbEntity
  8
0-0
  6
JWW_DASHED1
 62
   120
370
     5
100
AcDbLine
 10
1425.844122052836
 20
173.7831644762491
 30
0.0
 11
1505.844122052835
 21
253.7831644762471
 31
0.0
  0
LINE
  5
DF
330
1F
100
AcDbEntity
  8
0-0
  6
JWW_DASHED1
 62
   120
370
     5
100
AcDbLine
 10
1425.844122052845
 20
163.8836695410404
 30
0.0
 11
1505.844122052843
 21
243.8836695410393
 31
0.0
  0
LINE
  5
E0
330
1F
100
AcDbEntity
  8
0-0
  6
JWW_DASHED1
 62
   120
370
     5
100
AcDbLine
 10
1425.844122052826
 20
153.9841746058599
 30
0.0
 11
1505.84412205284
 21
233.9841746058745
 31
0.0
  0
LINE
  5
E1
330
1F
100
AcDbEntity
  8
0-0
  6
JWW_DASHED1
 62
   120
370
     5
100
AcDbLine
 10
1425.844122052834
 20
144.0846796706521
 30
0.0
 11
1505.844122052832
 21
224.0846796706505
 31
0.0
  0
LINE
  5
E2
330
1F
100
AcDbEntity
  8
0-0
  6
JWW_DASHED1
 62
   120
370
     5
100
AcDbLine
 10
1425.844122052843
 20
134.1851847354438
 30
0.0
 11
1505.844122052842
 21
214.1851847354431
 31
0.0
  0
LINE
  5
E3
330
1F
100
AcDbEntity
  8
0-0
  6
JWW_DASHED1
 62
   120
370
     5
100
AcDbLine
 10
1425.844122052824
 20
124.2856898002633
 30
0.0
 11
1505.844122052838
 21
204.2856898002779
 31
0.0
  0
LINE
  5
E4
330
1F
100
AcDbEntity
  8
0-0
  6
JWW_DASHED1
 62
   120
370
     5
100
AcDbLine
 10
1425.844122052832
 20
114.386194865055
 30
0.0
 11
1505.844122052831
 21
194.3861948650539
 31
0.0
  0
LINE
  5
E5
330
1F
100
AcDbEntity
  8
0-0
  6
JWW_DASHED1
 62
   120
370
     5
100
AcDbLine
 10
1425.84412205284
 20
104.4866999298472
 30
0.0
 11
1505.844122052839
 21
184.4866999298461
 31
0.0
  0
LINE
  5
E6
330
1F
100
AcDbEntity
  8
0-0
  6
JWW_DASHED1
 62
   120
370
     5
100
AcDbLine
 10
1425.844122052822
 20
94.58720499466665
 30
0.0
 11
1505.844122052836
 21
174.5872049946809
 31
0.0
  0
LINE
  5
E7
330
1F
100
AcDbEntity
  8
0-0
  6
JWW_DASHED1
 62
   120
370
     5
100
AcDbLine
 10
1425.844122052829
 20
84.68771005945882
 30
0.0
 11
1505.844122052828
 21
164.6877100594573
 31
0.0
  0
LINE
  5
E8
330
1F
100
AcDbEntity
  8
0-0
  6
JWW_DASHED1
 62
   120
370
     5
100
AcDbLine
 10
1425.844122052838
 20
74.78821512425057
 30
0.0
 11
1505.844122052837
 21
154.788215124249
 31
0.0
  0
LINE
  5
E9
330
1F
100
AcDbEntity
  8
0-0
  6
JWW_DASHED1
 62
   120
370
     5
100
AcDbLine
 10
1425.844122052827
 20
64.88872018907728
 30
0.0
 11
1505.84412205284
 21
144.8887201890915
 31
0.0
  0
LINE
  5
EA
330
1F
100
AcDbEntity
  8
0-0
  6
JWW_DASHED1
 62
   120
370
     5
100
AcDbLine
 10
1425.844122052828
 20
54.98922525386178
 30
0.0
 11
1505.844122052826
 21
134.9892252538606
 31
0.0
  0
LINE
  5
EB
330
1F
100
AcDbEntity
  8
0-0
  6
JWW_DASHED1
 62
   120
370
     5
100
AcDbLine
 10
1425.84412205284
 20
45.08973031871278
 30
0.0
 11
1505.844122052838
 21
125.0897303187116
 31
0.0
  0
LINE
  5
EC
330
1F
100
AcDbEntity
  8
0-0
  6
JWW_DASHED1
 62
   120
370
     5
100
AcDbLine
 10
1425.844122052833
 20
35.19023538348875
 30
0.0
 11
1505.844122052847
 21
115.1902353835034
 31
0.0
  0
LINE
  5
ED
330
1F
100
AcDbEntity
  8
0-0
  6
JWW_DASHED1
 62
   120
370
     5
100
AcDbLine
 10
1425.844122052826
 20
25.29074044826558
 30
0.0
 11
1505.84412205284
 21
105.2907404482798
 31
0.0
  0
LINE
  5
EE
330
1F
100
AcDbEntity
  8
0-0
  6
JWW_DASHED1
 62
   120
370
     5
100
AcDbLine
 10
1425.844122052838
 20
15.39124551311573
 30
0.0
 11
1505.844122052837
 21
95.3912455131146
 31
0.0
  0
LINE
  5
EF
330
1F
100
AcDbEntity
  8
0-0
  6
JWW_DASHED1
 62
   120
370
     5
100
AcDbLine
 10
1425.844122052846
 20
5.491750577907908
 30
0.0
 11
1505.844122052845
 21
85.49175057790677
 31
0.0
  0
LINE
  5
F0
330
1F
100
AcDbEntity
  8
0-0
  6
JWW_DASHED1
 62
   120
370
     5
100
AcDbLine
 10
1425.844122052823
 20
-4.407744357331467
 30
0.0
 11
1505.844122052838
 21
75.59225564268274
 31
0.0
  0
LINE
  5
F1
330
1F
100
AcDbEntity
  8
0-0
  6
JWW_DASHED1
 62
   120
370
     5
100
AcDbLine
 10
1425.844122052836
 20
-14.30723929248089
 30
0.0
 11
1505.844122052835
 21
65.6927607075184
 31
0.0
  0
LINE
  5
F2
330
1F
100
AcDbEntity
  8
0-0
  6
JWW_DASHED1
 62
   120
370
     5
100
AcDbLine
 10
1425.844122052845
 20
-24.20673422768829
 30
0.0
 11
1505.844122052843
 21
55.79326577231015
 31
0.0
  0
LINE
  5
F3
330
1F
100
AcDbEntity
  8
0-0
  6
JWW_DASHED1
 62
   120
370
     5
100
AcDbLine
 10
1425.844122052829
 20
-34.10622916291999
 30
0.0
 11
1505.844122052843
 21
45.8937708370938
 31
0.0
  0
LINE
  5
F4
330
1F
100
AcDbEntity
  8
0-0
  6
JWW_DASHED1
 62
   120
370
     5
100
AcDbLine
 10
1425.844122052833
 20
-44.00572409807751
 30
0.0
 11
1505.844122052832
 21
35.99427590192136
 31
0.0
  0
LINE
  5
F5
330
1F
100
AcDbEntity
  8
0-0
  6
JWW_DASHED1
 62
   120
370
     5
100
AcDbLine
 10
1425.844122052842
 20
-53.90521903328533
 30
0.0
 11
1505.844122052841
 21
26.09478096671353
 31
0.0
  0
LINE
  5
F6
330
1F
100
AcDbEntity
  8
0-0
  6
JWW_DASHED1
 62
   120
370
     5
100
AcDbLine
 10
1425.844122052834
 20
-63.80471396850936
 30
0.0
 11
1505.844122052848
 21
16.1952860315057
 31
0.0
  0
LINE
  5
F7
330
1F
100
AcDbEntity
  8
0-0
  6
JWW_DASHED1
 62
   120
370
     5
100
AcDbLine
 10
1425.844122052831
 20
-73.7042089036737
 30
0.0
 11
1505.84412205283
 21
6.295791096324734
 31
0.0
  0
LINE
  5
F8
330
1F
100
AcDbEntity
  8
0-0
  6
JWW_DASHED1
 62
   120
370
     5
100
AcDbLine
 10
1425.844122052839
 20
-83.60370383888196
 30
0.0
 11
1505.844122052838
 21
-3.603703838883519
 31
0.0
  0
LINE
  5
F9
330
1F
100
AcDbEntity
  8
0-0
  6
JWW_DASHED1
 62
   120
370
     5
100
AcDbLine
 10
1425.844122052848
 20
-93.50319877409021
 30
0.0
 11
1505.844122052847
 21
-13.50319877409135
 31
0.0
  0
LINE
  5
FA
330
1F
100
AcDbEntity
  8
0-0
  6
JWW_DASHED1
 62
   120
370
     5
100
AcDbLine
 10
1425.844122052829
 20
-103.4026937092707
 30
0.0
 11
1505.844122052828
 21
-23.40269370927189
 31
0.0
  0
LINE
  5
FB
330
1F
100
AcDbEntity
  8
0-0
  6
JWW_DASHED1
 62
   120
370
     5
100
AcDbLine
 10
1425.844122052838
 20
-113.3021886444786
 30
0.0
 11
1505.844122052837
 21
-33.30218864448014
 31
0.0
  0
LINE
  5
FC
330
1F
100
AcDbEntity
  8
0-0
  6
JWW_DASHED1
 62
   120
370
     5
100
AcDbLine
 10
1425.844122052845
 20
-123.2016835796868
 30
0.0
 11
1505.844122052844
 21
-43.20168357968797
 31
0.0
  0
LINE
  5
FD
330
1F
100
AcDbEntity
  8
0-0
  6
JWW_DASHED1
 62
   120
370
     5
100
AcDbLine
 10
1425.844122052827
 20
-133.1011785148678
 30
0.0
 11
1505.844122052842
 21
-53.10117851485273
 31
0.0
  0
LINE
  5
FE
330
1F
100
AcDbEntity
  8
0-0
  6
JWW_DASHED1
 62
   120
370
     5
100
AcDbLine
 10
1425.844122052835
 20
-143.0006734500756
 30
0.0
 11
1505.844122052834
 21
-63.00067345007676
 31
0.0
  0
LINE
  5
FF
330
1F
100
AcDbEntity
  8
0-0
  6
JWW_DASHED1
 62
   120
370
     5
100
AcDbLine
 10
1425.844122052844
 20
-152.9001683852835
 30
0.0
 11
1505.844122052843
 21
-72.90016838528459
 31
0.0
  0
LINE
  5
100
330
1F
100
AcDbEntity
  8
0-0
  6
JWW_DASHED1
 62
   120
370
     5
100
AcDbLine
 10
1425.844122052825
 20
-162.799663320464
 30
0.0
 11
1505.844122052839
 21
-82.79966332044978
 31
0.0
  0
LINE
  5
101
330
1F
100
AcDbEntity
  8
0-0
  6
JWW_DASHED1
 62
   120
370
     5
100
AcDbLine
 10
1425.844122052833
 20
-172.6991582556722
 30
0.0
 11
1505.844122052831
 21
-92.69915825567296
 31
0.0
  0
LINE
  5
102
330
1F
100
AcDbEntity
  8
0-0
  6
JWW_DASHED1
 62
   120
370
     5
100
AcDbLine
 10
1425.844122052841
 20
-182.5986531908801
 30
0.0
 11
1505.84412205284
 21
-102.5986531908812
 31
0.0
  0
LINE
  5
103
330
1F
100
AcDbEntity
  8
0-0
  6
JWW_DASHED1
 62
   120
370
     5
100
AcDbLine
 10
1425.844122052822
 20
-192.498148126061
 30
0.0
 11
1505.844122052837
 21
-112.4981481260464
 31
0.0
  0
LINE
  5
104
330
1F
100
AcDbEntity
  8
0-0
  6
JWW_DASHED1
 62
   120
370
     5
100
AcDbLine
 10
1425.844122052831
 20
-202.3976430612689
 30
0.0
 11
1505.84412205283
 21
-122.39764306127
 31
0.0
  0
LINE
  5
105
330
1F
100
AcDbEntity
  8
0-0
  6
JWW_DASHED1
 62
   120
370
     5
100
AcDbLine
 10
1425.844122052839
 20
-212.2971379964767
 30
0.0
 11
1505.844122052838
 21
-132.2971379964778
 31
0.0
  0
LINE
  5
106
330
1F
100
AcDbEntity
  8
0-0
  6
JWW_DASHED1
 62
   120
370
     5
100
AcDbLine
 10
1425.84412205283
 20
-222.1966329316479
 30
0.0
 11
1505.844122052844
 21
-142.1966329316336
 31
0.0
  0
LINE
  5
107
330
1F
100
AcDbEntity
  8
0-0
  6
JWW_DASHED1
 62
   120
370
     5
100
AcDbLine
 10
1425.844122052828
 20
-232.0961278668655
 30
0.0
 11
1505.844122052827
 21
-152.0961278668671
 31
0.0
  0
LINE
  5
108
330
1F
100
AcDbEntity
  8
0-0
  6
JWW_DASHED1
 62
   120
370
     5
100
AcDbLine
 10
1425.844122052837
 20
-241.9956228020733
 30
0.0
 11
1505.844122052836
 21
-161.9956228020749
 31
0.0
  0
LINE
  5
109
330
1F
100
AcDbEntity
  8
0-0
  6
JWW_DASHED1
 62
   120
370
     5
100
AcDbLine
 10
1425.844122052834
 20
-251.8951177372381
 30
0.0
 11
1505.844122052848
 21
-171.8951177372239
 31
0.0
  0
LINE
  5
10A
330
1F
100
AcDbEntity
  8
0-0
  6
JWW_DASHED1
 62
   120
370
     5
100
AcDbLine
 10
1425.844122052827
 20
-261.7946126724621
 30
0.0
 11
1505.844122052841
 21
-181.7946126724475
 31
0.0
  0
LINE
  5
10B
330
1F
100
AcDbEntity
  8
0-0
  6
JWW_DASHED1
 62
   120
370
     5
100
AcDbLine
 10
1425.844122052834
 20
-271.6941076076704
 30
0.0
 11
1505.844122052833
 21
-191.6941076076711
 31
0.0
  0
LINE
  5
10C
330
1F
100
AcDbEntity
  8
0-0
  6
JWW_DASHED1
 62
   120
370
     5
100
AcDbLine
 10
1425.844122052848
 20
-281.5936025428189
 30
0.0
 11
1505.844122052846
 21
-201.5936025428209
 31
0.0
  0
LINE
  5
10D
330
1F
100
AcDbEntity
  8
0-0
  6
JWW_DASHED1
 62
   120
370
     5
100
AcDbLine
 10
1425.844122052824
 20
-291.4930974780592
 30
0.0
 11
1505.844122052838
 21
-211.4930974780441
 31
0.0
  0
LINE
  5
10E
330
1F
100
AcDbEntity
  8
0-0
  6
JWW_DASHED1
 62
   120
370
     5
100
AcDbLine
 10
1425.844122052833
 20
-301.392592413267
 30
0.0
 11
1505.844122052831
 21
-221.3925924132681
 31
0.0
  0
LINE
  5
10F
330
1F
100
AcDbEntity
  8
0-0
  6
JWW_DASHED1
 62
   120
370
     5
100
AcDbLine
 10
1425.844122052845
 20
-311.292087348416
 30
0.0
 11
1505.844122052844
 21
-231.2920873484171
 31
0.0
  0
LINE
  5
110
330
1F
100
AcDbEntity
  8
0-0
  6
JWW_DASHED1
 62
   120
370
     5
100
AcDbLine
 10
1425.844122052833
 20
-321.1915822836451
 30
0.0
 11
1505.844122052847
 21
-241.1915822836309
 31
0.0
  0
LINE
  5
111
330
1F
100
AcDbEntity
  8
0-0
  6
JWW_DASHED1
 62
   120
370
     5
100
AcDbLine
 10
1425.84412205283
 20
-331.0910772188636
 30
0.0
 11
1505.844122052829
 21
-251.0910772188647
 31
0.0
  0
LINE
  5
112
330
1F
100
AcDbEntity
  8
0-0
  6
JWW_DASHED1
 62
   120
370
     5
100
AcDbLine
 10
1425.844122052843
 20
-340.9905721540126
 30
0.0
 11
1505.844122052842
 21
-260.9905721540142
 31
0.0
  0
LINE
  5
113
330
1F
100
AcDbEntity
  8
0-0
  6
JWW_DASHED1
 62
   120
370
     5
100
AcDbLine
 10
1425.844122052835
 20
-350.8900670892366
 30
0.0
 11
1505.84412205285
 21
-270.890067089222
 31
0.0
  0
LINE
  5
114
330
1F
100
AcDbEntity
  8
0-0
  6
JWW_DASHED1
 62
   120
370
     5
100
AcDbLine
 10
1425.844122052828
 20
-360.7895620244602
 30
0.0
 11
1505.844122052843
 21
-280.7895620244456
 31
0.0
  0
LINE
  5
115
330
1F
100
AcDbEntity
  8
0-0
  6
JWW_DASHED1
 62
   120
370
     5
100
AcDbLine
 10
1425.844122052841
 20
-370.6890569596092
 30
0.0
 11
1505.84412205284
 21
-290.6890569596104
 31
0.0
  0
LINE
  5
116
330
1F
100
AcDbEntity
  8
0-0
  6
JWW_DASHED1
 62
   120
370
     5
100
AcDbLine
 10
1425.84412205285
 20
-380.588551894817
 30
0.0
 11
1505.844122052848
 21
-300.5885518948186
 31
0.0
  0
LINE
  5
117
330
1F
100
AcDbEntity
  8
0-0
  6
JWW_DASHED1
 62
   120
370
     5
100
AcDbLine
 10
1425.844122052826
 20
-390.4880468300573
 30
0.0
 11
1505.84412205284
 21
-310.4880468300427
 31
0.0
  0
LINE
  5
118
330
1F
100
AcDbEntity
  8
0-0
  6
JWW_DASHED1
 62
   120
370
     5
100
AcDbLine
 10
1425.844122052838
 20
-400.3875417652063
 30
0.0
 11
1505.844122052838
 21
-320.3875417652074
 31
0.0
  0
LINE
  5
119
330
1F
100
AcDbEntity
  8
0-0
  6
JWW_DASHED1
 62
   120
370
     5
100
AcDbLine
 10
1425.844122052847
 20
-410.2870367004141
 30
0.0
 11
1505.844122052845
 21
-330.2870367004152
 31
0.0
  0
LINE
  5
11A
330
1F
100
AcDbEntity
  8
0-0
  6
JWW_DASHED1
 62
   120
370
     5
100
AcDbLine
 10
1425.844122052823
 20
-420.1865316356539
 30
0.0
 11
1505.844122052838
 21
-340.1865316356393
 31
0.0
  0
LINE
  5
11B
330
1F
100
AcDbEntity
  8
0-0
  6
JWW_DASHED1
 62
   120
370
     5
100
AcDbLine
 10
1425.844122052836
 20
-430.0860265708029
 30
0.0
 11
1505.844122052835
 21
-350.0860265708036
 31
0.0
  0
LINE
  5
11C
330
1F
100
AcDbEntity
  8
0-0
  6
JWW_DASHED1
 62
   120
370
     5
100
AcDbLine
 10
1425.844122052845
 20
-439.9855215060111
 30
0.0
 11
1505.844122052843
 21
-359.9855215060123
 31
0.0
  0
LINE
  5
11D
330
1F
100
AcDbEntity
  8
0-0
  6
JWW_DASHED1
 62
   120
370
     5
100
AcDbLine
 10
1425.844122052833
 20
-449.8850164412386
 30
0.0
 11
1505.844122052847
 21
-369.8850164412248
 31
0.0
  0
LINE
  5
11E
330
1F
100
AcDbEntity
  8
0-0
  6
JWW_DASHED1
 62
   120
370
     5
100
AcDbLine
 10
1425.844122052834
 20
-459.7845113763995
 30
0.0
 11
1505.844122052833
 21
-379.7845113764006
 31
0.0
  0
LINE
  5
11F
330
1F
100
AcDbEntity
  8
0-0
  6
JWW_DASHED1
 62
   120
370
     5
100
AcDbLine
 10
1425.844122052843
 20
-469.6840063116073
 30
0.0
 11
1505.844122052842
 21
-389.6840063116085
 31
0.0
  0
LINE
  5
120
330
1F
100
AcDbEntity
  8
0-0
  6
JWW_DASHED1
 62
   120
370
     5
100
AcDbLine
 10
1425.844122052851
 20
-479.5835012468152
 30
0.0
 11
1505.84412205285
 21
-399.5835012468167
 31
0.0
  0
LINE
  5
121
330
1F
100
AcDbEntity
  8
0-0
  6
JWW_DASHED1
 62
   120
370
     5
100
AcDbLine
 10
1425.844122052832
 20
-489.4829961819961
 30
0.0
 11
1505.844122052831
 21
-409.4829961819972
 31
0.0
  0
LINE
  5
122
330
1F
100
AcDbEntity
  8
0-0
  6
JWW_DASHED1
 62
   120
370
     5
100
AcDbLine
 10
1425.84412205284
 20
-499.3824911172042
 30
0.0
 11
1505.844122052839
 21
-419.3824911172055
 31
0.0
  0
LINE
  5
123
330
1F
100
AcDbEntity
  8
0-0
  6
JWW_DASHED1
 62
   120
370
     5
100
AcDbLine
 10
1425.844122052849
 20
-509.2819860524122
 30
0.0
 11
1505.844122052848
 21
-429.2819860524133
 31
0.0
  0
LINE
  5
124
330
1F
100
AcDbEntity
  8
0-0
  6
JWW_DASHED1
 62
   120
370
     5
100
AcDbLine
 10
1425.84412205283
 20
-519.1814809875927
 30
0.0
 11
1505.844122052844
 21
-439.1814809875785
 31
0.0
  0
LINE
  5
125
330
1F
100
AcDbEntity
  8
0-0
  6
JWW_DASHED1
 62
   120
370
     5
100
AcDbLine
 10
1425.844122052838
 20
-529.0809759228008
 30
0.0
 11
1505.844122052837
 21
-449.0809759228017
 31
0.0
  0
LINE
  5
126
330
1F
100
AcDbEntity
  8
0-0
  6
JWW_DASHED1
 62
   120
370
     5
100
AcDbLine
 10
1425.844122052849
 20
-538.9804708579794
 30
0.0
 11
1505.844122052847
 21
-458.9804708579805
 31
0.0
  0
LINE
  5
127
330
1F
100
AcDbEntity
  8
0-0
  6
JWW_DASHED1
 62
   120
370
     5
100
AcDbLine
 10
1425.844122052828
 20
-548.8799657931896
 30
0.0
 11
1505.844122052842
 21
-468.8799657931747
 31
0.0
  0
LINE
  5
128
330
1F
100
AcDbEntity
  8
0-0
  6
JWW_DASHED1
 62
   120
370
     5
100
AcDbLine
 10
1425.844122052836
 20
-558.7794607283977
 30
0.0
 11
1505.844122052835
 21
-478.7794607283988
 31
0.0
  0
LINE
  5
129
330
1F
100
AcDbEntity
  8
0-0
  6
JWW_DASHED1
 62
   120
370
     5
100
AcDbLine
 10
1425.844122052846
 20
-568.6789556635763
 30
0.0
 11
1505.844122052845
 21
-488.6789556635774
 31
0.0
  0
LINE
  5
12A
330
1F
100
AcDbEntity
  8
0-0
  6
JWW_DASHED1
 62
   120
370
     5
100
AcDbLine
 10
1425.844122052825
 20
-578.5784505987864
 30
0.0
 11
1505.84412205284
 21
-498.5784505987716
 31
0.0
  0
LINE
  5
12B
330
1F
100
AcDbEntity
  8
0-0
  6
JWW_DASHED1
 62
   120
370
     5
100
AcDbLine
 10
1425.844122052834
 20
-588.477945533994
 30
0.0
 11
1505.844122052832
 21
-508.4779455339954
 31
0.0
  0
LINE
  5
12C
330
1F
100
AcDbEntity
  8
0-0
  6
JWW_DASHED1
 62
   120
370
     5
100
AcDbLine
 10
1425.844122052846
 20
-598.3774404691433
 30
0.0
 11
1505.844122052845
 21
-518.3774404691446
 31
0.0
  0
LINE
  5
12D
330
1F
100
AcDbEntity
  8
0-0
  6
JWW_DASHED1
 62
   120
370
     5
100
AcDbLine
 10
1425.844122052836
 20
-608.2769354043703
 30
0.0
 11
1505.84412205285
 21
-528.276935404356
 31
0.0
  0
LINE
  5
12E
330
1F
100
AcDbEntity
  8
0-0
  6
JWW_DASHED1
 62
   120
370
     5
100
AcDbLine
 10
1425.844122052832
 20
-618.1764303395909
 30
0.0
 11
1505.844122052831
 21
-538.176430339592
 31
0.0
  0
LINE
  5
12F
330
1F
100
AcDbEntity
  8
0-0
  6
JWW_DASHED1
 62
   120
370
     5
100
AcDbLine
 10
1425.844122052845
 20
-628.0759252747398
 30
0.0
 11
1505.844122052843
 21
-548.0759252747412
 31
0.0
  0
LINE
  5
130
330
1F
100
AcDbEntity
  8
0-0
  6
JWW_DASHED1
 62
   120
370
     5
100
AcDbLine
 10
1425.844122052837
 20
-637.9754202099637
 30
0.0
 11
1505.844122052851
 21
-557.9754202099492
 31
0.0
  0
LINE
  5
131
330
1F
100
AcDbEntity
  8
0-0
  6
JWW_DASHED1
 62
   120
370
     5
100
AcDbLine
 10
1425.844122052829
 20
-647.8749151451877
 30
0.0
 11
1505.844122052844
 21
-567.8749151451728
 31
0.0
  0
LINE
  5
132
330
1F
100
AcDbEntity
  8
0-0
  6
JWW_DASHED1
 62
   120
370
     5
100
AcDbLine
 10
1425.844122052842
 20
-657.7744100803367
 30
0.0
 11
1505.844122052841
 21
-577.774410080338
 31
0.0
  0
LINE
  5
133
330
1F
100
AcDbEntity
  8
0-0
  6
JWW_DASHED1
 62
   120
370
     5
100
AcDbLine
 10
1425.84412205285
 20
-667.6739050155447
 30
0.0
 11
1505.844122052849
 21
-587.6739050155459
 31
0.0
  0
LINE
  5
134
330
1F
100
AcDbEntity
  8
0-0
  6
JWW_DASHED1
 62
   120
370
     5
100
AcDbLine
 10
1425.844122052828
 20
-677.573399950784
 30
0.0
 11
1505.844122052842
 21
-597.57339995077
 31
0.0
  0
LINE
  5
135
330
1F
100
AcDbEntity
  8
0-0
  6
JWW_DASHED1
 62
   120
370
     5
100
AcDbLine
 10
1425.84412205284
 20
-687.4728948859331
 30
0.0
 11
1505.844122052838
 21
-607.4728948859347
 31
0.0
  0
LINE
  5
136
330
1F
100
AcDbEntity
  8
0-0
  6
JWW_DASHED1
 62
   120
370
     5
100
AcDbLine
 10
1425.844122052848
 20
-697.3723898211414
 30
0.0
 11
1505.844122052847
 21
-617.3723898211425
 31
0.0
  0
LINE
  5
137
330
1F
100
AcDbEntity
  8
0-0
  6
JWW_DASHED1
 62
   120
370
     5
100
AcDbLine
 10
1425.844122052825
 20
-707.2718847563812
 30
0.0
 11
1505.844122052839
 21
-627.2718847563663
 31
0.0
  0
LINE
  5
138
330
1F
100
AcDbEntity
  8
0-0
  6
JWW_DASHED1
 62
   120
370
     5
100
AcDbLine
 10
1425.844122052838
 20
-717.1713796915301
 30
0.0
 11
1505.844122052837
 21
-637.1713796915315
 31
0.0
  0
LINE
  5
139
330
1F
100
AcDbEntity
  8
0-0
  6
JWW_DASHED1
 62
   120
370
     5
100
AcDbLine
 10
1425.844122052846
 20
-727.070874626738
 30
0.0
 11
1505.844122052845
 21
-647.0708746267392
 31
0.0
  0
LINE
  5
13A
330
1F
100
AcDbEntity
  8
0-0
  6
JWW_DASHED1
 62
   120
370
     5
100
AcDbLine
 10
1425.844122052837
 20
-736.9703695619637
 30
0.0
 11
1505.84412205285
 21
-656.9703695619495
 31
0.0
  0
LINE
  5
13B
330
1F
100
AcDbEntity
  8
0-0
  6
JWW_DASHED1
 62
   120
370
     5
100
AcDbLine
 10
1425.844122052835
 20
-746.8698644971265
 30
0.0
 11
1505.844122052834
 21
-666.8698644971279
 31
0.0
  0
LINE
  5
13C
330
1F
100
AcDbEntity
  8
0-0
  6
JWW_DASHED1
 62
   120
370
     5
100
AcDbLine
 10
1425.844122052844
 20
-756.769359432335
 30
0.0
 11
1505.844122052843
 21
-676.7693594323359
 31
0.0
  0
LINE
  5
13D
330
1F
100
AcDbEntity
  8
0-0
  6
JWW_DASHED1
 62
   120
370
     5
100
AcDbLine
 10
1425.844122052852
 20
-766.6688543675426
 30
0.0
 11
1505.844122052851
 21
-686.668854367544
 31
0.0
  0
LINE
  5
13E
330
1F
100
AcDbEntity
  8
0-0
  6
JWW_DASHED1
 62
   120
370
     5
100
AcDbLine
 10
1425.844122052833
 20
-776.5683493027234
 30
0.0
 11
1505.844122052831
 21
-696.5683493027248
 31
0.0
  0
LINE
  5
13F
330
1F
100
AcDbEntity
  8
0-0
  6
JWW_DASHED1
 62
   120
370
     5
100
AcDbLine
 10
1425.844122052841
 20
-786.4678442379314
 30
0.0
 11
1505.84412205284
 21
-706.4678442379328
 31
0.0
  0
LINE
  5
140
330
1F
100
AcDbEntity
  8
0-0
  6
JWW_DASHED1
 62
   120
370
     5
100
AcDbLine
 10
1425.84412205285
 20
-796.3673391731395
 30
0.0
 11
1505.844122052848
 21
-716.3673391731406
 31
0.0
  0
LINE
  5
141
330
1F
100
AcDbEntity
  8
0-0
  6
JWW_DASHED1
 62
   120
370
     5
100
AcDbLine
 10
1425.844122052831
 20
-806.2668341083203
 30
0.0
 11
1505.844122052846
 21
-726.2668341083054
 31
0.0
  0
LINE
  5
142
330
1F
100
AcDbEntity
  8
0-0
  6
JWW_DASHED1
 62
   120
370
     5
100
AcDbLine
 10
1425.844122052839
 20
-816.1663290435283
 30
0.0
 11
1505.844122052838
 21
-736.1663290435295
 31
0.0
  0
LINE
  5
143
330
1F
100
AcDbEntity
  8
0-0
  6
JWW_DASHED1
 62
   120
370
     5
100
AcDbLine
 10
1425.844122052848
 20
-826.0658239787361
 30
0.0
 11
1505.844122052847
 21
-746.0658239787372
 31
0.0
  0
LINE
  5
144
330
1F
100
AcDbEntity
  8
0-0
  6
JWW_DASHED1
 62
   120
370
     5
100
AcDbLine
 10
1425.844122052829
 20
-835.9653189139167
 30
0.0
 11
1505.844122052843
 21
-755.9653189139024
 31
0.0
  0
LINE
  5
145
330
1F
100
AcDbEntity
  8
0-0
  6
JWW_DASHED1
 62
   120
370
     5
100
AcDbLine
 10
1425.844122052837
 20
-845.8648138491249
 30
0.0
 11
1505.844122052836
 21
-765.8648138491258
 31
0.0
  0
LINE
  5
146
330
1F
100
AcDbEntity
  8
0-0
  6
JWW_DASHED1
 62
   120
370
     5
100
AcDbLine
 10
1425.844122052845
 20
-855.7643087843327
 30
0.0
 11
1505.844122052844
 21
-775.7643087843343
 31
0.0
  0
LINE
  5
147
330
1F
100
AcDbEntity
  8
0-0
  6
JWW_DASHED1
 62
   120
370
     5
100
AcDbLine
 10
1425.844122052827
 20
-865.6638037195137
 30
0.0
 11
1505.844122052841
 21
-785.663803719499
 31
0.0
  0
LINE
  5
148
330
1F
100
AcDbEntity
  8
0-0
  6
JWW_DASHED1
 62
   120
370
     5
100
AcDbLine
 10
1425.844122052835
 20
-875.5632986547215
 30
0.0
 11
1505.844122052833
 21
-795.5632986547231
 31
0.0
  0
LINE
  5
149
330
1F
100
AcDbEntity
  8
0-0
  6
JWW_DASHED1
 62
   120
370
     5
100
AcDbLine
 10
1425.844122052843
 20
-885.4627935899298
 30
0.0
 11
1505.844122052842
 21
-805.4627935899307
 31
0.0
  0
LINE
  5
14A
330
1F
100
AcDbEntity
  8
0-0
  6
JWW_DASHED1
 62
   120
370
     5
100
AcDbLine
 10
1425.844122052839
 20
-895.3622885250952
 30
0.0
 11
1505.844122052854
 21
-815.362288525081
 31
0.0
  0
LINE
  5
14B
330
1F
100
AcDbEntity
  8
0-0
  6
JWW_DASHED1
 62
   120
370
     5
100
AcDbLine
 10
1425.844122052833
 20
-905.2617834603182
 30
0.0
 11
1505.844122052831
 21
-825.2617834603195
 31
0.0
  0
LINE
  5
14C
330
1F
100
AcDbEntity
  8
0-0
  6
JWW_DASHED1
 62
   120
370
     5
100
AcDbLine
 10
1425.844122052841
 20
-915.1612783955262
 30
0.0
 11
1505.84412205284
 21
-835.1612783955275
 31
0.0
  0
LINE
  5
14D
330
1F
100
AcDbEntity
  8
0-0
  6
JWW_DASHED1
 62
   120
370
     5
100
AcDbLine
 10
1425.844122052838
 20
-925.060773330691
 30
0.0
 11
1505.844122052853
 21
-845.0607733306765
 31
0.0
  0
LINE
  5
14E
330
1F
100
AcDbEntity
  8
0-0
  6
JWW_DASHED1
 62
   120
370
     5
100
AcDbLine
 10
1425.844122052831
 20
-934.9602682659148
 30
0.0
 11
1505.844122052845
 21
-854.9602682659006
 31
0.0
  0
LINE
  5
14F
330
1F
100
AcDbEntity
  8
0-0
  6
JWW_DASHED1
 62
   120
370
     5
100
AcDbLine
 10
1425.844122052838
 20
-944.859763201123
 30
0.0
 11
1505.844122052838
 21
-864.8597632011241
 31
0.0
  0
LINE
  5
150
330
1F
100
AcDbEntity
  8
0-0
  6
JWW_DASHED1
 62
   120
370
     5
100
AcDbLine
 10
1426.755408993045
 20
-953.8479711960778
 30
0.0
 11
1505.84412205285
 21
-874.7592581362734
 31
0.0
  0
LINE
  5
151
330
1F
100
AcDbEntity
  8
0-0
  6
JWW_DASHED1
 62
   120
370
     5
100
AcDbLine
 10
1436.654903928284
 20
-953.8479711960563
 30
0.0
 11
1505.844122052843
 21
-884.6587530714974
 31
0.0
  0
LINE
  5
152
330
1F
100
AcDbEntity
  8
0-0
  6
JWW_DASHED1
 62
   120
370
     5
100
AcDbLine
 10
1446.554398863493
 20
-953.8479711960624
 30
0.0
 11
1505.844122052836
 21
-894.5582480067208
 31
0.0
  0
LINE
  5
153
330
1F
100
AcDbEntity
  8
0-0
  6
JWW_DASHED1
 62
   120
370
     5
100
AcDbLine
 10
1456.453893798643
 20
-953.847971196075
 30
0.0
 11
1505.844122052848
 21
-904.4577429418698
 31
0.0
  0
LINE
  5
154
330
1F
100
AcDbEntity
  8
0-0
  6
JWW_DASHED1
 62
   120
370
     5
100
AcDbLine
 10
1466.353388733859
 20
-953.8479711960756
 30
0.0
 11
1505.844122052856
 21
-914.3572378770784
 31
0.0
  0
LINE
  5
155
330
1F
100
AcDbEntity
  8
0-0
  6
JWW_DASHED1
 62
   120
370
     5
100
AcDbLine
 10
1476.252883669091
 20
-953.8479711960597
 30
0.0
 11
1505.844122052833
 21
-924.2567328123178
 31
0.0
  0
LINE
  5
156
330
1F
100
AcDbEntity
  8
0-0
  6
JWW_DASHED1
 62
   120
370
     5
100
AcDbLine
 10
1486.152378604239
 20
-953.8479711960726
 30
0.0
 11
1505.844122052846
 21
-934.1562277474668
 31
0.0
  0
LINE
  5
157
330
1F
100
AcDbEntity
  8
0-0
  6
JWW_DASHED1
 62
   120
370
     5
100
AcDbLine
 10
1496.051873539451
 20
-953.8479711960784
 30
0.0
 11
1505.844122052854
 21
-944.0557226826744
 31
0.0
  0
LINE
  5
158
330
1F
100
AcDbEntity
  8
0-0
  6
Continuous
 62
    92
370
    13
100
AcDbLine
 10
1425.844122052833
 20
-961.8479711960592
 30
0.0
 11
1425.844122052833
 21
1021.152028803941
 31
0.0
  0
LINE
  5
159
330
1F
100
AcDbEntity
  8
0-0
  6
Continuous
 62
     7
370
     9
100
AcDbLine
 10
1425.844122052833
 20
1013.152028803941
 30
0.0
 11
1505.844122052833
 21
1013.152028803941
 31
0.0
  0
LINE
  5
15A
330
1F
100
AcDbEntity
  8
0-0
  6
Continuous
 62
     7
370
     9
100
AcDbLine
 10
1425.844122052833
 20
-953.8479711960597
 30
0.0
 11
1505.844122052833
 21
-953.8479711960597
 31
0.0
  0
LINE
  5
15B
330
1F
100
AcDbEntity
  8
0-0
  6
Continuous
 62
    92
370
    13
100
AcDbLine
 10
1505.844122052833
 20
-961.8479711960592
 30
0.0
 11
1505.844122052833
 21
1021.152028803941
 31
0.0
  0
LINE
  5
15C
330
1F
100
AcDbEntity
  8
0-0
  6
Continuous
 62
    92
370
    13
100
AcDbLine
 10
-84.15587794716686
 20
-961.8479711960592
 30
0.0
 11
-84.15587794716686
 21
1021.152028803941
 31
0.0
  0
LINE
  5
15D
330
1F
100
AcDbEntity
  8
0-0
  6
Continuous
 62
     7
370
     9
100
AcDbLine
 10
-164.1558779471674
 20
-953.8479711960597
 30
0.0
 11
-84.15587794716686
 21
-953.8479711960597
 31
0.0
  0
LINE
  5
15E
330
1F
100
AcDbEntity
  8
0-0
  6
Continuous
 62
     7
370
     9
100
AcDbLine
 10
-164.1558779471674
 20
1013.152028803941
 30
0.0
 11
-84.15587794716686
 21
1013.152028803941
 31
0.0
  0
LINE
  5
15F
330
1F
100
AcDbEntity
  8
0-0
  6
Continuous
 62
    92
370
    13
100
AcDbLine
 10
-164.1558779471674
 20
-961.8479711960592
 30
0.0
 11
-164.1558779471674
 21
1021.152028803941
 31
0.0
  0
LINE
  5
160
330
1F
100
AcDbEntity
  8
0-0
  6
JWW_DASHED1
 62
   120
370
     5
100
AcDbLine
 10
-93.9481264605493
 20
-953.8479711960784
 30
0.0
 11
-84.15587794714469
 21
-944.0557226826744
 31
0.0
  0
LINE
  5
161
330
1F
100
AcDbEntity
  8
0-0
  6
JWW_DASHED1
 62
   120
370
     5
100
AcDbLine
 10
-103.8476213957605
 20
-953.8479711960726
 30
0.0
 11
-84.15587794715492
 21
-934.1562277474668
 31
0.0
  0
LINE
  5
162
330
1F
100
AcDbEntity
  8
0-0
  6
JWW_DASHED1
 62
   120
370
     5
100
AcDbLine
 10
-113.7471163309087
 20
-953.8479711960597
 30
0.0
 11
-84.15587794716686
 21
-924.2567328123178
 31
0.0
  0
LINE
  5
163
330
1F
100
AcDbEntity
  8
0-0
  6
JWW_DASHED1
 62
   120
370
     5
100
AcDbLine
 10
-123.6466112661421
 20
-953.8479711960756
 30
0.0
 11
-84.15587794714469
 21
-914.3572378770784
 31
0.0
  0
LINE
  5
164
330
1F
100
AcDbEntity
  8
0-0
  6
JWW_DASHED1
 62
   120
370
     5
100
AcDbLine
 10
-133.5461062013567
 20
-953.847971196075
 30
0.0
 11
-84.15587794715151
 21
-904.4577429418698
 31
0.0
  0
LINE
  5
165
330
1F
100
AcDbEntity
  8
0-0
  6
JWW_DASHED1
 62
   120
370
     5
100
AcDbLine
 10
-143.4456011365066
 20
-953.8479711960624
 30
0.0
 11
-84.15587794716515
 21
-894.5582480067208
 31
0.0
  0
LINE
  5
166
330
1F
100
AcDbEntity
  8
0-0
  6
JWW_DASHED1
 62
   120
370
     5
100
AcDbLine
 10
-153.3450960717161
 20
-953.8479711960563
 30
0.0
 11
-84.15587794715833
 21
-884.6587530714974
 31
0.0
  0
LINE
  5
167
330
1F
100
AcDbEntity
  8
0-0
  6
JWW_DASHED1
 62
   120
370
     5
100
AcDbLine
 10
-163.2445910069546
 20
-953.8479711960778
 30
0.0
 11
-84.1558779471498
 21
-874.7592581362734
 31
0.0
  0
LINE
  5
168
330
1F
100
AcDbEntity
  8
0-0
  6
JWW_DASHED1
 62
   120
370
     5
100
AcDbLine
 10
-164.1558779471606
 20
-944.859763201123
 30
0.0
 11
-84.15587794716174
 21
-864.8597632011241
 31
0.0
  0
LINE
  5
169
330
1F
100
AcDbEntity
  8
0-0
  6
JWW_DASHED1
 62
   120
370
     5
100
AcDbLine
 10
-164.1558779471691
 20
-934.9602682659148
 30
0.0
 11
-84.15587794715492
 21
-854.9602682659006
 31
0.0
  0
LINE
  5
16A
330
1F
100
AcDbEntity
  8
0-0
  6
JWW_DASHED1
 62
   120
370
     5
100
AcDbLine
 10
-164.1558779471623
 20
-925.060773330691
 30
0.0
 11
-84.1558779471481
 21
-845.0607733306765
 31
0.0
  0
LINE
  5
16B
330
1F
100
AcDbEntity
  8
0-0
  6
JWW_DASHED1
 62
   120
370
     5
100
AcDbLine
 10
-164.1558779471589
 20
-915.1612783955262
 30
0.0
 11
-84.15587794716004
 21
-835.1612783955275
 31
0.0
  0
LINE
  5
16C
330
1F
100
AcDbEntity
  8
0-0
  6
JWW_DASHED1
 62
   120
370
     5
100
AcDbLine
 10
-164.1558779471674
 20
-905.2617834603182
 30
0.0
 11
-84.15587794716856
 21
-825.2617834603195
 31
0.0
  0
LINE
  5
16D
330
1F
100
AcDbEntity
  8
0-0
  6
JWW_DASHED1
 62
   120
370
     5
100
AcDbLine
 10
-164.1558779471606
 20
-895.3622885250952
 30
0.0
 11
-84.1558779471464
 21
-815.362288525081
 31
0.0
  0
LINE
  5
16E
330
1F
100
AcDbEntity
  8
0-0
  6
JWW_DASHED1
 62
   120
370
     5
100
AcDbLine
 10
-164.1558779471572
 20
-885.4627935899298
 30
0.0
 11
-84.15587794715833
 21
-805.4627935899307
 31
0.0
  0
LINE
  5
16F
330
1F
100
AcDbEntity
  8
0-0
  6
JWW_DASHED1
 62
   120
370
     5
100
AcDbLine
 10
-164.155877947164
 20
-875.5632986547215
 30
0.0
 11
-84.15587794716686
 21
-795.5632986547231
 31
0.0
  0
LINE
  5
170
330
1F
100
AcDbEntity
  8
0-0
  6
JWW_DASHED1
 62
   120
370
     5
100
AcDbLine
 10
-164.1558779471742
 20
-865.6638037195137
 30
0.0
 11
-84.15587794715833
 21
-785.663803719499
 31
0.0
  0
LINE
  5
171
330
1F
100
AcDbEntity
  8
0-0
  6
JWW_DASHED1
 62
   120
370
     5
100
AcDbLine
 10
-164.1558779471538
 20
-855.7643087843327
 30
0.0
 11
-84.15587794715492
 21
-775.7643087843343
 31
0.0
  0
LINE
  5
172
330
1F
100
AcDbEntity
  8
0-0
  6
JWW_DASHED1
 62
   120
370
     5
100
AcDbLine
 10
-164.155877947164
 20
-845.8648138491249
 30
0.0
 11
-84.15587794716515
 21
-765.8648138491258
 31
0.0
  0
LINE
  5
173
330
1F
100
AcDbEntity
  8
0-0
  6
JWW_DASHED1
 62
   120
370
     5
100
AcDbLine
 10
-164.1558779471708
 20
-835.9653189139167
 30
0.0
 11
-84.15587794715663
 21
-755.9653189139024
 31
0.0
  0
LINE
  5
174
330
1F
100
AcDbEntity
  8
0-0
  6
JWW_DASHED1
 62
   120
370
     5
100
AcDbLine
 10
-164.1558779471521
 20
-826.0658239787361
 30
0.0
 11
-84.15587794715321
 21
-746.0658239787372
 31
0.0
  0
LINE
  5
175
330
1F
100
AcDbEntity
  8
0-0
  6
JWW_DASHED1
 62
   120
370
     5
100
AcDbLine
 10
-164.1558779471606
 20
-816.1663290435283
 30
0.0
 11
-84.15587794716174
 21
-736.1663290435295
 31
0.0
  0
LINE
  5
176
330
1F
100
AcDbEntity
  8
0-0
  6
JWW_DASHED1
 62
   120
370
     5
100
AcDbLine
 10
-164.1558779471691
 20
-806.2668341083203
 30
0.0
 11
-84.15587794715492
 21
-726.2668341083054
 31
0.0
  0
LINE
  5
177
330
1F
100
AcDbEntity
  8
0-0
  6
JWW_DASHED1
 62
   120
370
     5
100
AcDbLine
 10
-164.1558779471504
 20
-796.3673391731395
 30
0.0
 11
-84.15587794715151
 21
-716.3673391731406
 31
0.0
  0
LINE
  5
178
330
1F
100
AcDbEntity
  8
0-0
  6
JWW_DASHED1
 62
   120
370
     5
100
AcDbLine
 10
-164.1558779471589
 20
-786.4678442379314
 30
0.0
 11
-84.15587794716004
 21
-706.4678442379328
 31
0.0
  0
LINE
  5
179
330
1F
100
AcDbEntity
  8
0-0
  6
JWW_DASHED1
 62
   120
370
     5
100
AcDbLine
 10
-164.1558779471674
 20
-776.5683493027234
 30
0.0
 11
-84.15587794716856
 21
-696.5683493027248
 31
0.0
  0
LINE
  5
17A
330
1F
100
AcDbEntity
  8
0-0
  6
JWW_DASHED1
 62
   120
370
     5
100
AcDbLine
 10
-164.155877947147
 20
-766.6688543675426
 30
0.0
 11
-84.1558779471481
 21
-686.668854367544
 31
0.0
  0
LINE
  5
17B
330
1F
100
AcDbEntity
  8
0-0
  6
JWW_DASHED1
 62
   120
370
     5
100
AcDbLine
 10
-164.1558779471572
 20
-756.769359432335
 30
0.0
 11
-84.15587794715833
 21
-676.7693594323359
 31
0.0
  0
LINE
  5
17C
330
1F
100
AcDbEntity
  8
0-0
  6
JWW_DASHED1
 62
   120
370
     5
100
AcDbLine
 10
-164.155877947164
 20
-746.8698644971265
 30
0.0
 11
-84.15587794716515
 21
-666.8698644971279
 31
0.0
  0
LINE
  5
17D
330
1F
100
AcDbEntity
  8
0-0
  6
JWW_DASHED1
 62
   120
370
     5
100
AcDbLine
 10
-164.155877947164
 20
-736.9703695619637
 30
0.0
 11
-84.1558779471498
 21
-656.9703695619495
 31
0.0
  0
LINE
  5
17E
330
1F
100
AcDbEntity
  8
0-0
  6
JWW_DASHED1
 62
   120
370
     5
100
AcDbLine
 10
-164.1558779471538
 20
-727.070874626738
 30
0.0
 11
-84.15587794715492
 21
-647.0708746267392
 31
0.0
  0
LINE
  5
17F
330
1F
100
AcDbEntity
  8
0-0
  6
JWW_DASHED1
 62
   120
370
     5
100
AcDbLine
 10
-164.1558779471623
 20
-717.1713796915301
 30
0.0
 11
-84.15587794716345
 21
-637.1713796915315
 31
0.0
  0
LINE
  5
180
330
1F
100
AcDbEntity
  8
0-0
  6
JWW_DASHED1
 62
   120
370
     5
100
AcDbLine
 10
-164.1558779471742
 20
-707.2718847563812
 30
0.0
 11
-84.15587794716174
 21
-627.2718847563663
 31
0.0
  0
LINE
  5
181
330
1F
100
AcDbEntity
  8
0-0
  6
JWW_DASHED1
 62
   120
370
     5
100
AcDbLine
 10
-164.1558779471521
 20
-697.3723898211414
 30
0.0
 11
-84.15587794715321
 21
-617.3723898211425
 31
0.0
  0
LINE
  5
182
330
1F
100
AcDbEntity
  8
0-0
  6
JWW_DASHED1
 62
   120
370
     5
100
AcDbLine
 10
-164.1558779471606
 20
-687.4728948859331
 30
0.0
 11
-84.15587794716174
 21
-607.4728948859347
 31
0.0
  0
LINE
  5
183
330
1F
100
AcDbEntity
  8
0-0
  6
JWW_DASHED1
 62
   120
370
     5
100
AcDbLine
 10
-164.1558779471725
 20
-677.573399950784
 30
0.0
 11
-84.15587794715833
 21
-597.57339995077
 31
0.0
  0
LINE
  5
184
330
1F
100
AcDbEntity
  8
0-0
  6
JWW_DASHED1
 62
   120
370
     5
100
AcDbLine
 10
-164.1558779471504
 20
-667.6739050155447
 30
0.0
 11
-84.15587794715151
 21
-587.6739050155459
 31
0.0
  0
LINE
  5
185
330
1F
100
AcDbEntity
  8
0-0
  6
JWW_DASHED1
 62
   120
370
     5
100
AcDbLine
 10
-164.1558779471572
 20
-657.7744100803367
 30
0.0
 11
-84.15587794715833
 21
-577.774410080338
 31
0.0
  0
LINE
  5
186
330
1F
100
AcDbEntity
  8
0-0
  6
JWW_DASHED1
 62
   120
370
     5
100
AcDbLine
 10
-164.1558779471708
 20
-647.8749151451877
 30
0.0
 11
-84.15587794715492
 21
-567.8749151451728
 31
0.0
  0
LINE
  5
187
330
1F
100
AcDbEntity
  8
0-0
  6
JWW_DASHED1
 62
   120
370
     5
100
AcDbLine
 10
-164.155877947164
 20
-637.9754202099637
 30
0.0
 11
-84.1558779471481
 21
-557.9754202099492
 31
0.0
  0
LINE
  5
188
330
1F
100
AcDbEntity
  8
0-0
  6
JWW_DASHED1
 62
   120
370
     5
100
AcDbLine
 10
-164.1558779471555
 20
-628.0759252747398
 30
0.0
 11
-84.15587794715663
 21
-548.0759252747412
 31
0.0
  0
LINE
  5
189
330
1F
100
AcDbEntity
  8
0-0
  6
JWW_DASHED1
 62
   120
370
     5
100
AcDbLine
 10
-164.1558779471674
 20
-618.1764303395909
 30
0.0
 11
-84.15587794716856
 21
-538.176430339592
 31
0.0
  0
LINE
  5
18A
330
1F
100
AcDbEntity
  8
0-0
  6
JWW_DASHED1
 62
   120
370
     5
100
AcDbLine
 10
-164.155877947164
 20
-608.2769354043703
 30
0.0
 11
-84.1558779471498
 21
-528.276935404356
 31
0.0
  0
LINE
  5
18B
330
1F
100
AcDbEntity
  8
0-0
  6
JWW_DASHED1
 62
   120
370
     5
100
AcDbLine
 10
-164.1558779471538
 20
-598.3774404691433
 30
0.0
 11
-84.15587794715492
 21
-518.3774404691446
 31
0.0
  0
LINE
  5
18C
330
1F
100
AcDbEntity
  8
0-0
  6
JWW_DASHED1
 62
   120
370
     5
100
AcDbLine
 10
-164.1558779471657
 20
-588.477945533994
 30
0.0
 11
-84.15587794716856
 21
-508.4779455339954
 31
0.0
  0
LINE
  5
18D
330
1F
100
AcDbEntity
  8
0-0
  6
JWW_DASHED1
 62
   120
370
     5
100
AcDbLine
 10
-164.1558779471742
 20
-578.5784505987864
 30
0.0
 11
-84.15587794716004
 21
-498.5784505987716
 31
0.0
  0
LINE
  5
18E
330
1F
100
AcDbEntity
  8
0-0
  6
JWW_DASHED1
 62
   120
370
     5
100
AcDbLine
 10
-164.1558779471538
 20
-568.6789556635763
 30
0.0
 11
-84.15587794715492
 21
-488.6789556635774
 31
0.0
  0
LINE
  5
18F
330
1F
100
AcDbEntity
  8
0-0
  6
JWW_DASHED1
 62
   120
370
     5
100
AcDbLine
 10
-164.155877947164
 20
-558.7794607283977
 30
0.0
 11
-84.15587794716515
 21
-478.7794607283988
 31
0.0
  0
LINE
  5
190
330
1F
100
AcDbEntity
  8
0-0
  6
JWW_DASHED1
 62
   120
370
     5
100
AcDbLine
 10
-164.1558779471725
 20
-548.8799657931896
 30
0.0
 11
-84.15587794715833
 21
-468.8799657931747
 31
0.0
  0
LINE
  5
191
330
1F
100
AcDbEntity
  8
0-0
  6
JWW_DASHED1
 62
   120
370
     5
100
AcDbLine
 10
-164.1558779471504
 20
-538.9804708579794
 30
0.0
 11
-84.15587794715321
 21
-458.9804708579805
 31
0.0
  0
LINE
  5
192
330
1F
100
AcDbEntity
  8
0-0
  6
JWW_DASHED1
 62
   120
370
     5
100
AcDbLine
 10
-164.1558779471623
 20
-529.0809759228008
 30
0.0
 11
-84.15587794716345
 21
-449.0809759228017
 31
0.0
  0
LINE
  5
193
330
1F
100
AcDbEntity
  8
0-0
  6
JWW_DASHED1
 62
   120
370
     5
100
AcDbLine
 10
-164.1558779471708
 20
-519.1814809875927
 30
0.0
 11
-84.15587794715492
 21
-439.1814809875785
 31
0.0
  0
LINE
  5
194
330
1F
100
AcDbEntity
  8
0-0
  6
JWW_DASHED1
 62
   120
370
     5
100
AcDbLine
 10
-164.1558779471504
 20
-509.2819860524122
 30
0.0
 11
-84.15587794715151
 21
-429.2819860524133
 31
0.0
  0
LINE
  5
195
330
1F
100
AcDbEntity
  8
0-0
  6
JWW_DASHED1
 62
   120
370
     5
100
AcDbLine
 10
-164.1558779471606
 20
-499.3824911172042
 30
0.0
 11
-84.15587794716174
 21
-419.3824911172055
 31
0.0
  0
LINE
  5
196
330
1F
100
AcDbEntity
  8
0-0
  6
JWW_DASHED1
 62
   120
370
     5
100
AcDbLine
 10
-164.1558779471674
 20
-489.4829961819961
 30
0.0
 11
-84.15587794716856
 21
-409.4829961819972
 31
0.0
  0
LINE
  5
197
330
1F
100
AcDbEntity
  8
0-0
  6
JWW_DASHED1
 62
   120
370
     5
100
AcDbLine
 10
-164.1558779471487
 20
-479.5835012468152
 30
0.0
 11
-84.1558779471498
 21
-399.5835012468167
 31
0.0
  0
LINE
  5
198
330
1F
100
AcDbEntity
  8
0-0
  6
JWW_DASHED1
 62
   120
370
     5
100
AcDbLine
 10
-164.1558779471572
 20
-469.6840063116073
 30
0.0
 11
-84.15587794715833
 21
-389.6840063116085
 31
0.0
  0
LINE
  5
199
330
1F
100
AcDbEntity
  8
0-0
  6
JWW_DASHED1
 62
   120
370
     5
100
AcDbLine
 10
-164.1558779471657
 20
-459.7845113763995
 30
0.0
 11
-84.15587794716686
 21
-379.7845113764006
 31
0.0
  0
LINE
  5
19A
330
1F
100
AcDbEntity
  8
0-0
  6
JWW_DASHED1
 62
   120
370
     5
100
AcDbLine
 10
-164.1558779471674
 20
-449.8850164412386
 30
0.0
 11
-84.15587794715321
 21
-369.8850164412248
 31
0.0
  0
LINE
  5
19B
330
1F
100
AcDbEntity
  8
0-0
  6
JWW_DASHED1
 62
   120
370
     5
100
AcDbLine
 10
-164.1558779471555
 20
-439.9855215060111
 30
0.0
 11
-84.15587794715663
 21
-359.9855215060123
 31
0.0
  0
LINE
  5
19C
330
1F
100
AcDbEntity
  8
0-0
  6
JWW_DASHED1
 62
   120
370
     5
100
AcDbLine
 10
-164.155877947164
 20
-430.0860265708029
 30
0.0
 11
-84.15587794716515
 21
-350.0860265708036
 31
0.0
  0
LINE
  5
19D
330
1F
100
AcDbEntity
  8
0-0
  6
JWW_DASHED1
 62
   120
370
     5
100
AcDbLine
 10
-164.1558779471777
 20
-420.1865316356539
 30
0.0
 11
-84.15587794716174
 21
-340.1865316356393
 31
0.0
  0
LINE
  5
19E
330
1F
100
AcDbEntity
  8
0-0
  6
JWW_DASHED1
 62
   120
370
     5
100
AcDbLine
 10
-164.1558779471538
 20
-410.2870367004141
 30
0.0
 11
-84.15587794715492
 21
-330.2870367004152
 31
0.0
  0
LINE
  5
19F
330
1F
100
AcDbEntity
  8
0-0
  6
JWW_DASHED1
 62
   120
370
     5
100
AcDbLine
 10
-164.1558779471606
 20
-400.3875417652063
 30
0.0
 11
-84.15587794716174
 21
-320.3875417652074
 31
0.0
  0
LINE
  5
1A0
330
1F
100
AcDbEntity
  8
0-0
  6
JWW_DASHED1
 62
   120
370
     5
100
AcDbLine
 10
-164.1558779471742
 20
-390.4880468300573
 30
0.0
 11
-84.15587794716004
 21
-310.4880468300427
 31
0.0
  0
LINE
  5
1A1
330
1F
100
AcDbEntity
  8
0-0
  6
JWW_DASHED1
 62
   120
370
     5
100
AcDbLine
 10
-164.1558779471504
 20
-380.588551894817
 30
0.0
 11
-84.15587794715151
 21
-300.5885518948186
 31
0.0
  0
LINE
  5
1A2
330
1F
100
AcDbEntity
  8
0-0
  6
JWW_DASHED1
 62
   120
370
     5
100
AcDbLine
 10
-164.1558779471589
 20
-370.6890569596092
 30
0.0
 11
-84.15587794716004
 21
-290.6890569596104
 31
0.0
  0
LINE
  5
1A3
330
1F
100
AcDbEntity
  8
0-0
  6
JWW_DASHED1
 62
   120
370
     5
100
AcDbLine
 10
-164.1558779471708
 20
-360.7895620244602
 30
0.0
 11
-84.15587794715833
 21
-280.7895620244456
 31
0.0
  0
LINE
  5
1A4
330
1F
100
AcDbEntity
  8
0-0
  6
JWW_DASHED1
 62
   120
370
     5
100
AcDbLine
 10
-164.155877947164
 20
-350.8900670892366
 30
0.0
 11
-84.1558779471498
 21
-270.890067089222
 31
0.0
  0
LINE
  5
1A5
330
1F
100
AcDbEntity
  8
0-0
  6
JWW_DASHED1
 62
   120
370
     5
100
AcDbLine
 10
-164.1558779471572
 20
-340.9905721540126
 30
0.0
 11
-84.15587794715833
 21
-260.9905721540142
 31
0.0
  0
LINE
  5
1A6
330
1F
100
AcDbEntity
  8
0-0
  6
JWW_DASHED1
 62
   120
370
     5
100
AcDbLine
 10
-164.1558779471708
 20
-331.0910772188636
 30
0.0
 11
-84.15587794717197
 21
-251.0910772188647
 31
0.0
  0
LINE
  5
1A7
330
1F
100
AcDbEntity
  8
0-0
  6
JWW_DASHED1
 62
   120
370
     5
100
AcDbLine
 10
-164.1558779471674
 20
-321.1915822836451
 30
0.0
 11
-84.15587794715321
 21
-241.1915822836309
 31
0.0
  0
LINE
  5
1A8
330
1F
100
AcDbEntity
  8
0-0
  6
JWW_DASHED1
 62
   120
370
     5
100
AcDbLine
 10
-164.1558779471555
 20
-311.292087348416
 30
0.0
 11
-84.15587794715492
 21
-231.2920873484171
 31
0.0
  0
LINE
  5
1A9
330
1F
100
AcDbEntity
  8
0-0
  6
JWW_DASHED1
 62
   120
370
     5
100
AcDbLine
 10
-164.1558779471674
 20
-301.392592413267
 30
0.0
 11
-84.15587794716856
 21
-221.3925924132681
 31
0.0
  0
LINE
  5
1AA
330
1F
100
AcDbEntity
  8
0-0
  6
JWW_DASHED1
 62
   120
370
     5
100
AcDbLine
 10
-164.155877947176
 20
-291.4930974780592
 30
0.0
 11
-84.15587794716174
 21
-211.4930974780441
 31
0.0
  0
LINE
  5
1AB
330
1F
100
AcDbEntity
  8
0-0
  6
JWW_DASHED1
 62
   120
370
     5
100
AcDbLine
 10
-164.1558779471521
 20
-281.5936025428189
 30
0.0
 11
-84.15587794715492
 21
-201.5936025428209
 31
0.0
  0
LINE
  5
1AC
330
1F
100
AcDbEntity
  8
0-0
  6
JWW_DASHED1
 62
   120
370
     5
100
AcDbLine
 10
-164.1558779471657
 20
-271.6941076076704
 30
0.0
 11
-84.15587794716686
 21
-191.6941076076711
 31
0.0
  0
LINE
  5
1AD
330
1F
100
AcDbEntity
  8
0-0
  6
JWW_DASHED1
 62
   120
370
     5
100
AcDbLine
 10
-164.1558779471742
 20
-261.7946126724621
 30
0.0
 11
-84.15587794715833
 21
-181.7946126724475
 31
0.0
  0
LINE
  5
1AE
330
1F
100
AcDbEntity
  8
0-0
  6
JWW_DASHED1
 62
   120
370
     5
100
AcDbLine
 10
-164.1558779471657
 20
-251.8951177372381
 30
0.0
 11
-84.15587794715151
 21
-171.8951177372239
 31
0.0
  0
LINE
  5
1AF
330
1F
100
AcDbEntity
  8
0-0
  6
JWW_DASHED1
 62
   120
370
     5
100
AcDbLine
 10
-164.155877947164
 20
-241.9956228020733
 30
0.0
 11
-84.15587794716515
 21
-161.9956228020749
 31
0.0
  0
LINE
  5
1B0
330
1F
100
AcDbEntity
  8
0-0
  6
JWW_DASHED1
 62
   120
370
     5
100
AcDbLine
 10
-164.1558779471708
 20
-232.0961278668655
 30
0.0
 11
-84.15587794717197
 21
-152.0961278668671
 31
0.0
  0
LINE
  5
1B1
330
1F
100
AcDbEntity
  8
0-0
  6
JWW_DASHED1
 62
   120
370
     5
100
AcDbLine
 10
-164.1558779471708
 20
-222.1966329316479
 30
0.0
 11
-84.15587794715492
 21
-142.1966329316336
 31
0.0
  0
LINE
  5
1B2
330
1F
100
AcDbEntity
  8
0-0
  6
JWW_DASHED1
 62
   120
370
     5
100
AcDbLine
 10
-164.1558779471606
 20
-212.2971379964767
 30
0.0
 11
-84.15587794716174
 21
-132.2971379964778
 31
0.0
  0
LINE
  5
1B3
330
1F
100
AcDbEntity
  8
0-0
  6
JWW_DASHED1
 62
   120
370
     5
100
AcDbLine
 10
-164.1558779471691
 20
-202.3976430612689
 30
0.0
 11
-84.15587794717027
 21
-122.39764306127
 31
0.0
  0
LINE
  5
1B4
330
1F
100
AcDbEntity
  8
0-0
  6
JWW_DASHED1
 62
   120
370
     5
100
AcDbLine
 10
-164.1558779471777
 20
-192.498148126061
 30
0.0
 11
-84.15587794716345
 21
-112.4981481260464
 31
0.0
  0
LINE
  5
1B5
330
1F
100
AcDbEntity
  8
0-0
  6
JWW_DASHED1
 62
   120
370
     5
100
AcDbLine
 10
-164.1558779471589
 20
-182.5986531908801
 30
0.0
 11
-84.15587794716004
 21
-102.5986531908812
 31
0.0
  0
LINE
  5
1B6
330
1F
100
AcDbEntity
  8
0-0
  6
JWW_DASHED1
 62
   120
370
     5
100
AcDbLine
 10
-164.1558779471674
 20
-172.6991582556722
 30
0.0
 11
-84.15587794716856
 21
-92.69915825567296
 31
0.0
  0
LINE
  5
1B7
330
1F
100
AcDbEntity
  8
0-0
  6
JWW_DASHED1
 62
   120
370
     5
100
AcDbLine
 10
-164.1558779471742
 20
-162.799663320464
 30
0.0
 11
-84.15587794716174
 21
-82.79966332044978
 31
0.0
  0
LINE
  5
1B8
330
1F
100
AcDbEntity
  8
0-0
  6
JWW_DASHED1
 62
   120
370
     5
100
AcDbLine
 10
-164.1558779471572
 20
-152.9001683852835
 30
0.0
 11
-84.15587794715833
 21
-72.90016838528459
 31
0.0
  0
LINE
  5
1B9
330
1F
100
AcDbEntity
  8
0-0
  6
JWW_DASHED1
 62
   120
370
     5
100
AcDbLine
 10
-164.155877947164
 20
-143.0006734500756
 30
0.0
 11
-84.15587794716515
 21
-63.00067345007676
 31
0.0
  0
LINE
  5
1BA
330
1F
100
AcDbEntity
  8
0-0
  6
JWW_DASHED1
 62
   120
370
     5
100
AcDbLine
 10
-164.1558779471742
 20
-133.1011785148678
 30
0.0
 11
-84.15587794715833
 21
-53.10117851485273
 31
0.0
  0
LINE
  5
1BB
330
1F
100
AcDbEntity
  8
0-0
  6
JWW_DASHED1
 62
   120
370
     5
100
AcDbLine
 10
-164.1558779471538
 20
-123.2016835796868
 30
0.0
 11
-84.15587794715492
 21
-43.20168357968797
 31
0.0
  0
LINE
  5
1BC
330
1F
100
AcDbEntity
  8
0-0
  6
JWW_DASHED1
 62
   120
370
     5
100
AcDbLine
 10
-164.1558779471623
 20
-113.3021886444786
 30
0.0
 11
-84.15587794716345
 21
-33.30218864448014
 31
0.0
  0
LINE
  5
1BD
330
1F
100
AcDbEntity
  8
0-0
  6
JWW_DASHED1
 62
   120
370
     5
100
AcDbLine
 10
-164.1558779471708
 20
-103.4026937092707
 30
0.0
 11
-84.15587794717197
 21
-23.40269370927189
 31
0.0
  0
LINE
  5
1BE
330
1F
100
AcDbEntity
  8
0-0
  6
JWW_DASHED1
 62
   120
370
     5
100
AcDbLine
 10
-164.1558779471521
 20
-93.50319877409021
 30
0.0
 11
-84.15587794715321
 21
-13.50319877409135
 31
0.0
  0
LINE
  5
1BF
330
1F
100
AcDbEntity
  8
0-0
  6
JWW_DASHED1
 62
   120
370
     5
100
AcDbLine
 10
-164.1558779471606
 20
-83.60370383888196
 30
0.0
 11
-84.15587794716174
 21
-3.603703838883519
 31
0.0
  0
LINE
  5
1C0
330
1F
100
AcDbEntity
  8
0-0
  6
JWW_DASHED1
 62
   120
370
     5
100
AcDbLine
 10
-164.1558779471691
 20
-73.7042089036737
 30
0.0
 11
-84.15587794717027
 21
6.295791096324734
 31
0.0
  0
LINE
  5
1C1
330
1F
100
AcDbEntity
  8
0-0
  6
JWW_DASHED1
 62
   120
370
     5
100
AcDbLine
 10
-164.1558779471657
 20
-63.80471396850936
 30
0.0
 11
-84.15587794715151
 21
16.1952860315057
 31
0.0
  0
LINE
  5
1C2
330
1F
100
AcDbEntity
  8
0-0
  6
JWW_DASHED1
 62
   120
370
     5
100
AcDbLine
 10
-164.1558779471572
 20
-53.90521903328533
 30
0.0
 11
-84.15587794715833
 21
26.09478096671353
 31
0.0
  0
LINE
  5
1C3
330
1F
100
AcDbEntity
  8
0-0
  6
JWW_DASHED1
 62
   120
370
     5
100
AcDbLine
 10
-164.1558779471674
 20
-44.00572409807751
 30
0.0
 11
-84.15587794716856
 21
35.99427590192136
 31
0.0
  0
LINE
  5
1C4
330
1F
100
AcDbEntity
  8
0-0
  6
JWW_DASHED1
 62
   120
370
     5
100
AcDbLine
 10
-164.1558779471708
 20
-34.10622916291999
 30
0.0
 11
-84.15587794715833
 21
45.8937708370938
 31
0.0
  0
LINE
  5
1C5
330
1F
100
AcDbEntity
  8
0-0
  6
JWW_DASHED1
 62
   120
370
     5
100
AcDbLine
 10
-164.1558779471555
 20
-24.20673422768829
 30
0.0
 11
-84.15587794715833
 21
55.79326577231015
 31
0.0
  0
LINE
  5
1C6
330
1F
100
AcDbEntity
  8
0-0
  6
JWW_DASHED1
 62
   120
370
     5
100
AcDbLine
 10
-164.155877947164
 20
-14.30723929248089
 30
0.0
 11
-84.15587794716515
 21
65.6927607075184
 31
0.0
  0
LINE
  5
1C7
330
1F
100
AcDbEntity
  8
0-0
  6
JWW_DASHED1
 62
   120
370
     5
100
AcDbLine
 10
-164.1558779471777
 20
-4.407744357331467
 30
0.0
 11
-84.15587794716174
 21
75.59225564268274
 31
0.0
  0
LINE
  5
1C8
330
1F
100
AcDbEntity
  8
0-0
  6
JWW_DASHED1
 62
   120
370
     5
100
AcDbLine
 10
-164.1558779471538
 20
5.491750577907908
 30
0.0
 11
-84.15587794715492
 21
85.49175057790677
 31
0.0
  0
LINE
  5
1C9
330
1F
100
AcDbEntity
  8
0-0
  6
JWW_DASHED1
 62
   120
370
     5
100
AcDbLine
 10
-164.1558779471623
 20
15.39124551311573
 30
0.0
 11
-84.15587794716345
 21
95.3912455131146
 31
0.0
  0
LINE
  5
1CA
330
1F
100
AcDbEntity
  8
0-0
  6
JWW_DASHED1
 62
   120
370
     5
100
AcDbLine
 10
-164.1558779471742
 20
25.29074044826558
 30
0.0
 11
-84.15587794716004
 21
105.2907404482798
 31
0.0
  0
LINE
  5
1CB
330
1F
100
AcDbEntity
  8
0-0
  6
JWW_DASHED1
 62
   120
370
     5
100
AcDbLine
 10
-164.1558779471674
 20
35.19023538348875
 30
0.0
 11
-84.15587794715321
 21
115.1902353835034
 31
0.0
  0
LINE
  5
1CC
330
1F
100
AcDbEntity
  8
0-0
  6
JWW_DASHED1
 62
   120
370
     5
100
AcDbLine
 10
-164.1558779471606
 20
45.08973031871278
 30
0.0
 11
-84.15587794716174
 21
125.0897303187116
 31
0.0
  0
LINE
  5
1CD
330
1F
100
AcDbEntity
  8
0-0
  6
JWW_DASHED1
 62
   120
370
     5
100
AcDbLine
 10
-164.1558779471725
 20
54.98922525386178
 30
0.0
 11
-84.15587794717368
 21
134.9892252538606
 31
0.0
  0
LINE
  5
1CE
330
1F
100
AcDbEntity
  8
0-0
  6
JWW_DASHED1
 62
   120
370
     5
100
AcDbLine
 10
-164.1558779471742
 20
64.88872018907728
 30
0.0
 11
-84.15587794716004
 21
144.8887201890915
 31
0.0
  0
LINE
  5
1CF
330
1F
100
AcDbEntity
  8
0-0
  6
JWW_DASHED1
 62
   120
370
     5
100
AcDbLine
 10
-164.1558779471623
 20
74.78821512425057
 30
0.0
 11
-84.15587794716345
 21
154.788215124249
 31
0.0
  0
LINE
  5
1D0
330
1F
100
AcDbEntity
  8
0-0
  6
JWW_DASHED1
 62
   120
370
     5
100
AcDbLine
 10
-164.1558779471708
 20
84.68771005945882
 30
0.0
 11
-84.15587794717197
 21
164.6877100594573
 31
0.0
  0
LINE
  5
1D1
330
1F
100
AcDbEntity
  8
0-0
  6
JWW_DASHED1
 62
   120
370
     5
100
AcDbLine
 10
-164.1558779471777
 20
94.58720499466665
 30
0.0
 11
-84.15587794716515
 21
174.5872049946809
 31
0.0
  0
LINE
  5
1D2
330
1F
100
AcDbEntity
  8
0-0
  6
JWW_DASHED1
 62
   120
370
     5
100
AcDbLine
 10
-164.1558779471606
 20
104.4866999298472
 30
0.0
 11
-84.15587794716174
 21
184.4866999298461
 31
0.0
  0
LINE
  5
1D3
330
1F
100
AcDbEntity
  8
0-0
  6
JWW_DASHED1
 62
   120
370
     5
100
AcDbLine
 10
-164.1558779471674
 20
114.386194865055
 30
0.0
 11
-84.15587794716856
 21
194.3861948650539
 31
0.0
  0
LINE
  5
1D4
330
1F
100
AcDbEntity
  8
0-0
  6
JWW_DASHED1
 62
   120
370
     5
100
AcDbLine
 10
-164.155877947176
 20
124.2856898002633
 30
0.0
 11
-84.15587794716174
 21
204.2856898002779
 31
0.0
  0
LINE
  5
1D5
330
1F
100
AcDbEntity
  8
0-0
  6
JWW_DASHED1
 62
   120
370
     5
100
AcDbLine
 10
-164.1558779471572
 20
134.1851847354438
 30
0.0
 11
-84.15587794715833
 21
214.1851847354431
 31
0.0
  0
LINE
  5
1D6
330
1F
100
AcDbEntity
  8
0-0
  6
JWW_DASHED1
 62
   120
370
     5
100
AcDbLine
 10
-164.1558779471657
 20
144.0846796706521
 30
0.0
 11
-84.15587794716856
 21
224.0846796706505
 31
0.0
  0
LINE
  5
1D7
330
1F
100
AcDbEntity
  8
0-0
  6
JWW_DASHED1
 62
   120
370
     5
100
AcDbLine
 10
-164.1558779471742
 20
153.9841746058599
 30
0.0
 11
-84.15587794716004
 21
233.9841746058745
 31
0.0
  0
LINE
  5
1D8
330
1F
100
AcDbEntity
  8
0-0
  6
JWW_DASHED1
 62
   120
370
     5
100
AcDbLine
 10
-164.1558779471555
 20
163.8836695410404
 30
0.0
 11
-84.15587794715663
 21
243.8836695410393
 31
0.0
  0
LINE
  5
1D9
330
1F
100
AcDbEntity
  8
0-0
  6
JWW_DASHED1
 62
   120
370
     5
100
AcDbLine
 10
-164.155877947164
 20
173.7831644762491
 30
0.0
 11
-84.15587794716515
 21
253.7831644762471
 31
0.0
  0
LINE
  5
1DA
330
1F
100
AcDbEntity
  8
0-0
  6
JWW_DASHED1
 62
   120
370
     5
100
AcDbLine
 10
-164.1558779471725
 20
183.6826594114565
 30
0.0
 11
-84.15587794717368
 21
263.6826594114553
 31
0.0
  0
LINE
  5
1DB
330
1F
100
AcDbEntity
  8
0-0
  6
JWW_DASHED1
 62
   120
370
     5
100
AcDbLine
 10
-164.1558779471538
 20
193.5821543466371
 30
0.0
 11
-84.15587794715492
 21
273.5821543466359
 31
0.0
  0
LINE
  5
1DC
330
1F
100
AcDbEntity
  8
0-0
  6
JWW_DASHED1
 62
   120
370
     5
100
AcDbLine
 10
-164.1558779471606
 20
203.4816492818453
 30
0.0
 11
-84.15587794716174
 21
283.4816492818442
 31
0.0
  0
LINE
  5
1DD
330
1F
100
AcDbEntity
  8
0-0
  6
JWW_DASHED1
 62
   120
370
     5
100
AcDbLine
 10
-164.1558779471708
 20
213.3811442170531
 30
0.0
 11
-84.15587794717197
 21
293.381144217052
 31
0.0
  0
LINE
  5
1DE
330
1F
100
AcDbEntity
  8
0-0
  6
JWW_DASHED1
 62
   120
370
     5
100
AcDbLine
 10
-164.155877947176
 20
223.2806391522089
 30
0.0
 11
-84.15587794716174
 21
303.2806391522223
 31
0.0
  0
LINE
  5
1DF
330
1F
100
AcDbEntity
  8
0-0
  6
JWW_DASHED1
 62
   120
370
     5
100
AcDbLine
 10
-164.1558779471589
 20
233.1801340874424
 30
0.0
 11
-84.15587794716174
 21
313.1801340874408
 31
0.0
  0
LINE
  5
1E0
330
1F
100
AcDbEntity
  8
0-0
  6
JWW_DASHED1
 62
   120
370
     5
100
AcDbLine
 10
-164.1558779471674
 20
243.0796290226498
 30
0.0
 11
-84.15587794716856
 21
323.079629022649
 31
0.0
  0
LINE
  5
1E1
330
1F
100
AcDbEntity
  8
0-0
  6
JWW_DASHED1
 62
   120
370
     5
100
AcDbLine
 10
-164.1558779471811
 20
252.9791239577992
 30
0.0
 11
-84.15587794716515
 21
332.9791239578134
 31
0.0
  0
LINE
  5
1E2
330
1F
100
AcDbEntity
  8
0-0
  6
JWW_DASHED1
 62
   120
370
     5
100
AcDbLine
 10
-164.1558779471572
 20
262.8786188930385
 30
0.0
 11
-84.15587794715833
 21
342.8786188930374
 31
0.0
  0
LINE
  5
1E3
330
1F
100
AcDbEntity
  8
0-0
  6
JWW_DASHED1
 62
   120
370
     5
100
AcDbLine
 10
-164.1558779471657
 20
272.7781138282464
 30
0.0
 11
-84.15587794716686
 21
352.7781138282452
 31
0.0
  0
LINE
  5
1E4
330
1F
100
AcDbEntity
  8
0-0
  6
JWW_DASHED1
 62
   120
370
     5
100
AcDbLine
 10
-164.1558779471777
 20
282.6776087633962
 30
0.0
 11
-84.15587794716345
 21
362.6776087634104
 31
0.0
  0
LINE
  5
1E5
330
1F
100
AcDbEntity
  8
0-0
  6
JWW_DASHED1
 62
   120
370
     5
100
AcDbLine
 10
-164.1558779471555
 20
292.5771036986356
 30
0.0
 11
-84.15587794715663
 21
372.577103698634
 31
0.0
  0
LINE
  5
1E6
330
1F
100
AcDbEntity
  8
0-0
  6
JWW_DASHED1
 62
   120
370
     5
100
AcDbLine
 10
-164.155877947164
 20
302.4765986338434
 30
0.0
 11
-84.15587794716515
 21
382.4765986338423
 31
0.0
  0
LINE
  5
1E7
330
1F
100
AcDbEntity
  8
0-0
  6
JWW_DASHED1
 62
   120
370
     5
100
AcDbLine
 10
-164.155877947176
 20
312.3760935689924
 30
0.0
 11
-84.15587794716174
 21
392.376093569007
 31
0.0
  0
LINE
  5
1E8
330
1F
100
AcDbEntity
  8
0-0
  6
JWW_DASHED1
 62
   120
370
     5
100
AcDbLine
 10
-164.1558779471691
 20
322.275588504216
 30
0.0
 11
-84.15587794715492
 21
402.2755885042307
 31
0.0
  0
LINE
  5
1E9
330
1F
100
AcDbEntity
  8
0-0
  6
JWW_DASHED1
 62
   120
370
     5
100
AcDbLine
 10
-164.1558779471606
 20
332.1750834394401
 30
0.0
 11
-84.15587794716174
 21
412.1750834394393
 31
0.0
  0
LINE
  5
1EA
330
1F
100
AcDbEntity
  8
0-0
  6
JWW_DASHED1
 62
   120
370
     5
100
AcDbLine
 10
-164.1558779471742
 20
342.074578374589
 30
0.0
 11
-84.15587794717538
 21
422.0745783745879
 31
0.0
  0
LINE
  5
1EB
330
1F
100
AcDbEntity
  8
0-0
  6
JWW_DASHED1
 62
   120
370
     5
100
AcDbLine
 10
-164.1558779471777
 20
351.9740733098024
 30
0.0
 11
-84.15587794716345
 21
431.9740733098162
 31
0.0
  0
LINE
  5
1EC
330
1F
100
AcDbEntity
  8
0-0
  6
JWW_DASHED1
 62
   120
370
     5
100
AcDbLine
 10
-164.1558779471589
 20
361.8735682450367
 30
0.0
 11
-84.15587794716004
 21
441.8735682450355
 31
0.0
  0
LINE
  5
1ED
330
1F
100
AcDbEntity
  8
0-0
  6
JWW_DASHED1
 62
   120
370
     5
100
AcDbLine
 10
-164.1558779471708
 20
371.7730631801857
 30
0.0
 11
-84.15587794717197
 21
451.7730631801845
 31
0.0
  0
LINE
  5
1EE
330
1F
100
AcDbEntity
  8
0-0
  6
JWW_DASHED1
 62
   120
370
     5
100
AcDbLine
 10
-164.1558779471811
 20
381.6725581153939
 30
0.0
 11
-84.15587794716515
 21
461.6725581154085
 31
0.0
  0
LINE
  5
1EF
330
1F
100
AcDbEntity
  8
0-0
  6
JWW_DASHED1
 62
   120
370
     5
100
AcDbLine
 10
-164.1558779471572
 20
391.5720530506333
 30
0.0
 11
-84.15587794715833
 21
471.5720530506321
 31
0.0
  0
LINE
  5
1F0
330
1F
100
AcDbEntity
  8
0-0
  6
JWW_DASHED1
 62
   120
370
     5
100
AcDbLine
 10
-164.1558779471691
 20
401.4715479857827
 30
0.0
 11
-84.15587794717027
 21
481.4715479857812
 31
0.0
  0
LINE
  5
1F1
330
1F
100
AcDbEntity
  8
0-0
  6
JWW_DASHED1
 62
   120
370
     5
100
AcDbLine
 10
-164.1558779471777
 20
411.3710429209905
 30
0.0
 11
-84.15587794716345
 21
491.3710429210051
 31
0.0
  0
LINE
  5
1F2
330
1F
100
AcDbEntity
  8
0-0
  6
JWW_DASHED1
 62
   120
370
     5
100
AcDbLine
 10
-164.1558779471538
 20
421.2705378562299
 30
0.0
 11
-84.15587794715492
 21
501.2705378562288
 31
0.0
  0
LINE
  5
1F3
330
1F
100
AcDbEntity
  8
0-0
  6
JWW_DASHED1
 62
   120
370
     5
100
AcDbLine
 10
-164.1558779471674
 20
431.1700327913789
 30
0.0
 11
-84.15587794716856
 21
511.1700327913778
 31
0.0
  0
LINE
  5
1F4
330
1F
100
AcDbEntity
  8
0-0
  6
JWW_DASHED1
 62
   120
370
     5
100
AcDbLine
 10
-164.155877947176
 20
441.0695277265871
 30
0.0
 11
-84.15587794716174
 21
521.0695277266018
 31
0.0
  0
LINE
  5
1F5
330
1F
100
AcDbEntity
  8
0-0
  6
JWW_DASHED1
 62
   120
370
     5
100
AcDbLine
 10
-164.1558779471794
 20
450.9690226617997
 30
0.0
 11
-84.15587794716515
 21
530.9690226618135
 31
0.0
  0
LINE
  5
1F6
330
1F
100
AcDbEntity
  8
0-0
  6
JWW_DASHED1
 62
   120
370
     5
100
AcDbLine
 10
-164.155877947164
 20
460.8685175969759
 30
0.0
 11
-84.15587794716515
 21
540.8685175969748
 31
0.0
  0
LINE
  5
1F7
330
1F
100
AcDbEntity
  8
0-0
  6
JWW_DASHED1
 62
   120
370
     5
100
AcDbLine
 10
-164.1558779471742
 20
470.7680125321838
 30
0.0
 11
-84.15587794717538
 21
550.7680125321826
 31
0.0
  0
LINE
  5
1F8
330
1F
100
AcDbEntity
  8
0-0
  6
JWW_DASHED1
 62
   120
370
     5
100
AcDbLine
 10
-164.1558779471811
 20
480.6675074673921
 30
0.0
 11
-84.15587794716856
 21
560.6675074674063
 31
0.0
  0
LINE
  5
1F9
330
1F
100
AcDbEntity
  8
0-0
  6
JWW_DASHED1
 62
   120
370
     5
100
AcDbLine
 10
-164.155877947164
 20
490.5670024025726
 30
0.0
 11
-84.15587794716345
 21
570.5670024025715
 31
0.0
  0
LINE
  5
1FA
330
1F
100
AcDbEntity
  8
0-0
  6
JWW_DASHED1
 62
   120
370
     5
100
AcDbLine
 10
-164.1558779471708
 20
500.4664973377804
 30
0.0
 11
-84.15587794717197
 21
580.4664973377793
 31
0.0
  0
LINE
  5
1FB
330
1F
100
AcDbEntity
  8
0-0
  6
JWW_DASHED1
 62
   120
370
     5
100
AcDbLine
 10
-164.1558779471794
 20
510.3659922729886
 30
0.0
 11
-84.15587794716515
 21
590.3659922730028
 31
0.0
  0
LINE
  5
1FC
330
1F
100
AcDbEntity
  8
0-0
  6
JWW_DASHED1
 62
   120
370
     5
100
AcDbLine
 10
-164.1558779471606
 20
520.2654872081691
 30
0.0
 11
-84.15587794716174
 21
600.265487208168
 31
0.0
  0
LINE
  5
1FD
330
1F
100
AcDbEntity
  8
0-0
  6
JWW_DASHED1
 62
   120
370
     5
100
AcDbLine
 10
-164.1558779471691
 20
530.1649821433774
 30
0.0
 11
-84.15587794717027
 21
610.1649821433759
 31
0.0
  0
LINE
  5
1FE
330
1F
100
AcDbEntity
  8
0-0
  6
JWW_DASHED1
 62
   120
370
     5
100
AcDbLine
 10
-164.1558779471777
 20
540.0644770785852
 30
0.0
 11
-84.15587794716174
 21
620.0644770785999
 31
0.0
  0
LINE
  5
1FF
330
1F
100
AcDbEntity
  8
0-0
  6
JWW_DASHED1
 62
   120
370
     5
100
AcDbLine
 10
-164.1558779471589
 20
549.9639720137658
 30
0.0
 11
-84.15587794715833
 21
629.9639720137651
 31
0.0
  0
LINE
  5
200
330
1F
100
AcDbEntity
  8
0-0
  6
JWW_DASHED1
 62
   120
370
     5
100
AcDbLine
 10
-164.1558779471674
 20
559.8634669489741
 30
0.0
 11
-84.15587794716856
 21
639.8634669489725
 31
0.0
  0
LINE
  5
201
330
1F
100
AcDbEntity
  8
0-0
  6
JWW_DASHED1
 62
   120
370
     5
100
AcDbLine
 10
-164.1558779471742
 20
569.7629618841819
 30
0.0
 11
-84.15587794717538
 21
649.7629618841808
 31
0.0
  0
LINE
  5
202
330
1F
100
AcDbEntity
  8
0-0
  6
JWW_DASHED1
 62
   120
370
     5
100
AcDbLine
 10
-164.1558779471572
 20
579.6624568193624
 30
0.0
 11
-84.15587794715833
 21
659.6624568193613
 31
0.0
  0
LINE
  5
203
330
1F
100
AcDbEntity
  8
0-0
  6
JWW_DASHED1
 62
   120
370
     5
100
AcDbLine
 10
-164.155877947164
 20
589.5619517545707
 30
0.0
 11
-84.15587794716515
 21
669.5619517545691
 31
0.0
  0
LINE
  5
204
330
1F
100
AcDbEntity
  8
0-0
  6
JWW_DASHED1
 62
   120
370
     5
100
AcDbLine
 10
-164.1558779471725
 20
599.4614466897785
 30
0.0
 11
-84.15587794717538
 21
679.4614466897774
 31
0.0
  0
LINE
  5
205
330
1F
100
AcDbEntity
  8
0-0
  6
JWW_DASHED1
 62
   120
370
     5
100
AcDbLine
 10
-164.1558779471708
 20
609.3609416249433
 30
0.0
 11
-84.15587794715492
 21
689.3609416249583
 31
0.0
  0
LINE
  5
206
330
1F
100
AcDbEntity
  8
0-0
  6
JWW_DASHED1
 62
   120
370
     5
100
AcDbLine
 10
-164.1558779471623
 20
619.2604365601674
 30
0.0
 11
-84.15587794716345
 21
699.2604365601662
 31
0.0
  0
LINE
  5
207
330
1F
100
AcDbEntity
  8
0-0
  6
JWW_DASHED1
 62
   120
370
     5
100
AcDbLine
 10
-164.1558779471725
 20
629.1599314953457
 30
0.0
 11
-84.15587794717538
 21
709.1599314953446
 31
0.0
  0
LINE
  5
208
330
1F
100
AcDbEntity
  8
0-0
  6
JWW_DASHED1
 62
   120
370
     5
100
AcDbLine
 10
-164.1558779471811
 20
639.0594264305275
 30
0.0
 11
-84.15587794716686
 21
719.059426430541
 31
0.0
  0
LINE
  5
209
330
1F
100
AcDbEntity
  8
0-0
  6
JWW_DASHED1
 62
   120
370
     5
100
AcDbLine
 10
-164.1558779471606
 20
648.9589213657639
 30
0.0
 11
-84.15587794716174
 21
728.9589213657628
 31
0.0
  0
LINE
  5
20A
330
1F
100
AcDbEntity
  8
0-0
  6
JWW_DASHED1
 62
   120
370
     5
100
AcDbLine
 10
-164.1558779471708
 20
658.8584163009427
 30
0.0
 11
-84.15587794717197
 21
738.8584163009411
 31
0.0
  0
LINE
  5
20B
330
1F
100
AcDbEntity
  8
0-0
  6
JWW_DASHED1
 62
   120
370
     5
100
AcDbLine
 10
-164.1558779471811
 20
668.7579112361211
 30
0.0
 11
-84.15587794716686
 21
748.7579112361354
 31
0.0
  0
LINE
  5
20C
330
1F
100
AcDbEntity
  8
0-0
  6
JWW_DASHED1
 62
   120
370
     5
100
AcDbLine
 10
-164.1558779471572
 20
678.657406171361
 30
0.0
 11
-84.15587794715833
 21
758.6574061713594
 31
0.0
  0
LINE
  5
20D
330
1F
100
AcDbEntity
  8
0-0
  6
JWW_DASHED1
 62
   120
370
     5
100
AcDbLine
 10
-164.1558779471674
 20
688.5569011065394
 30
0.0
 11
-84.15587794716856
 21
768.5569011065382
 31
0.0
  0
LINE
  5
20E
330
1F
100
AcDbEntity
  8
0-0
  6
JWW_DASHED1
 62
   120
370
     5
100
AcDbLine
 10
-164.1558779471777
 20
698.4563960417182
 30
0.0
 11
-84.15587794716515
 21
778.4563960417324
 31
0.0
  0
LINE
  5
20F
330
1F
100
AcDbEntity
  8
0-0
  6
JWW_DASHED1
 62
   120
370
     5
100
AcDbLine
 10
-164.1558779471708
 20
708.3558909769414
 30
0.0
 11
-84.15587794715833
 21
788.3558909769561
 31
0.0
  0
LINE
  5
210
330
1F
100
AcDbEntity
  8
0-0
  6
JWW_DASHED1
 62
   120
370
     5
100
AcDbLine
 10
-164.1558779471657
 20
718.255385912136
 30
0.0
 11
-84.15587794716856
 21
798.2553859121344
 31
0.0
  0
LINE
  5
211
330
1F
100
AcDbEntity
  8
0-0
  6
JWW_DASHED1
 62
   120
370
     5
100
AcDbLine
 10
-164.1558779471777
 20
728.1548808473144
 30
0.0
 11
-84.1558779471788
 21
808.1548808473133
 31
0.0
  0
LINE
  5
212
330
1F
100
AcDbEntity
  8
0-0
  6
JWW_DASHED1
 62
   120
370
     5
100
AcDbLine
 10
-164.1558779471828
 20
738.0543757825249
 30
0.0
 11
-84.15587794716856
 21
818.0543757825386
 31
0.0
  0
LINE
  5
213
330
1F
100
AcDbEntity
  8
0-0
  6
JWW_DASHED1
 62
   120
370
     5
100
AcDbLine
 10
-164.1558779471674
 20
747.9538707177032
 30
0.0
 11
-84.15587794716686
 21
827.9538707177021
 31
0.0
  0
LINE
  5
214
330
1F
100
AcDbEntity
  8
0-0
  6
JWW_DASHED1
 62
   120
370
     5
100
AcDbLine
 10
-164.1558779471742
 20
757.8533656529114
 30
0.0
 11
-84.15587794717538
 21
837.8533656529099
 31
0.0
  0
LINE
  5
215
330
1F
100
AcDbEntity
  8
0-0
  6
JWW_DASHED1
 62
   120
370
     5
100
AcDbLine
 10
-164.1558779471828
 20
767.7528605881193
 30
0.0
 11
-84.15587794716856
 21
847.7528605881339
 31
0.0
  0
LINE
  5
216
330
1F
100
AcDbEntity
  8
0-0
  6
JWW_DASHED1
 62
   120
370
     5
100
AcDbLine
 10
-164.155877947164
 20
777.6523555232998
 30
0.0
 11
-84.15587794716515
 21
857.6523555232986
 31
0.0
  0
LINE
  5
217
330
1F
100
AcDbEntity
  8
0-0
  6
JWW_DASHED1
 62
   120
370
     5
100
AcDbLine
 10
-164.1558779471725
 20
787.5518504585077
 30
0.0
 11
-84.15587794717368
 21
867.5518504585066
 31
0.0
  0
LINE
  5
218
330
1F
100
AcDbEntity
  8
0-0
  6
JWW_DASHED1
 62
   120
370
     5
100
AcDbLine
 10
-164.1558779471811
 20
797.4513453937159
 30
0.0
 11
-84.15587794716515
 21
877.4513453937305
 31
0.0
  0
LINE
  5
219
330
1F
100
AcDbEntity
  8
0-0
  6
JWW_DASHED1
 62
   120
370
     5
100
AcDbLine
 10
-164.1558779471623
 20
807.3508403288961
 30
0.0
 11
-84.15587794716345
 21
887.350840328895
 31
0.0
  0
LINE
  5
21A
330
1F
100
AcDbEntity
  8
0-0
  6
JWW_DASHED1
 62
   120
370
     5
100
AcDbLine
 10
-164.1558779471708
 20
817.2503352641047
 30
0.0
 11
-84.15587794717197
 21
897.2503352641036
 31
0.0
  0
LINE
  5
21B
330
1F
100
AcDbEntity
  8
0-0
  6
JWW_DASHED1
 62
   120
370
     5
100
AcDbLine
 10
-164.1558779471777
 20
827.1498301993125
 30
0.0
 11
-84.15587794716345
 21
907.1498301993272
 31
0.0
  0
LINE
  5
21C
330
1F
100
AcDbEntity
  8
0-0
  6
JWW_DASHED1
 62
   120
370
     5
100
AcDbLine
 10
-164.1558779471606
 20
837.0493251344931
 30
0.0
 11
-84.15587794716174
 21
917.0493251344919
 31
0.0
  0
LINE
  5
21D
330
1F
100
AcDbEntity
  8
0-0
  6
JWW_DASHED1
 62
   120
370
     5
100
AcDbLine
 10
-164.1558779471674
 20
846.9488200697014
 30
0.0
 11
-84.15587794716856
 21
926.9488200697002
 31
0.0
  0
LINE
  5
21E
330
1F
100
AcDbEntity
  8
0-0
  6
JWW_DASHED1
 62
   120
370
     5
100
AcDbLine
 10
-164.1558779471777
 20
856.8483150049092
 30
0.0
 11
-84.15587794717709
 21
936.848315004908
 31
0.0
  0
LINE
  5
21F
330
1F
100
AcDbEntity
  8
0-0
  6
JWW_DASHED1
 62
   120
370
     5
100
AcDbLine
 10
-164.1558779471572
 20
866.7478099400901
 30
0.0
 11
-84.15587794715833
 21
946.7478099400889
 31
0.0
  0
LINE
  5
220
330
1F
100
AcDbEntity
  8
0-0
  6
JWW_DASHED1
 62
   120
370
     5
100
AcDbLine
 10
-164.1558779471657
 20
876.647304875298
 30
0.0
 11
-84.15587794716686
 21
956.6473048752969
 31
0.0
  0
LINE
  5
221
330
1F
100
AcDbEntity
  8
0-0
  6
JWW_DASHED1
 62
   120
370
     5
100
AcDbLine
 10
-164.1558779471742
 20
886.5467998105062
 30
0.0
 11
-84.15587794717538
 21
966.5467998105046
 31
0.0
  0
LINE
  5
222
330
1F
100
AcDbEntity
  8
0-0
  6
JWW_DASHED1
 62
   120
370
     5
100
AcDbLine
 10
-164.1558779471862
 20
896.4462947456557
 30
0.0
 11
-84.15587794717197
 21
976.4462947456698
 31
0.0
  0
LINE
  5
223
330
1F
100
AcDbEntity
  8
0-0
  6
JWW_DASHED1
 62
   120
370
     5
100
AcDbLine
 10
-164.155877947164
 20
906.3457896808945
 30
0.0
 11
-84.15587794716515
 21
986.3457896808934
 31
0.0
  0
LINE
  5
224
330
1F
100
AcDbEntity
  8
0-0
  6
JWW_DASHED1
 62
   120
370
     5
100
AcDbLine
 10
-164.1558779471708
 20
916.2452846161028
 30
0.0
 11
-84.15587794717368
 21
996.2452846161012
 31
0.0
  0
LINE
  5
225
330
1F
100
AcDbEntity
  8
0-0
  6
JWW_DASHED1
 62
   120
370
     5
100
AcDbLine
 10
-164.1558779471845
 20
926.1447795512527
 30
0.0
 11
-84.15587794717027
 21
1006.144779551266
 31
0.0
  0
LINE
  5
226
330
1F
100
AcDbEntity
  8
0-0
  6
JWW_DASHED1
 62
   120
370
     5
100
AcDbLine
 10
-164.1558779471606
 20
936.0442744864916
 30
0.0
 11
-87.0481236297158
 21
1013.152028803937
 31
0.0
  0
LINE
  5
227
330
1F
100
AcDbEntity
  8
0-0
  6
JWW_DASHED1
 62
   120
370
     5
100
AcDbLine
 10
-164.1558779471708
 20
945.9437694216995
 30
0.0
 11
-96.94761856492363
 21
1013.152028803945
 31
0.0
  0
LINE
  5
228
330
1F
100
AcDbEntity
  8
0-0
  6
JWW_DASHED1
 62
   120
370
     5
100
AcDbLine
 10
-164.1558779471828
 20
955.8432643568481
 30
0.0
 11
-106.8471135000854
 21
1013.152028803946
 31
0.0
  0
LINE
  5
229
330
1F
100
AcDbEntity
  8
0-0
  6
JWW_DASHED1
 62
   120
370
     5
100
AcDbLine
 10
-164.1558779471589
 20
965.7427592920883
 30
0.0
 11
-116.746608435312
 21
1013.152028803934
 31
0.0
  0
LINE
  5
22A
330
1F
100
AcDbEntity
  8
0-0
  6
JWW_DASHED1
 62
   120
370
     5
100
AcDbLine
 10
-164.1558779471674
 20
975.642254227296
 30
0.0
 11
-126.6461033705215
 21
1013.152028803942
 31
0.0
  0
LINE
  5
22B
330
1F
100
AcDbEntity
  8
0-0
  6
JWW_DASHED1
 62
   120
370
     5
100
AcDbLine
 10
-164.1558779471811
 20
985.5417491624451
 30
0.0
 11
-136.5455983056765
 21
1013.15202880395
 31
0.0
  0
LINE
  5
22C
330
1F
100
AcDbEntity
  8
0-0
  6
JWW_DASHED1
 62
   120
370
     5
100
AcDbLine
 10
-164.1558779471725
 20
995.4412440976691
 30
0.0
 11
-146.445093240898
 21
1013.152028803944
 31
0.0
  0
LINE
  5
22D
330
1F
100
AcDbEntity
  8
0-0
  6
JWW_DASHED1
 62
   120
370
     5
100
AcDbLine
 10
-164.1558779471657
 20
1005.340739032893
 30
0.0
 11
-156.3445881761194
 21
1013.15202880394
 31
0.0
  0
LINE
  5
22E
330
1F
100
AcDbEntity
  8
0-0
  6
Continuous
 62
    92
370
    13
100
AcDbLine
 10
-1374.155877947165
 20
-961.8479711960592
 30
0.0
 11
-1374.155877947165
 21
1021.152028803941
 31
0.0
  0
LINE
  5
22F
330
1F
100
AcDbEntity
  8
0-0
  6
Continuous
 62
     7
370
     9
100
AcDbLine
 10
-1374.155877947165
 20
1013.152028803941
 30
0.0
 11
-1454.155877947166
 21
1013.152028803941
 31
0.0
  0
LINE
  5
230
330
1F
100
AcDbEntity
  8
0-0
  6
Continuous
 62
     7
370
     9
100
AcDbLine
 10
-1374.155877947165
 20
-953.8479711960597
 30
0.0
 11
-1454.155877947166
 21
-953.8479711960597
 31
0.0
  0
LINE
  5
231
330
1F
100
AcDbEntity
  8
0-0
  6
Continuous
 62
    92
370
    13
100
AcDbLine
 10
-1454.155877947166
 20
-961.8479711960592
 30
0.0
 11
-1454.155877947166
 21
1021.152028803941
 31
0.0
  0
LINE
  5
232
330
1F
100
AcDbEntity
  8
0-0
  6
JWW_DASHED1
 62
   120
370
     5
100
AcDbLine
 10
-1454.155877947166
 20
1005.340739032893
 30
0.0
 11
-1446.344588176119
 21
1013.15202880394
 31
0.0
  0
LINE
  5
233
330
1F
100
AcDbEntity
  8
0-0
  6
JWW_DASHED1
 62
   120
370
     5
100
AcDbLine
 10
-1454.155877947172
 20
995.4412440976691
 30
0.0
 11
-1436.445093240898
 21
1013.152028803944
 31
0.0
  0
LINE
  5
234
330
1F
100
AcDbEntity
  8
0-0
  6
JWW_DASHED1
 62
   120
370
     5
100
AcDbLine
 10
-1454.155877947181
 20
985.5417491624451
 30
0.0
 11
-1426.545598305677
 21
1013.15202880395
 31
0.0
  0
LINE
  5
235
330
1F
100
AcDbEntity
  8
0-0
  6
JWW_DASHED1
 62
   120
370
     5
100
AcDbLine
 10
-1454.155877947167
 20
975.642254227296
 30
0.0
 11
-1416.646103370522
 21
1013.152028803942
 31
0.0
  0
LINE
  5
236
330
1F
100
AcDbEntity
  8
0-0
  6
JWW_DASHED1
 62
   120
370
     5
100
AcDbLine
 10
-1454.155877947159
 20
965.7427592920883
 30
0.0
 11
-1406.746608435312
 21
1013.152028803934
 31
0.0
  0
LINE
  5
237
330
1F
100
AcDbEntity
  8
0-0
  6
JWW_DASHED1
 62
   120
370
     5
100
AcDbLine
 10
-1454.155877947183
 20
955.8432643568481
 30
0.0
 11
-1396.847113500085
 21
1013.152028803946
 31
0.0
  0
LINE
  5
238
330
1F
100
AcDbEntity
  8
0-0
  6
JWW_DASHED1
 62
   120
370
     5
100
AcDbLine
 10
-1454.155877947171
 20
945.9437694216995
 30
0.0
 11
-1386.947618564924
 21
1013.152028803945
 31
0.0
  0
LINE
  5
239
330
1F
100
AcDbEntity
  8
0-0
  6
JWW_DASHED1
 62
   120
370
     5
100
AcDbLine
 10
-1454.155877947161
 20
936.0442744864916
 30
0.0
 11
-1377.048123629716
 21
1013.152028803937
 31
0.0
  0
LINE
  5
23A
330
1F
100
AcDbEntity
  8
0-0
  6
JWW_DASHED1
 62
   120
370
     5
100
AcDbLine
 10
-1454.155877947185
 20
926.1447795512527
 30
0.0
 11
-1374.15587794717
 21
1006.144779551266
 31
0.0
  0
LINE
  5
23B
330
1F
100
AcDbEntity
  8
0-0
  6
JWW_DASHED1
 62
   120
370
     5
100
AcDbLine
 10
-1454.155877947171
 20
916.2452846161028
 30
0.0
 11
-1374.155877947174
 21
996.2452846161012
 31
0.0
  0
LINE
  5
23C
330
1F
100
AcDbEntity
  8
0-0
  6
JWW_DASHED1
 62
   120
370
     5
100
AcDbLine
 10
-1454.155877947164
 20
906.3457896808945
 30
0.0
 11
-1374.155877947165
 21
986.3457896808934
 31
0.0
  0
LINE
  5
23D
330
1F
100
AcDbEntity
  8
0-0
  6
JWW_DASHED1
 62
   120
370
     5
100
AcDbLine
 10
-1454.155877947186
 20
896.4462947456557
 30
0.0
 11
-1374.155877947172
 21
976.4462947456698
 31
0.0
  0
LINE
  5
23E
330
1F
100
AcDbEntity
  8
0-0
  6
JWW_DASHED1
 62
   120
370
     5
100
AcDbLine
 10
-1454.155877947174
 20
886.5467998105062
 30
0.0
 11
-1374.155877947175
 21
966.5467998105046
 31
0.0
  0
LINE
  5
23F
330
1F
100
AcDbEntity
  8
0-0
  6
JWW_DASHED1
 62
   120
370
     5
100
AcDbLine
 10
-1454.155877947166
 20
876.647304875298
 30
0.0
 11
-1374.155877947167
 21
956.6473048752969
 31
0.0
  0
LINE
  5
240
330
1F
100
AcDbEntity
  8
0-0
  6
JWW_DASHED1
 62
   120
370
     5
100
AcDbLine
 10
-1454.155877947157
 20
866.7478099400901
 30
0.0
 11
-1374.155877947158
 21
946.7478099400889
 31
0.0
  0
LINE
  5
241
330
1F
100
AcDbEntity
  8
0-0
  6
JWW_DASHED1
 62
   120
370
     5
100
AcDbLine
 10
-1454.155877947178
 20
856.8483150049092
 30
0.0
 11
-1374.155877947177
 21
936.848315004908
 31
0.0
  0
LINE
  5
242
330
1F
100
AcDbEntity
  8
0-0
  6
JWW_DASHED1
 62
   120
370
     5
100
AcDbLine
 10
-1454.155877947167
 20
846.9488200697014
 30
0.0
 11
-1374.155877947169
 21
926.9488200697002
 31
0.0
  0
LINE
  5
243
330
1F
100
AcDbEntity
  8
0-0
  6
JWW_DASHED1
 62
   120
370
     5
100
AcDbLine
 10
-1454.155877947161
 20
837.0493251344931
 30
0.0
 11
-1374.155877947162
 21
917.0493251344919
 31
0.0
  0
LINE
  5
244
330
1F
100
AcDbEntity
  8
0-0
  6
JWW_DASHED1
 62
   120
370
     5
100
AcDbLine
 10
-1454.155877947178
 20
827.1498301993125
 30
0.0
 11
-1374.155877947163
 21
907.1498301993272
 31
0.0
  0
LINE
  5
245
330
1F
100
AcDbEntity
  8
0-0
  6
JWW_DASHED1
 62
   120
370
     5
100
AcDbLine
 10
-1454.155877947171
 20
817.2503352641047
 30
0.0
 11
-1374.155877947172
 21
897.2503352641036
 31
0.0
  0
LINE
  5
246
330
1F
100
AcDbEntity
  8
0-0
  6
JWW_DASHED1
 62
   120
370
     5
100
AcDbLine
 10
-1454.155877947162
 20
807.3508403288961
 30
0.0
 11
-1374.155877947163
 21
887.350840328895
 31
0.0
  0
LINE
  5
247
330
1F
100
AcDbEntity
  8
0-0
  6
JWW_DASHED1
 62
   120
370
     5
100
AcDbLine
 10
-1454.155877947181
 20
797.4513453937159
 30
0.0
 11
-1374.155877947165
 21
877.4513453937305
 31
0.0
  0
LINE
  5
248
330
1F
100
AcDbEntity
  8
0-0
  6
JWW_DASHED1
 62
   120
370
     5
100
AcDbLine
 10
-1454.155877947172
 20
787.5518504585077
 30
0.0
 11
-1374.155877947174
 21
867.5518504585066
 31
0.0
  0
LINE
  5
249
330
1F
100
AcDbEntity
  8
0-0
  6
JWW_DASHED1
 62
   120
370
     5
100
AcDbLine
 10
-1454.155877947164
 20
777.6523555232998
 30
0.0
 11
-1374.155877947165
 21
857.6523555232986
 31
0.0
  0
LINE
  5
24A
330
1F
100
AcDbEntity
  8
0-0
  6
JWW_DASHED1
 62
   120
370
     5
100
AcDbLine
 10
-1454.155877947183
 20
767.7528605881193
 30
0.0
 11
-1374.155877947169
 21
847.7528605881339
 31
0.0
  0
LINE
  5
24B
330
1F
100
AcDbEntity
  8
0-0
  6
JWW_DASHED1
 62
   120
370
     5
100
AcDbLine
 10
-1454.155877947174
 20
757.8533656529114
 30
0.0
 11
-1374.155877947175
 21
837.8533656529099
 31
0.0
  0
LINE
  5
24C
330
1F
100
AcDbEntity
  8
0-0
  6
JWW_DASHED1
 62
   120
370
     5
100
AcDbLine
 10
-1454.155877947167
 20
747.9538707177032
 30
0.0
 11
-1374.155877947167
 21
827.9538707177021
 31
0.0
  0
LINE
  5
24D
330
1F
100
AcDbEntity
  8
0-0
  6
JWW_DASHED1
 62
   120
370
     5
100
AcDbLine
 10
-1454.155877947183
 20
738.0543757825249
 30
0.0
 11
-1374.155877947169
 21
818.0543757825386
 31
0.0
  0
LINE
  5
24E
330
1F
100
AcDbEntity
  8
0-0
  6
JWW_DASHED1
 62
   120
370
     5
100
AcDbLine
 10
-1454.155877947178
 20
728.1548808473144
 30
0.0
 11
-1374.155877947179
 21
808.1548808473133
 31
0.0
  0
LINE
  5
24F
330
1F
100
AcDbEntity
  8
0-0
  6
JWW_DASHED1
 62
   120
370
     5
100
AcDbLine
 10
-1454.155877947166
 20
718.255385912136
 30
0.0
 11
-1374.155877947169
 21
798.2553859121344
 31
0.0
  0
LINE
  5
250
330
1F
100
AcDbEntity
  8
0-0
  6
JWW_DASHED1
 62
   120
370
     5
100
AcDbLine
 10
-1454.155877947171
 20
708.3558909769414
 30
0.0
 11
-1374.155877947158
 21
788.3558909769561
 31
0.0
  0
LINE
  5
251
330
1F
100
AcDbEntity
  8
0-0
  6
JWW_DASHED1
 62
   120
370
     5
100
AcDbLine
 10
-1454.155877947178
 20
698.4563960417182
 30
0.0
 11
-1374.155877947165
 21
778.4563960417324
 31
0.0
  0
LINE
  5
252
330
1F
100
AcDbEntity
  8
0-0
  6
JWW_DASHED1
 62
   120
370
     5
100
AcDbLine
 10
-1454.155877947167
 20
688.5569011065394
 30
0.0
 11
-1374.155877947169
 21
768.5569011065382
 31
0.0
  0
LINE
  5
253
330
1F
100
AcDbEntity
  8
0-0
  6
JWW_DASHED1
 62
   120
370
     5
100
AcDbLine
 10
-1454.155877947157
 20
678.657406171361
 30
0.0
 11
-1374.155877947158
 21
758.6574061713594
 31
0.0
  0
LINE
  5
254
330
1F
100
AcDbEntity
  8
0-0
  6
JWW_DASHED1
 62
   120
370
     5
100
AcDbLine
 10
-1454.155877947181
 20
668.7579112361211
 30
0.0
 11
-1374.155877947167
 21
748.7579112361354
 31
0.0
  0
LINE
  5
255
330
1F
100
AcDbEntity
  8
0-0
  6
JWW_DASHED1
 62
   120
370
     5
100
AcDbLine
 10
-1454.155877947171
 20
658.8584163009427
 30
0.0
 11
-1374.155877947172
 21
738.8584163009411
 31
0.0
  0
LINE
  5
256
330
1F
100
AcDbEntity
  8
0-0
  6
JWW_DASHED1
 62
   120
370
     5
100
AcDbLine
 10
-1454.155877947161
 20
648.9589213657639
 30
0.0
 11
-1374.155877947162
 21
728.9589213657628
 31
0.0
  0
LINE
  5
257
330
1F
100
AcDbEntity
  8
0-0
  6
JWW_DASHED1
 62
   120
370
     5
100
AcDbLine
 10
-1454.155877947181
 20
639.0594264305275
 30
0.0
 11
-1374.155877947167
 21
719.059426430541
 31
0.0
  0
LINE
  5
258
330
1F
100
AcDbEntity
  8
0-0
  6
JWW_DASHED1
 62
   120
370
     5
100
AcDbLine
 10
-1454.155877947172
 20
629.1599314953457
 30
0.0
 11
-1374.155877947175
 21
709.1599314953446
 31
0.0
  0
LINE
  5
259
330
1F
100
AcDbEntity
  8
0-0
  6
JWW_DASHED1
 62
   120
370
     5
100
AcDbLine
 10
-1454.155877947162
 20
619.2604365601674
 30
0.0
 11
-1374.155877947163
 21
699.2604365601662
 31
0.0
  0
LINE
  5
25A
330
1F
100
AcDbEntity
  8
0-0
  6
JWW_DASHED1
 62
   120
370
     5
100
AcDbLine
 10
-1454.155877947171
 20
609.3609416249433
 30
0.0
 11
-1374.155877947155
 21
689.3609416249583
 31
0.0
  0
LINE
  5
25B
330
1F
100
AcDbEntity
  8
0-0
  6
JWW_DASHED1
 62
   120
370
     5
100
AcDbLine
 10
-1454.155877947172
 20
599.4614466897785
 30
0.0
 11
-1374.155877947175
 21
679.4614466897774
 31
0.0
  0
LINE
  5
25C
330
1F
100
AcDbEntity
  8
0-0
  6
JWW_DASHED1
 62
   120
370
     5
100
AcDbLine
 10
-1454.155877947164
 20
589.5619517545707
 30
0.0
 11
-1374.155877947165
 21
669.5619517545691
 31
0.0
  0
LINE
  5
25D
330
1F
100
AcDbEntity
  8
0-0
  6
JWW_DASHED1
 62
   120
370
     5
100
AcDbLine
 10
-1454.155877947157
 20
579.6624568193624
 30
0.0
 11
-1374.155877947158
 21
659.6624568193613
 31
0.0
  0
LINE
  5
25E
330
1F
100
AcDbEntity
  8
0-0
  6
JWW_DASHED1
 62
   120
370
     5
100
AcDbLine
 10
-1454.155877947174
 20
569.7629618841819
 30
0.0
 11
-1374.155877947175
 21
649.7629618841808
 31
0.0
  0
LINE
  5
25F
330
1F
100
AcDbEntity
  8
0-0
  6
JWW_DASHED1
 62
   120
370
     5
100
AcDbLine
 10
-1454.155877947167
 20
559.8634669489741
 30
0.0
 11
-1374.155877947169
 21
639.8634669489725
 31
0.0
  0
LINE
  5
260
330
1F
100
AcDbEntity
  8
0-0
  6
JWW_DASHED1
 62
   120
370
     5
100
AcDbLine
 10
-1454.155877947159
 20
549.9639720137658
 30
0.0
 11
-1374.155877947158
 21
629.9639720137651
 31
0.0
  0
LINE
  5
261
330
1F
100
AcDbEntity
  8
0-0
  6
JWW_DASHED1
 62
   120
370
     5
100
AcDbLine
 10
-1454.155877947178
 20
540.0644770785852
 30
0.0
 11
-1374.155877947162
 21
620.0644770785999
 31
0.0
  0
LINE
  5
262
330
1F
100
AcDbEntity
  8
0-0
  6
JWW_DASHED1
 62
   120
370
     5
100
AcDbLine
 10
-1454.155877947169
 20
530.1649821433774
 30
0.0
 11
-1374.15587794717
 21
610.1649821433759
 31
0.0
  0
LINE
  5
263
330
1F
100
AcDbEntity
  8
0-0
  6
JWW_DASHED1
 62
   120
370
     5
100
AcDbLine
 10
-1454.155877947161
 20
520.2654872081691
 30
0.0
 11
-1374.155877947162
 21
600.265487208168
 31
0.0
  0
LINE
  5
264
330
1F
100
AcDbEntity
  8
0-0
  6
JWW_DASHED1
 62
   120
370
     5
100
AcDbLine
 10
-1454.155877947179
 20
510.3659922729886
 30
0.0
 11
-1374.155877947165
 21
590.3659922730028
 31
0.0
  0
LINE
  5
265
330
1F
100
AcDbEntity
  8
0-0
  6
JWW_DASHED1
 62
   120
370
     5
100
AcDbLine
 10
-1454.155877947171
 20
500.4664973377804
 30
0.0
 11
-1374.155877947172
 21
580.4664973377793
 31
0.0
  0
LINE
  5
266
330
1F
100
AcDbEntity
  8
0-0
  6
JWW_DASHED1
 62
   120
370
     5
100
AcDbLine
 10
-1454.155877947164
 20
490.5670024025726
 30
0.0
 11
-1374.155877947163
 21
570.5670024025715
 31
0.0
  0
LINE
  5
267
330
1F
100
AcDbEntity
  8
0-0
  6
JWW_DASHED1
 62
   120
370
     5
100
AcDbLine
 10
-1454.155877947181
 20
480.6675074673921
 30
0.0
 11
-1374.155877947169
 21
560.6675074674063
 31
0.0
  0
LINE
  5
268
330
1F
100
AcDbEntity
  8
0-0
  6
JWW_DASHED1
 62
   120
370
     5
100
AcDbLine
 10
-1454.155877947174
 20
470.7680125321838
 30
0.0
 11
-1374.155877947175
 21
550.7680125321826
 31
0.0
  0
LINE
  5
269
330
1F
100
AcDbEntity
  8
0-0
  6
JWW_DASHED1
 62
   120
370
     5
100
AcDbLine
 10
-1454.155877947164
 20
460.8685175969759
 30
0.0
 11
-1374.155877947165
 21
540.8685175969748
 31
0.0
  0
LINE
  5
26A
330
1F
100
AcDbEntity
  8
0-0
  6
JWW_DASHED1
 62
   120
370
     5
100
AcDbLine
 10
-1454.155877947179
 20
450.9690226617997
 30
0.0
 11
-1374.155877947165
 21
530.9690226618135
 31
0.0
  0
LINE
  5
26B
330
1F
100
AcDbEntity
  8
0-0
  6
JWW_DASHED1
 62
   120
370
     5
100
AcDbLine
 10
-1454.155877947176
 20
441.0695277265871
 30
0.0
 11
-1374.155877947162
 21
521.0695277266018
 31
0.0
  0
LINE
  5
26C
330
1F
100
AcDbEntity
  8
0-0
  6
JWW_DASHED1
 62
   120
370
     5
100
AcDbLine
 10
-1454.155877947167
 20
431.1700327913789
 30
0.0
 11
-1374.155877947169
 21
511.1700327913778
 31
0.0
  0
LINE
  5
26D
330
1F
100
AcDbEntity
  8
0-0
  6
JWW_DASHED1
 62
   120
370
     5
100
AcDbLine
 10
-1454.155877947154
 20
421.2705378562299
 30
0.0
 11
-1374.155877947155
 21
501.2705378562288
 31
0.0
  0
LINE
  5
26E
330
1F
100
AcDbEntity
  8
0-0
  6
JWW_DASHED1
 62
   120
370
     5
100
AcDbLine
 10
-1454.155877947178
 20
411.3710429209905
 30
0.0
 11
-1374.155877947163
 21
491.3710429210051
 31
0.0
  0
LINE
  5
26F
330
1F
100
AcDbEntity
  8
0-0
  6
JWW_DASHED1
 62
   120
370
     5
100
AcDbLine
 10
-1454.155877947169
 20
401.4715479857827
 30
0.0
 11
-1374.15587794717
 21
481.4715479857812
 31
0.0
  0
LINE
  5
270
330
1F
100
AcDbEntity
  8
0-0
  6
JWW_DASHED1
 62
   120
370
     5
100
AcDbLine
 10
-1454.155877947157
 20
391.5720530506333
 30
0.0
 11
-1374.155877947158
 21
471.5720530506321
 31
0.0
  0
LINE
  5
271
330
1F
100
AcDbEntity
  8
0-0
  6
JWW_DASHED1
 62
   120
370
     5
100
AcDbLine
 10
-1454.155877947181
 20
381.6725581153939
 30
0.0
 11
-1374.155877947165
 21
461.6725581154085
 31
0.0
  0
LINE
  5
272
330
1F
100
AcDbEntity
  8
0-0
  6
JWW_DASHED1
 62
   120
370
     5
100
AcDbLine
 10
-1454.155877947171
 20
371.7730631801857
 30
0.0
 11
-1374.155877947172
 21
451.7730631801845
 31
0.0
  0
LINE
  5
273
330
1F
100
AcDbEntity
  8
0-0
  6
JWW_DASHED1
 62
   120
370
     5
100
AcDbLine
 10
-1454.155877947159
 20
361.8735682450367
 30
0.0
 11
-1374.15587794716
 21
441.8735682450355
 31
0.0
  0
LINE
  5
274
330
1F
100
AcDbEntity
  8
0-0
  6
JWW_DASHED1
 62
   120
370
     5
100
AcDbLine
 10
-1454.155877947178
 20
351.9740733098024
 30
0.0
 11
-1374.155877947163
 21
431.9740733098162
 31
0.0
  0
LINE
  5
275
330
1F
100
AcDbEntity
  8
0-0
  6
JWW_DASHED1
 62
   120
370
     5
100
AcDbLine
 10
-1454.155877947174
 20
342.074578374589
 30
0.0
 11
-1374.155877947175
 21
422.0745783745879
 31
0.0
  0
LINE
  5
276
330
1F
100
AcDbEntity
  8
0-0
  6
JWW_DASHED1
 62
   120
370
     5
100
AcDbLine
 10
-1454.155877947161
 20
332.1750834394401
 30
0.0
 11
-1374.155877947162
 21
412.1750834394393
 31
0.0
  0
LINE
  5
277
330
1F
100
AcDbEntity
  8
0-0
  6
JWW_DASHED1
 62
   120
370
     5
100
AcDbLine
 10
-1454.155877947169
 20
322.275588504216
 30
0.0
 11
-1374.155877947155
 21
402.2755885042307
 31
0.0
  0
LINE
  5
278
330
1F
100
AcDbEntity
  8
0-0
  6
JWW_DASHED1
 62
   120
370
     5
100
AcDbLine
 10
-1454.155877947176
 20
312.3760935689924
 30
0.0
 11
-1374.155877947162
 21
392.376093569007
 31
0.0
  0
LINE
  5
279
330
1F
100
AcDbEntity
  8
0-0
  6
JWW_DASHED1
 62
   120
370
     5
100
AcDbLine
 10
-1454.155877947164
 20
302.4765986338434
 30
0.0
 11
-1374.155877947165
 21
382.4765986338423
 31
0.0
  0
LINE
  5
27A
330
1F
100
AcDbEntity
  8
0-0
  6
JWW_DASHED1
 62
   120
370
     5
100
AcDbLine
 10
-1454.155877947155
 20
292.5771036986356
 30
0.0
 11
-1374.155877947157
 21
372.577103698634
 31
0.0
  0
LINE
  5
27B
330
1F
100
AcDbEntity
  8
0-0
  6
JWW_DASHED1
 62
   120
370
     5
100
AcDbLine
 10
-1454.155877947178
 20
282.6776087633962
 30
0.0
 11
-1374.155877947163
 21
362.6776087634104
 31
0.0
  0
LINE
  5
27C
330
1F
100
AcDbEntity
  8
0-0
  6
JWW_DASHED1
 62
   120
370
     5
100
AcDbLine
 10
-1454.155877947166
 20
272.7781138282464
 30
0.0
 11
-1374.155877947167
 21
352.7781138282452
 31
0.0
  0
LINE
  5
27D
330
1F
100
AcDbEntity
  8
0-0
  6
JWW_DASHED1
 62
   120
370
     5
100
AcDbLine
 10
-1454.155877947157
 20
262.8786188930385
 30
0.0
 11
-1374.155877947158
 21
342.8786188930374
 31
0.0
  0
LINE
  5
27E
330
1F
100
AcDbEntity
  8
0-0
  6
JWW_DASHED1
 62
   120
370
     5
100
AcDbLine
 10
-1454.155877947181
 20
252.9791239577992
 30
0.0
 11
-1374.155877947165
 21
332.9791239578134
 31
0.0
  0
LINE
  5
27F
330
1F
100
AcDbEntity
  8
0-0
  6
JWW_DASHED1
 62
   120
370
     5
100
AcDbLine
 10
-1454.155877947167
 20
243.0796290226498
 30
0.0
 11
-1374.155877947169
 21
323.079629022649
 31
0.0
  0
LINE
  5
280
330
1F
100
AcDbEntity
  8
0-0
  6
JWW_DASHED1
 62
   120
370
     5
100
AcDbLine
 10
-1454.155877947159
 20
233.1801340874424
 30
0.0
 11
-1374.155877947162
 21
313.1801340874408
 31
0.0
  0
LINE
  5
281
330
1F
100
AcDbEntity
  8
0-0
  6
JWW_DASHED1
 62
   120
370
     5
100
AcDbLine
 10
-1454.155877947176
 20
223.2806391522089
 30
0.0
 11
-1374.155877947162
 21
303.2806391522223
 31
0.0
  0
LINE
  5
282
330
1F
100
AcDbEntity
  8
0-0
  6
JWW_DASHED1
 62
   120
370
     5
100
AcDbLine
 10
-1454.155877947171
 20
213.3811442170531
 30
0.0
 11
-1374.155877947172
 21
293.381144217052
 31
0.0
  0
LINE
  5
283
330
1F
100
AcDbEntity
  8
0-0
  6
JWW_DASHED1
 62
   120
370
     5
100
AcDbLine
 10
-1454.155877947161
 20
203.4816492818453
 30
0.0
 11
-1374.155877947162
 21
283.4816492818442
 31
0.0
  0
LINE
  5
284
330
1F
100
AcDbEntity
  8
0-0
  6
JWW_DASHED1
 62
   120
370
     5
100
AcDbLine
 10
-1454.155877947154
 20
193.5821543466371
 30
0.0
 11
-1374.155877947155
 21
273.5821543466359
 31
0.0
  0
LINE
  5
285
330
1F
100
AcDbEntity
  8
0-0
  6
JWW_DASHED1
 62
   120
370
     5
100
AcDbLine
 10
-1454.155877947172
 20
183.6826594114565
 30
0.0
 11
-1374.155877947174
 21
263.6826594114553
 31
0.0
  0
LINE
  5
286
330
1F
100
AcDbEntity
  8
0-0
  6
JWW_DASHED1
 62
   120
370
     5
100
AcDbLine
 10
-1454.155877947164
 20
173.7831644762491
 30
0.0
 11
-1374.155877947165
 21
253.7831644762471
 31
0.0
  0
LINE
  5
287
330
1F
100
AcDbEntity
  8
0-0
  6
JWW_DASHED1
 62
   120
370
     5
100
AcDbLine
 10
-1454.155877947155
 20
163.8836695410404
 30
0.0
 11
-1374.155877947157
 21
243.8836695410393
 31
0.0
  0
LINE
  5
288
330
1F
100
AcDbEntity
  8
0-0
  6
JWW_DASHED1
 62
   120
370
     5
100
AcDbLine
 10
-1454.155877947174
 20
153.9841746058599
 30
0.0
 11
-1374.15587794716
 21
233.9841746058745
 31
0.0
  0
LINE
  5
289
330
1F
100
AcDbEntity
  8
0-0
  6
JWW_DASHED1
 62
   120
370
     5
100
AcDbLine
 10
-1454.155877947166
 20
144.0846796706521
 30
0.0
 11
-1374.155877947169
 21
224.0846796706505
 31
0.0
  0
LINE
  5
28A
330
1F
100
AcDbEntity
  8
0-0
  6
JWW_DASHED1
 62
   120
370
     5
100
AcDbLine
 10
-1454.155877947157
 20
134.1851847354438
 30
0.0
 11
-1374.155877947158
 21
214.1851847354431
 31
0.0
  0
LINE
  5
28B
330
1F
100
AcDbEntity
  8
0-0
  6
JWW_DASHED1
 62
   120
370
     5
100
AcDbLine
 10
-1454.155877947176
 20
124.2856898002633
 30
0.0
 11
-1374.155877947162
 21
204.2856898002779
 31
0.0
  0
LINE
  5
28C
330
1F
100
AcDbEntity
  8
0-0
  6
JWW_DASHED1
 62
   120
370
     5
100
AcDbLine
 10
-1454.155877947167
 20
114.386194865055
 30
0.0
 11
-1374.155877947169
 21
194.3861948650539
 31
0.0
  0
LINE
  5
28D
330
1F
100
AcDbEntity
  8
0-0
  6
JWW_DASHED1
 62
   120
370
     5
100
AcDbLine
 10
-1454.155877947161
 20
104.4866999298472
 30
0.0
 11
-1374.155877947162
 21
184.4866999298461
 31
0.0
  0
LINE
  5
28E
330
1F
100
AcDbEntity
  8
0-0
  6
JWW_DASHED1
 62
   120
370
     5
100
AcDbLine
 10
-1454.155877947178
 20
94.58720499466665
 30
0.0
 11
-1374.155877947165
 21
174.5872049946809
 31
0.0
  0
LINE
  5
28F
330
1F
100
AcDbEntity
  8
0-0
  6
JWW_DASHED1
 62
   120
370
     5
100
AcDbLine
 10
-1454.155877947171
 20
84.68771005945882
 30
0.0
 11
-1374.155877947172
 21
164.6877100594573
 31
0.0
  0
LINE
  5
290
330
1F
100
AcDbEntity
  8
0-0
  6
JWW_DASHED1
 62
   120
370
     5
100
AcDbLine
 10
-1454.155877947162
 20
74.78821512425057
 30
0.0
 11
-1374.155877947163
 21
154.788215124249
 31
0.0
  0
LINE
  5
291
330
1F
100
AcDbEntity
  8
0-0
  6
JWW_DASHED1
 62
   120
370
     5
100
AcDbLine
 10
-1454.155877947174
 20
64.88872018907728
 30
0.0
 11
-1374.15587794716
 21
144.8887201890915
 31
0.0
  0
LINE
  5
292
330
1F
100
AcDbEntity
  8
0-0
  6
JWW_DASHED1
 62
   120
370
     5
100
AcDbLine
 10
-1454.155877947172
 20
54.98922525386178
 30
0.0
 11
-1374.155877947174
 21
134.9892252538606
 31
0.0
  0
LINE
  5
293
330
1F
100
AcDbEntity
  8
0-0
  6
JWW_DASHED1
 62
   120
370
     5
100
AcDbLine
 10
-1454.155877947161
 20
45.08973031871278
 30
0.0
 11
-1374.155877947162
 21
125.0897303187116
 31
0.0
  0
LINE
  5
294
330
1F
100
AcDbEntity
  8
0-0
  6
JWW_DASHED1
 62
   120
370
     5
100
AcDbLine
 10
-1454.155877947167
 20
35.19023538348875
 30
0.0
 11
-1374.155877947153
 21
115.1902353835034
 31
0.0
  0
LINE
  5
295
330
1F
100
AcDbEntity
  8
0-0
  6
JWW_DASHED1
 62
   120
370
     5
100
AcDbLine
 10
-1454.155877947174
 20
25.29074044826558
 30
0.0
 11
-1374.15587794716
 21
105.2907404482798
 31
0.0
  0
LINE
  5
296
330
1F
100
AcDbEntity
  8
0-0
  6
JWW_DASHED1
 62
   120
370
     5
100
AcDbLine
 10
-1454.155877947162
 20
15.39124551311573
 30
0.0
 11
-1374.155877947163
 21
95.3912455131146
 31
0.0
  0
LINE
  5
297
330
1F
100
AcDbEntity
  8
0-0
  6
JWW_DASHED1
 62
   120
370
     5
100
AcDbLine
 10
-1454.155877947154
 20
5.491750577907908
 30
0.0
 11
-1374.155877947155
 21
85.49175057790677
 31
0.0
  0
LINE
  5
298
330
1F
100
AcDbEntity
  8
0-0
  6
JWW_DASHED1
 62
   120
370
     5
100
AcDbLine
 10
-1454.155877947178
 20
-4.407744357331467
 30
0.0
 11
-1374.155877947162
 21
75.59225564268274
 31
0.0
  0
LINE
  5
299
330
1F
100
AcDbEntity
  8
0-0
  6
JWW_DASHED1
 62
   120
370
     5
100
AcDbLine
 10
-1454.155877947164
 20
-14.30723929248089
 30
0.0
 11
-1374.155877947165
 21
65.6927607075184
 31
0.0
  0
LINE
  5
29A
330
1F
100
AcDbEntity
  8
0-0
  6
JWW_DASHED1
 62
   120
370
     5
100
AcDbLine
 10
-1454.155877947155
 20
-24.20673422768829
 30
0.0
 11
-1374.155877947158
 21
55.79326577231015
 31
0.0
  0
LINE
  5
29B
330
1F
100
AcDbEntity
  8
0-0
  6
JWW_DASHED1
 62
   120
370
     5
100
AcDbLine
 10
-1454.155877947171
 20
-34.10622916291999
 30
0.0
 11
-1374.155877947158
 21
45.8937708370938
 31
0.0
  0
LINE
  5
29C
330
1F
100
AcDbEntity
  8
0-0
  6
JWW_DASHED1
 62
   120
370
     5
100
AcDbLine
 10
-1454.155877947167
 20
-44.00572409807751
 30
0.0
 11
-1374.155877947169
 21
35.99427590192136
 31
0.0
  0
LINE
  5
29D
330
1F
100
AcDbEntity
  8
0-0
  6
JWW_DASHED1
 62
   120
370
     5
100
AcDbLine
 10
-1454.155877947157
 20
-53.90521903328533
 30
0.0
 11
-1374.155877947158
 21
26.09478096671353
 31
0.0
  0
LINE
  5
29E
330
1F
100
AcDbEntity
  8
0-0
  6
JWW_DASHED1
 62
   120
370
     5
100
AcDbLine
 10
-1454.155877947166
 20
-63.80471396850936
 30
0.0
 11
-1374.155877947152
 21
16.1952860315057
 31
0.0
  0
LINE
  5
29F
330
1F
100
AcDbEntity
  8
0-0
  6
JWW_DASHED1
 62
   120
370
     5
100
AcDbLine
 10
-1454.155877947169
 20
-73.7042089036737
 30
0.0
 11
-1374.15587794717
 21
6.295791096324734
 31
0.0
  0
LINE
  5
2A0
330
1F
100
AcDbEntity
  8
0-0
  6
JWW_DASHED1
 62
   120
370
     5
100
AcDbLine
 10
-1454.155877947161
 20
-83.60370383888196
 30
0.0
 11
-1374.155877947162
 21
-3.603703838883519
 31
0.0
  0
LINE
  5
2A1
330
1F
100
AcDbEntity
  8
0-0
  6
JWW_DASHED1
 62
   120
370
     5
100
AcDbLine
 10
-1454.155877947152
 20
-93.50319877409021
 30
0.0
 11
-1374.155877947153
 21
-13.50319877409135
 31
0.0
  0
LINE
  5
2A2
330
1F
100
AcDbEntity
  8
0-0
  6
JWW_DASHED1
 62
   120
370
     5
100
AcDbLine
 10
-1454.155877947171
 20
-103.4026937092707
 30
0.0
 11
-1374.155877947172
 21
-23.40269370927189
 31
0.0
  0
LINE
  5
2A3
330
1F
100
AcDbEntity
  8
0-0
  6
JWW_DASHED1
 62
   120
370
     5
100
AcDbLine
 10
-1454.155877947162
 20
-113.3021886444786
 30
0.0
 11
-1374.155877947163
 21
-33.30218864448014
 31
0.0
  0
LINE
  5
2A4
330
1F
100
AcDbEntity
  8
0-0
  6
JWW_DASHED1
 62
   120
370
     5
100
AcDbLine
 10
-1454.155877947154
 20
-123.2016835796868
 30
0.0
 11
-1374.155877947155
 21
-43.20168357968797
 31
0.0
  0
LINE
  5
2A5
330
1F
100
AcDbEntity
  8
0-0
  6
JWW_DASHED1
 62
   120
370
     5
100
AcDbLine
 10
-1454.155877947174
 20
-133.1011785148678
 30
0.0
 11
-1374.155877947158
 21
-53.10117851485273
 31
0.0
  0
LINE
  5
2A6
330
1F
100
AcDbEntity
  8
0-0
  6
JWW_DASHED1
 62
   120
370
     5
100
AcDbLine
 10
-1454.155877947164
 20
-143.0006734500756
 30
0.0
 11
-1374.155877947165
 21
-63.00067345007676
 31
0.0
  0
LINE
  5
2A7
330
1F
100
AcDbEntity
  8
0-0
  6
JWW_DASHED1
 62
   120
370
     5
100
AcDbLine
 10
-1454.155877947157
 20
-152.9001683852835
 30
0.0
 11
-1374.155877947158
 21
-72.90016838528459
 31
0.0
  0
LINE
  5
2A8
330
1F
100
AcDbEntity
  8
0-0
  6
JWW_DASHED1
 62
   120
370
     5
100
AcDbLine
 10
-1454.155877947174
 20
-162.799663320464
 30
0.0
 11
-1374.155877947162
 21
-82.79966332044978
 31
0.0
  0
LINE
  5
2A9
330
1F
100
AcDbEntity
  8
0-0
  6
JWW_DASHED1
 62
   120
370
     5
100
AcDbLine
 10
-1454.155877947167
 20
-172.6991582556722
 30
0.0
 11
-1374.155877947169
 21
-92.69915825567296
 31
0.0
  0
LINE
  5
2AA
330
1F
100
AcDbEntity
  8
0-0
  6
JWW_DASHED1
 62
   120
370
     5
100
AcDbLine
 10
-1454.155877947159
 20
-182.5986531908801
 30
0.0
 11
-1374.15587794716
 21
-102.5986531908812
 31
0.0
  0
LINE
  5
2AB
330
1F
100
AcDbEntity
  8
0-0
  6
JWW_DASHED1
 62
   120
370
     5
100
AcDbLine
 10
-1454.155877947178
 20
-192.498148126061
 30
0.0
 11
-1374.155877947163
 21
-112.4981481260464
 31
0.0
  0
LINE
  5
2AC
330
1F
100
AcDbEntity
  8
0-0
  6
JWW_DASHED1
 62
   120
370
     5
100
AcDbLine
 10
-1454.155877947169
 20
-202.3976430612689
 30
0.0
 11
-1374.15587794717
 21
-122.39764306127
 31
0.0
  0
LINE
  5
2AD
330
1F
100
AcDbEntity
  8
0-0
  6
JWW_DASHED1
 62
   120
370
     5
100
AcDbLine
 10
-1454.155877947161
 20
-212.2971379964767
 30
0.0
 11
-1374.155877947162
 21
-132.2971379964778
 31
0.0
  0
LINE
  5
2AE
330
1F
100
AcDbEntity
  8
0-0
  6
JWW_DASHED1
 62
   120
370
     5
100
AcDbLine
 10
-1454.155877947171
 20
-222.1966329316479
 30
0.0
 11
-1374.155877947155
 21
-142.1966329316336
 31
0.0
  0
LINE
  5
2AF
330
1F
100
AcDbEntity
  8
0-0
  6
JWW_DASHED1
 62
   120
370
     5
100
AcDbLine
 10
-1454.155877947171
 20
-232.0961278668655
 30
0.0
 11
-1374.155877947172
 21
-152.0961278668671
 31
0.0
  0
LINE
  5
2B0
330
1F
100
AcDbEntity
  8
0-0
  6
JWW_DASHED1
 62
   120
370
     5
100
AcDbLine
 10
-1454.155877947164
 20
-241.9956228020733
 30
0.0
 11
-1374.155877947165
 21
-161.9956228020749
 31
0.0
  0
LINE
  5
2B1
330
1F
100
AcDbEntity
  8
0-0
  6
JWW_DASHED1
 62
   120
370
     5
100
AcDbLine
 10
-1454.155877947166
 20
-251.8951177372381
 30
0.0
 11
-1374.155877947152
 21
-171.8951177372239
 31
0.0
  0
LINE
  5
2B2
330
1F
100
AcDbEntity
  8
0-0
  6
JWW_DASHED1
 62
   120
370
     5
100
AcDbLine
 10
-1454.155877947174
 20
-261.7946126724621
 30
0.0
 11
-1374.155877947158
 21
-181.7946126724475
 31
0.0
  0
LINE
  5
2B3
330
1F
100
AcDbEntity
  8
0-0
  6
JWW_DASHED1
 62
   120
370
     5
100
AcDbLine
 10
-1454.155877947166
 20
-271.6941076076704
 30
0.0
 11
-1374.155877947167
 21
-191.6941076076711
 31
0.0
  0
LINE
  5
2B4
330
1F
100
AcDbEntity
  8
0-0
  6
JWW_DASHED1
 62
   120
370
     5
100
AcDbLine
 10
-1454.155877947152
 20
-281.5936025428189
 30
0.0
 11
-1374.155877947155
 21
-201.5936025428209
 31
0.0
  0
LINE
  5
2B5
330
1F
100
AcDbEntity
  8
0-0
  6
JWW_DASHED1
 62
   120
370
     5
100
AcDbLine
 10
-1454.155877947176
 20
-291.4930974780592
 30
0.0
 11
-1374.155877947162
 21
-211.4930974780441
 31
0.0
  0
LINE
  5
2B6
330
1F
100
AcDbEntity
  8
0-0
  6
JWW_DASHED1
 62
   120
370
     5
100
AcDbLine
 10
-1454.155877947167
 20
-301.392592413267
 30
0.0
 11
-1374.155877947169
 21
-221.3925924132681
 31
0.0
  0
LINE
  5
2B7
330
1F
100
AcDbEntity
  8
0-0
  6
JWW_DASHED1
 62
   120
370
     5
100
AcDbLine
 10
-1454.155877947155
 20
-311.292087348416
 30
0.0
 11
-1374.155877947155
 21
-231.2920873484171
 31
0.0
  0
LINE
  5
2B8
330
1F
100
AcDbEntity
  8
0-0
  6
JWW_DASHED1
 62
   120
370
     5
100
AcDbLine
 10
-1454.155877947167
 20
-321.1915822836451
 30
0.0
 11
-1374.155877947153
 21
-241.1915822836309
 31
0.0
  0
LINE
  5
2B9
330
1F
100
AcDbEntity
  8
0-0
  6
JWW_DASHED1
 62
   120
370
     5
100
AcDbLine
 10
-1454.155877947171
 20
-331.0910772188636
 30
0.0
 11
-1374.155877947172
 21
-251.0910772188647
 31
0.0
  0
LINE
  5
2BA
330
1F
100
AcDbEntity
  8
0-0
  6
JWW_DASHED1
 62
   120
370
     5
100
AcDbLine
 10
-1454.155877947157
 20
-340.9905721540126
 30
0.0
 11
-1374.155877947158
 21
-260.9905721540142
 31
0.0
  0
LINE
  5
2BB
330
1F
100
AcDbEntity
  8
0-0
  6
JWW_DASHED1
 62
   120
370
     5
100
AcDbLine
 10
-1454.155877947164
 20
-350.8900670892366
 30
0.0
 11
-1374.15587794715
 21
-270.890067089222
 31
0.0
  0
LINE
  5
2BC
330
1F
100
AcDbEntity
  8
0-0
  6
JWW_DASHED1
 62
   120
370
     5
100
AcDbLine
 10
-1454.155877947171
 20
-360.7895620244602
 30
0.0
 11
-1374.155877947158
 21
-280.7895620244456
 31
0.0
  0
LINE
  5
2BD
330
1F
100
AcDbEntity
  8
0-0
  6
JWW_DASHED1
 62
   120
370
     5
100
AcDbLine
 10
-1454.155877947159
 20
-370.6890569596092
 30
0.0
 11
-1374.15587794716
 21
-290.6890569596104
 31
0.0
  0
LINE
  5
2BE
330
1F
100
AcDbEntity
  8
0-0
  6
JWW_DASHED1
 62
   120
370
     5
100
AcDbLine
 10
-1454.15587794715
 20
-380.588551894817
 30
0.0
 11
-1374.155877947152
 21
-300.5885518948186
 31
0.0
  0
LINE
  5
2BF
330
1F
100
AcDbEntity
  8
0-0
  6
JWW_DASHED1
 62
   120
370
     5
100
AcDbLine
 10
-1454.155877947174
 20
-390.4880468300573
 30
0.0
 11
-1374.15587794716
 21
-310.4880468300427
 31
0.0
  0
LINE
  5
2C0
330
1F
100
AcDbEntity
  8
0-0
  6
JWW_DASHED1
 62
   120
370
     5
100
AcDbLine
 10
-1454.155877947161
 20
-400.3875417652063
 30
0.0
 11
-1374.155877947162
 21
-320.3875417652074
 31
0.0
  0
LINE
  5
2C1
330
1F
100
AcDbEntity
  8
0-0
  6
JWW_DASHED1
 62
   120
370
     5
100
AcDbLine
 10
-1454.155877947154
 20
-410.2870367004141
 30
0.0
 11
-1374.155877947155
 21
-330.2870367004152
 31
0.0
  0
LINE
  5
2C2
330
1F
100
AcDbEntity
  8
0-0
  6
JWW_DASHED1
 62
   120
370
     5
100
AcDbLine
 10
-1454.155877947178
 20
-420.1865316356539
 30
0.0
 11
-1374.155877947162
 21
-340.1865316356393
 31
0.0
  0
LINE
  5
2C3
330
1F
100
AcDbEntity
  8
0-0
  6
JWW_DASHED1
 62
   120
370
     5
100
AcDbLine
 10
-1454.155877947164
 20
-430.0860265708029
 30
0.0
 11
-1374.155877947165
 21
-350.0860265708036
 31
0.0
  0
LINE
  5
2C4
330
1F
100
AcDbEntity
  8
0-0
  6
JWW_DASHED1
 62
   120
370
     5
100
AcDbLine
 10
-1454.155877947155
 20
-439.9855215060111
 30
0.0
 11
-1374.155877947157
 21
-359.9855215060123
 31
0.0
  0
LINE
  5
2C5
330
1F
100
AcDbEntity
  8
0-0
  6
JWW_DASHED1
 62
   120
370
     5
100
AcDbLine
 10
-1454.155877947167
 20
-449.8850164412386
 30
0.0
 11
-1374.155877947153
 21
-369.8850164412248
 31
0.0
  0
LINE
  5
2C6
330
1F
100
AcDbEntity
  8
0-0
  6
JWW_DASHED1
 62
   120
370
     5
100
AcDbLine
 10
-1454.155877947166
 20
-459.7845113763995
 30
0.0
 11
-1374.155877947167
 21
-379.7845113764006
 31
0.0
  0
LINE
  5
2C7
330
1F
100
AcDbEntity
  8
0-0
  6
JWW_DASHED1
 62
   120
370
     5
100
AcDbLine
 10
-1454.155877947157
 20
-469.6840063116073
 30
0.0
 11
-1374.155877947158
 21
-389.6840063116085
 31
0.0
  0
LINE
  5
2C8
330
1F
100
AcDbEntity
  8
0-0
  6
JWW_DASHED1
 62
   120
370
     5
100
AcDbLine
 10
-1454.155877947149
 20
-479.5835012468152
 30
0.0
 11
-1374.15587794715
 21
-399.5835012468167
 31
0.0
  0
LINE
  5
2C9
330
1F
100
AcDbEntity
  8
0-0
  6
JWW_DASHED1
 62
   120
370
     5
100
AcDbLine
 10
-1454.155877947167
 20
-489.4829961819961
 30
0.0
 11
-1374.155877947169
 21
-409.4829961819972
 31
0.0
  0
LINE
  5
2CA
330
1F
100
AcDbEntity
  8
0-0
  6
JWW_DASHED1
 62
   120
370
     5
100
AcDbLine
 10
-1454.155877947161
 20
-499.3824911172042
 30
0.0
 11
-1374.155877947162
 21
-419.3824911172055
 31
0.0
  0
LINE
  5
2CB
330
1F
100
AcDbEntity
  8
0-0
  6
JWW_DASHED1
 62
   120
370
     5
100
AcDbLine
 10
-1454.15587794715
 20
-509.2819860524122
 30
0.0
 11
-1374.155877947152
 21
-429.2819860524133
 31
0.0
  0
LINE
  5
2CC
330
1F
100
AcDbEntity
  8
0-0
  6
JWW_DASHED1
 62
   120
370
     5
100
AcDbLine
 10
-1454.155877947171
 20
-519.1814809875927
 30
0.0
 11
-1374.155877947155
 21
-439.1814809875785
 31
0.0
  0
LINE
  5
2CD
330
1F
100
AcDbEntity
  8
0-0
  6
JWW_DASHED1
 62
   120
370
     5
100
AcDbLine
 10
-1454.155877947162
 20
-529.0809759228008
 30
0.0
 11
-1374.155877947163
 21
-449.0809759228017
 31
0.0
  0
LINE
  5
2CE
330
1F
100
AcDbEntity
  8
0-0
  6
JWW_DASHED1
 62
   120
370
     5
100
AcDbLine
 10
-1454.15587794715
 20
-538.9804708579794
 30
0.0
 11
-1374.155877947153
 21
-458.9804708579805
 31
0.0
  0
LINE
  5
2CF
330
1F
100
AcDbEntity
  8
0-0
  6
JWW_DASHED1
 62
   120
370
     5
100
AcDbLine
 10
-1454.155877947172
 20
-548.8799657931896
 30
0.0
 11
-1374.155877947158
 21
-468.8799657931747
 31
0.0
  0
LINE
  5
2D0
330
1F
100
AcDbEntity
  8
0-0
  6
JWW_DASHED1
 62
   120
370
     5
100
AcDbLine
 10
-1454.155877947164
 20
-558.7794607283977
 30
0.0
 11
-1374.155877947165
 21
-478.7794607283988
 31
0.0
  0
LINE
  5
2D1
330
1F
100
AcDbEntity
  8
0-0
  6
JWW_DASHED1
 62
   120
370
     5
100
AcDbLine
 10
-1454.155877947154
 20
-568.6789556635763
 30
0.0
 11
-1374.155877947155
 21
-488.6789556635774
 31
0.0
  0
LINE
  5
2D2
330
1F
100
AcDbEntity
  8
0-0
  6
JWW_DASHED1
 62
   120
370
     5
100
AcDbLine
 10
-1454.155877947174
 20
-578.5784505987864
 30
0.0
 11
-1374.15587794716
 21
-498.5784505987716
 31
0.0
  0
LINE
  5
2D3
330
1F
100
AcDbEntity
  8
0-0
  6
JWW_DASHED1
 62
   120
370
     5
100
AcDbLine
 10
-1454.155877947166
 20
-588.477945533994
 30
0.0
 11
-1374.155877947169
 21
-508.4779455339954
 31
0.0
  0
LINE
  5
2D4
330
1F
100
AcDbEntity
  8
0-0
  6
JWW_DASHED1
 62
   120
370
     5
100
AcDbLine
 10
-1454.155877947154
 20
-598.3774404691433
 30
0.0
 11
-1374.155877947155
 21
-518.3774404691446
 31
0.0
  0
LINE
  5
2D5
330
1F
100
AcDbEntity
  8
0-0
  6
JWW_DASHED1
 62
   120
370
     5
100
AcDbLine
 10
-1454.155877947164
 20
-608.2769354043703
 30
0.0
 11
-1374.15587794715
 21
-528.276935404356
 31
0.0
  0
LINE
  5
2D6
330
1F
100
AcDbEntity
  8
0-0
  6
JWW_DASHED1
 62
   120
370
     5
100
AcDbLine
 10
-1454.155877947167
 20
-618.1764303395909
 30
0.0
 11
-1374.155877947169
 21
-538.176430339592
 31
0.0
  0
LINE
  5
2D7
330
1F
100
AcDbEntity
  8
0-0
  6
JWW_DASHED1
 62
   120
370
     5
100
AcDbLine
 10
-1454.155877947155
 20
-628.0759252747398
 30
0.0
 11
-1374.155877947157
 21
-548.0759252747412
 31
0.0
  0
LINE
  5
2D8
330
1F
100
AcDbEntity
  8
0-0
  6
JWW_DASHED1
 62
   120
370
     5
100
AcDbLine
 10
-1454.155877947164
 20
-637.9754202099637
 30
0.0
 11
-1374.155877947148
 21
-557.9754202099492
 31
0.0
  0
LINE
  5
2D9
330
1F
100
AcDbEntity
  8
0-0
  6
JWW_DASHED1
 62
   120
370
     5
100
AcDbLine
 10
-1454.155877947171
 20
-647.8749151451877
 30
0.0
 11
-1374.155877947155
 21
-567.8749151451728
 31
0.0
  0
LINE
  5
2DA
330
1F
100
AcDbEntity
  8
0-0
  6
JWW_DASHED1
 62
   120
370
     5
100
AcDbLine
 10
-1454.155877947157
 20
-657.7744100803367
 30
0.0
 11
-1374.155877947158
 21
-577.774410080338
 31
0.0
  0
LINE
  5
2DB
330
1F
100
AcDbEntity
  8
0-0
  6
JWW_DASHED1
 62
   120
370
     5
100
AcDbLine
 10
-1454.15587794715
 20
-667.6739050155447
 30
0.0
 11
-1374.155877947152
 21
-587.6739050155459
 31
0.0
  0
LINE
  5
2DC
330
1F
100
AcDbEntity
  8
0-0
  6
JWW_DASHED1
 62
   120
370
     5
100
AcDbLine
 10
-1454.155877947172
 20
-677.573399950784
 30
0.0
 11
-1374.155877947158
 21
-597.57339995077
 31
0.0
  0
LINE
  5
2DD
330
1F
100
AcDbEntity
  8
0-0
  6
JWW_DASHED1
 62
   120
370
     5
100
AcDbLine
 10
-1454.155877947161
 20
-687.4728948859331
 30
0.0
 11
-1374.155877947162
 21
-607.4728948859347
 31
0.0
  0
LINE
  5
2DE
330
1F
100
AcDbEntity
  8
0-0
  6
JWW_DASHED1
 62
   120
370
     5
100
AcDbLine
 10
-1454.155877947152
 20
-697.3723898211414
 30
0.0
 11
-1374.155877947153
 21
-617.3723898211425
 31
0.0
  0
LINE
  5
2DF
330
1F
100
AcDbEntity
  8
0-0
  6
JWW_DASHED1
 62
   120
370
     5
100
AcDbLine
 10
-1454.155877947174
 20
-707.2718847563812
 30
0.0
 11
-1374.155877947162
 21
-627.2718847563663
 31
0.0
  0
LINE
  5
2E0
330
1F
100
AcDbEntity
  8
0-0
  6
JWW_DASHED1
 62
   120
370
     5
100
AcDbLine
 10
-1454.155877947162
 20
-717.1713796915301
 30
0.0
 11
-1374.155877947163
 21
-637.1713796915315
 31
0.0
  0
LINE
  5
2E1
330
1F
100
AcDbEntity
  8
0-0
  6
JWW_DASHED1
 62
   120
370
     5
100
AcDbLine
 10
-1454.155877947154
 20
-727.070874626738
 30
0.0
 11
-1374.155877947155
 21
-647.0708746267392
 31
0.0
  0
LINE
  5
2E2
330
1F
100
AcDbEntity
  8
0-0
  6
JWW_DASHED1
 62
   120
370
     5
100
AcDbLine
 10
-1454.155877947164
 20
-736.9703695619637
 30
0.0
 11
-1374.15587794715
 21
-656.9703695619495
 31
0.0
  0
LINE
  5
2E3
330
1F
100
AcDbEntity
  8
0-0
  6
JWW_DASHED1
 62
   120
370
     5
100
AcDbLine
 10
-1454.155877947164
 20
-746.8698644971265
 30
0.0
 11
-1374.155877947165
 21
-666.8698644971279
 31
0.0
  0
LINE
  5
2E4
330
1F
100
AcDbEntity
  8
0-0
  6
JWW_DASHED1
 62
   120
370
     5
100
AcDbLine
 10
-1454.155877947157
 20
-756.769359432335
 30
0.0
 11
-1374.155877947158
 21
-676.7693594323359
 31
0.0
  0
LINE
  5
2E5
330
1F
100
AcDbEntity
  8
0-0
  6
JWW_DASHED1
 62
   120
370
     5
100
AcDbLine
 10
-1454.155877947147
 20
-766.6688543675426
 30
0.0
 11
-1374.155877947148
 21
-686.668854367544
 31
0.0
  0
LINE
  5
2E6
330
1F
100
AcDbEntity
  8
0-0
  6
JWW_DASHED1
 62
   120
370
     5
100
AcDbLine
 10
-1454.155877947167
 20
-776.5683493027234
 30
0.0
 11
-1374.155877947169
 21
-696.5683493027248
 31
0.0
  0
LINE
  5
2E7
330
1F
100
AcDbEntity
  8
0-0
  6
JWW_DASHED1
 62
   120
370
     5
100
AcDbLine
 10
-1454.155877947159
 20
-786.4678442379314
 30
0.0
 11
-1374.15587794716
 21
-706.4678442379328
 31
0.0
  0
LINE
  5
2E8
330
1F
100
AcDbEntity
  8
0-0
  6
JWW_DASHED1
 62
   120
370
     5
100
AcDbLine
 10
-1454.15587794715
 20
-796.3673391731395
 30
0.0
 11
-1374.155877947152
 21
-716.3673391731406
 31
0.0
  0
LINE
  5
2E9
330
1F
100
AcDbEntity
  8
0-0
  6
JWW_DASHED1
 62
   120
370
     5
100
AcDbLine
 10
-1454.155877947169
 20
-806.2668341083203
 30
0.0
 11
-1374.155877947155
 21
-726.2668341083054
 31
0.0
  0
LINE
  5
2EA
330
1F
100
AcDbEntity
  8
0-0
  6
JWW_DASHED1
 62
   120
370
     5
100
AcDbLine
 10
-1454.155877947161
 20
-816.1663290435283
 30
0.0
 11
-1374.155877947162
 21
-736.1663290435295
 31
0.0
  0
LINE
  5
2EB
330
1F
100
AcDbEntity
  8
0-0
  6
JWW_DASHED1
 62
   120
370
     5
100
AcDbLine
 10
-1454.155877947152
 20
-826.0658239787361
 30
0.0
 11
-1374.155877947153
 21
-746.0658239787372
 31
0.0
  0
LINE
  5
2EC
330
1F
100
AcDbEntity
  8
0-0
  6
JWW_DASHED1
 62
   120
370
     5
100
AcDbLine
 10
-1454.155877947171
 20
-835.9653189139167
 30
0.0
 11
-1374.155877947157
 21
-755.9653189139024
 31
0.0
  0
LINE
  5
2ED
330
1F
100
AcDbEntity
  8
0-0
  6
JWW_DASHED1
 62
   120
370
     5
100
AcDbLine
 10
-1454.155877947164
 20
-845.8648138491249
 30
0.0
 11
-1374.155877947165
 21
-765.8648138491258
 31
0.0
  0
LINE
  5
2EE
330
1F
100
AcDbEntity
  8
0-0
  6
JWW_DASHED1
 62
   120
370
     5
100
AcDbLine
 10
-1454.155877947154
 20
-855.7643087843327
 30
0.0
 11
-1374.155877947155
 21
-775.7643087843343
 31
0.0
  0
LINE
  5
2EF
330
1F
100
AcDbEntity
  8
0-0
  6
JWW_DASHED1
 62
   120
370
     5
100
AcDbLine
 10
-1454.155877947174
 20
-865.6638037195137
 30
0.0
 11
-1374.155877947158
 21
-785.663803719499
 31
0.0
  0
LINE
  5
2F0
330
1F
100
AcDbEntity
  8
0-0
  6
JWW_DASHED1
 62
   120
370
     5
100
AcDbLine
 10
-1454.155877947164
 20
-875.5632986547215
 30
0.0
 11
-1374.155877947167
 21
-795.5632986547231
 31
0.0
  0
LINE
  5
2F1
330
1F
100
AcDbEntity
  8
0-0
  6
JWW_DASHED1
 62
   120
370
     5
100
AcDbLine
 10
-1454.155877947157
 20
-885.4627935899298
 30
0.0
 11
-1374.155877947158
 21
-805.4627935899307
 31
0.0
  0
LINE
  5
2F2
330
1F
100
AcDbEntity
  8
0-0
  6
JWW_DASHED1
 62
   120
370
     5
100
AcDbLine
 10
-1454.155877947161
 20
-895.3622885250952
 30
0.0
 11
-1374.155877947146
 21
-815.362288525081
 31
0.0
  0
LINE
  5
2F3
330
1F
100
AcDbEntity
  8
0-0
  6
JWW_DASHED1
 62
   120
370
     5
100
AcDbLine
 10
-1454.155877947167
 20
-905.2617834603182
 30
0.0
 11
-1374.155877947169
 21
-825.2617834603195
 31
0.0
  0
LINE
  5
2F4
330
1F
100
AcDbEntity
  8
0-0
  6
JWW_DASHED1
 62
   120
370
     5
100
AcDbLine
 10
-1454.155877947159
 20
-915.1612783955262
 30
0.0
 11
-1374.15587794716
 21
-835.1612783955275
 31
0.0
  0
LINE
  5
2F5
330
1F
100
AcDbEntity
  8
0-0
  6
JWW_DASHED1
 62
   120
370
     5
100
AcDbLine
 10
-1454.155877947162
 20
-925.060773330691
 30
0.0
 11
-1374.155877947148
 21
-845.0607733306765
 31
0.0
  0
LINE
  5
2F6
330
1F
100
AcDbEntity
  8
0-0
  6
JWW_DASHED1
 62
   120
370
     5
100
AcDbLine
 10
-1454.155877947169
 20
-934.9602682659148
 30
0.0
 11
-1374.155877947155
 21
-854.9602682659006
 31
0.0
  0
LINE
  5
2F7
330
1F
100
AcDbEntity
  8
0-0
  6
JWW_DASHED1
 62
   120
370
     5
100
AcDbLine
 10
-1454.155877947161
 20
-944.859763201123
 30
0.0
 11
-1374.155877947162
 21
-864.8597632011241
 31
0.0
  0
LINE
  5
2F8
330
1F
100
AcDbEntity
  8
0-0
  6
JWW_DASHED1
 62
   120
370
     5
100
AcDbLine
 10
-1453.244591006955
 20
-953.8479711960778
 30
0.0
 11
-1374.15587794715
 21
-874.7592581362734
 31
0.0
  0
LINE
  5
2F9
330
1F
100
AcDbEntity
  8
0-0
  6
JWW_DASHED1
 62
   120
370
     5
100
AcDbLine
 10
-1443.345096071716
 20
-953.8479711960563
 30
0.0
 11
-1374.155877947158
 21
-884.6587530714974
 31
0.0
  0
LINE
  5
2FA
330
1F
100
AcDbEntity
  8
0-0
  6
JWW_DASHED1
 62
   120
370
     5
100
AcDbLine
 10
-1433.445601136507
 20
-953.8479711960624
 30
0.0
 11
-1374.155877947165
 21
-894.5582480067208
 31
0.0
  0
LINE
  5
2FB
330
1F
100
AcDbEntity
  8
0-0
  6
JWW_DASHED1
 62
   120
370
     5
100
AcDbLine
 10
-1423.546106201357
 20
-953.847971196075
 30
0.0
 11
-1374.155877947152
 21
-904.4577429418698
 31
0.0
  0
LINE
  5
2FC
330
1F
100
AcDbEntity
  8
0-0
  6
JWW_DASHED1
 62
   120
370
     5
100
AcDbLine
 10
-1413.646611266142
 20
-953.8479711960756
 30
0.0
 11
-1374.155877947145
 21
-914.3572378770784
 31
0.0
  0
LINE
  5
2FD
330
1F
100
AcDbEntity
  8
0-0
  6
JWW_DASHED1
 62
   120
370
     5
100
AcDbLine
 10
-1403.747116330909
 20
-953.8479711960597
 30
0.0
 11
-1374.155877947167
 21
-924.2567328123178
 31
0.0
  0
LINE
  5
2FE
330
1F
100
AcDbEntity
  8
0-0
  6
JWW_DASHED1
 62
   120
370
     5
100
AcDbLine
 10
-1393.847621395761
 20
-953.8479711960726
 30
0.0
 11
-1374.155877947155
 21
-934.1562277474668
 31
0.0
  0
LINE
  5
2FF
330
1F
100
AcDbEntity
  8
0-0
  6
JWW_DASHED1
 62
   120
370
     5
100
AcDbLine
 10
-1383.948126460549
 20
-953.8479711960784
 30
0.0
 11
-1374.155877947145
 21
-944.0557226826744
 31
0.0
  0
LINE
  5
300
330
1F
100
AcDbEntity
  8
0-0
  6
Continuous
 62
    92
370
    13
100
AcDbLine
 10
215.8441220528348
 20
-961.8479711960592
 30
0.0
 11
215.8441220528348
 21
1021.152028803941
 31
0.0
  0
LINE
  5
301
330
1F
100
AcDbEntity
  8
0-0
  6
Continuous
 62
     7
370
     9
100
AcDbLine
 10
215.8441220528348
 20
1013.152028803941
 30
0.0
 11
135.8441220528343
 21
1013.152028803941
 31
0.0
  0
LINE
  5
302
330
1F
100
AcDbEntity
  8
0-0
  6
Continuous
 62
     7
370
     9
100
AcDbLine
 10
215.8441220528348
 20
-953.8479711960597
 30
0.0
 11
135.8441220528343
 21
-953.8479711960597
 31
0.0
  0
LINE
  5
303
330
1F
100
AcDbEntity
  8
0-0
  6
Continuous
 62
    92
370
    13
100
AcDbLine
 10
135.8441220528343
 20
-961.8479711960592
 30
0.0
 11
135.8441220528343
 21
1021.152028803941
 31
0.0
  0
LINE
  5
304
330
1F
100
AcDbEntity
  8
0-0
  6
JWW_DASHED1
 62
   120
370
     5
100
AcDbLine
 10
135.8441220528343
 20
1005.340739032893
 30
0.0
 11
143.6554118238806
 21
1013.15202880394
 31
0.0
  0
LINE
  5
305
330
1F
100
AcDbEntity
  8
0-0
  6
JWW_DASHED1
 62
   120
370
     5
100
AcDbLine
 10
135.8441220528275
 20
995.4412440976691
 30
0.0
 11
153.554906759102
 21
1013.152028803944
 31
0.0
  0
LINE
  5
306
330
1F
100
AcDbEntity
  8
0-0
  6
JWW_DASHED1
 62
   120
370
     5
100
AcDbLine
 10
135.8441220528189
 20
985.5417491624451
 30
0.0
 11
163.4544016943235
 21
1013.15202880395
 31
0.0
  0
LINE
  5
307
330
1F
100
AcDbEntity
  8
0-0
  6
JWW_DASHED1
 62
   120
370
     5
100
AcDbLine
 10
135.8441220528326
 20
975.642254227296
 30
0.0
 11
173.3538966294785
 21
1013.152028803942
 31
0.0
  0
LINE
  5
308
330
1F
100
AcDbEntity
  8
0-0
  6
JWW_DASHED1
 62
   120
370
     5
100
AcDbLine
 10
135.8441220528411
 20
965.7427592920883
 30
0.0
 11
183.253391564688
 21
1013.152028803934
 31
0.0
  0
LINE
  5
309
330
1F
100
AcDbEntity
  8
0-0
  6
JWW_DASHED1
 62
   120
370
     5
100
AcDbLine
 10
135.8441220528172
 20
955.8432643568481
 30
0.0
 11
193.1528864999146
 21
1013.152028803946
 31
0.0
  0
LINE
  5
30A
330
1F
100
AcDbEntity
  8
0-0
  6
JWW_DASHED1
 62
   120
370
     5
100
AcDbLine
 10
135.8441220528292
 20
945.9437694216995
 30
0.0
 11
203.0523814350764
 21
1013.152028803945
 31
0.0
  0
LINE
  5
30B
330
1F
100
AcDbEntity
  8
0-0
  6
JWW_DASHED1
 62
   120
370
     5
100
AcDbLine
 10
135.8441220528394
 20
936.0442744864916
 30
0.0
 11
212.9518763702842
 21
1013.152028803937
 31
0.0
  0
LINE
  5
30C
330
1F
100
AcDbEntity
  8
0-0
  6
JWW_DASHED1
 62
   120
370
     5
100
AcDbLine
 10
135.8441220528155
 20
926.1447795512527
 30
0.0
 11
215.8441220528297
 21
1006.144779551266
 31
0.0
  0
LINE
  5
30D
330
1F
100
AcDbEntity
  8
0-0
  6
JWW_DASHED1
 62
   120
370
     5
100
AcDbLine
 10
135.8441220528292
 20
916.2452846161028
 30
0.0
 11
215.8441220528263
 21
996.2452846161012
 31
0.0
  0
LINE
  5
30E
330
1F
100
AcDbEntity
  8
0-0
  6
JWW_DASHED1
 62
   120
370
     5
100
AcDbLine
 10
135.844122052836
 20
906.3457896808945
 30
0.0
 11
215.8441220528348
 21
986.3457896808934
 31
0.0
  0
LINE
  5
30F
330
1F
100
AcDbEntity
  8
0-0
  6
JWW_DASHED1
 62
   120
370
     5
100
AcDbLine
 10
135.8441220528138
 20
896.4462947456557
 30
0.0
 11
215.844122052828
 21
976.4462947456698
 31
0.0
  0
LINE
  5
310
330
1F
100
AcDbEntity
  8
0-0
  6
JWW_DASHED1
 62
   120
370
     5
100
AcDbLine
 10
135.8441220528258
 20
886.5467998105062
 30
0.0
 11
215.8441220528246
 21
966.5467998105046
 31
0.0
  0
LINE
  5
311
330
1F
100
AcDbEntity
  8
0-0
  6
JWW_DASHED1
 62
   120
370
     5
100
AcDbLine
 10
135.8441220528343
 20
876.647304875298
 30
0.0
 11
215.8441220528331
 21
956.6473048752969
 31
0.0
  0
LINE
  5
312
330
1F
100
AcDbEntity
  8
0-0
  6
JWW_DASHED1
 62
   120
370
     5
100
AcDbLine
 10
135.8441220528428
 20
866.7478099400901
 30
0.0
 11
215.8441220528417
 21
946.7478099400889
 31
0.0
  0
LINE
  5
313
330
1F
100
AcDbEntity
  8
0-0
  6
JWW_DASHED1
 62
   120
370
     5
100
AcDbLine
 10
135.8441220528223
 20
856.8483150049092
 30
0.0
 11
215.8441220528229
 21
936.848315004908
 31
0.0
  0
LINE
  5
314
330
1F
100
AcDbEntity
  8
0-0
  6
JWW_DASHED1
 62
   120
370
     5
100
AcDbLine
 10
135.8441220528326
 20
846.9488200697014
 30
0.0
 11
215.8441220528314
 21
926.9488200697002
 31
0.0
  0
LINE
  5
315
330
1F
100
AcDbEntity
  8
0-0
  6
JWW_DASHED1
 62
   120
370
     5
100
AcDbLine
 10
135.8441220528394
 20
837.0493251344931
 30
0.0
 11
215.8441220528383
 21
917.0493251344919
 31
0.0
  0
LINE
  5
316
330
1F
100
AcDbEntity
  8
0-0
  6
JWW_DASHED1
 62
   120
370
     5
100
AcDbLine
 10
135.8441220528223
 20
827.1498301993125
 30
0.0
 11
215.8441220528366
 21
907.1498301993272
 31
0.0
  0
LINE
  5
317
330
1F
100
AcDbEntity
  8
0-0
  6
JWW_DASHED1
 62
   120
370
     5
100
AcDbLine
 10
135.8441220528292
 20
817.2503352641047
 30
0.0
 11
215.844122052828
 21
897.2503352641036
 31
0.0
  0
LINE
  5
318
330
1F
100
AcDbEntity
  8
0-0
  6
JWW_DASHED1
 62
   120
370
     5
100
AcDbLine
 10
135.8441220528377
 20
807.3508403288961
 30
0.0
 11
215.8441220528366
 21
887.350840328895
 31
0.0
  0
LINE
  5
319
330
1F
100
AcDbEntity
  8
0-0
  6
JWW_DASHED1
 62
   120
370
     5
100
AcDbLine
 10
135.8441220528189
 20
797.4513453937159
 30
0.0
 11
215.8441220528348
 21
877.4513453937305
 31
0.0
  0
LINE
  5
31A
330
1F
100
AcDbEntity
  8
0-0
  6
JWW_DASHED1
 62
   120
370
     5
100
AcDbLine
 10
135.8441220528275
 20
787.5518504585077
 30
0.0
 11
215.8441220528263
 21
867.5518504585066
 31
0.0
  0
LINE
  5
31B
330
1F
100
AcDbEntity
  8
0-0
  6
JWW_DASHED1
 62
   120
370
     5
100
AcDbLine
 10
135.844122052836
 20
777.6523555232998
 30
0.0
 11
215.8441220528348
 21
857.6523555232986
 31
0.0
  0
LINE
  5
31C
330
1F
100
AcDbEntity
  8
0-0
  6
JWW_DASHED1
 62
   120
370
     5
100
AcDbLine
 10
135.8441220528172
 20
767.7528605881193
 30
0.0
 11
215.8441220528314
 21
847.7528605881339
 31
0.0
  0
LINE
  5
31D
330
1F
100
AcDbEntity
  8
0-0
  6
JWW_DASHED1
 62
   120
370
     5
100
AcDbLine
 10
135.8441220528258
 20
757.8533656529114
 30
0.0
 11
215.8441220528246
 21
837.8533656529099
 31
0.0
  0
LINE
  5
31E
330
1F
100
AcDbEntity
  8
0-0
  6
JWW_DASHED1
 62
   120
370
     5
100
AcDbLine
 10
135.8441220528326
 20
747.9538707177032
 30
0.0
 11
215.8441220528331
 21
827.9538707177021
 31
0.0
  0
LINE
  5
31F
330
1F
100
AcDbEntity
  8
0-0
  6
JWW_DASHED1
 62
   120
370
     5
100
AcDbLine
 10
135.8441220528172
 20
738.0543757825249
 30
0.0
 11
215.8441220528314
 21
818.0543757825386
 31
0.0
  0
LINE
  5
320
330
1F
100
AcDbEntity
  8
0-0
  6
JWW_DASHED1
 62
   120
370
     5
100
AcDbLine
 10
135.8441220528223
 20
728.1548808473144
 30
0.0
 11
215.8441220528212
 21
808.1548808473133
 31
0.0
  0
LINE
  5
321
330
1F
100
AcDbEntity
  8
0-0
  6
JWW_DASHED1
 62
   120
370
     5
100
AcDbLine
 10
135.8441220528343
 20
718.255385912136
 30
0.0
 11
215.8441220528314
 21
798.2553859121344
 31
0.0
  0
LINE
  5
322
330
1F
100
AcDbEntity
  8
0-0
  6
JWW_DASHED1
 62
   120
370
     5
100
AcDbLine
 10
135.8441220528292
 20
708.3558909769414
 30
0.0
 11
215.8441220528417
 21
788.3558909769561
 31
0.0
  0
LINE
  5
323
330
1F
100
AcDbEntity
  8
0-0
  6
JWW_DASHED1
 62
   120
370
     5
100
AcDbLine
 10
135.8441220528223
 20
698.4563960417182
 30
0.0
 11
215.8441220528348
 21
778.4563960417324
 31
0.0
  0
LINE
  5
324
330
1F
100
AcDbEntity
  8
0-0
  6
JWW_DASHED1
 62
   120
370
     5
100
AcDbLine
 10
135.8441220528326
 20
688.5569011065394
 30
0.0
 11
215.8441220528314
 21
768.5569011065382
 31
0.0
  0
LINE
  5
325
330
1F
100
AcDbEntity
  8
0-0
  6
JWW_DASHED1
 62
   120
370
     5
100
AcDbLine
 10
135.8441220528428
 20
678.657406171361
 30
0.0
 11
215.8441220528417
 21
758.6574061713594
 31
0.0
  0
LINE
  5
326
330
1F
100
AcDbEntity
  8
0-0
  6
JWW_DASHED1
 62
   120
370
     5
100
AcDbLine
 10
135.8441220528189
 20
668.7579112361211
 30
0.0
 11
215.8441220528331
 21
748.7579112361354
 31
0.0
  0
LINE
  5
327
330
1F
100
AcDbEntity
  8
0-0
  6
JWW_DASHED1
 62
   120
370
     5
100
AcDbLine
 10
135.8441220528292
 20
658.8584163009427
 30
0.0
 11
215.844122052828
 21
738.8584163009411
 31
0.0
  0
LINE
  5
328
330
1F
100
AcDbEntity
  8
0-0
  6
JWW_DASHED1
 62
   120
370
     5
100
AcDbLine
 10
135.8441220528394
 20
648.9589213657639
 30
0.0
 11
215.8441220528383
 21
728.9589213657628
 31
0.0
  0
LINE
  5
329
330
1F
100
AcDbEntity
  8
0-0
  6
JWW_DASHED1
 62
   120
370
     5
100
AcDbLine
 10
135.8441220528189
 20
639.0594264305275
 30
0.0
 11
215.8441220528331
 21
719.059426430541
 31
0.0
  0
LINE
  5
32A
330
1F
100
AcDbEntity
  8
0-0
  6
JWW_DASHED1
 62
   120
370
     5
100
AcDbLine
 10
135.8441220528275
 20
629.1599314953457
 30
0.0
 11
215.8441220528246
 21
709.1599314953446
 31
0.0
  0
LINE
  5
32B
330
1F
100
AcDbEntity
  8
0-0
  6
JWW_DASHED1
 62
   120
370
     5
100
AcDbLine
 10
135.8441220528377
 20
619.2604365601674
 30
0.0
 11
215.8441220528366
 21
699.2604365601662
 31
0.0
  0
LINE
  5
32C
330
1F
100
AcDbEntity
  8
0-0
  6
JWW_DASHED1
 62
   120
370
     5
100
AcDbLine
 10
135.8441220528292
 20
609.3609416249433
 30
0.0
 11
215.8441220528451
 21
689.3609416249583
 31
0.0
  0
LINE
  5
32D
330
1F
100
AcDbEntity
  8
0-0
  6
JWW_DASHED1
 62
   120
370
     5
100
AcDbLine
 10
135.8441220528275
 20
599.4614466897785
 30
0.0
 11
215.8441220528246
 21
679.4614466897774
 31
0.0
  0
LINE
  5
32E
330
1F
100
AcDbEntity
  8
0-0
  6
JWW_DASHED1
 62
   120
370
     5
100
AcDbLine
 10
135.844122052836
 20
589.5619517545707
 30
0.0
 11
215.8441220528348
 21
669.5619517545691
 31
0.0
  0
LINE
  5
32F
330
1F
100
AcDbEntity
  8
0-0
  6
JWW_DASHED1
 62
   120
370
     5
100
AcDbLine
 10
135.8441220528428
 20
579.6624568193624
 30
0.0
 11
215.8441220528417
 21
659.6624568193613
 31
0.0
  0
LINE
  5
330
330
1F
100
AcDbEntity
  8
0-0
  6
JWW_DASHED1
 62
   120
370
     5
100
AcDbLine
 10
135.8441220528258
 20
569.7629618841819
 30
0.0
 11
215.8441220528246
 21
649.7629618841808
 31
0.0
  0
LINE
  5
331
330
1F
100
AcDbEntity
  8
0-0
  6
JWW_DASHED1
 62
   120
370
     5
100
AcDbLine
 10
135.8441220528326
 20
559.8634669489741
 30
0.0
 11
215.8441220528314
 21
639.8634669489725
 31
0.0
  0
LINE
  5
332
330
1F
100
AcDbEntity
  8
0-0
  6
JWW_DASHED1
 62
   120
370
     5
100
AcDbLine
 10
135.8441220528411
 20
549.9639720137658
 30
0.0
 11
215.8441220528417
 21
629.9639720137651
 31
0.0
  0
LINE
  5
333
330
1F
100
AcDbEntity
  8
0-0
  6
JWW_DASHED1
 62
   120
370
     5
100
AcDbLine
 10
135.8441220528223
 20
540.0644770785852
 30
0.0
 11
215.8441220528383
 21
620.0644770785999
 31
0.0
  0
LINE
  5
334
330
1F
100
AcDbEntity
  8
0-0
  6
JWW_DASHED1
 62
   120
370
     5
100
AcDbLine
 10
135.8441220528309
 20
530.1649821433774
 30
0.0
 11
215.8441220528297
 21
610.1649821433759
 31
0.0
  0
LINE
  5
335
330
1F
100
AcDbEntity
  8
0-0
  6
JWW_DASHED1
 62
   120
370
     5
100
AcDbLine
 10
135.8441220528394
 20
520.2654872081691
 30
0.0
 11
215.8441220528383
 21
600.265487208168
 31
0.0
  0
LINE
  5
336
330
1F
100
AcDbEntity
  8
0-0
  6
JWW_DASHED1
 62
   120
370
     5
100
AcDbLine
 10
135.8441220528206
 20
510.3659922729886
 30
0.0
 11
215.8441220528348
 21
590.3659922730028
 31
0.0
  0
LINE
  5
337
330
1F
100
AcDbEntity
  8
0-0
  6
JWW_DASHED1
 62
   120
370
     5
100
AcDbLine
 10
135.8441220528292
 20
500.4664973377804
 30
0.0
 11
215.844122052828
 21
580.4664973377793
 31
0.0
  0
LINE
  5
338
330
1F
100
AcDbEntity
  8
0-0
  6
JWW_DASHED1
 62
   120
370
     5
100
AcDbLine
 10
135.844122052836
 20
490.5670024025726
 30
0.0
 11
215.8441220528366
 21
570.5670024025715
 31
0.0
  0
LINE
  5
339
330
1F
100
AcDbEntity
  8
0-0
  6
JWW_DASHED1
 62
   120
370
     5
100
AcDbLine
 10
135.8441220528189
 20
480.6675074673921
 30
0.0
 11
215.8441220528314
 21
560.6675074674063
 31
0.0
  0
LINE
  5
33A
330
1F
100
AcDbEntity
  8
0-0
  6
JWW_DASHED1
 62
   120
370
     5
100
AcDbLine
 10
135.8441220528258
 20
470.7680125321838
 30
0.0
 11
215.8441220528246
 21
550.7680125321826
 31
0.0
  0
LINE
  5
33B
330
1F
100
AcDbEntity
  8
0-0
  6
JWW_DASHED1
 62
   120
370
     5
100
AcDbLine
 10
135.844122052836
 20
460.8685175969759
 30
0.0
 11
215.8441220528348
 21
540.8685175969748
 31
0.0
  0
LINE
  5
33C
330
1F
100
AcDbEntity
  8
0-0
  6
JWW_DASHED1
 62
   120
370
     5
100
AcDbLine
 10
135.8441220528206
 20
450.9690226617997
 30
0.0
 11
215.8441220528348
 21
530.9690226618135
 31
0.0
  0
LINE
  5
33D
330
1F
100
AcDbEntity
  8
0-0
  6
JWW_DASHED1
 62
   120
370
     5
100
AcDbLine
 10
135.844122052824
 20
441.0695277265871
 30
0.0
 11
215.8441220528383
 21
521.0695277266018
 31
0.0
  0
LINE
  5
33E
330
1F
100
AcDbEntity
  8
0-0
  6
JWW_DASHED1
 62
   120
370
     5
100
AcDbLine
 10
135.8441220528326
 20
431.1700327913789
 30
0.0
 11
215.8441220528314
 21
511.1700327913778
 31
0.0
  0
LINE
  5
33F
330
1F
100
AcDbEntity
  8
0-0
  6
JWW_DASHED1
 62
   120
370
     5
100
AcDbLine
 10
135.8441220528462
 20
421.2705378562299
 30
0.0
 11
215.8441220528451
 21
501.2705378562288
 31
0.0
  0
LINE
  5
340
330
1F
100
AcDbEntity
  8
0-0
  6
JWW_DASHED1
 62
   120
370
     5
100
AcDbLine
 10
135.8441220528223
 20
411.3710429209905
 30
0.0
 11
215.8441220528366
 21
491.3710429210051
 31
0.0
  0
LINE
  5
341
330
1F
100
AcDbEntity
  8
0-0
  6
JWW_DASHED1
 62
   120
370
     5
100
AcDbLine
 10
135.8441220528309
 20
401.4715479857827
 30
0.0
 11
215.8441220528297
 21
481.4715479857812
 31
0.0
  0
LINE
  5
342
330
1F
100
AcDbEntity
  8
0-0
  6
JWW_DASHED1
 62
   120
370
     5
100
AcDbLine
 10
135.8441220528428
 20
391.5720530506333
 30
0.0
 11
215.8441220528417
 21
471.5720530506321
 31
0.0
  0
LINE
  5
343
330
1F
100
AcDbEntity
  8
0-0
  6
JWW_DASHED1
 62
   120
370
     5
100
AcDbLine
 10
135.8441220528189
 20
381.6725581153939
 30
0.0
 11
215.8441220528348
 21
461.6725581154085
 31
0.0
  0
LINE
  5
344
330
1F
100
AcDbEntity
  8
0-0
  6
JWW_DASHED1
 62
   120
370
     5
100
AcDbLine
 10
135.8441220528292
 20
371.7730631801857
 30
0.0
 11
215.844122052828
 21
451.7730631801845
 31
0.0
  0
LINE
  5
345
330
1F
100
AcDbEntity
  8
0-0
  6
JWW_DASHED1
 62
   120
370
     5
100
AcDbLine
 10
135.8441220528411
 20
361.8735682450367
 30
0.0
 11
215.84412205284
 21
441.8735682450355
 31
0.0
  0
LINE
  5
346
330
1F
100
AcDbEntity
  8
0-0
  6
JWW_DASHED1
 62
   120
370
     5
100
AcDbLine
 10
135.8441220528223
 20
351.9740733098024
 30
0.0
 11
215.8441220528366
 21
431.9740733098162
 31
0.0
  0
LINE
  5
347
330
1F
100
AcDbEntity
  8
0-0
  6
JWW_DASHED1
 62
   120
370
     5
100
AcDbLine
 10
135.8441220528258
 20
342.074578374589
 30
0.0
 11
215.8441220528246
 21
422.0745783745879
 31
0.0
  0
LINE
  5
348
330
1F
100
AcDbEntity
  8
0-0
  6
JWW_DASHED1
 62
   120
370
     5
100
AcDbLine
 10
135.8441220528394
 20
332.1750834394401
 30
0.0
 11
215.8441220528383
 21
412.1750834394393
 31
0.0
  0
LINE
  5
349
330
1F
100
AcDbEntity
  8
0-0
  6
JWW_DASHED1
 62
   120
370
     5
100
AcDbLine
 10
135.8441220528309
 20
322.275588504216
 30
0.0
 11
215.8441220528451
 21
402.2755885042307
 31
0.0
  0
LINE
  5
34A
330
1F
100
AcDbEntity
  8
0-0
  6
JWW_DASHED1
 62
   120
370
     5
100
AcDbLine
 10
135.844122052824
 20
312.3760935689924
 30
0.0
 11
215.8441220528383
 21
392.376093569007
 31
0.0
  0
LINE
  5
34B
330
1F
100
AcDbEntity
  8
0-0
  6
JWW_DASHED1
 62
   120
370
     5
100
AcDbLine
 10
135.844122052836
 20
302.4765986338434
 30
0.0
 11
215.8441220528348
 21
382.4765986338423
 31
0.0
  0
LINE
  5
34C
330
1F
100
AcDbEntity
  8
0-0
  6
JWW_DASHED1
 62
   120
370
     5
100
AcDbLine
 10
135.8441220528445
 20
292.5771036986356
 30
0.0
 11
215.8441220528434
 21
372.577103698634
 31
0.0
  0
LINE
  5
34D
330
1F
100
AcDbEntity
  8
0-0
  6
JWW_DASHED1
 62
   120
370
     5
100
AcDbLine
 10
135.8441220528223
 20
282.6776087633962
 30
0.0
 11
215.8441220528366
 21
362.6776087634104
 31
0.0
  0
LINE
  5
34E
330
1F
100
AcDbEntity
  8
0-0
  6
JWW_DASHED1
 62
   120
370
     5
100
AcDbLine
 10
135.8441220528343
 20
272.7781138282464
 30
0.0
 11
215.8441220528331
 21
352.7781138282452
 31
0.0
  0
LINE
  5
34F
330
1F
100
AcDbEntity
  8
0-0
  6
JWW_DASHED1
 62
   120
370
     5
100
AcDbLine
 10
135.8441220528428
 20
262.8786188930385
 30
0.0
 11
215.8441220528417
 21
342.8786188930374
 31
0.0
  0
LINE
  5
350
330
1F
100
AcDbEntity
  8
0-0
  6
JWW_DASHED1
 62
   120
370
     5
100
AcDbLine
 10
135.8441220528189
 20
252.9791239577992
 30
0.0
 11
215.8441220528348
 21
332.9791239578134
 31
0.0
  0
LINE
  5
351
330
1F
100
AcDbEntity
  8
0-0
  6
JWW_DASHED1
 62
   120
370
     5
100
AcDbLine
 10
135.8441220528326
 20
243.0796290226498
 30
0.0
 11
215.8441220528314
 21
323.079629022649
 31
0.0
  0
LINE
  5
352
330
1F
100
AcDbEntity
  8
0-0
  6
JWW_DASHED1
 62
   120
370
     5
100
AcDbLine
 10
135.8441220528411
 20
233.1801340874424
 30
0.0
 11
215.8441220528383
 21
313.1801340874408
 31
0.0
  0
LINE
  5
353
330
1F
100
AcDbEntity
  8
0-0
  6
JWW_DASHED1
 62
   120
370
     5
100
AcDbLine
 10
135.844122052824
 20
223.2806391522089
 30
0.0
 11
215.8441220528383
 21
303.2806391522223
 31
0.0
  0
LINE
  5
354
330
1F
100
AcDbEntity
  8
0-0
  6
JWW_DASHED1
 62
   120
370
     5
100
AcDbLine
 10
135.8441220528292
 20
213.3811442170531
 30
0.0
 11
215.844122052828
 21
293.381144217052
 31
0.0
  0
LINE
  5
355
330
1F
100
AcDbEntity
  8
0-0
  6
JWW_DASHED1
 62
   120
370
     5
100
AcDbLine
 10
135.8441220528394
 20
203.4816492818453
 30
0.0
 11
215.8441220528383
 21
283.4816492818442
 31
0.0
  0
LINE
  5
356
330
1F
100
AcDbEntity
  8
0-0
  6
JWW_DASHED1
 62
   120
370
     5
100
AcDbLine
 10
135.8441220528462
 20
193.5821543466371
 30
0.0
 11
215.8441220528451
 21
273.5821543466359
 31
0.0
  0
LINE
  5
357
330
1F
100
AcDbEntity
  8
0-0
  6
JWW_DASHED1
 62
   120
370
     5
100
AcDbLine
 10
135.8441220528275
 20
183.6826594114565
 30
0.0
 11
215.8441220528263
 21
263.6826594114553
 31
0.0
  0
LINE
  5
358
330
1F
100
AcDbEntity
  8
0-0
  6
JWW_DASHED1
 62
   120
370
     5
100
AcDbLine
 10
135.844122052836
 20
173.7831644762491
 30
0.0
 11
215.8441220528348
 21
253.7831644762471
 31
0.0
  0
LINE
  5
359
330
1F
100
AcDbEntity
  8
0-0
  6
JWW_DASHED1
 62
   120
370
     5
100
AcDbLine
 10
135.8441220528445
 20
163.8836695410404
 30
0.0
 11
215.8441220528434
 21
243.8836695410393
 31
0.0
  0
LINE
  5
35A
330
1F
100
AcDbEntity
  8
0-0
  6
JWW_DASHED1
 62
   120
370
     5
100
AcDbLine
 10
135.8441220528258
 20
153.9841746058599
 30
0.0
 11
215.84412205284
 21
233.9841746058745
 31
0.0
  0
LINE
  5
35B
330
1F
100
AcDbEntity
  8
0-0
  6
JWW_DASHED1
 62
   120
370
     5
100
AcDbLine
 10
135.8441220528343
 20
144.0846796706521
 30
0.0
 11
215.8441220528314
 21
224.0846796706505
 31
0.0
  0
LINE
  5
35C
330
1F
100
AcDbEntity
  8
0-0
  6
JWW_DASHED1
 62
   120
370
     5
100
AcDbLine
 10
135.8441220528428
 20
134.1851847354438
 30
0.0
 11
215.8441220528417
 21
214.1851847354431
 31
0.0
  0
LINE
  5
35D
330
1F
100
AcDbEntity
  8
0-0
  6
JWW_DASHED1
 62
   120
370
     5
100
AcDbLine
 10
135.844122052824
 20
124.2856898002633
 30
0.0
 11
215.8441220528383
 21
204.2856898002779
 31
0.0
  0
LINE
  5
35E
330
1F
100
AcDbEntity
  8
0-0
  6
JWW_DASHED1
 62
   120
370
     5
100
AcDbLine
 10
135.8441220528326
 20
114.386194865055
 30
0.0
 11
215.8441220528314
 21
194.3861948650539
 31
0.0
  0
LINE
  5
35F
330
1F
100
AcDbEntity
  8
0-0
  6
JWW_DASHED1
 62
   120
370
     5
100
AcDbLine
 10
135.8441220528394
 20
104.4866999298472
 30
0.0
 11
215.8441220528383
 21
184.4866999298461
 31
0.0
  0
LINE
  5
360
330
1F
100
AcDbEntity
  8
0-0
  6
JWW_DASHED1
 62
   120
370
     5
100
AcDbLine
 10
135.8441220528223
 20
94.58720499466665
 30
0.0
 11
215.8441220528348
 21
174.5872049946809
 31
0.0
  0
LINE
  5
361
330
1F
100
AcDbEntity
  8
0-0
  6
JWW_DASHED1
 62
   120
370
     5
100
AcDbLine
 10
135.8441220528292
 20
84.68771005945882
 30
0.0
 11
215.844122052828
 21
164.6877100594573
 31
0.0
  0
LINE
  5
362
330
1F
100
AcDbEntity
  8
0-0
  6
JWW_DASHED1
 62
   120
370
     5
100
AcDbLine
 10
135.8441220528377
 20
74.78821512425057
 30
0.0
 11
215.8441220528366
 21
154.788215124249
 31
0.0
  0
LINE
  5
363
330
1F
100
AcDbEntity
  8
0-0
  6
JWW_DASHED1
 62
   120
370
     5
100
AcDbLine
 10
135.8441220528258
 20
64.88872018907728
 30
0.0
 11
215.84412205284
 21
144.8887201890915
 31
0.0
  0
LINE
  5
364
330
1F
100
AcDbEntity
  8
0-0
  6
JWW_DASHED1
 62
   120
370
     5
100
AcDbLine
 10
135.8441220528275
 20
54.98922525386178
 30
0.0
 11
215.8441220528263
 21
134.9892252538606
 31
0.0
  0
LINE
  5
365
330
1F
100
AcDbEntity
  8
0-0
  6
JWW_DASHED1
 62
   120
370
     5
100
AcDbLine
 10
135.8441220528394
 20
45.08973031871278
 30
0.0
 11
215.8441220528383
 21
125.0897303187116
 31
0.0
  0
LINE
  5
366
330
1F
100
AcDbEntity
  8
0-0
  6
JWW_DASHED1
 62
   120
370
     5
100
AcDbLine
 10
135.8441220528326
 20
35.19023538348875
 30
0.0
 11
215.8441220528468
 21
115.1902353835034
 31
0.0
  0
LINE
  5
367
330
1F
100
AcDbEntity
  8
0-0
  6
JWW_DASHED1
 62
   120
370
     5
100
AcDbLine
 10
135.8441220528258
 20
25.29074044826558
 30
0.0
 11
215.84412205284
 21
105.2907404482798
 31
0.0
  0
LINE
  5
368
330
1F
100
AcDbEntity
  8
0-0
  6
JWW_DASHED1
 62
   120
370
     5
100
AcDbLine
 10
135.8441220528377
 20
15.39124551311573
 30
0.0
 11
215.8441220528366
 21
95.3912455131146
 31
0.0
  0
LINE
  5
369
330
1F
100
AcDbEntity
  8
0-0
  6
JWW_DASHED1
 62
   120
370
     5
100
AcDbLine
 10
135.8441220528462
 20
5.491750577907908
 30
0.0
 11
215.8441220528451
 21
85.49175057790677
 31
0.0
  0
LINE
  5
36A
330
1F
100
AcDbEntity
  8
0-0
  6
JWW_DASHED1
 62
   120
370
     5
100
AcDbLine
 10
135.8441220528223
 20
-4.407744357331467
 30
0.0
 11
215.8441220528383
 21
75.59225564268274
 31
0.0
  0
LINE
  5
36B
330
1F
100
AcDbEntity
  8
0-0
  6
JWW_DASHED1
 62
   120
370
     5
100
AcDbLine
 10
135.844122052836
 20
-14.30723929248089
 30
0.0
 11
215.8441220528348
 21
65.6927607075184
 31
0.0
  0
LINE
  5
36C
330
1F
100
AcDbEntity
  8
0-0
  6
JWW_DASHED1
 62
   120
370
     5
100
AcDbLine
 10
135.8441220528445
 20
-24.20673422768829
 30
0.0
 11
215.8441220528417
 21
55.79326577231015
 31
0.0
  0
LINE
  5
36D
330
1F
100
AcDbEntity
  8
0-0
  6
JWW_DASHED1
 62
   120
370
     5
100
AcDbLine
 10
135.8441220528292
 20
-34.10622916291999
 30
0.0
 11
215.8441220528417
 21
45.8937708370938
 31
0.0
  0
LINE
  5
36E
330
1F
100
AcDbEntity
  8
0-0
  6
JWW_DASHED1
 62
   120
370
     5
100
AcDbLine
 10
135.8441220528326
 20
-44.00572409807751
 30
0.0
 11
215.8441220528314
 21
35.99427590192136
 31
0.0
  0
LINE
  5
36F
330
1F
100
AcDbEntity
  8
0-0
  6
JWW_DASHED1
 62
   120
370
     5
100
AcDbLine
 10
135.8441220528428
 20
-53.90521903328533
 30
0.0
 11
215.8441220528417
 21
26.09478096671353
 31
0.0
  0
LINE
  5
370
330
1F
100
AcDbEntity
  8
0-0
  6
JWW_DASHED1
 62
   120
370
     5
100
AcDbLine
 10
135.8441220528343
 20
-63.80471396850936
 30
0.0
 11
215.8441220528485
 21
16.1952860315057
 31
0.0
  0
LINE
  5
371
330
1F
100
AcDbEntity
  8
0-0
  6
JWW_DASHED1
 62
   120
370
     5
100
AcDbLine
 10
135.8441220528309
 20
-73.7042089036737
 30
0.0
 11
215.8441220528297
 21
6.295791096324734
 31
0.0
  0
LINE
  5
372
330
1F
100
AcDbEntity
  8
0-0
  6
JWW_DASHED1
 62
   120
370
     5
100
AcDbLine
 10
135.8441220528394
 20
-83.60370383888196
 30
0.0
 11
215.8441220528383
 21
-3.603703838883519
 31
0.0
  0
LINE
  5
373
330
1F
100
AcDbEntity
  8
0-0
  6
JWW_DASHED1
 62
   120
370
     5
100
AcDbLine
 10
135.8441220528479
 20
-93.50319877409021
 30
0.0
 11
215.8441220528468
 21
-13.50319877409135
 31
0.0
  0
LINE
  5
374
330
1F
100
AcDbEntity
  8
0-0
  6
JWW_DASHED1
 62
   120
370
     5
100
AcDbLine
 10
135.8441220528292
 20
-103.4026937092707
 30
0.0
 11
215.844122052828
 21
-23.40269370927189
 31
0.0
  0
LINE
  5
375
330
1F
100
AcDbEntity
  8
0-0
  6
JWW_DASHED1
 62
   120
370
     5
100
AcDbLine
 10
135.8441220528377
 20
-113.3021886444786
 30
0.0
 11
215.8441220528366
 21
-33.30218864448014
 31
0.0
  0
LINE
  5
376
330
1F
100
AcDbEntity
  8
0-0
  6
JWW_DASHED1
 62
   120
370
     5
100
AcDbLine
 10
135.8441220528462
 20
-123.2016835796868
 30
0.0
 11
215.8441220528451
 21
-43.20168357968797
 31
0.0
  0
LINE
  5
377
330
1F
100
AcDbEntity
  8
0-0
  6
JWW_DASHED1
 62
   120
370
     5
100
AcDbLine
 10
135.8441220528258
 20
-133.1011785148678
 30
0.0
 11
215.8441220528417
 21
-53.10117851485273
 31
0.0
  0
LINE
  5
378
330
1F
100
AcDbEntity
  8
0-0
  6
JWW_DASHED1
 62
   120
370
     5
100
AcDbLine
 10
135.844122052836
 20
-143.0006734500756
 30
0.0
 11
215.8441220528348
 21
-63.00067345007676
 31
0.0
  0
LINE
  5
379
330
1F
100
AcDbEntity
  8
0-0
  6
JWW_DASHED1
 62
   120
370
     5
100
AcDbLine
 10
135.8441220528428
 20
-152.9001683852835
 30
0.0
 11
215.8441220528417
 21
-72.90016838528459
 31
0.0
  0
LINE
  5
37A
330
1F
100
AcDbEntity
  8
0-0
  6
JWW_DASHED1
 62
   120
370
     5
100
AcDbLine
 10
135.8441220528258
 20
-162.799663320464
 30
0.0
 11
215.8441220528383
 21
-82.79966332044978
 31
0.0
  0
LINE
  5
37B
330
1F
100
AcDbEntity
  8
0-0
  6
JWW_DASHED1
 62
   120
370
     5
100
AcDbLine
 10
135.8441220528326
 20
-172.6991582556722
 30
0.0
 11
215.8441220528314
 21
-92.69915825567296
 31
0.0
  0
LINE
  5
37C
330
1F
100
AcDbEntity
  8
0-0
  6
JWW_DASHED1
 62
   120
370
     5
100
AcDbLine
 10
135.8441220528411
 20
-182.5986531908801
 30
0.0
 11
215.84412205284
 21
-102.5986531908812
 31
0.0
  0
LINE
  5
37D
330
1F
100
AcDbEntity
  8
0-0
  6
JWW_DASHED1
 62
   120
370
     5
100
AcDbLine
 10
135.8441220528223
 20
-192.498148126061
 30
0.0
 11
215.8441220528366
 21
-112.4981481260464
 31
0.0
  0
LINE
  5
37E
330
1F
100
AcDbEntity
  8
0-0
  6
JWW_DASHED1
 62
   120
370
     5
100
AcDbLine
 10
135.8441220528309
 20
-202.3976430612689
 30
0.0
 11
215.8441220528297
 21
-122.39764306127
 31
0.0
  0
LINE
  5
37F
330
1F
100
AcDbEntity
  8
0-0
  6
JWW_DASHED1
 62
   120
370
     5
100
AcDbLine
 10
135.8441220528394
 20
-212.2971379964767
 30
0.0
 11
215.8441220528383
 21
-132.2971379964778
 31
0.0
  0
LINE
  5
380
330
1F
100
AcDbEntity
  8
0-0
  6
JWW_DASHED1
 62
   120
370
     5
100
AcDbLine
 10
135.8441220528292
 20
-222.1966329316479
 30
0.0
 11
215.8441220528451
 21
-142.1966329316336
 31
0.0
  0
LINE
  5
381
330
1F
100
AcDbEntity
  8
0-0
  6
JWW_DASHED1
 62
   120
370
     5
100
AcDbLine
 10
135.8441220528292
 20
-232.0961278668655
 30
0.0
 11
215.844122052828
 21
-152.0961278668671
 31
0.0
  0
LINE
  5
382
330
1F
100
AcDbEntity
  8
0-0
  6
JWW_DASHED1
 62
   120
370
     5
100
AcDbLine
 10
135.844122052836
 20
-241.9956228020733
 30
0.0
 11
215.8441220528348
 21
-161.9956228020749
 31
0.0
  0
LINE
  5
383
330
1F
100
AcDbEntity
  8
0-0
  6
JWW_DASHED1
 62
   120
370
     5
100
AcDbLine
 10
135.8441220528343
 20
-251.8951177372381
 30
0.0
 11
215.8441220528485
 21
-171.8951177372239
 31
0.0
  0
LINE
  5
384
330
1F
100
AcDbEntity
  8
0-0
  6
JWW_DASHED1
 62
   120
370
     5
100
AcDbLine
 10
135.8441220528258
 20
-261.7946126724621
 30
0.0
 11
215.8441220528417
 21
-181.7946126724475
 31
0.0
  0
LINE
  5
385
330
1F
100
AcDbEntity
  8
0-0
  6
JWW_DASHED1
 62
   120
370
     5
100
AcDbLine
 10
135.8441220528343
 20
-271.6941076076704
 30
0.0
 11
215.8441220528331
 21
-191.6941076076711
 31
0.0
  0
LINE
  5
386
330
1F
100
AcDbEntity
  8
0-0
  6
JWW_DASHED1
 62
   120
370
     5
100
AcDbLine
 10
135.8441220528479
 20
-281.5936025428189
 30
0.0
 11
215.8441220528451
 21
-201.5936025428209
 31
0.0
  0
LINE
  5
387
330
1F
100
AcDbEntity
  8
0-0
  6
JWW_DASHED1
 62
   120
370
     5
100
AcDbLine
 10
135.844122052824
 20
-291.4930974780592
 30
0.0
 11
215.8441220528383
 21
-211.4930974780441
 31
0.0
  0
LINE
  5
388
330
1F
100
AcDbEntity
  8
0-0
  6
JWW_DASHED1
 62
   120
370
     5
100
AcDbLine
 10
135.8441220528326
 20
-301.392592413267
 30
0.0
 11
215.8441220528314
 21
-221.3925924132681
 31
0.0
  0
LINE
  5
389
330
1F
100
AcDbEntity
  8
0-0
  6
JWW_DASHED1
 62
   120
370
     5
100
AcDbLine
 10
135.8441220528445
 20
-311.292087348416
 30
0.0
 11
215.8441220528451
 21
-231.2920873484171
 31
0.0
  0
LINE
  5
38A
330
1F
100
AcDbEntity
  8
0-0
  6
JWW_DASHED1
 62
   120
370
     5
100
AcDbLine
 10
135.8441220528326
 20
-321.1915822836451
 30
0.0
 11
215.8441220528468
 21
-241.1915822836309
 31
0.0
  0
LINE
  5
38B
330
1F
100
AcDbEntity
  8
0-0
  6
JWW_DASHED1
 62
   120
370
     5
100
AcDbLine
 10
135.8441220528292
 20
-331.0910772188636
 30
0.0
 11
215.844122052828
 21
-251.0910772188647
 31
0.0
  0
LINE
  5
38C
330
1F
100
AcDbEntity
  8
0-0
  6
JWW_DASHED1
 62
   120
370
     5
100
AcDbLine
 10
135.8441220528428
 20
-340.9905721540126
 30
0.0
 11
215.8441220528417
 21
-260.9905721540142
 31
0.0
  0
LINE
  5
38D
330
1F
100
AcDbEntity
  8
0-0
  6
JWW_DASHED1
 62
   120
370
     5
100
AcDbLine
 10
135.844122052836
 20
-350.8900670892366
 30
0.0
 11
215.8441220528502
 21
-270.890067089222
 31
0.0
  0
LINE
  5
38E
330
1F
100
AcDbEntity
  8
0-0
  6
JWW_DASHED1
 62
   120
370
     5
100
AcDbLine
 10
135.8441220528292
 20
-360.7895620244602
 30
0.0
 11
215.8441220528417
 21
-280.7895620244456
 31
0.0
  0
LINE
  5
38F
330
1F
100
AcDbEntity
  8
0-0
  6
JWW_DASHED1
 62
   120
370
     5
100
AcDbLine
 10
135.8441220528411
 20
-370.6890569596092
 30
0.0
 11
215.84412205284
 21
-290.6890569596104
 31
0.0
  0
LINE
  5
390
330
1F
100
AcDbEntity
  8
0-0
  6
JWW_DASHED1
 62
   120
370
     5
100
AcDbLine
 10
135.8441220528496
 20
-380.588551894817
 30
0.0
 11
215.8441220528485
 21
-300.5885518948186
 31
0.0
  0
LINE
  5
391
330
1F
100
AcDbEntity
  8
0-0
  6
JWW_DASHED1
 62
   120
370
     5
100
AcDbLine
 10
135.8441220528258
 20
-390.4880468300573
 30
0.0
 11
215.84412205284
 21
-310.4880468300427
 31
0.0
  0
LINE
  5
392
330
1F
100
AcDbEntity
  8
0-0
  6
JWW_DASHED1
 62
   120
370
     5
100
AcDbLine
 10
135.8441220528394
 20
-400.3875417652063
 30
0.0
 11
215.8441220528383
 21
-320.3875417652074
 31
0.0
  0
LINE
  5
393
330
1F
100
AcDbEntity
  8
0-0
  6
JWW_DASHED1
 62
   120
370
     5
100
AcDbLine
 10
135.8441220528462
 20
-410.2870367004141
 30
0.0
 11
215.8441220528451
 21
-330.2870367004152
 31
0.0
  0
LINE
  5
394
330
1F
100
AcDbEntity
  8
0-0
  6
JWW_DASHED1
 62
   120
370
     5
100
AcDbLine
 10
135.8441220528223
 20
-420.1865316356539
 30
0.0
 11
215.8441220528383
 21
-340.1865316356393
 31
0.0
  0
LINE
  5
395
330
1F
100
AcDbEntity
  8
0-0
  6
JWW_DASHED1
 62
   120
370
     5
100
AcDbLine
 10
135.844122052836
 20
-430.0860265708029
 30
0.0
 11
215.8441220528348
 21
-350.0860265708036
 31
0.0
  0
LINE
  5
396
330
1F
100
AcDbEntity
  8
0-0
  6
JWW_DASHED1
 62
   120
370
     5
100
AcDbLine
 10
135.8441220528445
 20
-439.9855215060111
 30
0.0
 11
215.8441220528434
 21
-359.9855215060123
 31
0.0
  0
LINE
  5
397
330
1F
100
AcDbEntity
  8
0-0
  6
JWW_DASHED1
 62
   120
370
     5
100
AcDbLine
 10
135.8441220528326
 20
-449.8850164412386
 30
0.0
 11
215.8441220528468
 21
-369.8850164412248
 31
0.0
  0
LINE
  5
398
330
1F
100
AcDbEntity
  8
0-0
  6
JWW_DASHED1
 62
   120
370
     5
100
AcDbLine
 10
135.8441220528343
 20
-459.7845113763995
 30
0.0
 11
215.8441220528331
 21
-379.7845113764006
 31
0.0
  0
LINE
  5
399
330
1F
100
AcDbEntity
  8
0-0
  6
JWW_DASHED1
 62
   120
370
     5
100
AcDbLine
 10
135.8441220528428
 20
-469.6840063116073
 30
0.0
 11
215.8441220528417
 21
-389.6840063116085
 31
0.0
  0
LINE
  5
39A
330
1F
100
AcDbEntity
  8
0-0
  6
JWW_DASHED1
 62
   120
370
     5
100
AcDbLine
 10
135.8441220528513
 20
-479.5835012468152
 30
0.0
 11
215.8441220528502
 21
-399.5835012468167
 31
0.0
  0
LINE
  5
39B
330
1F
100
AcDbEntity
  8
0-0
  6
JWW_DASHED1
 62
   120
370
     5
100
AcDbLine
 10
135.8441220528326
 20
-489.4829961819961
 30
0.0
 11
215.8441220528314
 21
-409.4829961819972
 31
0.0
  0
LINE
  5
39C
330
1F
100
AcDbEntity
  8
0-0
  6
JWW_DASHED1
 62
   120
370
     5
100
AcDbLine
 10
135.8441220528394
 20
-499.3824911172042
 30
0.0
 11
215.8441220528383
 21
-419.3824911172055
 31
0.0
  0
LINE
  5
39D
330
1F
100
AcDbEntity
  8
0-0
  6
JWW_DASHED1
 62
   120
370
     5
100
AcDbLine
 10
135.8441220528496
 20
-509.2819860524122
 30
0.0
 11
215.8441220528485
 21
-429.2819860524133
 31
0.0
  0
LINE
  5
39E
330
1F
100
AcDbEntity
  8
0-0
  6
JWW_DASHED1
 62
   120
370
     5
100
AcDbLine
 10
135.8441220528292
 20
-519.1814809875927
 30
0.0
 11
215.8441220528451
 21
-439.1814809875785
 31
0.0
  0
LINE
  5
39F
330
1F
100
AcDbEntity
  8
0-0
  6
JWW_DASHED1
 62
   120
370
     5
100
AcDbLine
 10
135.8441220528377
 20
-529.0809759228008
 30
0.0
 11
215.8441220528366
 21
-449.0809759228017
 31
0.0
  0
LINE
  5
3A0
330
1F
100
AcDbEntity
  8
0-0
  6
JWW_DASHED1
 62
   120
370
     5
100
AcDbLine
 10
135.8441220528496
 20
-538.9804708579794
 30
0.0
 11
215.8441220528468
 21
-458.9804708579805
 31
0.0
  0
LINE
  5
3A1
330
1F
100
AcDbEntity
  8
0-0
  6
JWW_DASHED1
 62
   120
370
     5
100
AcDbLine
 10
135.8441220528275
 20
-548.8799657931896
 30
0.0
 11
215.8441220528417
 21
-468.8799657931747
 31
0.0
  0
LINE
  5
3A2
330
1F
100
AcDbEntity
  8
0-0
  6
JWW_DASHED1
 62
   120
370
     5
100
AcDbLine
 10
135.844122052836
 20
-558.7794607283977
 30
0.0
 11
215.8441220528348
 21
-478.7794607283988
 31
0.0
  0
LINE
  5
3A3
330
1F
100
AcDbEntity
  8
0-0
  6
JWW_DASHED1
 62
   120
370
     5
100
AcDbLine
 10
135.8441220528462
 20
-568.6789556635763
 30
0.0
 11
215.8441220528451
 21
-488.6789556635774
 31
0.0
  0
LINE
  5
3A4
330
1F
100
AcDbEntity
  8
0-0
  6
JWW_DASHED1
 62
   120
370
     5
100
AcDbLine
 10
135.8441220528258
 20
-578.5784505987864
 30
0.0
 11
215.84412205284
 21
-498.5784505987716
 31
0.0
  0
LINE
  5
3A5
330
1F
100
AcDbEntity
  8
0-0
  6
JWW_DASHED1
 62
   120
370
     5
100
AcDbLine
 10
135.8441220528343
 20
-588.477945533994
 30
0.0
 11
215.8441220528314
 21
-508.4779455339954
 31
0.0
  0
LINE
  5
3A6
330
1F
100
AcDbEntity
  8
0-0
  6
JWW_DASHED1
 62
   120
370
     5
100
AcDbLine
 10
135.8441220528462
 20
-598.3774404691433
 30
0.0
 11
215.8441220528451
 21
-518.3774404691446
 31
0.0
  0
LINE
  5
3A7
330
1F
100
AcDbEntity
  8
0-0
  6
JWW_DASHED1
 62
   120
370
     5
100
AcDbLine
 10
135.844122052836
 20
-608.2769354043703
 30
0.0
 11
215.8441220528502
 21
-528.276935404356
 31
0.0
  0
LINE
  5
3A8
330
1F
100
AcDbEntity
  8
0-0
  6
JWW_DASHED1
 62
   120
370
     5
100
AcDbLine
 10
135.8441220528326
 20
-618.1764303395909
 30
0.0
 11
215.8441220528314
 21
-538.176430339592
 31
0.0
  0
LINE
  5
3A9
330
1F
100
AcDbEntity
  8
0-0
  6
JWW_DASHED1
 62
   120
370
     5
100
AcDbLine
 10
135.8441220528445
 20
-628.0759252747398
 30
0.0
 11
215.8441220528434
 21
-548.0759252747412
 31
0.0
  0
LINE
  5
3AA
330
1F
100
AcDbEntity
  8
0-0
  6
JWW_DASHED1
 62
   120
370
     5
100
AcDbLine
 10
135.844122052836
 20
-637.9754202099637
 30
0.0
 11
215.8441220528519
 21
-557.9754202099492
 31
0.0
  0
LINE
  5
3AB
330
1F
100
AcDbEntity
  8
0-0
  6
JWW_DASHED1
 62
   120
370
     5
100
AcDbLine
 10
135.8441220528292
 20
-647.8749151451877
 30
0.0
 11
215.8441220528451
 21
-567.8749151451728
 31
0.0
  0
LINE
  5
3AC
330
1F
100
AcDbEntity
  8
0-0
  6
JWW_DASHED1
 62
   120
370
     5
100
AcDbLine
 10
135.8441220528428
 20
-657.7744100803367
 30
0.0
 11
215.8441220528417
 21
-577.774410080338
 31
0.0
  0
LINE
  5
3AD
330
1F
100
AcDbEntity
  8
0-0
  6
JWW_DASHED1
 62
   120
370
     5
100
AcDbLine
 10
135.8441220528496
 20
-667.6739050155447
 30
0.0
 11
215.8441220528485
 21
-587.6739050155459
 31
0.0
  0
LINE
  5
3AE
330
1F
100
AcDbEntity
  8
0-0
  6
JWW_DASHED1
 62
   120
370
     5
100
AcDbLine
 10
135.8441220528275
 20
-677.573399950784
 30
0.0
 11
215.8441220528417
 21
-597.57339995077
 31
0.0
  0
LINE
  5
3AF
330
1F
100
AcDbEntity
  8
0-0
  6
JWW_DASHED1
 62
   120
370
     5
100
AcDbLine
 10
135.8441220528394
 20
-687.4728948859331
 30
0.0
 11
215.8441220528383
 21
-607.4728948859347
 31
0.0
  0
LINE
  5
3B0
330
1F
100
AcDbEntity
  8
0-0
  6
JWW_DASHED1
 62
   120
370
     5
100
AcDbLine
 10
135.8441220528479
 20
-697.3723898211414
 30
0.0
 11
215.8441220528468
 21
-617.3723898211425
 31
0.0
  0
LINE
  5
3B1
330
1F
100
AcDbEntity
  8
0-0
  6
JWW_DASHED1
 62
   120
370
     5
100
AcDbLine
 10
135.8441220528258
 20
-707.2718847563812
 30
0.0
 11
215.8441220528383
 21
-627.2718847563663
 31
0.0
  0
LINE
  5
3B2
330
1F
100
AcDbEntity
  8
0-0
  6
JWW_DASHED1
 62
   120
370
     5
100
AcDbLine
 10
135.8441220528377
 20
-717.1713796915301
 30
0.0
 11
215.8441220528366
 21
-637.1713796915315
 31
0.0
  0
LINE
  5
3B3
330
1F
100
AcDbEntity
  8
0-0
  6
JWW_DASHED1
 62
   120
370
     5
100
AcDbLine
 10
135.8441220528462
 20
-727.070874626738
 30
0.0
 11
215.8441220528451
 21
-647.0708746267392
 31
0.0
  0
LINE
  5
3B4
330
1F
100
AcDbEntity
  8
0-0
  6
JWW_DASHED1
 62
   120
370
     5
100
AcDbLine
 10
135.844122052836
 20
-736.9703695619637
 30
0.0
 11
215.8441220528502
 21
-656.9703695619495
 31
0.0
  0
LINE
  5
3B5
330
1F
100
AcDbEntity
  8
0-0
  6
JWW_DASHED1
 62
   120
370
     5
100
AcDbLine
 10
135.844122052836
 20
-746.8698644971265
 30
0.0
 11
215.8441220528348
 21
-666.8698644971279
 31
0.0
  0
LINE
  5
3B6
330
1F
100
AcDbEntity
  8
0-0
  6
JWW_DASHED1
 62
   120
370
     5
100
AcDbLine
 10
135.8441220528428
 20
-756.769359432335
 30
0.0
 11
215.8441220528417
 21
-676.7693594323359
 31
0.0
  0
LINE
  5
3B7
330
1F
100
AcDbEntity
  8
0-0
  6
JWW_DASHED1
 62
   120
370
     5
100
AcDbLine
 10
135.844122052853
 20
-766.6688543675426
 30
0.0
 11
215.8441220528519
 21
-686.668854367544
 31
0.0
  0
LINE
  5
3B8
330
1F
100
AcDbEntity
  8
0-0
  6
JWW_DASHED1
 62
   120
370
     5
100
AcDbLine
 10
135.8441220528326
 20
-776.5683493027234
 30
0.0
 11
215.8441220528314
 21
-696.5683493027248
 31
0.0
  0
LINE
  5
3B9
330
1F
100
AcDbEntity
  8
0-0
  6
JWW_DASHED1
 62
   120
370
     5
100
AcDbLine
 10
135.8441220528411
 20
-786.4678442379314
 30
0.0
 11
215.84412205284
 21
-706.4678442379328
 31
0.0
  0
LINE
  5
3BA
330
1F
100
AcDbEntity
  8
0-0
  6
JWW_DASHED1
 62
   120
370
     5
100
AcDbLine
 10
135.8441220528496
 20
-796.3673391731395
 30
0.0
 11
215.8441220528485
 21
-716.3673391731406
 31
0.0
  0
LINE
  5
3BB
330
1F
100
AcDbEntity
  8
0-0
  6
JWW_DASHED1
 62
   120
370
     5
100
AcDbLine
 10
135.8441220528309
 20
-806.2668341083203
 30
0.0
 11
215.8441220528451
 21
-726.2668341083054
 31
0.0
  0
LINE
  5
3BC
330
1F
100
AcDbEntity
  8
0-0
  6
JWW_DASHED1
 62
   120
370
     5
100
AcDbLine
 10
135.8441220528394
 20
-816.1663290435283
 30
0.0
 11
215.8441220528383
 21
-736.1663290435295
 31
0.0
  0
LINE
  5
3BD
330
1F
100
AcDbEntity
  8
0-0
  6
JWW_DASHED1
 62
   120
370
     5
100
AcDbLine
 10
135.8441220528479
 20
-826.0658239787361
 30
0.0
 11
215.8441220528468
 21
-746.0658239787372
 31
0.0
  0
LINE
  5
3BE
330
1F
100
AcDbEntity
  8
0-0
  6
JWW_DASHED1
 62
   120
370
     5
100
AcDbLine
 10
135.8441220528292
 20
-835.9653189139167
 30
0.0
 11
215.8441220528434
 21
-755.9653189139024
 31
0.0
  0
LINE
  5
3BF
330
1F
100
AcDbEntity
  8
0-0
  6
JWW_DASHED1
 62
   120
370
     5
100
AcDbLine
 10
135.844122052836
 20
-845.8648138491249
 30
0.0
 11
215.8441220528348
 21
-765.8648138491258
 31
0.0
  0
LINE
  5
3C0
330
1F
100
AcDbEntity
  8
0-0
  6
JWW_DASHED1
 62
   120
370
     5
100
AcDbLine
 10
135.8441220528462
 20
-855.7643087843327
 30
0.0
 11
215.8441220528451
 21
-775.7643087843343
 31
0.0
  0
LINE
  5
3C1
330
1F
100
AcDbEntity
  8
0-0
  6
JWW_DASHED1
 62
   120
370
     5
100
AcDbLine
 10
135.8441220528258
 20
-865.6638037195137
 30
0.0
 11
215.8441220528417
 21
-785.663803719499
 31
0.0
  0
LINE
  5
3C2
330
1F
100
AcDbEntity
  8
0-0
  6
JWW_DASHED1
 62
   120
370
     5
100
AcDbLine
 10
135.844122052836
 20
-875.5632986547215
 30
0.0
 11
215.8441220528331
 21
-795.5632986547231
 31
0.0
  0
LINE
  5
3C3
330
1F
100
AcDbEntity
  8
0-0
  6
JWW_DASHED1
 62
   120
370
     5
100
AcDbLine
 10
135.8441220528428
 20
-885.4627935899298
 30
0.0
 11
215.8441220528417
 21
-805.4627935899307
 31
0.0
  0
LINE
  5
3C4
330
1F
100
AcDbEntity
  8
0-0
  6
JWW_DASHED1
 62
   120
370
     5
100
AcDbLine
 10
135.8441220528394
 20
-895.3622885250952
 30
0.0
 11
215.8441220528536
 21
-815.362288525081
 31
0.0
  0
LINE
  5
3C5
330
1F
100
AcDbEntity
  8
0-0
  6
JWW_DASHED1
 62
   120
370
     5
100
AcDbLine
 10
135.8441220528326
 20
-905.2617834603182
 30
0.0
 11
215.8441220528314
 21
-825.2617834603195
 31
0.0
  0
LINE
  5
3C6
330
1F
100
AcDbEntity
  8
0-0
  6
JWW_DASHED1
 62
   120
370
     5
100
AcDbLine
 10
135.8441220528411
 20
-915.1612783955262
 30
0.0
 11
215.84412205284
 21
-835.1612783955275
 31
0.0
  0
LINE
  5
3C7
330
1F
100
AcDbEntity
  8
0-0
  6
JWW_DASHED1
 62
   120
370
     5
100
AcDbLine
 10
135.8441220528377
 20
-925.060773330691
 30
0.0
 11
215.8441220528519
 21
-845.0607733306765
 31
0.0
  0
LINE
  5
3C8
330
1F
100
AcDbEntity
  8
0-0
  6
JWW_DASHED1
 62
   120
370
     5
100
AcDbLine
 10
135.8441220528309
 20
-934.9602682659148
 30
0.0
 11
215.8441220528451
 21
-854.9602682659006
 31
0.0
  0
LINE
  5
3C9
330
1F
100
AcDbEntity
  8
0-0
  6
JWW_DASHED1
 62
   120
370
     5
100
AcDbLine
 10
135.8441220528394
 20
-944.859763201123
 30
0.0
 11
215.8441220528383
 21
-864.8597632011241
 31
0.0
  0
LINE
  5
3CA
330
1F
100
AcDbEntity
  8
0-0
  6
JWW_DASHED1
 62
   120
370
     5
100
AcDbLine
 10
136.7554089930454
 20
-953.8479711960778
 30
0.0
 11
215.8441220528502
 21
-874.7592581362734
 31
0.0
  0
LINE
  5
3CB
330
1F
100
AcDbEntity
  8
0-0
  6
JWW_DASHED1
 62
   120
370
     5
100
AcDbLine
 10
146.6549039282839
 20
-953.8479711960563
 30
0.0
 11
215.8441220528417
 21
-884.6587530714974
 31
0.0
  0
LINE
  5
3CC
330
1F
100
AcDbEntity
  8
0-0
  6
JWW_DASHED1
 62
   120
370
     5
100
AcDbLine
 10
156.5543988634934
 20
-953.8479711960624
 30
0.0
 11
215.8441220528348
 21
-894.5582480067208
 31
0.0
  0
LINE
  5
3CD
330
1F
100
AcDbEntity
  8
0-0
  6
JWW_DASHED1
 62
   120
370
     5
100
AcDbLine
 10
166.4538937986433
 20
-953.847971196075
 30
0.0
 11
215.8441220528485
 21
-904.4577429418698
 31
0.0
  0
LINE
  5
3CE
330
1F
100
AcDbEntity
  8
0-0
  6
JWW_DASHED1
 62
   120
370
     5
100
AcDbLine
 10
176.3533887338579
 20
-953.8479711960756
 30
0.0
 11
215.8441220528553
 21
-914.3572378770784
 31
0.0
  0
LINE
  5
3CF
330
1F
100
AcDbEntity
  8
0-0
  6
JWW_DASHED1
 62
   120
370
     5
100
AcDbLine
 10
186.2528836690913
 20
-953.8479711960597
 30
0.0
 11
215.8441220528331
 21
-924.2567328123178
 31
0.0
  0
LINE
  5
3D0
330
1F
100
AcDbEntity
  8
0-0
  6
JWW_DASHED1
 62
   120
370
     5
100
AcDbLine
 10
196.1523786042395
 20
-953.8479711960726
 30
0.0
 11
215.8441220528451
 21
-934.1562277474668
 31
0.0
  0
LINE
  5
3D1
330
1F
100
AcDbEntity
  8
0-0
  6
JWW_DASHED1
 62
   120
370
     5
100
AcDbLine
 10
206.0518735394507
 20
-953.8479711960784
 30
0.0
 11
215.8441220528553
 21
-944.0557226826744
 31
0.0
  0
MTEXT
  5
3D2
330
1F
100
AcDbEntity
  8
文字
  6
Continuous
 62
     7
370
     9
100
AcDbMText
 10
-2141.155877947166
 20
1427.385147117644
 30
0.0
 40
45.71999999999997
 41
1620.0
 46
0.0
 71
     7
 72
     1
  1
{\fＭＳ ゴシック|b0|i0|c128|p49;※ＸＭは縦木目柄、ＬＭは横木目柄のデザインとなります。}
 73
     1
 44
1.0
  0
LINE
  5
3D3
330
1F
100
AcDbEntity
  8
寸法
  6
Continuous
 62
   120
370
     5
100
AcDbLine
 10
-2041.155877947166
 20
1065.152028803941
 30
0.0
 11
-1641.155877947165
 21
1065.152028803941
 31
0.0
  0
LWPOLYLINE
  5
3D4
330
1F
100
AcDbEntity
  8
寸法
  6
Continuous
 62
     7
370
     9
100
AcDbPolyline
 90
        4
 70
     1
 43
3.0
 10
-2039.655877947166
 20
1065.152028803941
 42
0.4142135623731
 10
-2041.155877947166
 20
1066.652028803941
 42
0.4142135623731
 10
-2042.655877947165
 20
1065.152028803941
 42
0.4142135623731
 10
-2041.155877947166
 20
1063.652028803941
 42
0.4142135623731
  0
LINE
  5
3D5
330
1F
100
AcDbEntity
  8
寸法
  6
Continuous
 62
   120
370
     5
100
AcDbLine
 10
-2041.155877947166
 20
1065.152028803941
 30
0.0
 11
-2041.155877947166
 21
-981.8479711960597
 31
0.0
  0
LWPOLYLINE
  5
3D6
330
1F
100
AcDbEntity
  8
寸法
  6
Continuous
 62
     7
370
     9
100
AcDbPolyline
 90
        4
 70
     1
 43
3.0
 10
-2039.655877947166
 20
-981.8479711960597
 42
0.4142135623731
 10
-2041.155877947166
 20
-980.3479711960598
 42
0.4142135623731
 10
-2042.655877947165
 20
-981.8479711960597
 42
0.4142135623731
 10
-2041.155877947166
 20
-983.3479711960597
 42
0.4142135623731
  0
LWPOLYLINE
  5
3D7
330
1F
100
AcDbEntity
  8
寸法
  6
Continuous
 62
     7
370
     9
100
AcDbPolyline
 90
        4
 70
     1
 43
3.0
 10
-1839.655877947166
 20
-961.8479711960592
 42
0.4142135623731
 10
-1841.155877947166
 20
-960.3479711960592
 42
0.4142135623731
 10
-1842.655877947166
 20
-961.8479711960592
 42
0.4142135623731
 10
-1841.155877947166
 20
-963.3479711960591
 42
0.4142135623731
  0
LINE
  5
3D8
330
1F
100
AcDbEntity
  8
寸法
  6
Continuous
 62
   120
370
     5
100
AcDbLine
 10
-2041.155877947166
 20
-981.8479711960597
 30
0.0
 11
-1641.155877947165
 21
-981.8479711960597
 31
0.0
  0
LINE
  5
3D9
330
1F
100
AcDbEntity
  8
寸法
  6
Continuous
 62
   120
370
     5
100
AcDbLine
 10
-1841.155877947166
 20
-961.8479711960592
 30
0.0
 11
-1641.155877947165
 21
-961.8479711960592
 31
0.0
  0
LINE
  5
3DA
330
1F
100
AcDbEntity
  8
寸法
  6
Continuous
 62
   120
370
     5
100
AcDbLine
 10
-1841.155877947166
 20
1021.152028803941
 30
0.0
 11
-1641.155877947165
 21
1021.152028803941
 31
0.0
  0
LWPOLYLINE
  5
3DB
330
1F
100
AcDbEntity
  8
寸法
  6
Continuous
 62
     7
370
     9
100
AcDbPolyline
 90
        4
 70
     1
 43
3.0
 10
-1839.655877947166
 20
1021.152028803941
 42
0.4142135623731
 10
-1841.155877947166
 20
1022.652028803941
 42
0.4142135623731
 10
-1842.655877947166
 20
1021.152028803941
 42
0.4142135623731
 10
-1841.155877947166
 20
1019.652028803941
 42
0.4142135623731
  0
LINE
  5
3DC
330
1F
100
AcDbEntity
  8
寸法
  6
Continuous
 62
   120
370
     5
100
AcDbLine
 10
-1841.155877947166
 20
1021.152028803941
 30
0.0
 11
-1841.155877947166
 21
-961.8479711960592
 31
0.0
  0
LINE
  5
3DD
330
1F
100
AcDbEntity
  8
寸法
  6
Continuous
 62
   120
370
     5
100
AcDbLine
 10
-1561.155877947166
 20
-1431.847971196061
 30
0.0
 11
-1561.155877947166
 21
-1031.847971196062
 31
0.0
  0
LINE
  5
3DE
330
1F
100
AcDbEntity
  8
寸法
  6
Continuous
 62
   120
370
     5
100
AcDbLine
 10
-1591.155877947166
 20
-1631.847971196059
 30
0.0
 11
-1591.155877947166
 21
-1031.847971196062
 31
0.0
  0
LINE
  5
3DF
330
1F
100
AcDbEntity
  8
寸法
  6
Continuous
 62
   120
370
     5
100
AcDbLine
 10
25.84412205283371
 20
-1231.847971196059
 30
0.0
 11
25.84412205283371
 21
-1031.847971196062
 31
0.0
  0
LINE
  5
3E0
330
1F
100
AcDbEntity
  8
寸法
  6
Continuous
 62
   120
370
     5
100
AcDbLine
 10
-784.1558779471663
 20
-1231.847971196059
 30
0.0
 11
-784.1558779471663
 21
-1031.847971196062
 31
0.0
  0
LINE
  5
3E1
330
1F
100
AcDbEntity
  8
寸法
  6
Continuous
 62
   120
370
     5
100
AcDbLine
 10
-784.1558779471663
 20
-1231.847971196059
 30
0.0
 11
835.8441220528337
 21
-1231.847971196059
 31
0.0
  0
LINE
  5
3E2
330
1F
100
AcDbEntity
  8
寸法
  6
Continuous
 62
   120
370
     5
100
AcDbLine
 10
-1561.155877947166
 20
-1431.847971196061
 30
0.0
 11
1612.844122052833
 21
-1431.847971196059
 31
0.0
  0
LINE
  5
3E3
330
1F
100
AcDbEntity
  8
寸法
  6
Continuous
 62
   120
370
     5
100
AcDbLine
 10
1612.844122052833
 20
-1431.847971196059
 30
0.0
 11
1612.844122052833
 21
-1031.847971196059
 31
0.0
  0
LINE
  5
3E4
330
1F
100
AcDbEntity
  8
寸法
  6
Continuous
 62
   120
370
     5
100
AcDbLine
 10
-1591.155877947166
 20
-1631.847971196059
 30
0.0
 11
1642.844122052833
 21
-1631.847971196059
 31
0.0
  0
LINE
  5
3E5
330
1F
100
AcDbEntity
  8
寸法
  6
Continuous
 62
   120
370
     5
100
AcDbLine
 10
1642.844122052833
 20
-1631.847971196059
 30
0.0
 11
1642.844122052833
 21
-1031.847971196059
 31
0.0
  0
LINE
  5
3E6
330
1F
100
AcDbEntity
  8
寸法
  6
Continuous
 62
   120
370
     5
100
AcDbLine
 10
835.8441220528337
 20
-1231.847971196059
 30
0.0
 11
835.8441220528337
 21
-1031.847971196062
 31
0.0
  0
LWPOLYLINE
  5
3E7
330
1F
100
AcDbEntity
  8
寸法
  6
Continuous
 62
     7
370
     9
100
AcDbPolyline
 90
        4
 70
     1
 43
3.0
 10
-1559.655877947166
 20
-1431.847971196061
 42
0.4142135623731
 10
-1561.155877947166
 20
-1430.347971196061
 42
0.4142135623731
 10
-1562.655877947165
 20
-1431.847971196061
 42
0.4142135623731
 10
-1561.155877947166
 20
-1433.347971196061
 42
0.4142135623731
  0
LWPOLYLINE
  5
3E8
330
1F
100
AcDbEntity
  8
寸法
  6
Continuous
 62
     7
370
     9
100
AcDbPolyline
 90
        4
 70
     1
 43
3.0
 10
-1589.655877947166
 20
-1631.847971196059
 42
0.4142135623731
 10
-1591.155877947166
 20
-1630.347971196059
 42
0.4142135623731
 10
-1592.655877947165
 20
-1631.847971196059
 42
0.4142135623731
 10
-1591.155877947166
 20
-1633.347971196059
 42
0.4142135623731
  0
LWPOLYLINE
  5
3E9
330
1F
100
AcDbEntity
  8
寸法
  6
Continuous
 62
     7
370
     9
100
AcDbPolyline
 90
        4
 70
     1
 43
3.0
 10
27.34412205283371
 20
-1231.847971196059
 42
0.4142135623731
 10
25.84412205283371
 20
-1230.347971196059
 42
0.4142135623731
 10
24.34412205283371
 20
-1231.847971196059
 42
0.4142135623731
 10
25.84412205283371
 20
-1233.347971196059
 42
0.4142135623731
  0
LWPOLYLINE
  5
3EA
330
1F
100
AcDbEntity
  8
寸法
  6
Continuous
 62
     7
370
     9
100
AcDbPolyline
 90
        4
 70
     1
 43
3.0
 10
-782.6558779471662
 20
-1231.847971196059
 42
0.4142135623731
 10
-784.1558779471663
 20
-1230.347971196059
 42
0.4142135623731
 10
-785.6558779471663
 20
-1231.847971196059
 42
0.4142135623731
 10
-784.1558779471663
 20
-1233.347971196059
 42
0.4142135623731
  0
LWPOLYLINE
  5
3EB
330
1F
100
AcDbEntity
  8
寸法
  6
Continuous
 62
     7
370
     9
100
AcDbPolyline
 90
        4
 70
     1
 43
3.0
 10
1614.344122052833
 20
-1431.847971196059
 42
0.4142135623731
 10
1612.844122052833
 20
-1430.347971196059
 42
0.4142135623731
 10
1611.344122052833
 20
-1431.847971196059
 42
0.4142135623731
 10
1612.844122052833
 20
-1433.347971196059
 42
0.4142135623731
  0
LWPOLYLINE
  5
3EC
330
1F
100
AcDbEntity
  8
寸法
  6
Continuous
 62
     7
370
     9
100
AcDbPolyline
 90
        4
 70
     1
 43
3.0
 10
1644.344122052833
 20
-1631.847971196059
 42
0.4142135623731
 10
1642.844122052833
 20
-1630.347971196059
 42
0.4142135623731
 10
1641.344122052833
 20
-1631.847971196059
 42
0.4142135623731
 10
1642.844122052833
 20
-1633.347971196059
 42
0.4142135623731
  0
LWPOLYLINE
  5
3ED
330
1F
100
AcDbEntity
  8
寸法
  6
Continuous
 62
     7
370
     9
100
AcDbPolyline
 90
        4
 70
     1
 43
3.0
 10
837.3441220528337
 20
-1231.847971196059
 42
0.4142135623731
 10
835.8441220528337
 20
-1230.347971196059
 42
0.4142135623731
 10
834.3441220528335
 20
-1231.847971196059
 42
0.4142135623731
 10
835.8441220528337
 20
-1233.347971196059
 42
0.4142135623731
  0
MTEXT
  5
3EE
330
1F
100
AcDbEntity
  8
寸法
  6
Continuous
 62
     7
370
    70
100
AcDbMText
 10
-2056.155877947166
 20
-173.5229711960587
 30
0.0
 40
57.14999999999999
 41
412.5
 46
0.0
 71
     7
 72
     1
  1
{\fＭＳ ゴシック|b0|i0|c128|p49;枠外＝2,047}
 11
6.123031769111886E-17
 21
1.0
 31
0.0
 73
     1
 44
1.0
  0
MTEXT
  5
3EF
330
1F
100
AcDbEntity
  8
寸法
  6
Continuous
 62
     7
370
    70
100
AcDbMText
 10
-1856.155877947166
 20
-179.5229711960583
 30
0.0
 40
57.14999999999999
 41
412.5
 46
0.0
 71
     7
 72
     1
  1
{\fＭＳ ゴシック|b0|i0|c128|p49;ＤＨ＝1,983}
 11
6.123031769111886E-17
 21
1.0
 31
0.0
 73
     1
 44
1.0
  0
MTEXT
  5
3F0
330
1F
100
AcDbEntity
  8
寸法
  6
Continuous
 62
     7
370
   211
100
AcDbMText
 10
-547.9058779471663
 20
-1225.772971196059
 30
0.0
 40
57.14999999999998
 41
337.4999999999999
 46
0.0
 71
     7
 72
     1
  1
{\fＭＳ ゴシック|b0|i0|c128|p49;ＤＷ＝810}
 73
     1
 44
1.0
  0
MTEXT
  5
3F1
330
1F
100
AcDbEntity
  8
寸法
  6
Continuous
 62
     7
370
   211
100
AcDbMText
 10
262.0941220528337
 20
-1225.772971196059
 30
0.0
 40
57.15000000000001
 41
337.5000000000001
 46
0.0
 71
     7
 72
     1
  1
{\fＭＳ ゴシック|b0|i0|c128|p49;ＤＷ＝810}
 73
     1
 44
1.0
  0
MTEXT
  5
3F2
330
1F
100
AcDbEntity
  8
寸法
  6
Continuous
 62
     7
370
   211
100
AcDbMText
 10
-180.4058779471663
 20
-1425.772971196061
 30
0.0
 40
57.14999999999999
 41
412.5
 46
0.0
 71
     7
 72
     1
  1
{\fＭＳ ゴシック|b0|i0|c128|p49;枠内＝3,174}
 73
     1
 44
1.0
  0
MTEXT
  5
3F3
330
1F
100
AcDbEntity
  8
寸法
  6
Continuous
 62
     7
370
   211
100
AcDbMText
 10
-180.4058779471663
 20
-1625.772971196059
 30
0.0
 40
57.14999999999999
 41
412.5
 46
0.0
 71
     7
 72
     1
  1
{\fＭＳ ゴシック|b0|i0|c128|p49;枠外＝3,234}
 73
     1
 44
1.0
  0
ENDSEC
  0
SECTION
  2
OBJECTS
  0
DICTIONARY
  5
C
330
0
100
AcDbDictionary
281
     1
  3
ACAD_GROUP
350
D
  3
ACAD_LAYOUT
350
1A
  3
ACAD_MATERIAL
350
3B
  3
ACAD_MLEADERSTYLE
350
3F5
  3
ACAD_MLINESTYLE
350
17
  3
ACAD_PLOTSETTINGS
350
19
  3
ACAD_PLOTSTYLENAME
350
E
  3
ACAD_TABLESTYLE
350
3F4
  3
ACAD_VISUALSTYLE
350
2A
  0
DICTIONARY
  5
D
102
{ACAD_REACTORS
330
C
102
}
330
C
100
AcDbDictionary
281
     1
  0
DICTIONARY
  5
1A
102
{ACAD_REACTORS
330
C
102
}
330
C
100
AcDbDictionary
281
     1
  3
Layout1
350
1E
  3
Layout2
350
26
  3
Model
350
22
  0
DICTIONARY
  5
3B
102
{ACAD_REACTORS
330
C
102
}
330
C
100
AcDbDictionary
281
     1
  3
ByBlock
350
3D
  3
ByLayer
350
3C
  3
Global
350
3E
  0
DICTIONARY
  5
3F5
102
{ACAD_REACTORS
330
C
102
}
330
C
100
AcDbDictionary
281
     1
  0
DICTIONARY
  5
17
102
{ACAD_REACTORS
330
C
102
}
330
C
100
AcDbDictionary
281
     1
  3
Standard
350
18
  0
DICTIONARY
  5
19
102
{ACAD_REACTORS
330
C
102
}
330
C
100
AcDbDictionary
281
     1
  0
ACDBDICTIONARYWDFLT
  5
E
102
{ACAD_REACTORS
330
C
102
}
330
C
100
AcDbDictionary
281
     1
  3
Normal
350
F
100
AcDbDictionaryWithDefault
340
F
  0
DICTIONARY
  5
3F4
102
{ACAD_REACTORS
330
C
102
}
330
C
100
AcDbDictionary
281
     1
  0
DICTIONARY
  5
2A
102
{ACAD_REACTORS
330
C
102
}
330
C
100
AcDbDictionary
281
     1
  3
2dWireframe
350
2F
  3
3D Hidden
350
31
  3
3dWireframe
350
30
  3
Basic
350
32
  3
Brighten
350
36
  3
ColorChange
350
3A
  3
Conceptual
350
34
  3
Dim
350
35
  3
Facepattern
350
39
  3
Flat
350
2B
  3
FlatWithEdges
350
2C
  3
Gouraud
350
2D
  3
GouraudWithEdges
350
2E
  3
Linepattern
350
38
  3
Realistic
350
33
  3
Thicken
350
37
  0
LAYOUT
  5
1E
102
{ACAD_REACTORS
330
1A
102
}
330
1A
100
AcDbPlotSettings
  1

  2
none_device
  4

  6

 40
0.0
 41
0.0
 42
0.0
 43
0.0
 44
0.0
 45
0.0
 46
0.0
 47
0.0
 48
0.0
 49
0.0
140
0.0
141
0.0
142
1.0
143
1.0
 70
   688
 72
     0
 73
     0
 74
     5
  7

 75
    16
 76
     0
 77
     5
 78
   300
147
1.0
148
0.0
149
0.0
100
AcDbLayout
  1
Layout1
 70
     1
 71
     1
 10
0.0
 20
0.0
 11
420.0
 21
297.0
 12
0.0
 22
0.0
 32
0.0
 14
1.000000000000000E+20
 24
1.000000000000000E+20
 34
1.000000000000000E+20
 15
-1.000000000000000E+20
 25
-1.000000000000000E+20
 35
-1.000000000000000E+20
146
0.0
 13
0.0
 23
0.0
 33
0.0
 16
1.0
 26
0.0
 36
0.0
 17
0.0
 27
1.0
 37
0.0
 76
     0
330
1B
  0
LAYOUT
  5
26
102
{ACAD_REACTORS
330
1A
102
}
330
1A
100
AcDbPlotSettings
  1

  2
none_device
  4

  6

 40
0.0
 41
0.0
 42
0.0
 43
0.0
 44
0.0
 45
0.0
 46
0.0
 47
0.0
 48
0.0
 49
0.0
140
0.0
141
0.0
142
1.0
143
1.0
 70
   688
 72
     0
 73
     0
 74
     5
  7

 75
    16
 76
     0
 77
     5
 78
   300
147
1.0
148
0.0
149
0.0
100
AcDbLayout
  1
Layout2
 70
     1
 71
     2
 10
0.0
 20
0.0
 11
0.0
 21
0.0
 12
0.0
 22
0.0
 32
0.0
 14
0.0
 24
0.0
 34
0.0
 15
0.0
 25
0.0
 35
0.0
146
0.0
 13
0.0
 23
0.0
 33
0.0
 16
1.0
 26
0.0
 36
0.0
 17
0.0
 27
1.0
 37
0.0
 76
     0
330
23
  0
LAYOUT
  5
22
102
{ACAD_REACTORS
330
1A
102
}
330
1A
100
AcDbPlotSettings
  1

  2
none_device
  4

  6

 40
0.0
 41
0.0
 42
0.0
 43
0.0
 44
0.0
 45
0.0
 46
0.0
 47
0.0
 48
0.0
 49
0.0
140
0.0
141
0.0
142
1.0
143
1.0
 70
  1712
 72
     0
 73
     0
 74
     0
  7

 75
     0
 76
     0
 77
     5
 78
   300
147
1.0
148
0.0
149
0.0
100
AcDbLayout
  1
Model
 70
     1
 71
     0
 10
-4455.0
 20
-3150.0
 11
4455.0
 21
3150.0
 12
0.0
 22
0.0
 32
0.0
 14
-4455.0
 24
-3150.0
 34
0.0
 15
4455.0
 25
3150.0
 35
0.0
146
0.0
 13
0.0
 23
0.0
 33
0.0
 16
1.0
 26
0.0
 36
0.0
 17
0.0
 27
1.0
 37
0.0
 76
     0
330
1F
331
29
  0
MATERIAL
  5
3D
102
{ACAD_REACTORS
330
3B
102
}
330
3B
100
AcDbMaterial
  1
ByBlock
 72
     1
 94
      127
  0
MATERIAL
  5
3C
102
{ACAD_REACTORS
330
3B
102
}
330
3B
100
AcDbMaterial
  1
ByLayer
 72
     1
 94
      127
  0
MATERIAL
  5
3E
102
{ACAD_REACTORS
330
3B
102
}
330
3B
100
AcDbMaterial
  1
Global
 72
     1
 94
      127
  0
MLINESTYLE
  5
18
102
{ACAD_REACTORS
330
17
102
}
330
17
100
AcDbMlineStyle
  2
Standard
 70
     0
  3

 62
   256
 51
90.0
 52
90.0
 71
     2
 49
0.5
 62
   256
  6
BYLAYER
 49
-0.5
 62
   256
  6
BYLAYER
  0
ACDBPLACEHOLDER
  5
F
102
{ACAD_REACTORS
330
E
102
}
330
E
  0
VISUALSTYLE
  5
2F
102
{ACAD_REACTORS
330
2A
102
}
330
2A
100
AcDbVisualStyle
  2
2dWireframe
 70
     4
177
     2
291
     0
 71
     0
176
     1
 72
     2
176
     1
 73
     0
176
     1
 90
        0
176
     1
 40
-0.6
176
     1
 41
-30.0
176
     1
 62
     5
 63
     7
421
 16777215
176
     1
 74
     1
176
     1
 91
        4
176
     1
 64
     7
176
     1
 65
   257
176
     1
 75
     1
176
     1
175
     1
176
     1
 42
1.0
176
     1
 92
        0
176
     1
 66
   257
176
     1
 43
1.0
176
     1
 76
     1
176
     1
 77
     6
176
     1
 78
     2
176
     1
 67
     7
176
     1
 79
     5
176
     1
170
     0
176
     1
171
     0
176
     1
290
     0
176
     1
 93
        1
176
     1
 44
0.0
176
     1
173
     0
176
     1
  0
VISUALSTYLE
  5
31
102
{ACAD_REACTORS
330
2A
102
}
330
2A
100
AcDbVisualStyle
  2
3D Hidden
 70
     6
177
     2
291
     0
 71
     1
176
     1
 72
     2
176
     1
 73
     2
176
     1
 90
        0
176
     1
 40
-0.6
176
     1
 41
-30.0
176
     1
 62
     5
 63
     7
421
 16777215
176
     1
 74
     2
176
     1
 91
        2
176
     1
 64
     7
176
     1
 65
   257
176
     1
 75
     2
176
     1
175
     1
176
     1
 42
40.0
176
     1
 92
        0
176
     1
 66
   257
176
     1
 43
1.0
176
     1
 76
     1
176
     1
 77
     6
176
     1
 78
     2
176
     1
 67
     7
176
     1
 79
     3
176
     1
170
     0
176
     1
171
     0
176
     1
290
     0
176
     1
 93
        1
176
     1
 44
0.0
176
     1
173
     0
176
     1
  0
VISUALSTYLE
  5
30
102
{ACAD_REACTORS
330
2A
102
}
330
2A
100
AcDbVisualStyle
  2
3dWireframe
 70
     5
177
     2
291
     0
 71
     0
176
     1
 72
     2
176
     1
 73
     0
176
     1
 90
        0
176
     1
 40
-0.6
176
     1
 41
-30.0
176
     1
 62
     5
 63
     7
421
 16777215
176
     1
 74
     1
176
     1
 91
        4
176
     1
 64
     7
176
     1
 65
   257
176
     1
 75
     1
176
     1
175
     1
176
     1
 42
1.0
176
     1
 92
        0
176
     1
 66
   257
176
     1
 43
1.0
176
     1
 76
     1
176
     1
 77
     6
176
     1
 78
     2
176
     1
 67
     7
176
     1
 79
     5
176
     1
170
     0
176
     1
171
     0
176
     1
290
     0
176
     1
 93
        1
176
     1
 44
0.0
176
     1
173
     0
176
     1
  0
VISUALSTYLE
  5
32
102
{ACAD_REACTORS
330
2A
102
}
330
2A
100
AcDbVisualStyle
  2
Basic
 70
     7
177
     2
291
     1
 71
     1
176
     1
 72
     0
176
     1
 73
     1
176
     1
 90
        0
176
     1
 40
-0.6
176
     1
 41
-30.0
176
     1
 62
     5
 63
     7
421
 16777215
176
     1
 74
     0
176
     1
 91
        4
176
     1
 64
     7
176
     1
 65
   257
176
     1
 75
     1
176
     1
175
     1
176
     1
 42
1.0
176
     1
 92
        8
176
     1
 66
     7
176
     1
 43
1.0
176
     1
 76
     1
176
     1
 77
     6
176
     1
 78
     2
176
     1
 67
     7
176
     1
 79
     5
176
     1
170
     0
176
     1
171
     0
176
     1
290
     0
176
     1
 93
        1
176
     1
 44
0.0
176
     1
173
     0
176
     1
  0
VISUALSTYLE
  5
36
102
{ACAD_REACTORS
330
2A
102
}
330
2A
100
AcDbVisualStyle
  2
Brighten
 70
    12
177
     2
291
     1
 71
     2
176
     1
 72
     2
176
     1
 73
     0
176
     1
 90
        0
176
     1
 40
-0.6
176
     1
 41
-30.0
176
     1
 62
     5
 63
     7
421
 16777215
176
     1
 74
     1
176
     1
 91
        4
176
     1
 64
     7
176
     1
 65
   257
176
     1
 75
     1
176
     1
175
     1
176
     1
 42
1.0
176
     1
 92
        8
176
     1
 66
     7
176
     1
 43
1.0
176
     1
 76
     1
176
     1
 77
     6
176
     1
 78
     2
176
     1
 67
     7
176
     1
 79
     5
176
     1
170
     0
176
     1
171
     0
176
     1
290
     0
176
     1
 93
        1
176
     1
 44
50.0
176
     1
173
     0
176
     1
  0
VISUALSTYLE
  5
3A
102
{ACAD_REACTORS
330
2A
102
}
330
2A
100
AcDbVisualStyle
  2
ColorChange
 70
    16
177
     2
291
     1
 71
     2
176
     1
 72
     2
176
     1
 73
     3
176
     1
 90
        0
176
     1
 40
-0.6
176
     1
 41
-30.0
176
     1
 62
     5
 63
     8
421
  8421504
176
     1
 74
     1
176
     1
 91
        4
176
     1
 64
     7
176
     1
 65
   257
176
     1
 75
     1
176
     1
175
     1
176
     1
 42
1.0
176
     1
 92
        8
176
     1
 66
     8
424
  8421504
176
     1
 43
1.0
176
     1
 76
     1
176
     1
 77
     6
176
     1
 78
     2
176
     1
 67
     7
176
     1
 79
     5
176
     1
170
     0
176
     1
171
     0
176
     1
290
     0
176
     1
 93
        1
176
     1
 44
0.0
176
     1
173
     0
176
     1
  0
VISUALSTYLE
  5
34
102
{ACAD_REACTORS
330
2A
102
}
330
2A
100
AcDbVisualStyle
  2
Conceptual
 70
     9
177
     2
291
     0
 71
     3
176
     1
 72
     2
176
     1
 73
     0
176
     1
 90
        0
176
     1
 40
-0.6
176
     1
 41
-30.0
176
     1
 62
     5
 63
     7
421
 16777215
176
     1
 74
     2
176
     1
 91
        2
176
     1
 64
     7
176
     1
 65
   257
176
     1
 75
     1
176
     1
175
     1
176
     1
 42
40.0
176
     1
 92
        8
176
     1
 66
     7
176
     1
 43
1.0
176
     1
 76
     1
176
     1
 77
     6
176
     1
 78
     2
176
     1
 67
     7
176
     1
 79
     3
176
     1
170
     0
176
     1
171
     0
176
     1
290
     0
176
     1
 93
        1
176
     1
 44
0.0
176
     1
173
     0
176
     1
  0
VISUALSTYLE
  5
35
102
{ACAD_REACTORS
330
2A
102
}
330
2A
100
AcDbVisualStyle
  2
Dim
 70
    11
177
     2
291
     1
 71
     2
176
     1
 72
     2
176
     1
 73
     0
176
     1
 90
        0
176
     1
 40
-0.6
176
     1
 41
-30.0
176
     1
 62
     5
 63
     7
421
 16777215
176
     1
 74
     1
176
     1
 91
        4
176
     1
 64
     7
176
     1
 65
   257
176
     1
 75
     1
176
     1
175
     1
176
     1
 42
1.0
176
     1
 92
        8
176
     1
 66
     7
176
     1
 43
1.0
176
     1
 76
     1
176
     1
 77
     6
176
     1
 78
     2
176
     1
 67
     7
176
     1
 79
     5
176
     1
170
     0
176
     1
171
     0
176
     1
290
     0
176
     1
 93
        1
176
     1
 44
-50.0
176
     1
173
     0
176
     1
  0
VISUALSTYLE
  5
39
102
{ACAD_REACTORS
330
2A
102
}
330
2A
100
AcDbVisualStyle
  2
Facepattern
 70
    15
177
     2
291
     1
 71
     2
176
     1
 72
     2
176
     1
 73
     0
176
     1
 90
        0
176
     1
 40
-0.6
176
     1
 41
-30.0
176
     1
 62
     5
 63
     7
421
 16777215
176
     1
 74
     1
176
     1
 91
        4
176
     1
 64
     7
176
     1
 65
   257
176
     1
 75
     1
176
     1
175
     1
176
     1
 42
1.0
176
     1
 92
        8
176
     1
 66
     7
176
     1
 43
1.0
176
     1
 76
     1
176
     1
 77
     6
176
     1
 78
     2
176
     1
 67
     7
176
     1
 79
     5
176
     1
170
     0
176
     1
171
     0
176
     1
290
     0
176
     1
 93
        1
176
     1
 44
0.0
176
     1
173
     0
176
     1
  0
VISUALSTYLE
  5
2B
102
{ACAD_REACTORS
330
2A
102
}
330
2A
100
AcDbVisualStyle
  2
Flat
 70
     0
177
     2
291
     1
 71
     2
176
     1
 72
     1
176
     1
 73
     1
176
     1
 90
        2
176
     1
 40
-0.6
176
     1
 41
30.0
176
     1
 62
     5
 63
     7
421
 16777215
176
     1
 74
     0
176
     1
 91
        4
176
     1
 64
     7
176
     1
 65
   257
176
     1
 75
     1
176
     1
175
     1
176
     1
 42
1.0
176
     1
 92
        8
176
     1
 66
     7
176
     1
 43
1.0
176
     1
 76
     1
176
     1
 77
     6
176
     1
 78
     2
176
     1
 67
     7
176
     1
 79
     5
176
     1
170
     0
176
     1
171
     0
176
     1
290
     0
176
     1
 93
       13
176
     1
 44
0.0
176
     1
173
     0
176
     1
  0
VISUALSTYLE
  5
2C
102
{ACAD_REACTORS
330
2A
102
}
330
2A
100
AcDbVisualStyle
  2
FlatWithEdges
 70
     1
177
     2
291
     1
 71
     2
176
     1
 72
     1
176
     1
 73
     1
176
     1
 90
        2
176
     1
 40
-0.6
176
     1
 41
30.0
176
     1
 62
     5
 63
     7
421
 16777215
176
     1
 74
     1
176
     1
 91
        4
176
     1
 64
     7
176
     1
 65
   257
176
     1
 75
     1
176
     1
175
     1
176
     1
 42
1.0
176
     1
 92
        0
176
     1
 66
   257
176
     1
 43
1.0
176
     1
 76
     1
176
     1
 77
     6
176
     1
 78
     2
176
     1
 67
     7
176
     1
 79
     5
176
     1
170
     0
176
     1
171
     0
176
     1
290
     0
176
     1
 93
       13
176
     1
 44
0.0
176
     1
173
     0
176
     1
  0
VISUALSTYLE
  5
2D
102
{ACAD_REACTORS
330
2A
102
}
330
2A
100
AcDbVisualStyle
  2
Gouraud
 70
     2
177
     2
291
     1
 71
     2
176
     1
 72
     2
176
     1
 73
     1
176
     1
 90
        2
176
     1
 40
-0.6
176
     1
 41
30.0
176
     1
 62
     5
 63
     7
421
 16777215
176
     1
 74
     0
176
     1
 91
        4
176
     1
 64
     7
176
     1
 65
   257
176
     1
 75
     1
176
     1
175
     1
176
     1
 42
1.0
176
     1
 92
        0
176
     1
 66
     7
176
     1
 43
1.0
176
     1
 76
     1
176
     1
 77
     6
176
     1
 78
     2
176
     1
 67
     7
176
     1
 79
     5
176
     1
170
     0
176
     1
171
     0
176
     1
290
     0
176
     1
 93
       13
176
     1
 44
0.0
176
     1
173
     0
176
     1
  0
VISUALSTYLE
  5
2E
102
{ACAD_REACTORS
330
2A
102
}
330
2A
100
AcDbVisualStyle
  2
GouraudWithEdges
 70
     3
177
     2
291
     1
 71
     2
176
     1
 72
     2
176
     1
 73
     1
176
     1
 90
        2
176
     1
 40
-0.6
176
     1
 41
30.0
176
     1
 62
     5
 63
     7
421
 16777215
176
     1
 74
     1
176
     1
 91
        4
176
     1
 64
     7
176
     1
 65
   257
176
     1
 75
     1
176
     1
175
     1
176
     1
 42
1.0
176
     1
 92
        0
176
     1
 66
   257
176
     1
 43
1.0
176
     1
 76
     1
176
     1
 77
     6
176
     1
 78
     2
176
     1
 67
     7
176
     1
 79
     5
176
     1
170
     0
176
     1
171
     0
176
     1
290
     0
176
     1
 93
       13
176
     1
 44
0.0
176
     1
173
     0
176
     1
  0
VISUALSTYLE
  5
38
102
{ACAD_REACTORS
330
2A
102
}
330
2A
100
AcDbVisualStyle
  2
Linepattern
 70
    14
177
     2
291
     1
 71
     2
176
     1
 72
     2
176
     1
 73
     0
176
     1
 90
        0
176
     1
 40
-0.6
176
     1
 41
-30.0
176
     1
 62
     5
 63
     7
421
 16777215
176
     1
 74
     1
176
     1
 91
        4
176
     1
 64
     7
176
     1
 65
   257
176
     1
 75
     7
176
     1
175
     7
176
     1
 42
1.0
176
     1
 92
        8
176
     1
 66
     7
176
     1
 43
1.0
176
     1
 76
     1
176
     1
 77
     6
176
     1
 78
     2
176
     1
 67
     7
176
     1
 79
     5
176
     1
170
     0
176
     1
171
     0
176
     1
290
     0
176
     1
 93
        1
176
     1
 44
0.0
176
     1
173
     0
176
     1
  0
VISUALSTYLE
  5
33
102
{ACAD_REACTORS
330
2A
102
}
330
2A
100
AcDbVisualStyle
  2
Realistic
 70
     8
177
     2
291
     0
 71
     2
176
     1
 72
     2
176
     1
 73
     0
176
     1
 90
        0
176
     1
 40
-0.6
176
     1
 41
-30.0
176
     1
 62
     5
 63
     7
421
 16777215
176
     1
 74
     1
176
     1
 91
        0
176
     1
 64
     7
176
     1
 65
   257
176
     1
 75
     1
176
     1
175
     1
176
     1
 42
1.0
176
     1
 92
        8
176
     1
 66
     8
424
  7895160
176
     1
 43
1.0
176
     1
 76
     1
176
     1
 77
     6
176
     1
 78
     2
176
     1
 67
     7
176
     1
 79
     5
176
     1
170
     0
176
     1
171
     0
176
     1
290
     0
176
     1
 93
       13
176
     1
 44
0.0
176
     1
173
     0
176
     1
  0
VISUALSTYLE
  5
37
102
{ACAD_REACTORS
330
2A
102
}
330
2A
100
AcDbVisualStyle
  2
Thicken
 70
    13
177
     2
291
     1
 71
     2
176
     1
 72
     2
176
     1
 73
     0
176
     1
 90
        0
176
     1
 40
-0.6
176
     1
 41
-30.0
176
     1
 62
     5
 63
     7
421
 16777215
176
     1
 74
     1
176
     1
 91
        4
176
     1
 64
     7
176
     1
 65
   257
176
     1
 75
     1
176
     1
175
     1
176
     1
 42
1.0
176
     1
 92
       12
176
     1
 66
     7
176
     1
 43
1.0
176
     1
 76
     1
176
     1
 77
     6
176
     1
 78
     2
176
     1
 67
     7
176
     1
 79
     5
176
     1
170
     0
176
     1
171
     0
176
     1
290
     0
176
     1
 93
        1
176
     1
 44
0.0
176
     1
173
     0
176
     1
  0
ENDSEC
  0
EOF
