  0
SECTION
  2
HEADER
  9
$ACADVER
  1
AC1024
  9
$ACADMAINTVER
 70
     6
  9
$DWGCODEPAGE
  3
ANSI_932
  9
$INSBASE
 10
0.0
 20
0.0
 30
0.0
  9
$EXTMIN
 10
-4455.0
 20
-3150.0
 30
0.0
  9
$EXTMAX
 10
4455.0
 20
3150.0
 30
0.0
  9
$LIMMIN
 10
-4455.0
 20
-3150.0
  9
$LIMMAX
 10
4455.0
 20
3150.0
  9
$ORTHOMODE
 70
     0
  9
$REGENMODE
 70
     1
  9
$FILLMODE
 70
     1
  9
$QTEXTMODE
 70
     0
  9
$MIRRTEXT
 70
     1
  9
$LTSCALE
 40
30.0
  9
$ATTMODE
 70
     1
  9
$TEXTSIZE
 40
2.5
  9
$TRACEWID
 40
1.0
  9
$TEXTSTYLE
  7
Standard
  9
$CLAYER
  8
0
  9
$CELTYPE
  6
ByLayer
  9
$CECOLOR
 62
   256
  9
$CELTSCALE
 40
1.0
  9
$DISPSILH
 70
     0
  9
$DIMSCALE
 40
1.0
  9
$DIMASZ
 40
2.5
  9
$DIMEXO
 40
0.625
  9
$DIMDLI
 40
3.75
  9
$DIMRND
 40
0.0
  9
$DIMDLE
 40
0.0
  9
$DIMEXE
 40
1.25
  9
$DIMTP
 40
0.0
  9
$DIMTM
 40
0.0
  9
$DIMTXT
 40
2.5
  9
$DIMCEN
 40
2.5
  9
$DIMTSZ
 40
0.0
  9
$DIMTOL
 70
     0
  9
$DIMLIM
 70
     0
  9
$DIMTIH
 70
     0
  9
$DIMTOH
 70
     0
  9
$DIMSE1
 70
     0
  9
$DIMSE2
 70
     0
  9
$DIMTAD
 70
     1
  9
$DIMZIN
 70
     8
  9
$DIMBLK
  1

  9
$DIMASO
 70
     1
  9
$DIMSHO
 70
     1
  9
$DIMPOST
  1

  9
$DIMAPOST
  1

  9
$DIMALT
 70
     0
  9
$DIMALTD
 70
     3
  9
$DIMALTF
 40
0.03937007874016
  9
$DIMLFAC
 40
1.0
  9
$DIMTOFL
 70
     1
  9
$DIMTVP
 40
0.0
  9
$DIMTIX
 70
     0
  9
$DIMSOXD
 70
     0
  9
$DIMSAH
 70
     0
  9
$DIMBLK1
  1

  9
$DIMBLK2
  1

  9
$DIMSTYLE
  2
ISO-25
  9
$DIMCLRD
 70
     0
  9
$DIMCLRE
 70
     0
  9
$DIMCLRT
 70
     0
  9
$DIMTFAC
 40
1.0
  9
$DIMGAP
 40
0.625
  9
$DIMJUST
 70
     0
  9
$DIMSD1
 70
     0
  9
$DIMSD2
 70
     0
  9
$DIMTOLJ
 70
     0
  9
$DIMTZIN
 70
     8
  9
$DIMALTZ
 70
     0
  9
$DIMALTTZ
 70
     0
  9
$DIMUPT
 70
     0
  9
$DIMDEC
 70
     2
  9
$DIMTDEC
 70
     2
  9
$DIMALTU
 70
     2
  9
$DIMALTTD
 70
     3
  9
$DIMTXSTY
  7
Standard
  9
$DIMAUNIT
 70
     0
  9
$DIMADEC
 70
     0
  9
$DIMALTRND
 40
0.0
  9
$DIMAZIN
 70
     0
  9
$DIMDSEP
 70
    44
  9
$DIMATFIT
 70
     3
  9
$DIMFRAC
 70
     0
  9
$DIMLDRBLK
  1

  9
$DIMLUNIT
 70
     2
  9
$DIMLWD
 70
    -2
  9
$DIMLWE
 70
    -2
  9
$DIMTMOVE
 70
     0
  9
$DIMFXL
 40
1.0
  9
$DIMFXLON
 70
     0
  9
$DIMJOGANG
 40
0.7853981633974483
  9
$DIMTFILL
 70
     0
  9
$DIMTFILLCLR
 70
     0
  9
$DIMARCSYM
 70
     0
  9
$DIMLTYPE
  6

  9
$DIMLTEX1
  6

  9
$DIMLTEX2
  6

  9
$DIMTXTDIRECTION
 70
     0
  9
$LUNITS
 70
     2
  9
$LUPREC
 70
     4
  9
$SKETCHINC
 40
1.0
  9
$FILLETRAD
 40
10.0
  9
$AUNITS
 70
     0
  9
$AUPREC
 70
     0
  9
$MENU
  1
.
  9
$ELEVATION
 40
0.0
  9
$PELEVATION
 40
0.0
  9
$THICKNESS
 40
0.0
  9
$LIMCHECK
 70
     0
  9
$CHAMFERA
 40
10.0
  9
$CHAMFERB
 40
10.0
  9
$CHAMFERC
 40
20.0
  9
$CHAMFERD
 40
0.0
  9
$SKPOLY
 70
     0
  9
$TDCREATE
 40
2457953.399980799
  9
$TDUCREATE
 40
2457953.024980799
  9
$TDUPDATE
 40
2457953.39998081
  9
$TDUUPDATE
 40
2457953.02498081
  9
$TDINDWG
 40
0.0000000116
  9
$TDUSRTIMER
 40
0.0000000116
  9
$USRTIMER
 70
     1
  9
$ANGBASE
 50
0.0
  9
$ANGDIR
 70
     0
  9
$PDMODE
 70
     0
  9
$PDSIZE
 40
0.0
  9
$PLINEWID
 40
0.0
  9
$SPLFRAME
 70
     0
  9
$SPLINETYPE
 70
     6
  9
$SPLINESEGS
 70
     8
  9
$HANDSEED
  5
328
  9
$SURFTAB1
 70
     6
  9
$SURFTAB2
 70
     6
  9
$SURFTYPE
 70
     6
  9
$SURFU
 70
     6
  9
$SURFV
 70
     6
  9
$UCSBASE
  2

  9
$UCSNAME
  2

  9
$UCSORG
 10
0.0
 20
0.0
 30
0.0
  9
$UCSXDIR
 10
1.0
 20
0.0
 30
0.0
  9
$UCSYDIR
 10
0.0
 20
1.0
 30
0.0
  9
$UCSORTHOREF
  2

  9
$UCSORTHOVIEW
 70
     0
  9
$UCSORGTOP
 10
0.0
 20
0.0
 30
0.0
  9
$UCSORGBOTTOM
 10
0.0
 20
0.0
 30
0.0
  9
$UCSORGLEFT
 10
0.0
 20
0.0
 30
0.0
  9
$UCSORGRIGHT
 10
0.0
 20
0.0
 30
0.0
  9
$UCSORGFRONT
 10
0.0
 20
0.0
 30
0.0
  9
$UCSORGBACK
 10
0.0
 20
0.0
 30
0.0
  9
$PUCSBASE
  2

  9
$PUCSNAME
  2

  9
$PUCSORG
 10
0.0
 20
0.0
 30
0.0
  9
$PUCSXDIR
 10
1.0
 20
0.0
 30
0.0
  9
$PUCSYDIR
 10
0.0
 20
1.0
 30
0.0
  9
$PUCSORTHOREF
  2

  9
$PUCSORTHOVIEW
 70
     0
  9
$PUCSORGTOP
 10
0.0
 20
0.0
 30
0.0
  9
$PUCSORGBOTTOM
 10
0.0
 20
0.0
 30
0.0
  9
$PUCSORGLEFT
 10
0.0
 20
0.0
 30
0.0
  9
$PUCSORGRIGHT
 10
0.0
 20
0.0
 30
0.0
  9
$PUCSORGFRONT
 10
0.0
 20
0.0
 30
0.0
  9
$PUCSORGBACK
 10
0.0
 20
0.0
 30
0.0
  9
$USERI1
 70
     0
  9
$USERI2
 70
     0
  9
$USERI3
 70
     0
  9
$USERI4
 70
     0
  9
$USERI5
 70
     0
  9
$USERR1
 40
0.0
  9
$USERR2
 40
0.0
  9
$USERR3
 40
0.0
  9
$USERR4
 40
0.0
  9
$USERR5
 40
0.0
  9
$WORLDVIEW
 70
     1
  9
$SHADEDGE
 70
     3
  9
$SHADEDIF
 70
    70
  9
$TILEMODE
 70
     1
  9
$MAXACTVP
 70
    64
  9
$PINSBASE
 10
0.0
 20
0.0
 30
0.0
  9
$PLIMCHECK
 70
     0
  9
$PEXTMIN
 10
1.000000000000000E+20
 20
1.000000000000000E+20
 30
1.000000000000000E+20
  9
$PEXTMAX
 10
-1.000000000000000E+20
 20
-1.000000000000000E+20
 30
-1.000000000000000E+20
  9
$PLIMMIN
 10
0.0
 20
0.0
  9
$PLIMMAX
 10
420.0
 20
297.0
  9
$UNITMODE
 70
     0
  9
$VISRETAIN
 70
     1
  9
$PLINEGEN
 70
     0
  9
$PSLTSCALE
 70
     1
  9
$TREEDEPTH
 70
  3020
  9
$CMLSTYLE
  2
Standard
  9
$CMLJUST
 70
     0
  9
$CMLSCALE
 40
20.0
  9
$PROXYGRAPHICS
 70
     1
  9
$MEASUREMENT
 70
     1
  9
$CELWEIGHT
370
    -1
  9
$ENDCAPS
280
     0
  9
$JOINSTYLE
280
     0
  9
$LWDISPLAY
290
     0
  9
$INSUNITS
 70
     4
  9
$HYPERLINKBASE
  1

  9
$STYLESHEET
  1

  9
$XEDIT
290
     1
  9
$CEPSNTYPE
380
     0
  9
$PSTYLEMODE
290
     1
  9
$FINGERPRINTGUID
  2
{D37DA790-3EB3-4477-9577-E86287E8F37F}
  9
$VERSIONGUID
  2
{FAEB1C32-E019-11D5-929B-00C0DF256EC4}
  9
$EXTNAMES
290
     1
  9
$PSVPSCALE
 40
0.0
  9
$OLESTARTUP
290
     0
  9
$SORTENTS
280
   127
  9
$INDEXCTL
280
     0
  9
$HIDETEXT
280
     1
  9
$XCLIPFRAME
280
     2
  9
$HALOGAP
280
     0
  9
$OBSCOLOR
 70
   257
  9
$OBSLTYPE
280
     0
  9
$INTERSECTIONDISPLAY
280
     0
  9
$INTERSECTIONCOLOR
 70
   257
  9
$DIMASSOC
280
     2
  9
$PROJECTNAME
  1

  9
$CAMERADISPLAY
290
     0
  9
$LENSLENGTH
 40
50.0
  9
$CAMERAHEIGHT
 40
0.0
  9
$STEPSPERSEC
 40
2.0
  9
$STEPSIZE
 40
6.0
  9
$3DDWFPREC
 40
2.0
  9
$PSOLWIDTH
 40
5.0
  9
$PSOLHEIGHT
 40
80.0
  9
$LOFTANG1
 40
1.570796326794897
  9
$LOFTANG2
 40
1.570796326794897
  9
$LOFTMAG1
 40
0.0
  9
$LOFTMAG2
 40
0.0
  9
$LOFTPARAM
 70
     7
  9
$LOFTNORMALS
280
     1
  9
$LATITUDE
 40
37.795
  9
$LONGITUDE
 40
-122.394
  9
$NORTHDIRECTION
 40
0.0
  9
$TIMEZONE
 70
 -8000
  9
$LIGHTGLYPHDISPLAY
280
     1
  9
$TILEMODELIGHTSYNCH
280
     1
  9
$SOLIDHIST
280
     1
  9
$SHOWHIST
280
     1
  9
$DWFFRAME
280
     2
  9
$DGNFRAME
280
     2
  9
$REALWORLDSCALE
290
     1
  9
$INTERFERECOLOR
 62
   256
  9
$CSHADOW
280
     0
  9
$SHADOWPLANELOCATION
 40
0.0
  0
ENDSEC
  0
SECTION
  2
CLASSES
  0
CLASS
  1
ACDBDICTIONARYWDFLT
  2
AcDbDictionaryWithDefault
  3
ObjectDBX Classes
 90
        0
 91
        4
280
     0
281
     0
  0
CLASS
  1
VISUALSTYLE
  2
AcDbVisualStyle
  3
ObjectDBX Classes
 90
     4095
 91
        4
280
     0
281
     0
  0
CLASS
  1
MATERIAL
  2
AcDbMaterial
  3
ObjectDBX Classes
 90
     1153
 91
        4
280
     0
281
     0
  0
ENDSEC
  0
SECTION
  2
TABLES
  0
TABLE
  2
VPORT
  5
8
330
0
100
AcDbSymbolTable
 70
     1
  0
VPORT
  5
29
330
8
100
AcDbSymbolTableRecord
100
AcDbViewportTableRecord
  2
*Active
 70
     0
 10
0.0
 20
0.0
 11
1.0
 21
1.0
 12
0.0
 22
0.0
 13
0.0
 23
0.0
 14
10.0
 24
10.0
 15
10.0
 25
10.0
 16
0.0
 26
0.0
 36
1.0
 17
0.0
 27
0.0
 37
0.0
 40
6930.000000000001
 41
1.414285714285714
 42
50.0
 43
0.0
 44
0.0
 50
0.0
 51
0.0
 71
     0
 72
 10000
 73
     1
 74
     3
 75
     0
 76
     0
 77
     0
 78
     0
281
     0
 65
     1
110
0.0
120
0.0
130
0.0
111
1.0
121
0.0
131
0.0
112
0.0
122
1.0
132
0.0
 79
     0
146
0.0
 60
     3
 61
     5
292
     1
282
     1
141
0.0
142
0.0
 63
   250
  0
ENDTAB
  0
TABLE
  2
LTYPE
  5
5
330
0
100
AcDbSymbolTable
 70
     2
  0
LTYPE
  5
14
330
5
100
AcDbSymbolTableRecord
100
AcDbLinetypeTableRecord
  2
ByBlock
 70
     0
  3

 72
    65
 73
     0
 40
0.0
  0
LTYPE
  5
15
330
5
100
AcDbSymbolTableRecord
100
AcDbLinetypeTableRecord
  2
ByLayer
 70
     0
  3

 72
    65
 73
     0
 40
0.0
  0
LTYPE
  5
16
330
5
100
AcDbSymbolTableRecord
100
AcDbLinetypeTableRecord
  2
Continuous
 70
     0
  3
Solid line
 72
    65
 73
     0
 40
0.0
  0
LTYPE
  5
3F
330
5
100
AcDbSymbolTableRecord
100
AcDbLinetypeTableRecord
  2
JWW_DASHED1
 70
     0
  3
-  --  --  --  --  --  --  --  -
 72
    65
 73
     2
 40
1.693333333333333
 49
0.8466666666666667
 74
     0
 49
-0.8466666666666667
 74
     0
  0
ENDTAB
  0
TABLE
  2
LAYER
  5
2
330
0
100
AcDbSymbolTable
 70
     3
  0
LAYER
  5
10
330
2
100
AcDbSymbolTableRecord
100
AcDbLayerTableRecord
  2
0
 70
     0
 62
     7
  6
Continuous
370
    -3
390
F
347
3E
  0
LAYER
  5
40
330
2
100
AcDbSymbolTableRecord
100
AcDbLayerTableRecord
  2
0-0
 70
     0
 62
     7
  6
Continuous
370
    -3
390
F
347
3E
  0
LAYER
  5
41
330
2
100
AcDbSymbolTableRecord
100
AcDbLayerTableRecord
  2
寸法
 70
     0
 62
     7
  6
Continuous
370
    -3
390
F
347
3E
  0
ENDTAB
  0
TABLE
  2
STYLE
  5
3
330
0
100
AcDbSymbolTable
 70
     1
  0
STYLE
  5
11
330
3
100
AcDbSymbolTableRecord
100
AcDbTextStyleTableRecord
  2
Standard
 70
     0
 40
0.0
 41
1.0
 50
0.0
 71
     0
 42
2.5
  3
txt
  4

  0
ENDTAB
  0
TABLE
  2
VIEW
  5
6
330
0
100
AcDbSymbolTable
 70
     0
  0
ENDTAB
  0
TABLE
  2
UCS
  5
7
330
0
100
AcDbSymbolTable
 70
     0
  0
ENDTAB
  0
TABLE
  2
APPID
  5
9
330
0
100
AcDbSymbolTable
 70
     1
  0
APPID
  5
12
330
9
100
AcDbSymbolTableRecord
100
AcDbRegAppTableRecord
  2
ACAD
 70
     0
  0
ENDTAB
  0
TABLE
  2
DIMSTYLE
  5
A
330
0
100
AcDbSymbolTable
 70
     1
100
AcDbDimStyleTable
  0
DIMSTYLE
105
27
330
A
100
AcDbSymbolTableRecord
100
AcDbDimStyleTableRecord
  2
ISO-25
 70
     0
 41
2.5
 42
0.625
 43
3.75
 44
1.25
 73
     0
 74
     0
 77
     1
 78
     8
140
2.5
141
2.5
143
0.03937007874016
147
0.625
171
     3
172
     1
178
     0
271
     2
272
     2
274
     3
278
    44
283
     0
284
     8
340
11
  0
ENDTAB
  0
TABLE
  2
BLOCK_RECORD
  5
1
330
0
100
AcDbSymbolTable
 70
     1
  0
BLOCK_RECORD
  5
1F
330
1
100
AcDbSymbolTableRecord
100
AcDbBlockTableRecord
  2
*Model_Space
340
22
 70
     0
280
     1
281
     0
  0
BLOCK_RECORD
  5
1B
330
1
100
AcDbSymbolTableRecord
100
AcDbBlockTableRecord
  2
*Paper_Space
340
1E
 70
     0
280
     1
281
     0
  0
BLOCK_RECORD
  5
23
330
1
100
AcDbSymbolTableRecord
100
AcDbBlockTableRecord
  2
*Paper_Space0
340
26
 70
     0
280
     1
281
     0
  0
ENDTAB
  0
ENDSEC
  0
SECTION
  2
BLOCKS
  0
BLOCK
  5
20
330
1F
100
AcDbEntity
  8
0
100
AcDbBlockBegin
  2
*Model_Space
 70
     0
 10
0.0
 20
0.0
 30
0.0
  3
*Model_Space
  1

  0
ENDBLK
  5
21
330
1F
100
AcDbEntity
  8
0
100
AcDbBlockEnd
  0
BLOCK
  5
1C
330
1B
100
AcDbEntity
 67
     1
  8
0
100
AcDbBlockBegin
  2
*Paper_Space
 70
     0
 10
0.0
 20
0.0
 30
0.0
  3
*Paper_Space
  1

  0
ENDBLK
  5
1D
330
1B
100
AcDbEntity
 67
     1
  8
0
100
AcDbBlockEnd
  0
BLOCK
  5
24
330
23
100
AcDbEntity
  8
0
100
AcDbBlockBegin
  2
*Paper_Space0
 70
     0
 10
0.0
 20
0.0
 30
0.0
  3
*Paper_Space0
  1

  0
ENDBLK
  5
25
330
23
100
AcDbEntity
  8
0
100
AcDbBlockEnd
  0
ENDSEC
  0
SECTION
  2
ENTITIES
  0
LINE
  5
42
330
1F
100
AcDbEntity
  8
0-0
  6
JWW_DASHED1
 62
   120
370
     5
100
AcDbLine
 10
1620.865175244618
 20
1034.599837359913
 30
0.0
 11
1617.865175244617
 21
1034.599837359913
 31
0.0
  0
LINE
  5
43
330
1F
100
AcDbEntity
  8
0-0
  6
JWW_DASHED1
 62
   120
370
     5
100
AcDbLine
 10
1620.865175244618
 20
-948.400162640087
 30
0.0
 11
1620.865175244618
 21
1034.599837359913
 31
0.0
  0
LINE
  5
44
330
1F
100
AcDbEntity
  8
0-0
  6
JWW_DASHED1
 62
   120
370
     5
100
AcDbLine
 10
1617.865175244617
 20
-948.400162640087
 30
0.0
 11
1620.865175244618
 21
-948.400162640087
 31
0.0
  0
LINE
  5
45
330
1F
100
AcDbEntity
  8
0-0
  6
JWW_DASHED1
 62
   120
370
     5
100
AcDbLine
 10
-1559.134824755382
 20
1034.599837359913
 30
0.0
 11
-1556.134824755381
 21
1034.599837359913
 31
0.0
  0
LINE
  5
46
330
1F
100
AcDbEntity
  8
0-0
  6
JWW_DASHED1
 62
   120
370
     5
100
AcDbLine
 10
-1559.134824755382
 20
-948.400162640087
 30
0.0
 11
-1559.134824755382
 21
1034.599837359913
 31
0.0
  0
LINE
  5
47
330
1F
100
AcDbEntity
  8
0-0
  6
JWW_DASHED1
 62
   120
370
     5
100
AcDbLine
 10
-1556.134824755381
 20
-948.400162640087
 30
0.0
 11
-1559.134824755382
 21
-948.400162640087
 31
0.0
  0
LINE
  5
48
330
1F
100
AcDbEntity
  8
0-0
  6
Continuous
 62
    92
370
    13
100
AcDbLine
 10
1617.865175244617
 20
1034.599837359913
 30
0.0
 11
30.86517524461811
 21
1034.599837359913
 31
0.0
  0
LINE
  5
49
330
1F
100
AcDbEntity
  8
0-0
  6
Continuous
 62
    92
370
    13
100
AcDbLine
 10
1617.865175244617
 20
-948.400162640087
 30
0.0
 11
30.86517524461811
 21
-948.400162640087
 31
0.0
  0
LINE
  5
4A
330
1F
100
AcDbEntity
  8
0-0
  6
JWW_DASHED1
 62
   120
370
     5
100
AcDbLine
 10
810.8651752446181
 20
-948.400162640087
 30
0.0
 11
810.8651752446181
 21
1034.599837359913
 31
0.0
  0
LINE
  5
4B
330
1F
100
AcDbEntity
  8
0-0
  6
Continuous
 62
    92
370
    13
100
AcDbLine
 10
840.8651752446181
 20
-948.400162640087
 30
0.0
 11
840.8651752446181
 21
1034.599837359913
 31
0.0
  0
LINE
  5
4C
330
1F
100
AcDbEntity
  8
0-0
  6
Continuous
 62
    92
370
    13
100
AcDbLine
 10
30.86517524461811
 20
-948.400162640087
 30
0.0
 11
30.86517524461811
 21
1034.599837359913
 31
0.0
  0
LINE
  5
4D
330
1F
100
AcDbEntity
  8
0-0
  6
Continuous
 62
    92
370
    13
100
AcDbLine
 10
-1556.134824755381
 20
1034.599837359913
 30
0.0
 11
30.86517524461811
 21
1034.599837359913
 31
0.0
  0
LINE
  5
4E
330
1F
100
AcDbEntity
  8
0-0
  6
Continuous
 62
    92
370
    13
100
AcDbLine
 10
-1556.134824755381
 20
-948.400162640087
 30
0.0
 11
30.86517524461811
 21
-948.400162640087
 31
0.0
  0
LINE
  5
4F
330
1F
100
AcDbEntity
  8
0-0
  6
JWW_DASHED1
 62
   120
370
     5
100
AcDbLine
 10
-749.1348247553819
 20
-948.400162640087
 30
0.0
 11
-749.1348247553819
 21
1034.599837359913
 31
0.0
  0
LINE
  5
50
330
1F
100
AcDbEntity
  8
0-0
  6
Continuous
 62
    92
370
    13
100
AcDbLine
 10
-779.1348247553819
 20
-948.400162640087
 30
0.0
 11
-779.1348247553819
 21
1034.599837359913
 31
0.0
  0
LINE
  5
51
330
1F
100
AcDbEntity
  8
0-0
  6
Continuous
 62
     7
370
     9
100
AcDbLine
 10
1554.86517524462
 20
38.69983735991383
 30
0.0
 11
1554.86517524462
 21
-20.50016264008605
 31
0.0
  0
LINE
  5
52
330
1F
100
AcDbEntity
  8
0-0
  6
Continuous
 62
     7
370
     9
100
AcDbLine
 10
1584.86517524462
 20
-20.50016264008605
 30
0.0
 11
1584.86517524462
 21
38.69983735991383
 31
0.0
  0
ARC
  5
53
330
1F
100
AcDbEntity
  8
0-0
  6
Continuous
 62
     7
370
     9
100
AcDbCircle
 10
1569.86517524462
 20
38.69983735991383
 30
0.0
 40
15.0
100
AcDbArc
 50
0.0
 51
180.0
  0
ARC
  5
54
330
1F
100
AcDbEntity
  8
0-0
  6
Continuous
 62
     7
370
     9
100
AcDbCircle
 10
1569.86517524462
 20
-20.50016264008605
 30
0.0
 40
15.0
100
AcDbArc
 50
180.0
 51
0.0
  0
ARC
  5
55
330
1F
100
AcDbEntity
  8
0-0
  6
Continuous
 62
    92
370
    13
100
AcDbCircle
 10
1550.36517524462
 20
-50.40016264008614
 30
0.0
 40
1.5
100
AcDbArc
 50
180.0
 51
270.0
  0
LINE
  5
56
330
1F
100
AcDbEntity
  8
0-0
  6
Continuous
 62
    92
370
    13
100
AcDbLine
 10
1548.865175244621
 20
-50.40016264008614
 30
0.0
 11
1548.865175244621
 21
68.59983735991392
 31
0.0
  0
LINE
  5
57
330
1F
100
AcDbEntity
  8
0-0
  6
Continuous
 62
    92
370
    13
100
AcDbLine
 10
1550.36517524462
 20
-51.90016264008818
 30
0.0
 11
1589.36517524462
 21
-51.90016264008818
 31
0.0
  0
ARC
  5
58
330
1F
100
AcDbEntity
  8
0-0
  6
Continuous
 62
    92
370
    13
100
AcDbCircle
 10
1589.36517524462
 20
-50.40016264008614
 30
0.0
 40
1.5
100
AcDbArc
 50
270.0
 51
0.0
  0
LINE
  5
59
330
1F
100
AcDbEntity
  8
0-0
  6
Continuous
 62
    92
370
    13
100
AcDbLine
 10
1590.86517524462
 20
-50.40016264008614
 30
0.0
 11
1590.86517524462
 21
68.59983735991392
 31
0.0
  0
ARC
  5
5A
330
1F
100
AcDbEntity
  8
0-0
  6
Continuous
 62
    92
370
    13
100
AcDbCircle
 10
1589.36517524462
 20
68.59983735991392
 30
0.0
 40
1.5
100
AcDbArc
 50
0.0
 51
90.00000000000001
  0
LINE
  5
5B
330
1F
100
AcDbEntity
  8
0-0
  6
Continuous
 62
    92
370
    13
100
AcDbLine
 10
1589.36517524462
 20
70.09983735991341
 30
0.0
 11
1550.36517524462
 21
70.09983735991341
 31
0.0
  0
ARC
  5
5C
330
1F
100
AcDbEntity
  8
0-0
  6
Continuous
 62
    92
370
    13
100
AcDbCircle
 10
1550.36517524462
 20
68.59983735991392
 30
0.0
 40
1.5
100
AcDbArc
 50
90.0
 51
180.0
  0
LINE
  5
5D
330
1F
100
AcDbEntity
  8
0-0
  6
Continuous
 62
     7
370
     9
100
AcDbLine
 10
66.86517524461607
 20
38.69983735991383
 30
0.0
 11
66.86517524461607
 21
-20.50016264008605
 31
0.0
  0
LINE
  5
5E
330
1F
100
AcDbEntity
  8
0-0
  6
Continuous
 62
     7
370
     9
100
AcDbLine
 10
96.86517524461607
 20
-20.50016264008605
 30
0.0
 11
96.86517524461607
 21
38.69983735991383
 31
0.0
  0
ARC
  5
5F
330
1F
100
AcDbEntity
  8
0-0
  6
Continuous
 62
     7
370
     9
100
AcDbCircle
 10
81.86517524461607
 20
38.69983735991383
 30
0.0
 40
15.0
100
AcDbArc
 50
0.0
 51
180.0
  0
ARC
  5
60
330
1F
100
AcDbEntity
  8
0-0
  6
Continuous
 62
     7
370
     9
100
AcDbCircle
 10
81.86517524461607
 20
-20.50016264008605
 30
0.0
 40
15.0
100
AcDbArc
 50
180.0
 51
0.0
  0
ARC
  5
61
330
1F
100
AcDbEntity
  8
0-0
  6
Continuous
 62
    92
370
    13
100
AcDbCircle
 10
62.36517524461675
 20
-50.40016264008614
 30
0.0
 40
1.5
100
AcDbArc
 50
180.0
 51
270.0
  0
LINE
  5
62
330
1F
100
AcDbEntity
  8
0-0
  6
Continuous
 62
    92
370
    13
100
AcDbLine
 10
60.86517524461641
 20
-50.40016264008614
 30
0.0
 11
60.86517524461641
 21
68.59983735991392
 31
0.0
  0
LINE
  5
63
330
1F
100
AcDbEntity
  8
0-0
  6
Continuous
 62
    92
370
    13
100
AcDbLine
 10
62.36517524461675
 20
-51.90016264008818
 30
0.0
 11
101.3651752446154
 21
-51.90016264008818
 31
0.0
  0
ARC
  5
64
330
1F
100
AcDbEntity
  8
0-0
  6
Continuous
 62
    92
370
    13
100
AcDbCircle
 10
101.3651752446154
 20
-50.40016264008614
 30
0.0
 40
1.5
100
AcDbArc
 50
270.0
 51
0.0
  0
LINE
  5
65
330
1F
100
AcDbEntity
  8
0-0
  6
Continuous
 62
    92
370
    13
100
AcDbLine
 10
102.8651752446157
 20
-50.40016264008614
 30
0.0
 11
102.8651752446157
 21
68.59983735991392
 31
0.0
  0
ARC
  5
66
330
1F
100
AcDbEntity
  8
0-0
  6
Continuous
 62
    92
370
    13
100
AcDbCircle
 10
101.3651752446154
 20
68.59983735991392
 30
0.0
 40
1.5
100
AcDbArc
 50
0.0
 51
90.00000000000001
  0
LINE
  5
67
330
1F
100
AcDbEntity
  8
0-0
  6
Continuous
 62
    92
370
    13
100
AcDbLine
 10
101.3651752446154
 20
70.09983735991341
 30
0.0
 11
62.36517524461675
 21
70.09983735991341
 31
0.0
  0
ARC
  5
68
330
1F
100
AcDbEntity
  8
0-0
  6
Continuous
 62
    92
370
    13
100
AcDbCircle
 10
62.36517524461675
 20
68.59983735991392
 30
0.0
 40
1.5
100
AcDbArc
 50
90.0
 51
180.0
  0
LINE
  5
69
330
1F
100
AcDbEntity
  8
0-0
  6
Continuous
 62
     7
370
     9
100
AcDbLine
 10
-35.13482475537984
 20
38.69983735991383
 30
0.0
 11
-35.13482475537984
 21
-20.50016264008605
 31
0.0
  0
LINE
  5
6A
330
1F
100
AcDbEntity
  8
0-0
  6
Continuous
 62
     7
370
     9
100
AcDbLine
 10
-5.134824755379839
 20
-20.50016264008605
 30
0.0
 11
-5.134824755379839
 21
38.69983735991383
 31
0.0
  0
ARC
  5
6B
330
1F
100
AcDbEntity
  8
0-0
  6
Continuous
 62
     7
370
     9
100
AcDbCircle
 10
-20.13482475537984
 20
38.69983735991383
 30
0.0
 40
15.0
100
AcDbArc
 50
0.0
 51
180.0
  0
ARC
  5
6C
330
1F
100
AcDbEntity
  8
0-0
  6
Continuous
 62
     7
370
     9
100
AcDbCircle
 10
-20.13482475537984
 20
-20.50016264008605
 30
0.0
 40
15.0
100
AcDbArc
 50
180.0
 51
0.0
  0
ARC
  5
6D
330
1F
100
AcDbEntity
  8
0-0
  6
Continuous
 62
    92
370
    13
100
AcDbCircle
 10
-39.63482475537916
 20
-50.40016264008614
 30
0.0
 40
1.5
100
AcDbArc
 50
180.0
 51
270.0
  0
LINE
  5
6E
330
1F
100
AcDbEntity
  8
0-0
  6
Continuous
 62
    92
370
    13
100
AcDbLine
 10
-41.1348247553795
 20
-50.40016264008614
 30
0.0
 11
-41.1348247553795
 21
68.59983735991392
 31
0.0
  0
LINE
  5
6F
330
1F
100
AcDbEntity
  8
0-0
  6
Continuous
 62
    92
370
    13
100
AcDbLine
 10
-39.63482475537916
 20
-51.90016264008818
 30
0.0
 11
-0.6348247553805209
 21
-51.90016264008818
 31
0.0
  0
ARC
  5
70
330
1F
100
AcDbEntity
  8
0-0
  6
Continuous
 62
    92
370
    13
100
AcDbCircle
 10
-0.6348247553805209
 20
-50.40016264008614
 30
0.0
 40
1.5
100
AcDbArc
 50
270.0
 51
0.0
  0
LINE
  5
71
330
1F
100
AcDbEntity
  8
0-0
  6
Continuous
 62
    92
370
    13
100
AcDbLine
 10
0.8651752446198202
 20
-50.40016264008614
 30
0.0
 11
0.8651752446198202
 21
68.59983735991392
 31
0.0
  0
ARC
  5
72
330
1F
100
AcDbEntity
  8
0-0
  6
Continuous
 62
    92
370
    13
100
AcDbCircle
 10
-0.6348247553805209
 20
68.59983735991392
 30
0.0
 40
1.5
100
AcDbArc
 50
0.0
 51
90.00000000000001
  0
LINE
  5
73
330
1F
100
AcDbEntity
  8
0-0
  6
Continuous
 62
    92
370
    13
100
AcDbLine
 10
-0.6348247553805209
 20
70.09983735991341
 30
0.0
 11
-39.63482475537916
 21
70.09983735991341
 31
0.0
  0
ARC
  5
74
330
1F
100
AcDbEntity
  8
0-0
  6
Continuous
 62
    92
370
    13
100
AcDbCircle
 10
-39.63482475537916
 20
68.59983735991392
 30
0.0
 40
1.5
100
AcDbArc
 50
90.0
 51
180.0
  0
LINE
  5
75
330
1F
100
AcDbEntity
  8
0-0
  6
Continuous
 62
     7
370
     9
100
AcDbLine
 10
-1523.134824755381
 20
38.69983735991383
 30
0.0
 11
-1523.134824755381
 21
-20.50016264008605
 31
0.0
  0
LINE
  5
76
330
1F
100
AcDbEntity
  8
0-0
  6
Continuous
 62
     7
370
     9
100
AcDbLine
 10
-1493.134824755381
 20
-20.50016264008605
 30
0.0
 11
-1493.134824755381
 21
38.69983735991383
 31
0.0
  0
ARC
  5
77
330
1F
100
AcDbEntity
  8
0-0
  6
Continuous
 62
     7
370
     9
100
AcDbCircle
 10
-1508.134824755381
 20
38.69983735991383
 30
0.0
 40
15.0
100
AcDbArc
 50
0.0
 51
180.0
  0
ARC
  5
78
330
1F
100
AcDbEntity
  8
0-0
  6
Continuous
 62
     7
370
     9
100
AcDbCircle
 10
-1508.134824755381
 20
-20.50016264008605
 30
0.0
 40
15.0
100
AcDbArc
 50
180.0
 51
0.0
  0
ARC
  5
79
330
1F
100
AcDbEntity
  8
0-0
  6
Continuous
 62
    92
370
    13
100
AcDbCircle
 10
-1527.63482475538
 20
-50.40016264008614
 30
0.0
 40
1.5
100
AcDbArc
 50
180.0
 51
270.0
  0
LINE
  5
7A
330
1F
100
AcDbEntity
  8
0-0
  6
Continuous
 62
    92
370
    13
100
AcDbLine
 10
-1529.13482475538
 20
-50.40016264008614
 30
0.0
 11
-1529.13482475538
 21
68.59983735991392
 31
0.0
  0
LINE
  5
7B
330
1F
100
AcDbEntity
  8
0-0
  6
Continuous
 62
    92
370
    13
100
AcDbLine
 10
-1527.63482475538
 20
-51.90016264008818
 30
0.0
 11
-1488.634824755381
 21
-51.90016264008818
 31
0.0
  0
ARC
  5
7C
330
1F
100
AcDbEntity
  8
0-0
  6
Continuous
 62
    92
370
    13
100
AcDbCircle
 10
-1488.634824755381
 20
-50.40016264008614
 30
0.0
 40
1.5
100
AcDbArc
 50
270.0
 51
0.0
  0
LINE
  5
7D
330
1F
100
AcDbEntity
  8
0-0
  6
Continuous
 62
    92
370
    13
100
AcDbLine
 10
-1487.134824755381
 20
-50.40016264008614
 30
0.0
 11
-1487.134824755381
 21
68.59983735991392
 31
0.0
  0
ARC
  5
7E
330
1F
100
AcDbEntity
  8
0-0
  6
Continuous
 62
    92
370
    13
100
AcDbCircle
 10
-1488.634824755381
 20
68.59983735991392
 30
0.0
 40
1.5
100
AcDbArc
 50
0.0
 51
90.00000000000001
  0
LINE
  5
7F
330
1F
100
AcDbEntity
  8
0-0
  6
Continuous
 62
    92
370
    13
100
AcDbLine
 10
-1488.634824755381
 20
70.09983735991341
 30
0.0
 11
-1527.63482475538
 21
70.09983735991341
 31
0.0
  0
ARC
  5
80
330
1F
100
AcDbEntity
  8
0-0
  6
Continuous
 62
    92
370
    13
100
AcDbCircle
 10
-1527.63482475538
 20
68.59983735991392
 30
0.0
 40
1.5
100
AcDbArc
 50
90.0
 51
180.0
  0
LINE
  5
81
330
1F
100
AcDbEntity
  8
0-0
  6
Continuous
 62
    92
370
    13
100
AcDbLine
 10
1617.865175244617
 20
-953.4001626400868
 30
0.0
 11
-1556.134824755381
 21
-953.4001626400868
 31
0.0
  0
LINE
  5
82
330
1F
100
AcDbEntity
  8
0-0
  6
Continuous
 62
    92
370
    13
100
AcDbLine
 10
1647.865175244617
 20
-968.4001626400868
 30
0.0
 11
-1586.134824755381
 21
-968.4001626400868
 31
0.0
  0
LINE
  5
83
330
1F
100
AcDbEntity
  8
0-0
  6
Continuous
 62
    92
370
    13
100
AcDbLine
 10
-1586.134824755381
 20
-968.4001626400868
 30
0.0
 11
-1586.134824755381
 21
1078.599837359914
 31
0.0
  0
LINE
  5
84
330
1F
100
AcDbEntity
  8
0-0
  6
Continuous
 62
    92
370
    13
100
AcDbLine
 10
1647.865175244617
 20
-968.4001626400868
 30
0.0
 11
1647.865175244617
 21
1078.599837359914
 31
0.0
  0
LINE
  5
85
330
1F
100
AcDbEntity
  8
0-0
  6
Continuous
 62
    92
370
    13
100
AcDbLine
 10
-1556.134824755381
 20
-968.4001626400868
 30
0.0
 11
-1556.134824755381
 21
1078.599837359914
 31
0.0
  0
LINE
  5
86
330
1F
100
AcDbEntity
  8
0-0
  6
Continuous
 62
    92
370
    13
100
AcDbLine
 10
1617.865175244617
 20
-968.4001626400868
 30
0.0
 11
1617.865175244617
 21
1078.599837359914
 31
0.0
  0
LINE
  5
87
330
1F
100
AcDbEntity
  8
0-0
  6
Continuous
 62
    92
370
    13
100
AcDbLine
 10
-1556.134824755381
 20
1042.599837359912
 30
0.0
 11
1617.865175244617
 21
1042.599837359912
 31
0.0
  0
LINE
  5
88
330
1F
100
AcDbEntity
  8
0-0
  6
Continuous
 62
    92
370
    13
100
AcDbLine
 10
-1586.134824755381
 20
1078.599837359914
 30
0.0
 11
1647.865175244617
 21
1078.599837359914
 31
0.0
  0
LINE
  5
89
330
1F
100
AcDbEntity
  8
0-0
  6
Continuous
 62
    92
370
    13
100
AcDbLine
 10
-1040.134824755381
 20
1034.599837359913
 30
0.0
 11
-1040.134824755381
 21
-948.400162640087
 31
0.0
  0
LINE
  5
8A
330
1F
100
AcDbEntity
  8
0-0
  6
Continuous
 62
    92
370
    13
100
AcDbLine
 10
-260.1348247553815
 20
1034.599837359913
 30
0.0
 11
-260.1348247553815
 21
-948.4001626400869
 31
0.0
  0
LINE
  5
8B
330
1F
100
AcDbEntity
  8
0-0
  6
Continuous
 62
    92
370
    13
100
AcDbLine
 10
549.8651752446185
 20
1034.599837359913
 30
0.0
 11
549.8651752446185
 21
-948.4001626400869
 31
0.0
  0
LINE
  5
8C
330
1F
100
AcDbEntity
  8
0-0
  6
Continuous
 62
    92
370
    13
100
AcDbLine
 10
1101.865175244619
 20
1034.599837359913
 30
0.0
 11
1101.865175244619
 21
-948.4001626400869
 31
0.0
  0
LINE
  5
8D
330
1F
100
AcDbEntity
  8
0-0
  6
Continuous
 62
    92
370
    13
100
AcDbLine
 10
321.8651752446195
 20
1034.599837359913
 30
0.0
 11
321.8651752446195
 21
-948.4001626400869
 31
0.0
  0
LINE
  5
8E
330
1F
100
AcDbEntity
  8
0-0
  6
Continuous
 62
    92
370
    13
100
AcDbLine
 10
-488.1348247553805
 20
1034.599837359913
 30
0.0
 11
-488.1348247553805
 21
-948.4001626400869
 31
0.0
  0
LINE
  5
8F
330
1F
100
AcDbEntity
  8
0-0
  6
Continuous
 62
    92
370
    13
100
AcDbLine
 10
-1268.134824755381
 20
1034.599837359913
 30
0.0
 11
-1268.134824755381
 21
-948.400162640087
 31
0.0
  0
LINE
  5
90
330
1F
100
AcDbEntity
  8
0-0
  6
Continuous
 62
    92
370
    13
100
AcDbLine
 10
1329.865175244619
 20
1034.599837359913
 30
0.0
 11
1329.865175244619
 21
-948.4001626400869
 31
0.0
  0
LINE
  5
91
330
1F
100
AcDbEntity
  8
0-0
  6
JWW_DASHED1
 62
   120
370
     5
100
AcDbLine
 10
1101.865175244619
 20
1015.016619152811
 30
0.0
 11
1113.448393451721
 21
1026.599837359913
 31
0.0
  0
LINE
  5
92
330
1F
100
AcDbEntity
  8
0-0
  6
JWW_DASHED1
 62
   120
370
     5
100
AcDbLine
 10
1101.865175244614
 20
1000.874483529073
 30
0.0
 11
1127.590529075453
 21
1026.599837359913
 31
0.0
  0
LINE
  5
93
330
1F
100
AcDbEntity
  8
0-0
  6
JWW_DASHED1
 62
   120
370
     5
100
AcDbLine
 10
1101.86517524461
 20
986.7323479053357
 30
0.0
 11
1141.732664699187
 21
1026.599837359913
 31
0.0
  0
LINE
  5
94
330
1F
100
AcDbEntity
  8
0-0
  6
JWW_DASHED1
 62
   120
370
     5
100
AcDbLine
 10
1101.865175244607
 20
972.590212281599
 30
0.0
 11
1155.87480032292
 21
1026.599837359913
 31
0.0
  0
LINE
  5
95
330
1F
100
AcDbEntity
  8
0-0
  6
JWW_DASHED1
 62
   120
370
     5
100
AcDbLine
 10
1101.865175244619
 20
958.4480766578776
 30
0.0
 11
1170.016935946653
 21
1026.599837359913
 31
0.0
  0
LINE
  5
96
330
1F
100
AcDbEntity
  8
0-0
  6
JWW_DASHED1
 62
   120
370
     5
100
AcDbLine
 10
1101.865175244614
 20
944.3059410341386
 30
0.0
 11
1184.159071570388
 21
1026.599837359913
 31
0.0
  0
LINE
  5
97
330
1F
100
AcDbEntity
  8
0-0
  6
JWW_DASHED1
 62
   120
370
     5
100
AcDbLine
 10
1101.86517524461
 20
930.1638054104019
 30
0.0
 11
1198.301207194121
 21
1026.599837359913
 31
0.0
  0
LINE
  5
98
330
1F
100
AcDbEntity
  8
0-0
  6
JWW_DASHED1
 62
   120
370
     5
100
AcDbLine
 10
1101.865175244607
 20
916.0216697866647
 30
0.0
 11
1212.443342817854
 21
1026.599837359913
 31
0.0
  0
LINE
  5
99
330
1F
100
AcDbEntity
  8
0-0
  6
JWW_DASHED1
 62
   120
370
     5
100
AcDbLine
 10
1101.865175244617
 20
901.879534162942
 30
0.0
 11
1226.585478441588
 21
1026.599837359913
 31
0.0
  0
LINE
  5
9A
330
1F
100
AcDbEntity
  8
0-0
  6
JWW_DASHED1
 62
   120
370
     5
100
AcDbLine
 10
1101.865175244614
 20
887.7373985392067
 30
0.0
 11
1240.72761406532
 21
1026.599837359913
 31
0.0
  0
LINE
  5
9B
330
1F
100
AcDbEntity
  8
0-0
  6
JWW_DASHED1
 62
   120
370
     5
100
AcDbLine
 10
1101.86517524461
 20
873.5952629154685
 30
0.0
 11
1254.869749689054
 21
1026.599837359913
 31
0.0
  0
LINE
  5
9C
330
1F
100
AcDbEntity
  8
0-0
  6
JWW_DASHED1
 62
   120
370
     5
100
AcDbLine
 10
1101.86517524462
 20
859.4531272917454
 30
0.0
 11
1269.011885312788
 21
1026.599837359913
 31
0.0
  0
LINE
  5
9D
330
1F
100
AcDbEntity
  8
0-0
  6
JWW_DASHED1
 62
   120
370
     5
100
AcDbLine
 10
1101.865175244618
 20
845.31099166801
 30
0.0
 11
1283.15402093652
 21
1026.599837359913
 31
0.0
  0
LINE
  5
9E
330
1F
100
AcDbEntity
  8
0-0
  6
JWW_DASHED1
 62
   120
370
     5
100
AcDbLine
 10
1101.865175244614
 20
831.1688560443006
 30
0.0
 11
1297.296156560226
 21
1026.599837359913
 31
0.0
  0
LINE
  5
9F
330
1F
100
AcDbEntity
  8
0-0
  6
JWW_DASHED1
 62
   120
370
     5
100
AcDbLine
 10
1101.865175244614
 20
817.0267204205945
 30
0.0
 11
1311.438292183932
 21
1026.599837359913
 31
0.0
  0
LINE
  5
A0
330
1F
100
AcDbEntity
  8
0-0
  6
JWW_DASHED1
 62
   120
370
     5
100
AcDbLine
 10
321.8651752446195
 20
1015.016619152811
 30
0.0
 11
333.4483934517201
 21
1026.599837359913
 31
0.0
  0
LINE
  5
A1
330
1F
100
AcDbEntity
  8
0-0
  6
JWW_DASHED1
 62
   120
370
     5
100
AcDbLine
 10
321.8651752446144
 20
1000.874483529073
 30
0.0
 11
347.5905290754534
 21
1026.599837359913
 31
0.0
  0
LINE
  5
A2
330
1F
100
AcDbEntity
  8
0-0
  6
JWW_DASHED1
 62
   120
370
     5
100
AcDbLine
 10
321.8651752446092
 20
986.7323479053357
 30
0.0
 11
361.7326646991867
 21
1026.599837359913
 31
0.0
  0
LINE
  5
A3
330
1F
100
AcDbEntity
  8
0-0
  6
JWW_DASHED1
 62
   120
370
     5
100
AcDbLine
 10
321.8651752446058
 20
972.590212281599
 30
0.0
 11
375.8748003229201
 21
1026.599837359913
 31
0.0
  0
LINE
  5
A4
330
1F
100
AcDbEntity
  8
0-0
  6
JWW_DASHED1
 62
   120
370
     5
100
AcDbLine
 10
321.8651752446195
 20
958.4480766578776
 30
0.0
 11
390.0169359466534
 21
1026.599837359913
 31
0.0
  0
LINE
  5
A5
330
1F
100
AcDbEntity
  8
0-0
  6
JWW_DASHED1
 62
   120
370
     5
100
AcDbLine
 10
321.8651752446127
 20
944.3059410341386
 30
0.0
 11
404.1590715703867
 21
1026.599837359913
 31
0.0
  0
LINE
  5
A6
330
1F
100
AcDbEntity
  8
0-0
  6
JWW_DASHED1
 62
   120
370
     5
100
AcDbLine
 10
321.8651752446092
 20
930.1638054104019
 30
0.0
 11
418.3012071941201
 21
1026.599837359913
 31
0.0
  0
LINE
  5
A7
330
1F
100
AcDbEntity
  8
0-0
  6
JWW_DASHED1
 62
   120
370
     5
100
AcDbLine
 10
321.8651752446058
 20
916.0216697866647
 30
0.0
 11
432.4433428178534
 21
1026.599837359913
 31
0.0
  0
LINE
  5
A8
330
1F
100
AcDbEntity
  8
0-0
  6
JWW_DASHED1
 62
   120
370
     5
100
AcDbLine
 10
321.8651752446161
 20
901.879534162942
 30
0.0
 11
446.5854784415868
 21
1026.599837359913
 31
0.0
  0
LINE
  5
A9
330
1F
100
AcDbEntity
  8
0-0
  6
JWW_DASHED1
 62
   120
370
     5
100
AcDbLine
 10
321.8651752446144
 20
887.7373985392067
 30
0.0
 11
460.7276140653201
 21
1026.599837359913
 31
0.0
  0
LINE
  5
AA
330
1F
100
AcDbEntity
  8
0-0
  6
JWW_DASHED1
 62
   120
370
     5
100
AcDbLine
 10
321.8651752446092
 20
873.5952629154685
 30
0.0
 11
474.8697496890534
 21
1026.599837359913
 31
0.0
  0
LINE
  5
AB
330
1F
100
AcDbEntity
  8
0-0
  6
JWW_DASHED1
 62
   120
370
     5
100
AcDbLine
 10
321.8651752446195
 20
859.4531272917454
 30
0.0
 11
489.0118853127868
 21
1026.599837359913
 31
0.0
  0
LINE
  5
AC
330
1F
100
AcDbEntity
  8
0-0
  6
JWW_DASHED1
 62
   120
370
     5
100
AcDbLine
 10
321.8651752446178
 20
845.31099166801
 30
0.0
 11
503.1540209365201
 21
1026.599837359913
 31
0.0
  0
LINE
  5
AD
330
1F
100
AcDbEntity
  8
0-0
  6
JWW_DASHED1
 62
   120
370
     5
100
AcDbLine
 10
321.8651752446144
 20
831.1688560443006
 30
0.0
 11
517.2961565602261
 21
1026.599837359913
 31
0.0
  0
LINE
  5
AE
330
1F
100
AcDbEntity
  8
0-0
  6
JWW_DASHED1
 62
   120
370
     5
100
AcDbLine
 10
321.8651752446144
 20
817.0267204205945
 30
0.0
 11
531.4382921839322
 21
1026.599837359913
 31
0.0
  0
LINE
  5
AF
330
1F
100
AcDbEntity
  8
0-0
  6
JWW_DASHED1
 62
   120
370
     5
100
AcDbLine
 10
321.8651752446092
 20
802.8845847968569
 30
0.0
 11
545.5804278076655
 21
1026.599837359913
 31
0.0
  0
LINE
  5
B0
330
1F
100
AcDbEntity
  8
0-0
  6
JWW_DASHED1
 62
   120
370
     5
100
AcDbLine
 10
-488.1348247553805
 20
1015.016619152811
 30
0.0
 11
-476.5516065482799
 21
1026.599837359913
 31
0.0
  0
LINE
  5
B1
330
1F
100
AcDbEntity
  8
0-0
  6
JWW_DASHED1
 62
   120
370
     5
100
AcDbLine
 10
-488.1348247553856
 20
1000.874483529073
 30
0.0
 11
-462.4094709245466
 21
1026.599837359913
 31
0.0
  0
LINE
  5
B2
330
1F
100
AcDbEntity
  8
0-0
  6
JWW_DASHED1
 62
   120
370
     5
100
AcDbLine
 10
-488.1348247553908
 20
986.7323479053357
 30
0.0
 11
-448.2673353008133
 21
1026.599837359913
 31
0.0
  0
LINE
  5
B3
330
1F
100
AcDbEntity
  8
0-0
  6
JWW_DASHED1
 62
   120
370
     5
100
AcDbLine
 10
-488.1348247553942
 20
972.590212281599
 30
0.0
 11
-434.1251996770799
 21
1026.599837359913
 31
0.0
  0
LINE
  5
B4
330
1F
100
AcDbEntity
  8
0-0
  6
JWW_DASHED1
 62
   120
370
     5
100
AcDbLine
 10
-488.1348247553805
 20
958.4480766578776
 30
0.0
 11
-419.9830640533466
 21
1026.599837359913
 31
0.0
  0
LINE
  5
B5
330
1F
100
AcDbEntity
  8
0-0
  6
JWW_DASHED1
 62
   120
370
     5
100
AcDbLine
 10
-488.1348247553873
 20
944.3059410341386
 30
0.0
 11
-405.8409284296133
 21
1026.599837359913
 31
0.0
  0
LINE
  5
B6
330
1F
100
AcDbEntity
  8
0-0
  6
JWW_DASHED1
 62
   120
370
     5
100
AcDbLine
 10
-488.1348247553908
 20
930.1638054104019
 30
0.0
 11
-391.6987928058799
 21
1026.599837359913
 31
0.0
  0
LINE
  5
B7
330
1F
100
AcDbEntity
  8
0-0
  6
JWW_DASHED1
 62
   120
370
     5
100
AcDbLine
 10
-488.1348247553942
 20
916.0216697866647
 30
0.0
 11
-377.5566571821466
 21
1026.599837359913
 31
0.0
  0
LINE
  5
B8
330
1F
100
AcDbEntity
  8
0-0
  6
JWW_DASHED1
 62
   120
370
     5
100
AcDbLine
 10
-488.1348247553839
 20
901.879534162942
 30
0.0
 11
-363.4145215584132
 21
1026.599837359913
 31
0.0
  0
LINE
  5
B9
330
1F
100
AcDbEntity
  8
0-0
  6
JWW_DASHED1
 62
   120
370
     5
100
AcDbLine
 10
-488.1348247553856
 20
887.7373985392067
 30
0.0
 11
-349.2723859346799
 21
1026.599837359913
 31
0.0
  0
LINE
  5
BA
330
1F
100
AcDbEntity
  8
0-0
  6
JWW_DASHED1
 62
   120
370
     5
100
AcDbLine
 10
-488.1348247553908
 20
873.5952629154685
 30
0.0
 11
-335.1302503109466
 21
1026.599837359913
 31
0.0
  0
LINE
  5
BB
330
1F
100
AcDbEntity
  8
0-0
  6
JWW_DASHED1
 62
   120
370
     5
100
AcDbLine
 10
-488.1348247553805
 20
859.4531272917454
 30
0.0
 11
-320.9881146872132
 21
1026.599837359913
 31
0.0
  0
LINE
  5
BC
330
1F
100
AcDbEntity
  8
0-0
  6
JWW_DASHED1
 62
   120
370
     5
100
AcDbLine
 10
-488.1348247553822
 20
845.31099166801
 30
0.0
 11
-306.8459790634799
 21
1026.599837359913
 31
0.0
  0
LINE
  5
BD
330
1F
100
AcDbEntity
  8
0-0
  6
JWW_DASHED1
 62
   120
370
     5
100
AcDbLine
 10
-488.1348247553856
 20
831.1688560443006
 30
0.0
 11
-292.7038434397738
 21
1026.599837359913
 31
0.0
  0
LINE
  5
BE
330
1F
100
AcDbEntity
  8
0-0
  6
JWW_DASHED1
 62
   120
370
     5
100
AcDbLine
 10
-488.1348247553856
 20
817.0267204205945
 30
0.0
 11
-278.5617078160678
 21
1026.599837359913
 31
0.0
  0
LINE
  5
BF
330
1F
100
AcDbEntity
  8
0-0
  6
JWW_DASHED1
 62
   120
370
     5
100
AcDbLine
 10
-488.1348247553908
 20
802.8845847968569
 30
0.0
 11
-264.4195721923344
 21
1026.599837359913
 31
0.0
  0
LINE
  5
C0
330
1F
100
AcDbEntity
  8
0-0
  6
JWW_DASHED1
 62
   120
370
     5
100
AcDbLine
 10
-1268.134824755381
 20
1015.01661915281
 30
0.0
 11
-1256.55160654828
 21
1026.599837359913
 31
0.0
  0
LINE
  5
C1
330
1F
100
AcDbEntity
  8
0-0
  6
JWW_DASHED1
 62
   120
370
     5
100
AcDbLine
 10
-1268.134824755386
 20
1000.874483529073
 30
0.0
 11
-1242.409470924547
 21
1026.599837359913
 31
0.0
  0
LINE
  5
C2
330
1F
100
AcDbEntity
  8
0-0
  6
JWW_DASHED1
 62
   120
370
     5
100
AcDbLine
 10
-1268.134824755391
 20
986.7323479053357
 30
0.0
 11
-1228.267335300813
 21
1026.599837359913
 31
0.0
  0
LINE
  5
C3
330
1F
100
AcDbEntity
  8
0-0
  6
JWW_DASHED1
 62
   120
370
     5
100
AcDbLine
 10
-1268.134824755394
 20
972.5902122815985
 30
0.0
 11
-1214.12519967708
 21
1026.599837359913
 31
0.0
  0
LINE
  5
C4
330
1F
100
AcDbEntity
  8
0-0
  6
JWW_DASHED1
 62
   120
370
     5
100
AcDbLine
 10
-1268.134824755381
 20
958.4480766578771
 30
0.0
 11
-1199.983064053347
 21
1026.599837359913
 31
0.0
  0
LINE
  5
C5
330
1F
100
AcDbEntity
  8
0-0
  6
JWW_DASHED1
 62
   120
370
     5
100
AcDbLine
 10
-1268.134824755387
 20
944.3059410341382
 30
0.0
 11
-1185.840928429613
 21
1026.599837359913
 31
0.0
  0
LINE
  5
C6
330
1F
100
AcDbEntity
  8
0-0
  6
JWW_DASHED1
 62
   120
370
     5
100
AcDbLine
 10
-1268.134824755391
 20
930.1638054104014
 30
0.0
 11
-1171.69879280588
 21
1026.599837359913
 31
0.0
  0
LINE
  5
C7
330
1F
100
AcDbEntity
  8
0-0
  6
JWW_DASHED1
 62
   120
370
     5
100
AcDbLine
 10
-1268.134824755394
 20
916.0216697866647
 30
0.0
 11
-1157.556657182147
 21
1026.599837359913
 31
0.0
  0
LINE
  5
C8
330
1F
100
AcDbEntity
  8
0-0
  6
JWW_DASHED1
 62
   120
370
     5
100
AcDbLine
 10
-1268.134824755384
 20
901.8795341629416
 30
0.0
 11
-1143.414521558413
 21
1026.599837359913
 31
0.0
  0
LINE
  5
C9
330
1F
100
AcDbEntity
  8
0-0
  6
JWW_DASHED1
 62
   120
370
     5
100
AcDbLine
 10
-1268.134824755386
 20
887.7373985392062
 30
0.0
 11
-1129.27238593468
 21
1026.599837359913
 31
0.0
  0
LINE
  5
CA
330
1F
100
AcDbEntity
  8
0-0
  6
JWW_DASHED1
 62
   120
370
     5
100
AcDbLine
 10
-1268.134824755391
 20
873.5952629154681
 30
0.0
 11
-1115.130250310947
 21
1026.599837359913
 31
0.0
  0
LINE
  5
CB
330
1F
100
AcDbEntity
  8
0-0
  6
JWW_DASHED1
 62
   120
370
     5
100
AcDbLine
 10
-1268.134824755381
 20
859.453127291745
 30
0.0
 11
-1100.988114687213
 21
1026.599837359913
 31
0.0
  0
LINE
  5
CC
330
1F
100
AcDbEntity
  8
0-0
  6
JWW_DASHED1
 62
   120
370
     5
100
AcDbLine
 10
-1268.134824755382
 20
845.3109916680096
 30
0.0
 11
-1086.84597906348
 21
1026.599837359913
 31
0.0
  0
LINE
  5
CD
330
1F
100
AcDbEntity
  8
0-0
  6
JWW_DASHED1
 62
   120
370
     5
100
AcDbLine
 10
-1268.134824755386
 20
831.1688560443006
 30
0.0
 11
-1072.703843439774
 21
1026.599837359913
 31
0.0
  0
LINE
  5
CE
330
1F
100
AcDbEntity
  8
0-0
  6
JWW_DASHED1
 62
   120
370
     5
100
AcDbLine
 10
-1268.134824755386
 20
817.0267204205941
 30
0.0
 11
-1058.561707816068
 21
1026.599837359913
 31
0.0
  0
LINE
  5
CF
330
1F
100
AcDbEntity
  8
0-0
  6
JWW_DASHED1
 62
   120
370
     5
100
AcDbLine
 10
-1268.134824755391
 20
802.8845847968569
 30
0.0
 11
-1044.419572192334
 21
1026.599837359913
 31
0.0
  0
LINE
  5
D0
330
1F
100
AcDbEntity
  8
0-0
  6
JWW_DASHED1
 62
   120
370
     5
100
AcDbLine
 10
1101.86517524461
 20
802.8845847968569
 30
0.0
 11
1325.580427807666
 21
1026.599837359913
 31
0.0
  0
LINE
  5
D1
330
1F
100
AcDbEntity
  8
0-0
  6
Continuous
 62
     7
370
     9
100
AcDbLine
 10
1101.865175244619
 20
1026.599837359913
 30
0.0
 11
1329.865175244619
 21
1026.599837359913
 31
0.0
  0
LINE
  5
D2
330
1F
100
AcDbEntity
  8
0-0
  6
Continuous
 62
     7
370
     9
100
AcDbLine
 10
321.8651752446195
 20
1026.599837359913
 30
0.0
 11
549.8651752446185
 21
1026.599837359913
 31
0.0
  0
LINE
  5
D3
330
1F
100
AcDbEntity
  8
0-0
  6
Continuous
 62
     7
370
     9
100
AcDbLine
 10
-488.1348247553805
 20
1026.599837359913
 30
0.0
 11
-260.1348247553815
 21
1026.599837359913
 31
0.0
  0
LINE
  5
D4
330
1F
100
AcDbEntity
  8
0-0
  6
Continuous
 62
     7
370
     9
100
AcDbLine
 10
-1268.134824755381
 20
1026.599837359912
 30
0.0
 11
-1040.134824755381
 21
1026.599837359912
 31
0.0
  0
LINE
  5
D5
330
1F
100
AcDbEntity
  8
0-0
  6
JWW_DASHED1
 62
   120
370
     5
100
AcDbLine
 10
1101.86517524462
 20
788.7424491731333
 30
0.0
 11
1329.865175244619
 21
1016.742449173132
 31
0.0
  0
LINE
  5
D6
330
1F
100
AcDbEntity
  8
0-0
  6
JWW_DASHED1
 62
   120
370
     5
100
AcDbLine
 10
1101.865175244618
 20
774.6003135493979
 30
0.0
 11
1329.865175244615
 21
1002.600313549395
 31
0.0
  0
LINE
  5
D7
330
1F
100
AcDbEntity
  8
0-0
  6
JWW_DASHED1
 62
   120
370
     5
100
AcDbLine
 10
1101.865175244614
 20
760.4581779256612
 30
0.0
 11
1329.865175244627
 21
988.4581779256737
 31
0.0
  0
LINE
  5
D8
330
1F
100
AcDbEntity
  8
0-0
  6
JWW_DASHED1
 62
   120
370
     5
100
AcDbLine
 10
1101.86517524461
 20
746.3160423019231
 30
0.0
 11
1329.865175244606
 21
974.3160423019199
 31
0.0
  0
LINE
  5
D9
330
1F
100
AcDbEntity
  8
0-0
  6
JWW_DASHED1
 62
   120
370
     5
100
AcDbLine
 10
1101.865175244622
 20
732.1739066782021
 30
0.0
 11
1329.865175244619
 21
960.1739066781986
 31
0.0
  0
LINE
  5
DA
330
1F
100
AcDbEntity
  8
0-0
  6
JWW_DASHED1
 62
   120
370
     5
100
AcDbLine
 10
1101.865175244615
 20
718.031771054462
 30
0.0
 11
1329.865175244629
 21
946.0317710544763
 31
0.0
  0
LINE
  5
DB
330
1F
100
AcDbEntity
  8
0-0
  6
JWW_DASHED1
 62
   120
370
     5
100
AcDbLine
 10
1101.865175244614
 20
703.8896354307269
 30
0.0
 11
1329.865175244611
 21
931.8896354307237
 31
0.0
  0
LINE
  5
DC
330
1F
100
AcDbEntity
  8
0-0
  6
JWW_DASHED1
 62
   120
370
     5
100
AcDbLine
 10
1101.86517524461
 20
689.7474998069897
 30
0.0
 11
1329.865175244623
 21
917.7474998070028
 31
0.0
  0
LINE
  5
DD
330
1F
100
AcDbEntity
  8
0-0
  6
JWW_DASHED1
 62
   120
370
     5
100
AcDbLine
 10
1101.865175244619
 20
675.6053641832654
 30
0.0
 11
1329.865175244633
 21
903.6053641832797
 31
0.0
  0
LINE
  5
DE
330
1F
100
AcDbEntity
  8
0-0
  6
JWW_DASHED1
 62
   120
370
     5
100
AcDbLine
 10
1101.865175244618
 20
661.4632285595312
 30
0.0
 11
1329.865175244615
 21
889.4632285595276
 31
0.0
  0
LINE
  5
DF
330
1F
100
AcDbEntity
  8
0-0
  6
JWW_DASHED1
 62
   120
370
     5
100
AcDbLine
 10
1101.865175244614
 20
647.3210929357936
 30
0.0
 11
1329.865175244626
 21
875.3210929358062
 31
0.0
  0
LINE
  5
E0
330
1F
100
AcDbEntity
  8
0-0
  6
JWW_DASHED1
 62
   120
370
     5
100
AcDbLine
 10
1101.86517524461
 20
633.1789573120564
 30
0.0
 11
1329.865175244606
 21
861.1789573120532
 31
0.0
  0
LINE
  5
E1
330
1F
100
AcDbEntity
  8
0-0
  6
JWW_DASHED1
 62
   120
370
     5
100
AcDbLine
 10
1101.865175244621
 20
619.0368216883346
 30
0.0
 11
1329.865175244619
 21
847.0368216883319
 31
0.0
  0
LINE
  5
E2
330
1F
100
AcDbEntity
  8
0-0
  6
JWW_DASHED1
 62
   120
370
     5
100
AcDbLine
 10
1101.865175244614
 20
604.8946860645945
 30
0.0
 11
1329.865175244629
 21
832.8946860646088
 31
0.0
  0
LINE
  5
E3
330
1F
100
AcDbEntity
  8
0-0
  6
JWW_DASHED1
 62
   120
370
     5
100
AcDbLine
 10
1101.865175244614
 20
590.7525504408602
 30
0.0
 11
1329.865175244611
 21
818.7525504408566
 31
0.0
  0
LINE
  5
E4
330
1F
100
AcDbEntity
  8
0-0
  6
JWW_DASHED1
 62
   120
370
     5
100
AcDbLine
 10
1101.865175244609
 20
576.6104148171225
 30
0.0
 11
1329.865175244623
 21
804.6104148171353
 31
0.0
  0
LINE
  5
E5
330
1F
100
AcDbEntity
  8
0-0
  6
JWW_DASHED1
 62
   120
370
     5
100
AcDbLine
 10
1101.865175244618
 20
562.4682791933978
 30
0.0
 11
1329.865175244632
 21
790.4682791934122
 31
0.0
  0
LINE
  5
E6
330
1F
100
AcDbEntity
  8
0-0
  6
JWW_DASHED1
 62
   120
370
     5
100
AcDbLine
 10
1101.865175244618
 20
548.3261435696645
 30
0.0
 11
1329.865175244614
 21
776.3261435696604
 31
0.0
  0
LINE
  5
E7
330
1F
100
AcDbEntity
  8
0-0
  6
JWW_DASHED1
 62
   120
370
     5
100
AcDbLine
 10
1101.865175244614
 20
534.1840079459269
 30
0.0
 11
1329.865175244626
 21
762.1840079459395
 31
0.0
  0
LINE
  5
E8
330
1F
100
AcDbEntity
  8
0-0
  6
JWW_DASHED1
 62
   120
370
     5
100
AcDbLine
 10
1101.86517524461
 20
520.0418723221892
 30
0.0
 11
1329.865175244606
 21
748.0418723221865
 31
0.0
  0
LINE
  5
E9
330
1F
100
AcDbEntity
  8
0-0
  6
JWW_DASHED1
 62
   120
370
     5
100
AcDbLine
 10
1101.865175244621
 20
505.8997366984678
 30
0.0
 11
1329.865175244618
 21
733.8997366984643
 31
0.0
  0
LINE
  5
EA
330
1F
100
AcDbEntity
  8
0-0
  6
JWW_DASHED1
 62
   120
370
     5
100
AcDbLine
 10
1101.865175244613
 20
491.757601074726
 30
0.0
 11
1329.865175244628
 21
719.7576010747403
 31
0.0
  0
LINE
  5
EB
330
1F
100
AcDbEntity
  8
0-0
  6
JWW_DASHED1
 62
   120
370
     5
100
AcDbLine
 10
1101.865175244614
 20
477.6154654509935
 30
0.0
 11
1329.86517524461
 21
705.6154654509899
 31
0.0
  0
LINE
  5
EC
330
1F
100
AcDbEntity
  8
0-0
  6
JWW_DASHED1
 62
   120
370
     5
100
AcDbLine
 10
1101.865175244609
 20
463.4733298272559
 30
0.0
 11
1329.865175244622
 21
691.4733298272686
 31
0.0
  0
LINE
  5
ED
330
1F
100
AcDbEntity
  8
0-0
  6
JWW_DASHED1
 62
   120
370
     5
100
AcDbLine
 10
1101.865175244608
 20
449.3311942035481
 30
0.0
 11
1329.86517524462
 21
677.3311942035607
 31
0.0
  0
LINE
  5
EE
330
1F
100
AcDbEntity
  8
0-0
  6
JWW_DASHED1
 62
   120
370
     5
100
AcDbLine
 10
1101.865175244622
 20
435.1890585798557
 30
0.0
 11
1329.865175244619
 21
663.189058579853
 31
0.0
  0
LINE
  5
EF
330
1F
100
AcDbEntity
  8
0-0
  6
JWW_DASHED1
 62
   120
370
     5
100
AcDbLine
 10
1101.865175244613
 20
421.0469229561139
 30
0.0
 11
1329.865175244627
 21
649.0469229561281
 31
0.0
  0
LINE
  5
F0
330
1F
100
AcDbEntity
  8
0-0
  6
JWW_DASHED1
 62
   120
370
     5
100
AcDbLine
 10
1101.865175244614
 20
406.9047873323814
 30
0.0
 11
1329.865175244611
 21
634.9047873323777
 31
0.0
  0
LINE
  5
F1
330
1F
100
AcDbEntity
  8
0-0
  6
JWW_DASHED1
 62
   120
370
     5
100
AcDbLine
 10
1101.865175244609
 20
392.7626517086438
 30
0.0
 11
1329.865175244622
 21
620.7626517086564
 31
0.0
  0
LINE
  5
F2
330
1F
100
AcDbEntity
  8
0-0
  6
JWW_DASHED1
 62
   120
370
     5
100
AcDbLine
 10
1101.865175244616
 20
378.6205160849173
 30
0.0
 11
1329.86517524463
 21
606.6205160849315
 31
0.0
  0
LINE
  5
F3
330
1F
100
AcDbEntity
  8
0-0
  6
JWW_DASHED1
 62
   120
370
     5
100
AcDbLine
 10
1101.865175244617
 20
364.4783804611848
 30
0.0
 11
1329.865175244614
 21
592.4783804611816
 31
0.0
  0
LINE
  5
F4
330
1F
100
AcDbEntity
  8
0-0
  6
JWW_DASHED1
 62
   120
370
     5
100
AcDbLine
 10
1101.865175244614
 20
350.336244837448
 30
0.0
 11
1329.865175244626
 21
578.3362448374606
 31
0.0
  0
LINE
  5
F5
330
1F
100
AcDbEntity
  8
0-0
  6
JWW_DASHED1
 62
   120
370
     5
100
AcDbLine
 10
1101.865175244609
 20
336.1941092137104
 30
0.0
 11
1329.865175244606
 21
564.1941092137068
 31
0.0
  0
LINE
  5
F6
330
1F
100
AcDbEntity
  8
0-0
  6
JWW_DASHED1
 62
   120
370
     5
100
AcDbLine
 10
1101.865175244621
 20
322.051973589989
 30
0.0
 11
1329.865175244618
 21
550.0519735899854
 31
0.0
  0
LINE
  5
F7
330
1F
100
AcDbEntity
  8
0-0
  6
JWW_DASHED1
 62
   120
370
     5
100
AcDbLine
 10
1101.865175244611
 20
307.9098379662454
 30
0.0
 11
1329.865175244626
 21
535.9098379662598
 31
0.0
  0
LINE
  5
F8
330
1F
100
AcDbEntity
  8
0-0
  6
JWW_DASHED1
 62
   120
370
     5
100
AcDbLine
 10
1101.865175244614
 20
293.7677023425147
 30
0.0
 11
1329.86517524461
 21
521.767702342511
 31
0.0
  0
LINE
  5
F9
330
1F
100
AcDbEntity
  8
0-0
  6
JWW_DASHED1
 62
   120
370
     5
100
AcDbLine
 10
1101.865175244625
 20
279.6255667187924
 30
0.0
 11
1329.865175244622
 21
507.6255667187897
 31
0.0
  0
LINE
  5
FA
330
1F
100
AcDbEntity
  8
0-0
  6
JWW_DASHED1
 62
   120
370
     5
100
AcDbLine
 10
1101.865175244614
 20
265.4834310950488
 30
0.0
 11
1329.865175244629
 21
493.4834310950632
 31
0.0
  0
LINE
  5
FB
330
1F
100
AcDbEntity
  8
0-0
  6
JWW_DASHED1
 62
   120
370
     5
100
AcDbLine
 10
1101.865175244617
 20
251.3412954713181
 30
0.0
 11
1329.865175244614
 21
479.3412954713145
 31
0.0
  0
LINE
  5
FC
330
1F
100
AcDbEntity
  8
0-0
  6
JWW_DASHED1
 62
   120
370
     5
100
AcDbLine
 10
1101.865175244614
 20
237.1991598475805
 30
0.0
 11
1329.865175244625
 21
465.1991598475931
 31
0.0
  0
LINE
  5
FD
330
1F
100
AcDbEntity
  8
0-0
  6
JWW_DASHED1
 62
   120
370
     5
100
AcDbLine
 10
1101.865175244619
 20
223.0570242238531
 30
0.0
 11
1329.865175244617
 21
451.0570242238512
 31
0.0
  0
LINE
  5
FE
330
1F
100
AcDbEntity
  8
0-0
  6
JWW_DASHED1
 62
   120
370
     5
100
AcDbLine
 10
1101.86517524462
 20
208.9148886001215
 30
0.0
 11
1329.865175244618
 21
436.9148886001187
 31
0.0
  0
LINE
  5
FF
330
1F
100
AcDbEntity
  8
0-0
  6
JWW_DASHED1
 62
   120
370
     5
100
AcDbLine
 10
1101.865175244617
 20
194.7727529763847
 30
0.0
 11
1329.865175244629
 21
422.7727529763973
 31
0.0
  0
LINE
  5
100
330
1F
100
AcDbEntity
  8
0-0
  6
JWW_DASHED1
 62
   120
370
     5
100
AcDbLine
 10
1101.865175244613
 20
180.6306173526471
 30
0.0
 11
1329.865175244609
 21
408.6306173526435
 31
0.0
  0
LINE
  5
101
330
1F
100
AcDbEntity
  8
0-0
  6
JWW_DASHED1
 62
   120
370
     5
100
AcDbLine
 10
1101.865175244625
 20
166.4884817289257
 30
0.0
 11
1329.865175244621
 21
394.4884817289221
 31
0.0
  0
LINE
  5
102
330
1F
100
AcDbEntity
  8
0-0
  6
JWW_DASHED1
 62
   120
370
     5
100
AcDbLine
 10
1101.865175244614
 20
152.3463461051813
 30
0.0
 11
1329.865175244628
 21
380.3463461051956
 31
0.0
  0
LINE
  5
103
330
1F
100
AcDbEntity
  8
0-0
  6
JWW_DASHED1
 62
   120
370
     5
100
AcDbLine
 10
1101.865175244617
 20
138.2042104814514
 30
0.0
 11
1329.865175244613
 21
366.2042104814478
 31
0.0
  0
LINE
  5
104
330
1F
100
AcDbEntity
  8
0-0
  6
JWW_DASHED1
 62
   120
370
     5
100
AcDbLine
 10
1101.865175244613
 20
124.0620748577138
 30
0.0
 11
1329.865175244625
 21
352.0620748577264
 31
0.0
  0
LINE
  5
105
330
1F
100
AcDbEntity
  8
0-0
  6
JWW_DASHED1
 62
   120
370
     5
100
AcDbLine
 10
1101.865175244617
 20
109.9199392339847
 30
0.0
 11
1329.865175244631
 21
337.919939233999
 31
0.0
  0
LINE
  5
106
330
1F
100
AcDbEntity
  8
0-0
  6
JWW_DASHED1
 62
   120
370
     5
100
AcDbLine
 10
1101.86517524462
 20
95.77780361025475
 30
0.0
 11
1329.865175244617
 21
323.7778036102512
 31
0.0
  0
LINE
  5
107
330
1F
100
AcDbEntity
  8
0-0
  6
JWW_DASHED1
 62
   120
370
     5
100
AcDbLine
 10
1101.865175244616
 20
81.63566798651715
 30
0.0
 11
1329.865175244629
 21
309.6356679865298
 31
0.0
  0
LINE
  5
108
330
1F
100
AcDbEntity
  8
0-0
  6
JWW_DASHED1
 62
   120
370
     5
100
AcDbLine
 10
1101.865175244613
 20
67.4935323627804
 30
0.0
 11
1329.865175244609
 21
295.4935323627768
 31
0.0
  0
LINE
  5
109
330
1F
100
AcDbEntity
  8
0-0
  6
JWW_DASHED1
 62
   120
370
     5
100
AcDbLine
 10
1101.865175244613
 20
53.35139673910163
 30
0.0
 11
1329.865175244625
 21
281.3513967391143
 31
0.0
  0
LINE
  5
10A
330
1F
100
AcDbEntity
  8
0-0
  6
JWW_DASHED1
 62
   120
370
     5
100
AcDbLine
 10
1101.865175244617
 20
39.20926111537256
 30
0.0
 11
1329.865175244631
 21
267.2092611153869
 31
0.0
  0
LINE
  5
10B
330
1F
100
AcDbEntity
  8
0-0
  6
JWW_DASHED1
 62
   120
370
     5
100
AcDbLine
 10
1101.86517524462
 20
25.06712549164263
 30
0.0
 11
1329.865175244618
 21
253.0671254916399
 31
0.0
  0
LINE
  5
10C
330
1F
100
AcDbEntity
  8
0-0
  6
JWW_DASHED1
 62
   120
370
     5
100
AcDbLine
 10
1101.865175244617
 20
10.92498986790588
 30
0.0
 11
1329.865175244629
 21
238.9249898679176
 31
0.0
  0
LINE
  5
10D
330
1F
100
AcDbEntity
  8
0-0
  6
JWW_DASHED1
 62
   120
370
     5
100
AcDbLine
 10
1101.865175244613
 20
-3.217145755831723
 30
0.0
 11
1329.865175244609
 21
224.7828542441647
 31
0.0
  0
LINE
  5
10E
330
1F
100
AcDbEntity
  8
0-0
  6
JWW_DASHED1
 62
   120
370
     5
100
AcDbLine
 10
1101.865175244625
 20
-17.35928137955312
 30
0.0
 11
1329.865175244621
 21
210.6407186204433
 31
0.0
  0
LINE
  5
10F
330
1F
100
AcDbEntity
  8
0-0
  6
JWW_DASHED1
 62
   120
370
     5
100
AcDbLine
 10
1101.865175244612
 20
-31.50141700329925
 30
0.0
 11
1329.865175244626
 21
196.4985829967151
 31
0.0
  0
LINE
  5
110
330
1F
100
AcDbEntity
  8
0-0
  6
JWW_DASHED1
 62
   120
370
     5
100
AcDbLine
 10
1101.865175244616
 20
-45.64355262702833
 30
0.0
 11
1329.865175244613
 21
182.3564473729689
 31
0.0
  0
LINE
  5
111
330
1F
100
AcDbEntity
  8
0-0
  6
JWW_DASHED1
 62
   120
370
     5
100
AcDbLine
 10
1101.865175244613
 20
-59.78568825076508
 30
0.0
 11
1329.865175244625
 21
168.2143117492475
 31
0.0
  0
LINE
  5
112
330
1F
100
AcDbEntity
  8
0-0
  6
JWW_DASHED1
 62
   120
370
     5
100
AcDbLine
 10
1101.865175244615
 20
-73.92782387449586
 30
0.0
 11
1329.865175244629
 21
154.0721761255185
 31
0.0
  0
LINE
  5
113
330
1F
100
AcDbEntity
  8
0-0
  6
JWW_DASHED1
 62
   120
370
     5
100
AcDbLine
 10
1101.86517524462
 20
-88.06995949822408
 30
0.0
 11
1329.865175244617
 21
139.9300405017723
 31
0.0
  0
LINE
  5
114
330
1F
100
AcDbEntity
  8
0-0
  6
JWW_DASHED1
 62
   120
370
     5
100
AcDbLine
 10
1101.865175244616
 20
-102.2120951219617
 30
0.0
 11
1329.865175244629
 21
125.7879048780509
 31
0.0
  0
LINE
  5
115
330
1F
100
AcDbEntity
  8
0-0
  6
JWW_DASHED1
 62
   120
370
     5
100
AcDbLine
 10
1101.865175244612
 20
-116.3542307456984
 30
0.0
 11
1329.865175244609
 21
111.645769254298
 31
0.0
  0
LINE
  5
116
330
1F
100
AcDbEntity
  8
0-0
  6
JWW_DASHED1
 62
   120
370
     5
100
AcDbLine
 10
1101.865175244624
 20
-130.4963663694207
 30
0.0
 11
1329.865175244621
 21
97.50363363057659
 31
0.0
  0
LINE
  5
117
330
1F
100
AcDbEntity
  8
0-0
  6
JWW_DASHED1
 62
   120
370
     5
100
AcDbLine
 10
1101.86517524461
 20
-144.6385019931668
 30
0.0
 11
1329.865175244625
 21
83.36149800684751
 31
0.0
  0
LINE
  5
118
330
1F
100
AcDbEntity
  8
0-0
  6
JWW_DASHED1
 62
   120
370
     5
100
AcDbLine
 10
1101.865175244616
 20
-158.780637616895
 30
0.0
 11
1329.865175244613
 21
69.21936238310224
 31
0.0
  0
LINE
  5
119
330
1F
100
AcDbEntity
  8
0-0
  6
JWW_DASHED1
 62
   120
370
     5
100
AcDbLine
 10
1101.865175244628
 20
-172.9227732406164
 30
0.0
 11
1329.865175244624
 21
55.07722675937998
 31
0.0
  0
LINE
  5
11A
330
1F
100
AcDbEntity
  8
0-0
  6
JWW_DASHED1
 62
   120
370
     5
100
AcDbLine
 10
1101.865175244614
 20
-187.0649088643634
 30
0.0
 11
1329.865175244629
 21
40.93509113565091
 31
0.0
  0
LINE
  5
11B
330
1F
100
AcDbEntity
  8
0-0
  6
JWW_DASHED1
 62
   120
370
     5
100
AcDbLine
 10
1101.86517524462
 20
-201.2070444880908
 30
0.0
 11
1329.865175244617
 21
26.79295551190563
 31
0.0
  0
LINE
  5
11C
330
1F
100
AcDbEntity
  8
0-0
  6
JWW_DASHED1
 62
   120
370
     5
100
AcDbLine
 10
1101.865175244616
 20
-215.3491801118284
 30
0.0
 11
1329.865175244629
 21
12.65081988818423
 31
0.0
  0
LINE
  5
11D
330
1F
100
AcDbEntity
  8
0-0
  6
JWW_DASHED1
 62
   120
370
     5
100
AcDbLine
 10
1101.865175244618
 20
-229.49131573556
 30
0.0
 11
1329.865175244616
 21
-1.491315735561898
 31
0.0
  0
LINE
  5
11E
330
1F
100
AcDbEntity
  8
0-0
  6
JWW_DASHED1
 62
   120
370
     5
100
AcDbLine
 10
1101.865175244624
 20
-243.6334513592874
 30
0.0
 11
1329.86517524462
 21
-15.63345135929097
 31
0.0
  0
LINE
  5
11F
330
1F
100
AcDbEntity
  8
0-0
  6
JWW_DASHED1
 62
   120
370
     5
100
AcDbLine
 10
1101.86517524462
 20
-257.7755869830241
 30
0.0
 11
1329.865175244632
 21
-29.77558698301237
 31
0.0
  0
LINE
  5
120
330
1F
100
AcDbEntity
  8
0-0
  6
JWW_DASHED1
 62
   120
370
     5
100
AcDbLine
 10
1101.865175244616
 20
-271.9177226067617
 30
0.0
 11
1329.865175244613
 21
-43.91772260676532
 31
0.0
  0
LINE
  5
121
330
1F
100
AcDbEntity
  8
0-0
  6
JWW_DASHED1
 62
   120
370
     5
100
AcDbLine
 10
1101.865175244627
 20
-286.059858230484
 30
0.0
 11
1329.865175244624
 21
-58.05985823048673
 31
0.0
  0
LINE
  5
122
330
1F
100
AcDbEntity
  8
0-0
  6
JWW_DASHED1
 62
   120
370
     5
100
AcDbLine
 10
1101.865175244614
 20
-300.201993854231
 30
0.0
 11
1329.865175244628
 21
-72.2019938542175
 31
0.0
  0
LINE
  5
123
330
1F
100
AcDbEntity
  8
0-0
  6
JWW_DASHED1
 62
   120
370
     5
100
AcDbLine
 10
1101.865175244619
 20
-314.3441294779583
 30
0.0
 11
1329.865175244616
 21
-86.34412947796108
 31
0.0
  0
LINE
  5
124
330
1F
100
AcDbEntity
  8
0-0
  6
JWW_DASHED1
 62
   120
370
     5
100
AcDbLine
 10
1101.865175244618
 20
-328.4862651016661
 30
0.0
 11
1329.86517524463
 21
-100.4862651016535
 31
0.0
  0
LINE
  5
125
330
1F
100
AcDbEntity
  8
0-0
  6
JWW_DASHED1
 62
   120
370
     5
100
AcDbLine
 10
1101.865175244616
 20
-342.6284007253739
 30
0.0
 11
1329.865175244613
 21
-114.6284007253774
 31
0.0
  0
LINE
  5
126
330
1F
100
AcDbEntity
  8
0-0
  6
JWW_DASHED1
 62
   120
370
     5
100
AcDbLine
 10
1101.865175244628
 20
-356.7705363490953
 30
0.0
 11
1329.865175244624
 21
-128.7705363490988
 31
0.0
  0
LINE
  5
127
330
1F
100
AcDbEntity
  8
0-0
  6
JWW_DASHED1
 62
   120
370
     5
100
AcDbLine
 10
1101.865175244613
 20
-370.912671972844
 30
0.0
 11
1329.865175244627
 21
-142.9126719728296
 31
0.0
  0
LINE
  5
128
330
1F
100
AcDbEntity
  8
0-0
  6
JWW_DASHED1
 62
   120
370
     5
100
AcDbLine
 10
1101.865175244619
 20
-385.0548075965705
 30
0.0
 11
1329.865175244617
 21
-157.0548075965732
 31
0.0
  0
LINE
  5
129
330
1F
100
AcDbEntity
  8
0-0
  6
JWW_DASHED1
 62
   120
370
     5
100
AcDbLine
 10
1101.865175244616
 20
-399.1969432203072
 30
0.0
 11
1329.865175244628
 21
-171.1969432202955
 31
0.0
  0
LINE
  5
12A
330
1F
100
AcDbEntity
  8
0-0
  6
JWW_DASHED1
 62
   120
370
     5
100
AcDbLine
 10
1101.865175244616
 20
-413.3390788440406
 30
0.0
 11
1329.86517524463
 21
-185.3390788440262
 31
0.0
  0
LINE
  5
12B
330
1F
100
AcDbEntity
  8
0-0
  6
JWW_DASHED1
 62
   120
370
     5
100
AcDbLine
 10
1101.865175244624
 20
-427.4812144677662
 30
0.0
 11
1329.86517524462
 21
-199.4812144677698
 31
0.0
  0
LINE
  5
12C
330
1F
100
AcDbEntity
  8
0-0
  6
JWW_DASHED1
 62
   120
370
     5
100
AcDbLine
 10
1101.865175244619
 20
-441.6233500915038
 30
0.0
 11
1329.865175244632
 21
-213.6233500914912
 31
0.0
  0
LINE
  5
12D
330
1F
100
AcDbEntity
  8
0-0
  6
JWW_DASHED1
 62
   120
370
     5
100
AcDbLine
 10
1101.865175244615
 20
-455.7654857152414
 30
0.0
 11
1329.865175244613
 21
-227.7654857152442
 31
0.0
  0
LINE
  5
12E
330
1F
100
AcDbEntity
  8
0-0
  6
JWW_DASHED1
 62
   120
370
     5
100
AcDbLine
 10
1101.865175244627
 20
-469.9076213389622
 30
0.0
 11
1329.865175244624
 21
-241.9076213389656
 31
0.0
  0
LINE
  5
12F
330
1F
100
AcDbEntity
  8
0-0
  6
JWW_DASHED1
 62
   120
370
     5
100
AcDbLine
 10
1101.865175244612
 20
-484.049756962712
 30
0.0
 11
1329.865175244626
 21
-256.0497569626972
 31
0.0
  0
LINE
  5
130
330
1F
100
AcDbEntity
  8
0-0
  6
JWW_DASHED1
 62
   120
370
     5
100
AcDbLine
 10
1101.865175244619
 20
-498.1918925864372
 30
0.0
 11
1329.865175244616
 21
-270.1918925864408
 31
0.0
  0
LINE
  5
131
330
1F
100
AcDbEntity
  8
0-0
  6
JWW_DASHED1
 62
   120
370
     5
100
AcDbLine
 10
1101.865175244615
 20
-512.3340282101746
 30
0.0
 11
1329.865175244628
 21
-284.3340282101622
 31
0.0
  0
LINE
  5
132
330
1F
100
AcDbEntity
  8
0-0
  6
JWW_DASHED1
 62
   120
370
     5
100
AcDbLine
 10
1101.865175244615
 20
-526.4761638339086
 30
0.0
 11
1329.865175244629
 21
-298.4761638338946
 31
0.0
  0
LINE
  5
133
330
1F
100
AcDbEntity
  8
0-0
  6
JWW_DASHED1
 62
   120
370
     5
100
AcDbLine
 10
1101.865175244624
 20
-540.6182994576332
 30
0.0
 11
1329.86517524462
 21
-312.6182994576365
 31
0.0
  0
LINE
  5
134
330
1F
100
AcDbEntity
  8
0-0
  6
JWW_DASHED1
 62
   120
370
     5
100
AcDbLine
 10
1101.865175244619
 20
-554.7604350813707
 30
0.0
 11
1329.865175244632
 21
-326.7604350813579
 31
0.0
  0
LINE
  5
135
330
1F
100
AcDbEntity
  8
0-0
  6
JWW_DASHED1
 62
   120
370
     5
100
AcDbLine
 10
1101.865175244615
 20
-568.9025707051081
 30
0.0
 11
1329.865175244613
 21
-340.9025707051109
 31
0.0
  0
LINE
  5
136
330
1F
100
AcDbEntity
  8
0-0
  6
JWW_DASHED1
 62
   120
370
     5
100
AcDbLine
 10
1101.865175244627
 20
-583.0447063288298
 30
0.0
 11
1329.865175244624
 21
-355.0447063288331
 31
0.0
  0
LINE
  5
137
330
1F
100
AcDbEntity
  8
0-0
  6
JWW_DASHED1
 62
   120
370
     5
100
AcDbLine
 10
1101.86517524461
 20
-597.1868419525802
 30
0.0
 11
1329.865175244624
 21
-369.1868419525656
 31
0.0
  0
LINE
  5
138
330
1F
100
AcDbEntity
  8
0-0
  6
JWW_DASHED1
 62
   120
370
     5
100
AcDbLine
 10
1101.865175244619
 20
-611.3289775763043
 30
0.0
 11
1329.865175244616
 21
-383.3289775763075
 31
0.0
  0
LINE
  5
139
330
1F
100
AcDbEntity
  8
0-0
  6
JWW_DASHED1
 62
   120
370
     5
100
AcDbLine
 10
1101.865175244615
 20
-625.4711132000417
 30
0.0
 11
1329.865175244628
 21
-397.4711132000289
 31
0.0
  0
LINE
  5
13A
330
1F
100
AcDbEntity
  8
0-0
  6
JWW_DASHED1
 62
   120
370
     5
100
AcDbLine
 10
1101.865175244614
 20
-639.6132488237765
 30
0.0
 11
1329.865175244628
 21
-411.6132488237622
 31
0.0
  0
LINE
  5
13B
330
1F
100
AcDbEntity
  8
0-0
  6
JWW_DASHED1
 62
   120
370
     5
100
AcDbLine
 10
1101.865175244623
 20
-653.7553844475005
 30
0.0
 11
1329.865175244619
 21
-425.7553844475032
 31
0.0
  0
LINE
  5
13C
330
1F
100
AcDbEntity
  8
0-0
  6
JWW_DASHED1
 62
   120
370
     5
100
AcDbLine
 10
1101.865175244619
 20
-667.8975200712379
 30
0.0
 11
1329.865175244631
 21
-439.8975200712246
 31
0.0
  0
LINE
  5
13D
330
1F
100
AcDbEntity
  8
0-0
  6
JWW_DASHED1
 62
   120
370
     5
100
AcDbLine
 10
1101.865175244617
 20
-682.0396556949731
 30
0.0
 11
1329.865175244616
 21
-454.0396556949742
 31
0.0
  0
LINE
  5
13E
330
1F
100
AcDbEntity
  8
0-0
  6
JWW_DASHED1
 62
   120
370
     5
100
AcDbLine
 10
1101.865175244627
 20
-696.1817913186965
 30
0.0
 11
1329.865175244624
 21
-468.1817913187
 31
0.0
  0
LINE
  5
13F
330
1F
100
AcDbEntity
  8
0-0
  6
JWW_DASHED1
 62
   120
370
     5
100
AcDbLine
 10
1101.865175244623
 20
-710.3239269424339
 30
0.0
 11
1329.865175244636
 21
-482.3239269424215
 31
0.0
  0
LINE
  5
140
330
1F
100
AcDbEntity
  8
0-0
  6
JWW_DASHED1
 62
   120
370
     5
100
AcDbLine
 10
1101.865175244623
 20
-724.4660625661127
 30
0.0
 11
1329.865175244619
 21
-496.4660625661157
 31
0.0
  0
LINE
  5
141
330
1F
100
AcDbEntity
  8
0-0
  6
JWW_DASHED1
 62
   120
370
     5
100
AcDbLine
 10
1101.865175244619
 20
-738.6081981898498
 30
0.0
 11
1329.865175244631
 21
-510.6081981898371
 31
0.0
  0
LINE
  5
142
330
1F
100
AcDbEntity
  8
0-0
  6
JWW_DASHED1
 62
   120
370
     5
100
AcDbLine
 10
1101.865175244617
 20
-752.7503338135857
 30
0.0
 11
1329.865175244615
 21
-524.7503338135871
 31
0.0
  0
LINE
  5
143
330
1F
100
AcDbEntity
  8
0-0
  6
JWW_DASHED1
 62
   120
370
     5
100
AcDbLine
 10
1101.865175244627
 20
-766.8924694373084
 30
0.0
 11
1329.865175244624
 21
-538.892469437312
 31
0.0
  0
LINE
  5
144
330
1F
100
AcDbEntity
  8
0-0
  6
JWW_DASHED1
 62
   120
370
     5
100
AcDbLine
 10
1101.865175244623
 20
-781.0346050610458
 30
0.0
 11
1329.865175244636
 21
-553.0346050610333
 31
0.0
  0
LINE
  5
145
330
1F
100
AcDbEntity
  8
0-0
  6
JWW_DASHED1
 62
   120
370
     5
100
AcDbLine
 10
1101.865175244619
 20
-795.1767406847833
 30
0.0
 11
1329.865175244616
 21
-567.1767406847865
 31
0.0
  0
LINE
  5
146
330
1F
100
AcDbEntity
  8
0-0
  6
JWW_DASHED1
 62
   120
370
     5
100
AcDbLine
 10
1101.865175244631
 20
-809.3188763085047
 30
0.0
 11
1329.865175244628
 21
-581.3188763085079
 31
0.0
  0
LINE
  5
147
330
1F
100
AcDbEntity
  8
0-0
  6
JWW_DASHED1
 62
   120
370
     5
100
AcDbLine
 10
1101.865175244612
 20
-823.4610119322571
 30
0.0
 11
1329.865175244626
 21
-595.4610119322425
 31
0.0
  0
LINE
  5
148
330
1F
100
AcDbEntity
  8
0-0
  6
JWW_DASHED1
 62
   120
370
     5
100
AcDbLine
 10
1101.865175244623
 20
-837.6031475559791
 30
0.0
 11
1329.865175244619
 21
-609.6031475559827
 31
0.0
  0
LINE
  5
149
330
1F
100
AcDbEntity
  8
0-0
  6
JWW_DASHED1
 62
   120
370
     5
100
AcDbLine
 10
1101.865175244619
 20
-851.7452831797169
 30
0.0
 11
1329.865175244631
 21
-623.7452831797041
 31
0.0
  0
LINE
  5
14A
330
1F
100
AcDbEntity
  8
0-0
  6
JWW_DASHED1
 62
   120
370
     5
100
AcDbLine
 10
1101.865175244615
 20
-865.8874188034534
 30
0.0
 11
1329.865175244629
 21
-637.8874188034391
 31
0.0
  0
LINE
  5
14B
330
1F
100
AcDbEntity
  8
0-0
  6
JWW_DASHED1
 62
   120
370
     5
100
AcDbLine
 10
1101.865175244627
 20
-880.0295544271755
 30
0.0
 11
1329.865175244624
 21
-652.0295544271788
 31
0.0
  0
LINE
  5
14C
330
1F
100
AcDbEntity
  8
0-0
  6
JWW_DASHED1
 62
   120
370
     5
100
AcDbLine
 10
1101.865175244622
 20
-894.1716900509131
 30
0.0
 11
1329.865175244635
 21
-666.1716900509005
 31
0.0
  0
LINE
  5
14D
330
1F
100
AcDbEntity
  8
0-0
  6
JWW_DASHED1
 62
   120
370
     5
100
AcDbLine
 10
1101.865175244619
 20
-908.3138256746503
 30
0.0
 11
1329.865175244616
 21
-680.3138256746537
 31
0.0
  0
LINE
  5
14E
330
1F
100
AcDbEntity
  8
0-0
  6
JWW_DASHED1
 62
   120
370
     5
100
AcDbLine
 10
1101.865175244631
 20
-922.4559612983717
 30
0.0
 11
1329.865175244627
 21
-694.4559612983753
 31
0.0
  0
LINE
  5
14F
330
1F
100
AcDbEntity
  8
0-0
  6
JWW_DASHED1
 62
   120
370
     5
100
AcDbLine
 10
1101.865175244611
 20
-936.5980969221247
 30
0.0
 11
1329.865175244625
 21
-708.5980969221105
 31
0.0
  0
LINE
  5
150
330
1F
100
AcDbEntity
  8
0-0
  6
JWW_DASHED1
 62
   120
370
     5
100
AcDbLine
 10
1112.205245150379
 20
-940.4001626400906
 30
0.0
 11
1329.865175244619
 21
-722.7402325458496
 31
0.0
  0
LINE
  5
151
330
1F
100
AcDbEntity
  8
0-0
  6
JWW_DASHED1
 62
   120
370
     5
100
AcDbLine
 10
1126.347380774114
 20
-940.400162640088
 30
0.0
 11
1329.865175244631
 21
-736.8823681695712
 31
0.0
  0
LINE
  5
152
330
1F
100
AcDbEntity
  8
0-0
  6
JWW_DASHED1
 62
   120
370
     5
100
AcDbLine
 10
1140.489516397851
 20
-940.4001626400848
 30
0.0
 11
1329.865175244629
 21
-751.0245037933071
 31
0.0
  0
LINE
  5
153
330
1F
100
AcDbEntity
  8
0-0
  6
JWW_DASHED1
 62
   120
370
     5
100
AcDbLine
 10
1154.631652021576
 20
-940.4001626400935
 30
0.0
 11
1329.865175244623
 21
-765.166639417046
 31
0.0
  0
LINE
  5
154
330
1F
100
AcDbEntity
  8
0-0
  6
JWW_DASHED1
 62
   120
370
     5
100
AcDbLine
 10
1168.773787645308
 20
-940.4001626400944
 30
0.0
 11
1329.865175244635
 21
-779.3087750407674
 31
0.0
  0
LINE
  5
155
330
1F
100
AcDbEntity
  8
0-0
  6
JWW_DASHED1
 62
   120
370
     5
100
AcDbLine
 10
1182.91592326905
 20
-940.4001626400857
 30
0.0
 11
1329.865175244615
 21
-793.4509106645205
 31
0.0
  0
LINE
  5
156
330
1F
100
AcDbEntity
  8
0-0
  6
JWW_DASHED1
 62
   120
370
     5
100
AcDbLine
 10
1197.058058892772
 20
-940.4001626400972
 30
0.0
 11
1329.865175244627
 21
-807.593046288242
 31
0.0
  0
LINE
  5
157
330
1F
100
AcDbEntity
  8
0-0
  6
JWW_DASHED1
 62
   120
370
     5
100
AcDbLine
 10
1211.200194516517
 20
-940.4001626400848
 30
0.0
 11
1329.865175244624
 21
-821.7351819119785
 31
0.0
  0
LINE
  5
158
330
1F
100
AcDbEntity
  8
0-0
  6
JWW_DASHED1
 62
   120
370
     5
100
AcDbLine
 10
1225.342330140247
 20
-940.4001626400886
 30
0.0
 11
1329.865175244619
 21
-835.8773175357168
 31
0.0
  0
LINE
  5
159
330
1F
100
AcDbEntity
  8
0-0
  6
JWW_DASHED1
 62
   120
370
     5
100
AcDbLine
 10
1239.484465763975
 20
-940.4001626400942
 30
0.0
 11
1329.86517524463
 21
-850.0194531594384
 31
0.0
  0
LINE
  5
15A
330
1F
100
AcDbEntity
  8
0-0
  6
JWW_DASHED1
 62
   120
370
     5
100
AcDbLine
 10
1253.626601387711
 20
-940.4001626400909
 30
0.0
 11
1329.865175244628
 21
-864.1615887831749
 31
0.0
  0
LINE
  5
15B
330
1F
100
AcDbEntity
  8
0-0
  6
JWW_DASHED1
 62
   120
370
     5
100
AcDbLine
 10
1267.768737011414
 20
-940.4001626400942
 30
0.0
 11
1329.865175244624
 21
-878.3037244068837
 31
0.0
  0
LINE
  5
15C
330
1F
100
AcDbEntity
  8
0-0
  6
JWW_DASHED1
 62
   120
370
     5
100
AcDbLine
 10
1281.910872635125
 20
-940.4001626400891
 30
0.0
 11
1329.865175244624
 21
-892.4458600305909
 31
0.0
  0
LINE
  5
15D
330
1F
100
AcDbEntity
  8
0-0
  6
JWW_DASHED1
 62
   120
370
     5
100
AcDbLine
 10
1296.053008258859
 20
-940.4001626400882
 30
0.0
 11
1329.865175244619
 21
-906.5879956543287
 31
0.0
  0
LINE
  5
15E
330
1F
100
AcDbEntity
  8
0-0
  6
JWW_DASHED1
 62
   120
370
     5
100
AcDbLine
 10
1310.195143882582
 20
-940.4001626400984
 30
0.0
 11
1329.865175244631
 21
-920.7301312780503
 31
0.0
  0
LINE
  5
15F
330
1F
100
AcDbEntity
  8
0-0
  6
JWW_DASHED1
 62
   120
370
     5
100
AcDbLine
 10
1324.337279506319
 20
-940.400162640095
 30
0.0
 11
1329.865175244627
 21
-934.8722669017875
 31
0.0
  0
LINE
  5
160
330
1F
100
AcDbEntity
  8
0-0
  6
Continuous
 62
     7
370
     9
100
AcDbLine
 10
1101.865175244619
 20
-940.4001626400872
 30
0.0
 11
1329.865175244619
 21
-940.4001626400872
 31
0.0
  0
LINE
  5
161
330
1F
100
AcDbEntity
  8
0-0
  6
JWW_DASHED1
 62
   120
370
     5
100
AcDbLine
 10
321.8651752446195
 20
788.7424491731333
 30
0.0
 11
549.8651752446185
 21
1016.742449173132
 31
0.0
  0
LINE
  5
162
330
1F
100
AcDbEntity
  8
0-0
  6
JWW_DASHED1
 62
   120
370
     5
100
AcDbLine
 10
321.8651752446178
 20
774.6003135493979
 30
0.0
 11
549.8651752446151
 21
1002.600313549395
 31
0.0
  0
LINE
  5
163
330
1F
100
AcDbEntity
  8
0-0
  6
JWW_DASHED1
 62
   120
370
     5
100
AcDbLine
 10
321.8651752446144
 20
760.4581779256612
 30
0.0
 11
549.8651752446269
 21
988.4581779256737
 31
0.0
  0
LINE
  5
164
330
1F
100
AcDbEntity
  8
0-0
  6
JWW_DASHED1
 62
   120
370
     5
100
AcDbLine
 10
321.8651752446092
 20
746.3160423019231
 30
0.0
 11
549.8651752446065
 21
974.3160423019199
 31
0.0
  0
LINE
  5
165
330
1F
100
AcDbEntity
  8
0-0
  6
JWW_DASHED1
 62
   120
370
     5
100
AcDbLine
 10
321.8651752446229
 20
732.1739066782021
 30
0.0
 11
549.8651752446185
 21
960.1739066781986
 31
0.0
  0
LINE
  5
166
330
1F
100
AcDbEntity
  8
0-0
  6
JWW_DASHED1
 62
   120
370
     5
100
AcDbLine
 10
321.8651752446161
 20
718.031771054462
 30
0.0
 11
549.8651752446303
 21
946.0317710544763
 31
0.0
  0
LINE
  5
167
330
1F
100
AcDbEntity
  8
0-0
  6
JWW_DASHED1
 62
   120
370
     5
100
AcDbLine
 10
321.8651752446127
 20
703.8896354307269
 30
0.0
 11
549.8651752446099
 21
931.8896354307237
 31
0.0
  0
LINE
  5
168
330
1F
100
AcDbEntity
  8
0-0
  6
JWW_DASHED1
 62
   120
370
     5
100
AcDbLine
 10
321.8651752446092
 20
689.7474998069897
 30
0.0
 11
549.8651752446235
 21
917.7474998070028
 31
0.0
  0
LINE
  5
169
330
1F
100
AcDbEntity
  8
0-0
  6
JWW_DASHED1
 62
   120
370
     5
100
AcDbLine
 10
321.8651752446195
 20
675.6053641832654
 30
0.0
 11
549.8651752446337
 21
903.6053641832797
 31
0.0
  0
LINE
  5
16A
330
1F
100
AcDbEntity
  8
0-0
  6
JWW_DASHED1
 62
   120
370
     5
100
AcDbLine
 10
321.8651752446178
 20
661.4632285595312
 30
0.0
 11
549.8651752446151
 21
889.4632285595276
 31
0.0
  0
LINE
  5
16B
330
1F
100
AcDbEntity
  8
0-0
  6
JWW_DASHED1
 62
   120
370
     5
100
AcDbLine
 10
321.8651752446127
 20
647.3210929357936
 30
0.0
 11
549.8651752446269
 21
875.3210929358062
 31
0.0
  0
LINE
  5
16C
330
1F
100
AcDbEntity
  8
0-0
  6
JWW_DASHED1
 62
   120
370
     5
100
AcDbLine
 10
321.8651752446092
 20
633.1789573120564
 30
0.0
 11
549.8651752446065
 21
861.1789573120532
 31
0.0
  0
LINE
  5
16D
330
1F
100
AcDbEntity
  8
0-0
  6
JWW_DASHED1
 62
   120
370
     5
100
AcDbLine
 10
321.8651752446212
 20
619.0368216883346
 30
0.0
 11
549.8651752446185
 21
847.0368216883319
 31
0.0
  0
LINE
  5
16E
330
1F
100
AcDbEntity
  8
0-0
  6
JWW_DASHED1
 62
   120
370
     5
100
AcDbLine
 10
321.8651752446144
 20
604.8946860645945
 30
0.0
 11
549.8651752446287
 21
832.8946860646088
 31
0.0
  0
LINE
  5
16F
330
1F
100
AcDbEntity
  8
0-0
  6
JWW_DASHED1
 62
   120
370
     5
100
AcDbLine
 10
321.8651752446127
 20
590.7525504408602
 30
0.0
 11
549.8651752446099
 21
818.7525504408566
 31
0.0
  0
LINE
  5
170
330
1F
100
AcDbEntity
  8
0-0
  6
JWW_DASHED1
 62
   120
370
     5
100
AcDbLine
 10
321.8651752446092
 20
576.6104148171225
 30
0.0
 11
549.8651752446235
 21
804.6104148171353
 31
0.0
  0
LINE
  5
171
330
1F
100
AcDbEntity
  8
0-0
  6
JWW_DASHED1
 62
   120
370
     5
100
AcDbLine
 10
321.8651752446178
 20
562.4682791933978
 30
0.0
 11
549.8651752446322
 21
790.4682791934122
 31
0.0
  0
LINE
  5
172
330
1F
100
AcDbEntity
  8
0-0
  6
JWW_DASHED1
 62
   120
370
     5
100
AcDbLine
 10
321.8651752446178
 20
548.3261435696645
 30
0.0
 11
549.8651752446133
 21
776.3261435696604
 31
0.0
  0
LINE
  5
173
330
1F
100
AcDbEntity
  8
0-0
  6
JWW_DASHED1
 62
   120
370
     5
100
AcDbLine
 10
321.8651752446127
 20
534.1840079459269
 30
0.0
 11
549.8651752446269
 21
762.1840079459395
 31
0.0
  0
LINE
  5
174
330
1F
100
AcDbEntity
  8
0-0
  6
JWW_DASHED1
 62
   120
370
     5
100
AcDbLine
 10
321.8651752446092
 20
520.0418723221892
 30
0.0
 11
549.8651752446065
 21
748.0418723221865
 31
0.0
  0
LINE
  5
175
330
1F
100
AcDbEntity
  8
0-0
  6
JWW_DASHED1
 62
   120
370
     5
100
AcDbLine
 10
321.8651752446212
 20
505.8997366984678
 30
0.0
 11
549.8651752446167
 21
733.8997366984643
 31
0.0
  0
LINE
  5
176
330
1F
100
AcDbEntity
  8
0-0
  6
JWW_DASHED1
 62
   120
370
     5
100
AcDbLine
 10
321.8651752446127
 20
491.757601074726
 30
0.0
 11
549.8651752446269
 21
719.7576010747403
 31
0.0
  0
LINE
  5
177
330
1F
100
AcDbEntity
  8
0-0
  6
JWW_DASHED1
 62
   120
370
     5
100
AcDbLine
 10
321.8651752446127
 20
477.6154654509935
 30
0.0
 11
549.8651752446099
 21
705.6154654509899
 31
0.0
  0
LINE
  5
178
330
1F
100
AcDbEntity
  8
0-0
  6
JWW_DASHED1
 62
   120
370
     5
100
AcDbLine
 10
321.8651752446092
 20
463.4733298272559
 30
0.0
 11
549.8651752446219
 21
691.4733298272686
 31
0.0
  0
LINE
  5
179
330
1F
100
AcDbEntity
  8
0-0
  6
JWW_DASHED1
 62
   120
370
     5
100
AcDbLine
 10
321.8651752446075
 20
449.3311942035481
 30
0.0
 11
549.8651752446201
 21
677.3311942035607
 31
0.0
  0
LINE
  5
17A
330
1F
100
AcDbEntity
  8
0-0
  6
JWW_DASHED1
 62
   120
370
     5
100
AcDbLine
 10
321.8651752446229
 20
435.1890585798557
 30
0.0
 11
549.8651752446185
 21
663.189058579853
 31
0.0
  0
LINE
  5
17B
330
1F
100
AcDbEntity
  8
0-0
  6
JWW_DASHED1
 62
   120
370
     5
100
AcDbLine
 10
321.8651752446127
 20
421.0469229561139
 30
0.0
 11
549.8651752446269
 21
649.0469229561281
 31
0.0
  0
LINE
  5
17C
330
1F
100
AcDbEntity
  8
0-0
  6
JWW_DASHED1
 62
   120
370
     5
100
AcDbLine
 10
321.8651752446127
 20
406.9047873323814
 30
0.0
 11
549.8651752446099
 21
634.9047873323777
 31
0.0
  0
LINE
  5
17D
330
1F
100
AcDbEntity
  8
0-0
  6
JWW_DASHED1
 62
   120
370
     5
100
AcDbLine
 10
321.8651752446092
 20
392.7626517086438
 30
0.0
 11
549.8651752446219
 21
620.7626517086564
 31
0.0
  0
LINE
  5
17E
330
1F
100
AcDbEntity
  8
0-0
  6
JWW_DASHED1
 62
   120
370
     5
100
AcDbLine
 10
321.8651752446161
 20
378.6205160849173
 30
0.0
 11
549.8651752446303
 21
606.6205160849315
 31
0.0
  0
LINE
  5
17F
330
1F
100
AcDbEntity
  8
0-0
  6
JWW_DASHED1
 62
   120
370
     5
100
AcDbLine
 10
321.8651752446161
 20
364.4783804611848
 30
0.0
 11
549.8651752446133
 21
592.4783804611816
 31
0.0
  0
LINE
  5
180
330
1F
100
AcDbEntity
  8
0-0
  6
JWW_DASHED1
 62
   120
370
     5
100
AcDbLine
 10
321.8651752446127
 20
350.336244837448
 30
0.0
 11
549.8651752446269
 21
578.3362448374606
 31
0.0
  0
LINE
  5
181
330
1F
100
AcDbEntity
  8
0-0
  6
JWW_DASHED1
 62
   120
370
     5
100
AcDbLine
 10
321.8651752446092
 20
336.1941092137104
 30
0.0
 11
549.8651752446065
 21
564.1941092137068
 31
0.0
  0
LINE
  5
182
330
1F
100
AcDbEntity
  8
0-0
  6
JWW_DASHED1
 62
   120
370
     5
100
AcDbLine
 10
321.8651752446212
 20
322.051973589989
 30
0.0
 11
549.8651752446167
 21
550.0519735899854
 31
0.0
  0
LINE
  5
183
330
1F
100
AcDbEntity
  8
0-0
  6
JWW_DASHED1
 62
   120
370
     5
100
AcDbLine
 10
321.865175244611
 20
307.9098379662454
 30
0.0
 11
549.8651752446269
 21
535.9098379662598
 31
0.0
  0
LINE
  5
184
330
1F
100
AcDbEntity
  8
0-0
  6
JWW_DASHED1
 62
   120
370
     5
100
AcDbLine
 10
321.8651752446127
 20
293.7677023425147
 30
0.0
 11
549.8651752446099
 21
521.767702342511
 31
0.0
  0
LINE
  5
185
330
1F
100
AcDbEntity
  8
0-0
  6
JWW_DASHED1
 62
   120
370
     5
100
AcDbLine
 10
321.8651752446263
 20
279.6255667187924
 30
0.0
 11
549.8651752446219
 21
507.6255667187897
 31
0.0
  0
LINE
  5
186
330
1F
100
AcDbEntity
  8
0-0
  6
JWW_DASHED1
 62
   120
370
     5
100
AcDbLine
 10
321.8651752446144
 20
265.4834310950488
 30
0.0
 11
549.8651752446303
 21
493.4834310950632
 31
0.0
  0
LINE
  5
187
330
1F
100
AcDbEntity
  8
0-0
  6
JWW_DASHED1
 62
   120
370
     5
100
AcDbLine
 10
321.8651752446161
 20
251.3412954713181
 30
0.0
 11
549.8651752446133
 21
479.3412954713145
 31
0.0
  0
LINE
  5
188
330
1F
100
AcDbEntity
  8
0-0
  6
JWW_DASHED1
 62
   120
370
     5
100
AcDbLine
 10
321.8651752446127
 20
237.1991598475805
 30
0.0
 11
549.8651752446253
 21
465.1991598475931
 31
0.0
  0
LINE
  5
189
330
1F
100
AcDbEntity
  8
0-0
  6
JWW_DASHED1
 62
   120
370
     5
100
AcDbLine
 10
321.8651752446195
 20
223.0570242238531
 30
0.0
 11
549.8651752446167
 21
451.0570242238512
 31
0.0
  0
LINE
  5
18A
330
1F
100
AcDbEntity
  8
0-0
  6
JWW_DASHED1
 62
   120
370
     5
100
AcDbLine
 10
321.8651752446195
 20
208.9148886001215
 30
0.0
 11
549.8651752446167
 21
436.9148886001187
 31
0.0
  0
LINE
  5
18B
330
1F
100
AcDbEntity
  8
0-0
  6
JWW_DASHED1
 62
   120
370
     5
100
AcDbLine
 10
321.8651752446161
 20
194.7727529763847
 30
0.0
 11
549.8651752446303
 21
422.7727529763973
 31
0.0
  0
LINE
  5
18C
330
1F
100
AcDbEntity
  8
0-0
  6
JWW_DASHED1
 62
   120
370
     5
100
AcDbLine
 10
321.8651752446127
 20
180.6306173526471
 30
0.0
 11
549.8651752446099
 21
408.6306173526435
 31
0.0
  0
LINE
  5
18D
330
1F
100
AcDbEntity
  8
0-0
  6
JWW_DASHED1
 62
   120
370
     5
100
AcDbLine
 10
321.8651752446246
 20
166.4884817289257
 30
0.0
 11
549.8651752446201
 21
394.4884817289221
 31
0.0
  0
LINE
  5
18E
330
1F
100
AcDbEntity
  8
0-0
  6
JWW_DASHED1
 62
   120
370
     5
100
AcDbLine
 10
321.8651752446127
 20
152.3463461051813
 30
0.0
 11
549.8651752446269
 21
380.3463461051956
 31
0.0
  0
LINE
  5
18F
330
1F
100
AcDbEntity
  8
0-0
  6
JWW_DASHED1
 62
   120
370
     5
100
AcDbLine
 10
321.8651752446161
 20
138.2042104814514
 30
0.0
 11
549.8651752446133
 21
366.2042104814478
 31
0.0
  0
LINE
  5
190
330
1F
100
AcDbEntity
  8
0-0
  6
JWW_DASHED1
 62
   120
370
     5
100
AcDbLine
 10
321.8651752446127
 20
124.0620748577138
 30
0.0
 11
549.8651752446253
 21
352.0620748577264
 31
0.0
  0
LINE
  5
191
330
1F
100
AcDbEntity
  8
0-0
  6
JWW_DASHED1
 62
   120
370
     5
100
AcDbLine
 10
321.8651752446161
 20
109.9199392339847
 30
0.0
 11
549.8651752446303
 21
337.919939233999
 31
0.0
  0
LINE
  5
192
330
1F
100
AcDbEntity
  8
0-0
  6
JWW_DASHED1
 62
   120
370
     5
100
AcDbLine
 10
321.8651752446195
 20
95.77780361025475
 30
0.0
 11
549.8651752446167
 21
323.7778036102512
 31
0.0
  0
LINE
  5
193
330
1F
100
AcDbEntity
  8
0-0
  6
JWW_DASHED1
 62
   120
370
     5
100
AcDbLine
 10
321.8651752446161
 20
81.63566798651715
 30
0.0
 11
549.8651752446303
 21
309.6356679865298
 31
0.0
  0
LINE
  5
194
330
1F
100
AcDbEntity
  8
0-0
  6
JWW_DASHED1
 62
   120
370
     5
100
AcDbLine
 10
321.8651752446127
 20
67.4935323627804
 30
0.0
 11
549.8651752446099
 21
295.4935323627768
 31
0.0
  0
LINE
  5
195
330
1F
100
AcDbEntity
  8
0-0
  6
JWW_DASHED1
 62
   120
370
     5
100
AcDbLine
 10
321.8651752446127
 20
53.35139673910163
 30
0.0
 11
549.8651752446253
 21
281.3513967391143
 31
0.0
  0
LINE
  5
196
330
1F
100
AcDbEntity
  8
0-0
  6
JWW_DASHED1
 62
   120
370
     5
100
AcDbLine
 10
321.8651752446161
 20
39.20926111537256
 30
0.0
 11
549.8651752446303
 21
267.2092611153869
 31
0.0
  0
LINE
  5
197
330
1F
100
AcDbEntity
  8
0-0
  6
JWW_DASHED1
 62
   120
370
     5
100
AcDbLine
 10
321.8651752446195
 20
25.06712549164263
 30
0.0
 11
549.8651752446167
 21
253.0671254916399
 31
0.0
  0
LINE
  5
198
330
1F
100
AcDbEntity
  8
0-0
  6
JWW_DASHED1
 62
   120
370
     5
100
AcDbLine
 10
321.8651752446161
 20
10.92498986790588
 30
0.0
 11
549.8651752446303
 21
238.9249898679176
 31
0.0
  0
LINE
  5
199
330
1F
100
AcDbEntity
  8
0-0
  6
JWW_DASHED1
 62
   120
370
     5
100
AcDbLine
 10
321.8651752446127
 20
-3.217145755831723
 30
0.0
 11
549.8651752446099
 21
224.7828542441647
 31
0.0
  0
LINE
  5
19A
330
1F
100
AcDbEntity
  8
0-0
  6
JWW_DASHED1
 62
   120
370
     5
100
AcDbLine
 10
321.8651752446246
 20
-17.35928137955312
 30
0.0
 11
549.8651752446201
 21
210.6407186204433
 31
0.0
  0
LINE
  5
19B
330
1F
100
AcDbEntity
  8
0-0
  6
JWW_DASHED1
 62
   120
370
     5
100
AcDbLine
 10
321.8651752446127
 20
-31.50141700329925
 30
0.0
 11
549.8651752446269
 21
196.4985829967151
 31
0.0
  0
LINE
  5
19C
330
1F
100
AcDbEntity
  8
0-0
  6
JWW_DASHED1
 62
   120
370
     5
100
AcDbLine
 10
321.8651752446161
 20
-45.64355262702833
 30
0.0
 11
549.8651752446133
 21
182.3564473729689
 31
0.0
  0
LINE
  5
19D
330
1F
100
AcDbEntity
  8
0-0
  6
JWW_DASHED1
 62
   120
370
     5
100
AcDbLine
 10
321.8651752446127
 20
-59.78568825076508
 30
0.0
 11
549.8651752446253
 21
168.2143117492475
 31
0.0
  0
LINE
  5
19E
330
1F
100
AcDbEntity
  8
0-0
  6
JWW_DASHED1
 62
   120
370
     5
100
AcDbLine
 10
321.8651752446161
 20
-73.92782387449586
 30
0.0
 11
549.8651752446303
 21
154.0721761255185
 31
0.0
  0
LINE
  5
19F
330
1F
100
AcDbEntity
  8
0-0
  6
JWW_DASHED1
 62
   120
370
     5
100
AcDbLine
 10
321.8651752446195
 20
-88.06995949822408
 30
0.0
 11
549.8651752446167
 21
139.9300405017723
 31
0.0
  0
LINE
  5
1A0
330
1F
100
AcDbEntity
  8
0-0
  6
JWW_DASHED1
 62
   120
370
     5
100
AcDbLine
 10
321.8651752446161
 20
-102.2120951219617
 30
0.0
 11
549.8651752446287
 21
125.7879048780509
 31
0.0
  0
LINE
  5
1A1
330
1F
100
AcDbEntity
  8
0-0
  6
JWW_DASHED1
 62
   120
370
     5
100
AcDbLine
 10
321.8651752446127
 20
-116.3542307456984
 30
0.0
 11
549.8651752446099
 21
111.645769254298
 31
0.0
  0
LINE
  5
1A2
330
1F
100
AcDbEntity
  8
0-0
  6
JWW_DASHED1
 62
   120
370
     5
100
AcDbLine
 10
321.8651752446229
 20
-130.4963663694207
 30
0.0
 11
549.8651752446201
 21
97.50363363057659
 31
0.0
  0
LINE
  5
1A3
330
1F
100
AcDbEntity
  8
0-0
  6
JWW_DASHED1
 62
   120
370
     5
100
AcDbLine
 10
321.8651752446092
 20
-144.6385019931668
 30
0.0
 11
549.8651752446253
 21
83.36149800684751
 31
0.0
  0
LINE
  5
1A4
330
1F
100
AcDbEntity
  8
0-0
  6
JWW_DASHED1
 62
   120
370
     5
100
AcDbLine
 10
321.8651752446161
 20
-158.780637616895
 30
0.0
 11
549.8651752446133
 21
69.21936238310224
 31
0.0
  0
LINE
  5
1A5
330
1F
100
AcDbEntity
  8
0-0
  6
JWW_DASHED1
 62
   120
370
     5
100
AcDbLine
 10
321.865175244628
 20
-172.9227732406164
 30
0.0
 11
549.8651752446235
 21
55.07722675937998
 31
0.0
  0
LINE
  5
1A6
330
1F
100
AcDbEntity
  8
0-0
  6
JWW_DASHED1
 62
   120
370
     5
100
AcDbLine
 10
321.8651752446144
 20
-187.0649088643634
 30
0.0
 11
549.8651752446287
 21
40.93509113565091
 31
0.0
  0
LINE
  5
1A7
330
1F
100
AcDbEntity
  8
0-0
  6
JWW_DASHED1
 62
   120
370
     5
100
AcDbLine
 10
321.8651752446195
 20
-201.2070444880908
 30
0.0
 11
549.8651752446167
 21
26.79295551190563
 31
0.0
  0
LINE
  5
1A8
330
1F
100
AcDbEntity
  8
0-0
  6
JWW_DASHED1
 62
   120
370
     5
100
AcDbLine
 10
321.8651752446161
 20
-215.3491801118284
 30
0.0
 11
549.8651752446287
 21
12.65081988818423
 31
0.0
  0
LINE
  5
1A9
330
1F
100
AcDbEntity
  8
0-0
  6
JWW_DASHED1
 62
   120
370
     5
100
AcDbLine
 10
321.8651752446178
 20
-229.49131573556
 30
0.0
 11
549.8651752446167
 21
-1.491315735561898
 31
0.0
  0
LINE
  5
1AA
330
1F
100
AcDbEntity
  8
0-0
  6
JWW_DASHED1
 62
   120
370
     5
100
AcDbLine
 10
321.8651752446229
 20
-243.6334513592874
 30
0.0
 11
549.8651752446201
 21
-15.63345135929097
 31
0.0
  0
LINE
  5
1AB
330
1F
100
AcDbEntity
  8
0-0
  6
JWW_DASHED1
 62
   120
370
     5
100
AcDbLine
 10
321.8651752446195
 20
-257.7755869830241
 30
0.0
 11
549.8651752446322
 21
-29.77558698301237
 31
0.0
  0
LINE
  5
1AC
330
1F
100
AcDbEntity
  8
0-0
  6
JWW_DASHED1
 62
   120
370
     5
100
AcDbLine
 10
321.8651752446161
 20
-271.9177226067617
 30
0.0
 11
549.8651752446133
 21
-43.91772260676532
 31
0.0
  0
LINE
  5
1AD
330
1F
100
AcDbEntity
  8
0-0
  6
JWW_DASHED1
 62
   120
370
     5
100
AcDbLine
 10
321.8651752446263
 20
-286.059858230484
 30
0.0
 11
549.8651752446235
 21
-58.05985823048673
 31
0.0
  0
LINE
  5
1AE
330
1F
100
AcDbEntity
  8
0-0
  6
JWW_DASHED1
 62
   120
370
     5
100
AcDbLine
 10
321.8651752446127
 20
-300.201993854231
 30
0.0
 11
549.8651752446269
 21
-72.2019938542175
 31
0.0
  0
LINE
  5
1AF
330
1F
100
AcDbEntity
  8
0-0
  6
JWW_DASHED1
 62
   120
370
     5
100
AcDbLine
 10
321.8651752446195
 20
-314.3441294779583
 30
0.0
 11
549.8651752446167
 21
-86.34412947796108
 31
0.0
  0
LINE
  5
1B0
330
1F
100
AcDbEntity
  8
0-0
  6
JWW_DASHED1
 62
   120
370
     5
100
AcDbLine
 10
321.8651752446178
 20
-328.4862651016661
 30
0.0
 11
549.8651752446303
 21
-100.4862651016535
 31
0.0
  0
LINE
  5
1B1
330
1F
100
AcDbEntity
  8
0-0
  6
JWW_DASHED1
 62
   120
370
     5
100
AcDbLine
 10
321.8651752446161
 20
-342.6284007253739
 30
0.0
 11
549.8651752446133
 21
-114.6284007253774
 31
0.0
  0
LINE
  5
1B2
330
1F
100
AcDbEntity
  8
0-0
  6
JWW_DASHED1
 62
   120
370
     5
100
AcDbLine
 10
321.865175244628
 20
-356.7705363490953
 30
0.0
 11
549.8651752446235
 21
-128.7705363490988
 31
0.0
  0
LINE
  5
1B3
330
1F
100
AcDbEntity
  8
0-0
  6
JWW_DASHED1
 62
   120
370
     5
100
AcDbLine
 10
321.8651752446127
 20
-370.912671972844
 30
0.0
 11
549.8651752446269
 21
-142.9126719728296
 31
0.0
  0
LINE
  5
1B4
330
1F
100
AcDbEntity
  8
0-0
  6
JWW_DASHED1
 62
   120
370
     5
100
AcDbLine
 10
321.8651752446195
 20
-385.0548075965705
 30
0.0
 11
549.8651752446167
 21
-157.0548075965732
 31
0.0
  0
LINE
  5
1B5
330
1F
100
AcDbEntity
  8
0-0
  6
JWW_DASHED1
 62
   120
370
     5
100
AcDbLine
 10
321.8651752446161
 20
-399.1969432203072
 30
0.0
 11
549.8651752446269
 21
-171.1969432202955
 31
0.0
  0
LINE
  5
1B6
330
1F
100
AcDbEntity
  8
0-0
  6
JWW_DASHED1
 62
   120
370
     5
100
AcDbLine
 10
321.8651752446161
 20
-413.3390788440406
 30
0.0
 11
549.8651752446303
 21
-185.3390788440262
 31
0.0
  0
LINE
  5
1B7
330
1F
100
AcDbEntity
  8
0-0
  6
JWW_DASHED1
 62
   120
370
     5
100
AcDbLine
 10
321.8651752446229
 20
-427.4812144677662
 30
0.0
 11
549.8651752446201
 21
-199.4812144677698
 31
0.0
  0
LINE
  5
1B8
330
1F
100
AcDbEntity
  8
0-0
  6
JWW_DASHED1
 62
   120
370
     5
100
AcDbLine
 10
321.8651752446195
 20
-441.6233500915038
 30
0.0
 11
549.8651752446322
 21
-213.6233500914912
 31
0.0
  0
LINE
  5
1B9
330
1F
100
AcDbEntity
  8
0-0
  6
JWW_DASHED1
 62
   120
370
     5
100
AcDbLine
 10
321.8651752446161
 20
-455.7654857152414
 30
0.0
 11
549.8651752446133
 21
-227.7654857152442
 31
0.0
  0
LINE
  5
1BA
330
1F
100
AcDbEntity
  8
0-0
  6
JWW_DASHED1
 62
   120
370
     5
100
AcDbLine
 10
321.8651752446263
 20
-469.9076213389622
 30
0.0
 11
549.8651752446235
 21
-241.9076213389656
 31
0.0
  0
LINE
  5
1BB
330
1F
100
AcDbEntity
  8
0-0
  6
JWW_DASHED1
 62
   120
370
     5
100
AcDbLine
 10
321.8651752446127
 20
-484.049756962712
 30
0.0
 11
549.8651752446269
 21
-256.0497569626972
 31
0.0
  0
LINE
  5
1BC
330
1F
100
AcDbEntity
  8
0-0
  6
JWW_DASHED1
 62
   120
370
     5
100
AcDbLine
 10
321.8651752446195
 20
-498.1918925864372
 30
0.0
 11
549.8651752446167
 21
-270.1918925864408
 31
0.0
  0
LINE
  5
1BD
330
1F
100
AcDbEntity
  8
0-0
  6
JWW_DASHED1
 62
   120
370
     5
100
AcDbLine
 10
321.8651752446161
 20
-512.3340282101746
 30
0.0
 11
549.8651752446269
 21
-284.3340282101622
 31
0.0
  0
LINE
  5
1BE
330
1F
100
AcDbEntity
  8
0-0
  6
JWW_DASHED1
 62
   120
370
     5
100
AcDbLine
 10
321.8651752446161
 20
-526.4761638339086
 30
0.0
 11
549.8651752446287
 21
-298.4761638338946
 31
0.0
  0
LINE
  5
1BF
330
1F
100
AcDbEntity
  8
0-0
  6
JWW_DASHED1
 62
   120
370
     5
100
AcDbLine
 10
321.8651752446229
 20
-540.6182994576332
 30
0.0
 11
549.8651752446201
 21
-312.6182994576365
 31
0.0
  0
LINE
  5
1C0
330
1F
100
AcDbEntity
  8
0-0
  6
JWW_DASHED1
 62
   120
370
     5
100
AcDbLine
 10
321.8651752446195
 20
-554.7604350813707
 30
0.0
 11
549.8651752446322
 21
-326.7604350813579
 31
0.0
  0
LINE
  5
1C1
330
1F
100
AcDbEntity
  8
0-0
  6
JWW_DASHED1
 62
   120
370
     5
100
AcDbLine
 10
321.8651752446161
 20
-568.9025707051081
 30
0.0
 11
549.8651752446133
 21
-340.9025707051109
 31
0.0
  0
LINE
  5
1C2
330
1F
100
AcDbEntity
  8
0-0
  6
JWW_DASHED1
 62
   120
370
     5
100
AcDbLine
 10
321.8651752446263
 20
-583.0447063288298
 30
0.0
 11
549.8651752446235
 21
-355.0447063288331
 31
0.0
  0
LINE
  5
1C3
330
1F
100
AcDbEntity
  8
0-0
  6
JWW_DASHED1
 62
   120
370
     5
100
AcDbLine
 10
321.8651752446092
 20
-597.1868419525802
 30
0.0
 11
549.8651752446235
 21
-369.1868419525656
 31
0.0
  0
LINE
  5
1C4
330
1F
100
AcDbEntity
  8
0-0
  6
JWW_DASHED1
 62
   120
370
     5
100
AcDbLine
 10
321.8651752446195
 20
-611.3289775763043
 30
0.0
 11
549.8651752446167
 21
-383.3289775763075
 31
0.0
  0
LINE
  5
1C5
330
1F
100
AcDbEntity
  8
0-0
  6
JWW_DASHED1
 62
   120
370
     5
100
AcDbLine
 10
321.8651752446161
 20
-625.4711132000417
 30
0.0
 11
549.8651752446269
 21
-397.4711132000289
 31
0.0
  0
LINE
  5
1C6
330
1F
100
AcDbEntity
  8
0-0
  6
JWW_DASHED1
 62
   120
370
     5
100
AcDbLine
 10
321.8651752446127
 20
-639.6132488237765
 30
0.0
 11
549.8651752446269
 21
-411.6132488237622
 31
0.0
  0
LINE
  5
1C7
330
1F
100
AcDbEntity
  8
0-0
  6
JWW_DASHED1
 62
   120
370
     5
100
AcDbLine
 10
321.8651752446229
 20
-653.7553844475005
 30
0.0
 11
549.8651752446201
 21
-425.7553844475032
 31
0.0
  0
LINE
  5
1C8
330
1F
100
AcDbEntity
  8
0-0
  6
JWW_DASHED1
 62
   120
370
     5
100
AcDbLine
 10
321.8651752446195
 20
-667.8975200712379
 30
0.0
 11
549.8651752446303
 21
-439.8975200712246
 31
0.0
  0
LINE
  5
1C9
330
1F
100
AcDbEntity
  8
0-0
  6
JWW_DASHED1
 62
   120
370
     5
100
AcDbLine
 10
321.8651752446161
 20
-682.0396556949731
 30
0.0
 11
549.8651752446167
 21
-454.0396556949742
 31
0.0
  0
LINE
  5
1CA
330
1F
100
AcDbEntity
  8
0-0
  6
JWW_DASHED1
 62
   120
370
     5
100
AcDbLine
 10
321.8651752446263
 20
-696.1817913186965
 30
0.0
 11
549.8651752446235
 21
-468.1817913187
 31
0.0
  0
LINE
  5
1CB
330
1F
100
AcDbEntity
  8
0-0
  6
JWW_DASHED1
 62
   120
370
     5
100
AcDbLine
 10
321.8651752446229
 20
-710.3239269424339
 30
0.0
 11
549.8651752446356
 21
-482.3239269424215
 31
0.0
  0
LINE
  5
1CC
330
1F
100
AcDbEntity
  8
0-0
  6
JWW_DASHED1
 62
   120
370
     5
100
AcDbLine
 10
321.8651752446229
 20
-724.4660625661127
 30
0.0
 11
549.8651752446201
 21
-496.4660625661157
 31
0.0
  0
LINE
  5
1CD
330
1F
100
AcDbEntity
  8
0-0
  6
JWW_DASHED1
 62
   120
370
     5
100
AcDbLine
 10
321.8651752446195
 20
-738.6081981898498
 30
0.0
 11
549.8651752446303
 21
-510.6081981898371
 31
0.0
  0
LINE
  5
1CE
330
1F
100
AcDbEntity
  8
0-0
  6
JWW_DASHED1
 62
   120
370
     5
100
AcDbLine
 10
321.8651752446161
 20
-752.7503338135857
 30
0.0
 11
549.8651752446151
 21
-524.7503338135871
 31
0.0
  0
LINE
  5
1CF
330
1F
100
AcDbEntity
  8
0-0
  6
JWW_DASHED1
 62
   120
370
     5
100
AcDbLine
 10
321.8651752446263
 20
-766.8924694373084
 30
0.0
 11
549.8651752446235
 21
-538.892469437312
 31
0.0
  0
LINE
  5
1D0
330
1F
100
AcDbEntity
  8
0-0
  6
JWW_DASHED1
 62
   120
370
     5
100
AcDbLine
 10
321.8651752446229
 20
-781.0346050610458
 30
0.0
 11
549.8651752446356
 21
-553.0346050610333
 31
0.0
  0
LINE
  5
1D1
330
1F
100
AcDbEntity
  8
0-0
  6
JWW_DASHED1
 62
   120
370
     5
100
AcDbLine
 10
321.8651752446195
 20
-795.1767406847833
 30
0.0
 11
549.8651752446167
 21
-567.1767406847865
 31
0.0
  0
LINE
  5
1D2
330
1F
100
AcDbEntity
  8
0-0
  6
JWW_DASHED1
 62
   120
370
     5
100
AcDbLine
 10
321.8651752446297
 20
-809.3188763085047
 30
0.0
 11
549.8651752446269
 21
-581.3188763085079
 31
0.0
  0
LINE
  5
1D3
330
1F
100
AcDbEntity
  8
0-0
  6
JWW_DASHED1
 62
   120
370
     5
100
AcDbLine
 10
321.8651752446127
 20
-823.4610119322571
 30
0.0
 11
549.8651752446269
 21
-595.4610119322425
 31
0.0
  0
LINE
  5
1D4
330
1F
100
AcDbEntity
  8
0-0
  6
JWW_DASHED1
 62
   120
370
     5
100
AcDbLine
 10
321.8651752446229
 20
-837.6031475559791
 30
0.0
 11
549.8651752446201
 21
-609.6031475559827
 31
0.0
  0
LINE
  5
1D5
330
1F
100
AcDbEntity
  8
0-0
  6
JWW_DASHED1
 62
   120
370
     5
100
AcDbLine
 10
321.8651752446195
 20
-851.7452831797169
 30
0.0
 11
549.8651752446303
 21
-623.7452831797041
 31
0.0
  0
LINE
  5
1D6
330
1F
100
AcDbEntity
  8
0-0
  6
JWW_DASHED1
 62
   120
370
     5
100
AcDbLine
 10
321.8651752446161
 20
-865.8874188034534
 30
0.0
 11
549.8651752446303
 21
-637.8874188034391
 31
0.0
  0
LINE
  5
1D7
330
1F
100
AcDbEntity
  8
0-0
  6
JWW_DASHED1
 62
   120
370
     5
100
AcDbLine
 10
321.8651752446263
 20
-880.0295544271755
 30
0.0
 11
549.8651752446235
 21
-652.0295544271788
 31
0.0
  0
LINE
  5
1D8
330
1F
100
AcDbEntity
  8
0-0
  6
JWW_DASHED1
 62
   120
370
     5
100
AcDbLine
 10
321.8651752446229
 20
-894.1716900509131
 30
0.0
 11
549.8651752446337
 21
-666.1716900509005
 31
0.0
  0
LINE
  5
1D9
330
1F
100
AcDbEntity
  8
0-0
  6
JWW_DASHED1
 62
   120
370
     5
100
AcDbLine
 10
321.8651752446195
 20
-908.3138256746503
 30
0.0
 11
549.8651752446167
 21
-680.3138256746537
 31
0.0
  0
LINE
  5
1DA
330
1F
100
AcDbEntity
  8
0-0
  6
JWW_DASHED1
 62
   120
370
     5
100
AcDbLine
 10
321.8651752446297
 20
-922.4559612983717
 30
0.0
 11
549.8651752446269
 21
-694.4559612983753
 31
0.0
  0
LINE
  5
1DB
330
1F
100
AcDbEntity
  8
0-0
  6
JWW_DASHED1
 62
   120
370
     5
100
AcDbLine
 10
321.865175244611
 20
-936.5980969221247
 30
0.0
 11
549.8651752446253
 21
-708.5980969221105
 31
0.0
  0
LINE
  5
1DC
330
1F
100
AcDbEntity
  8
0-0
  6
JWW_DASHED1
 62
   120
370
     5
100
AcDbLine
 10
332.2052451503797
 20
-940.4001626400906
 30
0.0
 11
549.8651752446201
 21
-722.7402325458496
 31
0.0
  0
LINE
  5
1DD
330
1F
100
AcDbEntity
  8
0-0
  6
JWW_DASHED1
 62
   120
370
     5
100
AcDbLine
 10
346.347380774113
 20
-940.400162640088
 30
0.0
 11
549.8651752446303
 21
-736.8823681695712
 31
0.0
  0
LINE
  5
1DE
330
1F
100
AcDbEntity
  8
0-0
  6
JWW_DASHED1
 62
   120
370
     5
100
AcDbLine
 10
360.4895163978497
 20
-940.4001626400848
 30
0.0
 11
549.8651752446287
 21
-751.0245037933071
 31
0.0
  0
LINE
  5
1DF
330
1F
100
AcDbEntity
  8
0-0
  6
JWW_DASHED1
 62
   120
370
     5
100
AcDbLine
 10
374.6316520215763
 20
-940.4001626400935
 30
0.0
 11
549.8651752446235
 21
-765.166639417046
 31
0.0
  0
LINE
  5
1E0
330
1F
100
AcDbEntity
  8
0-0
  6
JWW_DASHED1
 62
   120
370
     5
100
AcDbLine
 10
388.7737876453079
 20
-940.4001626400944
 30
0.0
 11
549.8651752446337
 21
-779.3087750407674
 31
0.0
  0
LINE
  5
1E1
330
1F
100
AcDbEntity
  8
0-0
  6
JWW_DASHED1
 62
   120
370
     5
100
AcDbLine
 10
402.9159232690498
 20
-940.4001626400857
 30
0.0
 11
549.8651752446151
 21
-793.4509106645205
 31
0.0
  0
LINE
  5
1E2
330
1F
100
AcDbEntity
  8
0-0
  6
JWW_DASHED1
 62
   120
370
     5
100
AcDbLine
 10
417.0580588927729
 20
-940.4001626400972
 30
0.0
 11
549.8651752446269
 21
-807.593046288242
 31
0.0
  0
LINE
  5
1E3
330
1F
100
AcDbEntity
  8
0-0
  6
JWW_DASHED1
 62
   120
370
     5
100
AcDbLine
 10
431.2001945165164
 20
-940.4001626400848
 30
0.0
 11
549.8651752446235
 21
-821.7351819119785
 31
0.0
  0
LINE
  5
1E4
330
1F
100
AcDbEntity
  8
0-0
  6
JWW_DASHED1
 62
   120
370
     5
100
AcDbLine
 10
445.3423301402464
 20
-940.4001626400886
 30
0.0
 11
549.8651752446201
 21
-835.8773175357168
 31
0.0
  0
LINE
  5
1E5
330
1F
100
AcDbEntity
  8
0-0
  6
JWW_DASHED1
 62
   120
370
     5
100
AcDbLine
 10
459.4844657639746
 20
-940.4001626400942
 30
0.0
 11
549.8651752446303
 21
-850.0194531594384
 31
0.0
  0
LINE
  5
1E6
330
1F
100
AcDbEntity
  8
0-0
  6
JWW_DASHED1
 62
   120
370
     5
100
AcDbLine
 10
473.6266013877113
 20
-940.4001626400909
 30
0.0
 11
549.8651752446269
 21
-864.1615887831749
 31
0.0
  0
LINE
  5
1E7
330
1F
100
AcDbEntity
  8
0-0
  6
JWW_DASHED1
 62
   120
370
     5
100
AcDbLine
 10
487.768737011414
 20
-940.4001626400942
 30
0.0
 11
549.8651752446235
 21
-878.3037244068837
 31
0.0
  0
LINE
  5
1E8
330
1F
100
AcDbEntity
  8
0-0
  6
JWW_DASHED1
 62
   120
370
     5
100
AcDbLine
 10
501.9108726351251
 20
-940.4001626400891
 30
0.0
 11
549.8651752446235
 21
-892.4458600305909
 31
0.0
  0
LINE
  5
1E9
330
1F
100
AcDbEntity
  8
0-0
  6
JWW_DASHED1
 62
   120
370
     5
100
AcDbLine
 10
516.0530082588584
 20
-940.4001626400882
 30
0.0
 11
549.8651752446201
 21
-906.5879956543287
 31
0.0
  0
LINE
  5
1EA
330
1F
100
AcDbEntity
  8
0-0
  6
JWW_DASHED1
 62
   120
370
     5
100
AcDbLine
 10
530.1951438825815
 20
-940.4001626400984
 30
0.0
 11
549.8651752446303
 21
-920.7301312780503
 31
0.0
  0
LINE
  5
1EB
330
1F
100
AcDbEntity
  8
0-0
  6
JWW_DASHED1
 62
   120
370
     5
100
AcDbLine
 10
544.3372795063183
 20
-940.400162640095
 30
0.0
 11
549.8651752446269
 21
-934.8722669017875
 31
0.0
  0
LINE
  5
1EC
330
1F
100
AcDbEntity
  8
0-0
  6
Continuous
 62
     7
370
     9
100
AcDbLine
 10
321.8651752446195
 20
-940.4001626400872
 30
0.0
 11
549.8651752446185
 21
-940.4001626400872
 31
0.0
  0
LINE
  5
1ED
330
1F
100
AcDbEntity
  8
0-0
  6
JWW_DASHED1
 62
   120
370
     5
100
AcDbLine
 10
-488.1348247553805
 20
788.7424491731333
 30
0.0
 11
-260.1348247553815
 21
1016.742449173132
 31
0.0
  0
LINE
  5
1EE
330
1F
100
AcDbEntity
  8
0-0
  6
JWW_DASHED1
 62
   120
370
     5
100
AcDbLine
 10
-488.1348247553822
 20
774.6003135493979
 30
0.0
 11
-260.134824755385
 21
1002.600313549395
 31
0.0
  0
LINE
  5
1EF
330
1F
100
AcDbEntity
  8
0-0
  6
JWW_DASHED1
 62
   120
370
     5
100
AcDbLine
 10
-488.1348247553856
 20
760.4581779256612
 30
0.0
 11
-260.134824755373
 21
988.4581779256737
 31
0.0
  0
LINE
  5
1F0
330
1F
100
AcDbEntity
  8
0-0
  6
JWW_DASHED1
 62
   120
370
     5
100
AcDbLine
 10
-488.1348247553908
 20
746.3160423019231
 30
0.0
 11
-260.1348247553935
 21
974.3160423019199
 31
0.0
  0
LINE
  5
1F1
330
1F
100
AcDbEntity
  8
0-0
  6
JWW_DASHED1
 62
   120
370
     5
100
AcDbLine
 10
-488.1348247553771
 20
732.1739066782021
 30
0.0
 11
-260.1348247553815
 21
960.1739066781986
 31
0.0
  0
LINE
  5
1F2
330
1F
100
AcDbEntity
  8
0-0
  6
JWW_DASHED1
 62
   120
370
     5
100
AcDbLine
 10
-488.1348247553839
 20
718.031771054462
 30
0.0
 11
-260.1348247553696
 21
946.0317710544763
 31
0.0
  0
LINE
  5
1F3
330
1F
100
AcDbEntity
  8
0-0
  6
JWW_DASHED1
 62
   120
370
     5
100
AcDbLine
 10
-488.1348247553873
 20
703.8896354307269
 30
0.0
 11
-260.1348247553901
 21
931.8896354307237
 31
0.0
  0
LINE
  5
1F4
330
1F
100
AcDbEntity
  8
0-0
  6
JWW_DASHED1
 62
   120
370
     5
100
AcDbLine
 10
-488.1348247553908
 20
689.7474998069897
 30
0.0
 11
-260.1348247553764
 21
917.7474998070028
 31
0.0
  0
LINE
  5
1F5
330
1F
100
AcDbEntity
  8
0-0
  6
JWW_DASHED1
 62
   120
370
     5
100
AcDbLine
 10
-488.1348247553805
 20
675.6053641832654
 30
0.0
 11
-260.1348247553662
 21
903.6053641832797
 31
0.0
  0
LINE
  5
1F6
330
1F
100
AcDbEntity
  8
0-0
  6
JWW_DASHED1
 62
   120
370
     5
100
AcDbLine
 10
-488.1348247553822
 20
661.4632285595312
 30
0.0
 11
-260.134824755385
 21
889.4632285595276
 31
0.0
  0
LINE
  5
1F7
330
1F
100
AcDbEntity
  8
0-0
  6
JWW_DASHED1
 62
   120
370
     5
100
AcDbLine
 10
-488.1348247553873
 20
647.3210929357936
 30
0.0
 11
-260.134824755373
 21
875.3210929358062
 31
0.0
  0
LINE
  5
1F8
330
1F
100
AcDbEntity
  8
0-0
  6
JWW_DASHED1
 62
   120
370
     5
100
AcDbLine
 10
-488.1348247553908
 20
633.1789573120564
 30
0.0
 11
-260.1348247553935
 21
861.1789573120532
 31
0.0
  0
LINE
  5
1F9
330
1F
100
AcDbEntity
  8
0-0
  6
JWW_DASHED1
 62
   120
370
     5
100
AcDbLine
 10
-488.1348247553788
 20
619.0368216883346
 30
0.0
 11
-260.1348247553815
 21
847.0368216883319
 31
0.0
  0
LINE
  5
1FA
330
1F
100
AcDbEntity
  8
0-0
  6
JWW_DASHED1
 62
   120
370
     5
100
AcDbLine
 10
-488.1348247553856
 20
604.8946860645945
 30
0.0
 11
-260.1348247553713
 21
832.8946860646088
 31
0.0
  0
LINE
  5
1FB
330
1F
100
AcDbEntity
  8
0-0
  6
JWW_DASHED1
 62
   120
370
     5
100
AcDbLine
 10
-488.1348247553873
 20
590.7525504408602
 30
0.0
 11
-260.1348247553901
 21
818.7525504408566
 31
0.0
  0
LINE
  5
1FC
330
1F
100
AcDbEntity
  8
0-0
  6
JWW_DASHED1
 62
   120
370
     5
100
AcDbLine
 10
-488.1348247553908
 20
576.6104148171225
 30
0.0
 11
-260.1348247553764
 21
804.6104148171353
 31
0.0
  0
LINE
  5
1FD
330
1F
100
AcDbEntity
  8
0-0
  6
JWW_DASHED1
 62
   120
370
     5
100
AcDbLine
 10
-488.1348247553822
 20
562.4682791933978
 30
0.0
 11
-260.1348247553679
 21
790.4682791934122
 31
0.0
  0
LINE
  5
1FE
330
1F
100
AcDbEntity
  8
0-0
  6
JWW_DASHED1
 62
   120
370
     5
100
AcDbLine
 10
-488.1348247553822
 20
548.3261435696645
 30
0.0
 11
-260.1348247553867
 21
776.3261435696604
 31
0.0
  0
LINE
  5
1FF
330
1F
100
AcDbEntity
  8
0-0
  6
JWW_DASHED1
 62
   120
370
     5
100
AcDbLine
 10
-488.1348247553873
 20
534.1840079459269
 30
0.0
 11
-260.134824755373
 21
762.1840079459395
 31
0.0
  0
LINE
  5
200
330
1F
100
AcDbEntity
  8
0-0
  6
JWW_DASHED1
 62
   120
370
     5
100
AcDbLine
 10
-488.1348247553908
 20
520.0418723221892
 30
0.0
 11
-260.1348247553935
 21
748.0418723221865
 31
0.0
  0
LINE
  5
201
330
1F
100
AcDbEntity
  8
0-0
  6
JWW_DASHED1
 62
   120
370
     5
100
AcDbLine
 10
-488.1348247553788
 20
505.8997366984678
 30
0.0
 11
-260.1348247553832
 21
733.8997366984643
 31
0.0
  0
LINE
  5
202
330
1F
100
AcDbEntity
  8
0-0
  6
JWW_DASHED1
 62
   120
370
     5
100
AcDbLine
 10
-488.1348247553873
 20
491.757601074726
 30
0.0
 11
-260.134824755373
 21
719.7576010747403
 31
0.0
  0
LINE
  5
203
330
1F
100
AcDbEntity
  8
0-0
  6
JWW_DASHED1
 62
   120
370
     5
100
AcDbLine
 10
-488.1348247553873
 20
477.6154654509935
 30
0.0
 11
-260.1348247553901
 21
705.6154654509899
 31
0.0
  0
LINE
  5
204
330
1F
100
AcDbEntity
  8
0-0
  6
JWW_DASHED1
 62
   120
370
     5
100
AcDbLine
 10
-488.1348247553908
 20
463.4733298272559
 30
0.0
 11
-260.1348247553781
 21
691.4733298272686
 31
0.0
  0
LINE
  5
205
330
1F
100
AcDbEntity
  8
0-0
  6
JWW_DASHED1
 62
   120
370
     5
100
AcDbLine
 10
-488.1348247553925
 20
449.3311942035481
 30
0.0
 11
-260.1348247553798
 21
677.3311942035607
 31
0.0
  0
LINE
  5
206
330
1F
100
AcDbEntity
  8
0-0
  6
JWW_DASHED1
 62
   120
370
     5
100
AcDbLine
 10
-488.1348247553771
 20
435.1890585798557
 30
0.0
 11
-260.1348247553815
 21
663.189058579853
 31
0.0
  0
LINE
  5
207
330
1F
100
AcDbEntity
  8
0-0
  6
JWW_DASHED1
 62
   120
370
     5
100
AcDbLine
 10
-488.1348247553873
 20
421.0469229561139
 30
0.0
 11
-260.134824755373
 21
649.0469229561281
 31
0.0
  0
LINE
  5
208
330
1F
100
AcDbEntity
  8
0-0
  6
JWW_DASHED1
 62
   120
370
     5
100
AcDbLine
 10
-488.1348247553873
 20
406.9047873323814
 30
0.0
 11
-260.1348247553901
 21
634.9047873323777
 31
0.0
  0
LINE
  5
209
330
1F
100
AcDbEntity
  8
0-0
  6
JWW_DASHED1
 62
   120
370
     5
100
AcDbLine
 10
-488.1348247553908
 20
392.7626517086438
 30
0.0
 11
-260.1348247553781
 21
620.7626517086564
 31
0.0
  0
LINE
  5
20A
330
1F
100
AcDbEntity
  8
0-0
  6
JWW_DASHED1
 62
   120
370
     5
100
AcDbLine
 10
-488.1348247553839
 20
378.6205160849173
 30
0.0
 11
-260.1348247553696
 21
606.6205160849315
 31
0.0
  0
LINE
  5
20B
330
1F
100
AcDbEntity
  8
0-0
  6
JWW_DASHED1
 62
   120
370
     5
100
AcDbLine
 10
-488.1348247553839
 20
364.4783804611848
 30
0.0
 11
-260.1348247553867
 21
592.4783804611816
 31
0.0
  0
LINE
  5
20C
330
1F
100
AcDbEntity
  8
0-0
  6
JWW_DASHED1
 62
   120
370
     5
100
AcDbLine
 10
-488.1348247553873
 20
350.336244837448
 30
0.0
 11
-260.134824755373
 21
578.3362448374606
 31
0.0
  0
LINE
  5
20D
330
1F
100
AcDbEntity
  8
0-0
  6
JWW_DASHED1
 62
   120
370
     5
100
AcDbLine
 10
-488.1348247553908
 20
336.1941092137104
 30
0.0
 11
-260.1348247553935
 21
564.1941092137068
 31
0.0
  0
LINE
  5
20E
330
1F
100
AcDbEntity
  8
0-0
  6
JWW_DASHED1
 62
   120
370
     5
100
AcDbLine
 10
-488.1348247553788
 20
322.051973589989
 30
0.0
 11
-260.1348247553832
 21
550.0519735899854
 31
0.0
  0
LINE
  5
20F
330
1F
100
AcDbEntity
  8
0-0
  6
JWW_DASHED1
 62
   120
370
     5
100
AcDbLine
 10
-488.134824755389
 20
307.9098379662454
 30
0.0
 11
-260.134824755373
 21
535.9098379662598
 31
0.0
  0
LINE
  5
210
330
1F
100
AcDbEntity
  8
0-0
  6
JWW_DASHED1
 62
   120
370
     5
100
AcDbLine
 10
-488.1348247553873
 20
293.7677023425147
 30
0.0
 11
-260.1348247553901
 21
521.767702342511
 31
0.0
  0
LINE
  5
211
330
1F
100
AcDbEntity
  8
0-0
  6
JWW_DASHED1
 62
   120
370
     5
100
AcDbLine
 10
-488.1348247553737
 20
279.6255667187924
 30
0.0
 11
-260.1348247553781
 21
507.6255667187897
 31
0.0
  0
LINE
  5
212
330
1F
100
AcDbEntity
  8
0-0
  6
JWW_DASHED1
 62
   120
370
     5
100
AcDbLine
 10
-488.1348247553856
 20
265.4834310950488
 30
0.0
 11
-260.1348247553696
 21
493.4834310950632
 31
0.0
  0
LINE
  5
213
330
1F
100
AcDbEntity
  8
0-0
  6
JWW_DASHED1
 62
   120
370
     5
100
AcDbLine
 10
-488.1348247553839
 20
251.3412954713181
 30
0.0
 11
-260.1348247553867
 21
479.3412954713145
 31
0.0
  0
LINE
  5
214
330
1F
100
AcDbEntity
  8
0-0
  6
JWW_DASHED1
 62
   120
370
     5
100
AcDbLine
 10
-488.1348247553873
 20
237.1991598475805
 30
0.0
 11
-260.1348247553747
 21
465.1991598475931
 31
0.0
  0
LINE
  5
215
330
1F
100
AcDbEntity
  8
0-0
  6
JWW_DASHED1
 62
   120
370
     5
100
AcDbLine
 10
-488.1348247553805
 20
223.0570242238531
 30
0.0
 11
-260.1348247553832
 21
451.0570242238512
 31
0.0
  0
LINE
  5
216
330
1F
100
AcDbEntity
  8
0-0
  6
JWW_DASHED1
 62
   120
370
     5
100
AcDbLine
 10
-488.1348247553805
 20
208.9148886001215
 30
0.0
 11
-260.1348247553832
 21
436.9148886001187
 31
0.0
  0
LINE
  5
217
330
1F
100
AcDbEntity
  8
0-0
  6
JWW_DASHED1
 62
   120
370
     5
100
AcDbLine
 10
-488.1348247553839
 20
194.7727529763847
 30
0.0
 11
-260.1348247553696
 21
422.7727529763973
 31
0.0
  0
LINE
  5
218
330
1F
100
AcDbEntity
  8
0-0
  6
JWW_DASHED1
 62
   120
370
     5
100
AcDbLine
 10
-488.1348247553873
 20
180.6306173526471
 30
0.0
 11
-260.1348247553901
 21
408.6306173526435
 31
0.0
  0
LINE
  5
219
330
1F
100
AcDbEntity
  8
0-0
  6
JWW_DASHED1
 62
   120
370
     5
100
AcDbLine
 10
-488.1348247553754
 20
166.4884817289257
 30
0.0
 11
-260.1348247553798
 21
394.4884817289221
 31
0.0
  0
LINE
  5
21A
330
1F
100
AcDbEntity
  8
0-0
  6
JWW_DASHED1
 62
   120
370
     5
100
AcDbLine
 10
-488.1348247553873
 20
152.3463461051813
 30
0.0
 11
-260.134824755373
 21
380.3463461051956
 31
0.0
  0
LINE
  5
21B
330
1F
100
AcDbEntity
  8
0-0
  6
JWW_DASHED1
 62
   120
370
     5
100
AcDbLine
 10
-488.1348247553839
 20
138.2042104814514
 30
0.0
 11
-260.1348247553867
 21
366.2042104814478
 31
0.0
  0
LINE
  5
21C
330
1F
100
AcDbEntity
  8
0-0
  6
JWW_DASHED1
 62
   120
370
     5
100
AcDbLine
 10
-488.1348247553873
 20
124.0620748577138
 30
0.0
 11
-260.1348247553747
 21
352.0620748577264
 31
0.0
  0
LINE
  5
21D
330
1F
100
AcDbEntity
  8
0-0
  6
JWW_DASHED1
 62
   120
370
     5
100
AcDbLine
 10
-488.1348247553839
 20
109.9199392339847
 30
0.0
 11
-260.1348247553696
 21
337.919939233999
 31
0.0
  0
LINE
  5
21E
330
1F
100
AcDbEntity
  8
0-0
  6
JWW_DASHED1
 62
   120
370
     5
100
AcDbLine
 10
-488.1348247553805
 20
95.77780361025475
 30
0.0
 11
-260.1348247553832
 21
323.7778036102512
 31
0.0
  0
LINE
  5
21F
330
1F
100
AcDbEntity
  8
0-0
  6
JWW_DASHED1
 62
   120
370
     5
100
AcDbLine
 10
-488.1348247553839
 20
81.63566798651715
 30
0.0
 11
-260.1348247553696
 21
309.6356679865298
 31
0.0
  0
LINE
  5
220
330
1F
100
AcDbEntity
  8
0-0
  6
JWW_DASHED1
 62
   120
370
     5
100
AcDbLine
 10
-488.1348247553873
 20
67.4935323627804
 30
0.0
 11
-260.1348247553901
 21
295.4935323627768
 31
0.0
  0
LINE
  5
221
330
1F
100
AcDbEntity
  8
0-0
  6
JWW_DASHED1
 62
   120
370
     5
100
AcDbLine
 10
-488.1348247553873
 20
53.35139673910163
 30
0.0
 11
-260.1348247553747
 21
281.3513967391143
 31
0.0
  0
LINE
  5
222
330
1F
100
AcDbEntity
  8
0-0
  6
JWW_DASHED1
 62
   120
370
     5
100
AcDbLine
 10
-488.1348247553839
 20
39.20926111537256
 30
0.0
 11
-260.1348247553696
 21
267.2092611153869
 31
0.0
  0
LINE
  5
223
330
1F
100
AcDbEntity
  8
0-0
  6
JWW_DASHED1
 62
   120
370
     5
100
AcDbLine
 10
-488.1348247553805
 20
25.06712549164263
 30
0.0
 11
-260.1348247553832
 21
253.0671254916399
 31
0.0
  0
LINE
  5
224
330
1F
100
AcDbEntity
  8
0-0
  6
JWW_DASHED1
 62
   120
370
     5
100
AcDbLine
 10
-488.1348247553839
 20
10.92498986790588
 30
0.0
 11
-260.1348247553696
 21
238.9249898679176
 31
0.0
  0
LINE
  5
225
330
1F
100
AcDbEntity
  8
0-0
  6
JWW_DASHED1
 62
   120
370
     5
100
AcDbLine
 10
-488.1348247553873
 20
-3.217145755831723
 30
0.0
 11
-260.1348247553901
 21
224.7828542441647
 31
0.0
  0
LINE
  5
226
330
1F
100
AcDbEntity
  8
0-0
  6
JWW_DASHED1
 62
   120
370
     5
100
AcDbLine
 10
-488.1348247553754
 20
-17.35928137955312
 30
0.0
 11
-260.1348247553798
 21
210.6407186204433
 31
0.0
  0
LINE
  5
227
330
1F
100
AcDbEntity
  8
0-0
  6
JWW_DASHED1
 62
   120
370
     5
100
AcDbLine
 10
-488.1348247553873
 20
-31.50141700329925
 30
0.0
 11
-260.134824755373
 21
196.4985829967151
 31
0.0
  0
LINE
  5
228
330
1F
100
AcDbEntity
  8
0-0
  6
JWW_DASHED1
 62
   120
370
     5
100
AcDbLine
 10
-488.1348247553839
 20
-45.64355262702833
 30
0.0
 11
-260.1348247553867
 21
182.3564473729689
 31
0.0
  0
LINE
  5
229
330
1F
100
AcDbEntity
  8
0-0
  6
JWW_DASHED1
 62
   120
370
     5
100
AcDbLine
 10
-488.1348247553873
 20
-59.78568825076508
 30
0.0
 11
-260.1348247553747
 21
168.2143117492475
 31
0.0
  0
LINE
  5
22A
330
1F
100
AcDbEntity
  8
0-0
  6
JWW_DASHED1
 62
   120
370
     5
100
AcDbLine
 10
-488.1348247553839
 20
-73.92782387449586
 30
0.0
 11
-260.1348247553696
 21
154.0721761255185
 31
0.0
  0
LINE
  5
22B
330
1F
100
AcDbEntity
  8
0-0
  6
JWW_DASHED1
 62
   120
370
     5
100
AcDbLine
 10
-488.1348247553805
 20
-88.06995949822408
 30
0.0
 11
-260.1348247553832
 21
139.9300405017723
 31
0.0
  0
LINE
  5
22C
330
1F
100
AcDbEntity
  8
0-0
  6
JWW_DASHED1
 62
   120
370
     5
100
AcDbLine
 10
-488.1348247553839
 20
-102.2120951219617
 30
0.0
 11
-260.1348247553713
 21
125.7879048780509
 31
0.0
  0
LINE
  5
22D
330
1F
100
AcDbEntity
  8
0-0
  6
JWW_DASHED1
 62
   120
370
     5
100
AcDbLine
 10
-488.1348247553873
 20
-116.3542307456984
 30
0.0
 11
-260.1348247553901
 21
111.645769254298
 31
0.0
  0
LINE
  5
22E
330
1F
100
AcDbEntity
  8
0-0
  6
JWW_DASHED1
 62
   120
370
     5
100
AcDbLine
 10
-488.1348247553771
 20
-130.4963663694207
 30
0.0
 11
-260.1348247553798
 21
97.50363363057659
 31
0.0
  0
LINE
  5
22F
330
1F
100
AcDbEntity
  8
0-0
  6
JWW_DASHED1
 62
   120
370
     5
100
AcDbLine
 10
-488.1348247553908
 20
-144.6385019931668
 30
0.0
 11
-260.1348247553747
 21
83.36149800684751
 31
0.0
  0
LINE
  5
230
330
1F
100
AcDbEntity
  8
0-0
  6
JWW_DASHED1
 62
   120
370
     5
100
AcDbLine
 10
-488.1348247553839
 20
-158.780637616895
 30
0.0
 11
-260.1348247553867
 21
69.21936238310224
 31
0.0
  0
LINE
  5
231
330
1F
100
AcDbEntity
  8
0-0
  6
JWW_DASHED1
 62
   120
370
     5
100
AcDbLine
 10
-488.134824755372
 20
-172.9227732406164
 30
0.0
 11
-260.1348247553764
 21
55.07722675937998
 31
0.0
  0
LINE
  5
232
330
1F
100
AcDbEntity
  8
0-0
  6
JWW_DASHED1
 62
   120
370
     5
100
AcDbLine
 10
-488.1348247553856
 20
-187.0649088643634
 30
0.0
 11
-260.1348247553713
 21
40.93509113565091
 31
0.0
  0
LINE
  5
233
330
1F
100
AcDbEntity
  8
0-0
  6
JWW_DASHED1
 62
   120
370
     5
100
AcDbLine
 10
-488.1348247553805
 20
-201.2070444880908
 30
0.0
 11
-260.1348247553832
 21
26.79295551190563
 31
0.0
  0
LINE
  5
234
330
1F
100
AcDbEntity
  8
0-0
  6
JWW_DASHED1
 62
   120
370
     5
100
AcDbLine
 10
-488.1348247553839
 20
-215.3491801118284
 30
0.0
 11
-260.1348247553713
 21
12.65081988818423
 31
0.0
  0
LINE
  5
235
330
1F
100
AcDbEntity
  8
0-0
  6
JWW_DASHED1
 62
   120
370
     5
100
AcDbLine
 10
-488.1348247553822
 20
-229.49131573556
 30
0.0
 11
-260.1348247553832
 21
-1.491315735561898
 31
0.0
  0
LINE
  5
236
330
1F
100
AcDbEntity
  8
0-0
  6
JWW_DASHED1
 62
   120
370
     5
100
AcDbLine
 10
-488.1348247553771
 20
-243.6334513592874
 30
0.0
 11
-260.1348247553798
 21
-15.63345135929097
 31
0.0
  0
LINE
  5
237
330
1F
100
AcDbEntity
  8
0-0
  6
JWW_DASHED1
 62
   120
370
     5
100
AcDbLine
 10
-488.1348247553805
 20
-257.7755869830241
 30
0.0
 11
-260.1348247553679
 21
-29.77558698301237
 31
0.0
  0
LINE
  5
238
330
1F
100
AcDbEntity
  8
0-0
  6
JWW_DASHED1
 62
   120
370
     5
100
AcDbLine
 10
-488.1348247553839
 20
-271.9177226067617
 30
0.0
 11
-260.1348247553867
 21
-43.91772260676532
 31
0.0
  0
LINE
  5
239
330
1F
100
AcDbEntity
  8
0-0
  6
JWW_DASHED1
 62
   120
370
     5
100
AcDbLine
 10
-488.1348247553737
 20
-286.059858230484
 30
0.0
 11
-260.1348247553764
 21
-58.05985823048673
 31
0.0
  0
LINE
  5
23A
330
1F
100
AcDbEntity
  8
0-0
  6
JWW_DASHED1
 62
   120
370
     5
100
AcDbLine
 10
-488.1348247553873
 20
-300.201993854231
 30
0.0
 11
-260.134824755373
 21
-72.2019938542175
 31
0.0
  0
LINE
  5
23B
330
1F
100
AcDbEntity
  8
0-0
  6
JWW_DASHED1
 62
   120
370
     5
100
AcDbLine
 10
-488.1348247553805
 20
-314.3441294779583
 30
0.0
 11
-260.1348247553832
 21
-86.34412947796108
 31
0.0
  0
LINE
  5
23C
330
1F
100
AcDbEntity
  8
0-0
  6
JWW_DASHED1
 62
   120
370
     5
100
AcDbLine
 10
-488.1348247553822
 20
-328.4862651016661
 30
0.0
 11
-260.1348247553696
 21
-100.4862651016535
 31
0.0
  0
LINE
  5
23D
330
1F
100
AcDbEntity
  8
0-0
  6
JWW_DASHED1
 62
   120
370
     5
100
AcDbLine
 10
-488.1348247553839
 20
-342.6284007253739
 30
0.0
 11
-260.1348247553867
 21
-114.6284007253774
 31
0.0
  0
LINE
  5
23E
330
1F
100
AcDbEntity
  8
0-0
  6
JWW_DASHED1
 62
   120
370
     5
100
AcDbLine
 10
-488.134824755372
 20
-356.7705363490953
 30
0.0
 11
-260.1348247553764
 21
-128.7705363490988
 31
0.0
  0
LINE
  5
23F
330
1F
100
AcDbEntity
  8
0-0
  6
JWW_DASHED1
 62
   120
370
     5
100
AcDbLine
 10
-488.1348247553873
 20
-370.912671972844
 30
0.0
 11
-260.134824755373
 21
-142.9126719728296
 31
0.0
  0
LINE
  5
240
330
1F
100
AcDbEntity
  8
0-0
  6
JWW_DASHED1
 62
   120
370
     5
100
AcDbLine
 10
-488.1348247553805
 20
-385.0548075965705
 30
0.0
 11
-260.1348247553832
 21
-157.0548075965732
 31
0.0
  0
LINE
  5
241
330
1F
100
AcDbEntity
  8
0-0
  6
JWW_DASHED1
 62
   120
370
     5
100
AcDbLine
 10
-488.1348247553839
 20
-399.1969432203072
 30
0.0
 11
-260.134824755373
 21
-171.1969432202955
 31
0.0
  0
LINE
  5
242
330
1F
100
AcDbEntity
  8
0-0
  6
JWW_DASHED1
 62
   120
370
     5
100
AcDbLine
 10
-488.1348247553839
 20
-413.3390788440406
 30
0.0
 11
-260.1348247553696
 21
-185.3390788440262
 31
0.0
  0
LINE
  5
243
330
1F
100
AcDbEntity
  8
0-0
  6
JWW_DASHED1
 62
   120
370
     5
100
AcDbLine
 10
-488.1348247553771
 20
-427.4812144677662
 30
0.0
 11
-260.1348247553798
 21
-199.4812144677698
 31
0.0
  0
LINE
  5
244
330
1F
100
AcDbEntity
  8
0-0
  6
JWW_DASHED1
 62
   120
370
     5
100
AcDbLine
 10
-488.1348247553805
 20
-441.6233500915038
 30
0.0
 11
-260.1348247553679
 21
-213.6233500914912
 31
0.0
  0
LINE
  5
245
330
1F
100
AcDbEntity
  8
0-0
  6
JWW_DASHED1
 62
   120
370
     5
100
AcDbLine
 10
-488.1348247553839
 20
-455.7654857152414
 30
0.0
 11
-260.1348247553867
 21
-227.7654857152442
 31
0.0
  0
LINE
  5
246
330
1F
100
AcDbEntity
  8
0-0
  6
JWW_DASHED1
 62
   120
370
     5
100
AcDbLine
 10
-488.1348247553737
 20
-469.9076213389622
 30
0.0
 11
-260.1348247553764
 21
-241.9076213389656
 31
0.0
  0
LINE
  5
247
330
1F
100
AcDbEntity
  8
0-0
  6
JWW_DASHED1
 62
   120
370
     5
100
AcDbLine
 10
-488.1348247553873
 20
-484.049756962712
 30
0.0
 11
-260.134824755373
 21
-256.0497569626972
 31
0.0
  0
LINE
  5
248
330
1F
100
AcDbEntity
  8
0-0
  6
JWW_DASHED1
 62
   120
370
     5
100
AcDbLine
 10
-488.1348247553805
 20
-498.1918925864372
 30
0.0
 11
-260.1348247553832
 21
-270.1918925864408
 31
0.0
  0
LINE
  5
249
330
1F
100
AcDbEntity
  8
0-0
  6
JWW_DASHED1
 62
   120
370
     5
100
AcDbLine
 10
-488.1348247553839
 20
-512.3340282101746
 30
0.0
 11
-260.134824755373
 21
-284.3340282101622
 31
0.0
  0
LINE
  5
24A
330
1F
100
AcDbEntity
  8
0-0
  6
JWW_DASHED1
 62
   120
370
     5
100
AcDbLine
 10
-488.1348247553839
 20
-526.4761638339086
 30
0.0
 11
-260.1348247553713
 21
-298.4761638338946
 31
0.0
  0
LINE
  5
24B
330
1F
100
AcDbEntity
  8
0-0
  6
JWW_DASHED1
 62
   120
370
     5
100
AcDbLine
 10
-488.1348247553771
 20
-540.6182994576332
 30
0.0
 11
-260.1348247553798
 21
-312.6182994576365
 31
0.0
  0
LINE
  5
24C
330
1F
100
AcDbEntity
  8
0-0
  6
JWW_DASHED1
 62
   120
370
     5
100
AcDbLine
 10
-488.1348247553805
 20
-554.7604350813707
 30
0.0
 11
-260.1348247553679
 21
-326.7604350813579
 31
0.0
  0
LINE
  5
24D
330
1F
100
AcDbEntity
  8
0-0
  6
JWW_DASHED1
 62
   120
370
     5
100
AcDbLine
 10
-488.1348247553839
 20
-568.9025707051081
 30
0.0
 11
-260.1348247553867
 21
-340.9025707051109
 31
0.0
  0
LINE
  5
24E
330
1F
100
AcDbEntity
  8
0-0
  6
JWW_DASHED1
 62
   120
370
     5
100
AcDbLine
 10
-488.1348247553737
 20
-583.0447063288298
 30
0.0
 11
-260.1348247553764
 21
-355.0447063288331
 31
0.0
  0
LINE
  5
24F
330
1F
100
AcDbEntity
  8
0-0
  6
JWW_DASHED1
 62
   120
370
     5
100
AcDbLine
 10
-488.1348247553908
 20
-597.1868419525802
 30
0.0
 11
-260.1348247553764
 21
-369.1868419525656
 31
0.0
  0
LINE
  5
250
330
1F
100
AcDbEntity
  8
0-0
  6
JWW_DASHED1
 62
   120
370
     5
100
AcDbLine
 10
-488.1348247553805
 20
-611.3289775763043
 30
0.0
 11
-260.1348247553832
 21
-383.3289775763075
 31
0.0
  0
LINE
  5
251
330
1F
100
AcDbEntity
  8
0-0
  6
JWW_DASHED1
 62
   120
370
     5
100
AcDbLine
 10
-488.1348247553839
 20
-625.4711132000417
 30
0.0
 11
-260.134824755373
 21
-397.4711132000289
 31
0.0
  0
LINE
  5
252
330
1F
100
AcDbEntity
  8
0-0
  6
JWW_DASHED1
 62
   120
370
     5
100
AcDbLine
 10
-488.1348247553873
 20
-639.6132488237765
 30
0.0
 11
-260.134824755373
 21
-411.6132488237622
 31
0.0
  0
LINE
  5
253
330
1F
100
AcDbEntity
  8
0-0
  6
JWW_DASHED1
 62
   120
370
     5
100
AcDbLine
 10
-488.1348247553771
 20
-653.7553844475005
 30
0.0
 11
-260.1348247553798
 21
-425.7553844475032
 31
0.0
  0
LINE
  5
254
330
1F
100
AcDbEntity
  8
0-0
  6
JWW_DASHED1
 62
   120
370
     5
100
AcDbLine
 10
-488.1348247553805
 20
-667.8975200712379
 30
0.0
 11
-260.1348247553696
 21
-439.8975200712246
 31
0.0
  0
LINE
  5
255
330
1F
100
AcDbEntity
  8
0-0
  6
JWW_DASHED1
 62
   120
370
     5
100
AcDbLine
 10
-488.1348247553839
 20
-682.0396556949731
 30
0.0
 11
-260.1348247553832
 21
-454.0396556949742
 31
0.0
  0
LINE
  5
256
330
1F
100
AcDbEntity
  8
0-0
  6
JWW_DASHED1
 62
   120
370
     5
100
AcDbLine
 10
-488.1348247553737
 20
-696.1817913186965
 30
0.0
 11
-260.1348247553764
 21
-468.1817913187
 31
0.0
  0
LINE
  5
257
330
1F
100
AcDbEntity
  8
0-0
  6
JWW_DASHED1
 62
   120
370
     5
100
AcDbLine
 10
-488.1348247553771
 20
-710.3239269424339
 30
0.0
 11
-260.1348247553645
 21
-482.3239269424215
 31
0.0
  0
LINE
  5
258
330
1F
100
AcDbEntity
  8
0-0
  6
JWW_DASHED1
 62
   120
370
     5
100
AcDbLine
 10
-488.1348247553771
 20
-724.4660625661127
 30
0.0
 11
-260.1348247553798
 21
-496.4660625661157
 31
0.0
  0
LINE
  5
259
330
1F
100
AcDbEntity
  8
0-0
  6
JWW_DASHED1
 62
   120
370
     5
100
AcDbLine
 10
-488.1348247553805
 20
-738.6081981898498
 30
0.0
 11
-260.1348247553696
 21
-510.6081981898371
 31
0.0
  0
LINE
  5
25A
330
1F
100
AcDbEntity
  8
0-0
  6
JWW_DASHED1
 62
   120
370
     5
100
AcDbLine
 10
-488.1348247553839
 20
-752.7503338135857
 30
0.0
 11
-260.134824755385
 21
-524.7503338135871
 31
0.0
  0
LINE
  5
25B
330
1F
100
AcDbEntity
  8
0-0
  6
JWW_DASHED1
 62
   120
370
     5
100
AcDbLine
 10
-488.1348247553737
 20
-766.8924694373084
 30
0.0
 11
-260.1348247553764
 21
-538.892469437312
 31
0.0
  0
LINE
  5
25C
330
1F
100
AcDbEntity
  8
0-0
  6
JWW_DASHED1
 62
   120
370
     5
100
AcDbLine
 10
-488.1348247553771
 20
-781.0346050610458
 30
0.0
 11
-260.1348247553645
 21
-553.0346050610333
 31
0.0
  0
LINE
  5
25D
330
1F
100
AcDbEntity
  8
0-0
  6
JWW_DASHED1
 62
   120
370
     5
100
AcDbLine
 10
-488.1348247553805
 20
-795.1767406847833
 30
0.0
 11
-260.1348247553832
 21
-567.1767406847865
 31
0.0
  0
LINE
  5
25E
330
1F
100
AcDbEntity
  8
0-0
  6
JWW_DASHED1
 62
   120
370
     5
100
AcDbLine
 10
-488.1348247553703
 20
-809.3188763085047
 30
0.0
 11
-260.134824755373
 21
-581.3188763085079
 31
0.0
  0
LINE
  5
25F
330
1F
100
AcDbEntity
  8
0-0
  6
JWW_DASHED1
 62
   120
370
     5
100
AcDbLine
 10
-488.1348247553873
 20
-823.4610119322571
 30
0.0
 11
-260.134824755373
 21
-595.4610119322425
 31
0.0
  0
LINE
  5
260
330
1F
100
AcDbEntity
  8
0-0
  6
JWW_DASHED1
 62
   120
370
     5
100
AcDbLine
 10
-488.1348247553771
 20
-837.6031475559791
 30
0.0
 11
-260.1348247553798
 21
-609.6031475559827
 31
0.0
  0
LINE
  5
261
330
1F
100
AcDbEntity
  8
0-0
  6
JWW_DASHED1
 62
   120
370
     5
100
AcDbLine
 10
-488.1348247553805
 20
-851.7452831797169
 30
0.0
 11
-260.1348247553696
 21
-623.7452831797041
 31
0.0
  0
LINE
  5
262
330
1F
100
AcDbEntity
  8
0-0
  6
JWW_DASHED1
 62
   120
370
     5
100
AcDbLine
 10
-488.1348247553839
 20
-865.8874188034534
 30
0.0
 11
-260.1348247553696
 21
-637.8874188034391
 31
0.0
  0
LINE
  5
263
330
1F
100
AcDbEntity
  8
0-0
  6
JWW_DASHED1
 62
   120
370
     5
100
AcDbLine
 10
-488.1348247553737
 20
-880.0295544271755
 30
0.0
 11
-260.1348247553764
 21
-652.0295544271788
 31
0.0
  0
LINE
  5
264
330
1F
100
AcDbEntity
  8
0-0
  6
JWW_DASHED1
 62
   120
370
     5
100
AcDbLine
 10
-488.1348247553771
 20
-894.1716900509131
 30
0.0
 11
-260.1348247553662
 21
-666.1716900509005
 31
0.0
  0
LINE
  5
265
330
1F
100
AcDbEntity
  8
0-0
  6
JWW_DASHED1
 62
   120
370
     5
100
AcDbLine
 10
-488.1348247553805
 20
-908.3138256746503
 30
0.0
 11
-260.1348247553832
 21
-680.3138256746537
 31
0.0
  0
LINE
  5
266
330
1F
100
AcDbEntity
  8
0-0
  6
JWW_DASHED1
 62
   120
370
     5
100
AcDbLine
 10
-488.1348247553703
 20
-922.4559612983717
 30
0.0
 11
-260.134824755373
 21
-694.4559612983753
 31
0.0
  0
LINE
  5
267
330
1F
100
AcDbEntity
  8
0-0
  6
JWW_DASHED1
 62
   120
370
     5
100
AcDbLine
 10
-488.134824755389
 20
-936.5980969221247
 30
0.0
 11
-260.1348247553747
 21
-708.5980969221105
 31
0.0
  0
LINE
  5
268
330
1F
100
AcDbEntity
  8
0-0
  6
JWW_DASHED1
 62
   120
370
     5
100
AcDbLine
 10
-477.7947548496203
 20
-940.4001626400906
 30
0.0
 11
-260.1348247553798
 21
-722.7402325458496
 31
0.0
  0
LINE
  5
269
330
1F
100
AcDbEntity
  8
0-0
  6
JWW_DASHED1
 62
   120
370
     5
100
AcDbLine
 10
-463.652619225887
 20
-940.400162640088
 30
0.0
 11
-260.1348247553696
 21
-736.8823681695712
 31
0.0
  0
LINE
  5
26A
330
1F
100
AcDbEntity
  8
0-0
  6
JWW_DASHED1
 62
   120
370
     5
100
AcDbLine
 10
-449.5104836021503
 20
-940.4001626400848
 30
0.0
 11
-260.1348247553713
 21
-751.0245037933071
 31
0.0
  0
LINE
  5
26B
330
1F
100
AcDbEntity
  8
0-0
  6
JWW_DASHED1
 62
   120
370
     5
100
AcDbLine
 10
-435.3683479784237
 20
-940.4001626400935
 30
0.0
 11
-260.1348247553764
 21
-765.166639417046
 31
0.0
  0
LINE
  5
26C
330
1F
100
AcDbEntity
  8
0-0
  6
JWW_DASHED1
 62
   120
370
     5
100
AcDbLine
 10
-421.2262123546921
 20
-940.4001626400944
 30
0.0
 11
-260.1348247553662
 21
-779.3087750407674
 31
0.0
  0
LINE
  5
26D
330
1F
100
AcDbEntity
  8
0-0
  6
JWW_DASHED1
 62
   120
370
     5
100
AcDbLine
 10
-407.0840767309502
 20
-940.4001626400857
 30
0.0
 11
-260.134824755385
 21
-793.4509106645205
 31
0.0
  0
LINE
  5
26E
330
1F
100
AcDbEntity
  8
0-0
  6
JWW_DASHED1
 62
   120
370
     5
100
AcDbLine
 10
-392.9419411072271
 20
-940.4001626400972
 30
0.0
 11
-260.134824755373
 21
-807.593046288242
 31
0.0
  0
LINE
  5
26F
330
1F
100
AcDbEntity
  8
0-0
  6
JWW_DASHED1
 62
   120
370
     5
100
AcDbLine
 10
-378.7998054834836
 20
-940.4001626400848
 30
0.0
 11
-260.1348247553764
 21
-821.7351819119785
 31
0.0
  0
LINE
  5
270
330
1F
100
AcDbEntity
  8
0-0
  6
JWW_DASHED1
 62
   120
370
     5
100
AcDbLine
 10
-364.6576698597536
 20
-940.4001626400886
 30
0.0
 11
-260.1348247553798
 21
-835.8773175357168
 31
0.0
  0
LINE
  5
271
330
1F
100
AcDbEntity
  8
0-0
  6
JWW_DASHED1
 62
   120
370
     5
100
AcDbLine
 10
-350.5155342360254
 20
-940.4001626400942
 30
0.0
 11
-260.1348247553696
 21
-850.0194531594384
 31
0.0
  0
LINE
  5
272
330
1F
100
AcDbEntity
  8
0-0
  6
JWW_DASHED1
 62
   120
370
     5
100
AcDbLine
 10
-336.3733986122887
 20
-940.4001626400909
 30
0.0
 11
-260.134824755373
 21
-864.1615887831749
 31
0.0
  0
LINE
  5
273
330
1F
100
AcDbEntity
  8
0-0
  6
JWW_DASHED1
 62
   120
370
     5
100
AcDbLine
 10
-322.231262988586
 20
-940.4001626400942
 30
0.0
 11
-260.1348247553764
 21
-878.3037244068837
 31
0.0
  0
LINE
  5
274
330
1F
100
AcDbEntity
  8
0-0
  6
JWW_DASHED1
 62
   120
370
     5
100
AcDbLine
 10
-308.0891273648749
 20
-940.4001626400891
 30
0.0
 11
-260.1348247553764
 21
-892.4458600305909
 31
0.0
  0
LINE
  5
275
330
1F
100
AcDbEntity
  8
0-0
  6
JWW_DASHED1
 62
   120
370
     5
100
AcDbLine
 10
-293.9469917411415
 20
-940.4001626400882
 30
0.0
 11
-260.1348247553798
 21
-906.5879956543287
 31
0.0
  0
LINE
  5
276
330
1F
100
AcDbEntity
  8
0-0
  6
JWW_DASHED1
 62
   120
370
     5
100
AcDbLine
 10
-279.8048561174184
 20
-940.4001626400984
 30
0.0
 11
-260.1348247553696
 21
-920.7301312780503
 31
0.0
  0
LINE
  5
277
330
1F
100
AcDbEntity
  8
0-0
  6
JWW_DASHED1
 62
   120
370
     5
100
AcDbLine
 10
-265.6627204936817
 20
-940.400162640095
 30
0.0
 11
-260.134824755373
 21
-934.8722669017875
 31
0.0
  0
LINE
  5
278
330
1F
100
AcDbEntity
  8
0-0
  6
Continuous
 62
     7
370
     9
100
AcDbLine
 10
-488.1348247553805
 20
-940.4001626400872
 30
0.0
 11
-260.1348247553815
 21
-940.4001626400872
 31
0.0
  0
LINE
  5
279
330
1F
100
AcDbEntity
  8
0-0
  6
JWW_DASHED1
 62
   120
370
     5
100
AcDbLine
 10
-1268.134824755381
 20
788.7424491731329
 30
0.0
 11
-1040.134824755381
 21
1016.742449173132
 31
0.0
  0
LINE
  5
27A
330
1F
100
AcDbEntity
  8
0-0
  6
JWW_DASHED1
 62
   120
370
     5
100
AcDbLine
 10
-1268.134824755382
 20
774.6003135493979
 30
0.0
 11
-1040.134824755385
 21
1002.600313549395
 31
0.0
  0
LINE
  5
27B
330
1F
100
AcDbEntity
  8
0-0
  6
JWW_DASHED1
 62
   120
370
     5
100
AcDbLine
 10
-1268.134824755386
 20
760.4581779256607
 30
0.0
 11
-1040.134824755373
 21
988.4581779256733
 31
0.0
  0
LINE
  5
27C
330
1F
100
AcDbEntity
  8
0-0
  6
JWW_DASHED1
 62
   120
370
     5
100
AcDbLine
 10
-1268.134824755391
 20
746.3160423019226
 30
0.0
 11
-1040.134824755394
 21
974.3160423019199
 31
0.0
  0
LINE
  5
27D
330
1F
100
AcDbEntity
  8
0-0
  6
JWW_DASHED1
 62
   120
370
     5
100
AcDbLine
 10
-1268.134824755377
 20
732.1739066782017
 30
0.0
 11
-1040.134824755381
 21
960.1739066781986
 31
0.0
  0
LINE
  5
27E
330
1F
100
AcDbEntity
  8
0-0
  6
JWW_DASHED1
 62
   120
370
     5
100
AcDbLine
 10
-1268.134824755384
 20
718.031771054462
 30
0.0
 11
-1040.13482475537
 21
946.0317710544758
 31
0.0
  0
LINE
  5
27F
330
1F
100
AcDbEntity
  8
0-0
  6
JWW_DASHED1
 62
   120
370
     5
100
AcDbLine
 10
-1268.134824755387
 20
703.8896354307269
 30
0.0
 11
-1040.13482475539
 21
931.8896354307233
 31
0.0
  0
LINE
  5
280
330
1F
100
AcDbEntity
  8
0-0
  6
JWW_DASHED1
 62
   120
370
     5
100
AcDbLine
 10
-1268.134824755391
 20
689.7474998069893
 30
0.0
 11
-1040.134824755376
 21
917.7474998070023
 31
0.0
  0
LINE
  5
281
330
1F
100
AcDbEntity
  8
0-0
  6
JWW_DASHED1
 62
   120
370
     5
100
AcDbLine
 10
-1268.134824755381
 20
675.6053641832649
 30
0.0
 11
-1040.134824755366
 21
903.6053641832797
 31
0.0
  0
LINE
  5
282
330
1F
100
AcDbEntity
  8
0-0
  6
JWW_DASHED1
 62
   120
370
     5
100
AcDbLine
 10
-1268.134824755382
 20
661.4632285595308
 30
0.0
 11
-1040.134824755385
 21
889.4632285595276
 31
0.0
  0
LINE
  5
283
330
1F
100
AcDbEntity
  8
0-0
  6
JWW_DASHED1
 62
   120
370
     5
100
AcDbLine
 10
-1268.134824755387
 20
647.3210929357936
 30
0.0
 11
-1040.134824755373
 21
875.3210929358062
 31
0.0
  0
LINE
  5
284
330
1F
100
AcDbEntity
  8
0-0
  6
JWW_DASHED1
 62
   120
370
     5
100
AcDbLine
 10
-1268.134824755391
 20
633.1789573120559
 30
0.0
 11
-1040.134824755394
 21
861.1789573120528
 31
0.0
  0
LINE
  5
285
330
1F
100
AcDbEntity
  8
0-0
  6
JWW_DASHED1
 62
   120
370
     5
100
AcDbLine
 10
-1268.134824755379
 20
619.0368216883346
 30
0.0
 11
-1040.134824755381
 21
847.0368216883314
 31
0.0
  0
LINE
  5
286
330
1F
100
AcDbEntity
  8
0-0
  6
JWW_DASHED1
 62
   120
370
     5
100
AcDbLine
 10
-1268.134824755386
 20
604.894686064594
 30
0.0
 11
-1040.134824755371
 21
832.8946860646083
 31
0.0
  0
LINE
  5
287
330
1F
100
AcDbEntity
  8
0-0
  6
JWW_DASHED1
 62
   120
370
     5
100
AcDbLine
 10
-1268.134824755387
 20
590.7525504408602
 30
0.0
 11
-1040.13482475539
 21
818.7525504408566
 31
0.0
  0
LINE
  5
288
330
1F
100
AcDbEntity
  8
0-0
  6
JWW_DASHED1
 62
   120
370
     5
100
AcDbLine
 10
-1268.134824755391
 20
576.6104148171225
 30
0.0
 11
-1040.134824755376
 21
804.6104148171353
 31
0.0
  0
LINE
  5
289
330
1F
100
AcDbEntity
  8
0-0
  6
JWW_DASHED1
 62
   120
370
     5
100
AcDbLine
 10
-1268.134824755382
 20
562.4682791933974
 30
0.0
 11
-1040.134824755368
 21
790.4682791934117
 31
0.0
  0
LINE
  5
28A
330
1F
100
AcDbEntity
  8
0-0
  6
JWW_DASHED1
 62
   120
370
     5
100
AcDbLine
 10
-1268.134824755382
 20
548.326143569664
 30
0.0
 11
-1040.134824755387
 21
776.32614356966
 31
0.0
  0
LINE
  5
28B
330
1F
100
AcDbEntity
  8
0-0
  6
JWW_DASHED1
 62
   120
370
     5
100
AcDbLine
 10
-1268.134824755387
 20
534.1840079459264
 30
0.0
 11
-1040.134824755373
 21
762.184007945939
 31
0.0
  0
LINE
  5
28C
330
1F
100
AcDbEntity
  8
0-0
  6
JWW_DASHED1
 62
   120
370
     5
100
AcDbLine
 10
-1268.134824755391
 20
520.0418723221892
 30
0.0
 11
-1040.134824755394
 21
748.0418723221861
 31
0.0
  0
LINE
  5
28D
330
1F
100
AcDbEntity
  8
0-0
  6
JWW_DASHED1
 62
   120
370
     5
100
AcDbLine
 10
-1268.134824755379
 20
505.8997366984674
 30
0.0
 11
-1040.134824755383
 21
733.8997366984643
 31
0.0
  0
LINE
  5
28E
330
1F
100
AcDbEntity
  8
0-0
  6
JWW_DASHED1
 62
   120
370
     5
100
AcDbLine
 10
-1268.134824755387
 20
491.757601074726
 30
0.0
 11
-1040.134824755373
 21
719.7576010747403
 31
0.0
  0
LINE
  5
28F
330
1F
100
AcDbEntity
  8
0-0
  6
JWW_DASHED1
 62
   120
370
     5
100
AcDbLine
 10
-1268.134824755387
 20
477.615465450993
 30
0.0
 11
-1040.13482475539
 21
705.6154654509895
 31
0.0
  0
LINE
  5
290
330
1F
100
AcDbEntity
  8
0-0
  6
JWW_DASHED1
 62
   120
370
     5
100
AcDbLine
 10
-1268.134824755391
 20
463.4733298272555
 30
0.0
 11
-1040.134824755378
 21
691.4733298272681
 31
0.0
  0
LINE
  5
291
330
1F
100
AcDbEntity
  8
0-0
  6
JWW_DASHED1
 62
   120
370
     5
100
AcDbLine
 10
-1268.134824755392
 20
449.3311942035477
 30
0.0
 11
-1040.13482475538
 21
677.3311942035604
 31
0.0
  0
LINE
  5
292
330
1F
100
AcDbEntity
  8
0-0
  6
JWW_DASHED1
 62
   120
370
     5
100
AcDbLine
 10
-1268.134824755377
 20
435.1890585798557
 30
0.0
 11
-1040.134824755381
 21
663.1890585798526
 31
0.0
  0
LINE
  5
293
330
1F
100
AcDbEntity
  8
0-0
  6
JWW_DASHED1
 62
   120
370
     5
100
AcDbLine
 10
-1268.134824755387
 20
421.0469229561135
 30
0.0
 11
-1040.134824755373
 21
649.0469229561278
 31
0.0
  0
LINE
  5
294
330
1F
100
AcDbEntity
  8
0-0
  6
JWW_DASHED1
 62
   120
370
     5
100
AcDbLine
 10
-1268.134824755387
 20
406.9047873323809
 30
0.0
 11
-1040.13482475539
 21
634.9047873323777
 31
0.0
  0
LINE
  5
295
330
1F
100
AcDbEntity
  8
0-0
  6
JWW_DASHED1
 62
   120
370
     5
100
AcDbLine
 10
-1268.134824755391
 20
392.7626517086438
 30
0.0
 11
-1040.134824755378
 21
620.7626517086564
 31
0.0
  0
LINE
  5
296
330
1F
100
AcDbEntity
  8
0-0
  6
JWW_DASHED1
 62
   120
370
     5
100
AcDbLine
 10
-1268.134824755384
 20
378.6205160849169
 30
0.0
 11
-1040.13482475537
 21
606.6205160849312
 31
0.0
  0
LINE
  5
297
330
1F
100
AcDbEntity
  8
0-0
  6
JWW_DASHED1
 62
   120
370
     5
100
AcDbLine
 10
-1268.134824755384
 20
364.4783804611848
 30
0.0
 11
-1040.134824755387
 21
592.4783804611811
 31
0.0
  0
LINE
  5
298
330
1F
100
AcDbEntity
  8
0-0
  6
JWW_DASHED1
 62
   120
370
     5
100
AcDbLine
 10
-1268.134824755387
 20
350.3362448374476
 30
0.0
 11
-1040.134824755373
 21
578.3362448374602
 31
0.0
  0
LINE
  5
299
330
1F
100
AcDbEntity
  8
0-0
  6
JWW_DASHED1
 62
   120
370
     5
100
AcDbLine
 10
-1268.134824755391
 20
336.19410921371
 30
0.0
 11
-1040.134824755394
 21
564.1941092137068
 31
0.0
  0
LINE
  5
29A
330
1F
100
AcDbEntity
  8
0-0
  6
JWW_DASHED1
 62
   120
370
     5
100
AcDbLine
 10
-1268.134824755379
 20
322.0519735899886
 30
0.0
 11
-1040.134824755383
 21
550.0519735899854
 31
0.0
  0
LINE
  5
29B
330
1F
100
AcDbEntity
  8
0-0
  6
JWW_DASHED1
 62
   120
370
     5
100
AcDbLine
 10
-1268.134824755389
 20
307.9098379662454
 30
0.0
 11
-1040.134824755373
 21
535.9098379662598
 31
0.0
  0
LINE
  5
29C
330
1F
100
AcDbEntity
  8
0-0
  6
JWW_DASHED1
 62
   120
370
     5
100
AcDbLine
 10
-1268.134824755387
 20
293.7677023425142
 30
0.0
 11
-1040.13482475539
 21
521.7677023425107
 31
0.0
  0
LINE
  5
29D
330
1F
100
AcDbEntity
  8
0-0
  6
JWW_DASHED1
 62
   120
370
     5
100
AcDbLine
 10
-1268.134824755374
 20
279.6255667187924
 30
0.0
 11
-1040.134824755378
 21
507.6255667187893
 31
0.0
  0
LINE
  5
29E
330
1F
100
AcDbEntity
  8
0-0
  6
JWW_DASHED1
 62
   120
370
     5
100
AcDbLine
 10
-1268.134824755386
 20
265.4834310950488
 30
0.0
 11
-1040.13482475537
 21
493.4834310950632
 31
0.0
  0
LINE
  5
29F
330
1F
100
AcDbEntity
  8
0-0
  6
JWW_DASHED1
 62
   120
370
     5
100
AcDbLine
 10
-1268.134824755384
 20
251.3412954713176
 30
0.0
 11
-1040.134824755387
 21
479.3412954713145
 31
0.0
  0
LINE
  5
2A0
330
1F
100
AcDbEntity
  8
0-0
  6
JWW_DASHED1
 62
   120
370
     5
100
AcDbLine
 10
-1268.134824755387
 20
237.1991598475805
 30
0.0
 11
-1040.134824755375
 21
465.1991598475927
 31
0.0
  0
LINE
  5
2A1
330
1F
100
AcDbEntity
  8
0-0
  6
JWW_DASHED1
 62
   120
370
     5
100
AcDbLine
 10
-1268.134824755381
 20
223.0570242238527
 30
0.0
 11
-1040.134824755383
 21
451.0570242238508
 31
0.0
  0
LINE
  5
2A2
330
1F
100
AcDbEntity
  8
0-0
  6
JWW_DASHED1
 62
   120
370
     5
100
AcDbLine
 10
-1268.134824755381
 20
208.9148886001215
 30
0.0
 11
-1040.134824755383
 21
436.9148886001183
 31
0.0
  0
LINE
  5
2A3
330
1F
100
AcDbEntity
  8
0-0
  6
JWW_DASHED1
 62
   120
370
     5
100
AcDbLine
 10
-1268.134824755384
 20
194.7727529763843
 30
0.0
 11
-1040.13482475537
 21
422.7727529763969
 31
0.0
  0
LINE
  5
2A4
330
1F
100
AcDbEntity
  8
0-0
  6
JWW_DASHED1
 62
   120
370
     5
100
AcDbLine
 10
-1268.134824755387
 20
180.6306173526471
 30
0.0
 11
-1040.13482475539
 21
408.6306173526435
 31
0.0
  0
LINE
  5
2A5
330
1F
100
AcDbEntity
  8
0-0
  6
JWW_DASHED1
 62
   120
370
     5
100
AcDbLine
 10
-1268.134824755375
 20
166.4884817289253
 30
0.0
 11
-1040.13482475538
 21
394.4884817289221
 31
0.0
  0
LINE
  5
2A6
330
1F
100
AcDbEntity
  8
0-0
  6
JWW_DASHED1
 62
   120
370
     5
100
AcDbLine
 10
-1268.134824755387
 20
152.3463461051809
 30
0.0
 11
-1040.134824755373
 21
380.3463461051956
 31
0.0
  0
LINE
  5
2A7
330
1F
100
AcDbEntity
  8
0-0
  6
JWW_DASHED1
 62
   120
370
     5
100
AcDbLine
 10
-1268.134824755384
 20
138.2042104814509
 30
0.0
 11
-1040.134824755387
 21
366.2042104814474
 31
0.0
  0
LINE
  5
2A8
330
1F
100
AcDbEntity
  8
0-0
  6
JWW_DASHED1
 62
   120
370
     5
100
AcDbLine
 10
-1268.134824755387
 20
124.0620748577133
 30
0.0
 11
-1040.134824755375
 21
352.062074857726
 31
0.0
  0
LINE
  5
2A9
330
1F
100
AcDbEntity
  8
0-0
  6
JWW_DASHED1
 62
   120
370
     5
100
AcDbLine
 10
-1268.134824755384
 20
109.9199392339843
 30
0.0
 11
-1040.13482475537
 21
337.9199392339985
 31
0.0
  0
LINE
  5
2AA
330
1F
100
AcDbEntity
  8
0-0
  6
JWW_DASHED1
 62
   120
370
     5
100
AcDbLine
 10
-1268.134824755381
 20
95.77780361025432
 30
0.0
 11
-1040.134824755383
 21
323.7778036102512
 31
0.0
  0
LINE
  5
2AB
330
1F
100
AcDbEntity
  8
0-0
  6
JWW_DASHED1
 62
   120
370
     5
100
AcDbLine
 10
-1268.134824755384
 20
81.63566798651715
 30
0.0
 11
-1040.13482475537
 21
309.6356679865298
 31
0.0
  0
LINE
  5
2AC
330
1F
100
AcDbEntity
  8
0-0
  6
JWW_DASHED1
 62
   120
370
     5
100
AcDbLine
 10
-1268.134824755387
 20
67.49353236277997
 30
0.0
 11
-1040.13482475539
 21
295.4935323627768
 31
0.0
  0
LINE
  5
2AD
330
1F
100
AcDbEntity
  8
0-0
  6
JWW_DASHED1
 62
   120
370
     5
100
AcDbLine
 10
-1268.134824755387
 20
53.35139673910163
 30
0.0
 11
-1040.134824755375
 21
281.3513967391139
 31
0.0
  0
LINE
  5
2AE
330
1F
100
AcDbEntity
  8
0-0
  6
JWW_DASHED1
 62
   120
370
     5
100
AcDbLine
 10
-1268.134824755384
 20
39.20926111537213
 30
0.0
 11
-1040.13482475537
 21
267.2092611153864
 31
0.0
  0
LINE
  5
2AF
330
1F
100
AcDbEntity
  8
0-0
  6
JWW_DASHED1
 62
   120
370
     5
100
AcDbLine
 10
-1268.134824755381
 20
25.06712549164263
 30
0.0
 11
-1040.134824755383
 21
253.0671254916395
 31
0.0
  0
LINE
  5
2B0
330
1F
100
AcDbEntity
  8
0-0
  6
JWW_DASHED1
 62
   120
370
     5
100
AcDbLine
 10
-1268.134824755384
 20
10.92498986790545
 30
0.0
 11
-1040.13482475537
 21
238.9249898679176
 31
0.0
  0
LINE
  5
2B1
330
1F
100
AcDbEntity
  8
0-0
  6
JWW_DASHED1
 62
   120
370
     5
100
AcDbLine
 10
-1268.134824755387
 20
-3.217145755832149
 30
0.0
 11
-1040.13482475539
 21
224.7828542441647
 31
0.0
  0
LINE
  5
2B2
330
1F
100
AcDbEntity
  8
0-0
  6
JWW_DASHED1
 62
   120
370
     5
100
AcDbLine
 10
-1268.134824755375
 20
-17.35928137955355
 30
0.0
 11
-1040.13482475538
 21
210.6407186204429
 31
0.0
  0
LINE
  5
2B3
330
1F
100
AcDbEntity
  8
0-0
  6
JWW_DASHED1
 62
   120
370
     5
100
AcDbLine
 10
-1268.134824755387
 20
-31.50141700329968
 30
0.0
 11
-1040.134824755373
 21
196.4985829967151
 31
0.0
  0
LINE
  5
2B4
330
1F
100
AcDbEntity
  8
0-0
  6
JWW_DASHED1
 62
   120
370
     5
100
AcDbLine
 10
-1268.134824755384
 20
-45.64355262702833
 30
0.0
 11
-1040.134824755387
 21
182.3564473729685
 31
0.0
  0
LINE
  5
2B5
330
1F
100
AcDbEntity
  8
0-0
  6
JWW_DASHED1
 62
   120
370
     5
100
AcDbLine
 10
-1268.134824755387
 20
-59.7856882507655
 30
0.0
 11
-1040.134824755375
 21
168.2143117492471
 31
0.0
  0
LINE
  5
2B6
330
1F
100
AcDbEntity
  8
0-0
  6
JWW_DASHED1
 62
   120
370
     5
100
AcDbLine
 10
-1268.134824755384
 20
-73.92782387449628
 30
0.0
 11
-1040.13482475537
 21
154.072176125518
 31
0.0
  0
LINE
  5
2B7
330
1F
100
AcDbEntity
  8
0-0
  6
JWW_DASHED1
 62
   120
370
     5
100
AcDbLine
 10
-1268.134824755381
 20
-88.0699594982245
 30
0.0
 11
-1040.134824755383
 21
139.9300405017723
 31
0.0
  0
LINE
  5
2B8
330
1F
100
AcDbEntity
  8
0-0
  6
JWW_DASHED1
 62
   120
370
     5
100
AcDbLine
 10
-1268.134824755384
 20
-102.2120951219617
 30
0.0
 11
-1040.134824755371
 21
125.7879048780509
 31
0.0
  0
LINE
  5
2B9
330
1F
100
AcDbEntity
  8
0-0
  6
JWW_DASHED1
 62
   120
370
     5
100
AcDbLine
 10
-1268.134824755387
 20
-116.3542307456989
 30
0.0
 11
-1040.13482475539
 21
111.6457692542976
 31
0.0
  0
LINE
  5
2BA
330
1F
100
AcDbEntity
  8
0-0
  6
JWW_DASHED1
 62
   120
370
     5
100
AcDbLine
 10
-1268.134824755377
 20
-130.4963663694207
 30
0.0
 11
-1040.13482475538
 21
97.50363363057616
 31
0.0
  0
LINE
  5
2BB
330
1F
100
AcDbEntity
  8
0-0
  6
JWW_DASHED1
 62
   120
370
     5
100
AcDbLine
 10
-1268.134824755391
 20
-144.6385019931672
 30
0.0
 11
-1040.134824755375
 21
83.36149800684709
 31
0.0
  0
LINE
  5
2BC
330
1F
100
AcDbEntity
  8
0-0
  6
JWW_DASHED1
 62
   120
370
     5
100
AcDbLine
 10
-1268.134824755384
 20
-158.7806376168955
 30
0.0
 11
-1040.134824755387
 21
69.21936238310181
 31
0.0
  0
LINE
  5
2BD
330
1F
100
AcDbEntity
  8
0-0
  6
JWW_DASHED1
 62
   120
370
     5
100
AcDbLine
 10
-1268.134824755372
 20
-172.9227732406169
 30
0.0
 11
-1040.134824755376
 21
55.07722675937998
 31
0.0
  0
LINE
  5
2BE
330
1F
100
AcDbEntity
  8
0-0
  6
JWW_DASHED1
 62
   120
370
     5
100
AcDbLine
 10
-1268.134824755386
 20
-187.0649088643638
 30
0.0
 11
-1040.134824755371
 21
40.93509113565048
 31
0.0
  0
LINE
  5
2BF
330
1F
100
AcDbEntity
  8
0-0
  6
JWW_DASHED1
 62
   120
370
     5
100
AcDbLine
 10
-1268.134824755381
 20
-201.2070444880912
 30
0.0
 11
-1040.134824755383
 21
26.79295551190521
 31
0.0
  0
LINE
  5
2C0
330
1F
100
AcDbEntity
  8
0-0
  6
JWW_DASHED1
 62
   120
370
     5
100
AcDbLine
 10
-1268.134824755384
 20
-215.3491801118288
 30
0.0
 11
-1040.134824755371
 21
12.6508198881838
 31
0.0
  0
LINE
  5
2C1
330
1F
100
AcDbEntity
  8
0-0
  6
JWW_DASHED1
 62
   120
370
     5
100
AcDbLine
 10
-1268.134824755382
 20
-229.4913157355604
 30
0.0
 11
-1040.134824755383
 21
-1.491315735561898
 31
0.0
  0
LINE
  5
2C2
330
1F
100
AcDbEntity
  8
0-0
  6
JWW_DASHED1
 62
   120
370
     5
100
AcDbLine
 10
-1268.134824755377
 20
-243.6334513592878
 30
0.0
 11
-1040.13482475538
 21
-15.63345135929097
 31
0.0
  0
LINE
  5
2C3
330
1F
100
AcDbEntity
  8
0-0
  6
JWW_DASHED1
 62
   120
370
     5
100
AcDbLine
 10
-1268.134824755381
 20
-257.7755869830246
 30
0.0
 11
-1040.134824755368
 21
-29.77558698301237
 31
0.0
  0
LINE
  5
2C4
330
1F
100
AcDbEntity
  8
0-0
  6
JWW_DASHED1
 62
   120
370
     5
100
AcDbLine
 10
-1268.134824755384
 20
-271.9177226067621
 30
0.0
 11
-1040.134824755387
 21
-43.91772260676575
 31
0.0
  0
LINE
  5
2C5
330
1F
100
AcDbEntity
  8
0-0
  6
JWW_DASHED1
 62
   120
370
     5
100
AcDbLine
 10
-1268.134824755374
 20
-286.059858230484
 30
0.0
 11
-1040.134824755376
 21
-58.05985823048715
 31
0.0
  0
LINE
  5
2C6
330
1F
100
AcDbEntity
  8
0-0
  6
JWW_DASHED1
 62
   120
370
     5
100
AcDbLine
 10
-1268.134824755387
 20
-300.2019938542314
 30
0.0
 11
-1040.134824755373
 21
-72.2019938542175
 31
0.0
  0
LINE
  5
2C7
330
1F
100
AcDbEntity
  8
0-0
  6
JWW_DASHED1
 62
   120
370
     5
100
AcDbLine
 10
-1268.134824755381
 20
-314.3441294779583
 30
0.0
 11
-1040.134824755383
 21
-86.3441294779615
 31
0.0
  0
LINE
  5
2C8
330
1F
100
AcDbEntity
  8
0-0
  6
JWW_DASHED1
 62
   120
370
     5
100
AcDbLine
 10
-1268.134824755382
 20
-328.4862651016665
 30
0.0
 11
-1040.13482475537
 21
-100.4862651016539
 31
0.0
  0
LINE
  5
2C9
330
1F
100
AcDbEntity
  8
0-0
  6
JWW_DASHED1
 62
   120
370
     5
100
AcDbLine
 10
-1268.134824755384
 20
-342.6284007253743
 30
0.0
 11
-1040.134824755387
 21
-114.6284007253774
 31
0.0
  0
LINE
  5
2CA
330
1F
100
AcDbEntity
  8
0-0
  6
JWW_DASHED1
 62
   120
370
     5
100
AcDbLine
 10
-1268.134824755372
 20
-356.7705363490957
 30
0.0
 11
-1040.134824755376
 21
-128.7705363490988
 31
0.0
  0
LINE
  5
2CB
330
1F
100
AcDbEntity
  8
0-0
  6
JWW_DASHED1
 62
   120
370
     5
100
AcDbLine
 10
-1268.134824755387
 20
-370.9126719728444
 30
0.0
 11
-1040.134824755373
 21
-142.9126719728301
 31
0.0
  0
LINE
  5
2CC
330
1F
100
AcDbEntity
  8
0-0
  6
JWW_DASHED1
 62
   120
370
     5
100
AcDbLine
 10
-1268.134824755381
 20
-385.0548075965705
 30
0.0
 11
-1040.134824755383
 21
-157.0548075965736
 31
0.0
  0
LINE
  5
2CD
330
1F
100
AcDbEntity
  8
0-0
  6
JWW_DASHED1
 62
   120
370
     5
100
AcDbLine
 10
-1268.134824755384
 20
-399.1969432203076
 30
0.0
 11
-1040.134824755373
 21
-171.1969432202955
 31
0.0
  0
LINE
  5
2CE
330
1F
100
AcDbEntity
  8
0-0
  6
JWW_DASHED1
 62
   120
370
     5
100
AcDbLine
 10
-1268.134824755384
 20
-413.339078844041
 30
0.0
 11
-1040.13482475537
 21
-185.3390788440267
 31
0.0
  0
LINE
  5
2CF
330
1F
100
AcDbEntity
  8
0-0
  6
JWW_DASHED1
 62
   120
370
     5
100
AcDbLine
 10
-1268.134824755377
 20
-427.4812144677667
 30
0.0
 11
-1040.13482475538
 21
-199.4812144677702
 31
0.0
  0
LINE
  5
2D0
330
1F
100
AcDbEntity
  8
0-0
  6
JWW_DASHED1
 62
   120
370
     5
100
AcDbLine
 10
-1268.134824755381
 20
-441.6233500915042
 30
0.0
 11
-1040.134824755368
 21
-213.6233500914916
 31
0.0
  0
LINE
  5
2D1
330
1F
100
AcDbEntity
  8
0-0
  6
JWW_DASHED1
 62
   120
370
     5
100
AcDbLine
 10
-1268.134824755384
 20
-455.7654857152414
 30
0.0
 11
-1040.134824755387
 21
-227.7654857152446
 31
0.0
  0
LINE
  5
2D2
330
1F
100
AcDbEntity
  8
0-0
  6
JWW_DASHED1
 62
   120
370
     5
100
AcDbLine
 10
-1268.134824755374
 20
-469.9076213389624
 30
0.0
 11
-1040.134824755376
 21
-241.907621338966
 31
0.0
  0
LINE
  5
2D3
330
1F
100
AcDbEntity
  8
0-0
  6
JWW_DASHED1
 62
   120
370
     5
100
AcDbLine
 10
-1268.134824755387
 20
-484.0497569627121
 30
0.0
 11
-1040.134824755373
 21
-256.0497569626976
 31
0.0
  0
LINE
  5
2D4
330
1F
100
AcDbEntity
  8
0-0
  6
JWW_DASHED1
 62
   120
370
     5
100
AcDbLine
 10
-1268.134824755381
 20
-498.1918925864374
 30
0.0
 11
-1040.134824755383
 21
-270.1918925864408
 31
0.0
  0
LINE
  5
2D5
330
1F
100
AcDbEntity
  8
0-0
  6
JWW_DASHED1
 62
   120
370
     5
100
AcDbLine
 10
-1268.134824755384
 20
-512.3340282101748
 30
0.0
 11
-1040.134824755373
 21
-284.3340282101626
 31
0.0
  0
LINE
  5
2D6
330
1F
100
AcDbEntity
  8
0-0
  6
JWW_DASHED1
 62
   120
370
     5
100
AcDbLine
 10
-1268.134824755384
 20
-526.4761638339088
 30
0.0
 11
-1040.134824755371
 21
-298.4761638338946
 31
0.0
  0
LINE
  5
2D7
330
1F
100
AcDbEntity
  8
0-0
  6
JWW_DASHED1
 62
   120
370
     5
100
AcDbLine
 10
-1268.134824755377
 20
-540.6182994576334
 30
0.0
 11
-1040.13482475538
 21
-312.6182994576369
 31
0.0
  0
LINE
  5
2D8
330
1F
100
AcDbEntity
  8
0-0
  6
JWW_DASHED1
 62
   120
370
     5
100
AcDbLine
 10
-1268.134824755381
 20
-554.7604350813709
 30
0.0
 11
-1040.134824755368
 21
-326.7604350813583
 31
0.0
  0
LINE
  5
2D9
330
1F
100
AcDbEntity
  8
0-0
  6
JWW_DASHED1
 62
   120
370
     5
100
AcDbLine
 10
-1268.134824755384
 20
-568.9025707051084
 30
0.0
 11
-1040.134824755387
 21
-340.9025707051113
 31
0.0
  0
LINE
  5
2DA
330
1F
100
AcDbEntity
  8
0-0
  6
JWW_DASHED1
 62
   120
370
     5
100
AcDbLine
 10
-1268.134824755374
 20
-583.04470632883
 30
0.0
 11
-1040.134824755376
 21
-355.0447063288331
 31
0.0
  0
LINE
  5
2DB
330
1F
100
AcDbEntity
  8
0-0
  6
JWW_DASHED1
 62
   120
370
     5
100
AcDbLine
 10
-1268.134824755391
 20
-597.1868419525804
 30
0.0
 11
-1040.134824755376
 21
-369.1868419525661
 31
0.0
  0
LINE
  5
2DC
330
1F
100
AcDbEntity
  8
0-0
  6
JWW_DASHED1
 62
   120
370
     5
100
AcDbLine
 10
-1268.134824755381
 20
-611.3289775763045
 30
0.0
 11
-1040.134824755383
 21
-383.3289775763079
 31
0.0
  0
LINE
  5
2DD
330
1F
100
AcDbEntity
  8
0-0
  6
JWW_DASHED1
 62
   120
370
     5
100
AcDbLine
 10
-1268.134824755384
 20
-625.4711132000419
 30
0.0
 11
-1040.134824755373
 21
-397.4711132000293
 31
0.0
  0
LINE
  5
2DE
330
1F
100
AcDbEntity
  8
0-0
  6
JWW_DASHED1
 62
   120
370
     5
100
AcDbLine
 10
-1268.134824755387
 20
-639.6132488237768
 30
0.0
 11
-1040.134824755373
 21
-411.6132488237627
 31
0.0
  0
LINE
  5
2DF
330
1F
100
AcDbEntity
  8
0-0
  6
JWW_DASHED1
 62
   120
370
     5
100
AcDbLine
 10
-1268.134824755377
 20
-653.7553844475007
 30
0.0
 11
-1040.13482475538
 21
-425.7553844475036
 31
0.0
  0
LINE
  5
2E0
330
1F
100
AcDbEntity
  8
0-0
  6
JWW_DASHED1
 62
   120
370
     5
100
AcDbLine
 10
-1268.134824755381
 20
-667.8975200712381
 30
0.0
 11
-1040.13482475537
 21
-439.897520071225
 31
0.0
  0
LINE
  5
2E1
330
1F
100
AcDbEntity
  8
0-0
  6
JWW_DASHED1
 62
   120
370
     5
100
AcDbLine
 10
-1268.134824755384
 20
-682.0396556949734
 30
0.0
 11
-1040.134824755383
 21
-454.0396556949746
 31
0.0
  0
LINE
  5
2E2
330
1F
100
AcDbEntity
  8
0-0
  6
JWW_DASHED1
 62
   120
370
     5
100
AcDbLine
 10
-1268.134824755374
 20
-696.1817913186967
 30
0.0
 11
-1040.134824755376
 21
-468.1817913187002
 31
0.0
  0
LINE
  5
2E3
330
1F
100
AcDbEntity
  8
0-0
  6
JWW_DASHED1
 62
   120
370
     5
100
AcDbLine
 10
-1268.134824755377
 20
-710.323926942434
 30
0.0
 11
-1040.134824755364
 21
-482.3239269424216
 31
0.0
  0
LINE
  5
2E4
330
1F
100
AcDbEntity
  8
0-0
  6
JWW_DASHED1
 62
   120
370
     5
100
AcDbLine
 10
-1268.134824755377
 20
-724.4660625661128
 30
0.0
 11
-1040.13482475538
 21
-496.466062566116
 31
0.0
  0
LINE
  5
2E5
330
1F
100
AcDbEntity
  8
0-0
  6
JWW_DASHED1
 62
   120
370
     5
100
AcDbLine
 10
-1268.134824755381
 20
-738.60819818985
 30
0.0
 11
-1040.13482475537
 21
-510.6081981898374
 31
0.0
  0
LINE
  5
2E6
330
1F
100
AcDbEntity
  8
0-0
  6
JWW_DASHED1
 62
   120
370
     5
100
AcDbLine
 10
-1268.134824755384
 20
-752.7503338135859
 30
0.0
 11
-1040.134824755385
 21
-524.7503338135873
 31
0.0
  0
LINE
  5
2E7
330
1F
100
AcDbEntity
  8
0-0
  6
JWW_DASHED1
 62
   120
370
     5
100
AcDbLine
 10
-1268.134824755374
 20
-766.8924694373086
 30
0.0
 11
-1040.134824755376
 21
-538.8924694373121
 31
0.0
  0
LINE
  5
2E8
330
1F
100
AcDbEntity
  8
0-0
  6
JWW_DASHED1
 62
   120
370
     5
100
AcDbLine
 10
-1268.134824755377
 20
-781.034605061046
 30
0.0
 11
-1040.134824755364
 21
-553.0346050610335
 31
0.0
  0
LINE
  5
2E9
330
1F
100
AcDbEntity
  8
0-0
  6
JWW_DASHED1
 62
   120
370
     5
100
AcDbLine
 10
-1268.134824755381
 20
-795.1767406847836
 30
0.0
 11
-1040.134824755383
 21
-567.1767406847868
 31
0.0
  0
LINE
  5
2EA
330
1F
100
AcDbEntity
  8
0-0
  6
JWW_DASHED1
 62
   120
370
     5
100
AcDbLine
 10
-1268.13482475537
 20
-809.318876308505
 30
0.0
 11
-1040.134824755373
 21
-581.3188763085082
 31
0.0
  0
LINE
  5
2EB
330
1F
100
AcDbEntity
  8
0-0
  6
JWW_DASHED1
 62
   120
370
     5
100
AcDbLine
 10
-1268.134824755387
 20
-823.4610119322573
 30
0.0
 11
-1040.134824755373
 21
-595.4610119322427
 31
0.0
  0
LINE
  5
2EC
330
1F
100
AcDbEntity
  8
0-0
  6
JWW_DASHED1
 62
   120
370
     5
100
AcDbLine
 10
-1268.134824755377
 20
-837.6031475559794
 30
0.0
 11
-1040.13482475538
 21
-609.6031475559829
 31
0.0
  0
LINE
  5
2ED
330
1F
100
AcDbEntity
  8
0-0
  6
JWW_DASHED1
 62
   120
370
     5
100
AcDbLine
 10
-1268.134824755381
 20
-851.7452831797171
 30
0.0
 11
-1040.13482475537
 21
-623.7452831797043
 31
0.0
  0
LINE
  5
2EE
330
1F
100
AcDbEntity
  8
0-0
  6
JWW_DASHED1
 62
   120
370
     5
100
AcDbLine
 10
-1268.134824755384
 20
-865.8874188034537
 30
0.0
 11
-1040.13482475537
 21
-637.8874188034393
 31
0.0
  0
LINE
  5
2EF
330
1F
100
AcDbEntity
  8
0-0
  6
JWW_DASHED1
 62
   120
370
     5
100
AcDbLine
 10
-1268.134824755374
 20
-880.0295544271758
 30
0.0
 11
-1040.134824755376
 21
-652.029554427179
 31
0.0
  0
LINE
  5
2F0
330
1F
100
AcDbEntity
  8
0-0
  6
JWW_DASHED1
 62
   120
370
     5
100
AcDbLine
 10
-1268.134824755377
 20
-894.1716900509133
 30
0.0
 11
-1040.134824755366
 21
-666.1716900509007
 31
0.0
  0
LINE
  5
2F1
330
1F
100
AcDbEntity
  8
0-0
  6
JWW_DASHED1
 62
   120
370
     5
100
AcDbLine
 10
-1268.134824755381
 20
-908.3138256746505
 30
0.0
 11
-1040.134824755383
 21
-680.3138256746538
 31
0.0
  0
LINE
  5
2F2
330
1F
100
AcDbEntity
  8
0-0
  6
JWW_DASHED1
 62
   120
370
     5
100
AcDbLine
 10
-1268.13482475537
 20
-922.4559612983719
 30
0.0
 11
-1040.134824755373
 21
-694.4559612983754
 31
0.0
  0
LINE
  5
2F3
330
1F
100
AcDbEntity
  8
0-0
  6
JWW_DASHED1
 62
   120
370
     5
100
AcDbLine
 10
-1268.134824755389
 20
-936.598096922125
 30
0.0
 11
-1040.134824755375
 21
-708.5980969221107
 31
0.0
  0
LINE
  5
2F4
330
1F
100
AcDbEntity
  8
0-0
  6
JWW_DASHED1
 62
   120
370
     5
100
AcDbLine
 10
-1257.79475484962
 20
-940.4001626400908
 30
0.0
 11
-1040.13482475538
 21
-722.7402325458498
 31
0.0
  0
LINE
  5
2F5
330
1F
100
AcDbEntity
  8
0-0
  6
JWW_DASHED1
 62
   120
370
     5
100
AcDbLine
 10
-1243.652619225887
 20
-940.4001626400882
 30
0.0
 11
-1040.13482475537
 21
-736.8823681695715
 31
0.0
  0
LINE
  5
2F6
330
1F
100
AcDbEntity
  8
0-0
  6
JWW_DASHED1
 62
   120
370
     5
100
AcDbLine
 10
-1229.51048360215
 20
-940.400162640085
 30
0.0
 11
-1040.134824755371
 21
-751.0245037933073
 31
0.0
  0
LINE
  5
2F7
330
1F
100
AcDbEntity
  8
0-0
  6
JWW_DASHED1
 62
   120
370
     5
100
AcDbLine
 10
-1215.368347978424
 20
-940.4001626400938
 30
0.0
 11
-1040.134824755376
 21
-765.1666394170462
 31
0.0
  0
LINE
  5
2F8
330
1F
100
AcDbEntity
  8
0-0
  6
JWW_DASHED1
 62
   120
370
     5
100
AcDbLine
 10
-1201.226212354692
 20
-940.4001626400948
 30
0.0
 11
-1040.134824755366
 21
-779.3087750407676
 31
0.0
  0
LINE
  5
2F9
330
1F
100
AcDbEntity
  8
0-0
  6
JWW_DASHED1
 62
   120
370
     5
100
AcDbLine
 10
-1187.08407673095
 20
-940.4001626400859
 30
0.0
 11
-1040.134824755385
 21
-793.4509106645206
 31
0.0
  0
LINE
  5
2FA
330
1F
100
AcDbEntity
  8
0-0
  6
JWW_DASHED1
 62
   120
370
     5
100
AcDbLine
 10
-1172.941941107227
 20
-940.4001626400974
 30
0.0
 11
-1040.134824755373
 21
-807.5930462882424
 31
0.0
  0
LINE
  5
2FB
330
1F
100
AcDbEntity
  8
0-0
  6
JWW_DASHED1
 62
   120
370
     5
100
AcDbLine
 10
-1158.799805483484
 20
-940.400162640085
 30
0.0
 11
-1040.134824755376
 21
-821.7351819119788
 31
0.0
  0
LINE
  5
2FC
330
1F
100
AcDbEntity
  8
0-0
  6
JWW_DASHED1
 62
   120
370
     5
100
AcDbLine
 10
-1144.657669859754
 20
-940.4001626400889
 30
0.0
 11
-1040.13482475538
 21
-835.877317535717
 31
0.0
  0
LINE
  5
2FD
330
1F
100
AcDbEntity
  8
0-0
  6
JWW_DASHED1
 62
   120
370
     5
100
AcDbLine
 10
-1130.515534236025
 20
-940.4001626400943
 30
0.0
 11
-1040.13482475537
 21
-850.0194531594386
 31
0.0
  0
LINE
  5
2FE
330
1F
100
AcDbEntity
  8
0-0
  6
JWW_DASHED1
 62
   120
370
     5
100
AcDbLine
 10
-1116.373398612289
 20
-940.400162640091
 30
0.0
 11
-1040.134824755373
 21
-864.1615887831751
 31
0.0
  0
LINE
  5
2FF
330
1F
100
AcDbEntity
  8
0-0
  6
JWW_DASHED1
 62
   120
370
     5
100
AcDbLine
 10
-1102.231262988586
 20
-940.4001626400943
 30
0.0
 11
-1040.134824755376
 21
-878.3037244068839
 31
0.0
  0
LINE
  5
300
330
1F
100
AcDbEntity
  8
0-0
  6
JWW_DASHED1
 62
   120
370
     5
100
AcDbLine
 10
-1088.089127364875
 20
-940.4001626400893
 30
0.0
 11
-1040.134824755376
 21
-892.4458600305912
 31
0.0
  0
LINE
  5
301
330
1F
100
AcDbEntity
  8
0-0
  6
JWW_DASHED1
 62
   120
370
     5
100
AcDbLine
 10
-1073.946991741142
 20
-940.4001626400884
 30
0.0
 11
-1040.13482475538
 21
-906.5879956543289
 31
0.0
  0
LINE
  5
302
330
1F
100
AcDbEntity
  8
0-0
  6
JWW_DASHED1
 62
   120
370
     5
100
AcDbLine
 10
-1059.804856117418
 20
-940.4001626400986
 30
0.0
 11
-1040.13482475537
 21
-920.7301312780505
 31
0.0
  0
LINE
  5
303
330
1F
100
AcDbEntity
  8
0-0
  6
JWW_DASHED1
 62
   120
370
     5
100
AcDbLine
 10
-1045.662720493682
 20
-940.4001626400952
 30
0.0
 11
-1040.134824755373
 21
-934.8722669017875
 31
0.0
  0
LINE
  5
304
330
1F
100
AcDbEntity
  8
0-0
  6
Continuous
 62
     7
370
     9
100
AcDbLine
 10
-1268.134824755381
 20
-940.4001626400874
 30
0.0
 11
-1040.134824755381
 21
-940.4001626400874
 31
0.0
  0
LWPOLYLINE
  5
305
330
1F
100
AcDbEntity
  8
寸法
  6
Continuous
 62
     7
370
     9
100
AcDbPolyline
 90
        4
 70
     1
 43
3.0
 10
842.3651752446181
 20
-1218.400162640087
 42
0.4142135623731
 10
840.8651752446181
 20
-1216.900162640087
 42
0.4142135623731
 10
839.365175244618
 20
-1218.400162640087
 42
0.4142135623731
 10
840.8651752446181
 20
-1219.900162640087
 42
0.4142135623731
  0
LWPOLYLINE
  5
306
330
1F
100
AcDbEntity
  8
寸法
  6
Continuous
 62
     7
370
     9
100
AcDbPolyline
 90
        4
 70
     1
 43
3.0
 10
1649.365175244617
 20
-1618.400162640087
 42
0.4142135623731
 10
1647.865175244617
 20
-1616.900162640087
 42
0.4142135623731
 10
1646.365175244618
 20
-1618.400162640087
 42
0.4142135623731
 10
1647.865175244617
 20
-1619.900162640086
 42
0.4142135623731
  0
LWPOLYLINE
  5
307
330
1F
100
AcDbEntity
  8
寸法
  6
Continuous
 62
     7
370
     9
100
AcDbPolyline
 90
        4
 70
     1
 43
3.0
 10
1619.365175244617
 20
-1418.400162640087
 42
0.4142135623731
 10
1617.865175244617
 20
-1416.900162640087
 42
0.4142135623731
 10
1616.365175244618
 20
-1418.400162640087
 42
0.4142135623731
 10
1617.865175244617
 20
-1419.900162640087
 42
0.4142135623731
  0
LWPOLYLINE
  5
308
330
1F
100
AcDbEntity
  8
寸法
  6
Continuous
 62
     7
370
     9
100
AcDbPolyline
 90
        4
 70
     1
 43
3.0
 10
-777.6348247553818
 20
-1218.400162640087
 42
0.4142135623731
 10
-779.1348247553819
 20
-1216.900162640087
 42
0.4142135623731
 10
-780.6348247553819
 20
-1218.400162640087
 42
0.4142135623731
 10
-779.1348247553819
 20
-1219.900162640087
 42
0.4142135623731
  0
LWPOLYLINE
  5
309
330
1F
100
AcDbEntity
  8
寸法
  6
Continuous
 62
     7
370
     9
100
AcDbPolyline
 90
        4
 70
     1
 43
3.0
 10
32.36517524461811
 20
-1218.400162640087
 42
0.4142135623731
 10
30.86517524461811
 20
-1216.900162640087
 42
0.4142135623731
 10
29.36517524461811
 20
-1218.400162640087
 42
0.4142135623731
 10
30.86517524461811
 20
-1219.900162640087
 42
0.4142135623731
  0
LWPOLYLINE
  5
30A
330
1F
100
AcDbEntity
  8
寸法
  6
Continuous
 62
     7
370
     9
100
AcDbPolyline
 90
        4
 70
     1
 43
3.0
 10
-1584.634824755381
 20
-1618.400162640087
 42
0.4142135623731
 10
-1586.134824755381
 20
-1616.900162640087
 42
0.4142135623731
 10
-1587.634824755381
 20
-1618.400162640087
 42
0.4142135623731
 10
-1586.134824755381
 20
-1619.900162640087
 42
0.4142135623731
  0
LWPOLYLINE
  5
30B
330
1F
100
AcDbEntity
  8
寸法
  6
Continuous
 62
     7
370
     9
100
AcDbPolyline
 90
        4
 70
     1
 43
3.0
 10
-1554.634824755381
 20
-1418.400162640089
 42
0.4142135623731
 10
-1556.134824755381
 20
-1416.900162640089
 42
0.4142135623731
 10
-1557.634824755381
 20
-1418.400162640089
 42
0.4142135623731
 10
-1556.134824755381
 20
-1419.900162640088
 42
0.4142135623731
  0
LINE
  5
30C
330
1F
100
AcDbEntity
  8
寸法
  6
Continuous
 62
   120
370
     5
100
AcDbLine
 10
840.8651752446181
 20
-1218.400162640087
 30
0.0
 11
840.8651752446181
 21
-1018.40016264009
 31
0.0
  0
LINE
  5
30D
330
1F
100
AcDbEntity
  8
寸法
  6
Continuous
 62
   120
370
     5
100
AcDbLine
 10
1647.865175244617
 20
-1618.400162640087
 30
0.0
 11
1647.865175244617
 21
-1018.400162640087
 31
0.0
  0
LINE
  5
30E
330
1F
100
AcDbEntity
  8
寸法
  6
Continuous
 62
   120
370
     5
100
AcDbLine
 10
-1586.134824755381
 20
-1618.400162640087
 30
0.0
 11
1647.865175244617
 21
-1618.400162640087
 31
0.0
  0
LINE
  5
30F
330
1F
100
AcDbEntity
  8
寸法
  6
Continuous
 62
   120
370
     5
100
AcDbLine
 10
1617.865175244617
 20
-1418.400162640087
 30
0.0
 11
1617.865175244617
 21
-1018.400162640087
 31
0.0
  0
LINE
  5
310
330
1F
100
AcDbEntity
  8
寸法
  6
Continuous
 62
   120
370
     5
100
AcDbLine
 10
-1556.134824755381
 20
-1418.400162640089
 30
0.0
 11
1617.865175244617
 21
-1418.400162640087
 31
0.0
  0
LINE
  5
311
330
1F
100
AcDbEntity
  8
寸法
  6
Continuous
 62
   120
370
     5
100
AcDbLine
 10
-779.1348247553819
 20
-1218.400162640087
 30
0.0
 11
840.8651752446181
 21
-1218.400162640087
 31
0.0
  0
LINE
  5
312
330
1F
100
AcDbEntity
  8
寸法
  6
Continuous
 62
   120
370
     5
100
AcDbLine
 10
-779.1348247553819
 20
-1218.400162640087
 30
0.0
 11
-779.1348247553819
 21
-1018.40016264009
 31
0.0
  0
LINE
  5
313
330
1F
100
AcDbEntity
  8
寸法
  6
Continuous
 62
   120
370
     5
100
AcDbLine
 10
30.86517524461811
 20
-1218.400162640087
 30
0.0
 11
30.86517524461811
 21
-1018.40016264009
 31
0.0
  0
LINE
  5
314
330
1F
100
AcDbEntity
  8
寸法
  6
Continuous
 62
   120
370
     5
100
AcDbLine
 10
-1586.134824755381
 20
-1618.400162640087
 30
0.0
 11
-1586.134824755381
 21
-1018.40016264009
 31
0.0
  0
LINE
  5
315
330
1F
100
AcDbEntity
  8
寸法
  6
Continuous
 62
   120
370
     5
100
AcDbLine
 10
-1556.134824755381
 20
-1418.400162640089
 30
0.0
 11
-1556.134824755381
 21
-1018.40016264009
 31
0.0
  0
LINE
  5
316
330
1F
100
AcDbEntity
  8
寸法
  6
Continuous
 62
   120
370
     5
100
AcDbLine
 10
-1836.134824755381
 20
1034.599837359913
 30
0.0
 11
-1836.134824755381
 21
-948.400162640087
 31
0.0
  0
LWPOLYLINE
  5
317
330
1F
100
AcDbEntity
  8
寸法
  6
Continuous
 62
     7
370
     9
100
AcDbPolyline
 90
        4
 70
     1
 43
3.0
 10
-1834.634824755381
 20
1034.599837359913
 42
0.4142135623731
 10
-1836.134824755381
 20
1036.099837359913
 42
0.4142135623731
 10
-1837.634824755381
 20
1034.599837359913
 42
0.4142135623731
 10
-1836.134824755381
 20
1033.099837359913
 42
0.4142135623731
  0
LINE
  5
318
330
1F
100
AcDbEntity
  8
寸法
  6
Continuous
 62
   120
370
     5
100
AcDbLine
 10
-1836.134824755381
 20
1034.599837359913
 30
0.0
 11
-1636.13482475538
 21
1034.599837359913
 31
0.0
  0
LINE
  5
319
330
1F
100
AcDbEntity
  8
寸法
  6
Continuous
 62
   120
370
     5
100
AcDbLine
 10
-1836.134824755381
 20
-948.400162640087
 30
0.0
 11
-1636.13482475538
 21
-948.400162640087
 31
0.0
  0
LINE
  5
31A
330
1F
100
AcDbEntity
  8
寸法
  6
Continuous
 62
   120
370
     5
100
AcDbLine
 10
-2036.134824755381
 20
-968.4001626400877
 30
0.0
 11
-1636.13482475538
 21
-968.4001626400877
 31
0.0
  0
LWPOLYLINE
  5
31B
330
1F
100
AcDbEntity
  8
寸法
  6
Continuous
 62
     7
370
     9
100
AcDbPolyline
 90
        4
 70
     1
 43
3.0
 10
-1834.634824755381
 20
-948.400162640087
 42
0.4142135623731
 10
-1836.134824755381
 20
-946.9001626400869
 42
0.4142135623731
 10
-1837.634824755381
 20
-948.400162640087
 42
0.4142135623731
 10
-1836.134824755381
 20
-949.900162640087
 42
0.4142135623731
  0
LWPOLYLINE
  5
31C
330
1F
100
AcDbEntity
  8
寸法
  6
Continuous
 62
     7
370
     9
100
AcDbPolyline
 90
        4
 70
     1
 43
3.0
 10
-2034.634824755381
 20
-968.4001626400877
 42
0.4142135623731
 10
-2036.134824755381
 20
-966.9001626400877
 42
0.4142135623731
 10
-2037.634824755381
 20
-968.4001626400877
 42
0.4142135623731
 10
-2036.134824755381
 20
-969.9001626400876
 42
0.4142135623731
  0
LINE
  5
31D
330
1F
100
AcDbEntity
  8
寸法
  6
Continuous
 62
   120
370
     5
100
AcDbLine
 10
-2036.134824755381
 20
1078.599837359914
 30
0.0
 11
-2036.134824755381
 21
-968.4001626400877
 31
0.0
  0
LWPOLYLINE
  5
31E
330
1F
100
AcDbEntity
  8
寸法
  6
Continuous
 62
     7
370
     9
100
AcDbPolyline
 90
        4
 70
     1
 43
3.0
 10
-2034.634824755381
 20
1078.599837359914
 42
0.4142135623731
 10
-2036.134824755381
 20
1080.099837359914
 42
0.4142135623731
 10
-2037.634824755381
 20
1078.599837359914
 42
0.4142135623731
 10
-2036.134824755381
 20
1077.099837359914
 42
0.4142135623731
  0
LINE
  5
31F
330
1F
100
AcDbEntity
  8
寸法
  6
Continuous
 62
   120
370
     5
100
AcDbLine
 10
-2036.134824755381
 20
1078.599837359914
 30
0.0
 11
-1636.13482475538
 21
1078.599837359914
 31
0.0
  0
MTEXT
  5
320
330
1F
100
AcDbEntity
  8
寸法
  6
Continuous
 62
     7
370
    70
100
AcDbMText
 10
-2051.134824755381
 20
-160.0751626400866
 30
0.0
 40
57.14999999999999
 41
412.5
 46
0.0
 71
     7
 72
     1
  1
{\fＭＳ ゴシック|b0|i0|c128|p49;枠外＝2,047}
 11
6.123031769111886E-17
 21
1.0
 31
0.0
 73
     1
 44
1.0
  0
MTEXT
  5
321
330
1F
100
AcDbEntity
  8
寸法
  6
Continuous
 62
     7
370
    70
100
AcDbMText
 10
-1851.134824755381
 20
-166.0751626400863
 30
0.0
 40
57.14999999999999
 41
412.5
 46
0.0
 71
     7
 72
     1
  1
{\fＭＳ ゴシック|b0|i0|c128|p49;ＤＨ＝1,983}
 11
6.123031769111886E-17
 21
1.0
 31
0.0
 73
     1
 44
1.0
  0
MTEXT
  5
322
330
1F
100
AcDbEntity
  8
寸法
  6
Continuous
 62
     7
370
   211
100
AcDbMText
 10
-542.8848247553819
 20
-1212.325162640087
 30
0.0
 40
57.14999999999998
 41
337.4999999999999
 46
0.0
 71
     7
 72
     1
  1
{\fＭＳ ゴシック|b0|i0|c128|p49;ＤＷ＝810}
 73
     1
 44
1.0
  0
MTEXT
  5
323
330
1F
100
AcDbEntity
  8
寸法
  6
Continuous
 62
     7
370
   211
100
AcDbMText
 10
267.1151752446181
 20
-1212.325162640087
 30
0.0
 40
57.15000000000001
 41
337.5000000000001
 46
0.0
 71
     7
 72
     1
  1
{\fＭＳ ゴシック|b0|i0|c128|p49;ＤＷ＝810}
 73
     1
 44
1.0
  0
MTEXT
  5
324
330
1F
100
AcDbEntity
  8
寸法
  6
Continuous
 62
     7
370
   211
100
AcDbMText
 10
-175.3848247553819
 20
-1412.325162640089
 30
0.0
 40
57.14999999999999
 41
412.5
 46
0.0
 71
     7
 72
     1
  1
{\fＭＳ ゴシック|b0|i0|c128|p49;枠内＝3,174}
 73
     1
 44
1.0
  0
MTEXT
  5
325
330
1F
100
AcDbEntity
  8
寸法
  6
Continuous
 62
     7
370
   211
100
AcDbMText
 10
-175.3848247553819
 20
-1612.325162640087
 30
0.0
 40
57.14999999999999
 41
412.5
 46
0.0
 71
     7
 72
     1
  1
{\fＭＳ ゴシック|b0|i0|c128|p49;枠外＝3,234}
 73
     1
 44
1.0
  0
ENDSEC
  0
SECTION
  2
OBJECTS
  0
DICTIONARY
  5
C
330
0
100
AcDbDictionary
281
     1
  3
ACAD_GROUP
350
D
  3
ACAD_LAYOUT
350
1A
  3
ACAD_MATERIAL
350
3B
  3
ACAD_MLEADERSTYLE
350
327
  3
ACAD_MLINESTYLE
350
17
  3
ACAD_PLOTSETTINGS
350
19
  3
ACAD_PLOTSTYLENAME
350
E
  3
ACAD_TABLESTYLE
350
326
  3
ACAD_VISUALSTYLE
350
2A
  0
DICTIONARY
  5
D
102
{ACAD_REACTORS
330
C
102
}
330
C
100
AcDbDictionary
281
     1
  0
DICTIONARY
  5
1A
102
{ACAD_REACTORS
330
C
102
}
330
C
100
AcDbDictionary
281
     1
  3
Layout1
350
1E
  3
Layout2
350
26
  3
Model
350
22
  0
DICTIONARY
  5
3B
102
{ACAD_REACTORS
330
C
102
}
330
C
100
AcDbDictionary
281
     1
  3
ByBlock
350
3D
  3
ByLayer
350
3C
  3
Global
350
3E
  0
DICTIONARY
  5
327
102
{ACAD_REACTORS
330
C
102
}
330
C
100
AcDbDictionary
281
     1
  0
DICTIONARY
  5
17
102
{ACAD_REACTORS
330
C
102
}
330
C
100
AcDbDictionary
281
     1
  3
Standard
350
18
  0
DICTIONARY
  5
19
102
{ACAD_REACTORS
330
C
102
}
330
C
100
AcDbDictionary
281
     1
  0
ACDBDICTIONARYWDFLT
  5
E
102
{ACAD_REACTORS
330
C
102
}
330
C
100
AcDbDictionary
281
     1
  3
Normal
350
F
100
AcDbDictionaryWithDefault
340
F
  0
DICTIONARY
  5
326
102
{ACAD_REACTORS
330
C
102
}
330
C
100
AcDbDictionary
281
     1
  0
DICTIONARY
  5
2A
102
{ACAD_REACTORS
330
C
102
}
330
C
100
AcDbDictionary
281
     1
  3
2dWireframe
350
2F
  3
3D Hidden
350
31
  3
3dWireframe
350
30
  3
Basic
350
32
  3
Brighten
350
36
  3
ColorChange
350
3A
  3
Conceptual
350
34
  3
Dim
350
35
  3
Facepattern
350
39
  3
Flat
350
2B
  3
FlatWithEdges
350
2C
  3
Gouraud
350
2D
  3
GouraudWithEdges
350
2E
  3
Linepattern
350
38
  3
Realistic
350
33
  3
Thicken
350
37
  0
LAYOUT
  5
1E
102
{ACAD_REACTORS
330
1A
102
}
330
1A
100
AcDbPlotSettings
  1

  2
none_device
  4

  6

 40
0.0
 41
0.0
 42
0.0
 43
0.0
 44
0.0
 45
0.0
 46
0.0
 47
0.0
 48
0.0
 49
0.0
140
0.0
141
0.0
142
1.0
143
1.0
 70
   688
 72
     0
 73
     0
 74
     5
  7

 75
    16
 76
     0
 77
     5
 78
   300
147
1.0
148
0.0
149
0.0
100
AcDbLayout
  1
Layout1
 70
     1
 71
     1
 10
0.0
 20
0.0
 11
420.0
 21
297.0
 12
0.0
 22
0.0
 32
0.0
 14
1.000000000000000E+20
 24
1.000000000000000E+20
 34
1.000000000000000E+20
 15
-1.000000000000000E+20
 25
-1.000000000000000E+20
 35
-1.000000000000000E+20
146
0.0
 13
0.0
 23
0.0
 33
0.0
 16
1.0
 26
0.0
 36
0.0
 17
0.0
 27
1.0
 37
0.0
 76
     0
330
1B
  0
LAYOUT
  5
26
102
{ACAD_REACTORS
330
1A
102
}
330
1A
100
AcDbPlotSettings
  1

  2
none_device
  4

  6

 40
0.0
 41
0.0
 42
0.0
 43
0.0
 44
0.0
 45
0.0
 46
0.0
 47
0.0
 48
0.0
 49
0.0
140
0.0
141
0.0
142
1.0
143
1.0
 70
   688
 72
     0
 73
     0
 74
     5
  7

 75
    16
 76
     0
 77
     5
 78
   300
147
1.0
148
0.0
149
0.0
100
AcDbLayout
  1
Layout2
 70
     1
 71
     2
 10
0.0
 20
0.0
 11
0.0
 21
0.0
 12
0.0
 22
0.0
 32
0.0
 14
0.0
 24
0.0
 34
0.0
 15
0.0
 25
0.0
 35
0.0
146
0.0
 13
0.0
 23
0.0
 33
0.0
 16
1.0
 26
0.0
 36
0.0
 17
0.0
 27
1.0
 37
0.0
 76
     0
330
23
  0
LAYOUT
  5
22
102
{ACAD_REACTORS
330
1A
102
}
330
1A
100
AcDbPlotSettings
  1

  2
none_device
  4

  6

 40
0.0
 41
0.0
 42
0.0
 43
0.0
 44
0.0
 45
0.0
 46
0.0
 47
0.0
 48
0.0
 49
0.0
140
0.0
141
0.0
142
1.0
143
1.0
 70
  1712
 72
     0
 73
     0
 74
     0
  7

 75
     0
 76
     0
 77
     5
 78
   300
147
1.0
148
0.0
149
0.0
100
AcDbLayout
  1
Model
 70
     1
 71
     0
 10
-4455.0
 20
-3150.0
 11
4455.0
 21
3150.0
 12
0.0
 22
0.0
 32
0.0
 14
-4455.0
 24
-3150.0
 34
0.0
 15
4455.0
 25
3150.0
 35
0.0
146
0.0
 13
0.0
 23
0.0
 33
0.0
 16
1.0
 26
0.0
 36
0.0
 17
0.0
 27
1.0
 37
0.0
 76
     0
330
1F
331
29
  0
MATERIAL
  5
3D
102
{ACAD_REACTORS
330
3B
102
}
330
3B
100
AcDbMaterial
  1
ByBlock
 72
     1
 94
      127
  0
MATERIAL
  5
3C
102
{ACAD_REACTORS
330
3B
102
}
330
3B
100
AcDbMaterial
  1
ByLayer
 72
     1
 94
      127
  0
MATERIAL
  5
3E
102
{ACAD_REACTORS
330
3B
102
}
330
3B
100
AcDbMaterial
  1
Global
 72
     1
 94
      127
  0
MLINESTYLE
  5
18
102
{ACAD_REACTORS
330
17
102
}
330
17
100
AcDbMlineStyle
  2
Standard
 70
     0
  3

 62
   256
 51
90.0
 52
90.0
 71
     2
 49
0.5
 62
   256
  6
BYLAYER
 49
-0.5
 62
   256
  6
BYLAYER
  0
ACDBPLACEHOLDER
  5
F
102
{ACAD_REACTORS
330
E
102
}
330
E
  0
VISUALSTYLE
  5
2F
102
{ACAD_REACTORS
330
2A
102
}
330
2A
100
AcDbVisualStyle
  2
2dWireframe
 70
     4
177
     2
291
     0
 71
     0
176
     1
 72
     2
176
     1
 73
     0
176
     1
 90
        0
176
     1
 40
-0.6
176
     1
 41
-30.0
176
     1
 62
     5
 63
     7
421
 16777215
176
     1
 74
     1
176
     1
 91
        4
176
     1
 64
     7
176
     1
 65
   257
176
     1
 75
     1
176
     1
175
     1
176
     1
 42
1.0
176
     1
 92
        0
176
     1
 66
   257
176
     1
 43
1.0
176
     1
 76
     1
176
     1
 77
     6
176
     1
 78
     2
176
     1
 67
     7
176
     1
 79
     5
176
     1
170
     0
176
     1
171
     0
176
     1
290
     0
176
     1
 93
        1
176
     1
 44
0.0
176
     1
173
     0
176
     1
  0
VISUALSTYLE
  5
31
102
{ACAD_REACTORS
330
2A
102
}
330
2A
100
AcDbVisualStyle
  2
3D Hidden
 70
     6
177
     2
291
     0
 71
     1
176
     1
 72
     2
176
     1
 73
     2
176
     1
 90
        0
176
     1
 40
-0.6
176
     1
 41
-30.0
176
     1
 62
     5
 63
     7
421
 16777215
176
     1
 74
     2
176
     1
 91
        2
176
     1
 64
     7
176
     1
 65
   257
176
     1
 75
     2
176
     1
175
     1
176
     1
 42
40.0
176
     1
 92
        0
176
     1
 66
   257
176
     1
 43
1.0
176
     1
 76
     1
176
     1
 77
     6
176
     1
 78
     2
176
     1
 67
     7
176
     1
 79
     3
176
     1
170
     0
176
     1
171
     0
176
     1
290
     0
176
     1
 93
        1
176
     1
 44
0.0
176
     1
173
     0
176
     1
  0
VISUALSTYLE
  5
30
102
{ACAD_REACTORS
330
2A
102
}
330
2A
100
AcDbVisualStyle
  2
3dWireframe
 70
     5
177
     2
291
     0
 71
     0
176
     1
 72
     2
176
     1
 73
     0
176
     1
 90
        0
176
     1
 40
-0.6
176
     1
 41
-30.0
176
     1
 62
     5
 63
     7
421
 16777215
176
     1
 74
     1
176
     1
 91
        4
176
     1
 64
     7
176
     1
 65
   257
176
     1
 75
     1
176
     1
175
     1
176
     1
 42
1.0
176
     1
 92
        0
176
     1
 66
   257
176
     1
 43
1.0
176
     1
 76
     1
176
     1
 77
     6
176
     1
 78
     2
176
     1
 67
     7
176
     1
 79
     5
176
     1
170
     0
176
     1
171
     0
176
     1
290
     0
176
     1
 93
        1
176
     1
 44
0.0
176
     1
173
     0
176
     1
  0
VISUALSTYLE
  5
32
102
{ACAD_REACTORS
330
2A
102
}
330
2A
100
AcDbVisualStyle
  2
Basic
 70
     7
177
     2
291
     1
 71
     1
176
     1
 72
     0
176
     1
 73
     1
176
     1
 90
        0
176
     1
 40
-0.6
176
     1
 41
-30.0
176
     1
 62
     5
 63
     7
421
 16777215
176
     1
 74
     0
176
     1
 91
        4
176
     1
 64
     7
176
     1
 65
   257
176
     1
 75
     1
176
     1
175
     1
176
     1
 42
1.0
176
     1
 92
        8
176
     1
 66
     7
176
     1
 43
1.0
176
     1
 76
     1
176
     1
 77
     6
176
     1
 78
     2
176
     1
 67
     7
176
     1
 79
     5
176
     1
170
     0
176
     1
171
     0
176
     1
290
     0
176
     1
 93
        1
176
     1
 44
0.0
176
     1
173
     0
176
     1
  0
VISUALSTYLE
  5
36
102
{ACAD_REACTORS
330
2A
102
}
330
2A
100
AcDbVisualStyle
  2
Brighten
 70
    12
177
     2
291
     1
 71
     2
176
     1
 72
     2
176
     1
 73
     0
176
     1
 90
        0
176
     1
 40
-0.6
176
     1
 41
-30.0
176
     1
 62
     5
 63
     7
421
 16777215
176
     1
 74
     1
176
     1
 91
        4
176
     1
 64
     7
176
     1
 65
   257
176
     1
 75
     1
176
     1
175
     1
176
     1
 42
1.0
176
     1
 92
        8
176
     1
 66
     7
176
     1
 43
1.0
176
     1
 76
     1
176
     1
 77
     6
176
     1
 78
     2
176
     1
 67
     7
176
     1
 79
     5
176
     1
170
     0
176
     1
171
     0
176
     1
290
     0
176
     1
 93
        1
176
     1
 44
50.0
176
     1
173
     0
176
     1
  0
VISUALSTYLE
  5
3A
102
{ACAD_REACTORS
330
2A
102
}
330
2A
100
AcDbVisualStyle
  2
ColorChange
 70
    16
177
     2
291
     1
 71
     2
176
     1
 72
     2
176
     1
 73
     3
176
     1
 90
        0
176
     1
 40
-0.6
176
     1
 41
-30.0
176
     1
 62
     5
 63
     8
421
  8421504
176
     1
 74
     1
176
     1
 91
        4
176
     1
 64
     7
176
     1
 65
   257
176
     1
 75
     1
176
     1
175
     1
176
     1
 42
1.0
176
     1
 92
        8
176
     1
 66
     8
424
  8421504
176
     1
 43
1.0
176
     1
 76
     1
176
     1
 77
     6
176
     1
 78
     2
176
     1
 67
     7
176
     1
 79
     5
176
     1
170
     0
176
     1
171
     0
176
     1
290
     0
176
     1
 93
        1
176
     1
 44
0.0
176
     1
173
     0
176
     1
  0
VISUALSTYLE
  5
34
102
{ACAD_REACTORS
330
2A
102
}
330
2A
100
AcDbVisualStyle
  2
Conceptual
 70
     9
177
     2
291
     0
 71
     3
176
     1
 72
     2
176
     1
 73
     0
176
     1
 90
        0
176
     1
 40
-0.6
176
     1
 41
-30.0
176
     1
 62
     5
 63
     7
421
 16777215
176
     1
 74
     2
176
     1
 91
        2
176
     1
 64
     7
176
     1
 65
   257
176
     1
 75
     1
176
     1
175
     1
176
     1
 42
40.0
176
     1
 92
        8
176
     1
 66
     7
176
     1
 43
1.0
176
     1
 76
     1
176
     1
 77
     6
176
     1
 78
     2
176
     1
 67
     7
176
     1
 79
     3
176
     1
170
     0
176
     1
171
     0
176
     1
290
     0
176
     1
 93
        1
176
     1
 44
0.0
176
     1
173
     0
176
     1
  0
VISUALSTYLE
  5
35
102
{ACAD_REACTORS
330
2A
102
}
330
2A
100
AcDbVisualStyle
  2
Dim
 70
    11
177
     2
291
     1
 71
     2
176
     1
 72
     2
176
     1
 73
     0
176
     1
 90
        0
176
     1
 40
-0.6
176
     1
 41
-30.0
176
     1
 62
     5
 63
     7
421
 16777215
176
     1
 74
     1
176
     1
 91
        4
176
     1
 64
     7
176
     1
 65
   257
176
     1
 75
     1
176
     1
175
     1
176
     1
 42
1.0
176
     1
 92
        8
176
     1
 66
     7
176
     1
 43
1.0
176
     1
 76
     1
176
     1
 77
     6
176
     1
 78
     2
176
     1
 67
     7
176
     1
 79
     5
176
     1
170
     0
176
     1
171
     0
176
     1
290
     0
176
     1
 93
        1
176
     1
 44
-50.0
176
     1
173
     0
176
     1
  0
VISUALSTYLE
  5
39
102
{ACAD_REACTORS
330
2A
102
}
330
2A
100
AcDbVisualStyle
  2
Facepattern
 70
    15
177
     2
291
     1
 71
     2
176
     1
 72
     2
176
     1
 73
     0
176
     1
 90
        0
176
     1
 40
-0.6
176
     1
 41
-30.0
176
     1
 62
     5
 63
     7
421
 16777215
176
     1
 74
     1
176
     1
 91
        4
176
     1
 64
     7
176
     1
 65
   257
176
     1
 75
     1
176
     1
175
     1
176
     1
 42
1.0
176
     1
 92
        8
176
     1
 66
     7
176
     1
 43
1.0
176
     1
 76
     1
176
     1
 77
     6
176
     1
 78
     2
176
     1
 67
     7
176
     1
 79
     5
176
     1
170
     0
176
     1
171
     0
176
     1
290
     0
176
     1
 93
        1
176
     1
 44
0.0
176
     1
173
     0
176
     1
  0
VISUALSTYLE
  5
2B
102
{ACAD_REACTORS
330
2A
102
}
330
2A
100
AcDbVisualStyle
  2
Flat
 70
     0
177
     2
291
     1
 71
     2
176
     1
 72
     1
176
     1
 73
     1
176
     1
 90
        2
176
     1
 40
-0.6
176
     1
 41
30.0
176
     1
 62
     5
 63
     7
421
 16777215
176
     1
 74
     0
176
     1
 91
        4
176
     1
 64
     7
176
     1
 65
   257
176
     1
 75
     1
176
     1
175
     1
176
     1
 42
1.0
176
     1
 92
        8
176
     1
 66
     7
176
     1
 43
1.0
176
     1
 76
     1
176
     1
 77
     6
176
     1
 78
     2
176
     1
 67
     7
176
     1
 79
     5
176
     1
170
     0
176
     1
171
     0
176
     1
290
     0
176
     1
 93
       13
176
     1
 44
0.0
176
     1
173
     0
176
     1
  0
VISUALSTYLE
  5
2C
102
{ACAD_REACTORS
330
2A
102
}
330
2A
100
AcDbVisualStyle
  2
FlatWithEdges
 70
     1
177
     2
291
     1
 71
     2
176
     1
 72
     1
176
     1
 73
     1
176
     1
 90
        2
176
     1
 40
-0.6
176
     1
 41
30.0
176
     1
 62
     5
 63
     7
421
 16777215
176
     1
 74
     1
176
     1
 91
        4
176
     1
 64
     7
176
     1
 65
   257
176
     1
 75
     1
176
     1
175
     1
176
     1
 42
1.0
176
     1
 92
        0
176
     1
 66
   257
176
     1
 43
1.0
176
     1
 76
     1
176
     1
 77
     6
176
     1
 78
     2
176
     1
 67
     7
176
     1
 79
     5
176
     1
170
     0
176
     1
171
     0
176
     1
290
     0
176
     1
 93
       13
176
     1
 44
0.0
176
     1
173
     0
176
     1
  0
VISUALSTYLE
  5
2D
102
{ACAD_REACTORS
330
2A
102
}
330
2A
100
AcDbVisualStyle
  2
Gouraud
 70
     2
177
     2
291
     1
 71
     2
176
     1
 72
     2
176
     1
 73
     1
176
     1
 90
        2
176
     1
 40
-0.6
176
     1
 41
30.0
176
     1
 62
     5
 63
     7
421
 16777215
176
     1
 74
     0
176
     1
 91
        4
176
     1
 64
     7
176
     1
 65
   257
176
     1
 75
     1
176
     1
175
     1
176
     1
 42
1.0
176
     1
 92
        0
176
     1
 66
     7
176
     1
 43
1.0
176
     1
 76
     1
176
     1
 77
     6
176
     1
 78
     2
176
     1
 67
     7
176
     1
 79
     5
176
     1
170
     0
176
     1
171
     0
176
     1
290
     0
176
     1
 93
       13
176
     1
 44
0.0
176
     1
173
     0
176
     1
  0
VISUALSTYLE
  5
2E
102
{ACAD_REACTORS
330
2A
102
}
330
2A
100
AcDbVisualStyle
  2
GouraudWithEdges
 70
     3
177
     2
291
     1
 71
     2
176
     1
 72
     2
176
     1
 73
     1
176
     1
 90
        2
176
     1
 40
-0.6
176
     1
 41
30.0
176
     1
 62
     5
 63
     7
421
 16777215
176
     1
 74
     1
176
     1
 91
        4
176
     1
 64
     7
176
     1
 65
   257
176
     1
 75
     1
176
     1
175
     1
176
     1
 42
1.0
176
     1
 92
        0
176
     1
 66
   257
176
     1
 43
1.0
176
     1
 76
     1
176
     1
 77
     6
176
     1
 78
     2
176
     1
 67
     7
176
     1
 79
     5
176
     1
170
     0
176
     1
171
     0
176
     1
290
     0
176
     1
 93
       13
176
     1
 44
0.0
176
     1
173
     0
176
     1
  0
VISUALSTYLE
  5
38
102
{ACAD_REACTORS
330
2A
102
}
330
2A
100
AcDbVisualStyle
  2
Linepattern
 70
    14
177
     2
291
     1
 71
     2
176
     1
 72
     2
176
     1
 73
     0
176
     1
 90
        0
176
     1
 40
-0.6
176
     1
 41
-30.0
176
     1
 62
     5
 63
     7
421
 16777215
176
     1
 74
     1
176
     1
 91
        4
176
     1
 64
     7
176
     1
 65
   257
176
     1
 75
     7
176
     1
175
     7
176
     1
 42
1.0
176
     1
 92
        8
176
     1
 66
     7
176
     1
 43
1.0
176
     1
 76
     1
176
     1
 77
     6
176
     1
 78
     2
176
     1
 67
     7
176
     1
 79
     5
176
     1
170
     0
176
     1
171
     0
176
     1
290
     0
176
     1
 93
        1
176
     1
 44
0.0
176
     1
173
     0
176
     1
  0
VISUALSTYLE
  5
33
102
{ACAD_REACTORS
330
2A
102
}
330
2A
100
AcDbVisualStyle
  2
Realistic
 70
     8
177
     2
291
     0
 71
     2
176
     1
 72
     2
176
     1
 73
     0
176
     1
 90
        0
176
     1
 40
-0.6
176
     1
 41
-30.0
176
     1
 62
     5
 63
     7
421
 16777215
176
     1
 74
     1
176
     1
 91
        0
176
     1
 64
     7
176
     1
 65
   257
176
     1
 75
     1
176
     1
175
     1
176
     1
 42
1.0
176
     1
 92
        8
176
     1
 66
     8
424
  7895160
176
     1
 43
1.0
176
     1
 76
     1
176
     1
 77
     6
176
     1
 78
     2
176
     1
 67
     7
176
     1
 79
     5
176
     1
170
     0
176
     1
171
     0
176
     1
290
     0
176
     1
 93
       13
176
     1
 44
0.0
176
     1
173
     0
176
     1
  0
VISUALSTYLE
  5
37
102
{ACAD_REACTORS
330
2A
102
}
330
2A
100
AcDbVisualStyle
  2
Thicken
 70
    13
177
     2
291
     1
 71
     2
176
     1
 72
     2
176
     1
 73
     0
176
     1
 90
        0
176
     1
 40
-0.6
176
     1
 41
-30.0
176
     1
 62
     5
 63
     7
421
 16777215
176
     1
 74
     1
176
     1
 91
        4
176
     1
 64
     7
176
     1
 65
   257
176
     1
 75
     1
176
     1
175
     1
176
     1
 42
1.0
176
     1
 92
       12
176
     1
 66
     7
176
     1
 43
1.0
176
     1
 76
     1
176
     1
 77
     6
176
     1
 78
     2
176
     1
 67
     7
176
     1
 79
     5
176
     1
170
     0
176
     1
171
     0
176
     1
290
     0
176
     1
 93
        1
176
     1
 44
0.0
176
     1
173
     0
176
     1
  0
ENDSEC
  0
EOF
