  0
SECTION
  2
HEADER
  9
$ACADVER
  1
AC1024
  9
$ACADMAINTVER
 70
     6
  9
$DWGCODEPAGE
  3
ANSI_932
  9
$INSBASE
 10
0.0
 20
0.0
 30
0.0
  9
$EXTMIN
 10
-4455.0
 20
-3150.0
 30
0.0
  9
$EXTMAX
 10
4455.0
 20
3150.0
 30
0.0
  9
$LIMMIN
 10
-4455.0
 20
-3150.0
  9
$LIMMAX
 10
4455.0
 20
3150.0
  9
$ORTHOMODE
 70
     0
  9
$REGENMODE
 70
     1
  9
$FILLMODE
 70
     1
  9
$QTEXTMODE
 70
     0
  9
$MIRRTEXT
 70
     1
  9
$LTSCALE
 40
30.0
  9
$ATTMODE
 70
     1
  9
$TEXTSIZE
 40
2.5
  9
$TRACEWID
 40
1.0
  9
$TEXTSTYLE
  7
Standard
  9
$CLAYER
  8
0
  9
$CELTYPE
  6
ByLayer
  9
$CECOLOR
 62
   256
  9
$CELTSCALE
 40
1.0
  9
$DISPSILH
 70
     0
  9
$DIMSCALE
 40
1.0
  9
$DIMASZ
 40
2.5
  9
$DIMEXO
 40
0.625
  9
$DIMDLI
 40
3.75
  9
$DIMRND
 40
0.0
  9
$DIMDLE
 40
0.0
  9
$DIMEXE
 40
1.25
  9
$DIMTP
 40
0.0
  9
$DIMTM
 40
0.0
  9
$DIMTXT
 40
2.5
  9
$DIMCEN
 40
2.5
  9
$DIMTSZ
 40
0.0
  9
$DIMTOL
 70
     0
  9
$DIMLIM
 70
     0
  9
$DIMTIH
 70
     0
  9
$DIMTOH
 70
     0
  9
$DIMSE1
 70
     0
  9
$DIMSE2
 70
     0
  9
$DIMTAD
 70
     1
  9
$DIMZIN
 70
     8
  9
$DIMBLK
  1

  9
$DIMASO
 70
     1
  9
$DIMSHO
 70
     1
  9
$DIMPOST
  1

  9
$DIMAPOST
  1

  9
$DIMALT
 70
     0
  9
$DIMALTD
 70
     3
  9
$DIMALTF
 40
0.03937007874016
  9
$DIMLFAC
 40
1.0
  9
$DIMTOFL
 70
     1
  9
$DIMTVP
 40
0.0
  9
$DIMTIX
 70
     0
  9
$DIMSOXD
 70
     0
  9
$DIMSAH
 70
     0
  9
$DIMBLK1
  1

  9
$DIMBLK2
  1

  9
$DIMSTYLE
  2
ISO-25
  9
$DIMCLRD
 70
     0
  9
$DIMCLRE
 70
     0
  9
$DIMCLRT
 70
     0
  9
$DIMTFAC
 40
1.0
  9
$DIMGAP
 40
0.625
  9
$DIMJUST
 70
     0
  9
$DIMSD1
 70
     0
  9
$DIMSD2
 70
     0
  9
$DIMTOLJ
 70
     0
  9
$DIMTZIN
 70
     8
  9
$DIMALTZ
 70
     0
  9
$DIMALTTZ
 70
     0
  9
$DIMUPT
 70
     0
  9
$DIMDEC
 70
     2
  9
$DIMTDEC
 70
     2
  9
$DIMALTU
 70
     2
  9
$DIMALTTD
 70
     3
  9
$DIMTXSTY
  7
Standard
  9
$DIMAUNIT
 70
     0
  9
$DIMADEC
 70
     0
  9
$DIMALTRND
 40
0.0
  9
$DIMAZIN
 70
     0
  9
$DIMDSEP
 70
    44
  9
$DIMATFIT
 70
     3
  9
$DIMFRAC
 70
     0
  9
$DIMLDRBLK
  1

  9
$DIMLUNIT
 70
     2
  9
$DIMLWD
 70
    -2
  9
$DIMLWE
 70
    -2
  9
$DIMTMOVE
 70
     0
  9
$DIMFXL
 40
1.0
  9
$DIMFXLON
 70
     0
  9
$DIMJOGANG
 40
0.7853981633974483
  9
$DIMTFILL
 70
     0
  9
$DIMTFILLCLR
 70
     0
  9
$DIMARCSYM
 70
     0
  9
$DIMLTYPE
  6

  9
$DIMLTEX1
  6

  9
$DIMLTEX2
  6

  9
$DIMTXTDIRECTION
 70
     0
  9
$LUNITS
 70
     2
  9
$LUPREC
 70
     4
  9
$SKETCHINC
 40
1.0
  9
$FILLETRAD
 40
10.0
  9
$AUNITS
 70
     0
  9
$AUPREC
 70
     0
  9
$MENU
  1
.
  9
$ELEVATION
 40
0.0
  9
$PELEVATION
 40
0.0
  9
$THICKNESS
 40
0.0
  9
$LIMCHECK
 70
     0
  9
$CHAMFERA
 40
10.0
  9
$CHAMFERB
 40
10.0
  9
$CHAMFERC
 40
20.0
  9
$CHAMFERD
 40
0.0
  9
$SKPOLY
 70
     0
  9
$TDCREATE
 40
2457953.399974468
  9
$TDUCREATE
 40
2457953.024974468
  9
$TDUPDATE
 40
2457953.399974479
  9
$TDUUPDATE
 40
2457953.024974479
  9
$TDINDWG
 40
0.0000000116
  9
$TDUSRTIMER
 40
0.0000000116
  9
$USRTIMER
 70
     1
  9
$ANGBASE
 50
0.0
  9
$ANGDIR
 70
     0
  9
$PDMODE
 70
     0
  9
$PDSIZE
 40
0.0
  9
$PLINEWID
 40
0.0
  9
$SPLFRAME
 70
     0
  9
$SPLINETYPE
 70
     6
  9
$SPLINESEGS
 70
     8
  9
$HANDSEED
  5
3E4
  9
$SURFTAB1
 70
     6
  9
$SURFTAB2
 70
     6
  9
$SURFTYPE
 70
     6
  9
$SURFU
 70
     6
  9
$SURFV
 70
     6
  9
$UCSBASE
  2

  9
$UCSNAME
  2

  9
$UCSORG
 10
0.0
 20
0.0
 30
0.0
  9
$UCSXDIR
 10
1.0
 20
0.0
 30
0.0
  9
$UCSYDIR
 10
0.0
 20
1.0
 30
0.0
  9
$UCSORTHOREF
  2

  9
$UCSORTHOVIEW
 70
     0
  9
$UCSORGTOP
 10
0.0
 20
0.0
 30
0.0
  9
$UCSORGBOTTOM
 10
0.0
 20
0.0
 30
0.0
  9
$UCSORGLEFT
 10
0.0
 20
0.0
 30
0.0
  9
$UCSORGRIGHT
 10
0.0
 20
0.0
 30
0.0
  9
$UCSORGFRONT
 10
0.0
 20
0.0
 30
0.0
  9
$UCSORGBACK
 10
0.0
 20
0.0
 30
0.0
  9
$PUCSBASE
  2

  9
$PUCSNAME
  2

  9
$PUCSORG
 10
0.0
 20
0.0
 30
0.0
  9
$PUCSXDIR
 10
1.0
 20
0.0
 30
0.0
  9
$PUCSYDIR
 10
0.0
 20
1.0
 30
0.0
  9
$PUCSORTHOREF
  2

  9
$PUCSORTHOVIEW
 70
     0
  9
$PUCSORGTOP
 10
0.0
 20
0.0
 30
0.0
  9
$PUCSORGBOTTOM
 10
0.0
 20
0.0
 30
0.0
  9
$PUCSORGLEFT
 10
0.0
 20
0.0
 30
0.0
  9
$PUCSORGRIGHT
 10
0.0
 20
0.0
 30
0.0
  9
$PUCSORGFRONT
 10
0.0
 20
0.0
 30
0.0
  9
$PUCSORGBACK
 10
0.0
 20
0.0
 30
0.0
  9
$USERI1
 70
     0
  9
$USERI2
 70
     0
  9
$USERI3
 70
     0
  9
$USERI4
 70
     0
  9
$USERI5
 70
     0
  9
$USERR1
 40
0.0
  9
$USERR2
 40
0.0
  9
$USERR3
 40
0.0
  9
$USERR4
 40
0.0
  9
$USERR5
 40
0.0
  9
$WORLDVIEW
 70
     1
  9
$SHADEDGE
 70
     3
  9
$SHADEDIF
 70
    70
  9
$TILEMODE
 70
     1
  9
$MAXACTVP
 70
    64
  9
$PINSBASE
 10
0.0
 20
0.0
 30
0.0
  9
$PLIMCHECK
 70
     0
  9
$PEXTMIN
 10
1.000000000000000E+20
 20
1.000000000000000E+20
 30
1.000000000000000E+20
  9
$PEXTMAX
 10
-1.000000000000000E+20
 20
-1.000000000000000E+20
 30
-1.000000000000000E+20
  9
$PLIMMIN
 10
0.0
 20
0.0
  9
$PLIMMAX
 10
420.0
 20
297.0
  9
$UNITMODE
 70
     0
  9
$VISRETAIN
 70
     1
  9
$PLINEGEN
 70
     0
  9
$PSLTSCALE
 70
     1
  9
$TREEDEPTH
 70
  3020
  9
$CMLSTYLE
  2
Standard
  9
$CMLJUST
 70
     0
  9
$CMLSCALE
 40
20.0
  9
$PROXYGRAPHICS
 70
     1
  9
$MEASUREMENT
 70
     1
  9
$CELWEIGHT
370
    -1
  9
$ENDCAPS
280
     0
  9
$JOINSTYLE
280
     0
  9
$LWDISPLAY
290
     0
  9
$INSUNITS
 70
     4
  9
$HYPERLINKBASE
  1

  9
$STYLESHEET
  1

  9
$XEDIT
290
     1
  9
$CEPSNTYPE
380
     0
  9
$PSTYLEMODE
290
     1
  9
$FINGERPRINTGUID
  2
{8E50029B-771C-4B45-9CFC-6410ADE1ECF5}
  9
$VERSIONGUID
  2
{FAEB1C32-E019-11D5-929B-00C0DF256EC4}
  9
$EXTNAMES
290
     1
  9
$PSVPSCALE
 40
0.0
  9
$OLESTARTUP
290
     0
  9
$SORTENTS
280
   127
  9
$INDEXCTL
280
     0
  9
$HIDETEXT
280
     1
  9
$XCLIPFRAME
280
     2
  9
$HALOGAP
280
     0
  9
$OBSCOLOR
 70
   257
  9
$OBSLTYPE
280
     0
  9
$INTERSECTIONDISPLAY
280
     0
  9
$INTERSECTIONCOLOR
 70
   257
  9
$DIMASSOC
280
     2
  9
$PROJECTNAME
  1

  9
$CAMERADISPLAY
290
     0
  9
$LENSLENGTH
 40
50.0
  9
$CAMERAHEIGHT
 40
0.0
  9
$STEPSPERSEC
 40
2.0
  9
$STEPSIZE
 40
6.0
  9
$3DDWFPREC
 40
2.0
  9
$PSOLWIDTH
 40
5.0
  9
$PSOLHEIGHT
 40
80.0
  9
$LOFTANG1
 40
1.570796326794897
  9
$LOFTANG2
 40
1.570796326794897
  9
$LOFTMAG1
 40
0.0
  9
$LOFTMAG2
 40
0.0
  9
$LOFTPARAM
 70
     7
  9
$LOFTNORMALS
280
     1
  9
$LATITUDE
 40
37.795
  9
$LONGITUDE
 40
-122.394
  9
$NORTHDIRECTION
 40
0.0
  9
$TIMEZONE
 70
 -8000
  9
$LIGHTGLYPHDISPLAY
280
     1
  9
$TILEMODELIGHTSYNCH
280
     1
  9
$SOLIDHIST
280
     1
  9
$SHOWHIST
280
     1
  9
$DWFFRAME
280
     2
  9
$DGNFRAME
280
     2
  9
$REALWORLDSCALE
290
     1
  9
$INTERFERECOLOR
 62
   256
  9
$CSHADOW
280
     0
  9
$SHADOWPLANELOCATION
 40
0.0
  0
ENDSEC
  0
SECTION
  2
CLASSES
  0
CLASS
  1
ACDBDICTIONARYWDFLT
  2
AcDbDictionaryWithDefault
  3
ObjectDBX Classes
 90
        0
 91
        4
280
     0
281
     0
  0
CLASS
  1
VISUALSTYLE
  2
AcDbVisualStyle
  3
ObjectDBX Classes
 90
     4095
 91
        4
280
     0
281
     0
  0
CLASS
  1
MATERIAL
  2
AcDbMaterial
  3
ObjectDBX Classes
 90
     1153
 91
        4
280
     0
281
     0
  0
ENDSEC
  0
SECTION
  2
TABLES
  0
TABLE
  2
VPORT
  5
8
330
0
100
AcDbSymbolTable
 70
     1
  0
VPORT
  5
29
330
8
100
AcDbSymbolTableRecord
100
AcDbViewportTableRecord
  2
*Active
 70
     0
 10
0.0
 20
0.0
 11
1.0
 21
1.0
 12
0.0
 22
0.0
 13
0.0
 23
0.0
 14
10.0
 24
10.0
 15
10.0
 25
10.0
 16
0.0
 26
0.0
 36
1.0
 17
0.0
 27
0.0
 37
0.0
 40
6930.000000000001
 41
1.414285714285714
 42
50.0
 43
0.0
 44
0.0
 50
0.0
 51
0.0
 71
     0
 72
 10000
 73
     1
 74
     3
 75
     0
 76
     0
 77
     0
 78
     0
281
     0
 65
     1
110
0.0
120
0.0
130
0.0
111
1.0
121
0.0
131
0.0
112
0.0
122
1.0
132
0.0
 79
     0
146
0.0
 60
     3
 61
     5
292
     1
282
     1
141
0.0
142
0.0
 63
   250
  0
ENDTAB
  0
TABLE
  2
LTYPE
  5
5
330
0
100
AcDbSymbolTable
 70
     2
  0
LTYPE
  5
14
330
5
100
AcDbSymbolTableRecord
100
AcDbLinetypeTableRecord
  2
ByBlock
 70
     0
  3

 72
    65
 73
     0
 40
0.0
  0
LTYPE
  5
15
330
5
100
AcDbSymbolTableRecord
100
AcDbLinetypeTableRecord
  2
ByLayer
 70
     0
  3

 72
    65
 73
     0
 40
0.0
  0
LTYPE
  5
16
330
5
100
AcDbSymbolTableRecord
100
AcDbLinetypeTableRecord
  2
Continuous
 70
     0
  3
Solid line
 72
    65
 73
     0
 40
0.0
  0
LTYPE
  5
3F
330
5
100
AcDbSymbolTableRecord
100
AcDbLinetypeTableRecord
  2
JWW_DASHED1
 70
     0
  3
-  --  --  --  --  --  --  --  -
 72
    65
 73
     2
 40
1.693333333333333
 49
0.8466666666666667
 74
     0
 49
-0.8466666666666667
 74
     0
  0
ENDTAB
  0
TABLE
  2
LAYER
  5
2
330
0
100
AcDbSymbolTable
 70
     3
  0
LAYER
  5
10
330
2
100
AcDbSymbolTableRecord
100
AcDbLayerTableRecord
  2
0
 70
     0
 62
     7
  6
Continuous
370
    -3
390
F
347
3E
  0
LAYER
  5
40
330
2
100
AcDbSymbolTableRecord
100
AcDbLayerTableRecord
  2
0-0
 70
     0
 62
     7
  6
Continuous
370
    -3
390
F
347
3E
  0
LAYER
  5
41
330
2
100
AcDbSymbolTableRecord
100
AcDbLayerTableRecord
  2
寸法
 70
     0
 62
     7
  6
Continuous
370
    -3
390
F
347
3E
  0
ENDTAB
  0
TABLE
  2
STYLE
  5
3
330
0
100
AcDbSymbolTable
 70
     1
  0
STYLE
  5
11
330
3
100
AcDbSymbolTableRecord
100
AcDbTextStyleTableRecord
  2
Standard
 70
     0
 40
0.0
 41
1.0
 50
0.0
 71
     0
 42
2.5
  3
txt
  4

  0
ENDTAB
  0
TABLE
  2
VIEW
  5
6
330
0
100
AcDbSymbolTable
 70
     0
  0
ENDTAB
  0
TABLE
  2
UCS
  5
7
330
0
100
AcDbSymbolTable
 70
     0
  0
ENDTAB
  0
TABLE
  2
APPID
  5
9
330
0
100
AcDbSymbolTable
 70
     1
  0
APPID
  5
12
330
9
100
AcDbSymbolTableRecord
100
AcDbRegAppTableRecord
  2
ACAD
 70
     0
  0
ENDTAB
  0
TABLE
  2
DIMSTYLE
  5
A
330
0
100
AcDbSymbolTable
 70
     1
100
AcDbDimStyleTable
  0
DIMSTYLE
105
27
330
A
100
AcDbSymbolTableRecord
100
AcDbDimStyleTableRecord
  2
ISO-25
 70
     0
 41
2.5
 42
0.625
 43
3.75
 44
1.25
 73
     0
 74
     0
 77
     1
 78
     8
140
2.5
141
2.5
143
0.03937007874016
147
0.625
171
     3
172
     1
178
     0
271
     2
272
     2
274
     3
278
    44
283
     0
284
     8
340
11
  0
ENDTAB
  0
TABLE
  2
BLOCK_RECORD
  5
1
330
0
100
AcDbSymbolTable
 70
     1
  0
BLOCK_RECORD
  5
1F
330
1
100
AcDbSymbolTableRecord
100
AcDbBlockTableRecord
  2
*Model_Space
340
22
 70
     0
280
     1
281
     0
  0
BLOCK_RECORD
  5
1B
330
1
100
AcDbSymbolTableRecord
100
AcDbBlockTableRecord
  2
*Paper_Space
340
1E
 70
     0
280
     1
281
     0
  0
BLOCK_RECORD
  5
23
330
1
100
AcDbSymbolTableRecord
100
AcDbBlockTableRecord
  2
*Paper_Space0
340
26
 70
     0
280
     1
281
     0
  0
ENDTAB
  0
ENDSEC
  0
SECTION
  2
BLOCKS
  0
BLOCK
  5
20
330
1F
100
AcDbEntity
  8
0
100
AcDbBlockBegin
  2
*Model_Space
 70
     0
 10
0.0
 20
0.0
 30
0.0
  3
*Model_Space
  1

  0
ENDBLK
  5
21
330
1F
100
AcDbEntity
  8
0
100
AcDbBlockEnd
  0
BLOCK
  5
1C
330
1B
100
AcDbEntity
 67
     1
  8
0
100
AcDbBlockBegin
  2
*Paper_Space
 70
     0
 10
0.0
 20
0.0
 30
0.0
  3
*Paper_Space
  1

  0
ENDBLK
  5
1D
330
1B
100
AcDbEntity
 67
     1
  8
0
100
AcDbBlockEnd
  0
BLOCK
  5
24
330
23
100
AcDbEntity
  8
0
100
AcDbBlockBegin
  2
*Paper_Space0
 70
     0
 10
0.0
 20
0.0
 30
0.0
  3
*Paper_Space0
  1

  0
ENDBLK
  5
25
330
23
100
AcDbEntity
  8
0
100
AcDbBlockEnd
  0
ENDSEC
  0
SECTION
  2
ENTITIES
  0
LINE
  5
42
330
1F
100
AcDbEntity
  8
0-0
  6
Continuous
 62
    92
370
    13
100
AcDbLine
 10
-1592.21206945463
 20
1069.849610408762
 30
0.0
 11
1641.787930545369
 21
1069.849610408762
 31
0.0
  0
LINE
  5
43
330
1F
100
AcDbEntity
  8
0-0
  6
Continuous
 62
    92
370
    13
100
AcDbLine
 10
-1562.21206945463
 20
1033.849610408761
 30
0.0
 11
1611.787930545369
 21
1033.849610408761
 31
0.0
  0
LINE
  5
44
330
1F
100
AcDbEntity
  8
0-0
  6
Continuous
 62
    92
370
    13
100
AcDbLine
 10
1611.787930545369
 20
-977.1503895912382
 30
0.0
 11
1611.787930545369
 21
1069.849610408762
 31
0.0
  0
LINE
  5
45
330
1F
100
AcDbEntity
  8
0-0
  6
Continuous
 62
    92
370
    13
100
AcDbLine
 10
-1562.21206945463
 20
-977.1503895912382
 30
0.0
 11
-1562.21206945463
 21
1069.849610408762
 31
0.0
  0
LINE
  5
46
330
1F
100
AcDbEntity
  8
0-0
  6
Continuous
 62
    92
370
    13
100
AcDbLine
 10
1641.787930545369
 20
-977.1503895912382
 30
0.0
 11
1641.787930545369
 21
1069.849610408762
 31
0.0
  0
LINE
  5
47
330
1F
100
AcDbEntity
  8
0-0
  6
Continuous
 62
    92
370
    13
100
AcDbLine
 10
-1592.21206945463
 20
-977.1503895912382
 30
0.0
 11
-1592.21206945463
 21
1069.849610408762
 31
0.0
  0
LINE
  5
48
330
1F
100
AcDbEntity
  8
0-0
  6
Continuous
 62
    92
370
    13
100
AcDbLine
 10
1641.787930545369
 20
-977.1503895912382
 30
0.0
 11
-1592.21206945463
 21
-977.1503895912382
 31
0.0
  0
LINE
  5
49
330
1F
100
AcDbEntity
  8
0-0
  6
Continuous
 62
    92
370
    13
100
AcDbLine
 10
1611.787930545369
 20
-962.1503895912382
 30
0.0
 11
-1562.21206945463
 21
-962.1503895912382
 31
0.0
  0
ARC
  5
4A
330
1F
100
AcDbEntity
  8
0-0
  6
Continuous
 62
    92
370
    13
100
AcDbCircle
 10
-1533.712069454628
 20
59.84961040876257
 30
0.0
 40
1.5
100
AcDbArc
 50
90.0
 51
180.0
  0
LINE
  5
4B
330
1F
100
AcDbEntity
  8
0-0
  6
Continuous
 62
    92
370
    13
100
AcDbLine
 10
-1494.71206945463
 20
61.34961040876206
 30
0.0
 11
-1533.712069454628
 21
61.34961040876206
 31
0.0
  0
ARC
  5
4C
330
1F
100
AcDbEntity
  8
0-0
  6
Continuous
 62
    92
370
    13
100
AcDbCircle
 10
-1494.71206945463
 20
59.84961040876257
 30
0.0
 40
1.5
100
AcDbArc
 50
0.0
 51
90.00000000000001
  0
LINE
  5
4D
330
1F
100
AcDbEntity
  8
0-0
  6
Continuous
 62
    92
370
    13
100
AcDbLine
 10
-1493.212069454629
 20
-59.15038959123748
 30
0.0
 11
-1493.212069454629
 21
59.84961040876257
 31
0.0
  0
ARC
  5
4E
330
1F
100
AcDbEntity
  8
0-0
  6
Continuous
 62
    92
370
    13
100
AcDbCircle
 10
-1494.71206945463
 20
-59.15038959123748
 30
0.0
 40
1.5
100
AcDbArc
 50
270.0
 51
0.0
  0
LINE
  5
4F
330
1F
100
AcDbEntity
  8
0-0
  6
Continuous
 62
    92
370
    13
100
AcDbLine
 10
-1533.712069454628
 20
-60.65038959123953
 30
0.0
 11
-1494.71206945463
 21
-60.65038959123953
 31
0.0
  0
LINE
  5
50
330
1F
100
AcDbEntity
  8
0-0
  6
Continuous
 62
    92
370
    13
100
AcDbLine
 10
-1535.212069454629
 20
-59.15038959123748
 30
0.0
 11
-1535.212069454629
 21
59.84961040876257
 31
0.0
  0
ARC
  5
51
330
1F
100
AcDbEntity
  8
0-0
  6
Continuous
 62
    92
370
    13
100
AcDbCircle
 10
-1533.712069454628
 20
-59.15038959123748
 30
0.0
 40
1.5
100
AcDbArc
 50
180.0
 51
270.0
  0
ARC
  5
52
330
1F
100
AcDbEntity
  8
0-0
  6
Continuous
 62
     7
370
     9
100
AcDbCircle
 10
-1514.212069454629
 20
-29.25038959123739
 30
0.0
 40
15.0
100
AcDbArc
 50
180.0
 51
0.0
  0
ARC
  5
53
330
1F
100
AcDbEntity
  8
0-0
  6
Continuous
 62
     7
370
     9
100
AcDbCircle
 10
-1514.212069454629
 20
29.94961040876248
 30
0.0
 40
15.0
100
AcDbArc
 50
0.0
 51
180.0
  0
LINE
  5
54
330
1F
100
AcDbEntity
  8
0-0
  6
Continuous
 62
     7
370
     9
100
AcDbLine
 10
-1499.212069454629
 20
-29.25038959123739
 30
0.0
 11
-1499.212069454629
 21
29.94961040876248
 31
0.0
  0
LINE
  5
55
330
1F
100
AcDbEntity
  8
0-0
  6
Continuous
 62
     7
370
     9
100
AcDbLine
 10
-1529.212069454629
 20
29.94961040876248
 30
0.0
 11
-1529.212069454629
 21
-29.25038959123739
 31
0.0
  0
ARC
  5
56
330
1F
100
AcDbEntity
  8
0-0
  6
Continuous
 62
    92
370
    13
100
AcDbCircle
 10
-45.71206945462762
 20
59.84961040876257
 30
0.0
 40
1.5
100
AcDbArc
 50
90.0
 51
180.0
  0
LINE
  5
57
330
1F
100
AcDbEntity
  8
0-0
  6
Continuous
 62
    92
370
    13
100
AcDbLine
 10
-6.712069454628988
 20
61.34961040876206
 30
0.0
 11
-45.71206945462762
 21
61.34961040876206
 31
0.0
  0
ARC
  5
58
330
1F
100
AcDbEntity
  8
0-0
  6
Continuous
 62
    92
370
    13
100
AcDbCircle
 10
-6.712069454628988
 20
59.84961040876257
 30
0.0
 40
1.5
100
AcDbArc
 50
0.0
 51
90.00000000000001
  0
LINE
  5
59
330
1F
100
AcDbEntity
  8
0-0
  6
Continuous
 62
    92
370
    13
100
AcDbLine
 10
-5.212069454628647
 20
-59.15038959123748
 30
0.0
 11
-5.212069454628647
 21
59.84961040876257
 31
0.0
  0
ARC
  5
5A
330
1F
100
AcDbEntity
  8
0-0
  6
Continuous
 62
    92
370
    13
100
AcDbCircle
 10
-6.712069454628988
 20
-59.15038959123748
 30
0.0
 40
1.5
100
AcDbArc
 50
270.0
 51
0.0
  0
LINE
  5
5B
330
1F
100
AcDbEntity
  8
0-0
  6
Continuous
 62
    92
370
    13
100
AcDbLine
 10
-45.71206945462762
 20
-60.65038959123953
 30
0.0
 11
-6.712069454628988
 21
-60.65038959123953
 31
0.0
  0
LINE
  5
5C
330
1F
100
AcDbEntity
  8
0-0
  6
Continuous
 62
    92
370
    13
100
AcDbLine
 10
-47.21206945462797
 20
-59.15038959123748
 30
0.0
 11
-47.21206945462797
 21
59.84961040876257
 31
0.0
  0
ARC
  5
5D
330
1F
100
AcDbEntity
  8
0-0
  6
Continuous
 62
    92
370
    13
100
AcDbCircle
 10
-45.71206945462762
 20
-59.15038959123748
 30
0.0
 40
1.5
100
AcDbArc
 50
180.0
 51
270.0
  0
ARC
  5
5E
330
1F
100
AcDbEntity
  8
0-0
  6
Continuous
 62
     7
370
     9
100
AcDbCircle
 10
-26.21206945462831
 20
-29.25038959123739
 30
0.0
 40
15.0
100
AcDbArc
 50
180.0
 51
0.0
  0
ARC
  5
5F
330
1F
100
AcDbEntity
  8
0-0
  6
Continuous
 62
     7
370
     9
100
AcDbCircle
 10
-26.21206945462831
 20
29.94961040876248
 30
0.0
 40
15.0
100
AcDbArc
 50
0.0
 51
180.0
  0
LINE
  5
60
330
1F
100
AcDbEntity
  8
0-0
  6
Continuous
 62
     7
370
     9
100
AcDbLine
 10
-11.21206945462831
 20
-29.25038959123739
 30
0.0
 11
-11.21206945462831
 21
29.94961040876248
 31
0.0
  0
LINE
  5
61
330
1F
100
AcDbEntity
  8
0-0
  6
Continuous
 62
     7
370
     9
100
AcDbLine
 10
-41.21206945462831
 20
29.94961040876248
 30
0.0
 11
-41.21206945462831
 21
-29.25038959123739
 31
0.0
  0
ARC
  5
62
330
1F
100
AcDbEntity
  8
0-0
  6
Continuous
 62
    92
370
    13
100
AcDbCircle
 10
56.28793054536828
 20
59.84961040876257
 30
0.0
 40
1.5
100
AcDbArc
 50
90.0
 51
180.0
  0
LINE
  5
63
330
1F
100
AcDbEntity
  8
0-0
  6
Continuous
 62
    92
370
    13
100
AcDbLine
 10
95.28793054536692
 20
61.34961040876206
 30
0.0
 11
56.28793054536828
 21
61.34961040876206
 31
0.0
  0
ARC
  5
64
330
1F
100
AcDbEntity
  8
0-0
  6
Continuous
 62
    92
370
    13
100
AcDbCircle
 10
95.28793054536692
 20
59.84961040876257
 30
0.0
 40
1.5
100
AcDbArc
 50
0.0
 51
90.00000000000001
  0
LINE
  5
65
330
1F
100
AcDbEntity
  8
0-0
  6
Continuous
 62
    92
370
    13
100
AcDbLine
 10
96.78793054536726
 20
-59.15038959123748
 30
0.0
 11
96.78793054536726
 21
59.84961040876257
 31
0.0
  0
ARC
  5
66
330
1F
100
AcDbEntity
  8
0-0
  6
Continuous
 62
    92
370
    13
100
AcDbCircle
 10
95.28793054536692
 20
-59.15038959123748
 30
0.0
 40
1.5
100
AcDbArc
 50
270.0
 51
0.0
  0
LINE
  5
67
330
1F
100
AcDbEntity
  8
0-0
  6
Continuous
 62
    92
370
    13
100
AcDbLine
 10
56.28793054536828
 20
-60.65038959123953
 30
0.0
 11
95.28793054536692
 21
-60.65038959123953
 31
0.0
  0
LINE
  5
68
330
1F
100
AcDbEntity
  8
0-0
  6
Continuous
 62
    92
370
    13
100
AcDbLine
 10
54.78793054536794
 20
-59.15038959123748
 30
0.0
 11
54.78793054536794
 21
59.84961040876257
 31
0.0
  0
ARC
  5
69
330
1F
100
AcDbEntity
  8
0-0
  6
Continuous
 62
    92
370
    13
100
AcDbCircle
 10
56.28793054536828
 20
-59.15038959123748
 30
0.0
 40
1.5
100
AcDbArc
 50
180.0
 51
270.0
  0
ARC
  5
6A
330
1F
100
AcDbEntity
  8
0-0
  6
Continuous
 62
     7
370
     9
100
AcDbCircle
 10
75.7879305453676
 20
-29.25038959123739
 30
0.0
 40
15.0
100
AcDbArc
 50
180.0
 51
0.0
  0
ARC
  5
6B
330
1F
100
AcDbEntity
  8
0-0
  6
Continuous
 62
     7
370
     9
100
AcDbCircle
 10
75.7879305453676
 20
29.94961040876248
 30
0.0
 40
15.0
100
AcDbArc
 50
0.0
 51
180.0
  0
LINE
  5
6C
330
1F
100
AcDbEntity
  8
0-0
  6
Continuous
 62
     7
370
     9
100
AcDbLine
 10
90.7879305453676
 20
-29.25038959123739
 30
0.0
 11
90.7879305453676
 21
29.94961040876248
 31
0.0
  0
LINE
  5
6D
330
1F
100
AcDbEntity
  8
0-0
  6
Continuous
 62
     7
370
     9
100
AcDbLine
 10
60.7879305453676
 20
29.94961040876248
 30
0.0
 11
60.7879305453676
 21
-29.25038959123739
 31
0.0
  0
ARC
  5
6E
330
1F
100
AcDbEntity
  8
0-0
  6
Continuous
 62
    92
370
    13
100
AcDbCircle
 10
1544.287930545372
 20
59.84961040876257
 30
0.0
 40
1.5
100
AcDbArc
 50
90.0
 51
180.0
  0
LINE
  5
6F
330
1F
100
AcDbEntity
  8
0-0
  6
Continuous
 62
    92
370
    13
100
AcDbLine
 10
1583.287930545372
 20
61.34961040876206
 30
0.0
 11
1544.287930545372
 21
61.34961040876206
 31
0.0
  0
ARC
  5
70
330
1F
100
AcDbEntity
  8
0-0
  6
Continuous
 62
    92
370
    13
100
AcDbCircle
 10
1583.287930545372
 20
59.84961040876257
 30
0.0
 40
1.5
100
AcDbArc
 50
0.0
 51
90.00000000000001
  0
LINE
  5
71
330
1F
100
AcDbEntity
  8
0-0
  6
Continuous
 62
    92
370
    13
100
AcDbLine
 10
1584.787930545371
 20
-59.15038959123748
 30
0.0
 11
1584.787930545371
 21
59.84961040876257
 31
0.0
  0
ARC
  5
72
330
1F
100
AcDbEntity
  8
0-0
  6
Continuous
 62
    92
370
    13
100
AcDbCircle
 10
1583.287930545372
 20
-59.15038959123748
 30
0.0
 40
1.5
100
AcDbArc
 50
270.0
 51
0.0
  0
LINE
  5
73
330
1F
100
AcDbEntity
  8
0-0
  6
Continuous
 62
    92
370
    13
100
AcDbLine
 10
1544.287930545372
 20
-60.65038959123953
 30
0.0
 11
1583.287930545372
 21
-60.65038959123953
 31
0.0
  0
LINE
  5
74
330
1F
100
AcDbEntity
  8
0-0
  6
Continuous
 62
    92
370
    13
100
AcDbLine
 10
1542.787930545372
 20
-59.15038959123748
 30
0.0
 11
1542.787930545372
 21
59.84961040876257
 31
0.0
  0
ARC
  5
75
330
1F
100
AcDbEntity
  8
0-0
  6
Continuous
 62
    92
370
    13
100
AcDbCircle
 10
1544.287930545372
 20
-59.15038959123748
 30
0.0
 40
1.5
100
AcDbArc
 50
180.0
 51
270.0
  0
ARC
  5
76
330
1F
100
AcDbEntity
  8
0-0
  6
Continuous
 62
     7
370
     9
100
AcDbCircle
 10
1563.787930545372
 20
-29.25038959123739
 30
0.0
 40
15.0
100
AcDbArc
 50
180.0
 51
0.0
  0
ARC
  5
77
330
1F
100
AcDbEntity
  8
0-0
  6
Continuous
 62
     7
370
     9
100
AcDbCircle
 10
1563.787930545372
 20
29.94961040876248
 30
0.0
 40
15.0
100
AcDbArc
 50
0.0
 51
180.0
  0
LINE
  5
78
330
1F
100
AcDbEntity
  8
0-0
  6
Continuous
 62
     7
370
     9
100
AcDbLine
 10
1578.787930545372
 20
-29.25038959123739
 30
0.0
 11
1578.787930545372
 21
29.94961040876248
 31
0.0
  0
LINE
  5
79
330
1F
100
AcDbEntity
  8
0-0
  6
Continuous
 62
     7
370
     9
100
AcDbLine
 10
1548.787930545372
 20
29.94961040876248
 30
0.0
 11
1548.787930545372
 21
-29.25038959123739
 31
0.0
  0
LINE
  5
7A
330
1F
100
AcDbEntity
  8
0-0
  6
Continuous
 62
    92
370
    13
100
AcDbLine
 10
-785.2120694546304
 20
-957.1503895912384
 30
0.0
 11
-785.2120694546304
 21
1025.849610408761
 31
0.0
  0
LINE
  5
7B
330
1F
100
AcDbEntity
  8
0-0
  6
JWW_DASHED1
 62
   120
370
     5
100
AcDbLine
 10
-755.2120694546304
 20
-957.1503895912384
 30
0.0
 11
-755.2120694546304
 21
1025.849610408761
 31
0.0
  0
LINE
  5
7C
330
1F
100
AcDbEntity
  8
0-0
  6
Continuous
 62
    92
370
    13
100
AcDbLine
 10
-1562.21206945463
 20
-957.1503895912384
 30
0.0
 11
24.78793054536965
 21
-957.1503895912384
 31
0.0
  0
LINE
  5
7D
330
1F
100
AcDbEntity
  8
0-0
  6
Continuous
 62
    92
370
    13
100
AcDbLine
 10
-1562.21206945463
 20
1025.849610408761
 30
0.0
 11
24.78793054536965
 21
1025.849610408761
 31
0.0
  0
LINE
  5
7E
330
1F
100
AcDbEntity
  8
0-0
  6
Continuous
 62
    92
370
    13
100
AcDbLine
 10
24.78793054536965
 20
-957.1503895912384
 30
0.0
 11
24.78793054536965
 21
1025.849610408761
 31
0.0
  0
LINE
  5
7F
330
1F
100
AcDbEntity
  8
0-0
  6
Continuous
 62
    92
370
    13
100
AcDbLine
 10
834.7879305453696
 20
-957.1503895912384
 30
0.0
 11
834.7879305453696
 21
1025.849610408761
 31
0.0
  0
LINE
  5
80
330
1F
100
AcDbEntity
  8
0-0
  6
JWW_DASHED1
 62
   120
370
     5
100
AcDbLine
 10
804.7879305453696
 20
-957.1503895912384
 30
0.0
 11
804.7879305453696
 21
1025.849610408761
 31
0.0
  0
LINE
  5
81
330
1F
100
AcDbEntity
  8
0-0
  6
Continuous
 62
    92
370
    13
100
AcDbLine
 10
1611.787930545369
 20
-957.1503895912384
 30
0.0
 11
24.78793054536965
 21
-957.1503895912384
 31
0.0
  0
LINE
  5
82
330
1F
100
AcDbEntity
  8
0-0
  6
Continuous
 62
    92
370
    13
100
AcDbLine
 10
1611.787930545369
 20
1025.849610408761
 30
0.0
 11
24.78793054536965
 21
1025.849610408761
 31
0.0
  0
LINE
  5
83
330
1F
100
AcDbEntity
  8
0-0
  6
JWW_DASHED1
 62
   120
370
     5
100
AcDbLine
 10
-1562.21206945463
 20
-957.1503895912384
 30
0.0
 11
-1565.21206945463
 21
-957.1503895912384
 31
0.0
  0
LINE
  5
84
330
1F
100
AcDbEntity
  8
0-0
  6
JWW_DASHED1
 62
   120
370
     5
100
AcDbLine
 10
-1565.21206945463
 20
-957.1503895912384
 30
0.0
 11
-1565.21206945463
 21
1025.849610408761
 31
0.0
  0
LINE
  5
85
330
1F
100
AcDbEntity
  8
0-0
  6
JWW_DASHED1
 62
   120
370
     5
100
AcDbLine
 10
-1565.21206945463
 20
1025.849610408761
 30
0.0
 11
-1562.21206945463
 21
1025.849610408761
 31
0.0
  0
LINE
  5
86
330
1F
100
AcDbEntity
  8
0-0
  6
JWW_DASHED1
 62
   120
370
     5
100
AcDbLine
 10
1611.787930545369
 20
-957.1503895912384
 30
0.0
 11
1614.78793054537
 21
-957.1503895912384
 31
0.0
  0
LINE
  5
87
330
1F
100
AcDbEntity
  8
0-0
  6
JWW_DASHED1
 62
   120
370
     5
100
AcDbLine
 10
1614.78793054537
 20
-957.1503895912384
 30
0.0
 11
1614.78793054537
 21
1025.849610408761
 31
0.0
  0
LINE
  5
88
330
1F
100
AcDbEntity
  8
0-0
  6
JWW_DASHED1
 62
   120
370
     5
100
AcDbLine
 10
1614.78793054537
 20
1025.849610408761
 30
0.0
 11
1611.787930545369
 21
1025.849610408761
 31
0.0
  0
LINE
  5
89
330
1F
100
AcDbEntity
  8
0-0
  6
Continuous
 62
     7
370
     9
100
AcDbLine
 10
-1179.212069454631
 20
-949.1503895912385
 30
0.0
 11
-1141.212069454631
 21
-949.1503895912385
 31
0.0
  0
LINE
  5
8A
330
1F
100
AcDbEntity
  8
0-0
  6
Continuous
 62
    92
370
    13
100
AcDbLine
 10
-1179.212069454631
 20
1025.849610408761
 30
0.0
 11
-1179.212069454631
 21
-957.1503895912381
 31
0.0
  0
LINE
  5
8B
330
1F
100
AcDbEntity
  8
0-0
  6
Continuous
 62
    92
370
    13
100
AcDbLine
 10
-1141.212069454631
 20
1025.849610408761
 30
0.0
 11
-1141.212069454631
 21
-957.1503895912384
 31
0.0
  0
LINE
  5
8C
330
1F
100
AcDbEntity
  8
0-0
  6
Continuous
 62
     7
370
     9
100
AcDbLine
 10
-1179.212069454631
 20
1017.849610408762
 30
0.0
 11
-1141.212069454631
 21
1017.849610408762
 31
0.0
  0
LINE
  5
8D
330
1F
100
AcDbEntity
  8
0-0
  6
JWW_DASHED1
 62
   120
370
     5
100
AcDbLine
 10
-1179.212069454631
 20
-912.3530904298253
 30
0.0
 11
-1141.212069454634
 21
-874.3530904298253
 31
0.0
  0
LINE
  5
8E
330
1F
100
AcDbEntity
  8
0-0
  6
JWW_DASHED1
 62
   120
370
     5
100
AcDbLine
 10
-1179.212069454631
 20
-902.4535954946635
 30
0.0
 11
-1141.212069454631
 21
-864.4535954946606
 31
0.0
  0
LINE
  5
8F
330
1F
100
AcDbEntity
  8
0-0
  6
JWW_DASHED1
 62
   120
370
     5
100
AcDbLine
 10
-1179.212069454631
 20
-892.554100559445
 30
0.0
 11
-1141.212069454624
 21
-854.5541005594365
 31
0.0
  0
LINE
  5
90
330
1F
100
AcDbEntity
  8
0-0
  6
JWW_DASHED1
 62
   120
370
     5
100
AcDbLine
 10
-1179.212069454631
 20
-882.6546056242328
 30
0.0
 11
-1141.212069454631
 21
-844.6546056242281
 31
0.0
  0
LINE
  5
91
330
1F
100
AcDbEntity
  8
0-0
  6
JWW_DASHED1
 62
   120
370
     5
100
AcDbLine
 10
-1179.212069454631
 20
-872.7551106890642
 30
0.0
 11
-1141.212069454627
 21
-834.7551106890635
 31
0.0
  0
LINE
  5
92
330
1F
100
AcDbEntity
  8
0-0
  6
JWW_DASHED1
 62
   120
370
     5
100
AcDbLine
 10
-1179.212069454631
 20
-862.8556157538501
 30
0.0
 11
-1141.212069454637
 21
-824.8556157538551
 31
0.0
  0
LINE
  5
93
330
1F
100
AcDbEntity
  8
0-0
  6
JWW_DASHED1
 62
   120
370
     5
100
AcDbLine
 10
-1179.212069454631
 20
-852.9561208186315
 30
0.0
 11
-1141.212069454627
 21
-814.9561208186315
 31
0.0
  0
LINE
  5
94
330
1F
100
AcDbEntity
  8
0-0
  6
JWW_DASHED1
 62
   120
370
     5
100
AcDbLine
 10
-1179.212069454631
 20
-843.0566258834705
 30
0.0
 11
-1141.212069454624
 21
-805.0566258834665
 31
0.0
  0
LINE
  5
95
330
1F
100
AcDbEntity
  8
0-0
  6
JWW_DASHED1
 62
   120
370
     5
100
AcDbLine
 10
-1179.212069454631
 20
-833.1571309482567
 30
0.0
 11
-1141.212069454634
 21
-795.1571309482584
 31
0.0
  0
LINE
  5
96
330
1F
100
AcDbEntity
  8
0-0
  6
JWW_DASHED1
 62
   120
370
     5
100
AcDbLine
 10
-1179.212069454631
 20
-823.2576360130392
 30
0.0
 11
-1141.212069454624
 21
-785.2576360130344
 31
0.0
  0
LINE
  5
97
330
1F
100
AcDbEntity
  8
0-0
  6
JWW_DASHED1
 62
   120
370
     5
100
AcDbLine
 10
-1179.212069454631
 20
-813.3581410778767
 30
0.0
 11
-1141.212069454637
 21
-775.3581410778854
 31
0.0
  0
LINE
  5
98
330
1F
100
AcDbEntity
  8
0-0
  6
JWW_DASHED1
 62
   120
370
     5
100
AcDbLine
 10
-1179.212069454631
 20
-803.458646142663
 30
0.0
 11
-1141.212069454631
 21
-765.4586461426618
 31
0.0
  0
LINE
  5
99
330
1F
100
AcDbEntity
  8
0-0
  6
JWW_DASHED1
 62
   120
370
     5
100
AcDbLine
 10
-1179.212069454631
 20
-793.5591512074491
 30
0.0
 11
-1141.212069454624
 21
-755.5591512074377
 31
0.0
  0
LINE
  5
9A
330
1F
100
AcDbEntity
  8
0-0
  6
JWW_DASHED1
 62
   120
370
     5
100
AcDbLine
 10
-1179.212069454631
 20
-783.6596562722857
 30
0.0
 11
-1141.212069454637
 21
-745.6596562722885
 31
0.0
  0
LINE
  5
9B
330
1F
100
AcDbEntity
  8
0-0
  6
JWW_DASHED1
 62
   120
370
     5
100
AcDbLine
 10
-1179.212069454631
 20
-773.7601613370734
 30
0.0
 11
-1141.212069454631
 21
-735.7601613370646
 31
0.0
  0
LINE
  5
9C
330
1F
100
AcDbEntity
  8
0-0
  6
JWW_DASHED1
 62
   120
370
     5
100
AcDbLine
 10
-1179.212069454631
 20
-763.8606664019004
 30
0.0
 11
-1141.212069454624
 21
-725.8606664019
 31
0.0
  0
LINE
  5
9D
330
1F
100
AcDbEntity
  8
0-0
  6
JWW_DASHED1
 62
   120
370
     5
100
AcDbLine
 10
-1179.212069454631
 20
-753.9611714666853
 30
0.0
 11
-1141.212069454634
 21
-715.9611714666916
 31
0.0
  0
LINE
  5
9E
330
1F
100
AcDbEntity
  8
0-0
  6
JWW_DASHED1
 62
   120
370
     5
100
AcDbLine
 10
-1179.212069454631
 20
-744.061676531473
 30
0.0
 11
-1141.212069454627
 21
-706.0616765314679
 31
0.0
  0
LINE
  5
9F
330
1F
100
AcDbEntity
  8
0-0
  6
JWW_DASHED1
 62
   120
370
     5
100
AcDbLine
 10
-1179.212069454631
 20
-734.1621815963113
 30
0.0
 11
-1141.212069454624
 21
-696.1621815963027
 31
0.0
  0
LINE
  5
A0
330
1F
100
AcDbEntity
  8
0-0
  6
JWW_DASHED1
 62
   120
370
     5
100
AcDbLine
 10
-1179.212069454631
 20
-724.2626866610913
 30
0.0
 11
-1141.212069454631
 21
-686.2626866610949
 31
0.0
  0
LINE
  5
A1
330
1F
100
AcDbEntity
  8
0-0
  6
JWW_DASHED1
 62
   120
370
     5
100
AcDbLine
 10
-1179.212069454631
 20
-714.3631917258798
 30
0.0
 11
-1141.212069454624
 21
-676.3631917258708
 31
0.0
  0
LINE
  5
A2
330
1F
100
AcDbEntity
  8
0-0
  6
JWW_DASHED1
 62
   120
370
     5
100
AcDbLine
 10
-1179.212069454631
 20
-704.4636967907165
 30
0.0
 11
-1141.212069454637
 21
-666.4636967907217
 31
0.0
  0
LINE
  5
A3
330
1F
100
AcDbEntity
  8
0-0
  6
JWW_DASHED1
 62
   120
370
     5
100
AcDbLine
 10
-1179.212069454631
 20
-694.5642018555022
 30
0.0
 11
-1141.212069454631
 21
-656.5642018554978
 31
0.0
  0
LINE
  5
A4
330
1F
100
AcDbEntity
  8
0-0
  6
JWW_DASHED1
 62
   120
370
     5
100
AcDbLine
 10
-1179.212069454631
 20
-684.664706920287
 30
0.0
 11
-1141.212069454637
 21
-646.6647069202897
 31
0.0
  0
LINE
  5
A5
330
1F
100
AcDbEntity
  8
0-0
  6
JWW_DASHED1
 62
   120
370
     5
100
AcDbLine
 10
-1179.212069454631
 20
-674.7652119851231
 30
0.0
 11
-1141.212069454634
 21
-636.7652119851248
 31
0.0
  0
LINE
  5
A6
330
1F
100
AcDbEntity
  8
0-0
  6
JWW_DASHED1
 62
   120
370
     5
100
AcDbLine
 10
-1179.212069454631
 20
-664.8657170499084
 30
0.0
 11
-1141.212069454627
 21
-626.865717049901
 31
0.0
  0
LINE
  5
A7
330
1F
100
AcDbEntity
  8
0-0
  6
JWW_DASHED1
 62
   120
370
     5
100
AcDbLine
 10
-1179.212069454631
 20
-654.9662221146914
 30
0.0
 11
-1141.212069454634
 21
-616.9662221146928
 31
0.0
  0
LINE
  5
A8
330
1F
100
AcDbEntity
  8
0-0
  6
JWW_DASHED1
 62
   120
370
     5
100
AcDbLine
 10
-1179.212069454631
 20
-645.066727179522
 30
0.0
 11
-1141.212069454631
 21
-607.066727179528
 31
0.0
  0
LINE
  5
A9
330
1F
100
AcDbEntity
  8
0-0
  6
JWW_DASHED1
 62
   120
370
     5
100
AcDbLine
 10
-1179.212069454631
 20
-635.1672322443152
 30
0.0
 11
-1141.212069454624
 21
-597.1672322443039
 31
0.0
  0
LINE
  5
AA
330
1F
100
AcDbEntity
  8
0-0
  6
JWW_DASHED1
 62
   120
370
     5
100
AcDbLine
 10
-1179.212069454631
 20
-625.2677373090905
 30
0.0
 11
-1141.212069454631
 21
-587.2677373090959
 31
0.0
  0
LINE
  5
AB
330
1F
100
AcDbEntity
  8
0-0
  6
JWW_DASHED1
 62
   120
370
     5
100
AcDbLine
 10
-1179.212069454631
 20
-615.3682423739326
 30
0.0
 11
-1141.212069454631
 21
-577.3682423739309
 31
0.0
  0
LINE
  5
AC
330
1F
100
AcDbEntity
  8
0-0
  6
JWW_DASHED1
 62
   120
370
     5
100
AcDbLine
 10
-1179.212069454631
 20
-605.4687474387184
 30
0.0
 11
-1141.212069454624
 21
-567.4687474387072
 31
0.0
  0
LINE
  5
AD
330
1F
100
AcDbEntity
  8
0-0
  6
JWW_DASHED1
 62
   120
370
     5
100
AcDbLine
 10
-1179.212069454631
 20
-595.5692525035006
 30
0.0
 11
-1141.212069454631
 21
-557.5692525034989
 31
0.0
  0
LINE
  5
AE
330
1F
100
AcDbEntity
  8
0-0
  6
JWW_DASHED1
 62
   120
370
     5
100
AcDbLine
 10
-1179.212069454631
 20
-585.6697575683392
 30
0.0
 11
-1141.212069454627
 21
-547.6697575683341
 31
0.0
  0
LINE
  5
AF
330
1F
100
AcDbEntity
  8
0-0
  6
JWW_DASHED1
 62
   120
370
     5
100
AcDbLine
 10
-1179.212069454631
 20
-575.7702626331198
 30
0.0
 11
-1141.212069454634
 21
-537.7702626331261
 31
0.0
  0
LINE
  5
B0
330
1F
100
AcDbEntity
  8
0-0
  6
JWW_DASHED1
 62
   120
370
     5
100
AcDbLine
 10
-1179.212069454631
 20
-565.8707676979071
 30
0.0
 11
-1141.212069454627
 21
-527.870767697902
 31
0.0
  0
LINE
  5
B1
330
1F
100
AcDbEntity
  8
0-0
  6
JWW_DASHED1
 62
   120
370
     5
100
AcDbLine
 10
-1179.212069454631
 20
-555.9712727627456
 30
0.0
 11
-1141.212069454624
 21
-517.971272762737
 31
0.0
  0
LINE
  5
B2
330
1F
100
AcDbEntity
  8
0-0
  6
JWW_DASHED1
 62
   120
370
     5
100
AcDbLine
 10
-1179.212069454631
 20
-546.0717778275263
 30
0.0
 11
-1141.212069454631
 21
-508.071777827529
 31
0.0
  0
LINE
  5
B3
330
1F
100
AcDbEntity
  8
0-0
  6
JWW_DASHED1
 62
   120
370
     5
100
AcDbLine
 10
-1179.212069454631
 20
-536.1722828923063
 30
0.0
 11
-1141.212069454624
 21
-498.1722828923054
 31
0.0
  0
LINE
  5
B4
330
1F
100
AcDbEntity
  8
0-0
  6
JWW_DASHED1
 62
   120
370
     5
100
AcDbLine
 10
-1179.212069454631
 20
-526.2727879571536
 30
0.0
 11
-1141.212069454637
 21
-488.272787957156
 31
0.0
  0
LINE
  5
B5
330
1F
100
AcDbEntity
  8
0-0
  6
JWW_DASHED1
 62
   120
370
     5
100
AcDbLine
 10
-1179.212069454631
 20
-516.3732930219367
 30
0.0
 11
-1141.212069454631
 21
-478.3732930219322
 31
0.0
  0
LINE
  5
B6
330
1F
100
AcDbEntity
  8
0-0
  6
JWW_DASHED1
 62
   120
370
     5
100
AcDbLine
 10
-1179.212069454631
 20
-506.4737980867169
 30
0.0
 11
-1141.212069454624
 21
-468.4737980867079
 31
0.0
  0
LINE
  5
B7
330
1F
100
AcDbEntity
  8
0-0
  6
JWW_DASHED1
 62
   120
370
     5
100
AcDbLine
 10
-1179.212069454631
 20
-496.5743031515566
 30
0.0
 11
-1141.212069454637
 21
-458.574303151559
 31
0.0
  0
LINE
  5
B8
330
1F
100
AcDbEntity
  8
0-0
  6
JWW_DASHED1
 62
   120
370
     5
100
AcDbLine
 10
-1179.212069454631
 20
-486.6748082163371
 30
0.0
 11
-1141.212069454627
 21
-448.6748082163349
 31
0.0
  0
LINE
  5
B9
330
1F
100
AcDbEntity
  8
0-0
  6
JWW_DASHED1
 62
   120
370
     5
100
AcDbLine
 10
-1179.212069454631
 20
-476.7753132811224
 30
0.0
 11
-1141.212069454637
 21
-438.7753132811271
 31
0.0
  0
LINE
  5
BA
330
1F
100
AcDbEntity
  8
0-0
  6
JWW_DASHED1
 62
   120
370
     5
100
AcDbLine
 10
-1179.212069454631
 20
-466.8758183459568
 30
0.0
 11
-1141.212069454631
 21
-428.8758183459619
 31
0.0
  0
LINE
  5
BB
330
1F
100
AcDbEntity
  8
0-0
  6
JWW_DASHED1
 62
   120
370
     5
100
AcDbLine
 10
-1179.212069454631
 20
-456.9763234107426
 30
0.0
 11
-1141.212069454624
 21
-418.9763234107387
 31
0.0
  0
LINE
  5
BC
330
1F
100
AcDbEntity
  8
0-0
  6
JWW_DASHED1
 62
   120
370
     5
100
AcDbLine
 10
-1179.212069454631
 20
-447.0768284755283
 30
0.0
 11
-1141.212069454634
 21
-409.0768284755305
 31
0.0
  0
LINE
  5
BD
330
1F
100
AcDbEntity
  8
0-0
  6
JWW_DASHED1
 62
   120
370
     5
100
AcDbLine
 10
-1179.212069454631
 20
-437.1773335403665
 30
0.0
 11
-1141.212069454631
 21
-399.1773335403653
 31
0.0
  0
LINE
  5
BE
330
1F
100
AcDbEntity
  8
0-0
  6
JWW_DASHED1
 62
   120
370
     5
100
AcDbLine
 10
-1179.212069454631
 20
-427.2778386051472
 30
0.0
 11
-1141.212069454637
 21
-389.2778386051571
 31
0.0
  0
LINE
  5
BF
330
1F
100
AcDbEntity
  8
0-0
  6
JWW_DASHED1
 62
   120
370
     5
100
AcDbLine
 10
-1179.212069454631
 20
-417.3783436699347
 30
0.0
 11
-1141.212069454631
 21
-379.3783436699334
 31
0.0
  0
LINE
  5
C0
330
1F
100
AcDbEntity
  8
0-0
  6
JWW_DASHED1
 62
   120
370
     5
100
AcDbLine
 10
-1179.212069454631
 20
-407.4788487347724
 30
0.0
 11
-1141.212069454627
 21
-369.4788487347687
 31
0.0
  0
LINE
  5
C1
330
1F
100
AcDbEntity
  8
0-0
  6
JWW_DASHED1
 62
   120
370
     5
100
AcDbLine
 10
-1179.212069454631
 20
-397.5793537995591
 30
0.0
 11
-1141.212069454637
 21
-359.57935379956
 31
0.0
  0
LINE
  5
C2
330
1F
100
AcDbEntity
  8
0-0
  6
JWW_DASHED1
 62
   120
370
     5
100
AcDbLine
 10
-1179.212069454631
 20
-387.6798588643385
 30
0.0
 11
-1141.212069454631
 21
-349.6798588643364
 31
0.0
  0
LINE
  5
C3
330
1F
100
AcDbEntity
  8
0-0
  6
JWW_DASHED1
 62
   120
370
     5
100
AcDbLine
 10
-1179.212069454631
 20
-377.7803639291724
 30
0.0
 11
-1141.212069454624
 21
-339.7803639291716
 31
0.0
  0
LINE
  5
C4
330
1F
100
AcDbEntity
  8
0-0
  6
JWW_DASHED1
 62
   120
370
     5
100
AcDbLine
 10
-1179.212069454631
 20
-367.8808689939574
 30
0.0
 11
-1141.212069454634
 21
-329.8808689939638
 31
0.0
  0
LINE
  5
C5
330
1F
100
AcDbEntity
  8
0-0
  6
JWW_DASHED1
 62
   120
370
     5
100
AcDbLine
 10
-1179.212069454631
 20
-357.9813740587444
 30
0.0
 11
-1141.212069454627
 21
-319.9813740587398
 31
0.0
  0
LINE
  5
C6
330
1F
100
AcDbEntity
  8
0-0
  6
JWW_DASHED1
 62
   120
370
     5
100
AcDbLine
 10
-1179.212069454631
 20
-348.0818791235835
 30
0.0
 11
-1141.212069454624
 21
-310.0818791235746
 31
0.0
  0
LINE
  5
C7
330
1F
100
AcDbEntity
  8
0-0
  6
JWW_DASHED1
 62
   120
370
     5
100
AcDbLine
 10
-1179.212069454631
 20
-338.1823841883637
 30
0.0
 11
-1141.212069454631
 21
-300.1823841883668
 31
0.0
  0
LINE
  5
C8
330
1F
100
AcDbEntity
  8
0-0
  6
JWW_DASHED1
 62
   120
370
     5
100
AcDbLine
 10
-1179.212069454631
 20
-328.2828892531517
 30
0.0
 11
-1141.212069454624
 21
-290.2828892531427
 31
0.0
  0
LINE
  5
C9
330
1F
100
AcDbEntity
  8
0-0
  6
JWW_DASHED1
 62
   120
370
     5
100
AcDbLine
 10
-1179.212069454631
 20
-318.3833943179839
 30
0.0
 11
-1141.212069454631
 21
-280.3833943179882
 31
0.0
  0
LINE
  5
CA
330
1F
100
AcDbEntity
  8
0-0
  6
JWW_DASHED1
 62
   120
370
     5
100
AcDbLine
 10
-1179.212069454631
 20
-308.4838993827735
 30
0.0
 11
-1141.212069454631
 21
-270.4838993827697
 31
0.0
  0
LINE
  5
CB
330
1F
100
AcDbEntity
  8
0-0
  6
JWW_DASHED1
 62
   120
370
     5
100
AcDbLine
 10
-1179.212069454631
 20
-298.5844044475597
 30
0.0
 11
-1141.212069454637
 21
-260.5844044475614
 31
0.0
  0
LINE
  5
CC
330
1F
100
AcDbEntity
  8
0-0
  6
JWW_DASHED1
 62
   120
370
     5
100
AcDbLine
 10
-1179.212069454631
 20
-288.6849095123954
 30
0.0
 11
-1141.212069454634
 21
-250.6849095123967
 31
0.0
  0
LINE
  5
CD
330
1F
100
AcDbEntity
  8
0-0
  6
JWW_DASHED1
 62
   120
370
     5
100
AcDbLine
 10
-1179.212069454631
 20
-278.785414577173
 30
0.0
 11
-1141.212069454627
 21
-240.7854145771726
 31
0.0
  0
LINE
  5
CE
330
1F
100
AcDbEntity
  8
0-0
  6
JWW_DASHED1
 62
   120
370
     5
100
AcDbLine
 10
-1179.212069454631
 20
-268.8859196419584
 30
0.0
 11
-1141.212069454634
 21
-230.8859196419648
 31
0.0
  0
LINE
  5
CF
330
1F
100
AcDbEntity
  8
0-0
  6
JWW_DASHED1
 62
   120
370
     5
100
AcDbLine
 10
-1179.212069454631
 20
-258.9864247067945
 30
0.0
 11
-1141.212069454631
 21
-220.9864247067996
 31
0.0
  0
LINE
  5
D0
330
1F
100
AcDbEntity
  8
0-0
  6
JWW_DASHED1
 62
   120
370
     5
100
AcDbLine
 10
-1179.212069454631
 20
-249.0869297715862
 30
0.0
 11
-1141.212069454624
 21
-211.0869297715756
 31
0.0
  0
LINE
  5
D1
330
1F
100
AcDbEntity
  8
0-0
  6
JWW_DASHED1
 62
   120
370
     5
100
AcDbLine
 10
-1179.212069454631
 20
-239.1874348363626
 30
0.0
 11
-1141.212069454631
 21
-201.1874348363678
 31
0.0
  0
LINE
  5
D2
330
1F
100
AcDbEntity
  8
0-0
  6
JWW_DASHED1
 62
   120
370
     5
100
AcDbLine
 10
-1179.212069454631
 20
-229.2879399012047
 30
0.0
 11
-1141.212069454631
 21
-191.2879399012026
 31
0.0
  0
LINE
  5
D3
330
1F
100
AcDbEntity
  8
0-0
  6
JWW_DASHED1
 62
   120
370
     5
100
AcDbLine
 10
-1179.212069454631
 20
-219.3884449659913
 30
0.0
 11
-1141.212069454624
 21
-181.3884449659786
 31
0.0
  0
LINE
  5
D4
330
1F
100
AcDbEntity
  8
0-0
  6
JWW_DASHED1
 62
   120
370
     5
100
AcDbLine
 10
-1179.212069454631
 20
-209.4889500307728
 30
0.0
 11
-1141.212069454631
 21
-171.4889500307707
 31
0.0
  0
LINE
  5
D5
330
1F
100
AcDbEntity
  8
0-0
  6
JWW_DASHED1
 62
   120
370
     5
100
AcDbLine
 10
-1179.212069454631
 20
-199.589455095611
 30
0.0
 11
-1141.212069454627
 21
-161.5894550956055
 31
0.0
  0
LINE
  5
D6
330
1F
100
AcDbEntity
  8
0-0
  6
JWW_DASHED1
 62
   120
370
     5
100
AcDbLine
 10
-1179.212069454631
 20
-189.6899601603913
 30
0.0
 11
-1141.212069454634
 21
-151.6899601603977
 31
0.0
  0
LINE
  5
D7
330
1F
100
AcDbEntity
  8
0-0
  6
JWW_DASHED1
 62
   120
370
     5
100
AcDbLine
 10
-1179.212069454631
 20
-179.7904652252073
 30
0.0
 11
-1141.212069454631
 21
-141.7904652252035
 31
0.0
  0
LINE
  5
D8
330
1F
100
AcDbEntity
  8
0-0
  6
JWW_DASHED1
 62
   120
370
     5
100
AcDbLine
 10
-1179.212069454631
 20
-169.8909702900097
 30
0.0
 11
-1141.212069454624
 21
-131.8909702900089
 31
0.0
  0
LINE
  5
D9
330
1F
100
AcDbEntity
  8
0-0
  6
JWW_DASHED1
 62
   120
370
     5
100
AcDbLine
 10
-1179.212069454631
 20
-159.9914753547968
 30
0.0
 11
-1141.212069454631
 21
-121.9914753548011
 31
0.0
  0
LINE
  5
DA
330
1F
100
AcDbEntity
  8
0-0
  6
JWW_DASHED1
 62
   120
370
     5
100
AcDbLine
 10
-1179.212069454631
 20
-150.0919804196069
 30
0.0
 11
-1141.212069454627
 21
-112.0919804196065
 31
0.0
  0
LINE
  5
DB
330
1F
100
AcDbEntity
  8
0-0
  6
JWW_DASHED1
 62
   120
370
     5
100
AcDbLine
 10
-1179.212069454631
 20
-140.1924854844246
 30
0.0
 11
-1141.212069454637
 21
-102.1924854844276
 31
0.0
  0
LINE
  5
DC
330
1F
100
AcDbEntity
  8
0-0
  6
JWW_DASHED1
 62
   120
370
     5
100
AcDbLine
 10
-1179.212069454631
 20
-130.2929905492095
 30
0.0
 11
-1141.212069454631
 21
-92.29299054920361
 31
0.0
  0
LINE
  5
DD
330
1F
100
AcDbEntity
  8
0-0
  6
JWW_DASHED1
 62
   120
370
     5
100
AcDbLine
 10
-1179.212069454631
 20
-120.3934956140397
 30
0.0
 11
-1141.212069454627
 21
-82.39349561403927
 31
0.0
  0
LINE
  5
DE
330
1F
100
AcDbEntity
  8
0-0
  6
JWW_DASHED1
 62
   120
370
     5
100
AcDbLine
 10
-1179.212069454631
 20
-110.4940006788297
 30
0.0
 11
-1141.212069454637
 21
-72.49400067883059
 31
0.0
  0
LINE
  5
DF
330
1F
100
AcDbEntity
  8
0-0
  6
JWW_DASHED1
 62
   120
370
     5
100
AcDbLine
 10
-1179.212069454631
 20
-100.5945057436078
 30
0.0
 11
-1141.212069454627
 21
-62.59450574360741
 31
0.0
  0
LINE
  5
E0
330
1F
100
AcDbEntity
  8
0-0
  6
JWW_DASHED1
 62
   120
370
     5
100
AcDbLine
 10
-1179.212069454631
 20
-90.69501080844603
 30
0.0
 11
-1141.212069454624
 21
-52.69501080844222
 31
0.0
  0
LINE
  5
E1
330
1F
100
AcDbEntity
  8
0-0
  6
JWW_DASHED1
 62
   120
370
     5
100
AcDbLine
 10
-1179.212069454631
 20
-80.79551587323138
 30
0.0
 11
-1141.212069454634
 21
-42.79551587323439
 31
0.0
  0
LINE
  5
E2
330
1F
100
AcDbEntity
  8
0-0
  6
JWW_DASHED1
 62
   120
370
     5
100
AcDbLine
 10
-1179.212069454631
 20
-70.89602093801417
 30
0.0
 11
-1141.212069454624
 21
-32.89602093801037
 31
0.0
  0
LINE
  5
E3
330
1F
100
AcDbEntity
  8
0-0
  6
JWW_DASHED1
 62
   120
370
     5
100
AcDbLine
 10
-1179.212069454631
 20
-60.9965260028558
 30
0.0
 11
-1141.212069454624
 21
-22.99652600284517
 31
0.0
  0
LINE
  5
E4
330
1F
100
AcDbEntity
  8
0-0
  6
JWW_DASHED1
 62
   120
370
     5
100
AcDbLine
 10
-1179.212069454631
 20
-51.09703106763774
 30
0.0
 11
-1141.212069454631
 21
-13.09703106763735
 31
0.0
  0
LINE
  5
E5
330
1F
100
AcDbEntity
  8
0-0
  6
JWW_DASHED1
 62
   120
370
     5
100
AcDbLine
 10
-1179.212069454631
 20
-41.19753613242395
 30
0.0
 11
-1141.212069454624
 21
-3.197536132413319
 31
0.0
  0
LINE
  5
E6
330
1F
100
AcDbEntity
  8
0-0
  6
JWW_DASHED1
 62
   120
370
     5
100
AcDbLine
 10
-1179.212069454631
 20
-31.29804119725705
 30
0.0
 11
-1141.212069454627
 21
6.701958802743349
 31
0.0
  0
LINE
  5
E7
330
1F
100
AcDbEntity
  8
0-0
  6
JWW_DASHED1
 62
   120
370
     5
100
AcDbLine
 10
-1179.212069454631
 20
-21.39854626204581
 30
0.0
 11
-1141.212069454627
 21
16.6014537379597
 31
0.0
  0
LINE
  5
E8
330
1F
100
AcDbEntity
  8
0-0
  6
JWW_DASHED1
 62
   120
370
     5
100
AcDbLine
 10
-1179.212069454631
 20
-11.49905132682946
 30
0.0
 11
-1141.212069454637
 21
26.50094867316753
 31
0.0
  0
LINE
  5
E9
330
1F
100
AcDbEntity
  8
0-0
  6
JWW_DASHED1
 62
   120
370
     5
100
AcDbLine
 10
-1179.212069454631
 20
-1.599556391660855
 30
0.0
 11
-1141.212069454634
 21
36.40044360833272
 31
0.0
  0
LINE
  5
EA
330
1F
100
AcDbEntity
  8
0-0
  6
JWW_DASHED1
 62
   120
370
     5
100
AcDbLine
 10
-1179.212069454631
 20
8.299938543555072
 30
0.0
 11
-1141.212069454624
 21
46.29993854355675
 31
0.0
  0
LINE
  5
EB
330
1F
100
AcDbEntity
  8
0-0
  6
JWW_DASHED1
 62
   120
370
     5
100
AcDbLine
 10
-1179.212069454631
 20
18.199433478771
 30
0.0
 11
-1141.212069454634
 21
56.19943347876458
 31
0.0
  0
LINE
  5
EC
330
1F
100
AcDbEntity
  8
0-0
  6
JWW_DASHED1
 62
   120
370
     5
100
AcDbLine
 10
-1179.212069454631
 20
28.09892841392468
 30
0.0
 11
-1141.212069454631
 21
66.09892841392977
 31
0.0
  0
LINE
  5
ED
330
1F
100
AcDbEntity
  8
0-0
  6
JWW_DASHED1
 62
   120
370
     5
100
AcDbLine
 10
-1179.212069454631
 20
37.9984233491453
 30
0.0
 11
-1141.212069454624
 21
75.99842334915337
 31
0.0
  0
LINE
  5
EE
330
1F
100
AcDbEntity
  8
0-0
  6
JWW_DASHED1
 62
   120
370
     5
100
AcDbLine
 10
-1179.212069454631
 20
47.89791828436464
 30
0.0
 11
-1141.212069454631
 21
85.89791828436162
 31
0.0
  0
LINE
  5
EF
330
1F
100
AcDbEntity
  8
0-0
  6
JWW_DASHED1
 62
   120
370
     5
100
AcDbLine
 10
-1179.212069454631
 20
57.79741321952258
 30
0.0
 11
-1141.212069454631
 21
95.79741321952639
 31
0.0
  0
LINE
  5
F0
330
1F
100
AcDbEntity
  8
0-0
  6
JWW_DASHED1
 62
   120
370
     5
100
AcDbLine
 10
-1179.212069454631
 20
67.69690815473894
 30
0.0
 11
-1141.21206945462
 21
105.6969081547504
 31
0.0
  0
LINE
  5
F1
330
1F
100
AcDbEntity
  8
0-0
  6
JWW_DASHED1
 62
   120
370
     5
100
AcDbLine
 10
-1179.212069454631
 20
77.59640308995486
 30
0.0
 11
-1141.212069454631
 21
115.5964030899587
 31
0.0
  0
LINE
  5
F2
330
1F
100
AcDbEntity
  8
0-0
  6
JWW_DASHED1
 62
   120
370
     5
100
AcDbLine
 10
-1179.212069454631
 20
87.49589802511622
 30
0.0
 11
-1141.212069454627
 21
125.4958980251234
 31
0.0
  0
LINE
  5
F3
330
1F
100
AcDbEntity
  8
0-0
  6
JWW_DASHED1
 62
   120
370
     5
100
AcDbLine
 10
-1179.212069454631
 20
97.395392960333
 30
0.0
 11
-1141.212069454634
 21
135.3953929603317
 31
0.0
  0
LINE
  5
F4
330
1F
100
AcDbEntity
  8
0-0
  6
JWW_DASHED1
 62
   120
370
     5
100
AcDbLine
 10
-1179.212069454631
 20
107.2948878955549
 30
0.0
 11
-1141.212069454627
 21
145.2948878955553
 31
0.0
  0
LINE
  5
F5
330
1F
100
AcDbEntity
  8
0-0
  6
JWW_DASHED1
 62
   120
370
     5
100
AcDbLine
 10
-1179.212069454631
 20
117.1943828307086
 30
0.0
 11
-1141.212069454624
 21
155.1943828307205
 31
0.0
  0
LINE
  5
F6
330
1F
100
AcDbEntity
  8
0-0
  6
JWW_DASHED1
 62
   120
370
     5
100
AcDbLine
 10
-1179.212069454631
 20
127.0938777659343
 30
0.0
 11
-1141.212069454631
 21
165.0938777659283
 31
0.0
  0
LINE
  5
F7
330
1F
100
AcDbEntity
  8
0-0
  6
JWW_DASHED1
 62
   120
370
     5
100
AcDbLine
 10
-1179.212069454631
 20
136.9933727011477
 30
0.0
 11
-1141.212069454624
 21
174.9933727011523
 31
0.0
  0
LINE
  5
F8
330
1F
100
AcDbEntity
  8
0-0
  6
JWW_DASHED1
 62
   120
370
     5
100
AcDbLine
 10
-1179.212069454631
 20
146.8928676363035
 30
0.0
 11
-1141.212069454637
 21
184.8928676363018
 31
0.0
  0
LINE
  5
F9
330
1F
100
AcDbEntity
  8
0-0
  6
JWW_DASHED1
 62
   120
370
     5
100
AcDbLine
 10
-1179.212069454631
 20
156.7923625715241
 30
0.0
 11
-1141.212069454631
 21
194.7923625715254
 31
0.0
  0
LINE
  5
FA
330
1F
100
AcDbEntity
  8
0-0
  6
JWW_DASHED1
 62
   120
370
     5
100
AcDbLine
 10
-1179.212069454631
 20
166.6918575067383
 30
0.0
 11
-1141.212069454624
 21
204.691857506749
 31
0.0
  0
LINE
  5
FB
330
1F
100
AcDbEntity
  8
0-0
  6
JWW_DASHED1
 62
   120
370
     5
100
AcDbLine
 10
-1179.212069454631
 20
176.5913524419044
 30
0.0
 11
-1141.212069454634
 21
214.5913524418988
 31
0.0
  0
LINE
  5
FC
330
1F
100
AcDbEntity
  8
0-0
  6
JWW_DASHED1
 62
   120
370
     5
100
AcDbLine
 10
-1179.212069454631
 20
186.4908473771169
 30
0.0
 11
-1141.212069454627
 21
224.4908473771224
 31
0.0
  0
LINE
  5
FD
330
1F
100
AcDbEntity
  8
0-0
  6
JWW_DASHED1
 62
   120
370
     5
100
AcDbLine
 10
-1179.212069454631
 20
196.3903423123354
 30
0.0
 11
-1141.212069454624
 21
234.39034231234
 31
0.0
  0
LINE
  5
FE
330
1F
100
AcDbEntity
  8
0-0
  6
JWW_DASHED1
 62
   120
370
     5
100
AcDbLine
 10
-1179.212069454631
 20
206.2898372474976
 30
0.0
 11
-1141.212069454631
 21
244.2898372474954
 31
0.0
  0
LINE
  5
FF
330
1F
100
AcDbEntity
  8
0-0
  6
JWW_DASHED1
 62
   120
370
     5
100
AcDbLine
 10
-1179.212069454631
 20
216.1893321827182
 30
0.0
 11
-1141.212069454624
 21
254.189332182719
 31
0.0
  0
LINE
  5
100
330
1F
100
AcDbEntity
  8
0-0
  6
JWW_DASHED1
 62
   120
370
     5
100
AcDbLine
 10
-1179.212069454631
 20
226.0888271179256
 30
0.0
 11
-1141.212069454634
 21
264.0888271179273
 31
0.0
  0
LINE
  5
101
330
1F
100
AcDbEntity
  8
0-0
  6
JWW_DASHED1
 62
   120
370
     5
100
AcDbLine
 10
-1179.212069454631
 20
235.9883220530882
 30
0.0
 11
-1141.212069454631
 21
273.988322053092
 31
0.0
  0
LINE
  5
102
330
1F
100
AcDbEntity
  8
0-0
  6
JWW_DASHED1
 62
   120
370
     5
100
AcDbLine
 10
-1179.212069454631
 20
245.8878169883101
 30
0.0
 11
-1141.212069454637
 21
283.8878169883003
 31
0.0
  0
LINE
  5
103
330
1F
100
AcDbEntity
  8
0-0
  6
JWW_DASHED1
 62
   120
370
     5
100
AcDbLine
 10
-1179.212069454631
 20
255.7873119235201
 30
0.0
 11
-1141.212069454631
 21
293.7873119235239
 31
0.0
  0
LINE
  5
104
330
1F
100
AcDbEntity
  8
0-0
  6
JWW_DASHED1
 62
   120
370
     5
100
AcDbLine
 10
-1179.212069454631
 20
265.6868068586887
 30
0.0
 11
-1141.212069454627
 21
303.6868068586891
 31
0.0
  0
LINE
  5
105
330
1F
100
AcDbEntity
  8
0-0
  6
JWW_DASHED1
 62
   120
370
     5
100
AcDbLine
 10
-1179.212069454631
 20
275.5863017938999
 30
0.0
 11
-1141.212069454637
 21
313.586301793897
 31
0.0
  0
LINE
  5
106
330
1F
100
AcDbEntity
  8
0-0
  6
JWW_DASHED1
 62
   120
370
     5
100
AcDbLine
 10
-1179.212069454631
 20
285.4857967291206
 30
0.0
 11
-1141.212069454627
 21
323.4857967291209
 31
0.0
  0
LINE
  5
107
330
1F
100
AcDbEntity
  8
0-0
  6
JWW_DASHED1
 62
   120
370
     5
100
AcDbLine
 10
-1179.212069454631
 20
295.3852916642815
 30
0.0
 11
-1141.212069454624
 21
333.3852916642861
 31
0.0
  0
LINE
  5
108
330
1F
100
AcDbEntity
  8
0-0
  6
JWW_DASHED1
 62
   120
370
     5
100
AcDbLine
 10
-1179.212069454631
 20
305.2847865994961
 30
0.0
 11
-1141.212069454634
 21
343.2847865994939
 31
0.0
  0
LINE
  5
109
330
1F
100
AcDbEntity
  8
0-0
  6
JWW_DASHED1
 62
   120
370
     5
100
AcDbLine
 10
-1179.212069454631
 20
315.1842815347142
 30
0.0
 11
-1141.212069454624
 21
353.184281534718
 31
0.0
  0
LINE
  5
10A
330
1F
100
AcDbEntity
  8
0-0
  6
JWW_DASHED1
 62
   120
370
     5
100
AcDbLine
 10
-1179.212069454631
 20
325.0837764698713
 30
0.0
 11
-1141.212069454624
 21
363.0837764698832
 31
0.0
  0
LINE
  5
10B
330
1F
100
AcDbEntity
  8
0-0
  6
JWW_DASHED1
 62
   120
370
     5
100
AcDbLine
 10
-1179.212069454631
 20
334.9832714050889
 30
0.0
 11
-1141.212069454631
 21
372.983271405091
 31
0.0
  0
LINE
  5
10C
330
1F
100
AcDbEntity
  8
0-0
  6
JWW_DASHED1
 62
   120
370
     5
100
AcDbLine
 10
-1179.212069454631
 20
344.8827663403031
 30
0.0
 11
-1141.212069454624
 21
382.882766340315
 31
0.0
  0
LINE
  5
10D
330
1F
100
AcDbEntity
  8
0-0
  6
JWW_DASHED1
 62
   120
370
     5
100
AcDbLine
 10
-1179.212069454631
 20
354.7822612754726
 30
0.0
 11
-1141.21206945462
 21
392.7822612754798
 31
0.0
  0
LINE
  5
10E
330
1F
100
AcDbEntity
  8
0-0
  6
JWW_DASHED1
 62
   120
370
     5
100
AcDbLine
 10
-1179.212069454631
 20
364.6817562106826
 30
0.0
 11
-1141.212069454627
 21
402.681756210688
 31
0.0
  0
LINE
  5
10F
330
1F
100
AcDbEntity
  8
0-0
  6
JWW_DASHED1
 62
   120
370
     5
100
AcDbLine
 10
-1179.212069454631
 20
374.5812511458989
 30
0.0
 11
-1141.212069454637
 21
412.5812511458959
 31
0.0
  0
LINE
  5
110
330
1F
100
AcDbEntity
  8
0-0
  6
JWW_DASHED1
 62
   120
370
     5
100
AcDbLine
 10
-1179.212069454631
 20
384.4807460810607
 30
0.0
 11
-1141.212069454634
 21
422.4807460810611
 31
0.0
  0
LINE
  5
111
330
1F
100
AcDbEntity
  8
0-0
  6
JWW_DASHED1
 62
   120
370
     5
100
AcDbLine
 10
-1179.212069454631
 20
394.3802410162839
 30
0.0
 11
-1141.212069454624
 21
432.3802410162847
 31
0.0
  0
LINE
  5
112
330
1F
100
AcDbEntity
  8
0-0
  6
JWW_DASHED1
 62
   120
370
     5
100
AcDbLine
 10
-1179.212069454631
 20
404.2797359514993
 30
0.0
 11
-1141.212069454634
 21
442.279735951493
 31
0.0
  0
LINE
  5
113
330
1F
100
AcDbEntity
  8
0-0
  6
JWW_DASHED1
 62
   120
370
     5
100
AcDbLine
 10
-1179.212069454631
 20
414.1792308866548
 30
0.0
 11
-1141.212069454631
 21
452.1792308866577
 31
0.0
  0
LINE
  5
114
330
1F
100
AcDbEntity
  8
0-0
  6
JWW_DASHED1
 62
   120
370
     5
100
AcDbLine
 10
-1179.212069454631
 20
424.0787258218737
 30
0.0
 11
-1141.212069454624
 21
462.0787258218817
 31
0.0
  0
LINE
  5
115
330
1F
100
AcDbEntity
  8
0-0
  6
JWW_DASHED1
 62
   120
370
     5
100
AcDbLine
 10
-1179.212069454631
 20
433.9782207570665
 30
0.0
 11
-1141.212069454634
 21
471.9782207570602
 31
0.0
  0
LINE
  5
116
330
1F
100
AcDbEntity
  8
0-0
  6
JWW_DASHED1
 62
   120
370
     5
100
AcDbLine
 10
-1179.212069454631
 20
443.8777156922509
 30
0.0
 11
-1141.212069454631
 21
481.8777156922548
 31
0.0
  0
LINE
  5
117
330
1F
100
AcDbEntity
  8
0-0
  6
JWW_DASHED1
 62
   120
370
     5
100
AcDbLine
 10
-1179.212069454631
 20
453.7772106274664
 30
0.0
 11
-1141.21206945462
 21
491.7772106274788
 31
0.0
  0
LINE
  5
118
330
1F
100
AcDbEntity
  8
0-0
  6
JWW_DASHED1
 62
   120
370
     5
100
AcDbLine
 10
-1179.212069454631
 20
463.6767055626333
 30
0.0
 11
-1141.212069454634
 21
501.6767055626278
 31
0.0
  0
LINE
  5
119
330
1F
100
AcDbEntity
  8
0-0
  6
JWW_DASHED1
 62
   120
370
     5
100
AcDbLine
 10
-1179.212069454631
 20
473.5762004978433
 30
0.0
 11
-1141.212069454627
 21
511.5762004978518
 31
0.0
  0
LINE
  5
11A
330
1F
100
AcDbEntity
  8
0-0
  6
JWW_DASHED1
 62
   120
370
     5
100
AcDbLine
 10
-1179.212069454631
 20
483.4756954330618
 30
0.0
 11
-1141.212069454634
 21
521.4756954330596
 31
0.0
  0
LINE
  5
11B
330
1F
100
AcDbEntity
  8
0-0
  6
JWW_DASHED1
 62
   120
370
     5
100
AcDbLine
 10
-1179.212069454631
 20
493.3751903682299
 30
0.0
 11
-1141.212069454631
 21
531.3751903682248
 31
0.0
  0
LINE
  5
11C
330
1F
100
AcDbEntity
  8
0-0
  6
JWW_DASHED1
 62
   120
370
     5
100
AcDbLine
 10
-1179.212069454631
 20
503.2746853034378
 30
0.0
 11
-1141.212069454624
 21
541.2746853034485
 31
0.0
  0
LINE
  5
11D
330
1F
100
AcDbEntity
  8
0-0
  6
JWW_DASHED1
 62
   120
370
     5
100
AcDbLine
 10
-1179.212069454631
 20
513.1741802386626
 30
0.0
 11
-1141.212069454631
 21
551.1741802386566
 31
0.0
  0
LINE
  5
11E
330
1F
100
AcDbEntity
  8
0-0
  6
JWW_DASHED1
 62
   120
370
     5
100
AcDbLine
 10
-1179.212069454631
 20
523.073675173813
 30
0.0
 11
-1141.212069454631
 21
561.0736751738215
 31
0.0
  0
LINE
  5
11F
330
1F
100
AcDbEntity
  8
0-0
  6
JWW_DASHED1
 62
   120
370
     5
100
AcDbLine
 10
-1179.212069454631
 20
532.9731701090327
 30
0.0
 11
-1141.212069454637
 21
570.9731701090298
 31
0.0
  0
LINE
  5
120
330
1F
100
AcDbEntity
  8
0-0
  6
JWW_DASHED1
 62
   120
370
     5
100
AcDbLine
 10
-1179.212069454631
 20
542.872665044252
 30
0.0
 11
-1141.212069454631
 21
580.8726650442533
 31
0.0
  0
LINE
  5
121
330
1F
100
AcDbEntity
  8
0-0
  6
JWW_DASHED1
 62
   120
370
     5
100
AcDbLine
 10
-1179.212069454631
 20
552.7721599794138
 30
0.0
 11
-1141.212069454627
 21
590.7721599794185
 31
0.0
  0
LINE
  5
122
330
1F
100
AcDbEntity
  8
0-0
  6
JWW_DASHED1
 62
   120
370
     5
100
AcDbLine
 10
-1179.212069454631
 20
562.6716549146323
 30
0.0
 11
-1141.212069454634
 21
600.6716549146267
 31
0.0
  0
LINE
  5
123
330
1F
100
AcDbEntity
  8
0-0
  6
JWW_DASHED1
 62
   120
370
     5
100
AcDbLine
 10
-1179.212069454631
 20
572.5711498498448
 30
0.0
 11
-1141.212069454627
 21
610.5711498498504
 31
0.0
  0
LINE
  5
124
330
1F
100
AcDbEntity
  8
0-0
  6
JWW_DASHED1
 62
   120
370
     5
100
AcDbLine
 10
-1179.212069454631
 20
582.4706447850066
 30
0.0
 11
-1141.212069454624
 21
620.4706447850156
 31
0.0
  0
LINE
  5
125
330
1F
100
AcDbEntity
  8
0-0
  6
JWW_DASHED1
 62
   120
370
     5
100
AcDbLine
 10
-1179.212069454631
 20
592.3701397202263
 30
0.0
 11
-1141.212069454631
 21
630.3701397202234
 31
0.0
  0
LINE
  5
126
330
1F
100
AcDbEntity
  8
0-0
  6
JWW_DASHED1
 62
   120
370
     5
100
AcDbLine
 10
-1179.212069454631
 20
602.2696346554453
 30
0.0
 11
-1141.212069454624
 21
640.2696346554474
 31
0.0
  0
LINE
  5
127
330
1F
100
AcDbEntity
  8
0-0
  6
JWW_DASHED1
 62
   120
370
     5
100
AcDbLine
 10
-1179.212069454631
 20
612.1691295905969
 30
0.0
 11
-1141.212069454624
 21
650.1691295906121
 31
0.0
  0
LINE
  5
128
330
1F
100
AcDbEntity
  8
0-0
  6
JWW_DASHED1
 62
   120
370
     5
100
AcDbLine
 10
-1179.212069454631
 20
622.0686245258166
 30
0.0
 11
-1141.212069454631
 21
660.0686245258204
 31
0.0
  0
LINE
  5
129
330
1F
100
AcDbEntity
  8
0-0
  6
JWW_DASHED1
 62
   120
370
     5
100
AcDbLine
 10
-1179.212069454631
 20
631.9681194610355
 30
0.0
 11
-1141.212069454624
 21
669.9681194610445
 31
0.0
  0
LINE
  5
12A
330
1F
100
AcDbEntity
  8
0-0
  6
JWW_DASHED1
 62
   120
370
     5
100
AcDbLine
 10
-1179.212069454631
 20
641.8676143961948
 30
0.0
 11
-1141.21206945462
 21
679.867614396207
 31
0.0
  0
LINE
  5
12B
330
1F
100
AcDbEntity
  8
0-0
  6
JWW_DASHED1
 62
   120
370
     5
100
AcDbLine
 10
-1179.212069454631
 20
651.7671093314162
 30
0.0
 11
-1141.212069454627
 21
689.7671093314175
 31
0.0
  0
LINE
  5
12C
330
1F
100
AcDbEntity
  8
0-0
  6
JWW_DASHED1
 62
   120
370
     5
100
AcDbLine
 10
-1179.212069454631
 20
661.6666042666283
 30
0.0
 11
-1141.212069454637
 21
699.6666042666253
 31
0.0
  0
LINE
  5
12D
330
1F
100
AcDbEntity
  8
0-0
  6
JWW_DASHED1
 62
   120
370
     5
100
AcDbLine
 10
-1179.212069454631
 20
671.5660992017956
 30
0.0
 11
-1141.212069454631
 21
709.5660992017905
 31
0.0
  0
LINE
  5
12E
330
1F
100
AcDbEntity
  8
0-0
  6
JWW_DASHED1
 62
   120
370
     5
100
AcDbLine
 10
-1179.212069454631
 20
681.4655941370103
 30
0.0
 11
-1141.212069454624
 21
719.465594137014
 31
0.0
  0
LINE
  5
12F
330
1F
100
AcDbEntity
  8
0-0
  6
JWW_DASHED1
 62
   120
370
     5
100
AcDbLine
 10
-1179.212069454631
 20
691.365089072222
 30
0.0
 11
-1141.212069454634
 21
729.3650890722223
 31
0.0
  0
LINE
  5
130
330
1F
100
AcDbEntity
  8
0-0
  6
JWW_DASHED1
 62
   120
370
     5
100
AcDbLine
 10
-1179.212069454631
 20
701.2645840073858
 30
0.0
 11
-1141.212069454631
 21
739.2645840073867
 31
0.0
  0
LINE
  5
131
330
1F
100
AcDbEntity
  8
0-0
  6
JWW_DASHED1
 62
   120
370
     5
100
AcDbLine
 10
-1179.212069454631
 20
711.1640789426001
 30
0.0
 11
-1141.212069454624
 21
749.1640789426111
 31
0.0
  0
LINE
  5
132
330
1F
100
AcDbEntity
  8
0-0
  6
JWW_DASHED1
 62
   120
370
     5
100
AcDbLine
 10
-1179.212069454631
 20
721.0635738778172
 30
0.0
 11
-1141.212069454631
 21
759.0635738778194
 31
0.0
  0
LINE
  5
133
330
1F
100
AcDbEntity
  8
0-0
  6
JWW_DASHED1
 62
   120
370
     5
100
AcDbLine
 10
-1179.212069454631
 20
730.9630688129795
 30
0.0
 11
-1141.212069454627
 21
768.9630688129841
 31
0.0
  0
LINE
  5
134
330
1F
100
AcDbEntity
  8
0-0
  6
JWW_DASHED1
 62
   120
370
     5
100
AcDbLine
 10
-1179.212069454631
 20
740.8625637482005
 30
0.0
 11
-1141.21206945462
 21
778.8625637482078
 31
0.0
  0
LINE
  5
135
330
1F
100
AcDbEntity
  8
0-0
  6
JWW_DASHED1
 62
   120
370
     5
100
AcDbLine
 10
-1179.212069454631
 20
750.7620586834075
 30
0.0
 11
-1141.212069454631
 21
788.762058683416
 31
0.0
  0
LINE
  5
136
330
1F
100
AcDbEntity
  8
0-0
  6
JWW_DASHED1
 62
   120
370
     5
100
AcDbLine
 10
-1179.212069454631
 20
760.6615536185795
 30
0.0
 11
-1141.212069454624
 21
798.6615536185811
 31
0.0
  0
LINE
  5
137
330
1F
100
AcDbEntity
  8
0-0
  6
JWW_DASHED1
 62
   120
370
     5
100
AcDbLine
 10
-1179.212069454631
 20
770.5610485537954
 30
0.0
 11
-1141.212069454634
 21
808.5610485537886
 31
0.0
  0
LINE
  5
138
330
1F
100
AcDbEntity
  8
0-0
  6
JWW_DASHED1
 62
   120
370
     5
100
AcDbLine
 10
-1179.212069454631
 20
780.4605434890123
 30
0.0
 11
-1141.212069454624
 21
818.460543489013
 31
0.0
  0
LINE
  5
139
330
1F
100
AcDbEntity
  8
0-0
  6
JWW_DASHED1
 62
   120
370
     5
100
AcDbLine
 10
-1179.212069454631
 20
790.3600384241697
 30
0.0
 11
-1141.212069454624
 21
828.3600384241778
 31
0.0
  0
LINE
  5
13A
330
1F
100
AcDbEntity
  8
0-0
  6
JWW_DASHED1
 62
   120
370
     5
100
AcDbLine
 10
-1179.212069454631
 20
800.259533359389
 30
0.0
 11
-1141.212069454631
 21
838.2595333593861
 31
0.0
  0
LINE
  5
13B
330
1F
100
AcDbEntity
  8
0-0
  6
JWW_DASHED1
 62
   120
370
     5
100
AcDbLine
 10
-1179.212069454631
 20
810.1590282946016
 30
0.0
 11
-1141.212069454624
 21
848.1590282946097
 31
0.0
  0
LINE
  5
13C
330
1F
100
AcDbEntity
  8
0-0
  6
JWW_DASHED1
 62
   120
370
     5
100
AcDbLine
 10
-1179.212069454631
 20
820.0585232297617
 30
0.0
 11
-1141.212069454637
 21
858.0585232297591
 31
0.0
  0
LINE
  5
13D
330
1F
100
AcDbEntity
  8
0-0
  6
JWW_DASHED1
 62
   120
370
     5
100
AcDbLine
 10
-1179.212069454631
 20
829.9580181649781
 30
0.0
 11
-1141.212069454631
 21
867.9580181649831
 31
0.0
  0
LINE
  5
13E
330
1F
100
AcDbEntity
  8
0-0
  6
JWW_DASHED1
 62
   120
370
     5
100
AcDbLine
 10
-1179.212069454631
 20
839.8575131001952
 30
0.0
 11
-1141.21206945462
 21
877.8575131002067
 31
0.0
  0
LINE
  5
13F
330
1F
100
AcDbEntity
  8
0-0
  6
JWW_DASHED1
 62
   120
370
     5
100
AcDbLine
 10
-1179.212069454631
 20
849.7570080353621
 30
0.0
 11
-1141.212069454634
 21
887.7570080353557
 31
0.0
  0
LINE
  5
140
330
1F
100
AcDbEntity
  8
0-0
  6
JWW_DASHED1
 62
   120
370
     5
100
AcDbLine
 10
-1179.212069454631
 20
859.6565029705725
 30
0.0
 11
-1141.212069454627
 21
897.6565029705797
 31
0.0
  0
LINE
  5
141
330
1F
100
AcDbEntity
  8
0-0
  6
JWW_DASHED1
 62
   120
370
     5
100
AcDbLine
 10
-1179.212069454631
 20
869.5559979057948
 30
0.0
 11
-1141.212069454617
 21
907.5559979058033
 31
0.0
  0
LINE
  5
142
330
1F
100
AcDbEntity
  8
0-0
  6
JWW_DASHED1
 62
   120
370
     5
100
AcDbLine
 10
-1179.212069454631
 20
879.4554928409588
 30
0.0
 11
-1141.212069454631
 21
917.4554928409527
 31
0.0
  0
LINE
  5
143
330
1F
100
AcDbEntity
  8
0-0
  6
JWW_DASHED1
 62
   120
370
     5
100
AcDbLine
 10
-1179.212069454631
 20
889.3549877761661
 30
0.0
 11
-1141.212069454624
 21
927.3549877761768
 31
0.0
  0
LINE
  5
144
330
1F
100
AcDbEntity
  8
0-0
  6
JWW_DASHED1
 62
   120
370
     5
100
AcDbLine
 10
-1179.212069454631
 20
899.2544827113902
 30
0.0
 11
-1141.212069454631
 21
937.2544827113846
 31
0.0
  0
LINE
  5
145
330
1F
100
AcDbEntity
  8
0-0
  6
JWW_DASHED1
 62
   120
370
     5
100
AcDbLine
 10
-1179.212069454631
 20
919.0534725817704
 30
0.0
 11
-1141.212069454631
 21
957.0534725817594
 31
0.0
  0
LINE
  5
146
330
1F
100
AcDbEntity
  8
0-0
  6
JWW_DASHED1
 62
   120
370
     5
100
AcDbLine
 10
-1179.212069454631
 20
909.153977646552
 30
0.0
 11
-1141.212069454631
 21
947.1539776465455
 31
0.0
  0
LINE
  5
147
330
1F
100
AcDbEntity
  8
0-0
  6
JWW_DASHED1
 62
   120
370
     5
100
AcDbLine
 10
-1179.212069454631
 20
-922.2525853649901
 30
0.0
 11
-1141.212069454634
 21
-884.2525853649901
 31
0.0
  0
LINE
  5
148
330
1F
100
AcDbEntity
  8
0-0
  6
JWW_DASHED1
 62
   120
370
     5
100
AcDbLine
 10
-1179.212069454631
 20
-932.1520803001548
 30
0.0
 11
-1141.212069454634
 21
-894.1520803001547
 31
0.0
  0
LINE
  5
149
330
1F
100
AcDbEntity
  8
0-0
  6
JWW_DASHED1
 62
   120
370
     5
100
AcDbLine
 10
-1179.212069454631
 20
-942.0515752353194
 30
0.0
 11
-1141.212069454634
 21
-904.0515752353197
 31
0.0
  0
LINE
  5
14A
330
1F
100
AcDbEntity
  8
0-0
  6
JWW_DASHED1
 62
   120
370
     5
100
AcDbLine
 10
-1176.411388875386
 20
-949.1503895912385
 30
0.0
 11
-1141.212069454634
 21
-913.9510701704844
 31
0.0
  0
LINE
  5
14B
330
1F
100
AcDbEntity
  8
0-0
  6
JWW_DASHED1
 62
   120
370
     5
100
AcDbLine
 10
-1146.712904069894
 20
-949.1503895912385
 30
0.0
 11
-1141.212069454634
 21
-943.6495549759787
 31
0.0
  0
LINE
  5
14C
330
1F
100
AcDbEntity
  8
0-0
  6
JWW_DASHED1
 62
   120
370
     5
100
AcDbLine
 10
-1166.511893940221
 20
-949.1503895912385
 30
0.0
 11
-1141.212069454634
 21
-923.8505651056491
 31
0.0
  0
LINE
  5
14D
330
1F
100
AcDbEntity
  8
0-0
  6
JWW_DASHED1
 62
   120
370
     5
100
AcDbLine
 10
-1156.612399005057
 20
-949.1503895912385
 30
0.0
 11
-1141.212069454634
 21
-933.7500600408138
 31
0.0
  0
LINE
  5
14E
330
1F
100
AcDbEntity
  8
0-0
  6
JWW_DASHED1
 62
   120
370
     5
100
AcDbLine
 10
-1179.212069454631
 20
928.9529675169889
 30
0.0
 11
-1141.212069454631
 21
966.9529675169779
 31
0.0
  0
LINE
  5
14F
330
1F
100
AcDbEntity
  8
0-0
  6
JWW_DASHED1
 62
   120
370
     5
100
AcDbLine
 10
-1179.212069454631
 20
938.8524624522074
 30
0.0
 11
-1141.212069454631
 21
976.8524624521963
 31
0.0
  0
LINE
  5
150
330
1F
100
AcDbEntity
  8
0-0
  6
JWW_DASHED1
 62
   120
370
     5
100
AcDbLine
 10
-1179.212069454631
 20
948.7519573874259
 30
0.0
 11
-1141.212069454631
 21
986.7519573874148
 31
0.0
  0
LINE
  5
151
330
1F
100
AcDbEntity
  8
0-0
  6
JWW_DASHED1
 62
   120
370
     5
100
AcDbLine
 10
-1179.212069454631
 20
958.651452322644
 30
0.0
 11
-1141.212069454631
 21
996.6514523226333
 31
0.0
  0
LINE
  5
152
330
1F
100
AcDbEntity
  8
0-0
  6
JWW_DASHED1
 62
   120
370
     5
100
AcDbLine
 10
-1179.212069454631
 20
968.5509472578628
 30
0.0
 11
-1141.212069454631
 21
1006.550947257852
 31
0.0
  0
LINE
  5
153
330
1F
100
AcDbEntity
  8
0-0
  6
JWW_DASHED1
 62
   120
370
     5
100
AcDbLine
 10
-1179.212069454631
 20
978.4504421930814
 30
0.0
 11
-1141.212069454631
 21
1016.45044219307
 31
0.0
  0
LINE
  5
154
330
1F
100
AcDbEntity
  8
0-0
  6
JWW_DASHED1
 62
   120
370
     5
100
AcDbLine
 10
-1179.212069454631
 20
1008.148926998737
 30
0.0
 11
-1169.511386044603
 21
1017.849610408762
 31
0.0
  0
LINE
  5
155
330
1F
100
AcDbEntity
  8
0-0
  6
JWW_DASHED1
 62
   120
370
     5
100
AcDbLine
 10
-1179.212069454631
 20
988.3499371282999
 30
0.0
 11
-1149.712396174159
 21
1017.849610408762
 31
0.0
  0
LINE
  5
156
330
1F
100
AcDbEntity
  8
0-0
  6
JWW_DASHED1
 62
   120
370
     5
100
AcDbLine
 10
-1179.212069454631
 20
998.2494320635183
 30
0.0
 11
-1159.611891109381
 21
1017.849610408762
 31
0.0
  0
LINE
  5
157
330
1F
100
AcDbEntity
  8
0-0
  6
Continuous
 62
     7
370
     9
100
AcDbLine
 10
-399.212069454631
 20
-949.1503895912385
 30
0.0
 11
-361.2120694546306
 21
-949.1503895912385
 31
0.0
  0
LINE
  5
158
330
1F
100
AcDbEntity
  8
0-0
  6
Continuous
 62
    92
370
    13
100
AcDbLine
 10
-399.212069454631
 20
1025.849610408761
 30
0.0
 11
-399.212069454631
 21
-957.1503895912381
 31
0.0
  0
LINE
  5
159
330
1F
100
AcDbEntity
  8
0-0
  6
Continuous
 62
    92
370
    13
100
AcDbLine
 10
-361.2120694546306
 20
1025.849610408761
 30
0.0
 11
-361.2120694546306
 21
-957.1503895912384
 31
0.0
  0
LINE
  5
15A
330
1F
100
AcDbEntity
  8
0-0
  6
Continuous
 62
     7
370
     9
100
AcDbLine
 10
-399.212069454631
 20
1017.849610408762
 30
0.0
 11
-361.2120694546306
 21
1017.849610408762
 31
0.0
  0
LINE
  5
15B
330
1F
100
AcDbEntity
  8
0-0
  6
JWW_DASHED1
 62
   120
370
     5
100
AcDbLine
 10
-399.212069454631
 20
-912.3530904298253
 30
0.0
 11
-361.212069454634
 21
-874.3530904298253
 31
0.0
  0
LINE
  5
15C
330
1F
100
AcDbEntity
  8
0-0
  6
JWW_DASHED1
 62
   120
370
     5
100
AcDbLine
 10
-399.212069454631
 20
-902.4535954946635
 30
0.0
 11
-361.2120694546306
 21
-864.4535954946606
 31
0.0
  0
LINE
  5
15D
330
1F
100
AcDbEntity
  8
0-0
  6
JWW_DASHED1
 62
   120
370
     5
100
AcDbLine
 10
-399.212069454631
 20
-892.554100559445
 30
0.0
 11
-361.2120694546238
 21
-854.5541005594365
 31
0.0
  0
LINE
  5
15E
330
1F
100
AcDbEntity
  8
0-0
  6
JWW_DASHED1
 62
   120
370
     5
100
AcDbLine
 10
-399.212069454631
 20
-882.6546056242328
 30
0.0
 11
-361.2120694546306
 21
-844.6546056242281
 31
0.0
  0
LINE
  5
15F
330
1F
100
AcDbEntity
  8
0-0
  6
JWW_DASHED1
 62
   120
370
     5
100
AcDbLine
 10
-399.212069454631
 20
-872.7551106890642
 30
0.0
 11
-361.2120694546272
 21
-834.7551106890635
 31
0.0
  0
LINE
  5
160
330
1F
100
AcDbEntity
  8
0-0
  6
JWW_DASHED1
 62
   120
370
     5
100
AcDbLine
 10
-399.212069454631
 20
-862.8556157538501
 30
0.0
 11
-361.2120694546374
 21
-824.8556157538551
 31
0.0
  0
LINE
  5
161
330
1F
100
AcDbEntity
  8
0-0
  6
JWW_DASHED1
 62
   120
370
     5
100
AcDbLine
 10
-399.212069454631
 20
-852.9561208186315
 30
0.0
 11
-361.2120694546272
 21
-814.9561208186315
 31
0.0
  0
LINE
  5
162
330
1F
100
AcDbEntity
  8
0-0
  6
JWW_DASHED1
 62
   120
370
     5
100
AcDbLine
 10
-399.212069454631
 20
-843.0566258834705
 30
0.0
 11
-361.2120694546238
 21
-805.0566258834665
 31
0.0
  0
LINE
  5
163
330
1F
100
AcDbEntity
  8
0-0
  6
JWW_DASHED1
 62
   120
370
     5
100
AcDbLine
 10
-399.212069454631
 20
-833.1571309482567
 30
0.0
 11
-361.212069454634
 21
-795.1571309482584
 31
0.0
  0
LINE
  5
164
330
1F
100
AcDbEntity
  8
0-0
  6
JWW_DASHED1
 62
   120
370
     5
100
AcDbLine
 10
-399.212069454631
 20
-823.2576360130392
 30
0.0
 11
-361.2120694546238
 21
-785.2576360130344
 31
0.0
  0
LINE
  5
165
330
1F
100
AcDbEntity
  8
0-0
  6
JWW_DASHED1
 62
   120
370
     5
100
AcDbLine
 10
-399.212069454631
 20
-813.3581410778767
 30
0.0
 11
-361.2120694546374
 21
-775.3581410778854
 31
0.0
  0
LINE
  5
166
330
1F
100
AcDbEntity
  8
0-0
  6
JWW_DASHED1
 62
   120
370
     5
100
AcDbLine
 10
-399.212069454631
 20
-803.458646142663
 30
0.0
 11
-361.2120694546306
 21
-765.4586461426618
 31
0.0
  0
LINE
  5
167
330
1F
100
AcDbEntity
  8
0-0
  6
JWW_DASHED1
 62
   120
370
     5
100
AcDbLine
 10
-399.212069454631
 20
-793.5591512074491
 30
0.0
 11
-361.2120694546238
 21
-755.5591512074377
 31
0.0
  0
LINE
  5
168
330
1F
100
AcDbEntity
  8
0-0
  6
JWW_DASHED1
 62
   120
370
     5
100
AcDbLine
 10
-399.212069454631
 20
-783.6596562722857
 30
0.0
 11
-361.2120694546374
 21
-745.6596562722885
 31
0.0
  0
LINE
  5
169
330
1F
100
AcDbEntity
  8
0-0
  6
JWW_DASHED1
 62
   120
370
     5
100
AcDbLine
 10
-399.212069454631
 20
-773.7601613370734
 30
0.0
 11
-361.2120694546306
 21
-735.7601613370646
 31
0.0
  0
LINE
  5
16A
330
1F
100
AcDbEntity
  8
0-0
  6
JWW_DASHED1
 62
   120
370
     5
100
AcDbLine
 10
-399.212069454631
 20
-763.8606664019004
 30
0.0
 11
-361.2120694546238
 21
-725.8606664019
 31
0.0
  0
LINE
  5
16B
330
1F
100
AcDbEntity
  8
0-0
  6
JWW_DASHED1
 62
   120
370
     5
100
AcDbLine
 10
-399.212069454631
 20
-753.9611714666853
 30
0.0
 11
-361.212069454634
 21
-715.9611714666916
 31
0.0
  0
LINE
  5
16C
330
1F
100
AcDbEntity
  8
0-0
  6
JWW_DASHED1
 62
   120
370
     5
100
AcDbLine
 10
-399.212069454631
 20
-744.061676531473
 30
0.0
 11
-361.2120694546272
 21
-706.0616765314679
 31
0.0
  0
LINE
  5
16D
330
1F
100
AcDbEntity
  8
0-0
  6
JWW_DASHED1
 62
   120
370
     5
100
AcDbLine
 10
-399.212069454631
 20
-734.1621815963113
 30
0.0
 11
-361.2120694546238
 21
-696.1621815963027
 31
0.0
  0
LINE
  5
16E
330
1F
100
AcDbEntity
  8
0-0
  6
JWW_DASHED1
 62
   120
370
     5
100
AcDbLine
 10
-399.212069454631
 20
-724.2626866610913
 30
0.0
 11
-361.2120694546306
 21
-686.2626866610949
 31
0.0
  0
LINE
  5
16F
330
1F
100
AcDbEntity
  8
0-0
  6
JWW_DASHED1
 62
   120
370
     5
100
AcDbLine
 10
-399.212069454631
 20
-714.3631917258798
 30
0.0
 11
-361.2120694546238
 21
-676.3631917258708
 31
0.0
  0
LINE
  5
170
330
1F
100
AcDbEntity
  8
0-0
  6
JWW_DASHED1
 62
   120
370
     5
100
AcDbLine
 10
-399.212069454631
 20
-704.4636967907165
 30
0.0
 11
-361.2120694546374
 21
-666.4636967907217
 31
0.0
  0
LINE
  5
171
330
1F
100
AcDbEntity
  8
0-0
  6
JWW_DASHED1
 62
   120
370
     5
100
AcDbLine
 10
-399.212069454631
 20
-694.5642018555022
 30
0.0
 11
-361.2120694546306
 21
-656.5642018554978
 31
0.0
  0
LINE
  5
172
330
1F
100
AcDbEntity
  8
0-0
  6
JWW_DASHED1
 62
   120
370
     5
100
AcDbLine
 10
-399.212069454631
 20
-684.664706920287
 30
0.0
 11
-361.2120694546374
 21
-646.6647069202897
 31
0.0
  0
LINE
  5
173
330
1F
100
AcDbEntity
  8
0-0
  6
JWW_DASHED1
 62
   120
370
     5
100
AcDbLine
 10
-399.212069454631
 20
-674.7652119851231
 30
0.0
 11
-361.212069454634
 21
-636.7652119851248
 31
0.0
  0
LINE
  5
174
330
1F
100
AcDbEntity
  8
0-0
  6
JWW_DASHED1
 62
   120
370
     5
100
AcDbLine
 10
-399.212069454631
 20
-664.8657170499084
 30
0.0
 11
-361.2120694546272
 21
-626.865717049901
 31
0.0
  0
LINE
  5
175
330
1F
100
AcDbEntity
  8
0-0
  6
JWW_DASHED1
 62
   120
370
     5
100
AcDbLine
 10
-399.212069454631
 20
-654.9662221146914
 30
0.0
 11
-361.212069454634
 21
-616.9662221146928
 31
0.0
  0
LINE
  5
176
330
1F
100
AcDbEntity
  8
0-0
  6
JWW_DASHED1
 62
   120
370
     5
100
AcDbLine
 10
-399.212069454631
 20
-645.066727179522
 30
0.0
 11
-361.2120694546306
 21
-607.066727179528
 31
0.0
  0
LINE
  5
177
330
1F
100
AcDbEntity
  8
0-0
  6
JWW_DASHED1
 62
   120
370
     5
100
AcDbLine
 10
-399.212069454631
 20
-635.1672322443152
 30
0.0
 11
-361.2120694546238
 21
-597.1672322443039
 31
0.0
  0
LINE
  5
178
330
1F
100
AcDbEntity
  8
0-0
  6
JWW_DASHED1
 62
   120
370
     5
100
AcDbLine
 10
-399.212069454631
 20
-625.2677373090905
 30
0.0
 11
-361.2120694546306
 21
-587.2677373090959
 31
0.0
  0
LINE
  5
179
330
1F
100
AcDbEntity
  8
0-0
  6
JWW_DASHED1
 62
   120
370
     5
100
AcDbLine
 10
-399.212069454631
 20
-615.3682423739326
 30
0.0
 11
-361.2120694546306
 21
-577.3682423739309
 31
0.0
  0
LINE
  5
17A
330
1F
100
AcDbEntity
  8
0-0
  6
JWW_DASHED1
 62
   120
370
     5
100
AcDbLine
 10
-399.212069454631
 20
-605.4687474387184
 30
0.0
 11
-361.2120694546238
 21
-567.4687474387072
 31
0.0
  0
LINE
  5
17B
330
1F
100
AcDbEntity
  8
0-0
  6
JWW_DASHED1
 62
   120
370
     5
100
AcDbLine
 10
-399.212069454631
 20
-595.5692525035006
 30
0.0
 11
-361.2120694546306
 21
-557.5692525034989
 31
0.0
  0
LINE
  5
17C
330
1F
100
AcDbEntity
  8
0-0
  6
JWW_DASHED1
 62
   120
370
     5
100
AcDbLine
 10
-399.212069454631
 20
-585.6697575683392
 30
0.0
 11
-361.2120694546272
 21
-547.6697575683341
 31
0.0
  0
LINE
  5
17D
330
1F
100
AcDbEntity
  8
0-0
  6
JWW_DASHED1
 62
   120
370
     5
100
AcDbLine
 10
-399.212069454631
 20
-575.7702626331198
 30
0.0
 11
-361.212069454634
 21
-537.7702626331261
 31
0.0
  0
LINE
  5
17E
330
1F
100
AcDbEntity
  8
0-0
  6
JWW_DASHED1
 62
   120
370
     5
100
AcDbLine
 10
-399.212069454631
 20
-565.8707676979071
 30
0.0
 11
-361.2120694546272
 21
-527.870767697902
 31
0.0
  0
LINE
  5
17F
330
1F
100
AcDbEntity
  8
0-0
  6
JWW_DASHED1
 62
   120
370
     5
100
AcDbLine
 10
-399.212069454631
 20
-555.9712727627456
 30
0.0
 11
-361.2120694546238
 21
-517.971272762737
 31
0.0
  0
LINE
  5
180
330
1F
100
AcDbEntity
  8
0-0
  6
JWW_DASHED1
 62
   120
370
     5
100
AcDbLine
 10
-399.212069454631
 20
-546.0717778275263
 30
0.0
 11
-361.2120694546306
 21
-508.071777827529
 31
0.0
  0
LINE
  5
181
330
1F
100
AcDbEntity
  8
0-0
  6
JWW_DASHED1
 62
   120
370
     5
100
AcDbLine
 10
-399.212069454631
 20
-536.1722828923063
 30
0.0
 11
-361.2120694546238
 21
-498.1722828923054
 31
0.0
  0
LINE
  5
182
330
1F
100
AcDbEntity
  8
0-0
  6
JWW_DASHED1
 62
   120
370
     5
100
AcDbLine
 10
-399.212069454631
 20
-526.2727879571536
 30
0.0
 11
-361.2120694546374
 21
-488.272787957156
 31
0.0
  0
LINE
  5
183
330
1F
100
AcDbEntity
  8
0-0
  6
JWW_DASHED1
 62
   120
370
     5
100
AcDbLine
 10
-399.212069454631
 20
-516.3732930219367
 30
0.0
 11
-361.2120694546306
 21
-478.3732930219322
 31
0.0
  0
LINE
  5
184
330
1F
100
AcDbEntity
  8
0-0
  6
JWW_DASHED1
 62
   120
370
     5
100
AcDbLine
 10
-399.212069454631
 20
-506.4737980867169
 30
0.0
 11
-361.2120694546238
 21
-468.4737980867079
 31
0.0
  0
LINE
  5
185
330
1F
100
AcDbEntity
  8
0-0
  6
JWW_DASHED1
 62
   120
370
     5
100
AcDbLine
 10
-399.212069454631
 20
-496.5743031515566
 30
0.0
 11
-361.2120694546374
 21
-458.574303151559
 31
0.0
  0
LINE
  5
186
330
1F
100
AcDbEntity
  8
0-0
  6
JWW_DASHED1
 62
   120
370
     5
100
AcDbLine
 10
-399.212069454631
 20
-486.6748082163371
 30
0.0
 11
-361.2120694546272
 21
-448.6748082163349
 31
0.0
  0
LINE
  5
187
330
1F
100
AcDbEntity
  8
0-0
  6
JWW_DASHED1
 62
   120
370
     5
100
AcDbLine
 10
-399.212069454631
 20
-476.7753132811224
 30
0.0
 11
-361.2120694546374
 21
-438.7753132811271
 31
0.0
  0
LINE
  5
188
330
1F
100
AcDbEntity
  8
0-0
  6
JWW_DASHED1
 62
   120
370
     5
100
AcDbLine
 10
-399.212069454631
 20
-466.8758183459568
 30
0.0
 11
-361.2120694546306
 21
-428.8758183459619
 31
0.0
  0
LINE
  5
189
330
1F
100
AcDbEntity
  8
0-0
  6
JWW_DASHED1
 62
   120
370
     5
100
AcDbLine
 10
-399.212069454631
 20
-456.9763234107426
 30
0.0
 11
-361.2120694546238
 21
-418.9763234107387
 31
0.0
  0
LINE
  5
18A
330
1F
100
AcDbEntity
  8
0-0
  6
JWW_DASHED1
 62
   120
370
     5
100
AcDbLine
 10
-399.212069454631
 20
-447.0768284755283
 30
0.0
 11
-361.212069454634
 21
-409.0768284755305
 31
0.0
  0
LINE
  5
18B
330
1F
100
AcDbEntity
  8
0-0
  6
JWW_DASHED1
 62
   120
370
     5
100
AcDbLine
 10
-399.212069454631
 20
-437.1773335403665
 30
0.0
 11
-361.2120694546306
 21
-399.1773335403653
 31
0.0
  0
LINE
  5
18C
330
1F
100
AcDbEntity
  8
0-0
  6
JWW_DASHED1
 62
   120
370
     5
100
AcDbLine
 10
-399.212069454631
 20
-427.2778386051472
 30
0.0
 11
-361.2120694546374
 21
-389.2778386051571
 31
0.0
  0
LINE
  5
18D
330
1F
100
AcDbEntity
  8
0-0
  6
JWW_DASHED1
 62
   120
370
     5
100
AcDbLine
 10
-399.212069454631
 20
-417.3783436699347
 30
0.0
 11
-361.2120694546306
 21
-379.3783436699334
 31
0.0
  0
LINE
  5
18E
330
1F
100
AcDbEntity
  8
0-0
  6
JWW_DASHED1
 62
   120
370
     5
100
AcDbLine
 10
-399.212069454631
 20
-407.4788487347724
 30
0.0
 11
-361.2120694546272
 21
-369.4788487347687
 31
0.0
  0
LINE
  5
18F
330
1F
100
AcDbEntity
  8
0-0
  6
JWW_DASHED1
 62
   120
370
     5
100
AcDbLine
 10
-399.212069454631
 20
-397.5793537995591
 30
0.0
 11
-361.2120694546374
 21
-359.57935379956
 31
0.0
  0
LINE
  5
190
330
1F
100
AcDbEntity
  8
0-0
  6
JWW_DASHED1
 62
   120
370
     5
100
AcDbLine
 10
-399.212069454631
 20
-387.6798588643385
 30
0.0
 11
-361.2120694546306
 21
-349.6798588643364
 31
0.0
  0
LINE
  5
191
330
1F
100
AcDbEntity
  8
0-0
  6
JWW_DASHED1
 62
   120
370
     5
100
AcDbLine
 10
-399.212069454631
 20
-377.7803639291724
 30
0.0
 11
-361.2120694546238
 21
-339.7803639291716
 31
0.0
  0
LINE
  5
192
330
1F
100
AcDbEntity
  8
0-0
  6
JWW_DASHED1
 62
   120
370
     5
100
AcDbLine
 10
-399.212069454631
 20
-367.8808689939574
 30
0.0
 11
-361.212069454634
 21
-329.8808689939638
 31
0.0
  0
LINE
  5
193
330
1F
100
AcDbEntity
  8
0-0
  6
JWW_DASHED1
 62
   120
370
     5
100
AcDbLine
 10
-399.212069454631
 20
-357.9813740587444
 30
0.0
 11
-361.2120694546272
 21
-319.9813740587398
 31
0.0
  0
LINE
  5
194
330
1F
100
AcDbEntity
  8
0-0
  6
JWW_DASHED1
 62
   120
370
     5
100
AcDbLine
 10
-399.212069454631
 20
-348.0818791235835
 30
0.0
 11
-361.2120694546238
 21
-310.0818791235746
 31
0.0
  0
LINE
  5
195
330
1F
100
AcDbEntity
  8
0-0
  6
JWW_DASHED1
 62
   120
370
     5
100
AcDbLine
 10
-399.212069454631
 20
-338.1823841883637
 30
0.0
 11
-361.2120694546306
 21
-300.1823841883668
 31
0.0
  0
LINE
  5
196
330
1F
100
AcDbEntity
  8
0-0
  6
JWW_DASHED1
 62
   120
370
     5
100
AcDbLine
 10
-399.212069454631
 20
-328.2828892531517
 30
0.0
 11
-361.2120694546238
 21
-290.2828892531427
 31
0.0
  0
LINE
  5
197
330
1F
100
AcDbEntity
  8
0-0
  6
JWW_DASHED1
 62
   120
370
     5
100
AcDbLine
 10
-399.212069454631
 20
-318.3833943179839
 30
0.0
 11
-361.2120694546306
 21
-280.3833943179882
 31
0.0
  0
LINE
  5
198
330
1F
100
AcDbEntity
  8
0-0
  6
JWW_DASHED1
 62
   120
370
     5
100
AcDbLine
 10
-399.212069454631
 20
-308.4838993827735
 30
0.0
 11
-361.2120694546306
 21
-270.4838993827697
 31
0.0
  0
LINE
  5
199
330
1F
100
AcDbEntity
  8
0-0
  6
JWW_DASHED1
 62
   120
370
     5
100
AcDbLine
 10
-399.212069454631
 20
-298.5844044475597
 30
0.0
 11
-361.2120694546374
 21
-260.5844044475614
 31
0.0
  0
LINE
  5
19A
330
1F
100
AcDbEntity
  8
0-0
  6
JWW_DASHED1
 62
   120
370
     5
100
AcDbLine
 10
-399.212069454631
 20
-288.6849095123954
 30
0.0
 11
-361.212069454634
 21
-250.6849095123967
 31
0.0
  0
LINE
  5
19B
330
1F
100
AcDbEntity
  8
0-0
  6
JWW_DASHED1
 62
   120
370
     5
100
AcDbLine
 10
-399.212069454631
 20
-278.785414577173
 30
0.0
 11
-361.2120694546272
 21
-240.7854145771726
 31
0.0
  0
LINE
  5
19C
330
1F
100
AcDbEntity
  8
0-0
  6
JWW_DASHED1
 62
   120
370
     5
100
AcDbLine
 10
-399.212069454631
 20
-268.8859196419584
 30
0.0
 11
-361.212069454634
 21
-230.8859196419648
 31
0.0
  0
LINE
  5
19D
330
1F
100
AcDbEntity
  8
0-0
  6
JWW_DASHED1
 62
   120
370
     5
100
AcDbLine
 10
-399.212069454631
 20
-258.9864247067945
 30
0.0
 11
-361.2120694546306
 21
-220.9864247067996
 31
0.0
  0
LINE
  5
19E
330
1F
100
AcDbEntity
  8
0-0
  6
JWW_DASHED1
 62
   120
370
     5
100
AcDbLine
 10
-399.212069454631
 20
-249.0869297715862
 30
0.0
 11
-361.2120694546238
 21
-211.0869297715756
 31
0.0
  0
LINE
  5
19F
330
1F
100
AcDbEntity
  8
0-0
  6
JWW_DASHED1
 62
   120
370
     5
100
AcDbLine
 10
-399.212069454631
 20
-239.1874348363626
 30
0.0
 11
-361.2120694546306
 21
-201.1874348363678
 31
0.0
  0
LINE
  5
1A0
330
1F
100
AcDbEntity
  8
0-0
  6
JWW_DASHED1
 62
   120
370
     5
100
AcDbLine
 10
-399.212069454631
 20
-229.2879399012047
 30
0.0
 11
-361.2120694546306
 21
-191.2879399012026
 31
0.0
  0
LINE
  5
1A1
330
1F
100
AcDbEntity
  8
0-0
  6
JWW_DASHED1
 62
   120
370
     5
100
AcDbLine
 10
-399.212069454631
 20
-219.3884449659913
 30
0.0
 11
-361.2120694546238
 21
-181.3884449659786
 31
0.0
  0
LINE
  5
1A2
330
1F
100
AcDbEntity
  8
0-0
  6
JWW_DASHED1
 62
   120
370
     5
100
AcDbLine
 10
-399.212069454631
 20
-209.4889500307728
 30
0.0
 11
-361.2120694546306
 21
-171.4889500307707
 31
0.0
  0
LINE
  5
1A3
330
1F
100
AcDbEntity
  8
0-0
  6
JWW_DASHED1
 62
   120
370
     5
100
AcDbLine
 10
-399.212069454631
 20
-199.589455095611
 30
0.0
 11
-361.2120694546272
 21
-161.5894550956055
 31
0.0
  0
LINE
  5
1A4
330
1F
100
AcDbEntity
  8
0-0
  6
JWW_DASHED1
 62
   120
370
     5
100
AcDbLine
 10
-399.212069454631
 20
-189.6899601603913
 30
0.0
 11
-361.212069454634
 21
-151.6899601603977
 31
0.0
  0
LINE
  5
1A5
330
1F
100
AcDbEntity
  8
0-0
  6
JWW_DASHED1
 62
   120
370
     5
100
AcDbLine
 10
-399.212069454631
 20
-179.7904652252073
 30
0.0
 11
-361.2120694546306
 21
-141.7904652252035
 31
0.0
  0
LINE
  5
1A6
330
1F
100
AcDbEntity
  8
0-0
  6
JWW_DASHED1
 62
   120
370
     5
100
AcDbLine
 10
-399.212069454631
 20
-169.8909702900097
 30
0.0
 11
-361.2120694546238
 21
-131.8909702900089
 31
0.0
  0
LINE
  5
1A7
330
1F
100
AcDbEntity
  8
0-0
  6
JWW_DASHED1
 62
   120
370
     5
100
AcDbLine
 10
-399.212069454631
 20
-159.9914753547968
 30
0.0
 11
-361.2120694546306
 21
-121.9914753548011
 31
0.0
  0
LINE
  5
1A8
330
1F
100
AcDbEntity
  8
0-0
  6
JWW_DASHED1
 62
   120
370
     5
100
AcDbLine
 10
-399.212069454631
 20
-150.0919804196069
 30
0.0
 11
-361.2120694546272
 21
-112.0919804196065
 31
0.0
  0
LINE
  5
1A9
330
1F
100
AcDbEntity
  8
0-0
  6
JWW_DASHED1
 62
   120
370
     5
100
AcDbLine
 10
-399.212069454631
 20
-140.1924854844246
 30
0.0
 11
-361.2120694546374
 21
-102.1924854844276
 31
0.0
  0
LINE
  5
1AA
330
1F
100
AcDbEntity
  8
0-0
  6
JWW_DASHED1
 62
   120
370
     5
100
AcDbLine
 10
-399.212069454631
 20
-130.2929905492095
 30
0.0
 11
-361.2120694546306
 21
-92.29299054920361
 31
0.0
  0
LINE
  5
1AB
330
1F
100
AcDbEntity
  8
0-0
  6
JWW_DASHED1
 62
   120
370
     5
100
AcDbLine
 10
-399.212069454631
 20
-120.3934956140397
 30
0.0
 11
-361.2120694546272
 21
-82.39349561403927
 31
0.0
  0
LINE
  5
1AC
330
1F
100
AcDbEntity
  8
0-0
  6
JWW_DASHED1
 62
   120
370
     5
100
AcDbLine
 10
-399.212069454631
 20
-110.4940006788297
 30
0.0
 11
-361.2120694546374
 21
-72.49400067883059
 31
0.0
  0
LINE
  5
1AD
330
1F
100
AcDbEntity
  8
0-0
  6
JWW_DASHED1
 62
   120
370
     5
100
AcDbLine
 10
-399.212069454631
 20
-100.5945057436078
 30
0.0
 11
-361.2120694546272
 21
-62.59450574360741
 31
0.0
  0
LINE
  5
1AE
330
1F
100
AcDbEntity
  8
0-0
  6
JWW_DASHED1
 62
   120
370
     5
100
AcDbLine
 10
-399.212069454631
 20
-90.69501080844603
 30
0.0
 11
-361.2120694546238
 21
-52.69501080844222
 31
0.0
  0
LINE
  5
1AF
330
1F
100
AcDbEntity
  8
0-0
  6
JWW_DASHED1
 62
   120
370
     5
100
AcDbLine
 10
-399.212069454631
 20
-80.79551587323138
 30
0.0
 11
-361.212069454634
 21
-42.79551587323439
 31
0.0
  0
LINE
  5
1B0
330
1F
100
AcDbEntity
  8
0-0
  6
JWW_DASHED1
 62
   120
370
     5
100
AcDbLine
 10
-399.212069454631
 20
-70.89602093801417
 30
0.0
 11
-361.2120694546238
 21
-32.89602093801037
 31
0.0
  0
LINE
  5
1B1
330
1F
100
AcDbEntity
  8
0-0
  6
JWW_DASHED1
 62
   120
370
     5
100
AcDbLine
 10
-399.212069454631
 20
-60.9965260028558
 30
0.0
 11
-361.2120694546238
 21
-22.99652600284517
 31
0.0
  0
LINE
  5
1B2
330
1F
100
AcDbEntity
  8
0-0
  6
JWW_DASHED1
 62
   120
370
     5
100
AcDbLine
 10
-399.212069454631
 20
-51.09703106763774
 30
0.0
 11
-361.2120694546306
 21
-13.09703106763735
 31
0.0
  0
LINE
  5
1B3
330
1F
100
AcDbEntity
  8
0-0
  6
JWW_DASHED1
 62
   120
370
     5
100
AcDbLine
 10
-399.212069454631
 20
-41.19753613242395
 30
0.0
 11
-361.2120694546238
 21
-3.197536132413319
 31
0.0
  0
LINE
  5
1B4
330
1F
100
AcDbEntity
  8
0-0
  6
JWW_DASHED1
 62
   120
370
     5
100
AcDbLine
 10
-399.212069454631
 20
-31.29804119725705
 30
0.0
 11
-361.2120694546272
 21
6.701958802743349
 31
0.0
  0
LINE
  5
1B5
330
1F
100
AcDbEntity
  8
0-0
  6
JWW_DASHED1
 62
   120
370
     5
100
AcDbLine
 10
-399.212069454631
 20
-21.39854626204581
 30
0.0
 11
-361.2120694546272
 21
16.6014537379597
 31
0.0
  0
LINE
  5
1B6
330
1F
100
AcDbEntity
  8
0-0
  6
JWW_DASHED1
 62
   120
370
     5
100
AcDbLine
 10
-399.212069454631
 20
-11.49905132682946
 30
0.0
 11
-361.2120694546374
 21
26.50094867316753
 31
0.0
  0
LINE
  5
1B7
330
1F
100
AcDbEntity
  8
0-0
  6
JWW_DASHED1
 62
   120
370
     5
100
AcDbLine
 10
-399.212069454631
 20
-1.599556391660855
 30
0.0
 11
-361.212069454634
 21
36.40044360833272
 31
0.0
  0
LINE
  5
1B8
330
1F
100
AcDbEntity
  8
0-0
  6
JWW_DASHED1
 62
   120
370
     5
100
AcDbLine
 10
-399.212069454631
 20
8.299938543555072
 30
0.0
 11
-361.2120694546238
 21
46.29993854355675
 31
0.0
  0
LINE
  5
1B9
330
1F
100
AcDbEntity
  8
0-0
  6
JWW_DASHED1
 62
   120
370
     5
100
AcDbLine
 10
-399.212069454631
 20
18.199433478771
 30
0.0
 11
-361.212069454634
 21
56.19943347876458
 31
0.0
  0
LINE
  5
1BA
330
1F
100
AcDbEntity
  8
0-0
  6
JWW_DASHED1
 62
   120
370
     5
100
AcDbLine
 10
-399.212069454631
 20
28.09892841392468
 30
0.0
 11
-361.2120694546306
 21
66.09892841392977
 31
0.0
  0
LINE
  5
1BB
330
1F
100
AcDbEntity
  8
0-0
  6
JWW_DASHED1
 62
   120
370
     5
100
AcDbLine
 10
-399.212069454631
 20
37.9984233491453
 30
0.0
 11
-361.2120694546238
 21
75.99842334915337
 31
0.0
  0
LINE
  5
1BC
330
1F
100
AcDbEntity
  8
0-0
  6
JWW_DASHED1
 62
   120
370
     5
100
AcDbLine
 10
-399.212069454631
 20
47.89791828436464
 30
0.0
 11
-361.2120694546306
 21
85.89791828436162
 31
0.0
  0
LINE
  5
1BD
330
1F
100
AcDbEntity
  8
0-0
  6
JWW_DASHED1
 62
   120
370
     5
100
AcDbLine
 10
-399.212069454631
 20
57.79741321952258
 30
0.0
 11
-361.2120694546306
 21
95.79741321952639
 31
0.0
  0
LINE
  5
1BE
330
1F
100
AcDbEntity
  8
0-0
  6
JWW_DASHED1
 62
   120
370
     5
100
AcDbLine
 10
-399.212069454631
 20
67.69690815473894
 30
0.0
 11
-361.2120694546203
 21
105.6969081547504
 31
0.0
  0
LINE
  5
1BF
330
1F
100
AcDbEntity
  8
0-0
  6
JWW_DASHED1
 62
   120
370
     5
100
AcDbLine
 10
-399.212069454631
 20
77.59640308995486
 30
0.0
 11
-361.2120694546306
 21
115.5964030899587
 31
0.0
  0
LINE
  5
1C0
330
1F
100
AcDbEntity
  8
0-0
  6
JWW_DASHED1
 62
   120
370
     5
100
AcDbLine
 10
-399.212069454631
 20
87.49589802511622
 30
0.0
 11
-361.2120694546272
 21
125.4958980251234
 31
0.0
  0
LINE
  5
1C1
330
1F
100
AcDbEntity
  8
0-0
  6
JWW_DASHED1
 62
   120
370
     5
100
AcDbLine
 10
-399.212069454631
 20
97.395392960333
 30
0.0
 11
-361.212069454634
 21
135.3953929603317
 31
0.0
  0
LINE
  5
1C2
330
1F
100
AcDbEntity
  8
0-0
  6
JWW_DASHED1
 62
   120
370
     5
100
AcDbLine
 10
-399.212069454631
 20
107.2948878955549
 30
0.0
 11
-361.2120694546272
 21
145.2948878955553
 31
0.0
  0
LINE
  5
1C3
330
1F
100
AcDbEntity
  8
0-0
  6
JWW_DASHED1
 62
   120
370
     5
100
AcDbLine
 10
-399.212069454631
 20
117.1943828307086
 30
0.0
 11
-361.2120694546238
 21
155.1943828307205
 31
0.0
  0
LINE
  5
1C4
330
1F
100
AcDbEntity
  8
0-0
  6
JWW_DASHED1
 62
   120
370
     5
100
AcDbLine
 10
-399.212069454631
 20
127.0938777659343
 30
0.0
 11
-361.2120694546306
 21
165.0938777659283
 31
0.0
  0
LINE
  5
1C5
330
1F
100
AcDbEntity
  8
0-0
  6
JWW_DASHED1
 62
   120
370
     5
100
AcDbLine
 10
-399.212069454631
 20
136.9933727011477
 30
0.0
 11
-361.2120694546238
 21
174.9933727011523
 31
0.0
  0
LINE
  5
1C6
330
1F
100
AcDbEntity
  8
0-0
  6
JWW_DASHED1
 62
   120
370
     5
100
AcDbLine
 10
-399.212069454631
 20
146.8928676363035
 30
0.0
 11
-361.2120694546374
 21
184.8928676363018
 31
0.0
  0
LINE
  5
1C7
330
1F
100
AcDbEntity
  8
0-0
  6
JWW_DASHED1
 62
   120
370
     5
100
AcDbLine
 10
-399.212069454631
 20
156.7923625715241
 30
0.0
 11
-361.2120694546306
 21
194.7923625715254
 31
0.0
  0
LINE
  5
1C8
330
1F
100
AcDbEntity
  8
0-0
  6
JWW_DASHED1
 62
   120
370
     5
100
AcDbLine
 10
-399.212069454631
 20
166.6918575067383
 30
0.0
 11
-361.2120694546238
 21
204.691857506749
 31
0.0
  0
LINE
  5
1C9
330
1F
100
AcDbEntity
  8
0-0
  6
JWW_DASHED1
 62
   120
370
     5
100
AcDbLine
 10
-399.212069454631
 20
176.5913524419044
 30
0.0
 11
-361.212069454634
 21
214.5913524418988
 31
0.0
  0
LINE
  5
1CA
330
1F
100
AcDbEntity
  8
0-0
  6
JWW_DASHED1
 62
   120
370
     5
100
AcDbLine
 10
-399.212069454631
 20
186.4908473771169
 30
0.0
 11
-361.2120694546272
 21
224.4908473771224
 31
0.0
  0
LINE
  5
1CB
330
1F
100
AcDbEntity
  8
0-0
  6
JWW_DASHED1
 62
   120
370
     5
100
AcDbLine
 10
-399.212069454631
 20
196.3903423123354
 30
0.0
 11
-361.2120694546238
 21
234.39034231234
 31
0.0
  0
LINE
  5
1CC
330
1F
100
AcDbEntity
  8
0-0
  6
JWW_DASHED1
 62
   120
370
     5
100
AcDbLine
 10
-399.212069454631
 20
206.2898372474976
 30
0.0
 11
-361.2120694546306
 21
244.2898372474954
 31
0.0
  0
LINE
  5
1CD
330
1F
100
AcDbEntity
  8
0-0
  6
JWW_DASHED1
 62
   120
370
     5
100
AcDbLine
 10
-399.212069454631
 20
216.1893321827182
 30
0.0
 11
-361.2120694546238
 21
254.189332182719
 31
0.0
  0
LINE
  5
1CE
330
1F
100
AcDbEntity
  8
0-0
  6
JWW_DASHED1
 62
   120
370
     5
100
AcDbLine
 10
-399.212069454631
 20
226.0888271179256
 30
0.0
 11
-361.212069454634
 21
264.0888271179273
 31
0.0
  0
LINE
  5
1CF
330
1F
100
AcDbEntity
  8
0-0
  6
JWW_DASHED1
 62
   120
370
     5
100
AcDbLine
 10
-399.212069454631
 20
235.9883220530882
 30
0.0
 11
-361.2120694546306
 21
273.988322053092
 31
0.0
  0
LINE
  5
1D0
330
1F
100
AcDbEntity
  8
0-0
  6
JWW_DASHED1
 62
   120
370
     5
100
AcDbLine
 10
-399.212069454631
 20
245.8878169883101
 30
0.0
 11
-361.2120694546374
 21
283.8878169883003
 31
0.0
  0
LINE
  5
1D1
330
1F
100
AcDbEntity
  8
0-0
  6
JWW_DASHED1
 62
   120
370
     5
100
AcDbLine
 10
-399.212069454631
 20
255.7873119235201
 30
0.0
 11
-361.2120694546306
 21
293.7873119235239
 31
0.0
  0
LINE
  5
1D2
330
1F
100
AcDbEntity
  8
0-0
  6
JWW_DASHED1
 62
   120
370
     5
100
AcDbLine
 10
-399.212069454631
 20
265.6868068586887
 30
0.0
 11
-361.2120694546272
 21
303.6868068586891
 31
0.0
  0
LINE
  5
1D3
330
1F
100
AcDbEntity
  8
0-0
  6
JWW_DASHED1
 62
   120
370
     5
100
AcDbLine
 10
-399.212069454631
 20
275.5863017938999
 30
0.0
 11
-361.2120694546374
 21
313.586301793897
 31
0.0
  0
LINE
  5
1D4
330
1F
100
AcDbEntity
  8
0-0
  6
JWW_DASHED1
 62
   120
370
     5
100
AcDbLine
 10
-399.212069454631
 20
285.4857967291206
 30
0.0
 11
-361.2120694546272
 21
323.4857967291209
 31
0.0
  0
LINE
  5
1D5
330
1F
100
AcDbEntity
  8
0-0
  6
JWW_DASHED1
 62
   120
370
     5
100
AcDbLine
 10
-399.212069454631
 20
295.3852916642815
 30
0.0
 11
-361.2120694546238
 21
333.3852916642861
 31
0.0
  0
LINE
  5
1D6
330
1F
100
AcDbEntity
  8
0-0
  6
JWW_DASHED1
 62
   120
370
     5
100
AcDbLine
 10
-399.212069454631
 20
305.2847865994961
 30
0.0
 11
-361.212069454634
 21
343.2847865994939
 31
0.0
  0
LINE
  5
1D7
330
1F
100
AcDbEntity
  8
0-0
  6
JWW_DASHED1
 62
   120
370
     5
100
AcDbLine
 10
-399.212069454631
 20
315.1842815347142
 30
0.0
 11
-361.2120694546238
 21
353.184281534718
 31
0.0
  0
LINE
  5
1D8
330
1F
100
AcDbEntity
  8
0-0
  6
JWW_DASHED1
 62
   120
370
     5
100
AcDbLine
 10
-399.212069454631
 20
325.0837764698713
 30
0.0
 11
-361.2120694546238
 21
363.0837764698832
 31
0.0
  0
LINE
  5
1D9
330
1F
100
AcDbEntity
  8
0-0
  6
JWW_DASHED1
 62
   120
370
     5
100
AcDbLine
 10
-399.212069454631
 20
334.9832714050889
 30
0.0
 11
-361.2120694546306
 21
372.983271405091
 31
0.0
  0
LINE
  5
1DA
330
1F
100
AcDbEntity
  8
0-0
  6
JWW_DASHED1
 62
   120
370
     5
100
AcDbLine
 10
-399.212069454631
 20
344.8827663403031
 30
0.0
 11
-361.2120694546238
 21
382.882766340315
 31
0.0
  0
LINE
  5
1DB
330
1F
100
AcDbEntity
  8
0-0
  6
JWW_DASHED1
 62
   120
370
     5
100
AcDbLine
 10
-399.212069454631
 20
354.7822612754726
 30
0.0
 11
-361.2120694546203
 21
392.7822612754798
 31
0.0
  0
LINE
  5
1DC
330
1F
100
AcDbEntity
  8
0-0
  6
JWW_DASHED1
 62
   120
370
     5
100
AcDbLine
 10
-399.212069454631
 20
364.6817562106826
 30
0.0
 11
-361.2120694546272
 21
402.681756210688
 31
0.0
  0
LINE
  5
1DD
330
1F
100
AcDbEntity
  8
0-0
  6
JWW_DASHED1
 62
   120
370
     5
100
AcDbLine
 10
-399.212069454631
 20
374.5812511458989
 30
0.0
 11
-361.2120694546374
 21
412.5812511458959
 31
0.0
  0
LINE
  5
1DE
330
1F
100
AcDbEntity
  8
0-0
  6
JWW_DASHED1
 62
   120
370
     5
100
AcDbLine
 10
-399.212069454631
 20
384.4807460810607
 30
0.0
 11
-361.212069454634
 21
422.4807460810611
 31
0.0
  0
LINE
  5
1DF
330
1F
100
AcDbEntity
  8
0-0
  6
JWW_DASHED1
 62
   120
370
     5
100
AcDbLine
 10
-399.212069454631
 20
394.3802410162839
 30
0.0
 11
-361.2120694546238
 21
432.3802410162847
 31
0.0
  0
LINE
  5
1E0
330
1F
100
AcDbEntity
  8
0-0
  6
JWW_DASHED1
 62
   120
370
     5
100
AcDbLine
 10
-399.212069454631
 20
404.2797359514993
 30
0.0
 11
-361.212069454634
 21
442.279735951493
 31
0.0
  0
LINE
  5
1E1
330
1F
100
AcDbEntity
  8
0-0
  6
JWW_DASHED1
 62
   120
370
     5
100
AcDbLine
 10
-399.212069454631
 20
414.1792308866548
 30
0.0
 11
-361.2120694546306
 21
452.1792308866577
 31
0.0
  0
LINE
  5
1E2
330
1F
100
AcDbEntity
  8
0-0
  6
JWW_DASHED1
 62
   120
370
     5
100
AcDbLine
 10
-399.212069454631
 20
424.0787258218737
 30
0.0
 11
-361.2120694546238
 21
462.0787258218817
 31
0.0
  0
LINE
  5
1E3
330
1F
100
AcDbEntity
  8
0-0
  6
JWW_DASHED1
 62
   120
370
     5
100
AcDbLine
 10
-399.212069454631
 20
433.9782207570665
 30
0.0
 11
-361.212069454634
 21
471.9782207570602
 31
0.0
  0
LINE
  5
1E4
330
1F
100
AcDbEntity
  8
0-0
  6
JWW_DASHED1
 62
   120
370
     5
100
AcDbLine
 10
-399.212069454631
 20
443.8777156922509
 30
0.0
 11
-361.2120694546306
 21
481.8777156922548
 31
0.0
  0
LINE
  5
1E5
330
1F
100
AcDbEntity
  8
0-0
  6
JWW_DASHED1
 62
   120
370
     5
100
AcDbLine
 10
-399.212069454631
 20
453.7772106274664
 30
0.0
 11
-361.2120694546203
 21
491.7772106274788
 31
0.0
  0
LINE
  5
1E6
330
1F
100
AcDbEntity
  8
0-0
  6
JWW_DASHED1
 62
   120
370
     5
100
AcDbLine
 10
-399.212069454631
 20
463.6767055626333
 30
0.0
 11
-361.212069454634
 21
501.6767055626278
 31
0.0
  0
LINE
  5
1E7
330
1F
100
AcDbEntity
  8
0-0
  6
JWW_DASHED1
 62
   120
370
     5
100
AcDbLine
 10
-399.212069454631
 20
473.5762004978433
 30
0.0
 11
-361.2120694546272
 21
511.5762004978518
 31
0.0
  0
LINE
  5
1E8
330
1F
100
AcDbEntity
  8
0-0
  6
JWW_DASHED1
 62
   120
370
     5
100
AcDbLine
 10
-399.212069454631
 20
483.4756954330618
 30
0.0
 11
-361.212069454634
 21
521.4756954330596
 31
0.0
  0
LINE
  5
1E9
330
1F
100
AcDbEntity
  8
0-0
  6
JWW_DASHED1
 62
   120
370
     5
100
AcDbLine
 10
-399.212069454631
 20
493.3751903682299
 30
0.0
 11
-361.2120694546306
 21
531.3751903682248
 31
0.0
  0
LINE
  5
1EA
330
1F
100
AcDbEntity
  8
0-0
  6
JWW_DASHED1
 62
   120
370
     5
100
AcDbLine
 10
-399.212069454631
 20
503.2746853034378
 30
0.0
 11
-361.2120694546238
 21
541.2746853034485
 31
0.0
  0
LINE
  5
1EB
330
1F
100
AcDbEntity
  8
0-0
  6
JWW_DASHED1
 62
   120
370
     5
100
AcDbLine
 10
-399.212069454631
 20
513.1741802386626
 30
0.0
 11
-361.2120694546306
 21
551.1741802386566
 31
0.0
  0
LINE
  5
1EC
330
1F
100
AcDbEntity
  8
0-0
  6
JWW_DASHED1
 62
   120
370
     5
100
AcDbLine
 10
-399.212069454631
 20
523.073675173813
 30
0.0
 11
-361.2120694546306
 21
561.0736751738215
 31
0.0
  0
LINE
  5
1ED
330
1F
100
AcDbEntity
  8
0-0
  6
JWW_DASHED1
 62
   120
370
     5
100
AcDbLine
 10
-399.212069454631
 20
532.9731701090327
 30
0.0
 11
-361.2120694546374
 21
570.9731701090298
 31
0.0
  0
LINE
  5
1EE
330
1F
100
AcDbEntity
  8
0-0
  6
JWW_DASHED1
 62
   120
370
     5
100
AcDbLine
 10
-399.212069454631
 20
542.872665044252
 30
0.0
 11
-361.2120694546306
 21
580.8726650442533
 31
0.0
  0
LINE
  5
1EF
330
1F
100
AcDbEntity
  8
0-0
  6
JWW_DASHED1
 62
   120
370
     5
100
AcDbLine
 10
-399.212069454631
 20
552.7721599794138
 30
0.0
 11
-361.2120694546272
 21
590.7721599794185
 31
0.0
  0
LINE
  5
1F0
330
1F
100
AcDbEntity
  8
0-0
  6
JWW_DASHED1
 62
   120
370
     5
100
AcDbLine
 10
-399.212069454631
 20
562.6716549146323
 30
0.0
 11
-361.212069454634
 21
600.6716549146267
 31
0.0
  0
LINE
  5
1F1
330
1F
100
AcDbEntity
  8
0-0
  6
JWW_DASHED1
 62
   120
370
     5
100
AcDbLine
 10
-399.212069454631
 20
572.5711498498448
 30
0.0
 11
-361.2120694546272
 21
610.5711498498504
 31
0.0
  0
LINE
  5
1F2
330
1F
100
AcDbEntity
  8
0-0
  6
JWW_DASHED1
 62
   120
370
     5
100
AcDbLine
 10
-399.212069454631
 20
582.4706447850066
 30
0.0
 11
-361.2120694546238
 21
620.4706447850156
 31
0.0
  0
LINE
  5
1F3
330
1F
100
AcDbEntity
  8
0-0
  6
JWW_DASHED1
 62
   120
370
     5
100
AcDbLine
 10
-399.212069454631
 20
592.3701397202263
 30
0.0
 11
-361.2120694546306
 21
630.3701397202234
 31
0.0
  0
LINE
  5
1F4
330
1F
100
AcDbEntity
  8
0-0
  6
JWW_DASHED1
 62
   120
370
     5
100
AcDbLine
 10
-399.212069454631
 20
602.2696346554453
 30
0.0
 11
-361.2120694546238
 21
640.2696346554474
 31
0.0
  0
LINE
  5
1F5
330
1F
100
AcDbEntity
  8
0-0
  6
JWW_DASHED1
 62
   120
370
     5
100
AcDbLine
 10
-399.212069454631
 20
612.1691295905969
 30
0.0
 11
-361.2120694546238
 21
650.1691295906121
 31
0.0
  0
LINE
  5
1F6
330
1F
100
AcDbEntity
  8
0-0
  6
JWW_DASHED1
 62
   120
370
     5
100
AcDbLine
 10
-399.212069454631
 20
622.0686245258166
 30
0.0
 11
-361.2120694546306
 21
660.0686245258204
 31
0.0
  0
LINE
  5
1F7
330
1F
100
AcDbEntity
  8
0-0
  6
JWW_DASHED1
 62
   120
370
     5
100
AcDbLine
 10
-399.212069454631
 20
631.9681194610355
 30
0.0
 11
-361.2120694546238
 21
669.9681194610445
 31
0.0
  0
LINE
  5
1F8
330
1F
100
AcDbEntity
  8
0-0
  6
JWW_DASHED1
 62
   120
370
     5
100
AcDbLine
 10
-399.212069454631
 20
641.8676143961948
 30
0.0
 11
-361.2120694546203
 21
679.867614396207
 31
0.0
  0
LINE
  5
1F9
330
1F
100
AcDbEntity
  8
0-0
  6
JWW_DASHED1
 62
   120
370
     5
100
AcDbLine
 10
-399.212069454631
 20
651.7671093314162
 30
0.0
 11
-361.2120694546272
 21
689.7671093314175
 31
0.0
  0
LINE
  5
1FA
330
1F
100
AcDbEntity
  8
0-0
  6
JWW_DASHED1
 62
   120
370
     5
100
AcDbLine
 10
-399.212069454631
 20
661.6666042666283
 30
0.0
 11
-361.2120694546374
 21
699.6666042666253
 31
0.0
  0
LINE
  5
1FB
330
1F
100
AcDbEntity
  8
0-0
  6
JWW_DASHED1
 62
   120
370
     5
100
AcDbLine
 10
-399.212069454631
 20
671.5660992017956
 30
0.0
 11
-361.2120694546306
 21
709.5660992017905
 31
0.0
  0
LINE
  5
1FC
330
1F
100
AcDbEntity
  8
0-0
  6
JWW_DASHED1
 62
   120
370
     5
100
AcDbLine
 10
-399.212069454631
 20
681.4655941370103
 30
0.0
 11
-361.2120694546238
 21
719.465594137014
 31
0.0
  0
LINE
  5
1FD
330
1F
100
AcDbEntity
  8
0-0
  6
JWW_DASHED1
 62
   120
370
     5
100
AcDbLine
 10
-399.212069454631
 20
691.365089072222
 30
0.0
 11
-361.212069454634
 21
729.3650890722223
 31
0.0
  0
LINE
  5
1FE
330
1F
100
AcDbEntity
  8
0-0
  6
JWW_DASHED1
 62
   120
370
     5
100
AcDbLine
 10
-399.212069454631
 20
701.2645840073858
 30
0.0
 11
-361.2120694546306
 21
739.2645840073867
 31
0.0
  0
LINE
  5
1FF
330
1F
100
AcDbEntity
  8
0-0
  6
JWW_DASHED1
 62
   120
370
     5
100
AcDbLine
 10
-399.212069454631
 20
711.1640789426001
 30
0.0
 11
-361.2120694546238
 21
749.1640789426111
 31
0.0
  0
LINE
  5
200
330
1F
100
AcDbEntity
  8
0-0
  6
JWW_DASHED1
 62
   120
370
     5
100
AcDbLine
 10
-399.212069454631
 20
721.0635738778172
 30
0.0
 11
-361.2120694546306
 21
759.0635738778194
 31
0.0
  0
LINE
  5
201
330
1F
100
AcDbEntity
  8
0-0
  6
JWW_DASHED1
 62
   120
370
     5
100
AcDbLine
 10
-399.212069454631
 20
730.9630688129795
 30
0.0
 11
-361.2120694546272
 21
768.9630688129841
 31
0.0
  0
LINE
  5
202
330
1F
100
AcDbEntity
  8
0-0
  6
JWW_DASHED1
 62
   120
370
     5
100
AcDbLine
 10
-399.212069454631
 20
740.8625637482005
 30
0.0
 11
-361.2120694546203
 21
778.8625637482078
 31
0.0
  0
LINE
  5
203
330
1F
100
AcDbEntity
  8
0-0
  6
JWW_DASHED1
 62
   120
370
     5
100
AcDbLine
 10
-399.212069454631
 20
750.7620586834075
 30
0.0
 11
-361.2120694546306
 21
788.762058683416
 31
0.0
  0
LINE
  5
204
330
1F
100
AcDbEntity
  8
0-0
  6
JWW_DASHED1
 62
   120
370
     5
100
AcDbLine
 10
-399.212069454631
 20
760.6615536185795
 30
0.0
 11
-361.2120694546238
 21
798.6615536185811
 31
0.0
  0
LINE
  5
205
330
1F
100
AcDbEntity
  8
0-0
  6
JWW_DASHED1
 62
   120
370
     5
100
AcDbLine
 10
-399.212069454631
 20
770.5610485537954
 30
0.0
 11
-361.212069454634
 21
808.5610485537886
 31
0.0
  0
LINE
  5
206
330
1F
100
AcDbEntity
  8
0-0
  6
JWW_DASHED1
 62
   120
370
     5
100
AcDbLine
 10
-399.212069454631
 20
780.4605434890123
 30
0.0
 11
-361.2120694546238
 21
818.460543489013
 31
0.0
  0
LINE
  5
207
330
1F
100
AcDbEntity
  8
0-0
  6
JWW_DASHED1
 62
   120
370
     5
100
AcDbLine
 10
-399.212069454631
 20
790.3600384241697
 30
0.0
 11
-361.2120694546238
 21
828.3600384241778
 31
0.0
  0
LINE
  5
208
330
1F
100
AcDbEntity
  8
0-0
  6
JWW_DASHED1
 62
   120
370
     5
100
AcDbLine
 10
-399.212069454631
 20
800.259533359389
 30
0.0
 11
-361.2120694546306
 21
838.2595333593861
 31
0.0
  0
LINE
  5
209
330
1F
100
AcDbEntity
  8
0-0
  6
JWW_DASHED1
 62
   120
370
     5
100
AcDbLine
 10
-399.212069454631
 20
810.1590282946016
 30
0.0
 11
-361.2120694546238
 21
848.1590282946097
 31
0.0
  0
LINE
  5
20A
330
1F
100
AcDbEntity
  8
0-0
  6
JWW_DASHED1
 62
   120
370
     5
100
AcDbLine
 10
-399.212069454631
 20
820.0585232297617
 30
0.0
 11
-361.2120694546374
 21
858.0585232297591
 31
0.0
  0
LINE
  5
20B
330
1F
100
AcDbEntity
  8
0-0
  6
JWW_DASHED1
 62
   120
370
     5
100
AcDbLine
 10
-399.212069454631
 20
829.9580181649781
 30
0.0
 11
-361.2120694546306
 21
867.9580181649831
 31
0.0
  0
LINE
  5
20C
330
1F
100
AcDbEntity
  8
0-0
  6
JWW_DASHED1
 62
   120
370
     5
100
AcDbLine
 10
-399.212069454631
 20
839.8575131001952
 30
0.0
 11
-361.2120694546203
 21
877.8575131002067
 31
0.0
  0
LINE
  5
20D
330
1F
100
AcDbEntity
  8
0-0
  6
JWW_DASHED1
 62
   120
370
     5
100
AcDbLine
 10
-399.212069454631
 20
849.7570080353621
 30
0.0
 11
-361.212069454634
 21
887.7570080353557
 31
0.0
  0
LINE
  5
20E
330
1F
100
AcDbEntity
  8
0-0
  6
JWW_DASHED1
 62
   120
370
     5
100
AcDbLine
 10
-399.212069454631
 20
859.6565029705725
 30
0.0
 11
-361.2120694546272
 21
897.6565029705797
 31
0.0
  0
LINE
  5
20F
330
1F
100
AcDbEntity
  8
0-0
  6
JWW_DASHED1
 62
   120
370
     5
100
AcDbLine
 10
-399.212069454631
 20
869.5559979057948
 30
0.0
 11
-361.2120694546169
 21
907.5559979058033
 31
0.0
  0
LINE
  5
210
330
1F
100
AcDbEntity
  8
0-0
  6
JWW_DASHED1
 62
   120
370
     5
100
AcDbLine
 10
-399.212069454631
 20
879.4554928409588
 30
0.0
 11
-361.2120694546306
 21
917.4554928409527
 31
0.0
  0
LINE
  5
211
330
1F
100
AcDbEntity
  8
0-0
  6
JWW_DASHED1
 62
   120
370
     5
100
AcDbLine
 10
-399.212069454631
 20
889.3549877761661
 30
0.0
 11
-361.2120694546238
 21
927.3549877761768
 31
0.0
  0
LINE
  5
212
330
1F
100
AcDbEntity
  8
0-0
  6
JWW_DASHED1
 62
   120
370
     5
100
AcDbLine
 10
-399.212069454631
 20
899.2544827113902
 30
0.0
 11
-361.2120694546306
 21
937.2544827113846
 31
0.0
  0
LINE
  5
213
330
1F
100
AcDbEntity
  8
0-0
  6
JWW_DASHED1
 62
   120
370
     5
100
AcDbLine
 10
-399.212069454631
 20
919.0534725817704
 30
0.0
 11
-361.2120694546306
 21
957.0534725817594
 31
0.0
  0
LINE
  5
214
330
1F
100
AcDbEntity
  8
0-0
  6
JWW_DASHED1
 62
   120
370
     5
100
AcDbLine
 10
-399.212069454631
 20
909.153977646552
 30
0.0
 11
-361.2120694546306
 21
947.1539776465455
 31
0.0
  0
LINE
  5
215
330
1F
100
AcDbEntity
  8
0-0
  6
JWW_DASHED1
 62
   120
370
     5
100
AcDbLine
 10
-399.212069454631
 20
-922.2525853649901
 30
0.0
 11
-361.212069454634
 21
-884.2525853649901
 31
0.0
  0
LINE
  5
216
330
1F
100
AcDbEntity
  8
0-0
  6
JWW_DASHED1
 62
   120
370
     5
100
AcDbLine
 10
-399.212069454631
 20
-932.1520803001548
 30
0.0
 11
-361.212069454634
 21
-894.1520803001547
 31
0.0
  0
LINE
  5
217
330
1F
100
AcDbEntity
  8
0-0
  6
JWW_DASHED1
 62
   120
370
     5
100
AcDbLine
 10
-399.212069454631
 20
-942.0515752353194
 30
0.0
 11
-361.212069454634
 21
-904.0515752353197
 31
0.0
  0
LINE
  5
218
330
1F
100
AcDbEntity
  8
0-0
  6
JWW_DASHED1
 62
   120
370
     5
100
AcDbLine
 10
-396.4113888753857
 20
-949.1503895912385
 30
0.0
 11
-361.212069454634
 21
-913.9510701704844
 31
0.0
  0
LINE
  5
219
330
1F
100
AcDbEntity
  8
0-0
  6
JWW_DASHED1
 62
   120
370
     5
100
AcDbLine
 10
-366.7129040698936
 20
-949.1503895912385
 30
0.0
 11
-361.212069454634
 21
-943.6495549759787
 31
0.0
  0
LINE
  5
21A
330
1F
100
AcDbEntity
  8
0-0
  6
JWW_DASHED1
 62
   120
370
     5
100
AcDbLine
 10
-386.5118939402214
 20
-949.1503895912385
 30
0.0
 11
-361.212069454634
 21
-923.8505651056491
 31
0.0
  0
LINE
  5
21B
330
1F
100
AcDbEntity
  8
0-0
  6
JWW_DASHED1
 62
   120
370
     5
100
AcDbLine
 10
-376.6123990050571
 20
-949.1503895912385
 30
0.0
 11
-361.212069454634
 21
-933.7500600408138
 31
0.0
  0
LINE
  5
21C
330
1F
100
AcDbEntity
  8
0-0
  6
JWW_DASHED1
 62
   120
370
     5
100
AcDbLine
 10
-399.212069454631
 20
928.9529675169889
 30
0.0
 11
-361.2120694546306
 21
966.9529675169779
 31
0.0
  0
LINE
  5
21D
330
1F
100
AcDbEntity
  8
0-0
  6
JWW_DASHED1
 62
   120
370
     5
100
AcDbLine
 10
-399.212069454631
 20
938.8524624522074
 30
0.0
 11
-361.2120694546306
 21
976.8524624521963
 31
0.0
  0
LINE
  5
21E
330
1F
100
AcDbEntity
  8
0-0
  6
JWW_DASHED1
 62
   120
370
     5
100
AcDbLine
 10
-399.212069454631
 20
948.7519573874259
 30
0.0
 11
-361.2120694546306
 21
986.7519573874148
 31
0.0
  0
LINE
  5
21F
330
1F
100
AcDbEntity
  8
0-0
  6
JWW_DASHED1
 62
   120
370
     5
100
AcDbLine
 10
-399.212069454631
 20
958.651452322644
 30
0.0
 11
-361.2120694546306
 21
996.6514523226333
 31
0.0
  0
LINE
  5
220
330
1F
100
AcDbEntity
  8
0-0
  6
JWW_DASHED1
 62
   120
370
     5
100
AcDbLine
 10
-399.212069454631
 20
968.5509472578628
 30
0.0
 11
-361.2120694546306
 21
1006.550947257852
 31
0.0
  0
LINE
  5
221
330
1F
100
AcDbEntity
  8
0-0
  6
JWW_DASHED1
 62
   120
370
     5
100
AcDbLine
 10
-399.212069454631
 20
978.4504421930814
 30
0.0
 11
-361.2120694546306
 21
1016.45044219307
 31
0.0
  0
LINE
  5
222
330
1F
100
AcDbEntity
  8
0-0
  6
JWW_DASHED1
 62
   120
370
     5
100
AcDbLine
 10
-399.212069454631
 20
1008.148926998737
 30
0.0
 11
-389.5113860446025
 21
1017.849610408762
 31
0.0
  0
LINE
  5
223
330
1F
100
AcDbEntity
  8
0-0
  6
JWW_DASHED1
 62
   120
370
     5
100
AcDbLine
 10
-399.212069454631
 20
988.3499371282999
 30
0.0
 11
-369.7123961741596
 21
1017.849610408762
 31
0.0
  0
LINE
  5
224
330
1F
100
AcDbEntity
  8
0-0
  6
JWW_DASHED1
 62
   120
370
     5
100
AcDbLine
 10
-399.212069454631
 20
998.2494320635183
 30
0.0
 11
-379.6118911093811
 21
1017.849610408762
 31
0.0
  0
LINE
  5
225
330
1F
100
AcDbEntity
  8
0-0
  6
Continuous
 62
     7
370
     9
100
AcDbLine
 10
410.787930545369
 20
-949.1503895912385
 30
0.0
 11
448.7879305453694
 21
-949.1503895912385
 31
0.0
  0
LINE
  5
226
330
1F
100
AcDbEntity
  8
0-0
  6
Continuous
 62
    92
370
    13
100
AcDbLine
 10
410.787930545369
 20
1025.849610408761
 30
0.0
 11
410.787930545369
 21
-957.1503895912381
 31
0.0
  0
LINE
  5
227
330
1F
100
AcDbEntity
  8
0-0
  6
Continuous
 62
    92
370
    13
100
AcDbLine
 10
448.7879305453694
 20
1025.849610408761
 30
0.0
 11
448.7879305453694
 21
-957.1503895912384
 31
0.0
  0
LINE
  5
228
330
1F
100
AcDbEntity
  8
0-0
  6
Continuous
 62
     7
370
     9
100
AcDbLine
 10
410.787930545369
 20
1017.849610408762
 30
0.0
 11
448.7879305453694
 21
1017.849610408762
 31
0.0
  0
LINE
  5
229
330
1F
100
AcDbEntity
  8
0-0
  6
JWW_DASHED1
 62
   120
370
     5
100
AcDbLine
 10
410.787930545369
 20
-912.3530904298253
 30
0.0
 11
448.787930545366
 21
-874.3530904298253
 31
0.0
  0
LINE
  5
22A
330
1F
100
AcDbEntity
  8
0-0
  6
JWW_DASHED1
 62
   120
370
     5
100
AcDbLine
 10
410.787930545369
 20
-902.4535954946635
 30
0.0
 11
448.7879305453694
 21
-864.4535954946606
 31
0.0
  0
LINE
  5
22B
330
1F
100
AcDbEntity
  8
0-0
  6
JWW_DASHED1
 62
   120
370
     5
100
AcDbLine
 10
410.787930545369
 20
-892.554100559445
 30
0.0
 11
448.7879305453762
 21
-854.5541005594365
 31
0.0
  0
LINE
  5
22C
330
1F
100
AcDbEntity
  8
0-0
  6
JWW_DASHED1
 62
   120
370
     5
100
AcDbLine
 10
410.787930545369
 20
-882.6546056242328
 30
0.0
 11
448.7879305453694
 21
-844.6546056242281
 31
0.0
  0
LINE
  5
22D
330
1F
100
AcDbEntity
  8
0-0
  6
JWW_DASHED1
 62
   120
370
     5
100
AcDbLine
 10
410.787930545369
 20
-872.7551106890642
 30
0.0
 11
448.7879305453728
 21
-834.7551106890635
 31
0.0
  0
LINE
  5
22E
330
1F
100
AcDbEntity
  8
0-0
  6
JWW_DASHED1
 62
   120
370
     5
100
AcDbLine
 10
410.787930545369
 20
-862.8556157538501
 30
0.0
 11
448.7879305453626
 21
-824.8556157538551
 31
0.0
  0
LINE
  5
22F
330
1F
100
AcDbEntity
  8
0-0
  6
JWW_DASHED1
 62
   120
370
     5
100
AcDbLine
 10
410.787930545369
 20
-852.9561208186315
 30
0.0
 11
448.7879305453728
 21
-814.9561208186315
 31
0.0
  0
LINE
  5
230
330
1F
100
AcDbEntity
  8
0-0
  6
JWW_DASHED1
 62
   120
370
     5
100
AcDbLine
 10
410.787930545369
 20
-843.0566258834705
 30
0.0
 11
448.7879305453762
 21
-805.0566258834665
 31
0.0
  0
LINE
  5
231
330
1F
100
AcDbEntity
  8
0-0
  6
JWW_DASHED1
 62
   120
370
     5
100
AcDbLine
 10
410.787930545369
 20
-833.1571309482567
 30
0.0
 11
448.787930545366
 21
-795.1571309482584
 31
0.0
  0
LINE
  5
232
330
1F
100
AcDbEntity
  8
0-0
  6
JWW_DASHED1
 62
   120
370
     5
100
AcDbLine
 10
410.787930545369
 20
-823.2576360130392
 30
0.0
 11
448.7879305453762
 21
-785.2576360130344
 31
0.0
  0
LINE
  5
233
330
1F
100
AcDbEntity
  8
0-0
  6
JWW_DASHED1
 62
   120
370
     5
100
AcDbLine
 10
410.787930545369
 20
-813.3581410778767
 30
0.0
 11
448.7879305453626
 21
-775.3581410778854
 31
0.0
  0
LINE
  5
234
330
1F
100
AcDbEntity
  8
0-0
  6
JWW_DASHED1
 62
   120
370
     5
100
AcDbLine
 10
410.787930545369
 20
-803.458646142663
 30
0.0
 11
448.7879305453694
 21
-765.4586461426618
 31
0.0
  0
LINE
  5
235
330
1F
100
AcDbEntity
  8
0-0
  6
JWW_DASHED1
 62
   120
370
     5
100
AcDbLine
 10
410.787930545369
 20
-793.5591512074491
 30
0.0
 11
448.7879305453762
 21
-755.5591512074377
 31
0.0
  0
LINE
  5
236
330
1F
100
AcDbEntity
  8
0-0
  6
JWW_DASHED1
 62
   120
370
     5
100
AcDbLine
 10
410.787930545369
 20
-783.6596562722857
 30
0.0
 11
448.7879305453626
 21
-745.6596562722885
 31
0.0
  0
LINE
  5
237
330
1F
100
AcDbEntity
  8
0-0
  6
JWW_DASHED1
 62
   120
370
     5
100
AcDbLine
 10
410.787930545369
 20
-773.7601613370734
 30
0.0
 11
448.7879305453694
 21
-735.7601613370646
 31
0.0
  0
LINE
  5
238
330
1F
100
AcDbEntity
  8
0-0
  6
JWW_DASHED1
 62
   120
370
     5
100
AcDbLine
 10
410.787930545369
 20
-763.8606664019004
 30
0.0
 11
448.7879305453762
 21
-725.8606664019
 31
0.0
  0
LINE
  5
239
330
1F
100
AcDbEntity
  8
0-0
  6
JWW_DASHED1
 62
   120
370
     5
100
AcDbLine
 10
410.787930545369
 20
-753.9611714666853
 30
0.0
 11
448.787930545366
 21
-715.9611714666916
 31
0.0
  0
LINE
  5
23A
330
1F
100
AcDbEntity
  8
0-0
  6
JWW_DASHED1
 62
   120
370
     5
100
AcDbLine
 10
410.787930545369
 20
-744.061676531473
 30
0.0
 11
448.7879305453728
 21
-706.0616765314679
 31
0.0
  0
LINE
  5
23B
330
1F
100
AcDbEntity
  8
0-0
  6
JWW_DASHED1
 62
   120
370
     5
100
AcDbLine
 10
410.787930545369
 20
-734.1621815963113
 30
0.0
 11
448.7879305453762
 21
-696.1621815963027
 31
0.0
  0
LINE
  5
23C
330
1F
100
AcDbEntity
  8
0-0
  6
JWW_DASHED1
 62
   120
370
     5
100
AcDbLine
 10
410.787930545369
 20
-724.2626866610913
 30
0.0
 11
448.7879305453694
 21
-686.2626866610949
 31
0.0
  0
LINE
  5
23D
330
1F
100
AcDbEntity
  8
0-0
  6
JWW_DASHED1
 62
   120
370
     5
100
AcDbLine
 10
410.787930545369
 20
-714.3631917258798
 30
0.0
 11
448.7879305453762
 21
-676.3631917258708
 31
0.0
  0
LINE
  5
23E
330
1F
100
AcDbEntity
  8
0-0
  6
JWW_DASHED1
 62
   120
370
     5
100
AcDbLine
 10
410.787930545369
 20
-704.4636967907165
 30
0.0
 11
448.7879305453626
 21
-666.4636967907217
 31
0.0
  0
LINE
  5
23F
330
1F
100
AcDbEntity
  8
0-0
  6
JWW_DASHED1
 62
   120
370
     5
100
AcDbLine
 10
410.787930545369
 20
-694.5642018555022
 30
0.0
 11
448.7879305453694
 21
-656.5642018554978
 31
0.0
  0
LINE
  5
240
330
1F
100
AcDbEntity
  8
0-0
  6
JWW_DASHED1
 62
   120
370
     5
100
AcDbLine
 10
410.787930545369
 20
-684.664706920287
 30
0.0
 11
448.7879305453626
 21
-646.6647069202897
 31
0.0
  0
LINE
  5
241
330
1F
100
AcDbEntity
  8
0-0
  6
JWW_DASHED1
 62
   120
370
     5
100
AcDbLine
 10
410.787930545369
 20
-674.7652119851231
 30
0.0
 11
448.787930545366
 21
-636.7652119851248
 31
0.0
  0
LINE
  5
242
330
1F
100
AcDbEntity
  8
0-0
  6
JWW_DASHED1
 62
   120
370
     5
100
AcDbLine
 10
410.787930545369
 20
-664.8657170499084
 30
0.0
 11
448.7879305453728
 21
-626.865717049901
 31
0.0
  0
LINE
  5
243
330
1F
100
AcDbEntity
  8
0-0
  6
JWW_DASHED1
 62
   120
370
     5
100
AcDbLine
 10
410.787930545369
 20
-654.9662221146914
 30
0.0
 11
448.787930545366
 21
-616.9662221146928
 31
0.0
  0
LINE
  5
244
330
1F
100
AcDbEntity
  8
0-0
  6
JWW_DASHED1
 62
   120
370
     5
100
AcDbLine
 10
410.787930545369
 20
-645.066727179522
 30
0.0
 11
448.7879305453694
 21
-607.066727179528
 31
0.0
  0
LINE
  5
245
330
1F
100
AcDbEntity
  8
0-0
  6
JWW_DASHED1
 62
   120
370
     5
100
AcDbLine
 10
410.787930545369
 20
-635.1672322443152
 30
0.0
 11
448.7879305453762
 21
-597.1672322443039
 31
0.0
  0
LINE
  5
246
330
1F
100
AcDbEntity
  8
0-0
  6
JWW_DASHED1
 62
   120
370
     5
100
AcDbLine
 10
410.787930545369
 20
-625.2677373090905
 30
0.0
 11
448.7879305453694
 21
-587.2677373090959
 31
0.0
  0
LINE
  5
247
330
1F
100
AcDbEntity
  8
0-0
  6
JWW_DASHED1
 62
   120
370
     5
100
AcDbLine
 10
410.787930545369
 20
-615.3682423739326
 30
0.0
 11
448.7879305453694
 21
-577.3682423739309
 31
0.0
  0
LINE
  5
248
330
1F
100
AcDbEntity
  8
0-0
  6
JWW_DASHED1
 62
   120
370
     5
100
AcDbLine
 10
410.787930545369
 20
-605.4687474387184
 30
0.0
 11
448.7879305453762
 21
-567.4687474387072
 31
0.0
  0
LINE
  5
249
330
1F
100
AcDbEntity
  8
0-0
  6
JWW_DASHED1
 62
   120
370
     5
100
AcDbLine
 10
410.787930545369
 20
-595.5692525035006
 30
0.0
 11
448.7879305453694
 21
-557.5692525034989
 31
0.0
  0
LINE
  5
24A
330
1F
100
AcDbEntity
  8
0-0
  6
JWW_DASHED1
 62
   120
370
     5
100
AcDbLine
 10
410.787930545369
 20
-585.6697575683392
 30
0.0
 11
448.7879305453728
 21
-547.6697575683341
 31
0.0
  0
LINE
  5
24B
330
1F
100
AcDbEntity
  8
0-0
  6
JWW_DASHED1
 62
   120
370
     5
100
AcDbLine
 10
410.787930545369
 20
-575.7702626331198
 30
0.0
 11
448.787930545366
 21
-537.7702626331261
 31
0.0
  0
LINE
  5
24C
330
1F
100
AcDbEntity
  8
0-0
  6
JWW_DASHED1
 62
   120
370
     5
100
AcDbLine
 10
410.787930545369
 20
-565.8707676979071
 30
0.0
 11
448.7879305453728
 21
-527.870767697902
 31
0.0
  0
LINE
  5
24D
330
1F
100
AcDbEntity
  8
0-0
  6
JWW_DASHED1
 62
   120
370
     5
100
AcDbLine
 10
410.787930545369
 20
-555.9712727627456
 30
0.0
 11
448.7879305453762
 21
-517.971272762737
 31
0.0
  0
LINE
  5
24E
330
1F
100
AcDbEntity
  8
0-0
  6
JWW_DASHED1
 62
   120
370
     5
100
AcDbLine
 10
410.787930545369
 20
-546.0717778275263
 30
0.0
 11
448.7879305453694
 21
-508.071777827529
 31
0.0
  0
LINE
  5
24F
330
1F
100
AcDbEntity
  8
0-0
  6
JWW_DASHED1
 62
   120
370
     5
100
AcDbLine
 10
410.787930545369
 20
-536.1722828923063
 30
0.0
 11
448.7879305453762
 21
-498.1722828923054
 31
0.0
  0
LINE
  5
250
330
1F
100
AcDbEntity
  8
0-0
  6
JWW_DASHED1
 62
   120
370
     5
100
AcDbLine
 10
410.787930545369
 20
-526.2727879571536
 30
0.0
 11
448.7879305453626
 21
-488.272787957156
 31
0.0
  0
LINE
  5
251
330
1F
100
AcDbEntity
  8
0-0
  6
JWW_DASHED1
 62
   120
370
     5
100
AcDbLine
 10
410.787930545369
 20
-516.3732930219367
 30
0.0
 11
448.7879305453694
 21
-478.3732930219322
 31
0.0
  0
LINE
  5
252
330
1F
100
AcDbEntity
  8
0-0
  6
JWW_DASHED1
 62
   120
370
     5
100
AcDbLine
 10
410.787930545369
 20
-506.4737980867169
 30
0.0
 11
448.7879305453762
 21
-468.4737980867079
 31
0.0
  0
LINE
  5
253
330
1F
100
AcDbEntity
  8
0-0
  6
JWW_DASHED1
 62
   120
370
     5
100
AcDbLine
 10
410.787930545369
 20
-496.5743031515566
 30
0.0
 11
448.7879305453626
 21
-458.574303151559
 31
0.0
  0
LINE
  5
254
330
1F
100
AcDbEntity
  8
0-0
  6
JWW_DASHED1
 62
   120
370
     5
100
AcDbLine
 10
410.787930545369
 20
-486.6748082163371
 30
0.0
 11
448.7879305453728
 21
-448.6748082163349
 31
0.0
  0
LINE
  5
255
330
1F
100
AcDbEntity
  8
0-0
  6
JWW_DASHED1
 62
   120
370
     5
100
AcDbLine
 10
410.787930545369
 20
-476.7753132811224
 30
0.0
 11
448.7879305453626
 21
-438.7753132811271
 31
0.0
  0
LINE
  5
256
330
1F
100
AcDbEntity
  8
0-0
  6
JWW_DASHED1
 62
   120
370
     5
100
AcDbLine
 10
410.787930545369
 20
-466.8758183459568
 30
0.0
 11
448.7879305453694
 21
-428.8758183459619
 31
0.0
  0
LINE
  5
257
330
1F
100
AcDbEntity
  8
0-0
  6
JWW_DASHED1
 62
   120
370
     5
100
AcDbLine
 10
410.787930545369
 20
-456.9763234107426
 30
0.0
 11
448.7879305453762
 21
-418.9763234107387
 31
0.0
  0
LINE
  5
258
330
1F
100
AcDbEntity
  8
0-0
  6
JWW_DASHED1
 62
   120
370
     5
100
AcDbLine
 10
410.787930545369
 20
-447.0768284755283
 30
0.0
 11
448.787930545366
 21
-409.0768284755305
 31
0.0
  0
LINE
  5
259
330
1F
100
AcDbEntity
  8
0-0
  6
JWW_DASHED1
 62
   120
370
     5
100
AcDbLine
 10
410.787930545369
 20
-437.1773335403665
 30
0.0
 11
448.7879305453694
 21
-399.1773335403653
 31
0.0
  0
LINE
  5
25A
330
1F
100
AcDbEntity
  8
0-0
  6
JWW_DASHED1
 62
   120
370
     5
100
AcDbLine
 10
410.787930545369
 20
-427.2778386051472
 30
0.0
 11
448.7879305453626
 21
-389.2778386051571
 31
0.0
  0
LINE
  5
25B
330
1F
100
AcDbEntity
  8
0-0
  6
JWW_DASHED1
 62
   120
370
     5
100
AcDbLine
 10
410.787930545369
 20
-417.3783436699347
 30
0.0
 11
448.7879305453694
 21
-379.3783436699334
 31
0.0
  0
LINE
  5
25C
330
1F
100
AcDbEntity
  8
0-0
  6
JWW_DASHED1
 62
   120
370
     5
100
AcDbLine
 10
410.787930545369
 20
-407.4788487347724
 30
0.0
 11
448.7879305453728
 21
-369.4788487347687
 31
0.0
  0
LINE
  5
25D
330
1F
100
AcDbEntity
  8
0-0
  6
JWW_DASHED1
 62
   120
370
     5
100
AcDbLine
 10
410.787930545369
 20
-397.5793537995591
 30
0.0
 11
448.7879305453626
 21
-359.57935379956
 31
0.0
  0
LINE
  5
25E
330
1F
100
AcDbEntity
  8
0-0
  6
JWW_DASHED1
 62
   120
370
     5
100
AcDbLine
 10
410.787930545369
 20
-387.6798588643385
 30
0.0
 11
448.7879305453694
 21
-349.6798588643364
 31
0.0
  0
LINE
  5
25F
330
1F
100
AcDbEntity
  8
0-0
  6
JWW_DASHED1
 62
   120
370
     5
100
AcDbLine
 10
410.787930545369
 20
-377.7803639291724
 30
0.0
 11
448.7879305453762
 21
-339.7803639291716
 31
0.0
  0
LINE
  5
260
330
1F
100
AcDbEntity
  8
0-0
  6
JWW_DASHED1
 62
   120
370
     5
100
AcDbLine
 10
410.787930545369
 20
-367.8808689939574
 30
0.0
 11
448.787930545366
 21
-329.8808689939638
 31
0.0
  0
LINE
  5
261
330
1F
100
AcDbEntity
  8
0-0
  6
JWW_DASHED1
 62
   120
370
     5
100
AcDbLine
 10
410.787930545369
 20
-357.9813740587444
 30
0.0
 11
448.7879305453728
 21
-319.9813740587398
 31
0.0
  0
LINE
  5
262
330
1F
100
AcDbEntity
  8
0-0
  6
JWW_DASHED1
 62
   120
370
     5
100
AcDbLine
 10
410.787930545369
 20
-348.0818791235835
 30
0.0
 11
448.7879305453762
 21
-310.0818791235746
 31
0.0
  0
LINE
  5
263
330
1F
100
AcDbEntity
  8
0-0
  6
JWW_DASHED1
 62
   120
370
     5
100
AcDbLine
 10
410.787930545369
 20
-338.1823841883637
 30
0.0
 11
448.7879305453694
 21
-300.1823841883668
 31
0.0
  0
LINE
  5
264
330
1F
100
AcDbEntity
  8
0-0
  6
JWW_DASHED1
 62
   120
370
     5
100
AcDbLine
 10
410.787930545369
 20
-328.2828892531517
 30
0.0
 11
448.7879305453762
 21
-290.2828892531427
 31
0.0
  0
LINE
  5
265
330
1F
100
AcDbEntity
  8
0-0
  6
JWW_DASHED1
 62
   120
370
     5
100
AcDbLine
 10
410.787930545369
 20
-318.3833943179839
 30
0.0
 11
448.7879305453694
 21
-280.3833943179882
 31
0.0
  0
LINE
  5
266
330
1F
100
AcDbEntity
  8
0-0
  6
JWW_DASHED1
 62
   120
370
     5
100
AcDbLine
 10
410.787930545369
 20
-308.4838993827735
 30
0.0
 11
448.7879305453694
 21
-270.4838993827697
 31
0.0
  0
LINE
  5
267
330
1F
100
AcDbEntity
  8
0-0
  6
JWW_DASHED1
 62
   120
370
     5
100
AcDbLine
 10
410.787930545369
 20
-298.5844044475597
 30
0.0
 11
448.7879305453626
 21
-260.5844044475614
 31
0.0
  0
LINE
  5
268
330
1F
100
AcDbEntity
  8
0-0
  6
JWW_DASHED1
 62
   120
370
     5
100
AcDbLine
 10
410.787930545369
 20
-288.6849095123954
 30
0.0
 11
448.787930545366
 21
-250.6849095123967
 31
0.0
  0
LINE
  5
269
330
1F
100
AcDbEntity
  8
0-0
  6
JWW_DASHED1
 62
   120
370
     5
100
AcDbLine
 10
410.787930545369
 20
-278.785414577173
 30
0.0
 11
448.7879305453728
 21
-240.7854145771726
 31
0.0
  0
LINE
  5
26A
330
1F
100
AcDbEntity
  8
0-0
  6
JWW_DASHED1
 62
   120
370
     5
100
AcDbLine
 10
410.787930545369
 20
-268.8859196419584
 30
0.0
 11
448.787930545366
 21
-230.8859196419648
 31
0.0
  0
LINE
  5
26B
330
1F
100
AcDbEntity
  8
0-0
  6
JWW_DASHED1
 62
   120
370
     5
100
AcDbLine
 10
410.787930545369
 20
-258.9864247067945
 30
0.0
 11
448.7879305453694
 21
-220.9864247067996
 31
0.0
  0
LINE
  5
26C
330
1F
100
AcDbEntity
  8
0-0
  6
JWW_DASHED1
 62
   120
370
     5
100
AcDbLine
 10
410.787930545369
 20
-249.0869297715862
 30
0.0
 11
448.7879305453762
 21
-211.0869297715756
 31
0.0
  0
LINE
  5
26D
330
1F
100
AcDbEntity
  8
0-0
  6
JWW_DASHED1
 62
   120
370
     5
100
AcDbLine
 10
410.787930545369
 20
-239.1874348363626
 30
0.0
 11
448.7879305453694
 21
-201.1874348363678
 31
0.0
  0
LINE
  5
26E
330
1F
100
AcDbEntity
  8
0-0
  6
JWW_DASHED1
 62
   120
370
     5
100
AcDbLine
 10
410.787930545369
 20
-229.2879399012047
 30
0.0
 11
448.7879305453694
 21
-191.2879399012026
 31
0.0
  0
LINE
  5
26F
330
1F
100
AcDbEntity
  8
0-0
  6
JWW_DASHED1
 62
   120
370
     5
100
AcDbLine
 10
410.787930545369
 20
-219.3884449659913
 30
0.0
 11
448.7879305453762
 21
-181.3884449659786
 31
0.0
  0
LINE
  5
270
330
1F
100
AcDbEntity
  8
0-0
  6
JWW_DASHED1
 62
   120
370
     5
100
AcDbLine
 10
410.787930545369
 20
-209.4889500307728
 30
0.0
 11
448.7879305453694
 21
-171.4889500307707
 31
0.0
  0
LINE
  5
271
330
1F
100
AcDbEntity
  8
0-0
  6
JWW_DASHED1
 62
   120
370
     5
100
AcDbLine
 10
410.787930545369
 20
-199.589455095611
 30
0.0
 11
448.7879305453728
 21
-161.5894550956055
 31
0.0
  0
LINE
  5
272
330
1F
100
AcDbEntity
  8
0-0
  6
JWW_DASHED1
 62
   120
370
     5
100
AcDbLine
 10
410.787930545369
 20
-189.6899601603913
 30
0.0
 11
448.787930545366
 21
-151.6899601603977
 31
0.0
  0
LINE
  5
273
330
1F
100
AcDbEntity
  8
0-0
  6
JWW_DASHED1
 62
   120
370
     5
100
AcDbLine
 10
410.787930545369
 20
-179.7904652252073
 30
0.0
 11
448.7879305453694
 21
-141.7904652252035
 31
0.0
  0
LINE
  5
274
330
1F
100
AcDbEntity
  8
0-0
  6
JWW_DASHED1
 62
   120
370
     5
100
AcDbLine
 10
410.787930545369
 20
-169.8909702900097
 30
0.0
 11
448.7879305453762
 21
-131.8909702900089
 31
0.0
  0
LINE
  5
275
330
1F
100
AcDbEntity
  8
0-0
  6
JWW_DASHED1
 62
   120
370
     5
100
AcDbLine
 10
410.787930545369
 20
-159.9914753547968
 30
0.0
 11
448.7879305453694
 21
-121.9914753548011
 31
0.0
  0
LINE
  5
276
330
1F
100
AcDbEntity
  8
0-0
  6
JWW_DASHED1
 62
   120
370
     5
100
AcDbLine
 10
410.787930545369
 20
-150.0919804196069
 30
0.0
 11
448.7879305453728
 21
-112.0919804196065
 31
0.0
  0
LINE
  5
277
330
1F
100
AcDbEntity
  8
0-0
  6
JWW_DASHED1
 62
   120
370
     5
100
AcDbLine
 10
410.787930545369
 20
-140.1924854844246
 30
0.0
 11
448.7879305453626
 21
-102.1924854844276
 31
0.0
  0
LINE
  5
278
330
1F
100
AcDbEntity
  8
0-0
  6
JWW_DASHED1
 62
   120
370
     5
100
AcDbLine
 10
410.787930545369
 20
-130.2929905492095
 30
0.0
 11
448.7879305453694
 21
-92.29299054920361
 31
0.0
  0
LINE
  5
279
330
1F
100
AcDbEntity
  8
0-0
  6
JWW_DASHED1
 62
   120
370
     5
100
AcDbLine
 10
410.787930545369
 20
-120.3934956140397
 30
0.0
 11
448.7879305453728
 21
-82.39349561403927
 31
0.0
  0
LINE
  5
27A
330
1F
100
AcDbEntity
  8
0-0
  6
JWW_DASHED1
 62
   120
370
     5
100
AcDbLine
 10
410.787930545369
 20
-110.4940006788297
 30
0.0
 11
448.7879305453626
 21
-72.49400067883059
 31
0.0
  0
LINE
  5
27B
330
1F
100
AcDbEntity
  8
0-0
  6
JWW_DASHED1
 62
   120
370
     5
100
AcDbLine
 10
410.787930545369
 20
-100.5945057436078
 30
0.0
 11
448.7879305453728
 21
-62.59450574360741
 31
0.0
  0
LINE
  5
27C
330
1F
100
AcDbEntity
  8
0-0
  6
JWW_DASHED1
 62
   120
370
     5
100
AcDbLine
 10
410.787930545369
 20
-90.69501080844603
 30
0.0
 11
448.7879305453762
 21
-52.69501080844222
 31
0.0
  0
LINE
  5
27D
330
1F
100
AcDbEntity
  8
0-0
  6
JWW_DASHED1
 62
   120
370
     5
100
AcDbLine
 10
410.787930545369
 20
-80.79551587323138
 30
0.0
 11
448.787930545366
 21
-42.79551587323439
 31
0.0
  0
LINE
  5
27E
330
1F
100
AcDbEntity
  8
0-0
  6
JWW_DASHED1
 62
   120
370
     5
100
AcDbLine
 10
410.787930545369
 20
-70.89602093801417
 30
0.0
 11
448.7879305453762
 21
-32.89602093801037
 31
0.0
  0
LINE
  5
27F
330
1F
100
AcDbEntity
  8
0-0
  6
JWW_DASHED1
 62
   120
370
     5
100
AcDbLine
 10
410.787930545369
 20
-60.9965260028558
 30
0.0
 11
448.7879305453762
 21
-22.99652600284517
 31
0.0
  0
LINE
  5
280
330
1F
100
AcDbEntity
  8
0-0
  6
JWW_DASHED1
 62
   120
370
     5
100
AcDbLine
 10
410.787930545369
 20
-51.09703106763774
 30
0.0
 11
448.7879305453694
 21
-13.09703106763735
 31
0.0
  0
LINE
  5
281
330
1F
100
AcDbEntity
  8
0-0
  6
JWW_DASHED1
 62
   120
370
     5
100
AcDbLine
 10
410.787930545369
 20
-41.19753613242395
 30
0.0
 11
448.7879305453762
 21
-3.197536132413319
 31
0.0
  0
LINE
  5
282
330
1F
100
AcDbEntity
  8
0-0
  6
JWW_DASHED1
 62
   120
370
     5
100
AcDbLine
 10
410.787930545369
 20
-31.29804119725705
 30
0.0
 11
448.7879305453728
 21
6.701958802743349
 31
0.0
  0
LINE
  5
283
330
1F
100
AcDbEntity
  8
0-0
  6
JWW_DASHED1
 62
   120
370
     5
100
AcDbLine
 10
410.787930545369
 20
-21.39854626204581
 30
0.0
 11
448.7879305453728
 21
16.6014537379597
 31
0.0
  0
LINE
  5
284
330
1F
100
AcDbEntity
  8
0-0
  6
JWW_DASHED1
 62
   120
370
     5
100
AcDbLine
 10
410.787930545369
 20
-11.49905132682946
 30
0.0
 11
448.7879305453626
 21
26.50094867316753
 31
0.0
  0
LINE
  5
285
330
1F
100
AcDbEntity
  8
0-0
  6
JWW_DASHED1
 62
   120
370
     5
100
AcDbLine
 10
410.787930545369
 20
-1.599556391660855
 30
0.0
 11
448.787930545366
 21
36.40044360833272
 31
0.0
  0
LINE
  5
286
330
1F
100
AcDbEntity
  8
0-0
  6
JWW_DASHED1
 62
   120
370
     5
100
AcDbLine
 10
410.787930545369
 20
8.299938543555072
 30
0.0
 11
448.7879305453762
 21
46.29993854355675
 31
0.0
  0
LINE
  5
287
330
1F
100
AcDbEntity
  8
0-0
  6
JWW_DASHED1
 62
   120
370
     5
100
AcDbLine
 10
410.787930545369
 20
18.199433478771
 30
0.0
 11
448.787930545366
 21
56.19943347876458
 31
0.0
  0
LINE
  5
288
330
1F
100
AcDbEntity
  8
0-0
  6
JWW_DASHED1
 62
   120
370
     5
100
AcDbLine
 10
410.787930545369
 20
28.09892841392468
 30
0.0
 11
448.7879305453694
 21
66.09892841392977
 31
0.0
  0
LINE
  5
289
330
1F
100
AcDbEntity
  8
0-0
  6
JWW_DASHED1
 62
   120
370
     5
100
AcDbLine
 10
410.787930545369
 20
37.9984233491453
 30
0.0
 11
448.7879305453762
 21
75.99842334915337
 31
0.0
  0
LINE
  5
28A
330
1F
100
AcDbEntity
  8
0-0
  6
JWW_DASHED1
 62
   120
370
     5
100
AcDbLine
 10
410.787930545369
 20
47.89791828436464
 30
0.0
 11
448.7879305453694
 21
85.89791828436162
 31
0.0
  0
LINE
  5
28B
330
1F
100
AcDbEntity
  8
0-0
  6
JWW_DASHED1
 62
   120
370
     5
100
AcDbLine
 10
410.787930545369
 20
57.79741321952258
 30
0.0
 11
448.7879305453694
 21
95.79741321952639
 31
0.0
  0
LINE
  5
28C
330
1F
100
AcDbEntity
  8
0-0
  6
JWW_DASHED1
 62
   120
370
     5
100
AcDbLine
 10
410.787930545369
 20
67.69690815473894
 30
0.0
 11
448.7879305453797
 21
105.6969081547504
 31
0.0
  0
LINE
  5
28D
330
1F
100
AcDbEntity
  8
0-0
  6
JWW_DASHED1
 62
   120
370
     5
100
AcDbLine
 10
410.787930545369
 20
77.59640308995486
 30
0.0
 11
448.7879305453694
 21
115.5964030899587
 31
0.0
  0
LINE
  5
28E
330
1F
100
AcDbEntity
  8
0-0
  6
JWW_DASHED1
 62
   120
370
     5
100
AcDbLine
 10
410.787930545369
 20
87.49589802511622
 30
0.0
 11
448.7879305453728
 21
125.4958980251234
 31
0.0
  0
LINE
  5
28F
330
1F
100
AcDbEntity
  8
0-0
  6
JWW_DASHED1
 62
   120
370
     5
100
AcDbLine
 10
410.787930545369
 20
97.395392960333
 30
0.0
 11
448.787930545366
 21
135.3953929603317
 31
0.0
  0
LINE
  5
290
330
1F
100
AcDbEntity
  8
0-0
  6
JWW_DASHED1
 62
   120
370
     5
100
AcDbLine
 10
410.787930545369
 20
107.2948878955549
 30
0.0
 11
448.7879305453728
 21
145.2948878955553
 31
0.0
  0
LINE
  5
291
330
1F
100
AcDbEntity
  8
0-0
  6
JWW_DASHED1
 62
   120
370
     5
100
AcDbLine
 10
410.787930545369
 20
117.1943828307086
 30
0.0
 11
448.7879305453762
 21
155.1943828307205
 31
0.0
  0
LINE
  5
292
330
1F
100
AcDbEntity
  8
0-0
  6
JWW_DASHED1
 62
   120
370
     5
100
AcDbLine
 10
410.787930545369
 20
127.0938777659343
 30
0.0
 11
448.7879305453694
 21
165.0938777659283
 31
0.0
  0
LINE
  5
293
330
1F
100
AcDbEntity
  8
0-0
  6
JWW_DASHED1
 62
   120
370
     5
100
AcDbLine
 10
410.787930545369
 20
136.9933727011477
 30
0.0
 11
448.7879305453762
 21
174.9933727011523
 31
0.0
  0
LINE
  5
294
330
1F
100
AcDbEntity
  8
0-0
  6
JWW_DASHED1
 62
   120
370
     5
100
AcDbLine
 10
410.787930545369
 20
146.8928676363035
 30
0.0
 11
448.7879305453626
 21
184.8928676363018
 31
0.0
  0
LINE
  5
295
330
1F
100
AcDbEntity
  8
0-0
  6
JWW_DASHED1
 62
   120
370
     5
100
AcDbLine
 10
410.787930545369
 20
156.7923625715241
 30
0.0
 11
448.7879305453694
 21
194.7923625715254
 31
0.0
  0
LINE
  5
296
330
1F
100
AcDbEntity
  8
0-0
  6
JWW_DASHED1
 62
   120
370
     5
100
AcDbLine
 10
410.787930545369
 20
166.6918575067383
 30
0.0
 11
448.7879305453762
 21
204.691857506749
 31
0.0
  0
LINE
  5
297
330
1F
100
AcDbEntity
  8
0-0
  6
JWW_DASHED1
 62
   120
370
     5
100
AcDbLine
 10
410.787930545369
 20
176.5913524419044
 30
0.0
 11
448.787930545366
 21
214.5913524418988
 31
0.0
  0
LINE
  5
298
330
1F
100
AcDbEntity
  8
0-0
  6
JWW_DASHED1
 62
   120
370
     5
100
AcDbLine
 10
410.787930545369
 20
186.4908473771169
 30
0.0
 11
448.7879305453728
 21
224.4908473771224
 31
0.0
  0
LINE
  5
299
330
1F
100
AcDbEntity
  8
0-0
  6
JWW_DASHED1
 62
   120
370
     5
100
AcDbLine
 10
410.787930545369
 20
196.3903423123354
 30
0.0
 11
448.7879305453762
 21
234.39034231234
 31
0.0
  0
LINE
  5
29A
330
1F
100
AcDbEntity
  8
0-0
  6
JWW_DASHED1
 62
   120
370
     5
100
AcDbLine
 10
410.787930545369
 20
206.2898372474976
 30
0.0
 11
448.7879305453694
 21
244.2898372474954
 31
0.0
  0
LINE
  5
29B
330
1F
100
AcDbEntity
  8
0-0
  6
JWW_DASHED1
 62
   120
370
     5
100
AcDbLine
 10
410.787930545369
 20
216.1893321827182
 30
0.0
 11
448.7879305453762
 21
254.189332182719
 31
0.0
  0
LINE
  5
29C
330
1F
100
AcDbEntity
  8
0-0
  6
JWW_DASHED1
 62
   120
370
     5
100
AcDbLine
 10
410.787930545369
 20
226.0888271179256
 30
0.0
 11
448.787930545366
 21
264.0888271179273
 31
0.0
  0
LINE
  5
29D
330
1F
100
AcDbEntity
  8
0-0
  6
JWW_DASHED1
 62
   120
370
     5
100
AcDbLine
 10
410.787930545369
 20
235.9883220530882
 30
0.0
 11
448.7879305453694
 21
273.988322053092
 31
0.0
  0
LINE
  5
29E
330
1F
100
AcDbEntity
  8
0-0
  6
JWW_DASHED1
 62
   120
370
     5
100
AcDbLine
 10
410.787930545369
 20
245.8878169883101
 30
0.0
 11
448.7879305453626
 21
283.8878169883003
 31
0.0
  0
LINE
  5
29F
330
1F
100
AcDbEntity
  8
0-0
  6
JWW_DASHED1
 62
   120
370
     5
100
AcDbLine
 10
410.787930545369
 20
255.7873119235201
 30
0.0
 11
448.7879305453694
 21
293.7873119235239
 31
0.0
  0
LINE
  5
2A0
330
1F
100
AcDbEntity
  8
0-0
  6
JWW_DASHED1
 62
   120
370
     5
100
AcDbLine
 10
410.787930545369
 20
265.6868068586887
 30
0.0
 11
448.7879305453728
 21
303.6868068586891
 31
0.0
  0
LINE
  5
2A1
330
1F
100
AcDbEntity
  8
0-0
  6
JWW_DASHED1
 62
   120
370
     5
100
AcDbLine
 10
410.787930545369
 20
275.5863017938999
 30
0.0
 11
448.7879305453626
 21
313.586301793897
 31
0.0
  0
LINE
  5
2A2
330
1F
100
AcDbEntity
  8
0-0
  6
JWW_DASHED1
 62
   120
370
     5
100
AcDbLine
 10
410.787930545369
 20
285.4857967291206
 30
0.0
 11
448.7879305453728
 21
323.4857967291209
 31
0.0
  0
LINE
  5
2A3
330
1F
100
AcDbEntity
  8
0-0
  6
JWW_DASHED1
 62
   120
370
     5
100
AcDbLine
 10
410.787930545369
 20
295.3852916642815
 30
0.0
 11
448.7879305453762
 21
333.3852916642861
 31
0.0
  0
LINE
  5
2A4
330
1F
100
AcDbEntity
  8
0-0
  6
JWW_DASHED1
 62
   120
370
     5
100
AcDbLine
 10
410.787930545369
 20
305.2847865994961
 30
0.0
 11
448.787930545366
 21
343.2847865994939
 31
0.0
  0
LINE
  5
2A5
330
1F
100
AcDbEntity
  8
0-0
  6
JWW_DASHED1
 62
   120
370
     5
100
AcDbLine
 10
410.787930545369
 20
315.1842815347142
 30
0.0
 11
448.7879305453762
 21
353.184281534718
 31
0.0
  0
LINE
  5
2A6
330
1F
100
AcDbEntity
  8
0-0
  6
JWW_DASHED1
 62
   120
370
     5
100
AcDbLine
 10
410.787930545369
 20
325.0837764698713
 30
0.0
 11
448.7879305453762
 21
363.0837764698832
 31
0.0
  0
LINE
  5
2A7
330
1F
100
AcDbEntity
  8
0-0
  6
JWW_DASHED1
 62
   120
370
     5
100
AcDbLine
 10
410.787930545369
 20
334.9832714050889
 30
0.0
 11
448.7879305453694
 21
372.983271405091
 31
0.0
  0
LINE
  5
2A8
330
1F
100
AcDbEntity
  8
0-0
  6
JWW_DASHED1
 62
   120
370
     5
100
AcDbLine
 10
410.787930545369
 20
344.8827663403031
 30
0.0
 11
448.7879305453762
 21
382.882766340315
 31
0.0
  0
LINE
  5
2A9
330
1F
100
AcDbEntity
  8
0-0
  6
JWW_DASHED1
 62
   120
370
     5
100
AcDbLine
 10
410.787930545369
 20
354.7822612754726
 30
0.0
 11
448.7879305453797
 21
392.7822612754798
 31
0.0
  0
LINE
  5
2AA
330
1F
100
AcDbEntity
  8
0-0
  6
JWW_DASHED1
 62
   120
370
     5
100
AcDbLine
 10
410.787930545369
 20
364.6817562106826
 30
0.0
 11
448.7879305453728
 21
402.681756210688
 31
0.0
  0
LINE
  5
2AB
330
1F
100
AcDbEntity
  8
0-0
  6
JWW_DASHED1
 62
   120
370
     5
100
AcDbLine
 10
410.787930545369
 20
374.5812511458989
 30
0.0
 11
448.7879305453626
 21
412.5812511458959
 31
0.0
  0
LINE
  5
2AC
330
1F
100
AcDbEntity
  8
0-0
  6
JWW_DASHED1
 62
   120
370
     5
100
AcDbLine
 10
410.787930545369
 20
384.4807460810607
 30
0.0
 11
448.787930545366
 21
422.4807460810611
 31
0.0
  0
LINE
  5
2AD
330
1F
100
AcDbEntity
  8
0-0
  6
JWW_DASHED1
 62
   120
370
     5
100
AcDbLine
 10
410.787930545369
 20
394.3802410162839
 30
0.0
 11
448.7879305453762
 21
432.3802410162847
 31
0.0
  0
LINE
  5
2AE
330
1F
100
AcDbEntity
  8
0-0
  6
JWW_DASHED1
 62
   120
370
     5
100
AcDbLine
 10
410.787930545369
 20
404.2797359514993
 30
0.0
 11
448.787930545366
 21
442.279735951493
 31
0.0
  0
LINE
  5
2AF
330
1F
100
AcDbEntity
  8
0-0
  6
JWW_DASHED1
 62
   120
370
     5
100
AcDbLine
 10
410.787930545369
 20
414.1792308866548
 30
0.0
 11
448.7879305453694
 21
452.1792308866577
 31
0.0
  0
LINE
  5
2B0
330
1F
100
AcDbEntity
  8
0-0
  6
JWW_DASHED1
 62
   120
370
     5
100
AcDbLine
 10
410.787930545369
 20
424.0787258218737
 30
0.0
 11
448.7879305453762
 21
462.0787258218817
 31
0.0
  0
LINE
  5
2B1
330
1F
100
AcDbEntity
  8
0-0
  6
JWW_DASHED1
 62
   120
370
     5
100
AcDbLine
 10
410.787930545369
 20
433.9782207570665
 30
0.0
 11
448.787930545366
 21
471.9782207570602
 31
0.0
  0
LINE
  5
2B2
330
1F
100
AcDbEntity
  8
0-0
  6
JWW_DASHED1
 62
   120
370
     5
100
AcDbLine
 10
410.787930545369
 20
443.8777156922509
 30
0.0
 11
448.7879305453694
 21
481.8777156922548
 31
0.0
  0
LINE
  5
2B3
330
1F
100
AcDbEntity
  8
0-0
  6
JWW_DASHED1
 62
   120
370
     5
100
AcDbLine
 10
410.787930545369
 20
453.7772106274664
 30
0.0
 11
448.7879305453797
 21
491.7772106274788
 31
0.0
  0
LINE
  5
2B4
330
1F
100
AcDbEntity
  8
0-0
  6
JWW_DASHED1
 62
   120
370
     5
100
AcDbLine
 10
410.787930545369
 20
463.6767055626333
 30
0.0
 11
448.787930545366
 21
501.6767055626278
 31
0.0
  0
LINE
  5
2B5
330
1F
100
AcDbEntity
  8
0-0
  6
JWW_DASHED1
 62
   120
370
     5
100
AcDbLine
 10
410.787930545369
 20
473.5762004978433
 30
0.0
 11
448.7879305453728
 21
511.5762004978518
 31
0.0
  0
LINE
  5
2B6
330
1F
100
AcDbEntity
  8
0-0
  6
JWW_DASHED1
 62
   120
370
     5
100
AcDbLine
 10
410.787930545369
 20
483.4756954330618
 30
0.0
 11
448.787930545366
 21
521.4756954330596
 31
0.0
  0
LINE
  5
2B7
330
1F
100
AcDbEntity
  8
0-0
  6
JWW_DASHED1
 62
   120
370
     5
100
AcDbLine
 10
410.787930545369
 20
493.3751903682299
 30
0.0
 11
448.7879305453694
 21
531.3751903682248
 31
0.0
  0
LINE
  5
2B8
330
1F
100
AcDbEntity
  8
0-0
  6
JWW_DASHED1
 62
   120
370
     5
100
AcDbLine
 10
410.787930545369
 20
503.2746853034378
 30
0.0
 11
448.7879305453762
 21
541.2746853034485
 31
0.0
  0
LINE
  5
2B9
330
1F
100
AcDbEntity
  8
0-0
  6
JWW_DASHED1
 62
   120
370
     5
100
AcDbLine
 10
410.787930545369
 20
513.1741802386626
 30
0.0
 11
448.7879305453694
 21
551.1741802386566
 31
0.0
  0
LINE
  5
2BA
330
1F
100
AcDbEntity
  8
0-0
  6
JWW_DASHED1
 62
   120
370
     5
100
AcDbLine
 10
410.787930545369
 20
523.073675173813
 30
0.0
 11
448.7879305453694
 21
561.0736751738215
 31
0.0
  0
LINE
  5
2BB
330
1F
100
AcDbEntity
  8
0-0
  6
JWW_DASHED1
 62
   120
370
     5
100
AcDbLine
 10
410.787930545369
 20
532.9731701090327
 30
0.0
 11
448.7879305453626
 21
570.9731701090298
 31
0.0
  0
LINE
  5
2BC
330
1F
100
AcDbEntity
  8
0-0
  6
JWW_DASHED1
 62
   120
370
     5
100
AcDbLine
 10
410.787930545369
 20
542.872665044252
 30
0.0
 11
448.7879305453694
 21
580.8726650442533
 31
0.0
  0
LINE
  5
2BD
330
1F
100
AcDbEntity
  8
0-0
  6
JWW_DASHED1
 62
   120
370
     5
100
AcDbLine
 10
410.787930545369
 20
552.7721599794138
 30
0.0
 11
448.7879305453728
 21
590.7721599794185
 31
0.0
  0
LINE
  5
2BE
330
1F
100
AcDbEntity
  8
0-0
  6
JWW_DASHED1
 62
   120
370
     5
100
AcDbLine
 10
410.787930545369
 20
562.6716549146323
 30
0.0
 11
448.787930545366
 21
600.6716549146267
 31
0.0
  0
LINE
  5
2BF
330
1F
100
AcDbEntity
  8
0-0
  6
JWW_DASHED1
 62
   120
370
     5
100
AcDbLine
 10
410.787930545369
 20
572.5711498498448
 30
0.0
 11
448.7879305453728
 21
610.5711498498504
 31
0.0
  0
LINE
  5
2C0
330
1F
100
AcDbEntity
  8
0-0
  6
JWW_DASHED1
 62
   120
370
     5
100
AcDbLine
 10
410.787930545369
 20
582.4706447850066
 30
0.0
 11
448.7879305453762
 21
620.4706447850156
 31
0.0
  0
LINE
  5
2C1
330
1F
100
AcDbEntity
  8
0-0
  6
JWW_DASHED1
 62
   120
370
     5
100
AcDbLine
 10
410.787930545369
 20
592.3701397202263
 30
0.0
 11
448.7879305453694
 21
630.3701397202234
 31
0.0
  0
LINE
  5
2C2
330
1F
100
AcDbEntity
  8
0-0
  6
JWW_DASHED1
 62
   120
370
     5
100
AcDbLine
 10
410.787930545369
 20
602.2696346554453
 30
0.0
 11
448.7879305453762
 21
640.2696346554474
 31
0.0
  0
LINE
  5
2C3
330
1F
100
AcDbEntity
  8
0-0
  6
JWW_DASHED1
 62
   120
370
     5
100
AcDbLine
 10
410.787930545369
 20
612.1691295905969
 30
0.0
 11
448.7879305453762
 21
650.1691295906121
 31
0.0
  0
LINE
  5
2C4
330
1F
100
AcDbEntity
  8
0-0
  6
JWW_DASHED1
 62
   120
370
     5
100
AcDbLine
 10
410.787930545369
 20
622.0686245258166
 30
0.0
 11
448.7879305453694
 21
660.0686245258204
 31
0.0
  0
LINE
  5
2C5
330
1F
100
AcDbEntity
  8
0-0
  6
JWW_DASHED1
 62
   120
370
     5
100
AcDbLine
 10
410.787930545369
 20
631.9681194610355
 30
0.0
 11
448.7879305453762
 21
669.9681194610445
 31
0.0
  0
LINE
  5
2C6
330
1F
100
AcDbEntity
  8
0-0
  6
JWW_DASHED1
 62
   120
370
     5
100
AcDbLine
 10
410.787930545369
 20
641.8676143961948
 30
0.0
 11
448.7879305453797
 21
679.867614396207
 31
0.0
  0
LINE
  5
2C7
330
1F
100
AcDbEntity
  8
0-0
  6
JWW_DASHED1
 62
   120
370
     5
100
AcDbLine
 10
410.787930545369
 20
651.7671093314162
 30
0.0
 11
448.7879305453728
 21
689.7671093314175
 31
0.0
  0
LINE
  5
2C8
330
1F
100
AcDbEntity
  8
0-0
  6
JWW_DASHED1
 62
   120
370
     5
100
AcDbLine
 10
410.787930545369
 20
661.6666042666283
 30
0.0
 11
448.7879305453626
 21
699.6666042666253
 31
0.0
  0
LINE
  5
2C9
330
1F
100
AcDbEntity
  8
0-0
  6
JWW_DASHED1
 62
   120
370
     5
100
AcDbLine
 10
410.787930545369
 20
671.5660992017956
 30
0.0
 11
448.7879305453694
 21
709.5660992017905
 31
0.0
  0
LINE
  5
2CA
330
1F
100
AcDbEntity
  8
0-0
  6
JWW_DASHED1
 62
   120
370
     5
100
AcDbLine
 10
410.787930545369
 20
681.4655941370103
 30
0.0
 11
448.7879305453762
 21
719.465594137014
 31
0.0
  0
LINE
  5
2CB
330
1F
100
AcDbEntity
  8
0-0
  6
JWW_DASHED1
 62
   120
370
     5
100
AcDbLine
 10
410.787930545369
 20
691.365089072222
 30
0.0
 11
448.787930545366
 21
729.3650890722223
 31
0.0
  0
LINE
  5
2CC
330
1F
100
AcDbEntity
  8
0-0
  6
JWW_DASHED1
 62
   120
370
     5
100
AcDbLine
 10
410.787930545369
 20
701.2645840073858
 30
0.0
 11
448.7879305453694
 21
739.2645840073867
 31
0.0
  0
LINE
  5
2CD
330
1F
100
AcDbEntity
  8
0-0
  6
JWW_DASHED1
 62
   120
370
     5
100
AcDbLine
 10
410.787930545369
 20
711.1640789426001
 30
0.0
 11
448.7879305453762
 21
749.1640789426111
 31
0.0
  0
LINE
  5
2CE
330
1F
100
AcDbEntity
  8
0-0
  6
JWW_DASHED1
 62
   120
370
     5
100
AcDbLine
 10
410.787930545369
 20
721.0635738778172
 30
0.0
 11
448.7879305453694
 21
759.0635738778194
 31
0.0
  0
LINE
  5
2CF
330
1F
100
AcDbEntity
  8
0-0
  6
JWW_DASHED1
 62
   120
370
     5
100
AcDbLine
 10
410.787930545369
 20
730.9630688129795
 30
0.0
 11
448.7879305453728
 21
768.9630688129841
 31
0.0
  0
LINE
  5
2D0
330
1F
100
AcDbEntity
  8
0-0
  6
JWW_DASHED1
 62
   120
370
     5
100
AcDbLine
 10
410.787930545369
 20
740.8625637482005
 30
0.0
 11
448.7879305453797
 21
778.8625637482078
 31
0.0
  0
LINE
  5
2D1
330
1F
100
AcDbEntity
  8
0-0
  6
JWW_DASHED1
 62
   120
370
     5
100
AcDbLine
 10
410.787930545369
 20
750.7620586834075
 30
0.0
 11
448.7879305453694
 21
788.762058683416
 31
0.0
  0
LINE
  5
2D2
330
1F
100
AcDbEntity
  8
0-0
  6
JWW_DASHED1
 62
   120
370
     5
100
AcDbLine
 10
410.787930545369
 20
760.6615536185795
 30
0.0
 11
448.7879305453762
 21
798.6615536185811
 31
0.0
  0
LINE
  5
2D3
330
1F
100
AcDbEntity
  8
0-0
  6
JWW_DASHED1
 62
   120
370
     5
100
AcDbLine
 10
410.787930545369
 20
770.5610485537954
 30
0.0
 11
448.787930545366
 21
808.5610485537886
 31
0.0
  0
LINE
  5
2D4
330
1F
100
AcDbEntity
  8
0-0
  6
JWW_DASHED1
 62
   120
370
     5
100
AcDbLine
 10
410.787930545369
 20
780.4605434890123
 30
0.0
 11
448.7879305453762
 21
818.460543489013
 31
0.0
  0
LINE
  5
2D5
330
1F
100
AcDbEntity
  8
0-0
  6
JWW_DASHED1
 62
   120
370
     5
100
AcDbLine
 10
410.787930545369
 20
790.3600384241697
 30
0.0
 11
448.7879305453762
 21
828.3600384241778
 31
0.0
  0
LINE
  5
2D6
330
1F
100
AcDbEntity
  8
0-0
  6
JWW_DASHED1
 62
   120
370
     5
100
AcDbLine
 10
410.787930545369
 20
800.259533359389
 30
0.0
 11
448.7879305453694
 21
838.2595333593861
 31
0.0
  0
LINE
  5
2D7
330
1F
100
AcDbEntity
  8
0-0
  6
JWW_DASHED1
 62
   120
370
     5
100
AcDbLine
 10
410.787930545369
 20
810.1590282946016
 30
0.0
 11
448.7879305453762
 21
848.1590282946097
 31
0.0
  0
LINE
  5
2D8
330
1F
100
AcDbEntity
  8
0-0
  6
JWW_DASHED1
 62
   120
370
     5
100
AcDbLine
 10
410.787930545369
 20
820.0585232297617
 30
0.0
 11
448.7879305453626
 21
858.0585232297591
 31
0.0
  0
LINE
  5
2D9
330
1F
100
AcDbEntity
  8
0-0
  6
JWW_DASHED1
 62
   120
370
     5
100
AcDbLine
 10
410.787930545369
 20
829.9580181649781
 30
0.0
 11
448.7879305453694
 21
867.9580181649831
 31
0.0
  0
LINE
  5
2DA
330
1F
100
AcDbEntity
  8
0-0
  6
JWW_DASHED1
 62
   120
370
     5
100
AcDbLine
 10
410.787930545369
 20
839.8575131001952
 30
0.0
 11
448.7879305453797
 21
877.8575131002067
 31
0.0
  0
LINE
  5
2DB
330
1F
100
AcDbEntity
  8
0-0
  6
JWW_DASHED1
 62
   120
370
     5
100
AcDbLine
 10
410.787930545369
 20
849.7570080353621
 30
0.0
 11
448.787930545366
 21
887.7570080353557
 31
0.0
  0
LINE
  5
2DC
330
1F
100
AcDbEntity
  8
0-0
  6
JWW_DASHED1
 62
   120
370
     5
100
AcDbLine
 10
410.787930545369
 20
859.6565029705725
 30
0.0
 11
448.7879305453728
 21
897.6565029705797
 31
0.0
  0
LINE
  5
2DD
330
1F
100
AcDbEntity
  8
0-0
  6
JWW_DASHED1
 62
   120
370
     5
100
AcDbLine
 10
410.787930545369
 20
869.5559979057948
 30
0.0
 11
448.7879305453831
 21
907.5559979058033
 31
0.0
  0
LINE
  5
2DE
330
1F
100
AcDbEntity
  8
0-0
  6
JWW_DASHED1
 62
   120
370
     5
100
AcDbLine
 10
410.787930545369
 20
879.4554928409588
 30
0.0
 11
448.7879305453694
 21
917.4554928409527
 31
0.0
  0
LINE
  5
2DF
330
1F
100
AcDbEntity
  8
0-0
  6
JWW_DASHED1
 62
   120
370
     5
100
AcDbLine
 10
410.787930545369
 20
889.3549877761661
 30
0.0
 11
448.7879305453762
 21
927.3549877761768
 31
0.0
  0
LINE
  5
2E0
330
1F
100
AcDbEntity
  8
0-0
  6
JWW_DASHED1
 62
   120
370
     5
100
AcDbLine
 10
410.787930545369
 20
899.2544827113902
 30
0.0
 11
448.7879305453694
 21
937.2544827113846
 31
0.0
  0
LINE
  5
2E1
330
1F
100
AcDbEntity
  8
0-0
  6
JWW_DASHED1
 62
   120
370
     5
100
AcDbLine
 10
410.787930545369
 20
919.0534725817704
 30
0.0
 11
448.7879305453694
 21
957.0534725817594
 31
0.0
  0
LINE
  5
2E2
330
1F
100
AcDbEntity
  8
0-0
  6
JWW_DASHED1
 62
   120
370
     5
100
AcDbLine
 10
410.787930545369
 20
909.153977646552
 30
0.0
 11
448.7879305453694
 21
947.1539776465455
 31
0.0
  0
LINE
  5
2E3
330
1F
100
AcDbEntity
  8
0-0
  6
JWW_DASHED1
 62
   120
370
     5
100
AcDbLine
 10
410.787930545369
 20
-922.2525853649901
 30
0.0
 11
448.787930545366
 21
-884.2525853649901
 31
0.0
  0
LINE
  5
2E4
330
1F
100
AcDbEntity
  8
0-0
  6
JWW_DASHED1
 62
   120
370
     5
100
AcDbLine
 10
410.787930545369
 20
-932.1520803001548
 30
0.0
 11
448.787930545366
 21
-894.1520803001547
 31
0.0
  0
LINE
  5
2E5
330
1F
100
AcDbEntity
  8
0-0
  6
JWW_DASHED1
 62
   120
370
     5
100
AcDbLine
 10
410.787930545369
 20
-942.0515752353194
 30
0.0
 11
448.787930545366
 21
-904.0515752353197
 31
0.0
  0
LINE
  5
2E6
330
1F
100
AcDbEntity
  8
0-0
  6
JWW_DASHED1
 62
   120
370
     5
100
AcDbLine
 10
413.5886111246143
 20
-949.1503895912385
 30
0.0
 11
448.787930545366
 21
-913.9510701704844
 31
0.0
  0
LINE
  5
2E7
330
1F
100
AcDbEntity
  8
0-0
  6
JWW_DASHED1
 62
   120
370
     5
100
AcDbLine
 10
443.2870959301064
 20
-949.1503895912385
 30
0.0
 11
448.787930545366
 21
-943.6495549759787
 31
0.0
  0
LINE
  5
2E8
330
1F
100
AcDbEntity
  8
0-0
  6
JWW_DASHED1
 62
   120
370
     5
100
AcDbLine
 10
423.4881060597786
 20
-949.1503895912385
 30
0.0
 11
448.787930545366
 21
-923.8505651056491
 31
0.0
  0
LINE
  5
2E9
330
1F
100
AcDbEntity
  8
0-0
  6
JWW_DASHED1
 62
   120
370
     5
100
AcDbLine
 10
433.3876009949429
 20
-949.1503895912385
 30
0.0
 11
448.787930545366
 21
-933.7500600408138
 31
0.0
  0
LINE
  5
2EA
330
1F
100
AcDbEntity
  8
0-0
  6
JWW_DASHED1
 62
   120
370
     5
100
AcDbLine
 10
410.787930545369
 20
928.9529675169889
 30
0.0
 11
448.7879305453694
 21
966.9529675169779
 31
0.0
  0
LINE
  5
2EB
330
1F
100
AcDbEntity
  8
0-0
  6
JWW_DASHED1
 62
   120
370
     5
100
AcDbLine
 10
410.787930545369
 20
938.8524624522074
 30
0.0
 11
448.7879305453694
 21
976.8524624521963
 31
0.0
  0
LINE
  5
2EC
330
1F
100
AcDbEntity
  8
0-0
  6
JWW_DASHED1
 62
   120
370
     5
100
AcDbLine
 10
410.787930545369
 20
948.7519573874259
 30
0.0
 11
448.7879305453694
 21
986.7519573874148
 31
0.0
  0
LINE
  5
2ED
330
1F
100
AcDbEntity
  8
0-0
  6
JWW_DASHED1
 62
   120
370
     5
100
AcDbLine
 10
410.787930545369
 20
958.651452322644
 30
0.0
 11
448.7879305453694
 21
996.6514523226333
 31
0.0
  0
LINE
  5
2EE
330
1F
100
AcDbEntity
  8
0-0
  6
JWW_DASHED1
 62
   120
370
     5
100
AcDbLine
 10
410.787930545369
 20
968.5509472578628
 30
0.0
 11
448.7879305453694
 21
1006.550947257852
 31
0.0
  0
LINE
  5
2EF
330
1F
100
AcDbEntity
  8
0-0
  6
JWW_DASHED1
 62
   120
370
     5
100
AcDbLine
 10
410.787930545369
 20
978.4504421930814
 30
0.0
 11
448.7879305453694
 21
1016.45044219307
 31
0.0
  0
LINE
  5
2F0
330
1F
100
AcDbEntity
  8
0-0
  6
JWW_DASHED1
 62
   120
370
     5
100
AcDbLine
 10
410.787930545369
 20
1008.148926998737
 30
0.0
 11
420.4886139553975
 21
1017.849610408762
 31
0.0
  0
LINE
  5
2F1
330
1F
100
AcDbEntity
  8
0-0
  6
JWW_DASHED1
 62
   120
370
     5
100
AcDbLine
 10
410.787930545369
 20
988.3499371282999
 30
0.0
 11
440.2876038258404
 21
1017.849610408762
 31
0.0
  0
LINE
  5
2F2
330
1F
100
AcDbEntity
  8
0-0
  6
JWW_DASHED1
 62
   120
370
     5
100
AcDbLine
 10
410.787930545369
 20
998.2494320635183
 30
0.0
 11
430.3881088906189
 21
1017.849610408762
 31
0.0
  0
LINE
  5
2F3
330
1F
100
AcDbEntity
  8
0-0
  6
Continuous
 62
     7
370
     9
100
AcDbLine
 10
1190.787930545369
 20
-949.1503895912385
 30
0.0
 11
1228.787930545369
 21
-949.1503895912385
 31
0.0
  0
LINE
  5
2F4
330
1F
100
AcDbEntity
  8
0-0
  6
Continuous
 62
    92
370
    13
100
AcDbLine
 10
1190.787930545369
 20
1025.849610408761
 30
0.0
 11
1190.787930545369
 21
-957.1503895912381
 31
0.0
  0
LINE
  5
2F5
330
1F
100
AcDbEntity
  8
0-0
  6
Continuous
 62
    92
370
    13
100
AcDbLine
 10
1228.787930545369
 20
1025.849610408761
 30
0.0
 11
1228.787930545369
 21
-957.1503895912384
 31
0.0
  0
LINE
  5
2F6
330
1F
100
AcDbEntity
  8
0-0
  6
Continuous
 62
     7
370
     9
100
AcDbLine
 10
1190.787930545369
 20
1017.849610408762
 30
0.0
 11
1228.787930545369
 21
1017.849610408762
 31
0.0
  0
LINE
  5
2F7
330
1F
100
AcDbEntity
  8
0-0
  6
JWW_DASHED1
 62
   120
370
     5
100
AcDbLine
 10
1190.787930545369
 20
-912.3530904298253
 30
0.0
 11
1228.787930545366
 21
-874.3530904298253
 31
0.0
  0
LINE
  5
2F8
330
1F
100
AcDbEntity
  8
0-0
  6
JWW_DASHED1
 62
   120
370
     5
100
AcDbLine
 10
1190.787930545369
 20
-902.4535954946635
 30
0.0
 11
1228.787930545369
 21
-864.4535954946606
 31
0.0
  0
LINE
  5
2F9
330
1F
100
AcDbEntity
  8
0-0
  6
JWW_DASHED1
 62
   120
370
     5
100
AcDbLine
 10
1190.787930545369
 20
-892.554100559445
 30
0.0
 11
1228.787930545376
 21
-854.5541005594365
 31
0.0
  0
LINE
  5
2FA
330
1F
100
AcDbEntity
  8
0-0
  6
JWW_DASHED1
 62
   120
370
     5
100
AcDbLine
 10
1190.787930545369
 20
-882.6546056242328
 30
0.0
 11
1228.787930545369
 21
-844.6546056242281
 31
0.0
  0
LINE
  5
2FB
330
1F
100
AcDbEntity
  8
0-0
  6
JWW_DASHED1
 62
   120
370
     5
100
AcDbLine
 10
1190.787930545369
 20
-872.7551106890642
 30
0.0
 11
1228.787930545373
 21
-834.7551106890635
 31
0.0
  0
LINE
  5
2FC
330
1F
100
AcDbEntity
  8
0-0
  6
JWW_DASHED1
 62
   120
370
     5
100
AcDbLine
 10
1190.787930545369
 20
-862.8556157538501
 30
0.0
 11
1228.787930545363
 21
-824.8556157538551
 31
0.0
  0
LINE
  5
2FD
330
1F
100
AcDbEntity
  8
0-0
  6
JWW_DASHED1
 62
   120
370
     5
100
AcDbLine
 10
1190.787930545369
 20
-852.9561208186315
 30
0.0
 11
1228.787930545373
 21
-814.9561208186315
 31
0.0
  0
LINE
  5
2FE
330
1F
100
AcDbEntity
  8
0-0
  6
JWW_DASHED1
 62
   120
370
     5
100
AcDbLine
 10
1190.787930545369
 20
-843.0566258834705
 30
0.0
 11
1228.787930545376
 21
-805.0566258834665
 31
0.0
  0
LINE
  5
2FF
330
1F
100
AcDbEntity
  8
0-0
  6
JWW_DASHED1
 62
   120
370
     5
100
AcDbLine
 10
1190.787930545369
 20
-833.1571309482567
 30
0.0
 11
1228.787930545366
 21
-795.1571309482584
 31
0.0
  0
LINE
  5
300
330
1F
100
AcDbEntity
  8
0-0
  6
JWW_DASHED1
 62
   120
370
     5
100
AcDbLine
 10
1190.787930545369
 20
-823.2576360130392
 30
0.0
 11
1228.787930545376
 21
-785.2576360130344
 31
0.0
  0
LINE
  5
301
330
1F
100
AcDbEntity
  8
0-0
  6
JWW_DASHED1
 62
   120
370
     5
100
AcDbLine
 10
1190.787930545369
 20
-813.3581410778767
 30
0.0
 11
1228.787930545363
 21
-775.3581410778854
 31
0.0
  0
LINE
  5
302
330
1F
100
AcDbEntity
  8
0-0
  6
JWW_DASHED1
 62
   120
370
     5
100
AcDbLine
 10
1190.787930545369
 20
-803.458646142663
 30
0.0
 11
1228.787930545369
 21
-765.4586461426618
 31
0.0
  0
LINE
  5
303
330
1F
100
AcDbEntity
  8
0-0
  6
JWW_DASHED1
 62
   120
370
     5
100
AcDbLine
 10
1190.787930545369
 20
-793.5591512074491
 30
0.0
 11
1228.787930545376
 21
-755.5591512074377
 31
0.0
  0
LINE
  5
304
330
1F
100
AcDbEntity
  8
0-0
  6
JWW_DASHED1
 62
   120
370
     5
100
AcDbLine
 10
1190.787930545369
 20
-783.6596562722857
 30
0.0
 11
1228.787930545363
 21
-745.6596562722885
 31
0.0
  0
LINE
  5
305
330
1F
100
AcDbEntity
  8
0-0
  6
JWW_DASHED1
 62
   120
370
     5
100
AcDbLine
 10
1190.787930545369
 20
-773.7601613370734
 30
0.0
 11
1228.787930545369
 21
-735.7601613370646
 31
0.0
  0
LINE
  5
306
330
1F
100
AcDbEntity
  8
0-0
  6
JWW_DASHED1
 62
   120
370
     5
100
AcDbLine
 10
1190.787930545369
 20
-763.8606664019004
 30
0.0
 11
1228.787930545376
 21
-725.8606664019
 31
0.0
  0
LINE
  5
307
330
1F
100
AcDbEntity
  8
0-0
  6
JWW_DASHED1
 62
   120
370
     5
100
AcDbLine
 10
1190.787930545369
 20
-753.9611714666853
 30
0.0
 11
1228.787930545366
 21
-715.9611714666916
 31
0.0
  0
LINE
  5
308
330
1F
100
AcDbEntity
  8
0-0
  6
JWW_DASHED1
 62
   120
370
     5
100
AcDbLine
 10
1190.787930545369
 20
-744.061676531473
 30
0.0
 11
1228.787930545373
 21
-706.0616765314679
 31
0.0
  0
LINE
  5
309
330
1F
100
AcDbEntity
  8
0-0
  6
JWW_DASHED1
 62
   120
370
     5
100
AcDbLine
 10
1190.787930545369
 20
-734.1621815963113
 30
0.0
 11
1228.787930545376
 21
-696.1621815963027
 31
0.0
  0
LINE
  5
30A
330
1F
100
AcDbEntity
  8
0-0
  6
JWW_DASHED1
 62
   120
370
     5
100
AcDbLine
 10
1190.787930545369
 20
-724.2626866610913
 30
0.0
 11
1228.787930545369
 21
-686.2626866610949
 31
0.0
  0
LINE
  5
30B
330
1F
100
AcDbEntity
  8
0-0
  6
JWW_DASHED1
 62
   120
370
     5
100
AcDbLine
 10
1190.787930545369
 20
-714.3631917258798
 30
0.0
 11
1228.787930545376
 21
-676.3631917258708
 31
0.0
  0
LINE
  5
30C
330
1F
100
AcDbEntity
  8
0-0
  6
JWW_DASHED1
 62
   120
370
     5
100
AcDbLine
 10
1190.787930545369
 20
-704.4636967907165
 30
0.0
 11
1228.787930545363
 21
-666.4636967907217
 31
0.0
  0
LINE
  5
30D
330
1F
100
AcDbEntity
  8
0-0
  6
JWW_DASHED1
 62
   120
370
     5
100
AcDbLine
 10
1190.787930545369
 20
-694.5642018555022
 30
0.0
 11
1228.787930545369
 21
-656.5642018554978
 31
0.0
  0
LINE
  5
30E
330
1F
100
AcDbEntity
  8
0-0
  6
JWW_DASHED1
 62
   120
370
     5
100
AcDbLine
 10
1190.787930545369
 20
-684.664706920287
 30
0.0
 11
1228.787930545363
 21
-646.6647069202897
 31
0.0
  0
LINE
  5
30F
330
1F
100
AcDbEntity
  8
0-0
  6
JWW_DASHED1
 62
   120
370
     5
100
AcDbLine
 10
1190.787930545369
 20
-674.7652119851231
 30
0.0
 11
1228.787930545366
 21
-636.7652119851248
 31
0.0
  0
LINE
  5
310
330
1F
100
AcDbEntity
  8
0-0
  6
JWW_DASHED1
 62
   120
370
     5
100
AcDbLine
 10
1190.787930545369
 20
-664.8657170499084
 30
0.0
 11
1228.787930545373
 21
-626.865717049901
 31
0.0
  0
LINE
  5
311
330
1F
100
AcDbEntity
  8
0-0
  6
JWW_DASHED1
 62
   120
370
     5
100
AcDbLine
 10
1190.787930545369
 20
-654.9662221146914
 30
0.0
 11
1228.787930545366
 21
-616.9662221146928
 31
0.0
  0
LINE
  5
312
330
1F
100
AcDbEntity
  8
0-0
  6
JWW_DASHED1
 62
   120
370
     5
100
AcDbLine
 10
1190.787930545369
 20
-645.066727179522
 30
0.0
 11
1228.787930545369
 21
-607.066727179528
 31
0.0
  0
LINE
  5
313
330
1F
100
AcDbEntity
  8
0-0
  6
JWW_DASHED1
 62
   120
370
     5
100
AcDbLine
 10
1190.787930545369
 20
-635.1672322443152
 30
0.0
 11
1228.787930545376
 21
-597.1672322443039
 31
0.0
  0
LINE
  5
314
330
1F
100
AcDbEntity
  8
0-0
  6
JWW_DASHED1
 62
   120
370
     5
100
AcDbLine
 10
1190.787930545369
 20
-625.2677373090905
 30
0.0
 11
1228.787930545369
 21
-587.2677373090959
 31
0.0
  0
LINE
  5
315
330
1F
100
AcDbEntity
  8
0-0
  6
JWW_DASHED1
 62
   120
370
     5
100
AcDbLine
 10
1190.787930545369
 20
-615.3682423739326
 30
0.0
 11
1228.787930545369
 21
-577.3682423739309
 31
0.0
  0
LINE
  5
316
330
1F
100
AcDbEntity
  8
0-0
  6
JWW_DASHED1
 62
   120
370
     5
100
AcDbLine
 10
1190.787930545369
 20
-605.4687474387184
 30
0.0
 11
1228.787930545376
 21
-567.4687474387072
 31
0.0
  0
LINE
  5
317
330
1F
100
AcDbEntity
  8
0-0
  6
JWW_DASHED1
 62
   120
370
     5
100
AcDbLine
 10
1190.787930545369
 20
-595.5692525035006
 30
0.0
 11
1228.787930545369
 21
-557.5692525034989
 31
0.0
  0
LINE
  5
318
330
1F
100
AcDbEntity
  8
0-0
  6
JWW_DASHED1
 62
   120
370
     5
100
AcDbLine
 10
1190.787930545369
 20
-585.6697575683392
 30
0.0
 11
1228.787930545373
 21
-547.6697575683341
 31
0.0
  0
LINE
  5
319
330
1F
100
AcDbEntity
  8
0-0
  6
JWW_DASHED1
 62
   120
370
     5
100
AcDbLine
 10
1190.787930545369
 20
-575.7702626331198
 30
0.0
 11
1228.787930545366
 21
-537.7702626331261
 31
0.0
  0
LINE
  5
31A
330
1F
100
AcDbEntity
  8
0-0
  6
JWW_DASHED1
 62
   120
370
     5
100
AcDbLine
 10
1190.787930545369
 20
-565.8707676979071
 30
0.0
 11
1228.787930545373
 21
-527.870767697902
 31
0.0
  0
LINE
  5
31B
330
1F
100
AcDbEntity
  8
0-0
  6
JWW_DASHED1
 62
   120
370
     5
100
AcDbLine
 10
1190.787930545369
 20
-555.9712727627456
 30
0.0
 11
1228.787930545376
 21
-517.971272762737
 31
0.0
  0
LINE
  5
31C
330
1F
100
AcDbEntity
  8
0-0
  6
JWW_DASHED1
 62
   120
370
     5
100
AcDbLine
 10
1190.787930545369
 20
-546.0717778275263
 30
0.0
 11
1228.787930545369
 21
-508.071777827529
 31
0.0
  0
LINE
  5
31D
330
1F
100
AcDbEntity
  8
0-0
  6
JWW_DASHED1
 62
   120
370
     5
100
AcDbLine
 10
1190.787930545369
 20
-536.1722828923063
 30
0.0
 11
1228.787930545376
 21
-498.1722828923054
 31
0.0
  0
LINE
  5
31E
330
1F
100
AcDbEntity
  8
0-0
  6
JWW_DASHED1
 62
   120
370
     5
100
AcDbLine
 10
1190.787930545369
 20
-526.2727879571536
 30
0.0
 11
1228.787930545363
 21
-488.272787957156
 31
0.0
  0
LINE
  5
31F
330
1F
100
AcDbEntity
  8
0-0
  6
JWW_DASHED1
 62
   120
370
     5
100
AcDbLine
 10
1190.787930545369
 20
-516.3732930219367
 30
0.0
 11
1228.787930545369
 21
-478.3732930219322
 31
0.0
  0
LINE
  5
320
330
1F
100
AcDbEntity
  8
0-0
  6
JWW_DASHED1
 62
   120
370
     5
100
AcDbLine
 10
1190.787930545369
 20
-506.4737980867169
 30
0.0
 11
1228.787930545376
 21
-468.4737980867079
 31
0.0
  0
LINE
  5
321
330
1F
100
AcDbEntity
  8
0-0
  6
JWW_DASHED1
 62
   120
370
     5
100
AcDbLine
 10
1190.787930545369
 20
-496.5743031515566
 30
0.0
 11
1228.787930545363
 21
-458.574303151559
 31
0.0
  0
LINE
  5
322
330
1F
100
AcDbEntity
  8
0-0
  6
JWW_DASHED1
 62
   120
370
     5
100
AcDbLine
 10
1190.787930545369
 20
-486.6748082163371
 30
0.0
 11
1228.787930545373
 21
-448.6748082163349
 31
0.0
  0
LINE
  5
323
330
1F
100
AcDbEntity
  8
0-0
  6
JWW_DASHED1
 62
   120
370
     5
100
AcDbLine
 10
1190.787930545369
 20
-476.7753132811224
 30
0.0
 11
1228.787930545363
 21
-438.7753132811271
 31
0.0
  0
LINE
  5
324
330
1F
100
AcDbEntity
  8
0-0
  6
JWW_DASHED1
 62
   120
370
     5
100
AcDbLine
 10
1190.787930545369
 20
-466.8758183459568
 30
0.0
 11
1228.787930545369
 21
-428.8758183459619
 31
0.0
  0
LINE
  5
325
330
1F
100
AcDbEntity
  8
0-0
  6
JWW_DASHED1
 62
   120
370
     5
100
AcDbLine
 10
1190.787930545369
 20
-456.9763234107426
 30
0.0
 11
1228.787930545376
 21
-418.9763234107387
 31
0.0
  0
LINE
  5
326
330
1F
100
AcDbEntity
  8
0-0
  6
JWW_DASHED1
 62
   120
370
     5
100
AcDbLine
 10
1190.787930545369
 20
-447.0768284755283
 30
0.0
 11
1228.787930545366
 21
-409.0768284755305
 31
0.0
  0
LINE
  5
327
330
1F
100
AcDbEntity
  8
0-0
  6
JWW_DASHED1
 62
   120
370
     5
100
AcDbLine
 10
1190.787930545369
 20
-437.1773335403665
 30
0.0
 11
1228.787930545369
 21
-399.1773335403653
 31
0.0
  0
LINE
  5
328
330
1F
100
AcDbEntity
  8
0-0
  6
JWW_DASHED1
 62
   120
370
     5
100
AcDbLine
 10
1190.787930545369
 20
-427.2778386051472
 30
0.0
 11
1228.787930545363
 21
-389.2778386051571
 31
0.0
  0
LINE
  5
329
330
1F
100
AcDbEntity
  8
0-0
  6
JWW_DASHED1
 62
   120
370
     5
100
AcDbLine
 10
1190.787930545369
 20
-417.3783436699347
 30
0.0
 11
1228.787930545369
 21
-379.3783436699334
 31
0.0
  0
LINE
  5
32A
330
1F
100
AcDbEntity
  8
0-0
  6
JWW_DASHED1
 62
   120
370
     5
100
AcDbLine
 10
1190.787930545369
 20
-407.4788487347724
 30
0.0
 11
1228.787930545373
 21
-369.4788487347687
 31
0.0
  0
LINE
  5
32B
330
1F
100
AcDbEntity
  8
0-0
  6
JWW_DASHED1
 62
   120
370
     5
100
AcDbLine
 10
1190.787930545369
 20
-397.5793537995591
 30
0.0
 11
1228.787930545363
 21
-359.57935379956
 31
0.0
  0
LINE
  5
32C
330
1F
100
AcDbEntity
  8
0-0
  6
JWW_DASHED1
 62
   120
370
     5
100
AcDbLine
 10
1190.787930545369
 20
-387.6798588643385
 30
0.0
 11
1228.787930545369
 21
-349.6798588643364
 31
0.0
  0
LINE
  5
32D
330
1F
100
AcDbEntity
  8
0-0
  6
JWW_DASHED1
 62
   120
370
     5
100
AcDbLine
 10
1190.787930545369
 20
-377.7803639291724
 30
0.0
 11
1228.787930545376
 21
-339.7803639291716
 31
0.0
  0
LINE
  5
32E
330
1F
100
AcDbEntity
  8
0-0
  6
JWW_DASHED1
 62
   120
370
     5
100
AcDbLine
 10
1190.787930545369
 20
-367.8808689939574
 30
0.0
 11
1228.787930545366
 21
-329.8808689939638
 31
0.0
  0
LINE
  5
32F
330
1F
100
AcDbEntity
  8
0-0
  6
JWW_DASHED1
 62
   120
370
     5
100
AcDbLine
 10
1190.787930545369
 20
-357.9813740587444
 30
0.0
 11
1228.787930545373
 21
-319.9813740587398
 31
0.0
  0
LINE
  5
330
330
1F
100
AcDbEntity
  8
0-0
  6
JWW_DASHED1
 62
   120
370
     5
100
AcDbLine
 10
1190.787930545369
 20
-348.0818791235835
 30
0.0
 11
1228.787930545376
 21
-310.0818791235746
 31
0.0
  0
LINE
  5
331
330
1F
100
AcDbEntity
  8
0-0
  6
JWW_DASHED1
 62
   120
370
     5
100
AcDbLine
 10
1190.787930545369
 20
-338.1823841883637
 30
0.0
 11
1228.787930545369
 21
-300.1823841883668
 31
0.0
  0
LINE
  5
332
330
1F
100
AcDbEntity
  8
0-0
  6
JWW_DASHED1
 62
   120
370
     5
100
AcDbLine
 10
1190.787930545369
 20
-328.2828892531517
 30
0.0
 11
1228.787930545376
 21
-290.2828892531427
 31
0.0
  0
LINE
  5
333
330
1F
100
AcDbEntity
  8
0-0
  6
JWW_DASHED1
 62
   120
370
     5
100
AcDbLine
 10
1190.787930545369
 20
-318.3833943179839
 30
0.0
 11
1228.787930545369
 21
-280.3833943179882
 31
0.0
  0
LINE
  5
334
330
1F
100
AcDbEntity
  8
0-0
  6
JWW_DASHED1
 62
   120
370
     5
100
AcDbLine
 10
1190.787930545369
 20
-308.4838993827735
 30
0.0
 11
1228.787930545369
 21
-270.4838993827697
 31
0.0
  0
LINE
  5
335
330
1F
100
AcDbEntity
  8
0-0
  6
JWW_DASHED1
 62
   120
370
     5
100
AcDbLine
 10
1190.787930545369
 20
-298.5844044475597
 30
0.0
 11
1228.787930545363
 21
-260.5844044475614
 31
0.0
  0
LINE
  5
336
330
1F
100
AcDbEntity
  8
0-0
  6
JWW_DASHED1
 62
   120
370
     5
100
AcDbLine
 10
1190.787930545369
 20
-288.6849095123954
 30
0.0
 11
1228.787930545366
 21
-250.6849095123967
 31
0.0
  0
LINE
  5
337
330
1F
100
AcDbEntity
  8
0-0
  6
JWW_DASHED1
 62
   120
370
     5
100
AcDbLine
 10
1190.787930545369
 20
-278.785414577173
 30
0.0
 11
1228.787930545373
 21
-240.7854145771726
 31
0.0
  0
LINE
  5
338
330
1F
100
AcDbEntity
  8
0-0
  6
JWW_DASHED1
 62
   120
370
     5
100
AcDbLine
 10
1190.787930545369
 20
-268.8859196419584
 30
0.0
 11
1228.787930545366
 21
-230.8859196419648
 31
0.0
  0
LINE
  5
339
330
1F
100
AcDbEntity
  8
0-0
  6
JWW_DASHED1
 62
   120
370
     5
100
AcDbLine
 10
1190.787930545369
 20
-258.9864247067945
 30
0.0
 11
1228.787930545369
 21
-220.9864247067996
 31
0.0
  0
LINE
  5
33A
330
1F
100
AcDbEntity
  8
0-0
  6
JWW_DASHED1
 62
   120
370
     5
100
AcDbLine
 10
1190.787930545369
 20
-249.0869297715862
 30
0.0
 11
1228.787930545376
 21
-211.0869297715756
 31
0.0
  0
LINE
  5
33B
330
1F
100
AcDbEntity
  8
0-0
  6
JWW_DASHED1
 62
   120
370
     5
100
AcDbLine
 10
1190.787930545369
 20
-239.1874348363626
 30
0.0
 11
1228.787930545369
 21
-201.1874348363678
 31
0.0
  0
LINE
  5
33C
330
1F
100
AcDbEntity
  8
0-0
  6
JWW_DASHED1
 62
   120
370
     5
100
AcDbLine
 10
1190.787930545369
 20
-229.2879399012047
 30
0.0
 11
1228.787930545369
 21
-191.2879399012026
 31
0.0
  0
LINE
  5
33D
330
1F
100
AcDbEntity
  8
0-0
  6
JWW_DASHED1
 62
   120
370
     5
100
AcDbLine
 10
1190.787930545369
 20
-219.3884449659913
 30
0.0
 11
1228.787930545376
 21
-181.3884449659786
 31
0.0
  0
LINE
  5
33E
330
1F
100
AcDbEntity
  8
0-0
  6
JWW_DASHED1
 62
   120
370
     5
100
AcDbLine
 10
1190.787930545369
 20
-209.4889500307728
 30
0.0
 11
1228.787930545369
 21
-171.4889500307707
 31
0.0
  0
LINE
  5
33F
330
1F
100
AcDbEntity
  8
0-0
  6
JWW_DASHED1
 62
   120
370
     5
100
AcDbLine
 10
1190.787930545369
 20
-199.589455095611
 30
0.0
 11
1228.787930545373
 21
-161.5894550956055
 31
0.0
  0
LINE
  5
340
330
1F
100
AcDbEntity
  8
0-0
  6
JWW_DASHED1
 62
   120
370
     5
100
AcDbLine
 10
1190.787930545369
 20
-189.6899601603913
 30
0.0
 11
1228.787930545366
 21
-151.6899601603977
 31
0.0
  0
LINE
  5
341
330
1F
100
AcDbEntity
  8
0-0
  6
JWW_DASHED1
 62
   120
370
     5
100
AcDbLine
 10
1190.787930545369
 20
-179.7904652252073
 30
0.0
 11
1228.787930545369
 21
-141.7904652252035
 31
0.0
  0
LINE
  5
342
330
1F
100
AcDbEntity
  8
0-0
  6
JWW_DASHED1
 62
   120
370
     5
100
AcDbLine
 10
1190.787930545369
 20
-169.8909702900097
 30
0.0
 11
1228.787930545376
 21
-131.8909702900089
 31
0.0
  0
LINE
  5
343
330
1F
100
AcDbEntity
  8
0-0
  6
JWW_DASHED1
 62
   120
370
     5
100
AcDbLine
 10
1190.787930545369
 20
-159.9914753547968
 30
0.0
 11
1228.787930545369
 21
-121.9914753548011
 31
0.0
  0
LINE
  5
344
330
1F
100
AcDbEntity
  8
0-0
  6
JWW_DASHED1
 62
   120
370
     5
100
AcDbLine
 10
1190.787930545369
 20
-150.0919804196069
 30
0.0
 11
1228.787930545373
 21
-112.0919804196065
 31
0.0
  0
LINE
  5
345
330
1F
100
AcDbEntity
  8
0-0
  6
JWW_DASHED1
 62
   120
370
     5
100
AcDbLine
 10
1190.787930545369
 20
-140.1924854844246
 30
0.0
 11
1228.787930545363
 21
-102.1924854844276
 31
0.0
  0
LINE
  5
346
330
1F
100
AcDbEntity
  8
0-0
  6
JWW_DASHED1
 62
   120
370
     5
100
AcDbLine
 10
1190.787930545369
 20
-130.2929905492095
 30
0.0
 11
1228.787930545369
 21
-92.29299054920361
 31
0.0
  0
LINE
  5
347
330
1F
100
AcDbEntity
  8
0-0
  6
JWW_DASHED1
 62
   120
370
     5
100
AcDbLine
 10
1190.787930545369
 20
-120.3934956140397
 30
0.0
 11
1228.787930545373
 21
-82.39349561403927
 31
0.0
  0
LINE
  5
348
330
1F
100
AcDbEntity
  8
0-0
  6
JWW_DASHED1
 62
   120
370
     5
100
AcDbLine
 10
1190.787930545369
 20
-110.4940006788297
 30
0.0
 11
1228.787930545363
 21
-72.49400067883059
 31
0.0
  0
LINE
  5
349
330
1F
100
AcDbEntity
  8
0-0
  6
JWW_DASHED1
 62
   120
370
     5
100
AcDbLine
 10
1190.787930545369
 20
-100.5945057436078
 30
0.0
 11
1228.787930545373
 21
-62.59450574360741
 31
0.0
  0
LINE
  5
34A
330
1F
100
AcDbEntity
  8
0-0
  6
JWW_DASHED1
 62
   120
370
     5
100
AcDbLine
 10
1190.787930545369
 20
-90.69501080844603
 30
0.0
 11
1228.787930545376
 21
-52.69501080844222
 31
0.0
  0
LINE
  5
34B
330
1F
100
AcDbEntity
  8
0-0
  6
JWW_DASHED1
 62
   120
370
     5
100
AcDbLine
 10
1190.787930545369
 20
-80.79551587323138
 30
0.0
 11
1228.787930545366
 21
-42.79551587323439
 31
0.0
  0
LINE
  5
34C
330
1F
100
AcDbEntity
  8
0-0
  6
JWW_DASHED1
 62
   120
370
     5
100
AcDbLine
 10
1190.787930545369
 20
-70.89602093801417
 30
0.0
 11
1228.787930545376
 21
-32.89602093801037
 31
0.0
  0
LINE
  5
34D
330
1F
100
AcDbEntity
  8
0-0
  6
JWW_DASHED1
 62
   120
370
     5
100
AcDbLine
 10
1190.787930545369
 20
-60.9965260028558
 30
0.0
 11
1228.787930545376
 21
-22.99652600284517
 31
0.0
  0
LINE
  5
34E
330
1F
100
AcDbEntity
  8
0-0
  6
JWW_DASHED1
 62
   120
370
     5
100
AcDbLine
 10
1190.787930545369
 20
-51.09703106763774
 30
0.0
 11
1228.787930545369
 21
-13.09703106763735
 31
0.0
  0
LINE
  5
34F
330
1F
100
AcDbEntity
  8
0-0
  6
JWW_DASHED1
 62
   120
370
     5
100
AcDbLine
 10
1190.787930545369
 20
-41.19753613242395
 30
0.0
 11
1228.787930545376
 21
-3.197536132413319
 31
0.0
  0
LINE
  5
350
330
1F
100
AcDbEntity
  8
0-0
  6
JWW_DASHED1
 62
   120
370
     5
100
AcDbLine
 10
1190.787930545369
 20
-31.29804119725705
 30
0.0
 11
1228.787930545373
 21
6.701958802743349
 31
0.0
  0
LINE
  5
351
330
1F
100
AcDbEntity
  8
0-0
  6
JWW_DASHED1
 62
   120
370
     5
100
AcDbLine
 10
1190.787930545369
 20
-21.39854626204581
 30
0.0
 11
1228.787930545373
 21
16.6014537379597
 31
0.0
  0
LINE
  5
352
330
1F
100
AcDbEntity
  8
0-0
  6
JWW_DASHED1
 62
   120
370
     5
100
AcDbLine
 10
1190.787930545369
 20
-11.49905132682946
 30
0.0
 11
1228.787930545363
 21
26.50094867316753
 31
0.0
  0
LINE
  5
353
330
1F
100
AcDbEntity
  8
0-0
  6
JWW_DASHED1
 62
   120
370
     5
100
AcDbLine
 10
1190.787930545369
 20
-1.599556391660855
 30
0.0
 11
1228.787930545366
 21
36.40044360833272
 31
0.0
  0
LINE
  5
354
330
1F
100
AcDbEntity
  8
0-0
  6
JWW_DASHED1
 62
   120
370
     5
100
AcDbLine
 10
1190.787930545369
 20
8.299938543555072
 30
0.0
 11
1228.787930545376
 21
46.29993854355675
 31
0.0
  0
LINE
  5
355
330
1F
100
AcDbEntity
  8
0-0
  6
JWW_DASHED1
 62
   120
370
     5
100
AcDbLine
 10
1190.787930545369
 20
18.199433478771
 30
0.0
 11
1228.787930545366
 21
56.19943347876458
 31
0.0
  0
LINE
  5
356
330
1F
100
AcDbEntity
  8
0-0
  6
JWW_DASHED1
 62
   120
370
     5
100
AcDbLine
 10
1190.787930545369
 20
28.09892841392468
 30
0.0
 11
1228.787930545369
 21
66.09892841392977
 31
0.0
  0
LINE
  5
357
330
1F
100
AcDbEntity
  8
0-0
  6
JWW_DASHED1
 62
   120
370
     5
100
AcDbLine
 10
1190.787930545369
 20
37.9984233491453
 30
0.0
 11
1228.787930545376
 21
75.99842334915337
 31
0.0
  0
LINE
  5
358
330
1F
100
AcDbEntity
  8
0-0
  6
JWW_DASHED1
 62
   120
370
     5
100
AcDbLine
 10
1190.787930545369
 20
47.89791828436464
 30
0.0
 11
1228.787930545369
 21
85.89791828436162
 31
0.0
  0
LINE
  5
359
330
1F
100
AcDbEntity
  8
0-0
  6
JWW_DASHED1
 62
   120
370
     5
100
AcDbLine
 10
1190.787930545369
 20
57.79741321952258
 30
0.0
 11
1228.787930545369
 21
95.79741321952639
 31
0.0
  0
LINE
  5
35A
330
1F
100
AcDbEntity
  8
0-0
  6
JWW_DASHED1
 62
   120
370
     5
100
AcDbLine
 10
1190.787930545369
 20
67.69690815473894
 30
0.0
 11
1228.78793054538
 21
105.6969081547504
 31
0.0
  0
LINE
  5
35B
330
1F
100
AcDbEntity
  8
0-0
  6
JWW_DASHED1
 62
   120
370
     5
100
AcDbLine
 10
1190.787930545369
 20
77.59640308995486
 30
0.0
 11
1228.787930545369
 21
115.5964030899587
 31
0.0
  0
LINE
  5
35C
330
1F
100
AcDbEntity
  8
0-0
  6
JWW_DASHED1
 62
   120
370
     5
100
AcDbLine
 10
1190.787930545369
 20
87.49589802511622
 30
0.0
 11
1228.787930545373
 21
125.4958980251234
 31
0.0
  0
LINE
  5
35D
330
1F
100
AcDbEntity
  8
0-0
  6
JWW_DASHED1
 62
   120
370
     5
100
AcDbLine
 10
1190.787930545369
 20
97.395392960333
 30
0.0
 11
1228.787930545366
 21
135.3953929603317
 31
0.0
  0
LINE
  5
35E
330
1F
100
AcDbEntity
  8
0-0
  6
JWW_DASHED1
 62
   120
370
     5
100
AcDbLine
 10
1190.787930545369
 20
107.2948878955549
 30
0.0
 11
1228.787930545373
 21
145.2948878955553
 31
0.0
  0
LINE
  5
35F
330
1F
100
AcDbEntity
  8
0-0
  6
JWW_DASHED1
 62
   120
370
     5
100
AcDbLine
 10
1190.787930545369
 20
117.1943828307086
 30
0.0
 11
1228.787930545376
 21
155.1943828307205
 31
0.0
  0
LINE
  5
360
330
1F
100
AcDbEntity
  8
0-0
  6
JWW_DASHED1
 62
   120
370
     5
100
AcDbLine
 10
1190.787930545369
 20
127.0938777659343
 30
0.0
 11
1228.787930545369
 21
165.0938777659283
 31
0.0
  0
LINE
  5
361
330
1F
100
AcDbEntity
  8
0-0
  6
JWW_DASHED1
 62
   120
370
     5
100
AcDbLine
 10
1190.787930545369
 20
136.9933727011477
 30
0.0
 11
1228.787930545376
 21
174.9933727011523
 31
0.0
  0
LINE
  5
362
330
1F
100
AcDbEntity
  8
0-0
  6
JWW_DASHED1
 62
   120
370
     5
100
AcDbLine
 10
1190.787930545369
 20
146.8928676363035
 30
0.0
 11
1228.787930545363
 21
184.8928676363018
 31
0.0
  0
LINE
  5
363
330
1F
100
AcDbEntity
  8
0-0
  6
JWW_DASHED1
 62
   120
370
     5
100
AcDbLine
 10
1190.787930545369
 20
156.7923625715241
 30
0.0
 11
1228.787930545369
 21
194.7923625715254
 31
0.0
  0
LINE
  5
364
330
1F
100
AcDbEntity
  8
0-0
  6
JWW_DASHED1
 62
   120
370
     5
100
AcDbLine
 10
1190.787930545369
 20
166.6918575067383
 30
0.0
 11
1228.787930545376
 21
204.691857506749
 31
0.0
  0
LINE
  5
365
330
1F
100
AcDbEntity
  8
0-0
  6
JWW_DASHED1
 62
   120
370
     5
100
AcDbLine
 10
1190.787930545369
 20
176.5913524419044
 30
0.0
 11
1228.787930545366
 21
214.5913524418988
 31
0.0
  0
LINE
  5
366
330
1F
100
AcDbEntity
  8
0-0
  6
JWW_DASHED1
 62
   120
370
     5
100
AcDbLine
 10
1190.787930545369
 20
186.4908473771169
 30
0.0
 11
1228.787930545373
 21
224.4908473771224
 31
0.0
  0
LINE
  5
367
330
1F
100
AcDbEntity
  8
0-0
  6
JWW_DASHED1
 62
   120
370
     5
100
AcDbLine
 10
1190.787930545369
 20
196.3903423123354
 30
0.0
 11
1228.787930545376
 21
234.39034231234
 31
0.0
  0
LINE
  5
368
330
1F
100
AcDbEntity
  8
0-0
  6
JWW_DASHED1
 62
   120
370
     5
100
AcDbLine
 10
1190.787930545369
 20
206.2898372474976
 30
0.0
 11
1228.787930545369
 21
244.2898372474954
 31
0.0
  0
LINE
  5
369
330
1F
100
AcDbEntity
  8
0-0
  6
JWW_DASHED1
 62
   120
370
     5
100
AcDbLine
 10
1190.787930545369
 20
216.1893321827182
 30
0.0
 11
1228.787930545376
 21
254.189332182719
 31
0.0
  0
LINE
  5
36A
330
1F
100
AcDbEntity
  8
0-0
  6
JWW_DASHED1
 62
   120
370
     5
100
AcDbLine
 10
1190.787930545369
 20
226.0888271179256
 30
0.0
 11
1228.787930545366
 21
264.0888271179273
 31
0.0
  0
LINE
  5
36B
330
1F
100
AcDbEntity
  8
0-0
  6
JWW_DASHED1
 62
   120
370
     5
100
AcDbLine
 10
1190.787930545369
 20
235.9883220530882
 30
0.0
 11
1228.787930545369
 21
273.988322053092
 31
0.0
  0
LINE
  5
36C
330
1F
100
AcDbEntity
  8
0-0
  6
JWW_DASHED1
 62
   120
370
     5
100
AcDbLine
 10
1190.787930545369
 20
245.8878169883101
 30
0.0
 11
1228.787930545363
 21
283.8878169883003
 31
0.0
  0
LINE
  5
36D
330
1F
100
AcDbEntity
  8
0-0
  6
JWW_DASHED1
 62
   120
370
     5
100
AcDbLine
 10
1190.787930545369
 20
255.7873119235201
 30
0.0
 11
1228.787930545369
 21
293.7873119235239
 31
0.0
  0
LINE
  5
36E
330
1F
100
AcDbEntity
  8
0-0
  6
JWW_DASHED1
 62
   120
370
     5
100
AcDbLine
 10
1190.787930545369
 20
265.6868068586887
 30
0.0
 11
1228.787930545373
 21
303.6868068586891
 31
0.0
  0
LINE
  5
36F
330
1F
100
AcDbEntity
  8
0-0
  6
JWW_DASHED1
 62
   120
370
     5
100
AcDbLine
 10
1190.787930545369
 20
275.5863017938999
 30
0.0
 11
1228.787930545363
 21
313.586301793897
 31
0.0
  0
LINE
  5
370
330
1F
100
AcDbEntity
  8
0-0
  6
JWW_DASHED1
 62
   120
370
     5
100
AcDbLine
 10
1190.787930545369
 20
285.4857967291206
 30
0.0
 11
1228.787930545373
 21
323.4857967291209
 31
0.0
  0
LINE
  5
371
330
1F
100
AcDbEntity
  8
0-0
  6
JWW_DASHED1
 62
   120
370
     5
100
AcDbLine
 10
1190.787930545369
 20
295.3852916642815
 30
0.0
 11
1228.787930545376
 21
333.3852916642861
 31
0.0
  0
LINE
  5
372
330
1F
100
AcDbEntity
  8
0-0
  6
JWW_DASHED1
 62
   120
370
     5
100
AcDbLine
 10
1190.787930545369
 20
305.2847865994961
 30
0.0
 11
1228.787930545366
 21
343.2847865994939
 31
0.0
  0
LINE
  5
373
330
1F
100
AcDbEntity
  8
0-0
  6
JWW_DASHED1
 62
   120
370
     5
100
AcDbLine
 10
1190.787930545369
 20
315.1842815347142
 30
0.0
 11
1228.787930545376
 21
353.184281534718
 31
0.0
  0
LINE
  5
374
330
1F
100
AcDbEntity
  8
0-0
  6
JWW_DASHED1
 62
   120
370
     5
100
AcDbLine
 10
1190.787930545369
 20
325.0837764698713
 30
0.0
 11
1228.787930545376
 21
363.0837764698832
 31
0.0
  0
LINE
  5
375
330
1F
100
AcDbEntity
  8
0-0
  6
JWW_DASHED1
 62
   120
370
     5
100
AcDbLine
 10
1190.787930545369
 20
334.9832714050889
 30
0.0
 11
1228.787930545369
 21
372.983271405091
 31
0.0
  0
LINE
  5
376
330
1F
100
AcDbEntity
  8
0-0
  6
JWW_DASHED1
 62
   120
370
     5
100
AcDbLine
 10
1190.787930545369
 20
344.8827663403031
 30
0.0
 11
1228.787930545376
 21
382.882766340315
 31
0.0
  0
LINE
  5
377
330
1F
100
AcDbEntity
  8
0-0
  6
JWW_DASHED1
 62
   120
370
     5
100
AcDbLine
 10
1190.787930545369
 20
354.7822612754726
 30
0.0
 11
1228.78793054538
 21
392.7822612754798
 31
0.0
  0
LINE
  5
378
330
1F
100
AcDbEntity
  8
0-0
  6
JWW_DASHED1
 62
   120
370
     5
100
AcDbLine
 10
1190.787930545369
 20
364.6817562106826
 30
0.0
 11
1228.787930545373
 21
402.681756210688
 31
0.0
  0
LINE
  5
379
330
1F
100
AcDbEntity
  8
0-0
  6
JWW_DASHED1
 62
   120
370
     5
100
AcDbLine
 10
1190.787930545369
 20
374.5812511458989
 30
0.0
 11
1228.787930545363
 21
412.5812511458959
 31
0.0
  0
LINE
  5
37A
330
1F
100
AcDbEntity
  8
0-0
  6
JWW_DASHED1
 62
   120
370
     5
100
AcDbLine
 10
1190.787930545369
 20
384.4807460810607
 30
0.0
 11
1228.787930545366
 21
422.4807460810611
 31
0.0
  0
LINE
  5
37B
330
1F
100
AcDbEntity
  8
0-0
  6
JWW_DASHED1
 62
   120
370
     5
100
AcDbLine
 10
1190.787930545369
 20
394.3802410162839
 30
0.0
 11
1228.787930545376
 21
432.3802410162847
 31
0.0
  0
LINE
  5
37C
330
1F
100
AcDbEntity
  8
0-0
  6
JWW_DASHED1
 62
   120
370
     5
100
AcDbLine
 10
1190.787930545369
 20
404.2797359514993
 30
0.0
 11
1228.787930545366
 21
442.279735951493
 31
0.0
  0
LINE
  5
37D
330
1F
100
AcDbEntity
  8
0-0
  6
JWW_DASHED1
 62
   120
370
     5
100
AcDbLine
 10
1190.787930545369
 20
414.1792308866548
 30
0.0
 11
1228.787930545369
 21
452.1792308866577
 31
0.0
  0
LINE
  5
37E
330
1F
100
AcDbEntity
  8
0-0
  6
JWW_DASHED1
 62
   120
370
     5
100
AcDbLine
 10
1190.787930545369
 20
424.0787258218737
 30
0.0
 11
1228.787930545376
 21
462.0787258218817
 31
0.0
  0
LINE
  5
37F
330
1F
100
AcDbEntity
  8
0-0
  6
JWW_DASHED1
 62
   120
370
     5
100
AcDbLine
 10
1190.787930545369
 20
433.9782207570665
 30
0.0
 11
1228.787930545366
 21
471.9782207570602
 31
0.0
  0
LINE
  5
380
330
1F
100
AcDbEntity
  8
0-0
  6
JWW_DASHED1
 62
   120
370
     5
100
AcDbLine
 10
1190.787930545369
 20
443.8777156922509
 30
0.0
 11
1228.787930545369
 21
481.8777156922548
 31
0.0
  0
LINE
  5
381
330
1F
100
AcDbEntity
  8
0-0
  6
JWW_DASHED1
 62
   120
370
     5
100
AcDbLine
 10
1190.787930545369
 20
453.7772106274664
 30
0.0
 11
1228.78793054538
 21
491.7772106274788
 31
0.0
  0
LINE
  5
382
330
1F
100
AcDbEntity
  8
0-0
  6
JWW_DASHED1
 62
   120
370
     5
100
AcDbLine
 10
1190.787930545369
 20
463.6767055626333
 30
0.0
 11
1228.787930545366
 21
501.6767055626278
 31
0.0
  0
LINE
  5
383
330
1F
100
AcDbEntity
  8
0-0
  6
JWW_DASHED1
 62
   120
370
     5
100
AcDbLine
 10
1190.787930545369
 20
473.5762004978433
 30
0.0
 11
1228.787930545373
 21
511.5762004978518
 31
0.0
  0
LINE
  5
384
330
1F
100
AcDbEntity
  8
0-0
  6
JWW_DASHED1
 62
   120
370
     5
100
AcDbLine
 10
1190.787930545369
 20
483.4756954330618
 30
0.0
 11
1228.787930545366
 21
521.4756954330596
 31
0.0
  0
LINE
  5
385
330
1F
100
AcDbEntity
  8
0-0
  6
JWW_DASHED1
 62
   120
370
     5
100
AcDbLine
 10
1190.787930545369
 20
493.3751903682299
 30
0.0
 11
1228.787930545369
 21
531.3751903682248
 31
0.0
  0
LINE
  5
386
330
1F
100
AcDbEntity
  8
0-0
  6
JWW_DASHED1
 62
   120
370
     5
100
AcDbLine
 10
1190.787930545369
 20
503.2746853034378
 30
0.0
 11
1228.787930545376
 21
541.2746853034485
 31
0.0
  0
LINE
  5
387
330
1F
100
AcDbEntity
  8
0-0
  6
JWW_DASHED1
 62
   120
370
     5
100
AcDbLine
 10
1190.787930545369
 20
513.1741802386626
 30
0.0
 11
1228.787930545369
 21
551.1741802386566
 31
0.0
  0
LINE
  5
388
330
1F
100
AcDbEntity
  8
0-0
  6
JWW_DASHED1
 62
   120
370
     5
100
AcDbLine
 10
1190.787930545369
 20
523.073675173813
 30
0.0
 11
1228.787930545369
 21
561.0736751738215
 31
0.0
  0
LINE
  5
389
330
1F
100
AcDbEntity
  8
0-0
  6
JWW_DASHED1
 62
   120
370
     5
100
AcDbLine
 10
1190.787930545369
 20
532.9731701090327
 30
0.0
 11
1228.787930545363
 21
570.9731701090298
 31
0.0
  0
LINE
  5
38A
330
1F
100
AcDbEntity
  8
0-0
  6
JWW_DASHED1
 62
   120
370
     5
100
AcDbLine
 10
1190.787930545369
 20
542.872665044252
 30
0.0
 11
1228.787930545369
 21
580.8726650442533
 31
0.0
  0
LINE
  5
38B
330
1F
100
AcDbEntity
  8
0-0
  6
JWW_DASHED1
 62
   120
370
     5
100
AcDbLine
 10
1190.787930545369
 20
552.7721599794138
 30
0.0
 11
1228.787930545373
 21
590.7721599794185
 31
0.0
  0
LINE
  5
38C
330
1F
100
AcDbEntity
  8
0-0
  6
JWW_DASHED1
 62
   120
370
     5
100
AcDbLine
 10
1190.787930545369
 20
562.6716549146323
 30
0.0
 11
1228.787930545366
 21
600.6716549146267
 31
0.0
  0
LINE
  5
38D
330
1F
100
AcDbEntity
  8
0-0
  6
JWW_DASHED1
 62
   120
370
     5
100
AcDbLine
 10
1190.787930545369
 20
572.5711498498448
 30
0.0
 11
1228.787930545373
 21
610.5711498498504
 31
0.0
  0
LINE
  5
38E
330
1F
100
AcDbEntity
  8
0-0
  6
JWW_DASHED1
 62
   120
370
     5
100
AcDbLine
 10
1190.787930545369
 20
582.4706447850066
 30
0.0
 11
1228.787930545376
 21
620.4706447850156
 31
0.0
  0
LINE
  5
38F
330
1F
100
AcDbEntity
  8
0-0
  6
JWW_DASHED1
 62
   120
370
     5
100
AcDbLine
 10
1190.787930545369
 20
592.3701397202263
 30
0.0
 11
1228.787930545369
 21
630.3701397202234
 31
0.0
  0
LINE
  5
390
330
1F
100
AcDbEntity
  8
0-0
  6
JWW_DASHED1
 62
   120
370
     5
100
AcDbLine
 10
1190.787930545369
 20
602.2696346554453
 30
0.0
 11
1228.787930545376
 21
640.2696346554474
 31
0.0
  0
LINE
  5
391
330
1F
100
AcDbEntity
  8
0-0
  6
JWW_DASHED1
 62
   120
370
     5
100
AcDbLine
 10
1190.787930545369
 20
612.1691295905969
 30
0.0
 11
1228.787930545376
 21
650.1691295906121
 31
0.0
  0
LINE
  5
392
330
1F
100
AcDbEntity
  8
0-0
  6
JWW_DASHED1
 62
   120
370
     5
100
AcDbLine
 10
1190.787930545369
 20
622.0686245258166
 30
0.0
 11
1228.787930545369
 21
660.0686245258204
 31
0.0
  0
LINE
  5
393
330
1F
100
AcDbEntity
  8
0-0
  6
JWW_DASHED1
 62
   120
370
     5
100
AcDbLine
 10
1190.787930545369
 20
631.9681194610355
 30
0.0
 11
1228.787930545376
 21
669.9681194610445
 31
0.0
  0
LINE
  5
394
330
1F
100
AcDbEntity
  8
0-0
  6
JWW_DASHED1
 62
   120
370
     5
100
AcDbLine
 10
1190.787930545369
 20
641.8676143961948
 30
0.0
 11
1228.78793054538
 21
679.867614396207
 31
0.0
  0
LINE
  5
395
330
1F
100
AcDbEntity
  8
0-0
  6
JWW_DASHED1
 62
   120
370
     5
100
AcDbLine
 10
1190.787930545369
 20
651.7671093314162
 30
0.0
 11
1228.787930545373
 21
689.7671093314175
 31
0.0
  0
LINE
  5
396
330
1F
100
AcDbEntity
  8
0-0
  6
JWW_DASHED1
 62
   120
370
     5
100
AcDbLine
 10
1190.787930545369
 20
661.6666042666283
 30
0.0
 11
1228.787930545363
 21
699.6666042666253
 31
0.0
  0
LINE
  5
397
330
1F
100
AcDbEntity
  8
0-0
  6
JWW_DASHED1
 62
   120
370
     5
100
AcDbLine
 10
1190.787930545369
 20
671.5660992017956
 30
0.0
 11
1228.787930545369
 21
709.5660992017905
 31
0.0
  0
LINE
  5
398
330
1F
100
AcDbEntity
  8
0-0
  6
JWW_DASHED1
 62
   120
370
     5
100
AcDbLine
 10
1190.787930545369
 20
681.4655941370103
 30
0.0
 11
1228.787930545376
 21
719.465594137014
 31
0.0
  0
LINE
  5
399
330
1F
100
AcDbEntity
  8
0-0
  6
JWW_DASHED1
 62
   120
370
     5
100
AcDbLine
 10
1190.787930545369
 20
691.365089072222
 30
0.0
 11
1228.787930545366
 21
729.3650890722223
 31
0.0
  0
LINE
  5
39A
330
1F
100
AcDbEntity
  8
0-0
  6
JWW_DASHED1
 62
   120
370
     5
100
AcDbLine
 10
1190.787930545369
 20
701.2645840073858
 30
0.0
 11
1228.787930545369
 21
739.2645840073867
 31
0.0
  0
LINE
  5
39B
330
1F
100
AcDbEntity
  8
0-0
  6
JWW_DASHED1
 62
   120
370
     5
100
AcDbLine
 10
1190.787930545369
 20
711.1640789426001
 30
0.0
 11
1228.787930545376
 21
749.1640789426111
 31
0.0
  0
LINE
  5
39C
330
1F
100
AcDbEntity
  8
0-0
  6
JWW_DASHED1
 62
   120
370
     5
100
AcDbLine
 10
1190.787930545369
 20
721.0635738778172
 30
0.0
 11
1228.787930545369
 21
759.0635738778194
 31
0.0
  0
LINE
  5
39D
330
1F
100
AcDbEntity
  8
0-0
  6
JWW_DASHED1
 62
   120
370
     5
100
AcDbLine
 10
1190.787930545369
 20
730.9630688129795
 30
0.0
 11
1228.787930545373
 21
768.9630688129841
 31
0.0
  0
LINE
  5
39E
330
1F
100
AcDbEntity
  8
0-0
  6
JWW_DASHED1
 62
   120
370
     5
100
AcDbLine
 10
1190.787930545369
 20
740.8625637482005
 30
0.0
 11
1228.78793054538
 21
778.8625637482078
 31
0.0
  0
LINE
  5
39F
330
1F
100
AcDbEntity
  8
0-0
  6
JWW_DASHED1
 62
   120
370
     5
100
AcDbLine
 10
1190.787930545369
 20
750.7620586834075
 30
0.0
 11
1228.787930545369
 21
788.762058683416
 31
0.0
  0
LINE
  5
3A0
330
1F
100
AcDbEntity
  8
0-0
  6
JWW_DASHED1
 62
   120
370
     5
100
AcDbLine
 10
1190.787930545369
 20
760.6615536185795
 30
0.0
 11
1228.787930545376
 21
798.6615536185811
 31
0.0
  0
LINE
  5
3A1
330
1F
100
AcDbEntity
  8
0-0
  6
JWW_DASHED1
 62
   120
370
     5
100
AcDbLine
 10
1190.787930545369
 20
770.5610485537954
 30
0.0
 11
1228.787930545366
 21
808.5610485537886
 31
0.0
  0
LINE
  5
3A2
330
1F
100
AcDbEntity
  8
0-0
  6
JWW_DASHED1
 62
   120
370
     5
100
AcDbLine
 10
1190.787930545369
 20
780.4605434890123
 30
0.0
 11
1228.787930545376
 21
818.460543489013
 31
0.0
  0
LINE
  5
3A3
330
1F
100
AcDbEntity
  8
0-0
  6
JWW_DASHED1
 62
   120
370
     5
100
AcDbLine
 10
1190.787930545369
 20
790.3600384241697
 30
0.0
 11
1228.787930545376
 21
828.3600384241778
 31
0.0
  0
LINE
  5
3A4
330
1F
100
AcDbEntity
  8
0-0
  6
JWW_DASHED1
 62
   120
370
     5
100
AcDbLine
 10
1190.787930545369
 20
800.259533359389
 30
0.0
 11
1228.787930545369
 21
838.2595333593861
 31
0.0
  0
LINE
  5
3A5
330
1F
100
AcDbEntity
  8
0-0
  6
JWW_DASHED1
 62
   120
370
     5
100
AcDbLine
 10
1190.787930545369
 20
810.1590282946016
 30
0.0
 11
1228.787930545376
 21
848.1590282946097
 31
0.0
  0
LINE
  5
3A6
330
1F
100
AcDbEntity
  8
0-0
  6
JWW_DASHED1
 62
   120
370
     5
100
AcDbLine
 10
1190.787930545369
 20
820.0585232297617
 30
0.0
 11
1228.787930545363
 21
858.0585232297591
 31
0.0
  0
LINE
  5
3A7
330
1F
100
AcDbEntity
  8
0-0
  6
JWW_DASHED1
 62
   120
370
     5
100
AcDbLine
 10
1190.787930545369
 20
829.9580181649781
 30
0.0
 11
1228.787930545369
 21
867.9580181649831
 31
0.0
  0
LINE
  5
3A8
330
1F
100
AcDbEntity
  8
0-0
  6
JWW_DASHED1
 62
   120
370
     5
100
AcDbLine
 10
1190.787930545369
 20
839.8575131001952
 30
0.0
 11
1228.78793054538
 21
877.8575131002067
 31
0.0
  0
LINE
  5
3A9
330
1F
100
AcDbEntity
  8
0-0
  6
JWW_DASHED1
 62
   120
370
     5
100
AcDbLine
 10
1190.787930545369
 20
849.7570080353621
 30
0.0
 11
1228.787930545366
 21
887.7570080353557
 31
0.0
  0
LINE
  5
3AA
330
1F
100
AcDbEntity
  8
0-0
  6
JWW_DASHED1
 62
   120
370
     5
100
AcDbLine
 10
1190.787930545369
 20
859.6565029705725
 30
0.0
 11
1228.787930545373
 21
897.6565029705797
 31
0.0
  0
LINE
  5
3AB
330
1F
100
AcDbEntity
  8
0-0
  6
JWW_DASHED1
 62
   120
370
     5
100
AcDbLine
 10
1190.787930545369
 20
869.5559979057948
 30
0.0
 11
1228.787930545383
 21
907.5559979058033
 31
0.0
  0
LINE
  5
3AC
330
1F
100
AcDbEntity
  8
0-0
  6
JWW_DASHED1
 62
   120
370
     5
100
AcDbLine
 10
1190.787930545369
 20
879.4554928409588
 30
0.0
 11
1228.787930545369
 21
917.4554928409527
 31
0.0
  0
LINE
  5
3AD
330
1F
100
AcDbEntity
  8
0-0
  6
JWW_DASHED1
 62
   120
370
     5
100
AcDbLine
 10
1190.787930545369
 20
889.3549877761661
 30
0.0
 11
1228.787930545376
 21
927.3549877761768
 31
0.0
  0
LINE
  5
3AE
330
1F
100
AcDbEntity
  8
0-0
  6
JWW_DASHED1
 62
   120
370
     5
100
AcDbLine
 10
1190.787930545369
 20
899.2544827113902
 30
0.0
 11
1228.787930545369
 21
937.2544827113846
 31
0.0
  0
LINE
  5
3AF
330
1F
100
AcDbEntity
  8
0-0
  6
JWW_DASHED1
 62
   120
370
     5
100
AcDbLine
 10
1190.787930545369
 20
919.0534725817704
 30
0.0
 11
1228.787930545369
 21
957.0534725817594
 31
0.0
  0
LINE
  5
3B0
330
1F
100
AcDbEntity
  8
0-0
  6
JWW_DASHED1
 62
   120
370
     5
100
AcDbLine
 10
1190.787930545369
 20
909.153977646552
 30
0.0
 11
1228.787930545369
 21
947.1539776465455
 31
0.0
  0
LINE
  5
3B1
330
1F
100
AcDbEntity
  8
0-0
  6
JWW_DASHED1
 62
   120
370
     5
100
AcDbLine
 10
1190.787930545369
 20
-922.2525853649901
 30
0.0
 11
1228.787930545366
 21
-884.2525853649901
 31
0.0
  0
LINE
  5
3B2
330
1F
100
AcDbEntity
  8
0-0
  6
JWW_DASHED1
 62
   120
370
     5
100
AcDbLine
 10
1190.787930545369
 20
-932.1520803001548
 30
0.0
 11
1228.787930545366
 21
-894.1520803001547
 31
0.0
  0
LINE
  5
3B3
330
1F
100
AcDbEntity
  8
0-0
  6
JWW_DASHED1
 62
   120
370
     5
100
AcDbLine
 10
1190.787930545369
 20
-942.0515752353194
 30
0.0
 11
1228.787930545366
 21
-904.0515752353197
 31
0.0
  0
LINE
  5
3B4
330
1F
100
AcDbEntity
  8
0-0
  6
JWW_DASHED1
 62
   120
370
     5
100
AcDbLine
 10
1193.588611124614
 20
-949.1503895912385
 30
0.0
 11
1228.787930545366
 21
-913.9510701704844
 31
0.0
  0
LINE
  5
3B5
330
1F
100
AcDbEntity
  8
0-0
  6
JWW_DASHED1
 62
   120
370
     5
100
AcDbLine
 10
1223.287095930106
 20
-949.1503895912385
 30
0.0
 11
1228.787930545366
 21
-943.6495549759787
 31
0.0
  0
LINE
  5
3B6
330
1F
100
AcDbEntity
  8
0-0
  6
JWW_DASHED1
 62
   120
370
     5
100
AcDbLine
 10
1203.488106059779
 20
-949.1503895912385
 30
0.0
 11
1228.787930545366
 21
-923.8505651056491
 31
0.0
  0
LINE
  5
3B7
330
1F
100
AcDbEntity
  8
0-0
  6
JWW_DASHED1
 62
   120
370
     5
100
AcDbLine
 10
1213.387600994943
 20
-949.1503895912385
 30
0.0
 11
1228.787930545366
 21
-933.7500600408138
 31
0.0
  0
LINE
  5
3B8
330
1F
100
AcDbEntity
  8
0-0
  6
JWW_DASHED1
 62
   120
370
     5
100
AcDbLine
 10
1190.787930545369
 20
928.9529675169889
 30
0.0
 11
1228.787930545369
 21
966.9529675169779
 31
0.0
  0
LINE
  5
3B9
330
1F
100
AcDbEntity
  8
0-0
  6
JWW_DASHED1
 62
   120
370
     5
100
AcDbLine
 10
1190.787930545369
 20
938.8524624522074
 30
0.0
 11
1228.787930545369
 21
976.8524624521963
 31
0.0
  0
LINE
  5
3BA
330
1F
100
AcDbEntity
  8
0-0
  6
JWW_DASHED1
 62
   120
370
     5
100
AcDbLine
 10
1190.787930545369
 20
948.7519573874259
 30
0.0
 11
1228.787930545369
 21
986.7519573874148
 31
0.0
  0
LINE
  5
3BB
330
1F
100
AcDbEntity
  8
0-0
  6
JWW_DASHED1
 62
   120
370
     5
100
AcDbLine
 10
1190.787930545369
 20
958.651452322644
 30
0.0
 11
1228.787930545369
 21
996.6514523226333
 31
0.0
  0
LINE
  5
3BC
330
1F
100
AcDbEntity
  8
0-0
  6
JWW_DASHED1
 62
   120
370
     5
100
AcDbLine
 10
1190.787930545369
 20
968.5509472578628
 30
0.0
 11
1228.787930545369
 21
1006.550947257852
 31
0.0
  0
LINE
  5
3BD
330
1F
100
AcDbEntity
  8
0-0
  6
JWW_DASHED1
 62
   120
370
     5
100
AcDbLine
 10
1190.787930545369
 20
978.4504421930814
 30
0.0
 11
1228.787930545369
 21
1016.45044219307
 31
0.0
  0
LINE
  5
3BE
330
1F
100
AcDbEntity
  8
0-0
  6
JWW_DASHED1
 62
   120
370
     5
100
AcDbLine
 10
1190.787930545369
 20
1008.148926998737
 30
0.0
 11
1200.488613955397
 21
1017.849610408762
 31
0.0
  0
LINE
  5
3BF
330
1F
100
AcDbEntity
  8
0-0
  6
JWW_DASHED1
 62
   120
370
     5
100
AcDbLine
 10
1190.787930545369
 20
988.3499371282999
 30
0.0
 11
1220.287603825841
 21
1017.849610408762
 31
0.0
  0
LINE
  5
3C0
330
1F
100
AcDbEntity
  8
0-0
  6
JWW_DASHED1
 62
   120
370
     5
100
AcDbLine
 10
1190.787930545369
 20
998.2494320635183
 30
0.0
 11
1210.388108890619
 21
1017.849610408762
 31
0.0
  0
LINE
  5
3C1
330
1F
100
AcDbEntity
  8
寸法
  6
Continuous
 62
   120
370
     5
100
AcDbLine
 10
-2042.21206945463
 20
1069.849610408762
 30
0.0
 11
-1642.212069454629
 21
1069.849610408762
 31
0.0
  0
LWPOLYLINE
  5
3C2
330
1F
100
AcDbEntity
  8
寸法
  6
Continuous
 62
     7
370
     9
100
AcDbPolyline
 90
        4
 70
     1
 43
3.0
 10
-2040.71206945463
 20
1069.849610408762
 42
0.4142135623731
 10
-2042.21206945463
 20
1071.349610408762
 42
0.4142135623731
 10
-2043.712069454629
 20
1069.849610408762
 42
0.4142135623731
 10
-2042.21206945463
 20
1068.349610408762
 42
0.4142135623731
  0
LINE
  5
3C3
330
1F
100
AcDbEntity
  8
寸法
  6
Continuous
 62
   120
370
     5
100
AcDbLine
 10
-2042.21206945463
 20
1069.849610408762
 30
0.0
 11
-2042.21206945463
 21
-977.150389591239
 31
0.0
  0
LWPOLYLINE
  5
3C4
330
1F
100
AcDbEntity
  8
寸法
  6
Continuous
 62
     7
370
     9
100
AcDbPolyline
 90
        4
 70
     1
 43
3.0
 10
-2040.71206945463
 20
-977.150389591239
 42
0.4142135623731
 10
-2042.21206945463
 20
-975.6503895912391
 42
0.4142135623731
 10
-2043.712069454629
 20
-977.150389591239
 42
0.4142135623731
 10
-2042.21206945463
 20
-978.650389591239
 42
0.4142135623731
  0
LWPOLYLINE
  5
3C5
330
1F
100
AcDbEntity
  8
寸法
  6
Continuous
 62
     7
370
     9
100
AcDbPolyline
 90
        4
 70
     1
 43
3.0
 10
-1840.71206945463
 20
-957.1503895912384
 42
0.4142135623731
 10
-1842.21206945463
 20
-955.6503895912384
 42
0.4142135623731
 10
-1843.71206945463
 20
-957.1503895912384
 42
0.4142135623731
 10
-1842.21206945463
 20
-958.6503895912384
 42
0.4142135623731
  0
LINE
  5
3C6
330
1F
100
AcDbEntity
  8
寸法
  6
Continuous
 62
   120
370
     5
100
AcDbLine
 10
-2042.21206945463
 20
-977.150389591239
 30
0.0
 11
-1642.212069454629
 21
-977.150389591239
 31
0.0
  0
LINE
  5
3C7
330
1F
100
AcDbEntity
  8
寸法
  6
Continuous
 62
   120
370
     5
100
AcDbLine
 10
-1842.21206945463
 20
-957.1503895912384
 30
0.0
 11
-1642.212069454629
 21
-957.1503895912384
 31
0.0
  0
LINE
  5
3C8
330
1F
100
AcDbEntity
  8
寸法
  6
Continuous
 62
   120
370
     5
100
AcDbLine
 10
-1842.21206945463
 20
1025.849610408761
 30
0.0
 11
-1642.212069454629
 21
1025.849610408761
 31
0.0
  0
LWPOLYLINE
  5
3C9
330
1F
100
AcDbEntity
  8
寸法
  6
Continuous
 62
     7
370
     9
100
AcDbPolyline
 90
        4
 70
     1
 43
3.0
 10
-1840.71206945463
 20
1025.849610408761
 42
0.4142135623731
 10
-1842.21206945463
 20
1027.349610408761
 42
0.4142135623731
 10
-1843.71206945463
 20
1025.849610408761
 42
0.4142135623731
 10
-1842.21206945463
 20
1024.349610408761
 42
0.4142135623731
  0
LINE
  5
3CA
330
1F
100
AcDbEntity
  8
寸法
  6
Continuous
 62
   120
370
     5
100
AcDbLine
 10
-1842.21206945463
 20
1025.849610408761
 30
0.0
 11
-1842.21206945463
 21
-957.1503895912384
 31
0.0
  0
LINE
  5
3CB
330
1F
100
AcDbEntity
  8
寸法
  6
Continuous
 62
   120
370
     5
100
AcDbLine
 10
-1562.21206945463
 20
-1427.15038959124
 30
0.0
 11
-1562.21206945463
 21
-1027.150389591241
 31
0.0
  0
LINE
  5
3CC
330
1F
100
AcDbEntity
  8
寸法
  6
Continuous
 62
   120
370
     5
100
AcDbLine
 10
-1592.21206945463
 20
-1627.150389591239
 30
0.0
 11
-1592.21206945463
 21
-1027.150389591241
 31
0.0
  0
LINE
  5
3CD
330
1F
100
AcDbEntity
  8
寸法
  6
Continuous
 62
   120
370
     5
100
AcDbLine
 10
24.78793054536965
 20
-1227.150389591239
 30
0.0
 11
24.78793054536965
 21
-1027.150389591241
 31
0.0
  0
LINE
  5
3CE
330
1F
100
AcDbEntity
  8
寸法
  6
Continuous
 62
   120
370
     5
100
AcDbLine
 10
-785.2120694546304
 20
-1227.150389591239
 30
0.0
 11
-785.2120694546304
 21
-1027.150389591241
 31
0.0
  0
LINE
  5
3CF
330
1F
100
AcDbEntity
  8
寸法
  6
Continuous
 62
   120
370
     5
100
AcDbLine
 10
-785.2120694546304
 20
-1227.150389591239
 30
0.0
 11
834.7879305453696
 21
-1227.150389591239
 31
0.0
  0
LINE
  5
3D0
330
1F
100
AcDbEntity
  8
寸法
  6
Continuous
 62
   120
370
     5
100
AcDbLine
 10
-1562.21206945463
 20
-1427.15038959124
 30
0.0
 11
1611.787930545369
 21
-1427.150389591238
 31
0.0
  0
LINE
  5
3D1
330
1F
100
AcDbEntity
  8
寸法
  6
Continuous
 62
   120
370
     5
100
AcDbLine
 10
1611.787930545369
 20
-1427.150389591238
 30
0.0
 11
1611.787930545369
 21
-1027.150389591239
 31
0.0
  0
LINE
  5
3D2
330
1F
100
AcDbEntity
  8
寸法
  6
Continuous
 62
   120
370
     5
100
AcDbLine
 10
-1592.21206945463
 20
-1627.150389591239
 30
0.0
 11
1641.787930545369
 21
-1627.150389591238
 31
0.0
  0
LINE
  5
3D3
330
1F
100
AcDbEntity
  8
寸法
  6
Continuous
 62
   120
370
     5
100
AcDbLine
 10
1641.787930545369
 20
-1627.150389591238
 30
0.0
 11
1641.787930545369
 21
-1027.150389591239
 31
0.0
  0
LINE
  5
3D4
330
1F
100
AcDbEntity
  8
寸法
  6
Continuous
 62
   120
370
     5
100
AcDbLine
 10
834.7879305453696
 20
-1227.150389591239
 30
0.0
 11
834.7879305453696
 21
-1027.150389591241
 31
0.0
  0
LWPOLYLINE
  5
3D5
330
1F
100
AcDbEntity
  8
寸法
  6
Continuous
 62
     7
370
     9
100
AcDbPolyline
 90
        4
 70
     1
 43
3.0
 10
-1560.71206945463
 20
-1427.15038959124
 42
0.4142135623731
 10
-1562.21206945463
 20
-1425.65038959124
 42
0.4142135623731
 10
-1563.712069454629
 20
-1427.15038959124
 42
0.4142135623731
 10
-1562.21206945463
 20
-1428.65038959124
 42
0.4142135623731
  0
LWPOLYLINE
  5
3D6
330
1F
100
AcDbEntity
  8
寸法
  6
Continuous
 62
     7
370
     9
100
AcDbPolyline
 90
        4
 70
     1
 43
3.0
 10
-1590.71206945463
 20
-1627.150389591239
 42
0.4142135623731
 10
-1592.21206945463
 20
-1625.650389591239
 42
0.4142135623731
 10
-1593.712069454629
 20
-1627.150389591239
 42
0.4142135623731
 10
-1592.21206945463
 20
-1628.650389591239
 42
0.4142135623731
  0
LWPOLYLINE
  5
3D7
330
1F
100
AcDbEntity
  8
寸法
  6
Continuous
 62
     7
370
     9
100
AcDbPolyline
 90
        4
 70
     1
 43
3.0
 10
26.28793054536965
 20
-1227.150389591239
 42
0.4142135623731
 10
24.78793054536965
 20
-1225.650389591239
 42
0.4142135623731
 10
23.28793054536965
 20
-1227.150389591239
 42
0.4142135623731
 10
24.78793054536965
 20
-1228.650389591238
 42
0.4142135623731
  0
LWPOLYLINE
  5
3D8
330
1F
100
AcDbEntity
  8
寸法
  6
Continuous
 62
     7
370
     9
100
AcDbPolyline
 90
        4
 70
     1
 43
3.0
 10
-783.7120694546303
 20
-1227.150389591239
 42
0.4142135623731
 10
-785.2120694546304
 20
-1225.650389591239
 42
0.4142135623731
 10
-786.7120694546304
 20
-1227.150389591239
 42
0.4142135623731
 10
-785.2120694546304
 20
-1228.650389591238
 42
0.4142135623731
  0
LWPOLYLINE
  5
3D9
330
1F
100
AcDbEntity
  8
寸法
  6
Continuous
 62
     7
370
     9
100
AcDbPolyline
 90
        4
 70
     1
 43
3.0
 10
1613.287930545369
 20
-1427.150389591238
 42
0.4142135623731
 10
1611.787930545369
 20
-1425.650389591238
 42
0.4142135623731
 10
1610.287930545369
 20
-1427.150389591238
 42
0.4142135623731
 10
1611.787930545369
 20
-1428.650389591238
 42
0.4142135623731
  0
LWPOLYLINE
  5
3DA
330
1F
100
AcDbEntity
  8
寸法
  6
Continuous
 62
     7
370
     9
100
AcDbPolyline
 90
        4
 70
     1
 43
3.0
 10
1643.287930545369
 20
-1627.150389591238
 42
0.4142135623731
 10
1641.787930545369
 20
-1625.650389591238
 42
0.4142135623731
 10
1640.287930545369
 20
-1627.150389591238
 42
0.4142135623731
 10
1641.787930545369
 20
-1628.650389591238
 42
0.4142135623731
  0
LWPOLYLINE
  5
3DB
330
1F
100
AcDbEntity
  8
寸法
  6
Continuous
 62
     7
370
     9
100
AcDbPolyline
 90
        4
 70
     1
 43
3.0
 10
836.2879305453696
 20
-1227.150389591239
 42
0.4142135623731
 10
834.7879305453696
 20
-1225.650389591239
 42
0.4142135623731
 10
833.2879305453695
 20
-1227.150389591239
 42
0.4142135623731
 10
834.7879305453696
 20
-1228.650389591238
 42
0.4142135623731
  0
MTEXT
  5
3DC
330
1F
100
AcDbEntity
  8
寸法
  6
Continuous
 62
     7
370
    70
100
AcDbMText
 10
-2057.21206945463
 20
-168.825389591238
 30
0.0
 40
57.14999999999999
 41
412.5
 46
0.0
 71
     7
 72
     1
  1
{\fＭＳ ゴシック|b0|i0|c128|p49;枠外＝2,047}
 11
6.123031769111886E-17
 21
1.0
 31
0.0
 73
     1
 44
1.0
  0
MTEXT
  5
3DD
330
1F
100
AcDbEntity
  8
寸法
  6
Continuous
 62
     7
370
    70
100
AcDbMText
 10
-1857.21206945463
 20
-174.8253895912376
 30
0.0
 40
57.14999999999999
 41
412.5
 46
0.0
 71
     7
 72
     1
  1
{\fＭＳ ゴシック|b0|i0|c128|p49;ＤＨ＝1,983}
 11
6.123031769111886E-17
 21
1.0
 31
0.0
 73
     1
 44
1.0
  0
MTEXT
  5
3DE
330
1F
100
AcDbEntity
  8
寸法
  6
Continuous
 62
     7
370
   211
100
AcDbMText
 10
-548.9620694546304
 20
-1221.075389591238
 30
0.0
 40
57.14999999999998
 41
337.4999999999999
 46
0.0
 71
     7
 72
     1
  1
{\fＭＳ ゴシック|b0|i0|c128|p49;ＤＷ＝810}
 73
     1
 44
1.0
  0
MTEXT
  5
3DF
330
1F
100
AcDbEntity
  8
寸法
  6
Continuous
 62
     7
370
   211
100
AcDbMText
 10
261.0379305453696
 20
-1221.075389591238
 30
0.0
 40
57.15000000000001
 41
337.5000000000001
 46
0.0
 71
     7
 72
     1
  1
{\fＭＳ ゴシック|b0|i0|c128|p49;ＤＷ＝810}
 73
     1
 44
1.0
  0
MTEXT
  5
3E0
330
1F
100
AcDbEntity
  8
寸法
  6
Continuous
 62
     7
370
   211
100
AcDbMText
 10
-181.4620694546304
 20
-1421.07538959124
 30
0.0
 40
57.14999999999999
 41
412.5
 46
0.0
 71
     7
 72
     1
  1
{\fＭＳ ゴシック|b0|i0|c128|p49;枠内＝3,174}
 73
     1
 44
1.0
  0
MTEXT
  5
3E1
330
1F
100
AcDbEntity
  8
寸法
  6
Continuous
 62
     7
370
   211
100
AcDbMText
 10
-181.4620694546304
 20
-1621.075389591239
 30
0.0
 40
57.14999999999999
 41
412.5
 46
0.0
 71
     7
 72
     1
  1
{\fＭＳ ゴシック|b0|i0|c128|p49;枠外＝3,234}
 73
     1
 44
1.0
  0
ENDSEC
  0
SECTION
  2
OBJECTS
  0
DICTIONARY
  5
C
330
0
100
AcDbDictionary
281
     1
  3
ACAD_GROUP
350
D
  3
ACAD_LAYOUT
350
1A
  3
ACAD_MATERIAL
350
3B
  3
ACAD_MLEADERSTYLE
350
3E3
  3
ACAD_MLINESTYLE
350
17
  3
ACAD_PLOTSETTINGS
350
19
  3
ACAD_PLOTSTYLENAME
350
E
  3
ACAD_TABLESTYLE
350
3E2
  3
ACAD_VISUALSTYLE
350
2A
  0
DICTIONARY
  5
D
102
{ACAD_REACTORS
330
C
102
}
330
C
100
AcDbDictionary
281
     1
  0
DICTIONARY
  5
1A
102
{ACAD_REACTORS
330
C
102
}
330
C
100
AcDbDictionary
281
     1
  3
Layout1
350
1E
  3
Layout2
350
26
  3
Model
350
22
  0
DICTIONARY
  5
3B
102
{ACAD_REACTORS
330
C
102
}
330
C
100
AcDbDictionary
281
     1
  3
ByBlock
350
3D
  3
ByLayer
350
3C
  3
Global
350
3E
  0
DICTIONARY
  5
3E3
102
{ACAD_REACTORS
330
C
102
}
330
C
100
AcDbDictionary
281
     1
  0
DICTIONARY
  5
17
102
{ACAD_REACTORS
330
C
102
}
330
C
100
AcDbDictionary
281
     1
  3
Standard
350
18
  0
DICTIONARY
  5
19
102
{ACAD_REACTORS
330
C
102
}
330
C
100
AcDbDictionary
281
     1
  0
ACDBDICTIONARYWDFLT
  5
E
102
{ACAD_REACTORS
330
C
102
}
330
C
100
AcDbDictionary
281
     1
  3
Normal
350
F
100
AcDbDictionaryWithDefault
340
F
  0
DICTIONARY
  5
3E2
102
{ACAD_REACTORS
330
C
102
}
330
C
100
AcDbDictionary
281
     1
  0
DICTIONARY
  5
2A
102
{ACAD_REACTORS
330
C
102
}
330
C
100
AcDbDictionary
281
     1
  3
2dWireframe
350
2F
  3
3D Hidden
350
31
  3
3dWireframe
350
30
  3
Basic
350
32
  3
Brighten
350
36
  3
ColorChange
350
3A
  3
Conceptual
350
34
  3
Dim
350
35
  3
Facepattern
350
39
  3
Flat
350
2B
  3
FlatWithEdges
350
2C
  3
Gouraud
350
2D
  3
GouraudWithEdges
350
2E
  3
Linepattern
350
38
  3
Realistic
350
33
  3
Thicken
350
37
  0
LAYOUT
  5
1E
102
{ACAD_REACTORS
330
1A
102
}
330
1A
100
AcDbPlotSettings
  1

  2
none_device
  4

  6

 40
0.0
 41
0.0
 42
0.0
 43
0.0
 44
0.0
 45
0.0
 46
0.0
 47
0.0
 48
0.0
 49
0.0
140
0.0
141
0.0
142
1.0
143
1.0
 70
   688
 72
     0
 73
     0
 74
     5
  7

 75
    16
 76
     0
 77
     5
 78
   300
147
1.0
148
0.0
149
0.0
100
AcDbLayout
  1
Layout1
 70
     1
 71
     1
 10
0.0
 20
0.0
 11
420.0
 21
297.0
 12
0.0
 22
0.0
 32
0.0
 14
1.000000000000000E+20
 24
1.000000000000000E+20
 34
1.000000000000000E+20
 15
-1.000000000000000E+20
 25
-1.000000000000000E+20
 35
-1.000000000000000E+20
146
0.0
 13
0.0
 23
0.0
 33
0.0
 16
1.0
 26
0.0
 36
0.0
 17
0.0
 27
1.0
 37
0.0
 76
     0
330
1B
  0
LAYOUT
  5
26
102
{ACAD_REACTORS
330
1A
102
}
330
1A
100
AcDbPlotSettings
  1

  2
none_device
  4

  6

 40
0.0
 41
0.0
 42
0.0
 43
0.0
 44
0.0
 45
0.0
 46
0.0
 47
0.0
 48
0.0
 49
0.0
140
0.0
141
0.0
142
1.0
143
1.0
 70
   688
 72
     0
 73
     0
 74
     5
  7

 75
    16
 76
     0
 77
     5
 78
   300
147
1.0
148
0.0
149
0.0
100
AcDbLayout
  1
Layout2
 70
     1
 71
     2
 10
0.0
 20
0.0
 11
0.0
 21
0.0
 12
0.0
 22
0.0
 32
0.0
 14
0.0
 24
0.0
 34
0.0
 15
0.0
 25
0.0
 35
0.0
146
0.0
 13
0.0
 23
0.0
 33
0.0
 16
1.0
 26
0.0
 36
0.0
 17
0.0
 27
1.0
 37
0.0
 76
     0
330
23
  0
LAYOUT
  5
22
102
{ACAD_REACTORS
330
1A
102
}
330
1A
100
AcDbPlotSettings
  1

  2
none_device
  4

  6

 40
0.0
 41
0.0
 42
0.0
 43
0.0
 44
0.0
 45
0.0
 46
0.0
 47
0.0
 48
0.0
 49
0.0
140
0.0
141
0.0
142
1.0
143
1.0
 70
  1712
 72
     0
 73
     0
 74
     0
  7

 75
     0
 76
     0
 77
     5
 78
   300
147
1.0
148
0.0
149
0.0
100
AcDbLayout
  1
Model
 70
     1
 71
     0
 10
-4455.0
 20
-3150.0
 11
4455.0
 21
3150.0
 12
0.0
 22
0.0
 32
0.0
 14
-4455.0
 24
-3150.0
 34
0.0
 15
4455.0
 25
3150.0
 35
0.0
146
0.0
 13
0.0
 23
0.0
 33
0.0
 16
1.0
 26
0.0
 36
0.0
 17
0.0
 27
1.0
 37
0.0
 76
     0
330
1F
331
29
  0
MATERIAL
  5
3D
102
{ACAD_REACTORS
330
3B
102
}
330
3B
100
AcDbMaterial
  1
ByBlock
 72
     1
 94
      127
  0
MATERIAL
  5
3C
102
{ACAD_REACTORS
330
3B
102
}
330
3B
100
AcDbMaterial
  1
ByLayer
 72
     1
 94
      127
  0
MATERIAL
  5
3E
102
{ACAD_REACTORS
330
3B
102
}
330
3B
100
AcDbMaterial
  1
Global
 72
     1
 94
      127
  0
MLINESTYLE
  5
18
102
{ACAD_REACTORS
330
17
102
}
330
17
100
AcDbMlineStyle
  2
Standard
 70
     0
  3

 62
   256
 51
90.0
 52
90.0
 71
     2
 49
0.5
 62
   256
  6
BYLAYER
 49
-0.5
 62
   256
  6
BYLAYER
  0
ACDBPLACEHOLDER
  5
F
102
{ACAD_REACTORS
330
E
102
}
330
E
  0
VISUALSTYLE
  5
2F
102
{ACAD_REACTORS
330
2A
102
}
330
2A
100
AcDbVisualStyle
  2
2dWireframe
 70
     4
177
     2
291
     0
 71
     0
176
     1
 72
     2
176
     1
 73
     0
176
     1
 90
        0
176
     1
 40
-0.6
176
     1
 41
-30.0
176
     1
 62
     5
 63
     7
421
 16777215
176
     1
 74
     1
176
     1
 91
        4
176
     1
 64
     7
176
     1
 65
   257
176
     1
 75
     1
176
     1
175
     1
176
     1
 42
1.0
176
     1
 92
        0
176
     1
 66
   257
176
     1
 43
1.0
176
     1
 76
     1
176
     1
 77
     6
176
     1
 78
     2
176
     1
 67
     7
176
     1
 79
     5
176
     1
170
     0
176
     1
171
     0
176
     1
290
     0
176
     1
 93
        1
176
     1
 44
0.0
176
     1
173
     0
176
     1
  0
VISUALSTYLE
  5
31
102
{ACAD_REACTORS
330
2A
102
}
330
2A
100
AcDbVisualStyle
  2
3D Hidden
 70
     6
177
     2
291
     0
 71
     1
176
     1
 72
     2
176
     1
 73
     2
176
     1
 90
        0
176
     1
 40
-0.6
176
     1
 41
-30.0
176
     1
 62
     5
 63
     7
421
 16777215
176
     1
 74
     2
176
     1
 91
        2
176
     1
 64
     7
176
     1
 65
   257
176
     1
 75
     2
176
     1
175
     1
176
     1
 42
40.0
176
     1
 92
        0
176
     1
 66
   257
176
     1
 43
1.0
176
     1
 76
     1
176
     1
 77
     6
176
     1
 78
     2
176
     1
 67
     7
176
     1
 79
     3
176
     1
170
     0
176
     1
171
     0
176
     1
290
     0
176
     1
 93
        1
176
     1
 44
0.0
176
     1
173
     0
176
     1
  0
VISUALSTYLE
  5
30
102
{ACAD_REACTORS
330
2A
102
}
330
2A
100
AcDbVisualStyle
  2
3dWireframe
 70
     5
177
     2
291
     0
 71
     0
176
     1
 72
     2
176
     1
 73
     0
176
     1
 90
        0
176
     1
 40
-0.6
176
     1
 41
-30.0
176
     1
 62
     5
 63
     7
421
 16777215
176
     1
 74
     1
176
     1
 91
        4
176
     1
 64
     7
176
     1
 65
   257
176
     1
 75
     1
176
     1
175
     1
176
     1
 42
1.0
176
     1
 92
        0
176
     1
 66
   257
176
     1
 43
1.0
176
     1
 76
     1
176
     1
 77
     6
176
     1
 78
     2
176
     1
 67
     7
176
     1
 79
     5
176
     1
170
     0
176
     1
171
     0
176
     1
290
     0
176
     1
 93
        1
176
     1
 44
0.0
176
     1
173
     0
176
     1
  0
VISUALSTYLE
  5
32
102
{ACAD_REACTORS
330
2A
102
}
330
2A
100
AcDbVisualStyle
  2
Basic
 70
     7
177
     2
291
     1
 71
     1
176
     1
 72
     0
176
     1
 73
     1
176
     1
 90
        0
176
     1
 40
-0.6
176
     1
 41
-30.0
176
     1
 62
     5
 63
     7
421
 16777215
176
     1
 74
     0
176
     1
 91
        4
176
     1
 64
     7
176
     1
 65
   257
176
     1
 75
     1
176
     1
175
     1
176
     1
 42
1.0
176
     1
 92
        8
176
     1
 66
     7
176
     1
 43
1.0
176
     1
 76
     1
176
     1
 77
     6
176
     1
 78
     2
176
     1
 67
     7
176
     1
 79
     5
176
     1
170
     0
176
     1
171
     0
176
     1
290
     0
176
     1
 93
        1
176
     1
 44
0.0
176
     1
173
     0
176
     1
  0
VISUALSTYLE
  5
36
102
{ACAD_REACTORS
330
2A
102
}
330
2A
100
AcDbVisualStyle
  2
Brighten
 70
    12
177
     2
291
     1
 71
     2
176
     1
 72
     2
176
     1
 73
     0
176
     1
 90
        0
176
     1
 40
-0.6
176
     1
 41
-30.0
176
     1
 62
     5
 63
     7
421
 16777215
176
     1
 74
     1
176
     1
 91
        4
176
     1
 64
     7
176
     1
 65
   257
176
     1
 75
     1
176
     1
175
     1
176
     1
 42
1.0
176
     1
 92
        8
176
     1
 66
     7
176
     1
 43
1.0
176
     1
 76
     1
176
     1
 77
     6
176
     1
 78
     2
176
     1
 67
     7
176
     1
 79
     5
176
     1
170
     0
176
     1
171
     0
176
     1
290
     0
176
     1
 93
        1
176
     1
 44
50.0
176
     1
173
     0
176
     1
  0
VISUALSTYLE
  5
3A
102
{ACAD_REACTORS
330
2A
102
}
330
2A
100
AcDbVisualStyle
  2
ColorChange
 70
    16
177
     2
291
     1
 71
     2
176
     1
 72
     2
176
     1
 73
     3
176
     1
 90
        0
176
     1
 40
-0.6
176
     1
 41
-30.0
176
     1
 62
     5
 63
     8
421
  8421504
176
     1
 74
     1
176
     1
 91
        4
176
     1
 64
     7
176
     1
 65
   257
176
     1
 75
     1
176
     1
175
     1
176
     1
 42
1.0
176
     1
 92
        8
176
     1
 66
     8
424
  8421504
176
     1
 43
1.0
176
     1
 76
     1
176
     1
 77
     6
176
     1
 78
     2
176
     1
 67
     7
176
     1
 79
     5
176
     1
170
     0
176
     1
171
     0
176
     1
290
     0
176
     1
 93
        1
176
     1
 44
0.0
176
     1
173
     0
176
     1
  0
VISUALSTYLE
  5
34
102
{ACAD_REACTORS
330
2A
102
}
330
2A
100
AcDbVisualStyle
  2
Conceptual
 70
     9
177
     2
291
     0
 71
     3
176
     1
 72
     2
176
     1
 73
     0
176
     1
 90
        0
176
     1
 40
-0.6
176
     1
 41
-30.0
176
     1
 62
     5
 63
     7
421
 16777215
176
     1
 74
     2
176
     1
 91
        2
176
     1
 64
     7
176
     1
 65
   257
176
     1
 75
     1
176
     1
175
     1
176
     1
 42
40.0
176
     1
 92
        8
176
     1
 66
     7
176
     1
 43
1.0
176
     1
 76
     1
176
     1
 77
     6
176
     1
 78
     2
176
     1
 67
     7
176
     1
 79
     3
176
     1
170
     0
176
     1
171
     0
176
     1
290
     0
176
     1
 93
        1
176
     1
 44
0.0
176
     1
173
     0
176
     1
  0
VISUALSTYLE
  5
35
102
{ACAD_REACTORS
330
2A
102
}
330
2A
100
AcDbVisualStyle
  2
Dim
 70
    11
177
     2
291
     1
 71
     2
176
     1
 72
     2
176
     1
 73
     0
176
     1
 90
        0
176
     1
 40
-0.6
176
     1
 41
-30.0
176
     1
 62
     5
 63
     7
421
 16777215
176
     1
 74
     1
176
     1
 91
        4
176
     1
 64
     7
176
     1
 65
   257
176
     1
 75
     1
176
     1
175
     1
176
     1
 42
1.0
176
     1
 92
        8
176
     1
 66
     7
176
     1
 43
1.0
176
     1
 76
     1
176
     1
 77
     6
176
     1
 78
     2
176
     1
 67
     7
176
     1
 79
     5
176
     1
170
     0
176
     1
171
     0
176
     1
290
     0
176
     1
 93
        1
176
     1
 44
-50.0
176
     1
173
     0
176
     1
  0
VISUALSTYLE
  5
39
102
{ACAD_REACTORS
330
2A
102
}
330
2A
100
AcDbVisualStyle
  2
Facepattern
 70
    15
177
     2
291
     1
 71
     2
176
     1
 72
     2
176
     1
 73
     0
176
     1
 90
        0
176
     1
 40
-0.6
176
     1
 41
-30.0
176
     1
 62
     5
 63
     7
421
 16777215
176
     1
 74
     1
176
     1
 91
        4
176
     1
 64
     7
176
     1
 65
   257
176
     1
 75
     1
176
     1
175
     1
176
     1
 42
1.0
176
     1
 92
        8
176
     1
 66
     7
176
     1
 43
1.0
176
     1
 76
     1
176
     1
 77
     6
176
     1
 78
     2
176
     1
 67
     7
176
     1
 79
     5
176
     1
170
     0
176
     1
171
     0
176
     1
290
     0
176
     1
 93
        1
176
     1
 44
0.0
176
     1
173
     0
176
     1
  0
VISUALSTYLE
  5
2B
102
{ACAD_REACTORS
330
2A
102
}
330
2A
100
AcDbVisualStyle
  2
Flat
 70
     0
177
     2
291
     1
 71
     2
176
     1
 72
     1
176
     1
 73
     1
176
     1
 90
        2
176
     1
 40
-0.6
176
     1
 41
30.0
176
     1
 62
     5
 63
     7
421
 16777215
176
     1
 74
     0
176
     1
 91
        4
176
     1
 64
     7
176
     1
 65
   257
176
     1
 75
     1
176
     1
175
     1
176
     1
 42
1.0
176
     1
 92
        8
176
     1
 66
     7
176
     1
 43
1.0
176
     1
 76
     1
176
     1
 77
     6
176
     1
 78
     2
176
     1
 67
     7
176
     1
 79
     5
176
     1
170
     0
176
     1
171
     0
176
     1
290
     0
176
     1
 93
       13
176
     1
 44
0.0
176
     1
173
     0
176
     1
  0
VISUALSTYLE
  5
2C
102
{ACAD_REACTORS
330
2A
102
}
330
2A
100
AcDbVisualStyle
  2
FlatWithEdges
 70
     1
177
     2
291
     1
 71
     2
176
     1
 72
     1
176
     1
 73
     1
176
     1
 90
        2
176
     1
 40
-0.6
176
     1
 41
30.0
176
     1
 62
     5
 63
     7
421
 16777215
176
     1
 74
     1
176
     1
 91
        4
176
     1
 64
     7
176
     1
 65
   257
176
     1
 75
     1
176
     1
175
     1
176
     1
 42
1.0
176
     1
 92
        0
176
     1
 66
   257
176
     1
 43
1.0
176
     1
 76
     1
176
     1
 77
     6
176
     1
 78
     2
176
     1
 67
     7
176
     1
 79
     5
176
     1
170
     0
176
     1
171
     0
176
     1
290
     0
176
     1
 93
       13
176
     1
 44
0.0
176
     1
173
     0
176
     1
  0
VISUALSTYLE
  5
2D
102
{ACAD_REACTORS
330
2A
102
}
330
2A
100
AcDbVisualStyle
  2
Gouraud
 70
     2
177
     2
291
     1
 71
     2
176
     1
 72
     2
176
     1
 73
     1
176
     1
 90
        2
176
     1
 40
-0.6
176
     1
 41
30.0
176
     1
 62
     5
 63
     7
421
 16777215
176
     1
 74
     0
176
     1
 91
        4
176
     1
 64
     7
176
     1
 65
   257
176
     1
 75
     1
176
     1
175
     1
176
     1
 42
1.0
176
     1
 92
        0
176
     1
 66
     7
176
     1
 43
1.0
176
     1
 76
     1
176
     1
 77
     6
176
     1
 78
     2
176
     1
 67
     7
176
     1
 79
     5
176
     1
170
     0
176
     1
171
     0
176
     1
290
     0
176
     1
 93
       13
176
     1
 44
0.0
176
     1
173
     0
176
     1
  0
VISUALSTYLE
  5
2E
102
{ACAD_REACTORS
330
2A
102
}
330
2A
100
AcDbVisualStyle
  2
GouraudWithEdges
 70
     3
177
     2
291
     1
 71
     2
176
     1
 72
     2
176
     1
 73
     1
176
     1
 90
        2
176
     1
 40
-0.6
176
     1
 41
30.0
176
     1
 62
     5
 63
     7
421
 16777215
176
     1
 74
     1
176
     1
 91
        4
176
     1
 64
     7
176
     1
 65
   257
176
     1
 75
     1
176
     1
175
     1
176
     1
 42
1.0
176
     1
 92
        0
176
     1
 66
   257
176
     1
 43
1.0
176
     1
 76
     1
176
     1
 77
     6
176
     1
 78
     2
176
     1
 67
     7
176
     1
 79
     5
176
     1
170
     0
176
     1
171
     0
176
     1
290
     0
176
     1
 93
       13
176
     1
 44
0.0
176
     1
173
     0
176
     1
  0
VISUALSTYLE
  5
38
102
{ACAD_REACTORS
330
2A
102
}
330
2A
100
AcDbVisualStyle
  2
Linepattern
 70
    14
177
     2
291
     1
 71
     2
176
     1
 72
     2
176
     1
 73
     0
176
     1
 90
        0
176
     1
 40
-0.6
176
     1
 41
-30.0
176
     1
 62
     5
 63
     7
421
 16777215
176
     1
 74
     1
176
     1
 91
        4
176
     1
 64
     7
176
     1
 65
   257
176
     1
 75
     7
176
     1
175
     7
176
     1
 42
1.0
176
     1
 92
        8
176
     1
 66
     7
176
     1
 43
1.0
176
     1
 76
     1
176
     1
 77
     6
176
     1
 78
     2
176
     1
 67
     7
176
     1
 79
     5
176
     1
170
     0
176
     1
171
     0
176
     1
290
     0
176
     1
 93
        1
176
     1
 44
0.0
176
     1
173
     0
176
     1
  0
VISUALSTYLE
  5
33
102
{ACAD_REACTORS
330
2A
102
}
330
2A
100
AcDbVisualStyle
  2
Realistic
 70
     8
177
     2
291
     0
 71
     2
176
     1
 72
     2
176
     1
 73
     0
176
     1
 90
        0
176
     1
 40
-0.6
176
     1
 41
-30.0
176
     1
 62
     5
 63
     7
421
 16777215
176
     1
 74
     1
176
     1
 91
        0
176
     1
 64
     7
176
     1
 65
   257
176
     1
 75
     1
176
     1
175
     1
176
     1
 42
1.0
176
     1
 92
        8
176
     1
 66
     8
424
  7895160
176
     1
 43
1.0
176
     1
 76
     1
176
     1
 77
     6
176
     1
 78
     2
176
     1
 67
     7
176
     1
 79
     5
176
     1
170
     0
176
     1
171
     0
176
     1
290
     0
176
     1
 93
       13
176
     1
 44
0.0
176
     1
173
     0
176
     1
  0
VISUALSTYLE
  5
37
102
{ACAD_REACTORS
330
2A
102
}
330
2A
100
AcDbVisualStyle
  2
Thicken
 70
    13
177
     2
291
     1
 71
     2
176
     1
 72
     2
176
     1
 73
     0
176
     1
 90
        0
176
     1
 40
-0.6
176
     1
 41
-30.0
176
     1
 62
     5
 63
     7
421
 16777215
176
     1
 74
     1
176
     1
 91
        4
176
     1
 64
     7
176
     1
 65
   257
176
     1
 75
     1
176
     1
175
     1
176
     1
 42
1.0
176
     1
 92
       12
176
     1
 66
     7
176
     1
 43
1.0
176
     1
 76
     1
176
     1
 77
     6
176
     1
 78
     2
176
     1
 67
     7
176
     1
 79
     5
176
     1
170
     0
176
     1
171
     0
176
     1
290
     0
176
     1
 93
        1
176
     1
 44
0.0
176
     1
173
     0
176
     1
  0
ENDSEC
  0
EOF
