  0
SECTION
  2
HEADER
  9
$ACADVER
  1
AC1024
  9
$ACADMAINTVER
 70
     6
  9
$DWGCODEPAGE
  3
ANSI_932
  9
$INSBASE
 10
0.0
 20
0.0
 30
0.0
  9
$EXTMIN
 10
-4455.0
 20
-3150.0
 30
0.0
  9
$EXTMAX
 10
4455.0
 20
3150.0
 30
0.0
  9
$LIMMIN
 10
-4455.0
 20
-3150.0
  9
$LIMMAX
 10
4455.0
 20
3150.0
  9
$ORTHOMODE
 70
     0
  9
$REGENMODE
 70
     1
  9
$FILLMODE
 70
     1
  9
$QTEXTMODE
 70
     0
  9
$MIRRTEXT
 70
     1
  9
$LTSCALE
 40
30.0
  9
$ATTMODE
 70
     1
  9
$TEXTSIZE
 40
2.5
  9
$TRACEWID
 40
1.0
  9
$TEXTSTYLE
  7
Standard
  9
$CLAYER
  8
0
  9
$CELTYPE
  6
ByLayer
  9
$CECOLOR
 62
   256
  9
$CELTSCALE
 40
1.0
  9
$DISPSILH
 70
     0
  9
$DIMSCALE
 40
1.0
  9
$DIMASZ
 40
2.5
  9
$DIMEXO
 40
0.625
  9
$DIMDLI
 40
3.75
  9
$DIMRND
 40
0.0
  9
$DIMDLE
 40
0.0
  9
$DIMEXE
 40
1.25
  9
$DIMTP
 40
0.0
  9
$DIMTM
 40
0.0
  9
$DIMTXT
 40
2.5
  9
$DIMCEN
 40
2.5
  9
$DIMTSZ
 40
0.0
  9
$DIMTOL
 70
     0
  9
$DIMLIM
 70
     0
  9
$DIMTIH
 70
     0
  9
$DIMTOH
 70
     0
  9
$DIMSE1
 70
     0
  9
$DIMSE2
 70
     0
  9
$DIMTAD
 70
     1
  9
$DIMZIN
 70
     8
  9
$DIMBLK
  1

  9
$DIMASO
 70
     1
  9
$DIMSHO
 70
     1
  9
$DIMPOST
  1

  9
$DIMAPOST
  1

  9
$DIMALT
 70
     0
  9
$DIMALTD
 70
     3
  9
$DIMALTF
 40
0.03937007874016
  9
$DIMLFAC
 40
1.0
  9
$DIMTOFL
 70
     1
  9
$DIMTVP
 40
0.0
  9
$DIMTIX
 70
     0
  9
$DIMSOXD
 70
     0
  9
$DIMSAH
 70
     0
  9
$DIMBLK1
  1

  9
$DIMBLK2
  1

  9
$DIMSTYLE
  2
ISO-25
  9
$DIMCLRD
 70
     0
  9
$DIMCLRE
 70
     0
  9
$DIMCLRT
 70
     0
  9
$DIMTFAC
 40
1.0
  9
$DIMGAP
 40
0.625
  9
$DIMJUST
 70
     0
  9
$DIMSD1
 70
     0
  9
$DIMSD2
 70
     0
  9
$DIMTOLJ
 70
     0
  9
$DIMTZIN
 70
     8
  9
$DIMALTZ
 70
     0
  9
$DIMALTTZ
 70
     0
  9
$DIMUPT
 70
     0
  9
$DIMDEC
 70
     2
  9
$DIMTDEC
 70
     2
  9
$DIMALTU
 70
     2
  9
$DIMALTTD
 70
     3
  9
$DIMTXSTY
  7
Standard
  9
$DIMAUNIT
 70
     0
  9
$DIMADEC
 70
     0
  9
$DIMALTRND
 40
0.0
  9
$DIMAZIN
 70
     0
  9
$DIMDSEP
 70
    44
  9
$DIMATFIT
 70
     3
  9
$DIMFRAC
 70
     0
  9
$DIMLDRBLK
  1

  9
$DIMLUNIT
 70
     2
  9
$DIMLWD
 70
    -2
  9
$DIMLWE
 70
    -2
  9
$DIMTMOVE
 70
     0
  9
$DIMFXL
 40
1.0
  9
$DIMFXLON
 70
     0
  9
$DIMJOGANG
 40
0.7853981633974483
  9
$DIMTFILL
 70
     0
  9
$DIMTFILLCLR
 70
     0
  9
$DIMARCSYM
 70
     0
  9
$DIMLTYPE
  6

  9
$DIMLTEX1
  6

  9
$DIMLTEX2
  6

  9
$DIMTXTDIRECTION
 70
     0
  9
$LUNITS
 70
     2
  9
$LUPREC
 70
     4
  9
$SKETCHINC
 40
1.0
  9
$FILLETRAD
 40
10.0
  9
$AUNITS
 70
     0
  9
$AUPREC
 70
     0
  9
$MENU
  1
.
  9
$ELEVATION
 40
0.0
  9
$PELEVATION
 40
0.0
  9
$THICKNESS
 40
0.0
  9
$LIMCHECK
 70
     0
  9
$CHAMFERA
 40
10.0
  9
$CHAMFERB
 40
10.0
  9
$CHAMFERC
 40
20.0
  9
$CHAMFERD
 40
0.0
  9
$SKPOLY
 70
     0
  9
$TDCREATE
 40
2457953.399935949
  9
$TDUCREATE
 40
2457953.024935949
  9
$TDUPDATE
 40
2457953.399935961
  9
$TDUUPDATE
 40
2457953.024935961
  9
$TDINDWG
 40
0.0000000116
  9
$TDUSRTIMER
 40
0.0000000116
  9
$USRTIMER
 70
     1
  9
$ANGBASE
 50
0.0
  9
$ANGDIR
 70
     0
  9
$PDMODE
 70
     0
  9
$PDSIZE
 40
0.0
  9
$PLINEWID
 40
0.0
  9
$SPLFRAME
 70
     0
  9
$SPLINETYPE
 70
     6
  9
$SPLINESEGS
 70
     8
  9
$HANDSEED
  5
458
  9
$SURFTAB1
 70
     6
  9
$SURFTAB2
 70
     6
  9
$SURFTYPE
 70
     6
  9
$SURFU
 70
     6
  9
$SURFV
 70
     6
  9
$UCSBASE
  2

  9
$UCSNAME
  2

  9
$UCSORG
 10
0.0
 20
0.0
 30
0.0
  9
$UCSXDIR
 10
1.0
 20
0.0
 30
0.0
  9
$UCSYDIR
 10
0.0
 20
1.0
 30
0.0
  9
$UCSORTHOREF
  2

  9
$UCSORTHOVIEW
 70
     0
  9
$UCSORGTOP
 10
0.0
 20
0.0
 30
0.0
  9
$UCSORGBOTTOM
 10
0.0
 20
0.0
 30
0.0
  9
$UCSORGLEFT
 10
0.0
 20
0.0
 30
0.0
  9
$UCSORGRIGHT
 10
0.0
 20
0.0
 30
0.0
  9
$UCSORGFRONT
 10
0.0
 20
0.0
 30
0.0
  9
$UCSORGBACK
 10
0.0
 20
0.0
 30
0.0
  9
$PUCSBASE
  2

  9
$PUCSNAME
  2

  9
$PUCSORG
 10
0.0
 20
0.0
 30
0.0
  9
$PUCSXDIR
 10
1.0
 20
0.0
 30
0.0
  9
$PUCSYDIR
 10
0.0
 20
1.0
 30
0.0
  9
$PUCSORTHOREF
  2

  9
$PUCSORTHOVIEW
 70
     0
  9
$PUCSORGTOP
 10
0.0
 20
0.0
 30
0.0
  9
$PUCSORGBOTTOM
 10
0.0
 20
0.0
 30
0.0
  9
$PUCSORGLEFT
 10
0.0
 20
0.0
 30
0.0
  9
$PUCSORGRIGHT
 10
0.0
 20
0.0
 30
0.0
  9
$PUCSORGFRONT
 10
0.0
 20
0.0
 30
0.0
  9
$PUCSORGBACK
 10
0.0
 20
0.0
 30
0.0
  9
$USERI1
 70
     0
  9
$USERI2
 70
     0
  9
$USERI3
 70
     0
  9
$USERI4
 70
     0
  9
$USERI5
 70
     0
  9
$USERR1
 40
0.0
  9
$USERR2
 40
0.0
  9
$USERR3
 40
0.0
  9
$USERR4
 40
0.0
  9
$USERR5
 40
0.0
  9
$WORLDVIEW
 70
     1
  9
$SHADEDGE
 70
     3
  9
$SHADEDIF
 70
    70
  9
$TILEMODE
 70
     1
  9
$MAXACTVP
 70
    64
  9
$PINSBASE
 10
0.0
 20
0.0
 30
0.0
  9
$PLIMCHECK
 70
     0
  9
$PEXTMIN
 10
1.000000000000000E+20
 20
1.000000000000000E+20
 30
1.000000000000000E+20
  9
$PEXTMAX
 10
-1.000000000000000E+20
 20
-1.000000000000000E+20
 30
-1.000000000000000E+20
  9
$PLIMMIN
 10
0.0
 20
0.0
  9
$PLIMMAX
 10
420.0
 20
297.0
  9
$UNITMODE
 70
     0
  9
$VISRETAIN
 70
     1
  9
$PLINEGEN
 70
     0
  9
$PSLTSCALE
 70
     1
  9
$TREEDEPTH
 70
  3020
  9
$CMLSTYLE
  2
Standard
  9
$CMLJUST
 70
     0
  9
$CMLSCALE
 40
20.0
  9
$PROXYGRAPHICS
 70
     1
  9
$MEASUREMENT
 70
     1
  9
$CELWEIGHT
370
    -1
  9
$ENDCAPS
280
     0
  9
$JOINSTYLE
280
     0
  9
$LWDISPLAY
290
     0
  9
$INSUNITS
 70
     4
  9
$HYPERLINKBASE
  1

  9
$STYLESHEET
  1

  9
$XEDIT
290
     1
  9
$CEPSNTYPE
380
     0
  9
$PSTYLEMODE
290
     1
  9
$FINGERPRINTGUID
  2
{1BD5D148-D633-461B-858F-B35414203547}
  9
$VERSIONGUID
  2
{FAEB1C32-E019-11D5-929B-00C0DF256EC4}
  9
$EXTNAMES
290
     1
  9
$PSVPSCALE
 40
0.0
  9
$OLESTARTUP
290
     0
  9
$SORTENTS
280
   127
  9
$INDEXCTL
280
     0
  9
$HIDETEXT
280
     1
  9
$XCLIPFRAME
280
     2
  9
$HALOGAP
280
     0
  9
$OBSCOLOR
 70
   257
  9
$OBSLTYPE
280
     0
  9
$INTERSECTIONDISPLAY
280
     0
  9
$INTERSECTIONCOLOR
 70
   257
  9
$DIMASSOC
280
     2
  9
$PROJECTNAME
  1

  9
$CAMERADISPLAY
290
     0
  9
$LENSLENGTH
 40
50.0
  9
$CAMERAHEIGHT
 40
0.0
  9
$STEPSPERSEC
 40
2.0
  9
$STEPSIZE
 40
6.0
  9
$3DDWFPREC
 40
2.0
  9
$PSOLWIDTH
 40
5.0
  9
$PSOLHEIGHT
 40
80.0
  9
$LOFTANG1
 40
1.570796326794897
  9
$LOFTANG2
 40
1.570796326794897
  9
$LOFTMAG1
 40
0.0
  9
$LOFTMAG2
 40
0.0
  9
$LOFTPARAM
 70
     7
  9
$LOFTNORMALS
280
     1
  9
$LATITUDE
 40
37.795
  9
$LONGITUDE
 40
-122.394
  9
$NORTHDIRECTION
 40
0.0
  9
$TIMEZONE
 70
 -8000
  9
$LIGHTGLYPHDISPLAY
280
     1
  9
$TILEMODELIGHTSYNCH
280
     1
  9
$SOLIDHIST
280
     1
  9
$SHOWHIST
280
     1
  9
$DWFFRAME
280
     2
  9
$DGNFRAME
280
     2
  9
$REALWORLDSCALE
290
     1
  9
$INTERFERECOLOR
 62
   256
  9
$CSHADOW
280
     0
  9
$SHADOWPLANELOCATION
 40
0.0
  0
ENDSEC
  0
SECTION
  2
CLASSES
  0
CLASS
  1
ACDBDICTIONARYWDFLT
  2
AcDbDictionaryWithDefault
  3
ObjectDBX Classes
 90
        0
 91
        4
280
     0
281
     0
  0
CLASS
  1
VISUALSTYLE
  2
AcDbVisualStyle
  3
ObjectDBX Classes
 90
     4095
 91
        4
280
     0
281
     0
  0
CLASS
  1
MATERIAL
  2
AcDbMaterial
  3
ObjectDBX Classes
 90
     1153
 91
        4
280
     0
281
     0
  0
ENDSEC
  0
SECTION
  2
TABLES
  0
TABLE
  2
VPORT
  5
8
330
0
100
AcDbSymbolTable
 70
     1
  0
VPORT
  5
29
330
8
100
AcDbSymbolTableRecord
100
AcDbViewportTableRecord
  2
*Active
 70
     0
 10
0.0
 20
0.0
 11
1.0
 21
1.0
 12
0.0
 22
0.0
 13
0.0
 23
0.0
 14
10.0
 24
10.0
 15
10.0
 25
10.0
 16
0.0
 26
0.0
 36
1.0
 17
0.0
 27
0.0
 37
0.0
 40
6930.000000000001
 41
1.414285714285714
 42
50.0
 43
0.0
 44
0.0
 50
0.0
 51
0.0
 71
     0
 72
 10000
 73
     1
 74
     3
 75
     0
 76
     0
 77
     0
 78
     0
281
     0
 65
     1
110
0.0
120
0.0
130
0.0
111
1.0
121
0.0
131
0.0
112
0.0
122
1.0
132
0.0
 79
     0
146
0.0
 60
     3
 61
     5
292
     1
282
     1
141
0.0
142
0.0
 63
   250
  0
ENDTAB
  0
TABLE
  2
LTYPE
  5
5
330
0
100
AcDbSymbolTable
 70
     2
  0
LTYPE
  5
14
330
5
100
AcDbSymbolTableRecord
100
AcDbLinetypeTableRecord
  2
ByBlock
 70
     0
  3

 72
    65
 73
     0
 40
0.0
  0
LTYPE
  5
15
330
5
100
AcDbSymbolTableRecord
100
AcDbLinetypeTableRecord
  2
ByLayer
 70
     0
  3

 72
    65
 73
     0
 40
0.0
  0
LTYPE
  5
16
330
5
100
AcDbSymbolTableRecord
100
AcDbLinetypeTableRecord
  2
Continuous
 70
     0
  3
Solid line
 72
    65
 73
     0
 40
0.0
  0
LTYPE
  5
3F
330
5
100
AcDbSymbolTableRecord
100
AcDbLinetypeTableRecord
  2
JWW_DASHED1
 70
     0
  3
-  --  --  --  --  --  --  --  -
 72
    65
 73
     2
 40
1.693333333333333
 49
0.8466666666666667
 74
     0
 49
-0.8466666666666667
 74
     0
  0
ENDTAB
  0
TABLE
  2
LAYER
  5
2
330
0
100
AcDbSymbolTable
 70
     3
  0
LAYER
  5
10
330
2
100
AcDbSymbolTableRecord
100
AcDbLayerTableRecord
  2
0
 70
     0
 62
     7
  6
Continuous
370
    -3
390
F
347
3E
  0
LAYER
  5
40
330
2
100
AcDbSymbolTableRecord
100
AcDbLayerTableRecord
  2
0-0
 70
     0
 62
     7
  6
Continuous
370
    -3
390
F
347
3E
  0
LAYER
  5
41
330
2
100
AcDbSymbolTableRecord
100
AcDbLayerTableRecord
  2
寸法
 70
     0
 62
     7
  6
Continuous
370
    -3
390
F
347
3E
  0
ENDTAB
  0
TABLE
  2
STYLE
  5
3
330
0
100
AcDbSymbolTable
 70
     1
  0
STYLE
  5
11
330
3
100
AcDbSymbolTableRecord
100
AcDbTextStyleTableRecord
  2
Standard
 70
     0
 40
0.0
 41
1.0
 50
0.0
 71
     0
 42
2.5
  3
txt
  4

  0
ENDTAB
  0
TABLE
  2
VIEW
  5
6
330
0
100
AcDbSymbolTable
 70
     0
  0
ENDTAB
  0
TABLE
  2
UCS
  5
7
330
0
100
AcDbSymbolTable
 70
     0
  0
ENDTAB
  0
TABLE
  2
APPID
  5
9
330
0
100
AcDbSymbolTable
 70
     1
  0
APPID
  5
12
330
9
100
AcDbSymbolTableRecord
100
AcDbRegAppTableRecord
  2
ACAD
 70
     0
  0
ENDTAB
  0
TABLE
  2
DIMSTYLE
  5
A
330
0
100
AcDbSymbolTable
 70
     1
100
AcDbDimStyleTable
  0
DIMSTYLE
105
27
330
A
100
AcDbSymbolTableRecord
100
AcDbDimStyleTableRecord
  2
ISO-25
 70
     0
 41
2.5
 42
0.625
 43
3.75
 44
1.25
 73
     0
 74
     0
 77
     1
 78
     8
140
2.5
141
2.5
143
0.03937007874016
147
0.625
171
     3
172
     1
178
     0
271
     2
272
     2
274
     3
278
    44
283
     0
284
     8
340
11
  0
ENDTAB
  0
TABLE
  2
BLOCK_RECORD
  5
1
330
0
100
AcDbSymbolTable
 70
     1
  0
BLOCK_RECORD
  5
1F
330
1
100
AcDbSymbolTableRecord
100
AcDbBlockTableRecord
  2
*Model_Space
340
22
 70
     0
280
     1
281
     0
  0
BLOCK_RECORD
  5
1B
330
1
100
AcDbSymbolTableRecord
100
AcDbBlockTableRecord
  2
*Paper_Space
340
1E
 70
     0
280
     1
281
     0
  0
BLOCK_RECORD
  5
23
330
1
100
AcDbSymbolTableRecord
100
AcDbBlockTableRecord
  2
*Paper_Space0
340
26
 70
     0
280
     1
281
     0
  0
ENDTAB
  0
ENDSEC
  0
SECTION
  2
BLOCKS
  0
BLOCK
  5
20
330
1F
100
AcDbEntity
  8
0
100
AcDbBlockBegin
  2
*Model_Space
 70
     0
 10
0.0
 20
0.0
 30
0.0
  3
*Model_Space
  1

  0
ENDBLK
  5
21
330
1F
100
AcDbEntity
  8
0
100
AcDbBlockEnd
  0
BLOCK
  5
1C
330
1B
100
AcDbEntity
 67
     1
  8
0
100
AcDbBlockBegin
  2
*Paper_Space
 70
     0
 10
0.0
 20
0.0
 30
0.0
  3
*Paper_Space
  1

  0
ENDBLK
  5
1D
330
1B
100
AcDbEntity
 67
     1
  8
0
100
AcDbBlockEnd
  0
BLOCK
  5
24
330
23
100
AcDbEntity
  8
0
100
AcDbBlockBegin
  2
*Paper_Space0
 70
     0
 10
0.0
 20
0.0
 30
0.0
  3
*Paper_Space0
  1

  0
ENDBLK
  5
25
330
23
100
AcDbEntity
  8
0
100
AcDbBlockEnd
  0
ENDSEC
  0
SECTION
  2
ENTITIES
  0
LINE
  5
42
330
1F
100
AcDbEntity
  8
0-0
  6
Continuous
 62
    92
370
    13
100
AcDbLine
 10
-1594.036356443067
 20
1060.334436737978
 30
0.0
 11
1639.963643556931
 21
1060.334436737978
 31
0.0
  0
LINE
  5
43
330
1F
100
AcDbEntity
  8
0-0
  6
Continuous
 62
    92
370
    13
100
AcDbLine
 10
-1564.036356443067
 20
1024.334436737976
 30
0.0
 11
1609.963643556931
 21
1024.334436737976
 31
0.0
  0
LINE
  5
44
330
1F
100
AcDbEntity
  8
0-0
  6
Continuous
 62
    92
370
    13
100
AcDbLine
 10
1609.963643556931
 20
-986.6655632620229
 30
0.0
 11
1609.963643556931
 21
1060.334436737978
 31
0.0
  0
LINE
  5
45
330
1F
100
AcDbEntity
  8
0-0
  6
Continuous
 62
    92
370
    13
100
AcDbLine
 10
-1564.036356443067
 20
-986.6655632620229
 30
0.0
 11
-1564.036356443067
 21
1060.334436737978
 31
0.0
  0
LINE
  5
46
330
1F
100
AcDbEntity
  8
0-0
  6
Continuous
 62
    92
370
    13
100
AcDbLine
 10
1639.963643556931
 20
-986.6655632620229
 30
0.0
 11
1639.963643556931
 21
1060.334436737978
 31
0.0
  0
LINE
  5
47
330
1F
100
AcDbEntity
  8
0-0
  6
Continuous
 62
    92
370
    13
100
AcDbLine
 10
-1594.036356443067
 20
-986.6655632620229
 30
0.0
 11
-1594.036356443067
 21
1060.334436737978
 31
0.0
  0
LINE
  5
48
330
1F
100
AcDbEntity
  8
0-0
  6
Continuous
 62
    92
370
    13
100
AcDbLine
 10
1639.963643556931
 20
-986.6655632620229
 30
0.0
 11
-1594.036356443067
 21
-986.6655632620229
 31
0.0
  0
LINE
  5
49
330
1F
100
AcDbEntity
  8
0-0
  6
Continuous
 62
    92
370
    13
100
AcDbLine
 10
1609.963643556931
 20
-971.6655632620229
 30
0.0
 11
-1564.036356443067
 21
-971.6655632620229
 31
0.0
  0
ARC
  5
4A
330
1F
100
AcDbEntity
  8
0-0
  6
Continuous
 62
    92
370
    13
100
AcDbCircle
 10
-1535.536356443066
 20
50.33443673797777
 30
0.0
 40
1.5
100
AcDbArc
 50
90.0
 51
180.0
  0
LINE
  5
4B
330
1F
100
AcDbEntity
  8
0-0
  6
Continuous
 62
    92
370
    13
100
AcDbLine
 10
-1496.536356443067
 20
51.83443673797726
 30
0.0
 11
-1535.536356443066
 21
51.83443673797726
 31
0.0
  0
ARC
  5
4C
330
1F
100
AcDbEntity
  8
0-0
  6
Continuous
 62
    92
370
    13
100
AcDbCircle
 10
-1496.536356443067
 20
50.33443673797777
 30
0.0
 40
1.5
100
AcDbArc
 50
0.0
 51
90.00000000000001
  0
LINE
  5
4D
330
1F
100
AcDbEntity
  8
0-0
  6
Continuous
 62
    92
370
    13
100
AcDbLine
 10
-1495.036356443067
 20
-68.66556326202229
 30
0.0
 11
-1495.036356443067
 21
50.33443673797777
 31
0.0
  0
ARC
  5
4E
330
1F
100
AcDbEntity
  8
0-0
  6
Continuous
 62
    92
370
    13
100
AcDbCircle
 10
-1496.536356443067
 20
-68.66556326202229
 30
0.0
 40
1.5
100
AcDbArc
 50
270.0
 51
0.0
  0
LINE
  5
4F
330
1F
100
AcDbEntity
  8
0-0
  6
Continuous
 62
    92
370
    13
100
AcDbLine
 10
-1535.536356443066
 20
-70.16556326202434
 30
0.0
 11
-1496.536356443067
 21
-70.16556326202434
 31
0.0
  0
LINE
  5
50
330
1F
100
AcDbEntity
  8
0-0
  6
Continuous
 62
    92
370
    13
100
AcDbLine
 10
-1537.036356443066
 20
-68.66556326202229
 30
0.0
 11
-1537.036356443066
 21
50.33443673797777
 31
0.0
  0
ARC
  5
51
330
1F
100
AcDbEntity
  8
0-0
  6
Continuous
 62
    92
370
    13
100
AcDbCircle
 10
-1535.536356443066
 20
-68.66556326202229
 30
0.0
 40
1.5
100
AcDbArc
 50
180.0
 51
270.0
  0
ARC
  5
52
330
1F
100
AcDbEntity
  8
0-0
  6
Continuous
 62
     7
370
     9
100
AcDbCircle
 10
-1516.036356443067
 20
-38.7655632620222
 30
0.0
 40
15.0
100
AcDbArc
 50
180.0
 51
0.0
  0
ARC
  5
53
330
1F
100
AcDbEntity
  8
0-0
  6
Continuous
 62
     7
370
     9
100
AcDbCircle
 10
-1516.036356443067
 20
20.43443673797768
 30
0.0
 40
15.0
100
AcDbArc
 50
0.0
 51
180.0
  0
LINE
  5
54
330
1F
100
AcDbEntity
  8
0-0
  6
Continuous
 62
     7
370
     9
100
AcDbLine
 10
-1501.036356443067
 20
-38.7655632620222
 30
0.0
 11
-1501.036356443067
 21
20.43443673797768
 31
0.0
  0
LINE
  5
55
330
1F
100
AcDbEntity
  8
0-0
  6
Continuous
 62
     7
370
     9
100
AcDbLine
 10
-1531.036356443067
 20
20.43443673797768
 30
0.0
 11
-1531.036356443067
 21
-38.7655632620222
 31
0.0
  0
ARC
  5
56
330
1F
100
AcDbEntity
  8
0-0
  6
Continuous
 62
    92
370
    13
100
AcDbCircle
 10
-47.53635644306513
 20
50.33443673797777
 30
0.0
 40
1.5
100
AcDbArc
 50
90.0
 51
180.0
  0
LINE
  5
57
330
1F
100
AcDbEntity
  8
0-0
  6
Continuous
 62
    92
370
    13
100
AcDbLine
 10
-8.536356443066495
 20
51.83443673797726
 30
0.0
 11
-47.53635644306513
 21
51.83443673797726
 31
0.0
  0
ARC
  5
58
330
1F
100
AcDbEntity
  8
0-0
  6
Continuous
 62
    92
370
    13
100
AcDbCircle
 10
-8.536356443066495
 20
50.33443673797777
 30
0.0
 40
1.5
100
AcDbArc
 50
0.0
 51
90.00000000000001
  0
LINE
  5
59
330
1F
100
AcDbEntity
  8
0-0
  6
Continuous
 62
    92
370
    13
100
AcDbLine
 10
-7.036356443066154
 20
-68.66556326202229
 30
0.0
 11
-7.036356443066154
 21
50.33443673797777
 31
0.0
  0
ARC
  5
5A
330
1F
100
AcDbEntity
  8
0-0
  6
Continuous
 62
    92
370
    13
100
AcDbCircle
 10
-8.536356443066495
 20
-68.66556326202229
 30
0.0
 40
1.5
100
AcDbArc
 50
270.0
 51
0.0
  0
LINE
  5
5B
330
1F
100
AcDbEntity
  8
0-0
  6
Continuous
 62
    92
370
    13
100
AcDbLine
 10
-47.53635644306513
 20
-70.16556326202434
 30
0.0
 11
-8.536356443066495
 21
-70.16556326202434
 31
0.0
  0
LINE
  5
5C
330
1F
100
AcDbEntity
  8
0-0
  6
Continuous
 62
    92
370
    13
100
AcDbLine
 10
-49.03635644306547
 20
-68.66556326202229
 30
0.0
 11
-49.03635644306547
 21
50.33443673797777
 31
0.0
  0
ARC
  5
5D
330
1F
100
AcDbEntity
  8
0-0
  6
Continuous
 62
    92
370
    13
100
AcDbCircle
 10
-47.53635644306513
 20
-68.66556326202229
 30
0.0
 40
1.5
100
AcDbArc
 50
180.0
 51
270.0
  0
ARC
  5
5E
330
1F
100
AcDbEntity
  8
0-0
  6
Continuous
 62
     7
370
     9
100
AcDbCircle
 10
-28.03635644306581
 20
-38.7655632620222
 30
0.0
 40
15.0
100
AcDbArc
 50
180.0
 51
0.0
  0
ARC
  5
5F
330
1F
100
AcDbEntity
  8
0-0
  6
Continuous
 62
     7
370
     9
100
AcDbCircle
 10
-28.03635644306581
 20
20.43443673797768
 30
0.0
 40
15.0
100
AcDbArc
 50
0.0
 51
180.0
  0
LINE
  5
60
330
1F
100
AcDbEntity
  8
0-0
  6
Continuous
 62
     7
370
     9
100
AcDbLine
 10
-13.03635644306581
 20
-38.7655632620222
 30
0.0
 11
-13.03635644306581
 21
20.43443673797768
 31
0.0
  0
LINE
  5
61
330
1F
100
AcDbEntity
  8
0-0
  6
Continuous
 62
     7
370
     9
100
AcDbLine
 10
-43.03635644306581
 20
20.43443673797768
 30
0.0
 11
-43.03635644306581
 21
-38.7655632620222
 31
0.0
  0
ARC
  5
62
330
1F
100
AcDbEntity
  8
0-0
  6
Continuous
 62
    92
370
    13
100
AcDbCircle
 10
54.46364355693078
 20
50.33443673797777
 30
0.0
 40
1.5
100
AcDbArc
 50
90.0
 51
180.0
  0
LINE
  5
63
330
1F
100
AcDbEntity
  8
0-0
  6
Continuous
 62
    92
370
    13
100
AcDbLine
 10
93.46364355692941
 20
51.83443673797726
 30
0.0
 11
54.46364355693078
 21
51.83443673797726
 31
0.0
  0
ARC
  5
64
330
1F
100
AcDbEntity
  8
0-0
  6
Continuous
 62
    92
370
    13
100
AcDbCircle
 10
93.46364355692941
 20
50.33443673797777
 30
0.0
 40
1.5
100
AcDbArc
 50
0.0
 51
90.00000000000001
  0
LINE
  5
65
330
1F
100
AcDbEntity
  8
0-0
  6
Continuous
 62
    92
370
    13
100
AcDbLine
 10
94.96364355692975
 20
-68.66556326202229
 30
0.0
 11
94.96364355692975
 21
50.33443673797777
 31
0.0
  0
ARC
  5
66
330
1F
100
AcDbEntity
  8
0-0
  6
Continuous
 62
    92
370
    13
100
AcDbCircle
 10
93.46364355692941
 20
-68.66556326202229
 30
0.0
 40
1.5
100
AcDbArc
 50
270.0
 51
0.0
  0
LINE
  5
67
330
1F
100
AcDbEntity
  8
0-0
  6
Continuous
 62
    92
370
    13
100
AcDbLine
 10
54.46364355693078
 20
-70.16556326202434
 30
0.0
 11
93.46364355692941
 21
-70.16556326202434
 31
0.0
  0
LINE
  5
68
330
1F
100
AcDbEntity
  8
0-0
  6
Continuous
 62
    92
370
    13
100
AcDbLine
 10
52.96364355693044
 20
-68.66556326202229
 30
0.0
 11
52.96364355693044
 21
50.33443673797777
 31
0.0
  0
ARC
  5
69
330
1F
100
AcDbEntity
  8
0-0
  6
Continuous
 62
    92
370
    13
100
AcDbCircle
 10
54.46364355693078
 20
-68.66556326202229
 30
0.0
 40
1.5
100
AcDbArc
 50
180.0
 51
270.0
  0
ARC
  5
6A
330
1F
100
AcDbEntity
  8
0-0
  6
Continuous
 62
     7
370
     9
100
AcDbCircle
 10
73.9636435569301
 20
-38.7655632620222
 30
0.0
 40
15.0
100
AcDbArc
 50
180.0
 51
0.0
  0
ARC
  5
6B
330
1F
100
AcDbEntity
  8
0-0
  6
Continuous
 62
     7
370
     9
100
AcDbCircle
 10
73.9636435569301
 20
20.43443673797768
 30
0.0
 40
15.0
100
AcDbArc
 50
0.0
 51
180.0
  0
LINE
  5
6C
330
1F
100
AcDbEntity
  8
0-0
  6
Continuous
 62
     7
370
     9
100
AcDbLine
 10
88.9636435569301
 20
-38.7655632620222
 30
0.0
 11
88.9636435569301
 21
20.43443673797768
 31
0.0
  0
LINE
  5
6D
330
1F
100
AcDbEntity
  8
0-0
  6
Continuous
 62
     7
370
     9
100
AcDbLine
 10
58.96364355693009
 20
20.43443673797768
 30
0.0
 11
58.96364355693009
 21
-38.7655632620222
 31
0.0
  0
ARC
  5
6E
330
1F
100
AcDbEntity
  8
0-0
  6
Continuous
 62
    92
370
    13
100
AcDbCircle
 10
1542.463643556934
 20
50.33443673797777
 30
0.0
 40
1.5
100
AcDbArc
 50
90.0
 51
180.0
  0
LINE
  5
6F
330
1F
100
AcDbEntity
  8
0-0
  6
Continuous
 62
    92
370
    13
100
AcDbLine
 10
1581.463643556934
 20
51.83443673797726
 30
0.0
 11
1542.463643556934
 21
51.83443673797726
 31
0.0
  0
ARC
  5
70
330
1F
100
AcDbEntity
  8
0-0
  6
Continuous
 62
    92
370
    13
100
AcDbCircle
 10
1581.463643556934
 20
50.33443673797777
 30
0.0
 40
1.5
100
AcDbArc
 50
0.0
 51
90.00000000000001
  0
LINE
  5
71
330
1F
100
AcDbEntity
  8
0-0
  6
Continuous
 62
    92
370
    13
100
AcDbLine
 10
1582.963643556934
 20
-68.66556326202229
 30
0.0
 11
1582.963643556934
 21
50.33443673797777
 31
0.0
  0
ARC
  5
72
330
1F
100
AcDbEntity
  8
0-0
  6
Continuous
 62
    92
370
    13
100
AcDbCircle
 10
1581.463643556934
 20
-68.66556326202229
 30
0.0
 40
1.5
100
AcDbArc
 50
270.0
 51
0.0
  0
LINE
  5
73
330
1F
100
AcDbEntity
  8
0-0
  6
Continuous
 62
    92
370
    13
100
AcDbLine
 10
1542.463643556934
 20
-70.16556326202434
 30
0.0
 11
1581.463643556934
 21
-70.16556326202434
 31
0.0
  0
LINE
  5
74
330
1F
100
AcDbEntity
  8
0-0
  6
Continuous
 62
    92
370
    13
100
AcDbLine
 10
1540.963643556935
 20
-68.66556326202229
 30
0.0
 11
1540.963643556935
 21
50.33443673797777
 31
0.0
  0
ARC
  5
75
330
1F
100
AcDbEntity
  8
0-0
  6
Continuous
 62
    92
370
    13
100
AcDbCircle
 10
1542.463643556934
 20
-68.66556326202229
 30
0.0
 40
1.5
100
AcDbArc
 50
180.0
 51
270.0
  0
ARC
  5
76
330
1F
100
AcDbEntity
  8
0-0
  6
Continuous
 62
     7
370
     9
100
AcDbCircle
 10
1561.963643556934
 20
-38.7655632620222
 30
0.0
 40
15.0
100
AcDbArc
 50
180.0
 51
0.0
  0
ARC
  5
77
330
1F
100
AcDbEntity
  8
0-0
  6
Continuous
 62
     7
370
     9
100
AcDbCircle
 10
1561.963643556934
 20
20.43443673797768
 30
0.0
 40
15.0
100
AcDbArc
 50
0.0
 51
180.0
  0
LINE
  5
78
330
1F
100
AcDbEntity
  8
0-0
  6
Continuous
 62
     7
370
     9
100
AcDbLine
 10
1576.963643556934
 20
-38.7655632620222
 30
0.0
 11
1576.963643556934
 21
20.43443673797768
 31
0.0
  0
LINE
  5
79
330
1F
100
AcDbEntity
  8
0-0
  6
Continuous
 62
     7
370
     9
100
AcDbLine
 10
1546.963643556934
 20
20.43443673797768
 30
0.0
 11
1546.963643556934
 21
-38.7655632620222
 31
0.0
  0
LINE
  5
7A
330
1F
100
AcDbEntity
  8
0-0
  6
Continuous
 62
    92
370
    13
100
AcDbLine
 10
-787.0363564430679
 20
-966.6655632620233
 30
0.0
 11
-787.0363564430679
 21
1016.334436737977
 31
0.0
  0
LINE
  5
7B
330
1F
100
AcDbEntity
  8
0-0
  6
JWW_DASHED1
 62
   120
370
     5
100
AcDbLine
 10
-757.0363564430679
 20
-966.6655632620233
 30
0.0
 11
-757.0363564430679
 21
1016.334436737977
 31
0.0
  0
LINE
  5
7C
330
1F
100
AcDbEntity
  8
0-0
  6
Continuous
 62
    92
370
    13
100
AcDbLine
 10
-1564.036356443067
 20
-966.6655632620233
 30
0.0
 11
22.96364355693214
 21
-966.6655632620233
 31
0.0
  0
LINE
  5
7D
330
1F
100
AcDbEntity
  8
0-0
  6
Continuous
 62
    92
370
    13
100
AcDbLine
 10
-1564.036356443067
 20
1016.334436737977
 30
0.0
 11
22.96364355693214
 21
1016.334436737977
 31
0.0
  0
LINE
  5
7E
330
1F
100
AcDbEntity
  8
0-0
  6
Continuous
 62
    92
370
    13
100
AcDbLine
 10
22.96364355693214
 20
-966.6655632620233
 30
0.0
 11
22.96364355693214
 21
1016.334436737977
 31
0.0
  0
LINE
  5
7F
330
1F
100
AcDbEntity
  8
0-0
  6
Continuous
 62
    92
370
    13
100
AcDbLine
 10
832.9636435569321
 20
-966.6655632620233
 30
0.0
 11
832.9636435569321
 21
1016.334436737977
 31
0.0
  0
LINE
  5
80
330
1F
100
AcDbEntity
  8
0-0
  6
JWW_DASHED1
 62
   120
370
     5
100
AcDbLine
 10
802.9636435569321
 20
-966.6655632620233
 30
0.0
 11
802.9636435569321
 21
1016.334436737977
 31
0.0
  0
LINE
  5
81
330
1F
100
AcDbEntity
  8
0-0
  6
Continuous
 62
    92
370
    13
100
AcDbLine
 10
1609.963643556931
 20
-966.6655632620233
 30
0.0
 11
22.96364355693214
 21
-966.6655632620233
 31
0.0
  0
LINE
  5
82
330
1F
100
AcDbEntity
  8
0-0
  6
Continuous
 62
    92
370
    13
100
AcDbLine
 10
1609.963643556931
 20
1016.334436737977
 30
0.0
 11
22.96364355693214
 21
1016.334436737977
 31
0.0
  0
LINE
  5
83
330
1F
100
AcDbEntity
  8
0-0
  6
JWW_DASHED1
 62
   120
370
     5
100
AcDbLine
 10
-1564.036356443067
 20
-966.6655632620233
 30
0.0
 11
-1567.036356443068
 21
-966.6655632620233
 31
0.0
  0
LINE
  5
84
330
1F
100
AcDbEntity
  8
0-0
  6
JWW_DASHED1
 62
   120
370
     5
100
AcDbLine
 10
-1567.036356443068
 20
-966.6655632620233
 30
0.0
 11
-1567.036356443068
 21
1016.334436737977
 31
0.0
  0
LINE
  5
85
330
1F
100
AcDbEntity
  8
0-0
  6
JWW_DASHED1
 62
   120
370
     5
100
AcDbLine
 10
-1567.036356443068
 20
1016.334436737977
 30
0.0
 11
-1564.036356443067
 21
1016.334436737977
 31
0.0
  0
LINE
  5
86
330
1F
100
AcDbEntity
  8
0-0
  6
JWW_DASHED1
 62
   120
370
     5
100
AcDbLine
 10
1609.963643556931
 20
-966.6655632620233
 30
0.0
 11
1612.963643556932
 21
-966.6655632620233
 31
0.0
  0
LINE
  5
87
330
1F
100
AcDbEntity
  8
0-0
  6
JWW_DASHED1
 62
   120
370
     5
100
AcDbLine
 10
1612.963643556932
 20
-966.6655632620233
 30
0.0
 11
1612.963643556932
 21
1016.334436737977
 31
0.0
  0
LINE
  5
88
330
1F
100
AcDbEntity
  8
0-0
  6
JWW_DASHED1
 62
   120
370
     5
100
AcDbLine
 10
1612.963643556932
 20
1016.334436737977
 30
0.0
 11
1609.963643556931
 21
1016.334436737977
 31
0.0
  0
LINE
  5
89
330
1F
100
AcDbEntity
  8
0-0
  6
Continuous
 62
    92
370
    13
100
AcDbLine
 10
-1457.036356443069
 20
-816.6655632620233
 30
0.0
 11
-867.0363564430668
 21
-816.6655632620233
 31
0.0
  0
LINE
  5
8A
330
1F
100
AcDbEntity
  8
0-0
  6
Continuous
 62
    92
370
    13
100
AcDbLine
 10
-677.036356443069
 20
-816.6655632620233
 30
0.0
 11
-87.03635644306672
 21
-816.6655632620233
 31
0.0
  0
LINE
  5
8B
330
1F
100
AcDbEntity
  8
0-0
  6
Continuous
 62
    92
370
    13
100
AcDbLine
 10
132.963643556931
 20
-816.6655632620233
 30
0.0
 11
722.9636435569332
 21
-816.6655632620233
 31
0.0
  0
LINE
  5
8C
330
1F
100
AcDbEntity
  8
0-0
  6
Continuous
 62
    92
370
    13
100
AcDbLine
 10
912.963643556931
 20
-816.6655632620233
 30
0.0
 11
1502.963643556933
 21
-816.6655632620233
 31
0.0
  0
LINE
  5
8D
330
1F
100
AcDbEntity
  8
0-0
  6
Continuous
 62
    92
370
    13
100
AcDbLine
 10
-1457.036356443069
 20
881.3344367379761
 30
0.0
 11
-867.0363564430668
 21
881.3344367379761
 31
0.0
  0
LINE
  5
8E
330
1F
100
AcDbEntity
  8
0-0
  6
Continuous
 62
    92
370
    13
100
AcDbLine
 10
-677.036356443069
 20
881.3344367379761
 30
0.0
 11
-87.03635644306672
 21
881.3344367379761
 31
0.0
  0
LINE
  5
8F
330
1F
100
AcDbEntity
  8
0-0
  6
Continuous
 62
    92
370
    13
100
AcDbLine
 10
132.963643556931
 20
881.3344367379761
 30
0.0
 11
722.9636435569332
 21
881.3344367379761
 31
0.0
  0
LINE
  5
90
330
1F
100
AcDbEntity
  8
0-0
  6
Continuous
 62
    92
370
    13
100
AcDbLine
 10
912.963643556931
 20
881.3344367379761
 30
0.0
 11
1502.963643556933
 21
881.3344367379761
 31
0.0
  0
LINE
  5
91
330
1F
100
AcDbEntity
  8
0-0
  6
Continuous
 62
    92
370
    13
100
AcDbLine
 10
1502.963643556933
 20
-966.6655632620233
 30
0.0
 11
1502.963643556933
 21
1016.334436737977
 31
0.0
  0
LINE
  5
92
330
1F
100
AcDbEntity
  8
0-0
  6
Continuous
 62
    92
370
    13
100
AcDbLine
 10
-867.0363564430668
 20
-966.6655632620233
 30
0.0
 11
-867.0363564430668
 21
1016.334436737977
 31
0.0
  0
LINE
  5
93
330
1F
100
AcDbEntity
  8
0-0
  6
Continuous
 62
    92
370
    13
100
AcDbLine
 10
-1457.036356443069
 20
-966.6655632620233
 30
0.0
 11
-1457.036356443069
 21
1016.334436737977
 31
0.0
  0
LINE
  5
94
330
1F
100
AcDbEntity
  8
0-0
  6
Continuous
 62
    92
370
    13
100
AcDbLine
 10
-87.03635644306672
 20
-966.6655632620233
 30
0.0
 11
-87.03635644306672
 21
1016.334436737977
 31
0.0
  0
LINE
  5
95
330
1F
100
AcDbEntity
  8
0-0
  6
Continuous
 62
    92
370
    13
100
AcDbLine
 10
-677.036356443069
 20
-966.6655632620233
 30
0.0
 11
-677.036356443069
 21
1016.334436737977
 31
0.0
  0
LINE
  5
96
330
1F
100
AcDbEntity
  8
0-0
  6
Continuous
 62
    92
370
    13
100
AcDbLine
 10
722.9636435569332
 20
-966.6655632620233
 30
0.0
 11
722.9636435569332
 21
1016.334436737977
 31
0.0
  0
LINE
  5
97
330
1F
100
AcDbEntity
  8
0-0
  6
Continuous
 62
    92
370
    13
100
AcDbLine
 10
132.963643556931
 20
-966.6655632620233
 30
0.0
 11
132.963643556931
 21
1016.334436737977
 31
0.0
  0
LINE
  5
98
330
1F
100
AcDbEntity
  8
0-0
  6
Continuous
 62
    92
370
    13
100
AcDbLine
 10
912.963643556931
 20
-966.6655632620233
 30
0.0
 11
912.963643556931
 21
1016.334436737977
 31
0.0
  0
LINE
  5
99
330
1F
100
AcDbEntity
  8
0-0
  6
JWW_DASHED1
 62
   120
370
     5
100
AcDbLine
 10
-1455.424914659687
 20
-816.665563262028
 30
0.0
 11
-1457.036356443072
 21
-815.0541214786424
 31
0.0
  0
LINE
  5
9A
330
1F
100
AcDbEntity
  8
0-0
  6
JWW_DASHED1
 62
   120
370
     5
100
AcDbLine
 10
-1445.525419723043
 20
-816.6655632620373
 30
0.0
 11
-1457.036356443083
 21
-805.1546265419981
 31
0.0
  0
LINE
  5
9B
330
1F
100
AcDbEntity
  8
0-0
  6
JWW_DASHED1
 62
   120
370
     5
100
AcDbLine
 10
-1435.625924786458
 20
-816.6655632620423
 30
0.0
 11
-1457.036356443088
 21
-795.2551316054124
 31
0.0
  0
LINE
  5
9C
330
1F
100
AcDbEntity
  8
0-0
  6
JWW_DASHED1
 62
   120
370
     5
100
AcDbLine
 10
-1425.726429849846
 20
-816.6655632620196
 30
0.0
 11
-1457.036356443066
 21
-785.3556366687994
 31
0.0
  0
LINE
  5
9D
330
1F
100
AcDbEntity
  8
0-0
  6
JWW_DASHED1
 62
   120
370
     5
100
AcDbLine
 10
-1415.826934913259
 20
-816.6655632620248
 30
0.0
 11
-1457.036356443071
 21
-775.4561417322136
 31
0.0
  0
LINE
  5
9E
330
1F
100
AcDbEntity
  8
0-0
  6
JWW_DASHED1
 62
   120
370
     5
100
AcDbLine
 10
-1405.927439976614
 20
-816.6655632620343
 30
0.0
 11
-1457.036356443079
 21
-765.5566467955698
 31
0.0
  0
LINE
  5
9F
330
1F
100
AcDbEntity
  8
0-0
  6
JWW_DASHED1
 62
   120
370
     5
100
AcDbLine
 10
-1396.02794504003
 20
-816.6655632620391
 30
0.0
 11
-1457.036356443084
 21
-755.6571518589841
 31
0.0
  0
LINE
  5
A0
330
1F
100
AcDbEntity
  8
0-0
  6
JWW_DASHED1
 62
   120
370
     5
100
AcDbLine
 10
-1386.128450103417
 20
-816.6655632620168
 30
0.0
 11
-1457.036356443062
 21
-745.7576569223706
 31
0.0
  0
LINE
  5
A1
330
1F
100
AcDbEntity
  8
0-0
  6
JWW_DASHED1
 62
   120
370
     5
100
AcDbLine
 10
-1376.228955166773
 20
-816.6655632620262
 30
0.0
 11
-1457.036356443072
 21
-735.8581619857263
 31
0.0
  0
LINE
  5
A2
330
1F
100
AcDbEntity
  8
0-0
  6
JWW_DASHED1
 62
   120
370
     5
100
AcDbLine
 10
-1366.329460230186
 20
-816.6655632620309
 30
0.0
 11
-1457.036356443077
 21
-725.9586670491403
 31
0.0
  0
LINE
  5
A3
330
1F
100
AcDbEntity
  8
0-0
  6
JWW_DASHED1
 62
   120
370
     5
100
AcDbLine
 10
-1356.429965293544
 20
-816.6655632620403
 30
0.0
 11
-1457.036356443086
 21
-716.0591721124969
 31
0.0
  0
LINE
  5
A4
330
1F
100
AcDbEntity
  8
0-0
  6
JWW_DASHED1
 62
   120
370
     5
100
AcDbLine
 10
-1346.530470356977
 20
-816.6655632620267
 30
0.0
 11
-1457.036356443076
 21
-706.1596771759263
 31
0.0
  0
LINE
  5
A5
330
1F
100
AcDbEntity
  8
0-0
  6
JWW_DASHED1
 62
   120
370
     5
100
AcDbLine
 10
-1336.630975420345
 20
-816.6655632620226
 30
0.0
 11
-1457.036356443069
 21
-696.2601822392974
 31
0.0
  0
LINE
  5
A6
330
1F
100
AcDbEntity
  8
0-0
  6
JWW_DASHED1
 62
   120
370
     5
100
AcDbLine
 10
-1326.731480483757
 20
-816.6655632620277
 30
0.0
 11
-1457.036356443074
 21
-686.3606873027119
 31
0.0
  0
LINE
  5
A7
330
1F
100
AcDbEntity
  8
0-0
  6
JWW_DASHED1
 62
   120
370
     5
100
AcDbLine
 10
-1316.831985547114
 20
-816.6655632620372
 30
0.0
 11
-1457.036356443083
 21
-676.4611923660685
 31
0.0
  0
LINE
  5
A8
330
1F
100
AcDbEntity
  8
0-0
  6
JWW_DASHED1
 62
   120
370
     5
100
AcDbLine
 10
-1306.932490610528
 20
-816.6655632620418
 30
0.0
 11
-1457.036356443086
 21
-666.561697429483
 31
0.0
  0
LINE
  5
A9
330
1F
100
AcDbEntity
  8
0-0
  6
JWW_DASHED1
 62
   120
370
     5
100
AcDbLine
 10
-1297.032995673917
 20
-816.6655632620199
 30
0.0
 11
-1457.036356443066
 21
-656.6622024928688
 31
0.0
  0
LINE
  5
AA
330
1F
100
AcDbEntity
  8
0-0
  6
JWW_DASHED1
 62
   120
370
     5
100
AcDbLine
 10
-1287.133500737271
 20
-816.6655632620292
 30
0.0
 11
-1457.036356443076
 21
-646.7627075562243
 31
0.0
  0
LINE
  5
AB
330
1F
100
AcDbEntity
  8
0-0
  6
JWW_DASHED1
 62
   120
370
     5
100
AcDbLine
 10
-1277.234005800686
 20
-816.6655632620339
 30
0.0
 11
-1457.036356443079
 21
-636.8632126196403
 31
0.0
  0
LINE
  5
AC
330
1F
100
AcDbEntity
  8
0-0
  6
JWW_DASHED1
 62
   120
370
     5
100
AcDbLine
 10
-1267.334510864045
 20
-816.6655632620382
 30
0.0
 11
-1457.03635644309
 21
-626.9637176829959
 31
0.0
  0
LINE
  5
AD
330
1F
100
AcDbEntity
  8
0-0
  6
JWW_DASHED1
 62
   120
370
     5
100
AcDbLine
 10
-1257.435015927487
 20
-816.6655632620167
 30
0.0
 11
-1457.036356443064
 21
-617.06422274644
 31
0.0
  0
LINE
  5
AE
330
1F
100
AcDbEntity
  8
0-0
  6
JWW_DASHED1
 62
   120
370
     5
100
AcDbLine
 10
-1247.535520990843
 20
-816.6655632620254
 30
0.0
 11
-1457.036356443072
 21
-607.1647278097955
 31
0.0
  0
LINE
  5
AF
330
1F
100
AcDbEntity
  8
0-0
  6
JWW_DASHED1
 62
   120
370
     5
100
AcDbLine
 10
-1237.636026054257
 20
-816.6655632620306
 30
0.0
 11
-1457.036356443079
 21
-597.26523287321
 31
0.0
  0
LINE
  5
B0
330
1F
100
AcDbEntity
  8
0-0
  6
JWW_DASHED1
 62
   120
370
     5
100
AcDbLine
 10
-1227.736531117614
 20
-816.6655632620401
 30
0.0
 11
-1457.036356443086
 21
-587.3657379365676
 31
0.0
  0
LINE
  5
B1
330
1F
100
AcDbEntity
  8
0-0
  6
JWW_DASHED1
 62
   120
370
     5
100
AcDbLine
 10
-1217.837036181059
 20
-816.6655632620134
 30
0.0
 11
-1457.036356443062
 21
-577.4662430000113
 31
0.0
  0
LINE
  5
B2
330
1F
100
AcDbEntity
  8
0-0
  6
JWW_DASHED1
 62
   120
370
     5
100
AcDbLine
 10
-1207.937541244415
 20
-816.6655632620224
 30
0.0
 11
-1457.036356443069
 21
-567.566748063367
 31
0.0
  0
LINE
  5
B3
330
1F
100
AcDbEntity
  8
0-0
  6
JWW_DASHED1
 62
   120
370
     5
100
AcDbLine
 10
-1198.03804630777
 20
-816.6655632620323
 30
0.0
 11
-1457.036356443077
 21
-557.6672531267245
 31
0.0
  0
LINE
  5
B4
330
1F
100
AcDbEntity
  8
0-0
  6
JWW_DASHED1
 62
   120
370
     5
100
AcDbLine
 10
-1188.138551371184
 20
-816.6655632620372
 30
0.0
 11
-1457.036356443083
 21
-547.767758190139
 31
0.0
  0
LINE
  5
B5
330
1F
100
AcDbEntity
  8
0-0
  6
JWW_DASHED1
 62
   120
370
     5
100
AcDbLine
 10
-1178.239056434571
 20
-816.6655632620145
 30
0.0
 11
-1457.036356443062
 21
-537.8682632535238
 31
0.0
  0
LINE
  5
B6
330
1F
100
AcDbEntity
  8
0-0
  6
JWW_DASHED1
 62
   120
370
     5
100
AcDbLine
 10
-1168.339561497987
 20
-816.6655632620199
 30
0.0
 11
-1457.036356443067
 21
-527.9687683169382
 31
0.0
  0
LINE
  5
B7
330
1F
100
AcDbEntity
  8
0-0
  6
JWW_DASHED1
 62
   120
370
     5
100
AcDbLine
 10
-1158.440066561342
 20
-816.6655632620289
 30
0.0
 11
-1457.036356443076
 21
-518.0692733802937
 31
0.0
  0
LINE
  5
B8
330
1F
100
AcDbEntity
  8
0-0
  6
JWW_DASHED1
 62
   120
370
     5
100
AcDbLine
 10
-1148.540571624756
 20
-816.6655632620339
 30
0.0
 11
-1457.036356443079
 21
-508.1697784437109
 31
0.0
  0
LINE
  5
B9
330
1F
100
AcDbEntity
  8
0-0
  6
JWW_DASHED1
 62
   120
370
     5
100
AcDbLine
 10
-1138.641076688119
 20
-816.6655632620345
 30
0.0
 11
-1457.03635644309
 21
-498.2702835070664
 31
0.0
  0
LINE
  5
BA
330
1F
100
AcDbEntity
  8
0-0
  6
JWW_DASHED1
 62
   120
370
     5
100
AcDbLine
 10
-1128.741581751559
 20
-816.665563262016
 30
0.0
 11
-1457.036356443066
 21
-488.3707885705095
 31
0.0
  0
LINE
  5
BB
330
1F
100
AcDbEntity
  8
0-0
  6
JWW_DASHED1
 62
   120
370
     5
100
AcDbLine
 10
-1118.842086814914
 20
-816.6655632620254
 30
0.0
 11
-1457.036356443074
 21
-478.4712936338647
 31
0.0
  0
LINE
  5
BC
330
1F
100
AcDbEntity
  8
0-0
  6
JWW_DASHED1
 62
   120
370
     5
100
AcDbLine
 10
-1108.942591878268
 20
-816.665563262035
 30
0.0
 11
-1457.036356443079
 21
-468.5717986972236
 31
0.0
  0
LINE
  5
BD
330
1F
100
AcDbEntity
  8
0-0
  6
JWW_DASHED1
 62
   120
370
     5
100
AcDbLine
 10
-1099.043096941684
 20
-816.6655632620403
 30
0.0
 11
-1457.036356443086
 21
-458.6723037606379
 31
0.0
  0
LINE
  5
BE
330
1F
100
AcDbEntity
  8
0-0
  6
JWW_DASHED1
 62
   120
370
     5
100
AcDbLine
 10
-1089.143602005069
 20
-816.6655632620175
 30
0.0
 11
-1457.036356443066
 21
-448.7728088240219
 31
0.0
  0
LINE
  5
BF
330
1F
100
AcDbEntity
  8
0-0
  6
JWW_DASHED1
 62
   120
370
     5
100
AcDbLine
 10
-1079.244107068485
 20
-816.6655632620224
 30
0.0
 11
-1457.036356443072
 21
-438.8733138874362
 31
0.0
  0
LINE
  5
C0
330
1F
100
AcDbEntity
  8
0-0
  6
JWW_DASHED1
 62
   120
370
     5
100
AcDbLine
 10
-1069.34461213184
 20
-816.6655632620323
 30
0.0
 11
-1457.036356443076
 21
-428.9738189507955
 31
0.0
  0
LINE
  5
C1
330
1F
100
AcDbEntity
  8
0-0
  6
JWW_DASHED1
 62
   120
370
     5
100
AcDbLine
 10
-1059.445117195256
 20
-816.6655632620365
 30
0.0
 11
-1457.036356443083
 21
-419.0743240142098
 31
0.0
  0
LINE
  5
C2
330
1F
100
AcDbEntity
  8
0-0
  6
JWW_DASHED1
 62
   120
370
     5
100
AcDbLine
 10
-1049.545622258641
 20
-816.6655632620145
 30
0.0
 11
-1457.036356443062
 21
-409.1748290775934
 31
0.0
  0
LINE
  5
C3
330
1F
100
AcDbEntity
  8
0-0
  6
JWW_DASHED1
 62
   120
370
     5
100
AcDbLine
 10
-1039.646127321997
 20
-816.6655632620237
 30
0.0
 11
-1457.036356443072
 21
-399.2753341409488
 31
0.0
  0
LINE
  5
C4
330
1F
100
AcDbEntity
  8
0-0
  6
JWW_DASHED1
 62
   120
370
     5
100
AcDbLine
 10
-1029.746632385412
 20
-816.6655632620284
 30
0.0
 11
-1457.036356443077
 21
-389.3758392043631
 31
0.0
  0
LINE
  5
C5
330
1F
100
AcDbEntity
  8
0-0
  6
JWW_DASHED1
 62
   120
370
     5
100
AcDbLine
 10
-1019.847137448766
 20
-816.665563262038
 30
0.0
 11
-1457.036356443083
 21
-379.4763442677228
 31
0.0
  0
LINE
  5
C6
330
1F
100
AcDbEntity
  8
0-0
  6
JWW_DASHED1
 62
   120
370
     5
100
AcDbLine
 10
-1009.94764251221
 20
-816.6655632620152
 30
0.0
 11
-1457.036356443076
 21
-369.576849331149
 31
0.0
  0
LINE
  5
C7
330
1F
100
AcDbEntity
  8
0-0
  6
JWW_DASHED1
 62
   120
370
     5
100
AcDbLine
 10
-1000.048147575568
 20
-816.6655632620207
 30
0.0
 11
-1457.036356443069
 21
-359.6773543945199
 31
0.0
  0
LINE
  5
C8
330
1F
100
AcDbEntity
  8
0-0
  6
JWW_DASHED1
 62
   120
370
     5
100
AcDbLine
 10
-990.1486526389838
 20
-816.6655632620258
 30
0.0
 11
-1457.036356443076
 21
-349.7778594579341
 31
0.0
  0
LINE
  5
C9
330
1F
100
AcDbEntity
  8
0-0
  6
JWW_DASHED1
 62
   120
370
     5
100
AcDbLine
 10
-980.2491577023384
 20
-816.6655632620348
 30
0.0
 11
-1457.036356443079
 21
-339.8783645212943
 31
0.0
  0
LINE
  5
CA
330
1F
100
AcDbEntity
  8
0-0
  6
JWW_DASHED1
 62
   120
370
     5
100
AcDbLine
 10
-970.3496627657544
 20
-816.6655632620399
 30
0.0
 11
-1457.036356443086
 21
-329.9788695847086
 31
0.0
  0
LINE
  5
CB
330
1F
100
AcDbEntity
  8
0-0
  6
JWW_DASHED1
 62
   120
370
     5
100
AcDbLine
 10
-960.4501678291397
 20
-816.6655632620175
 30
0.0
 11
-1457.036356443066
 21
-320.0793746480913
 31
0.0
  0
LINE
  5
CC
330
1F
100
AcDbEntity
  8
0-0
  6
JWW_DASHED1
 62
   120
370
     5
100
AcDbLine
 10
-950.5506728924959
 20
-816.6655632620269
 30
0.0
 11
-1457.036356443076
 21
-310.1798797114468
 31
0.0
  0
LINE
  5
CD
330
1F
100
AcDbEntity
  8
0-0
  6
JWW_DASHED1
 62
   120
370
     5
100
AcDbLine
 10
-940.6511779559103
 20
-816.6655632620323
 30
0.0
 11
-1457.036356443076
 21
-300.2803847748658
 31
0.0
  0
LINE
  5
CE
330
1F
100
AcDbEntity
  8
0-0
  6
JWW_DASHED1
 62
   120
370
     5
100
AcDbLine
 10
-930.7516830192801
 20
-816.6655632620269
 30
0.0
 11
-1457.036356443086
 21
-290.3808898382212
 31
0.0
  0
LINE
  5
CF
330
1F
100
AcDbEntity
  8
0-0
  6
JWW_DASHED1
 62
   120
370
     5
100
AcDbLine
 10
-920.8521880827116
 20
-816.6655632620143
 30
0.0
 11
-1457.036356443064
 21
-280.4813949016628
 31
0.0
  0
LINE
  5
D0
330
1F
100
AcDbEntity
  8
0-0
  6
JWW_DASHED1
 62
   120
370
     5
100
AcDbLine
 10
-910.9526931460678
 20
-816.6655632620235
 30
0.0
 11
-1457.036356443072
 21
-270.5818999650182
 31
0.0
  0
LINE
  5
D1
330
1F
100
AcDbEntity
  8
0-0
  6
JWW_DASHED1
 62
   120
370
     5
100
AcDbLine
 10
-901.0531982094822
 20
-816.6655632620284
 30
0.0
 11
-1457.036356443079
 21
-260.6824050284325
 31
0.0
  0
LINE
  5
D2
330
1F
100
AcDbEntity
  8
0-0
  6
JWW_DASHED1
 62
   120
370
     5
100
AcDbLine
 10
-891.1537032728368
 20
-816.6655632620382
 30
0.0
 11
-1457.036356443083
 21
-250.7829100917931
 31
0.0
  0
LINE
  5
D3
330
1F
100
AcDbEntity
  8
0-0
  6
JWW_DASHED1
 62
   120
370
     5
100
AcDbLine
 10
-881.2542083362835
 20
-816.6655632620118
 30
0.0
 11
-1457.036356443076
 21
-240.883415155218
 31
0.0
  0
LINE
  5
D4
330
1F
100
AcDbEntity
  8
0-0
  6
JWW_DASHED1
 62
   120
370
     5
100
AcDbLine
 10
-871.3547133996396
 20
-816.6655632620203
 30
0.0
 11
-1457.036356443071
 21
-230.9839202185893
 31
0.0
  0
LINE
  5
D5
330
1F
100
AcDbEntity
  8
0-0
  6
JWW_DASHED1
 62
   120
370
     5
100
AcDbLine
 10
-867.0363564430736
 20
-811.0844252819509
 30
0.0
 11
-1457.036356443079
 21
-221.0844252819447
 31
0.0
  0
LINE
  5
D6
330
1F
100
AcDbEntity
  8
0-0
  6
JWW_DASHED1
 62
   120
370
     5
100
AcDbLine
 10
-867.0363564430804
 20
-801.1849303453652
 30
0.0
 11
-1457.036356443079
 21
-211.184930345365
 31
0.0
  0
LINE
  5
D7
330
1F
100
AcDbEntity
  8
0-0
  6
JWW_DASHED1
 62
   120
370
     5
100
AcDbLine
 10
-867.0363564430565
 20
-791.2854354087524
 30
0.0
 11
-1457.036356443062
 21
-201.2854354087465
 31
0.0
  0
LINE
  5
D8
330
1F
100
AcDbEntity
  8
0-0
  6
JWW_DASHED1
 62
   120
370
     5
100
AcDbLine
 10
-867.0363564430615
 20
-781.3859404721667
 30
0.0
 11
-1457.036356443069
 21
-191.3859404721603
 31
0.0
  0
LINE
  5
D9
330
1F
100
AcDbEntity
  8
0-0
  6
JWW_DASHED1
 62
   120
370
     5
100
AcDbLine
 10
-867.0363564430702
 20
-771.4864455355219
 30
0.0
 11
-1457.036356443077
 21
-181.4864455355158
 31
0.0
  0
LINE
  5
DA
330
1F
100
AcDbEntity
  8
0-0
  6
JWW_DASHED1
 62
   120
370
     5
100
AcDbLine
 10
-867.036356443077
 20
-761.5869505989368
 30
0.0
 11
-1457.036356443076
 21
-171.5869505989365
 31
0.0
  0
LINE
  5
DB
330
1F
100
AcDbEntity
  8
0-0
  6
JWW_DASHED1
 62
   120
370
     5
100
AcDbLine
 10
-867.0363564430702
 20
-751.6874556623083
 30
0.0
 11
-1457.036356443086
 21
-161.6874556622919
 31
0.0
  0
LINE
  5
DC
330
1F
100
AcDbEntity
  8
0-0
  6
JWW_DASHED1
 62
   120
370
     5
100
AcDbLine
 10
-867.0363564430634
 20
-741.7879607256791
 30
0.0
 11
-1457.036356443069
 21
-151.7879607256729
 31
0.0
  0
LINE
  5
DD
330
1F
100
AcDbEntity
  8
0-0
  6
JWW_DASHED1
 62
   120
370
     5
100
AcDbLine
 10
-867.0363564430684
 20
-731.8884657890932
 30
0.0
 11
-1457.036356443074
 21
-141.8884657890877
 31
0.0
  0
LINE
  5
DE
330
1F
100
AcDbEntity
  8
0-0
  6
JWW_DASHED1
 62
   120
370
     5
100
AcDbLine
 10
-867.036356443077
 20
-721.9889708524497
 30
0.0
 11
-1457.036356443077
 21
-131.9889708524491
 31
0.0
  0
LINE
  5
DF
330
1F
100
AcDbEntity
  8
0-0
  6
JWW_DASHED1
 62
   120
370
     5
100
AcDbLine
 10
-867.0363564430804
 20
-712.0894759158643
 30
0.0
 11
-1457.036356443083
 21
-122.0894759158634
 31
0.0
  0
LINE
  5
E0
330
1F
100
AcDbEntity
  8
0-0
  6
JWW_DASHED1
 62
   120
370
     5
100
AcDbLine
 10
-867.03635644306
 20
-702.1899809792503
 30
0.0
 11
-1457.036356443066
 21
-112.1899809792444
 31
0.0
  0
LINE
  5
E1
330
1F
100
AcDbEntity
  8
0-0
  6
JWW_DASHED1
 62
   120
370
     5
100
AcDbLine
 10
-867.0363564430668
 20
-692.2904860426646
 30
0.0
 11
-1457.036356443072
 21
-102.2904860426587
 31
0.0
  0
LINE
  5
E2
330
1F
100
AcDbEntity
  8
0-0
  6
JWW_DASHED1
 62
   120
370
     5
100
AcDbLine
 10
-867.0363564430736
 20
-682.3909911060214
 30
0.0
 11
-1457.036356443074
 21
-92.39099110602098
 31
0.0
  0
LINE
  5
E3
330
1F
100
AcDbEntity
  8
0-0
  6
JWW_DASHED1
 62
   120
370
     5
100
AcDbLine
 10
-867.0363564430786
 20
-672.4914961694357
 30
0.0
 11
-1457.036356443079
 21
-82.49149616943527
 31
0.0
  0
LINE
  5
E4
330
1F
100
AcDbEntity
  8
0-0
  6
JWW_DASHED1
 62
   120
370
     5
100
AcDbLine
 10
-867.0363564430581
 20
-662.5920012328213
 30
0.0
 11
-1457.036356443064
 21
-72.59200123281587
 31
0.0
  0
LINE
  5
E5
330
1F
100
AcDbEntity
  8
0-0
  6
JWW_DASHED1
 62
   120
370
     5
100
AcDbLine
 10
-867.0363564430668
 20
-652.692506296177
 30
0.0
 11
-1457.036356443072
 21
-62.69250629617133
 31
0.0
  0
LINE
  5
E6
330
1F
100
AcDbEntity
  8
0-0
  6
JWW_DASHED1
 62
   120
370
     5
100
AcDbLine
 10
-867.0363564430718
 20
-642.7930113595916
 30
0.0
 11
-1457.036356443079
 21
-52.79301135958562
 31
0.0
  0
LINE
  5
E7
330
1F
100
AcDbEntity
  8
0-0
  6
JWW_DASHED1
 62
   120
370
     5
100
AcDbLine
 10
-867.0363564430804
 20
-632.8935164229484
 30
0.0
 11
-1457.036356443079
 21
-42.89351642294832
 31
0.0
  0
LINE
  5
E8
330
1F
100
AcDbEntity
  8
0-0
  6
JWW_DASHED1
 62
   120
370
     5
100
AcDbLine
 10
-867.0363564430702
 20
-622.9940214863788
 30
0.0
 11
-1457.036356443086
 21
-32.99402148636261
 31
0.0
  0
LINE
  5
E9
330
1F
100
AcDbEntity
  8
0-0
  6
JWW_DASHED1
 62
   120
370
     5
100
AcDbLine
 10
-867.0363564430634
 20
-613.0945265497485
 30
0.0
 11
-1457.036356443069
 21
-23.09452654974237
 31
0.0
  0
LINE
  5
EA
330
1F
100
AcDbEntity
  8
0-0
  6
JWW_DASHED1
 62
   120
370
     5
100
AcDbLine
 10
-867.0363564430702
 20
-603.1950316131625
 30
0.0
 11
-1457.036356443076
 21
-13.19503161315708
 31
0.0
  0
LINE
  5
EB
330
1F
100
AcDbEntity
  8
0-0
  6
JWW_DASHED1
 62
   120
370
     5
100
AcDbLine
 10
-867.036356443077
 20
-593.2955366765201
 30
0.0
 11
-1457.036356443076
 21
-3.295536676519788
 31
0.0
  0
LINE
  5
EC
330
1F
100
AcDbEntity
  8
0-0
  6
JWW_DASHED1
 62
   120
370
     5
100
AcDbLine
 10
-867.036356443082
 20
-583.3960417399344
 30
0.0
 11
-1457.036356443083
 21
6.603958260065497
 31
0.0
  0
LINE
  5
ED
330
1F
100
AcDbEntity
  8
0-0
  6
JWW_DASHED1
 62
   120
370
     5
100
AcDbLine
 10
-867.0363564430615
 20
-573.4965468033195
 30
0.0
 11
-1457.036356443067
 21
16.50345319668617
 31
0.0
  0
LINE
  5
EE
330
1F
100
AcDbEntity
  8
0-0
  6
JWW_DASHED1
 62
   120
370
     5
100
AcDbLine
 10
-867.0363564430702
 20
-563.597051866675
 30
0.0
 11
-1457.036356443076
 21
26.40294813333071
 31
0.0
  0
LINE
  5
EF
330
1F
100
AcDbEntity
  8
0-0
  6
JWW_DASHED1
 62
   120
370
     5
100
AcDbLine
 10
-867.0363564430736
 20
-553.6975569300919
 30
0.0
 11
-1457.036356443074
 21
36.30244306990832
 31
0.0
  0
LINE
  5
F0
330
1F
100
AcDbEntity
  8
0-0
  6
JWW_DASHED1
 62
   120
370
     5
100
AcDbLine
 10
-867.0363564430838
 20
-543.7980619934475
 30
0.0
 11
-1457.036356443083
 21
46.20193800655287
 31
0.0
  0
LINE
  5
F1
330
1F
100
AcDbEntity
  8
0-0
  6
JWW_DASHED1
 62
   120
370
     5
100
AcDbLine
 10
-867.03635644306
 20
-533.898567056891
 30
0.0
 11
-1457.036356443066
 21
56.10143294311513
 31
0.0
  0
LINE
  5
F2
330
1F
100
AcDbEntity
  8
0-0
  6
JWW_DASHED1
 62
   120
370
     5
100
AcDbLine
 10
-867.0363564430668
 20
-523.9990721202466
 30
0.0
 11
-1457.036356443074
 21
66.00092787975967
 31
0.0
  0
LINE
  5
F3
330
1F
100
AcDbEntity
  8
0-0
  6
JWW_DASHED1
 62
   120
370
     5
100
AcDbLine
 10
-867.0363564430736
 20
-514.0995771836605
 30
0.0
 11
-1457.036356443079
 21
75.90042281634496
 31
0.0
  0
LINE
  5
F4
330
1F
100
AcDbEntity
  8
0-0
  6
JWW_DASHED1
 62
   120
370
     5
100
AcDbLine
 10
-867.0363564430804
 20
-504.2000822470192
 30
0.0
 11
-1457.036356443079
 21
85.79991775298097
 31
0.0
  0
LINE
  5
F5
330
1F
100
AcDbEntity
  8
0-0
  6
JWW_DASHED1
 62
   120
370
     5
100
AcDbLine
 10
-867.0363564430702
 20
-494.3005873104493
 30
0.0
 11
-1457.036356443086
 21
95.69941268956669
 31
0.0
  0
LINE
  5
F6
330
1F
100
AcDbEntity
  8
0-0
  6
JWW_DASHED1
 62
   120
370
     5
100
AcDbLine
 10
-867.036356443065
 20
-484.4010923738179
 30
0.0
 11
-1457.036356443071
 21
105.5989076261882
 31
0.0
  0
LINE
  5
F7
330
1F
100
AcDbEntity
  8
0-0
  6
JWW_DASHED1
 62
   120
370
     5
100
AcDbLine
 10
-867.0363564430736
 20
-474.5015974371729
 30
0.0
 11
-1457.036356443079
 21
115.4984025628328
 31
0.0
  0
LINE
  5
F8
330
1F
100
AcDbEntity
  8
0-0
  6
JWW_DASHED1
 62
   120
370
     5
100
AcDbLine
 10
-867.036356443077
 20
-464.6021025005911
 30
0.0
 11
-1457.036356443076
 21
125.3978974994091
 31
0.0
  0
LINE
  5
F9
330
1F
100
AcDbEntity
  8
0-0
  6
JWW_DASHED1
 62
   120
370
     5
100
AcDbLine
 10
-867.0363564430565
 20
-454.7026075639747
 30
0.0
 11
-1457.036356443079
 21
135.2973924360468
 31
0.0
  0
LINE
  5
FA
330
1F
100
AcDbEntity
  8
0-0
  6
JWW_DASHED1
 62
   120
370
     5
100
AcDbLine
 10
-867.0363564430634
 20
-444.8031126273889
 30
0.0
 11
-1457.036356443069
 21
145.1968873726167
 31
0.0
  0
LINE
  5
FB
330
1F
100
AcDbEntity
  8
0-0
  6
JWW_DASHED1
 62
   120
370
     5
100
AcDbLine
 10
-867.0363564430718
 20
-434.9036176907444
 30
0.0
 11
-1457.036356443077
 21
155.0963823092613
 31
0.0
  0
LINE
  5
FC
330
1F
100
AcDbEntity
  8
0-0
  6
JWW_DASHED1
 62
   120
370
     5
100
AcDbLine
 10
-867.0363564430736
 20
-425.0041227541625
 30
0.0
 11
-1457.036356443072
 21
164.995877245838
 31
0.0
  0
LINE
  5
FD
330
1F
100
AcDbEntity
  8
0-0
  6
JWW_DASHED1
 62
   120
370
     5
100
AcDbLine
 10
-867.0363564430838
 20
-415.104627817518
 30
0.0
 11
-1457.036356443083
 21
174.8953721824822
 31
0.0
  0
LINE
  5
FE
330
1F
100
AcDbEntity
  8
0-0
  6
JWW_DASHED1
 62
   120
370
     5
100
AcDbLine
 10
-867.0363564430634
 20
-405.2051328809011
 30
0.0
 11
-1457.036356443069
 21
184.7948671191041
 31
0.0
  0
LINE
  5
FF
330
1F
100
AcDbEntity
  8
0-0
  6
JWW_DASHED1
 62
   120
370
     5
100
AcDbLine
 10
-867.0363564430702
 20
-395.3056379443159
 30
0.0
 11
-1457.036356443076
 21
194.6943620556898
 31
0.0
  0
LINE
  5
100
330
1F
100
AcDbEntity
  8
0-0
  6
JWW_DASHED1
 62
   120
370
     5
100
AcDbLine
 10
-867.0363564430736
 20
-385.4061430076752
 30
0.0
 11
-1457.036356443076
 21
204.593856992325
 31
0.0
  0
LINE
  5
101
330
1F
100
AcDbEntity
  8
0-0
  6
JWW_DASHED1
 62
   120
370
     5
100
AcDbLine
 10
-867.0363564430804
 20
-375.5066480710894
 30
0.0
 11
-1457.036356443079
 21
214.4933519289107
 31
0.0
  0
LINE
  5
102
330
1F
100
AcDbEntity
  8
0-0
  6
JWW_DASHED1
 62
   120
370
     5
100
AcDbLine
 10
-867.03635644306
 20
-365.607153134473
 30
0.0
 11
-1457.036356443067
 21
224.3928468655331
 31
0.0
  0
LINE
  5
103
330
1F
100
AcDbEntity
  8
0-0
  6
JWW_DASHED1
 62
   120
370
     5
100
AcDbLine
 10
-867.0363564430668
 20
-355.7076581978873
 30
0.0
 11
-1457.036356443072
 21
234.2923418021188
 31
0.0
  0
LINE
  5
104
330
1F
100
AcDbEntity
  8
0-0
  6
JWW_DASHED1
 62
   120
370
     5
100
AcDbLine
 10
-867.0363564430752
 20
-345.8081632612428
 30
0.0
 11
-1457.036356443083
 21
244.1918367387633
 31
0.0
  0
LINE
  5
105
330
1F
100
AcDbEntity
  8
0-0
  6
JWW_DASHED1
 62
   120
370
     5
100
AcDbLine
 10
-867.036356443077
 20
-335.9086683246613
 30
0.0
 11
-1457.036356443076
 21
254.0913316753388
 31
0.0
  0
LINE
  5
106
330
1F
100
AcDbEntity
  8
0-0
  6
JWW_DASHED1
 62
   120
370
     5
100
AcDbLine
 10
-867.0363564430581
 20
-326.0091733880441
 30
0.0
 11
-1457.036356443064
 21
263.9908266119616
 31
0.0
  0
LINE
  5
107
330
1F
100
AcDbEntity
  8
0-0
  6
JWW_DASHED1
 62
   120
370
     5
100
AcDbLine
 10
-867.0363564430668
 20
-316.1096784513995
 30
0.0
 11
-1457.036356443072
 21
273.8903215486057
 31
0.0
  0
LINE
  5
108
330
1F
100
AcDbEntity
  8
0-0
  6
JWW_DASHED1
 62
   120
370
     5
100
AcDbLine
 10
-867.0363564430736
 20
-306.2101835148138
 30
0.0
 11
-1457.036356443079
 21
283.7898164851919
 31
0.0
  0
LINE
  5
109
330
1F
100
AcDbEntity
  8
0-0
  6
JWW_DASHED1
 62
   120
370
     5
100
AcDbLine
 10
-867.036356443077
 20
-296.3106885781744
 30
0.0
 11
-1457.036356443077
 21
293.6893114218262
 31
0.0
  0
LINE
  5
10A
330
1F
100
AcDbEntity
  8
0-0
  6
JWW_DASHED1
 62
   120
370
     5
100
AcDbLine
 10
-867.0363564430668
 20
-286.4111936416044
 30
0.0
 11
-1457.036356443083
 21
303.5888063584119
 31
0.0
  0
LINE
  5
10B
330
1F
100
AcDbEntity
  8
0-0
  6
JWW_DASHED1
 62
   120
370
     5
100
AcDbLine
 10
-867.036356443065
 20
-276.5116987049706
 30
0.0
 11
-1457.036356443071
 21
313.4883012950351
 31
0.0
  0
LINE
  5
10C
330
1F
100
AcDbEntity
  8
0-0
  6
JWW_DASHED1
 62
   120
370
     5
100
AcDbLine
 10
-867.0363564430702
 20
-266.6122037683849
 30
0.0
 11
-1457.036356443076
 21
323.3877962316208
 31
0.0
  0
LINE
  5
10D
330
1F
100
AcDbEntity
  8
0-0
  6
JWW_DASHED1
 62
   120
370
     5
100
AcDbLine
 10
-867.0363564430736
 20
-256.7127088317459
 30
0.0
 11
-1457.036356443074
 21
333.2872911682543
 31
0.0
  0
LINE
  5
10E
330
1F
100
AcDbEntity
  8
0-0
  6
JWW_DASHED1
 62
   120
370
     5
100
AcDbLine
 10
-867.0363564430786
 20
-246.8132138951606
 30
0.0
 11
-1457.036356443079
 21
343.18678610484
 31
0.0
  0
LINE
  5
10F
330
1F
100
AcDbEntity
  8
0-0
  6
JWW_DASHED1
 62
   120
370
     5
100
AcDbLine
 10
-867.0363564430634
 20
-236.913718958542
 30
0.0
 11
-1457.036356443069
 21
353.0862810414636
 31
0.0
  0
LINE
  5
110
330
1F
100
AcDbEntity
  8
0-0
  6
JWW_DASHED1
 62
   120
370
     5
100
AcDbLine
 10
-867.0363564430702
 20
-227.0142240218979
 30
0.0
 11
-1457.036356443077
 21
362.9857759781082
 31
0.0
  0
LINE
  5
111
330
1F
100
AcDbEntity
  8
0-0
  6
JWW_DASHED1
 62
   120
370
     5
100
AcDbLine
 10
-867.036356443077
 20
-217.1147290853122
 30
0.0
 11
-1457.036356443083
 21
372.8852709146939
 31
0.0
  0
LINE
  5
112
330
1F
100
AcDbEntity
  8
0-0
  6
JWW_DASHED1
 62
   120
370
     5
100
AcDbLine
 10
-867.0363564430804
 20
-207.2152341486728
 30
0.0
 11
-1457.036356443081
 21
382.7847658513274
 31
0.0
  0
LINE
  5
113
330
1F
100
AcDbEntity
  8
0-0
  6
JWW_DASHED1
 62
   120
370
     5
100
AcDbLine
 10
-867.03635644306
 20
-197.3157392121135
 30
0.0
 11
-1457.036356443066
 21
392.6842607878922
 31
0.0
  0
LINE
  5
114
330
1F
100
AcDbEntity
  8
0-0
  6
JWW_DASHED1
 62
   120
370
     5
100
AcDbLine
 10
-867.0363564430684
 20
-187.416244275469
 30
0.0
 11
-1457.036356443074
 21
402.5837557245367
 31
0.0
  0
LINE
  5
115
330
1F
100
AcDbEntity
  8
0-0
  6
JWW_DASHED1
 62
   120
370
     5
100
AcDbLine
 10
-867.0363564430736
 20
-177.5167493388832
 30
0.0
 11
-1457.036356443079
 21
412.4832506611224
 31
0.0
  0
LINE
  5
116
330
1F
100
AcDbEntity
  8
0-0
  6
JWW_DASHED1
 62
   120
370
     5
100
AcDbLine
 10
-867.036356443077
 20
-167.6172544022447
 30
0.0
 11
-1457.036356443077
 21
422.3827455977555
 31
0.0
  0
LINE
  5
117
330
1F
100
AcDbEntity
  8
0-0
  6
JWW_DASHED1
 62
   120
370
     5
100
AcDbLine
 10
-867.0363564430668
 20
-157.7177594656752
 30
0.0
 11
-1457.036356443083
 21
432.2822405343412
 31
0.0
  0
LINE
  5
118
330
1F
100
AcDbEntity
  8
0-0
  6
JWW_DASHED1
 62
   120
370
     5
100
AcDbLine
 10
-867.0363564430668
 20
-147.81826452904
 30
0.0
 11
-1457.036356443072
 21
442.1817354709657
 31
0.0
  0
LINE
  5
119
330
1F
100
AcDbEntity
  8
0-0
  6
JWW_DASHED1
 62
   120
370
     5
100
AcDbLine
 10
-867.0363564430752
 20
-137.9187695923954
 30
0.0
 11
-1457.036356443081
 21
452.0812304076102
 31
0.0
  0
LINE
  5
11A
330
1F
100
AcDbEntity
  8
0-0
  6
JWW_DASHED1
 62
   120
370
     5
100
AcDbLine
 10
-867.0363564430736
 20
-128.0192746558166
 30
0.0
 11
-1457.036356443074
 21
461.980725344184
 31
0.0
  0
LINE
  5
11B
330
1F
100
AcDbEntity
  8
0-0
  6
JWW_DASHED1
 62
   120
370
     5
100
AcDbLine
 10
-867.0363564430565
 20
-118.1197797191972
 30
0.0
 11
-1457.036356443079
 21
471.8802202808243
 31
0.0
  0
LINE
  5
11C
330
1F
100
AcDbEntity
  8
0-0
  6
JWW_DASHED1
 62
   120
370
     5
100
AcDbLine
 10
-867.0363564430634
 20
-108.2202847826115
 30
0.0
 11
-1457.036356443069
 21
481.7797152173943
 31
0.0
  0
LINE
  5
11D
330
1F
100
AcDbEntity
  8
0-0
  6
JWW_DASHED1
 62
   120
370
     5
100
AcDbLine
 10
-867.0363564430718
 20
-98.32078984596734
 30
0.0
 11
-1457.036356443079
 21
491.6792101540387
 31
0.0
  0
LINE
  5
11E
330
1F
100
AcDbEntity
  8
0-0
  6
JWW_DASHED1
 62
   120
370
     5
100
AcDbLine
 10
-867.0363564430702
 20
-88.42129490938802
 30
0.0
 11
-1457.036356443071
 21
501.5787050906121
 31
0.0
  0
LINE
  5
11F
330
1F
100
AcDbEntity
  8
0-0
  6
JWW_DASHED1
 62
   120
370
     5
100
AcDbLine
 10
-867.0363564430804
 20
-78.5217999727439
 30
0.0
 11
-1457.036356443079
 21
511.4782000272562
 31
0.0
  0
LINE
  5
120
330
1F
100
AcDbEntity
  8
0-0
  6
JWW_DASHED1
 62
   120
370
     5
100
AcDbLine
 10
-867.0363564430634
 20
-68.62230503612409
 30
0.0
 11
-1457.036356443069
 21
521.377694963882
 31
0.0
  0
LINE
  5
121
330
1F
100
AcDbEntity
  8
0-0
  6
JWW_DASHED1
 62
   120
370
     5
100
AcDbLine
 10
-867.0363564430702
 20
-58.72281009953838
 30
0.0
 11
-1457.036356443076
 21
531.2771899004673
 31
0.0
  0
LINE
  5
122
330
1F
100
AcDbEntity
  8
0-0
  6
JWW_DASHED1
 62
   120
370
     5
100
AcDbLine
 10
-867.0363564430718
 20
-48.82331516290066
 30
0.0
 11
-1457.036356443072
 21
541.1766848370995
 31
0.0
  0
LINE
  5
123
330
1F
100
AcDbEntity
  8
0-0
  6
JWW_DASHED1
 62
   120
370
     5
100
AcDbLine
 10
-867.036356443077
 20
-38.92382022631494
 30
0.0
 11
-1457.036356443076
 21
551.0761797736852
 31
0.0
  0
LINE
  5
124
330
1F
100
AcDbEntity
  8
0-0
  6
JWW_DASHED1
 62
   120
370
     5
100
AcDbLine
 10
-867.0363564430615
 20
-29.02432528969513
 30
0.0
 11
-1457.036356443067
 21
560.9756747103106
 31
0.0
  0
LINE
  5
125
330
1F
100
AcDbEntity
  8
0-0
  6
JWW_DASHED1
 62
   120
370
     5
100
AcDbLine
 10
-867.0363564430668
 20
-19.12483035310942
 30
0.0
 11
-1457.036356443072
 21
570.8751696468962
 31
0.0
  0
LINE
  5
126
330
1F
100
AcDbEntity
  8
0-0
  6
JWW_DASHED1
 62
   120
370
     5
100
AcDbLine
 10
-867.036356443077
 20
-9.225335416464873
 30
0.0
 11
-1457.036356443083
 21
580.7746645835408
 31
0.0
  0
LINE
  5
127
330
1F
100
AcDbEntity
  8
0-0
  6
JWW_DASHED1
 62
   120
370
     5
100
AcDbLine
 10
-867.0363564430736
 20
0.6741595201127382
 30
0.0
 11
-1457.036356443072
 21
590.6741595201133
 31
0.0
  0
LINE
  5
128
330
1F
100
AcDbEntity
  8
0-0
  6
JWW_DASHED1
 62
   120
370
     5
100
AcDbLine
 10
-867.03635644306
 20
10.57365445673383
 30
0.0
 11
-1457.036356443079
 21
600.5736544567544
 31
0.0
  0
LINE
  5
129
330
1F
100
AcDbEntity
  8
0-0
  6
JWW_DASHED1
 62
   120
370
     5
100
AcDbLine
 10
-867.0363564430668
 20
20.47314939337795
 30
0.0
 11
-1457.036356443074
 21
610.4731493933837
 31
0.0
  0
LINE
  5
12A
330
1F
100
AcDbEntity
  8
0-0
  6
JWW_DASHED1
 62
   120
370
     5
100
AcDbLine
 10
-867.0363564430736
 20
30.37264432996366
 30
0.0
 11
-1457.036356443079
 21
620.3726443299694
 31
0.0
  0
LINE
  5
12B
330
1F
100
AcDbEntity
  8
0-0
  6
JWW_DASHED1
 62
   120
370
     5
100
AcDbLine
 10
-867.0363564430736
 20
40.27213926660011
 30
0.0
 11
-1457.036356443076
 21
630.2721392666007
 31
0.0
  0
LINE
  5
12C
330
1F
100
AcDbEntity
  8
0-0
  6
JWW_DASHED1
 62
   120
370
     5
100
AcDbLine
 10
-867.0363564430804
 20
50.17163420318582
 30
0.0
 11
-1457.036356443079
 21
640.1716342031859
 31
0.0
  0
LINE
  5
12D
330
1F
100
AcDbEntity
  8
0-0
  6
JWW_DASHED1
 62
   120
370
     5
100
AcDbLine
 10
-867.036356443065
 20
60.07112913980649
 30
0.0
 11
-1457.036356443072
 21
650.0711291398126
 31
0.0
  0
LINE
  5
12E
330
1F
100
AcDbEntity
  8
0-0
  6
JWW_DASHED1
 62
   120
370
     5
100
AcDbLine
 10
-867.0363564430702
 20
69.9706240763922
 30
0.0
 11
-1457.036356443076
 21
659.9706240763978
 31
0.0
  0
LINE
  5
12F
330
1F
100
AcDbEntity
  8
0-0
  6
JWW_DASHED1
 62
   120
370
     5
100
AcDbLine
 10
-867.0363564430702
 20
79.87011901302864
 30
0.0
 11
-1457.036356443072
 21
669.8701190130288
 31
0.0
  0
LINE
  5
130
330
1F
100
AcDbEntity
  8
0-0
  6
JWW_DASHED1
 62
   120
370
     5
100
AcDbLine
 10
-867.036356443077
 20
89.76961394961393
 30
0.0
 11
-1457.036356443076
 21
679.769613949614
 31
0.0
  0
LINE
  5
131
330
1F
100
AcDbEntity
  8
0-0
  6
JWW_DASHED1
 62
   120
370
     5
100
AcDbLine
 10
-867.0363564430634
 20
99.66910888623545
 30
0.0
 11
-1457.036356443069
 21
689.6691088862411
 31
0.0
  0
LINE
  5
132
330
1F
100
AcDbEntity
  8
0-0
  6
JWW_DASHED1
 62
   120
370
     5
100
AcDbLine
 10
-867.0363564430718
 20
109.56860382288
 30
0.0
 11
-1457.036356443077
 21
699.5686038228857
 31
0.0
  0
LINE
  5
133
330
1F
100
AcDbEntity
  8
0-0
  6
JWW_DASHED1
 62
   120
370
     5
100
AcDbLine
 10
-867.036356443077
 20
119.4680987594657
 30
0.0
 11
-1457.036356443083
 21
709.4680987594713
 31
0.0
  0
LINE
  5
134
330
1F
100
AcDbEntity
  8
0-0
  6
JWW_DASHED1
 62
   120
370
     5
100
AcDbLine
 10
-867.036356443077
 20
129.3675936961013
 30
0.0
 11
-1457.036356443077
 21
719.3675936961015
 31
0.0
  0
LINE
  5
135
330
1F
100
AcDbEntity
  8
0-0
  6
JWW_DASHED1
 62
   120
370
     5
100
AcDbLine
 10
-867.03635644306
 20
139.2670886326644
 30
0.0
 11
-1457.036356443081
 21
729.2670886326855
 31
0.0
  0
LINE
  5
136
330
1F
100
AcDbEntity
  8
0-0
  6
JWW_DASHED1
 62
   120
370
     5
100
AcDbLine
 10
-867.0363564430702
 20
149.166583569309
 30
0.0
 11
-1457.036356443076
 21
739.1665835693146
 31
0.0
  0
LINE
  5
137
330
1F
100
AcDbEntity
  8
0-0
  6
JWW_DASHED1
 62
   120
370
     5
100
AcDbLine
 10
-867.0363564430736
 20
159.0660785058942
 30
0.0
 11
-1457.036356443079
 21
749.0660785058999
 31
0.0
  0
LINE
  5
138
330
1F
100
AcDbEntity
  8
0-0
  6
JWW_DASHED1
 62
   120
370
     5
100
AcDbLine
 10
-867.0363564430736
 20
168.9655734425294
 30
0.0
 11
-1457.036356443076
 21
758.96557344253
 31
0.0
  0
LINE
  5
139
330
1F
100
AcDbEntity
  8
0-0
  6
JWW_DASHED1
 62
   120
370
     5
100
AcDbLine
 10
-867.0363564430804
 20
178.8650683791155
 30
0.0
 11
-1457.036356443079
 21
768.8650683791157
 31
0.0
  0
LINE
  5
13A
330
1F
100
AcDbEntity
  8
0-0
  6
JWW_DASHED1
 62
   120
370
     5
100
AcDbLine
 10
-867.0363564430668
 20
188.7645633157371
 30
0.0
 11
-1457.036356443072
 21
778.7645633157432
 31
0.0
  0
LINE
  5
13B
330
1F
100
AcDbEntity
  8
0-0
  6
JWW_DASHED1
 62
   120
370
     5
100
AcDbLine
 10
-867.0363564430752
 20
198.6640582523816
 30
0.0
 11
-1457.036356443083
 21
788.6640582523877
 31
0.0
  0
LINE
  5
13C
330
1F
100
AcDbEntity
  8
0-0
  6
JWW_DASHED1
 62
   120
370
     5
100
AcDbLine
 10
-867.0363564430702
 20
208.5635531889575
 30
0.0
 11
-1457.036356443072
 21
798.5635531889585
 31
0.0
  0
LINE
  5
13D
330
1F
100
AcDbEntity
  8
0-0
  6
JWW_DASHED1
 62
   120
370
     5
100
AcDbLine
 10
-867.0363564430634
 20
218.4630481255867
 30
0.0
 11
-1457.036356443081
 21
808.4630481256027
 31
0.0
  0
LINE
  5
13E
330
1F
100
AcDbEntity
  8
0-0
  6
JWW_DASHED1
 62
   120
370
     5
100
AcDbLine
 10
-867.0363564430634
 20
228.362543062166
 30
0.0
 11
-1457.036356443069
 21
818.3625430621717
 31
0.0
  0
LINE
  5
13F
330
1F
100
AcDbEntity
  8
0-0
  6
JWW_DASHED1
 62
   120
370
     5
100
AcDbLine
 10
-867.0363564430736
 20
238.2620379988101
 30
0.0
 11
-1457.036356443079
 21
828.2620379988163
 31
0.0
  0
LINE
  5
140
330
1F
100
AcDbEntity
  8
0-0
  6
JWW_DASHED1
 62
   120
370
     5
100
AcDbLine
 10
-867.036356443077
 20
248.1615329353959
 30
0.0
 11
-1457.036356443083
 21
838.1615329354015
 31
0.0
  0
LINE
  5
141
330
1F
100
AcDbEntity
  8
0-0
  6
JWW_DASHED1
 62
   120
370
     5
100
AcDbLine
 10
-867.036356443077
 20
258.0610278720306
 30
0.0
 11
-1457.036356443077
 21
848.0610278720312
 31
0.0
  0
LINE
  5
142
330
1F
100
AcDbEntity
  8
0-0
  6
JWW_DASHED1
 62
   120
370
     5
100
AcDbLine
 10
-867.036356443065
 20
267.9605228086538
 30
0.0
 11
-1457.036356443071
 21
857.9605228086596
 31
0.0
  0
LINE
  5
143
330
1F
100
AcDbEntity
  8
0-0
  6
JWW_DASHED1
 62
   120
370
     5
100
AcDbLine
 10
-867.0363564430702
 20
277.8600177452395
 30
0.0
 11
-1457.036356443076
 21
867.8600177452452
 31
0.0
  0
LINE
  5
144
330
1F
100
AcDbEntity
  8
0-0
  6
JWW_DASHED1
 62
   120
370
     5
100
AcDbLine
 10
-867.0363564430702
 20
287.7595126818738
 30
0.0
 11
-1457.036356443069
 21
877.759512681874
 31
0.0
  0
LINE
  5
145
330
1F
100
AcDbEntity
  8
0-0
  6
JWW_DASHED1
 62
   120
370
     5
100
AcDbLine
 10
-867.0363564430736
 20
297.6590076184591
 30
0.0
 11
-1450.711785562592
 21
881.3344367379766
 31
0.0
  0
LINE
  5
146
330
1F
100
AcDbEntity
  8
0-0
  6
JWW_DASHED1
 62
   120
370
     5
100
AcDbLine
 10
-867.036356443077
 20
871.8297139419366
 30
0.0
 11
-876.5410792391165
 21
881.3344367379766
 31
0.0
  0
LINE
  5
147
330
1F
100
AcDbEntity
  8
0-0
  6
JWW_DASHED1
 62
   120
370
     5
100
AcDbLine
 10
-867.0363564430615
 20
307.5585025550819
 30
0.0
 11
-1440.812290625957
 21
881.3344367379766
 31
0.0
  0
LINE
  5
148
330
1F
100
AcDbEntity
  8
0-0
  6
JWW_DASHED1
 62
   120
370
     5
100
AcDbLine
 10
-867.0363564430668
 20
317.4579974916676
 30
0.0
 11
-1430.912795689376
 21
881.3344367379766
 31
0.0
  0
LINE
  5
149
330
1F
100
AcDbEntity
  8
0-0
  6
JWW_DASHED1
 62
   120
370
     5
100
AcDbLine
 10
-867.036356443077
 20
327.3574924283122
 30
0.0
 11
-1421.013300752741
 21
881.3344367379766
 31
0.0
  0
LINE
  5
14A
330
1F
100
AcDbEntity
  8
0-0
  6
JWW_DASHED1
 62
   120
370
     5
100
AcDbLine
 10
-867.0363564430702
 20
337.2569873648872
 30
0.0
 11
-1411.11380581616
 21
881.3344367379766
 31
0.0
  0
LINE
  5
14B
330
1F
100
AcDbEntity
  8
0-0
  6
JWW_DASHED1
 62
   120
370
     5
100
AcDbLine
 10
-867.03635644306
 20
347.1564823015109
 30
0.0
 11
-1401.214310879525
 21
881.3344367379766
 31
0.0
  0
LINE
  5
14C
330
1F
100
AcDbEntity
  8
0-0
  6
JWW_DASHED1
 62
   120
370
     5
100
AcDbLine
 10
-867.0363564430684
 20
357.0559772381554
 30
0.0
 11
-1391.31481594289
 21
881.3344367379766
 31
0.0
  0
LINE
  5
14D
330
1F
100
AcDbEntity
  8
0-0
  6
JWW_DASHED1
 62
   120
370
     5
100
AcDbLine
 10
-867.0363564430736
 20
366.9554721747411
 30
0.0
 11
-1381.415321006309
 21
881.3344367379766
 31
0.0
  0
LINE
  5
14E
330
1F
100
AcDbEntity
  8
0-0
  6
JWW_DASHED1
 62
   120
370
     5
100
AcDbLine
 10
-867.0363564430718
 20
376.8549671113746
 30
0.0
 11
-1371.515826069674
 21
881.3344367379766
 31
0.0
  0
LINE
  5
14F
330
1F
100
AcDbEntity
  8
0-0
  6
JWW_DASHED1
 62
   120
370
     5
100
AcDbLine
 10
-867.036356443077
 20
386.7544620479603
 30
0.0
 11
-1361.616331133094
 21
881.3344367379766
 31
0.0
  0
LINE
  5
150
330
1F
100
AcDbEntity
  8
0-0
  6
JWW_DASHED1
 62
   120
370
     5
100
AcDbLine
 10
-867.0363564430668
 20
396.6539569845844
 30
0.0
 11
-1351.716836196458
 21
881.3344367379766
 31
0.0
  0
LINE
  5
151
330
1F
100
AcDbEntity
  8
0-0
  6
JWW_DASHED1
 62
   120
370
     5
100
AcDbLine
 10
-867.0363564430702
 20
406.5534519211697
 30
0.0
 11
-1341.817341259878
 21
881.3344367379766
 31
0.0
  0
LINE
  5
152
330
1F
100
AcDbEntity
  8
0-0
  6
JWW_DASHED1
 62
   120
370
     5
100
AcDbLine
 10
-867.0363564430684
 20
416.4529468578027
 30
0.0
 11
-1331.917846323243
 21
881.3344367379766
 31
0.0
  0
LINE
  5
153
330
1F
100
AcDbEntity
  8
0-0
  6
JWW_DASHED1
 62
   120
370
     5
100
AcDbLine
 10
-867.0363564430736
 20
426.3524417943884
 30
0.0
 11
-1322.018351386662
 21
881.3344367379766
 31
0.0
  0
LINE
  5
154
330
1F
100
AcDbEntity
  8
0-0
  6
JWW_DASHED1
 62
   120
370
     5
100
AcDbLine
 10
-867.0363564430634
 20
436.251936731013
 30
0.0
 11
-1312.118856450027
 21
881.3344367379766
 31
0.0
  0
LINE
  5
155
330
1F
100
AcDbEntity
  8
0-0
  6
JWW_DASHED1
 62
   120
370
     5
100
AcDbLine
 10
-867.0363564430718
 20
446.1514316676574
 30
0.0
 11
-1302.219361513392
 21
881.3344367379766
 31
0.0
  0
LINE
  5
156
330
1F
100
AcDbEntity
  8
0-0
  6
JWW_DASHED1
 62
   120
370
     5
100
AcDbLine
 10
-867.036356443077
 20
456.0509266042428
 30
0.0
 11
-1292.31986657681
 21
881.3344367379766
 31
0.0
  0
LINE
  5
157
330
1F
100
AcDbEntity
  8
0-0
  6
JWW_DASHED1
 62
   120
370
     5
100
AcDbLine
 10
-867.0363564430736
 20
465.9504215408758
 30
0.0
 11
-1282.420371640176
 21
881.3344367379766
 31
0.0
  0
LINE
  5
158
330
1F
100
AcDbEntity
  8
0-0
  6
JWW_DASHED1
 62
   120
370
     5
100
AcDbLine
 10
-867.03635644306
 20
475.8499164774415
 30
0.0
 11
-1272.520876703594
 21
881.3344367379766
 31
0.0
  0
LINE
  5
159
330
1F
100
AcDbEntity
  8
0-0
  6
JWW_DASHED1
 62
   120
370
     5
100
AcDbLine
 10
-867.0363564430702
 20
485.749411414086
 30
0.0
 11
-1262.62138176696
 21
881.3344367379766
 31
0.0
  0
LINE
  5
15A
330
1F
100
AcDbEntity
  8
0-0
  6
JWW_DASHED1
 62
   120
370
     5
100
AcDbLine
 10
-867.0363564430736
 20
495.6489063506713
 30
0.0
 11
-1252.72188683038
 21
881.3344367379766
 31
0.0
  0
LINE
  5
15B
330
1F
100
AcDbEntity
  8
0-0
  6
JWW_DASHED1
 62
   120
370
     5
100
AcDbLine
 10
-867.0363564430718
 20
505.5484012873043
 30
0.0
 11
-1242.822391893744
 21
881.3344367379766
 31
0.0
  0
LINE
  5
15C
330
1F
100
AcDbEntity
  8
0-0
  6
JWW_DASHED1
 62
   120
370
     5
100
AcDbLine
 10
-867.036356443077
 20
515.4478962238896
 30
0.0
 11
-1232.922896957164
 21
881.3344367379766
 31
0.0
  0
LINE
  5
15D
330
1F
100
AcDbEntity
  8
0-0
  6
JWW_DASHED1
 62
   120
370
     5
100
AcDbLine
 10
-867.0363564430668
 20
525.3473911605146
 30
0.0
 11
-1223.023402020529
 21
881.3344367379766
 31
0.0
  0
LINE
  5
15E
330
1F
100
AcDbEntity
  8
0-0
  6
JWW_DASHED1
 62
   120
370
     5
100
AcDbLine
 10
-867.036356443077
 20
535.2468860971591
 30
0.0
 11
-1213.123907083894
 21
881.3344367379766
 31
0.0
  0
LINE
  5
15F
330
1F
100
AcDbEntity
  8
0-0
  6
JWW_DASHED1
 62
   120
370
     5
100
AcDbLine
 10
-867.0363564430684
 20
545.1463810337325
 30
0.0
 11
-1203.224412147313
 21
881.3344367379766
 31
0.0
  0
LINE
  5
160
330
1F
100
AcDbEntity
  8
0-0
  6
JWW_DASHED1
 62
   120
370
     5
100
AcDbLine
 10
-867.0363564430615
 20
555.0458759703608
 30
0.0
 11
-1193.324917210678
 21
881.3344367379766
 31
0.0
  0
LINE
  5
161
330
1F
100
AcDbEntity
  8
0-0
  6
JWW_DASHED1
 62
   120
370
     5
100
AcDbLine
 10
-867.0363564430634
 20
564.9453709069435
 30
0.0
 11
-1183.425422274097
 21
881.3344367379766
 31
0.0
  0
LINE
  5
162
330
1F
100
AcDbEntity
  8
0-0
  6
JWW_DASHED1
 62
   120
370
     5
100
AcDbLine
 10
-867.0363564430736
 20
574.8448658435881
 30
0.0
 11
-1173.525927337462
 21
881.3344367379766
 31
0.0
  0
LINE
  5
163
330
1F
100
AcDbEntity
  8
0-0
  6
JWW_DASHED1
 62
   120
370
     5
100
AcDbLine
 10
-867.036356443077
 20
584.7443607801738
 30
0.0
 11
-1163.62643240088
 21
881.3344367379766
 31
0.0
  0
LINE
  5
164
330
1F
100
AcDbEntity
  8
0-0
  6
JWW_DASHED1
 62
   120
370
     5
100
AcDbLine
 10
-867.0363564430736
 20
594.6438557168046
 30
0.0
 11
-1153.726937464246
 21
881.3344367379766
 31
0.0
  0
LINE
  5
165
330
1F
100
AcDbEntity
  8
0-0
  6
JWW_DASHED1
 62
   120
370
     5
100
AcDbLine
 10
-867.036356443065
 20
604.5433506534309
 30
0.0
 11
-1143.827442527611
 21
881.3344367379766
 31
0.0
  0
LINE
  5
166
330
1F
100
AcDbEntity
  8
0-0
  6
JWW_DASHED1
 62
   120
370
     5
100
AcDbLine
 10
-867.0363564430702
 20
614.4428455900165
 30
0.0
 11
-1133.92794759103
 21
881.3344367379766
 31
0.0
  0
LINE
  5
167
330
1F
100
AcDbEntity
  8
0-0
  6
JWW_DASHED1
 62
   120
370
     5
100
AcDbLine
 10
-867.0363564430668
 20
624.342340526648
 30
0.0
 11
-1124.028452654395
 21
881.3344367379766
 31
0.0
  0
LINE
  5
168
330
1F
100
AcDbEntity
  8
0-0
  6
JWW_DASHED1
 62
   120
370
     5
100
AcDbLine
 10
-867.0363564430702
 20
634.2418354632327
 30
0.0
 11
-1114.128957717815
 21
881.3344367379766
 31
0.0
  0
LINE
  5
169
330
1F
100
AcDbEntity
  8
0-0
  6
JWW_DASHED1
 62
   120
370
     5
100
AcDbLine
 10
-867.0363564430634
 20
644.1413303998598
 30
0.0
 11
-1104.22946278118
 21
881.3344367379766
 31
0.0
  0
LINE
  5
16A
330
1F
100
AcDbEntity
  8
0-0
  6
JWW_DASHED1
 62
   120
370
     5
100
AcDbLine
 10
-867.0363564430668
 20
654.0408253364451
 30
0.0
 11
-1094.329967844599
 21
881.3344367379766
 31
0.0
  0
LINE
  5
16B
330
1F
100
AcDbEntity
  8
0-0
  6
JWW_DASHED1
 62
   120
370
     5
100
AcDbLine
 10
-867.036356443077
 20
663.94032027309
 30
0.0
 11
-1084.430472907962
 21
881.3344367379766
 31
0.0
  0
LINE
  5
16C
330
1F
100
AcDbEntity
  8
0-0
  6
JWW_DASHED1
 62
   120
370
     5
100
AcDbLine
 10
-867.0363564430684
 20
673.8398152096622
 30
0.0
 11
-1074.530977971383
 21
881.3344367379766
 31
0.0
  0
LINE
  5
16D
330
1F
100
AcDbEntity
  8
0-0
  6
JWW_DASHED1
 62
   120
370
     5
100
AcDbLine
 10
-867.0363564430615
 20
683.7393101462906
 30
0.0
 11
-1064.631483034748
 21
881.3344367379766
 31
0.0
  0
LINE
  5
16E
330
1F
100
AcDbEntity
  8
0-0
  6
JWW_DASHED1
 62
   120
370
     5
100
AcDbLine
 10
-867.0363564430702
 20
693.6388050829329
 30
0.0
 11
-1054.731988098113
 21
881.3344367379766
 31
0.0
  0
LINE
  5
16F
330
1F
100
AcDbEntity
  8
0-0
  6
JWW_DASHED1
 62
   120
370
     5
100
AcDbLine
 10
-867.0363564430736
 20
703.5383000195186
 30
0.0
 11
-1044.832493161532
 21
881.3344367379766
 31
0.0
  0
LINE
  5
170
330
1F
100
AcDbEntity
  8
0-0
  6
JWW_DASHED1
 62
   120
370
     5
100
AcDbLine
 10
-867.0363564430702
 20
713.4377949561491
 30
0.0
 11
-1034.932998224897
 21
881.3344367379766
 31
0.0
  0
LINE
  5
171
330
1F
100
AcDbEntity
  8
0-0
  6
JWW_DASHED1
 62
   120
370
     5
100
AcDbLine
 10
-867.0363564430736
 20
723.3372898927344
 30
0.0
 11
-1025.033503288317
 21
881.3344367379766
 31
0.0
  0
LINE
  5
172
330
1F
100
AcDbEntity
  8
0-0
  6
JWW_DASHED1
 62
   120
370
     5
100
AcDbLine
 10
-867.0363564430668
 20
733.2367848293615
 30
0.0
 11
-1015.134008351681
 21
881.3344367379766
 31
0.0
  0
LINE
  5
173
330
1F
100
AcDbEntity
  8
0-0
  6
JWW_DASHED1
 62
   120
370
     5
100
AcDbLine
 10
-867.0363564430702
 20
743.1362797659467
 30
0.0
 11
-1005.234513415101
 21
881.3344367379766
 31
0.0
  0
LINE
  5
174
330
1F
100
AcDbEntity
  8
0-0
  6
JWW_DASHED1
 62
   120
370
     5
100
AcDbLine
 10
-867.0363564430668
 20
753.0357747025772
 30
0.0
 11
-995.3350184784656
 21
881.3344367379766
 31
0.0
  0
LINE
  5
175
330
1F
100
AcDbEntity
  8
0-0
  6
JWW_DASHED1
 62
   120
370
     5
100
AcDbLine
 10
-867.0363564430702
 20
762.9352696391625
 30
0.0
 11
-985.435523541885
 21
881.3344367379766
 31
0.0
  0
LINE
  5
176
330
1F
100
AcDbEntity
  8
0-0
  6
JWW_DASHED1
 62
   120
370
     5
100
AcDbLine
 10
-867.0363564430634
 20
772.8347645757904
 30
0.0
 11
-975.5360286052498
 21
881.3344367379766
 31
0.0
  0
LINE
  5
177
330
1F
100
AcDbEntity
  8
0-0
  6
JWW_DASHED1
 62
   120
370
     5
100
AcDbLine
 10
-867.0363564430736
 20
782.734259512435
 30
0.0
 11
-965.6365336686147
 21
881.3344367379766
 31
0.0
  0
LINE
  5
178
330
1F
100
AcDbEntity
  8
0-0
  6
JWW_DASHED1
 62
   120
370
     5
100
AcDbLine
 10
-867.036356443077
 20
792.6337544490202
 30
0.0
 11
-955.7370387320341
 21
881.3344367379766
 31
0.0
  0
LINE
  5
179
330
1F
100
AcDbEntity
  8
0-0
  6
JWW_DASHED1
 62
   120
370
     5
100
AcDbLine
 10
-867.0363564430718
 20
802.5332493856499
 30
0.0
 11
-945.8375437953989
 21
881.3344367379766
 31
0.0
  0
LINE
  5
17A
330
1F
100
AcDbEntity
  8
0-0
  6
JWW_DASHED1
 62
   120
370
     5
100
AcDbLine
 10
-867.0363564430615
 20
812.4327443222198
 30
0.0
 11
-935.9380488588183
 21
881.3344367379766
 31
0.0
  0
LINE
  5
17B
330
1F
100
AcDbEntity
  8
0-0
  6
JWW_DASHED1
 62
   120
370
     5
100
AcDbLine
 10
-867.0363564430702
 20
822.3322392588635
 30
0.0
 11
-926.0385539221832
 21
881.3344367379766
 31
0.0
  0
LINE
  5
17C
330
1F
100
AcDbEntity
  8
0-0
  6
JWW_DASHED1
 62
   120
370
     5
100
AcDbLine
 10
-867.0363564430752
 20
832.2317341954492
 30
0.0
 11
-916.1390589856026
 21
881.3344367379766
 31
0.0
  0
LINE
  5
17D
330
1F
100
AcDbEntity
  8
0-0
  6
JWW_DASHED1
 62
   120
370
     5
100
AcDbLine
 10
-867.0363564430702
 20
842.1312291320784
 30
0.0
 11
-906.2395640489674
 21
881.3344367379766
 31
0.0
  0
LINE
  5
17E
330
1F
100
AcDbEntity
  8
0-0
  6
JWW_DASHED1
 62
   120
370
     5
100
AcDbLine
 10
-867.0363564430615
 20
852.0307240687067
 30
0.0
 11
-896.3400691123306
 21
881.3344367379766
 31
0.0
  0
LINE
  5
17F
330
1F
100
AcDbEntity
  8
0-0
  6
JWW_DASHED1
 62
   120
370
     5
100
AcDbLine
 10
-867.0363564430668
 20
861.930219005292
 30
0.0
 11
-886.4405741757516
 21
881.3344367379766
 31
0.0
  0
LINE
  5
180
330
1F
100
AcDbEntity
  8
0-0
  6
JWW_DASHED1
 62
   120
370
     5
100
AcDbLine
 10
-675.4249146596871
 20
-816.665563262028
 30
0.0
 11
-677.0363564430725
 21
-815.0541214786424
 31
0.0
  0
LINE
  5
181
330
1F
100
AcDbEntity
  8
0-0
  6
JWW_DASHED1
 62
   120
370
     5
100
AcDbLine
 10
-665.5254197230433
 20
-816.6655632620373
 30
0.0
 11
-677.0363564430827
 21
-805.1546265419981
 31
0.0
  0
LINE
  5
182
330
1F
100
AcDbEntity
  8
0-0
  6
JWW_DASHED1
 62
   120
370
     5
100
AcDbLine
 10
-655.6259247864577
 20
-816.6655632620423
 30
0.0
 11
-677.0363564430877
 21
-795.2551316054124
 31
0.0
  0
LINE
  5
183
330
1F
100
AcDbEntity
  8
0-0
  6
JWW_DASHED1
 62
   120
370
     5
100
AcDbLine
 10
-645.7264298498465
 20
-816.6655632620196
 30
0.0
 11
-677.0363564430656
 21
-785.3556366687994
 31
0.0
  0
LINE
  5
184
330
1F
100
AcDbEntity
  8
0-0
  6
JWW_DASHED1
 62
   120
370
     5
100
AcDbLine
 10
-635.826934913259
 20
-816.6655632620248
 30
0.0
 11
-677.0363564430706
 21
-775.4561417322136
 31
0.0
  0
LINE
  5
185
330
1F
100
AcDbEntity
  8
0-0
  6
JWW_DASHED1
 62
   120
370
     5
100
AcDbLine
 10
-625.9274399766136
 20
-816.6655632620343
 30
0.0
 11
-677.0363564430793
 21
-765.5566467955698
 31
0.0
  0
LINE
  5
186
330
1F
100
AcDbEntity
  8
0-0
  6
JWW_DASHED1
 62
   120
370
     5
100
AcDbLine
 10
-616.0279450400296
 20
-816.6655632620391
 30
0.0
 11
-677.0363564430843
 21
-755.6571518589841
 31
0.0
  0
LINE
  5
187
330
1F
100
AcDbEntity
  8
0-0
  6
JWW_DASHED1
 62
   120
370
     5
100
AcDbLine
 10
-606.1284501034165
 20
-816.6655632620168
 30
0.0
 11
-677.0363564430622
 21
-745.7576569223706
 31
0.0
  0
LINE
  5
188
330
1F
100
AcDbEntity
  8
0-0
  6
JWW_DASHED1
 62
   120
370
     5
100
AcDbLine
 10
-596.228955166773
 20
-816.6655632620262
 30
0.0
 11
-677.0363564430725
 21
-735.8581619857263
 31
0.0
  0
LINE
  5
189
330
1F
100
AcDbEntity
  8
0-0
  6
JWW_DASHED1
 62
   120
370
     5
100
AcDbLine
 10
-586.3294602301855
 20
-816.6655632620309
 30
0.0
 11
-677.0363564430775
 21
-725.9586670491403
 31
0.0
  0
LINE
  5
18A
330
1F
100
AcDbEntity
  8
0-0
  6
JWW_DASHED1
 62
   120
370
     5
100
AcDbLine
 10
-576.4299652935435
 20
-816.6655632620403
 30
0.0
 11
-677.0363564430861
 21
-716.0591721124969
 31
0.0
  0
LINE
  5
18B
330
1F
100
AcDbEntity
  8
0-0
  6
JWW_DASHED1
 62
   120
370
     5
100
AcDbLine
 10
-566.5304703569766
 20
-816.6655632620267
 30
0.0
 11
-677.0363564430759
 21
-706.1596771759263
 31
0.0
  0
LINE
  5
18C
330
1F
100
AcDbEntity
  8
0-0
  6
JWW_DASHED1
 62
   120
370
     5
100
AcDbLine
 10
-556.6309754203448
 20
-816.6655632620226
 30
0.0
 11
-677.036356443069
 21
-696.2601822392974
 31
0.0
  0
LINE
  5
18D
330
1F
100
AcDbEntity
  8
0-0
  6
JWW_DASHED1
 62
   120
370
     5
100
AcDbLine
 10
-546.7314804837574
 20
-816.6655632620277
 30
0.0
 11
-677.036356443074
 21
-686.3606873027119
 31
0.0
  0
LINE
  5
18E
330
1F
100
AcDbEntity
  8
0-0
  6
JWW_DASHED1
 62
   120
370
     5
100
AcDbLine
 10
-536.8319855471136
 20
-816.6655632620372
 30
0.0
 11
-677.0363564430827
 21
-676.4611923660685
 31
0.0
  0
LINE
  5
18F
330
1F
100
AcDbEntity
  8
0-0
  6
JWW_DASHED1
 62
   120
370
     5
100
AcDbLine
 10
-526.932490610528
 20
-816.6655632620418
 30
0.0
 11
-677.0363564430861
 21
-666.561697429483
 31
0.0
  0
LINE
  5
190
330
1F
100
AcDbEntity
  8
0-0
  6
JWW_DASHED1
 62
   120
370
     5
100
AcDbLine
 10
-517.0329956739167
 20
-816.6655632620199
 30
0.0
 11
-677.0363564430656
 21
-656.6622024928688
 31
0.0
  0
LINE
  5
191
330
1F
100
AcDbEntity
  8
0-0
  6
JWW_DASHED1
 62
   120
370
     5
100
AcDbLine
 10
-507.1335007372713
 20
-816.6655632620292
 30
0.0
 11
-677.0363564430759
 21
-646.7627075562243
 31
0.0
  0
LINE
  5
192
330
1F
100
AcDbEntity
  8
0-0
  6
JWW_DASHED1
 62
   120
370
     5
100
AcDbLine
 10
-497.2340058006856
 20
-816.6655632620339
 30
0.0
 11
-677.0363564430793
 21
-636.8632126196403
 31
0.0
  0
LINE
  5
193
330
1F
100
AcDbEntity
  8
0-0
  6
JWW_DASHED1
 62
   120
370
     5
100
AcDbLine
 10
-487.3345108640453
 20
-816.6655632620382
 30
0.0
 11
-677.0363564430895
 21
-626.9637176829959
 31
0.0
  0
LINE
  5
194
330
1F
100
AcDbEntity
  8
0-0
  6
JWW_DASHED1
 62
   120
370
     5
100
AcDbLine
 10
-477.4350159274869
 20
-816.6655632620167
 30
0.0
 11
-677.0363564430638
 21
-617.06422274644
 31
0.0
  0
LINE
  5
195
330
1F
100
AcDbEntity
  8
0-0
  6
JWW_DASHED1
 62
   120
370
     5
100
AcDbLine
 10
-467.5355209908432
 20
-816.6655632620254
 30
0.0
 11
-677.0363564430725
 21
-607.1647278097955
 31
0.0
  0
LINE
  5
196
330
1F
100
AcDbEntity
  8
0-0
  6
JWW_DASHED1
 62
   120
370
     5
100
AcDbLine
 10
-457.6360260542575
 20
-816.6655632620306
 30
0.0
 11
-677.0363564430793
 21
-597.26523287321
 31
0.0
  0
LINE
  5
197
330
1F
100
AcDbEntity
  8
0-0
  6
JWW_DASHED1
 62
   120
370
     5
100
AcDbLine
 10
-447.7365311176138
 20
-816.6655632620401
 30
0.0
 11
-677.0363564430861
 21
-587.3657379365676
 31
0.0
  0
LINE
  5
198
330
1F
100
AcDbEntity
  8
0-0
  6
JWW_DASHED1
 62
   120
370
     5
100
AcDbLine
 10
-437.8370361810587
 20
-816.6655632620134
 30
0.0
 11
-677.0363564430622
 21
-577.4662430000113
 31
0.0
  0
LINE
  5
199
330
1F
100
AcDbEntity
  8
0-0
  6
JWW_DASHED1
 62
   120
370
     5
100
AcDbLine
 10
-427.9375412444151
 20
-816.6655632620224
 30
0.0
 11
-677.036356443069
 21
-567.566748063367
 31
0.0
  0
LINE
  5
19A
330
1F
100
AcDbEntity
  8
0-0
  6
JWW_DASHED1
 62
   120
370
     5
100
AcDbLine
 10
-418.0380463077697
 20
-816.6655632620323
 30
0.0
 11
-677.0363564430775
 21
-557.6672531267245
 31
0.0
  0
LINE
  5
19B
330
1F
100
AcDbEntity
  8
0-0
  6
JWW_DASHED1
 62
   120
370
     5
100
AcDbLine
 10
-408.138551371184
 20
-816.6655632620372
 30
0.0
 11
-677.0363564430827
 21
-547.767758190139
 31
0.0
  0
LINE
  5
19C
330
1F
100
AcDbEntity
  8
0-0
  6
JWW_DASHED1
 62
   120
370
     5
100
AcDbLine
 10
-398.239056434571
 20
-816.6655632620145
 30
0.0
 11
-677.0363564430622
 21
-537.8682632535238
 31
0.0
  0
LINE
  5
19D
330
1F
100
AcDbEntity
  8
0-0
  6
JWW_DASHED1
 62
   120
370
     5
100
AcDbLine
 10
-388.3395614979869
 20
-816.6655632620199
 30
0.0
 11
-677.0363564430672
 21
-527.9687683169382
 31
0.0
  0
LINE
  5
19E
330
1F
100
AcDbEntity
  8
0-0
  6
JWW_DASHED1
 62
   120
370
     5
100
AcDbLine
 10
-378.4400665613416
 20
-816.6655632620289
 30
0.0
 11
-677.0363564430759
 21
-518.0692733802937
 31
0.0
  0
LINE
  5
19F
330
1F
100
AcDbEntity
  8
0-0
  6
JWW_DASHED1
 62
   120
370
     5
100
AcDbLine
 10
-368.5405716247558
 20
-816.6655632620339
 30
0.0
 11
-677.0363564430793
 21
-508.1697784437109
 31
0.0
  0
LINE
  5
1A0
330
1F
100
AcDbEntity
  8
0-0
  6
JWW_DASHED1
 62
   120
370
     5
100
AcDbLine
 10
-358.641076688119
 20
-816.6655632620345
 30
0.0
 11
-677.0363564430895
 21
-498.2702835070664
 31
0.0
  0
LINE
  5
1A1
330
1F
100
AcDbEntity
  8
0-0
  6
JWW_DASHED1
 62
   120
370
     5
100
AcDbLine
 10
-348.7415817515588
 20
-816.665563262016
 30
0.0
 11
-677.0363564430656
 21
-488.3707885705095
 31
0.0
  0
LINE
  5
1A2
330
1F
100
AcDbEntity
  8
0-0
  6
JWW_DASHED1
 62
   120
370
     5
100
AcDbLine
 10
-338.8420868149134
 20
-816.6655632620254
 30
0.0
 11
-677.036356443074
 21
-478.4712936338647
 31
0.0
  0
LINE
  5
1A3
330
1F
100
AcDbEntity
  8
0-0
  6
JWW_DASHED1
 62
   120
370
     5
100
AcDbLine
 10
-328.942591878268
 20
-816.665563262035
 30
0.0
 11
-677.0363564430793
 21
-468.5717986972236
 31
0.0
  0
LINE
  5
1A4
330
1F
100
AcDbEntity
  8
0-0
  6
JWW_DASHED1
 62
   120
370
     5
100
AcDbLine
 10
-319.043096941684
 20
-816.6655632620403
 30
0.0
 11
-677.0363564430861
 21
-458.6723037606379
 31
0.0
  0
LINE
  5
1A5
330
1F
100
AcDbEntity
  8
0-0
  6
JWW_DASHED1
 62
   120
370
     5
100
AcDbLine
 10
-309.1436020050693
 20
-816.6655632620175
 30
0.0
 11
-677.0363564430656
 21
-448.7728088240219
 31
0.0
  0
LINE
  5
1A6
330
1F
100
AcDbEntity
  8
0-0
  6
JWW_DASHED1
 62
   120
370
     5
100
AcDbLine
 10
-299.2441070684853
 20
-816.6655632620224
 30
0.0
 11
-677.0363564430725
 21
-438.8733138874362
 31
0.0
  0
LINE
  5
1A7
330
1F
100
AcDbEntity
  8
0-0
  6
JWW_DASHED1
 62
   120
370
     5
100
AcDbLine
 10
-289.3446121318399
 20
-816.6655632620323
 30
0.0
 11
-677.0363564430759
 21
-428.9738189507955
 31
0.0
  0
LINE
  5
1A8
330
1F
100
AcDbEntity
  8
0-0
  6
JWW_DASHED1
 62
   120
370
     5
100
AcDbLine
 10
-279.4451171952559
 20
-816.6655632620365
 30
0.0
 11
-677.0363564430827
 21
-419.0743240142098
 31
0.0
  0
LINE
  5
1A9
330
1F
100
AcDbEntity
  8
0-0
  6
JWW_DASHED1
 62
   120
370
     5
100
AcDbLine
 10
-269.5456222586412
 20
-816.6655632620145
 30
0.0
 11
-677.0363564430622
 21
-409.1748290775934
 31
0.0
  0
LINE
  5
1AA
330
1F
100
AcDbEntity
  8
0-0
  6
JWW_DASHED1
 62
   120
370
     5
100
AcDbLine
 10
-259.6461273219975
 20
-816.6655632620237
 30
0.0
 11
-677.0363564430725
 21
-399.2753341409488
 31
0.0
  0
LINE
  5
1AB
330
1F
100
AcDbEntity
  8
0-0
  6
JWW_DASHED1
 62
   120
370
     5
100
AcDbLine
 10
-249.7466323854118
 20
-816.6655632620284
 30
0.0
 11
-677.0363564430775
 21
-389.3758392043631
 31
0.0
  0
LINE
  5
1AC
330
1F
100
AcDbEntity
  8
0-0
  6
JWW_DASHED1
 62
   120
370
     5
100
AcDbLine
 10
-239.8471374487664
 20
-816.665563262038
 30
0.0
 11
-677.0363564430827
 21
-379.4763442677228
 31
0.0
  0
LINE
  5
1AD
330
1F
100
AcDbEntity
  8
0-0
  6
JWW_DASHED1
 62
   120
370
     5
100
AcDbLine
 10
-229.9476425122097
 20
-816.6655632620152
 30
0.0
 11
-677.0363564430759
 21
-369.576849331149
 31
0.0
  0
LINE
  5
1AE
330
1F
100
AcDbEntity
  8
0-0
  6
JWW_DASHED1
 62
   120
370
     5
100
AcDbLine
 10
-220.0481475755677
 20
-816.6655632620207
 30
0.0
 11
-677.036356443069
 21
-359.6773543945199
 31
0.0
  0
LINE
  5
1AF
330
1F
100
AcDbEntity
  8
0-0
  6
JWW_DASHED1
 62
   120
370
     5
100
AcDbLine
 10
-210.1486526389837
 20
-816.6655632620258
 30
0.0
 11
-677.0363564430759
 21
-349.7778594579341
 31
0.0
  0
LINE
  5
1B0
330
1F
100
AcDbEntity
  8
0-0
  6
JWW_DASHED1
 62
   120
370
     5
100
AcDbLine
 10
-200.2491577023383
 20
-816.6655632620348
 30
0.0
 11
-677.0363564430793
 21
-339.8783645212943
 31
0.0
  0
LINE
  5
1B1
330
1F
100
AcDbEntity
  8
0-0
  6
JWW_DASHED1
 62
   120
370
     5
100
AcDbLine
 10
-190.3496627657543
 20
-816.6655632620399
 30
0.0
 11
-677.0363564430861
 21
-329.9788695847086
 31
0.0
  0
LINE
  5
1B2
330
1F
100
AcDbEntity
  8
0-0
  6
JWW_DASHED1
 62
   120
370
     5
100
AcDbLine
 10
-180.4501678291396
 20
-816.6655632620175
 30
0.0
 11
-677.0363564430656
 21
-320.0793746480913
 31
0.0
  0
LINE
  5
1B3
330
1F
100
AcDbEntity
  8
0-0
  6
JWW_DASHED1
 62
   120
370
     5
100
AcDbLine
 10
-170.5506728924959
 20
-816.6655632620269
 30
0.0
 11
-677.0363564430759
 21
-310.1798797114468
 31
0.0
  0
LINE
  5
1B4
330
1F
100
AcDbEntity
  8
0-0
  6
JWW_DASHED1
 62
   120
370
     5
100
AcDbLine
 10
-160.6511779559102
 20
-816.6655632620323
 30
0.0
 11
-677.0363564430759
 21
-300.2803847748658
 31
0.0
  0
LINE
  5
1B5
330
1F
100
AcDbEntity
  8
0-0
  6
JWW_DASHED1
 62
   120
370
     5
100
AcDbLine
 10
-150.7516830192802
 20
-816.6655632620269
 30
0.0
 11
-677.0363564430861
 21
-290.3808898382212
 31
0.0
  0
LINE
  5
1B6
330
1F
100
AcDbEntity
  8
0-0
  6
JWW_DASHED1
 62
   120
370
     5
100
AcDbLine
 10
-140.8521880827115
 20
-816.6655632620143
 30
0.0
 11
-677.0363564430638
 21
-280.4813949016628
 31
0.0
  0
LINE
  5
1B7
330
1F
100
AcDbEntity
  8
0-0
  6
JWW_DASHED1
 62
   120
370
     5
100
AcDbLine
 10
-130.9526931460678
 20
-816.6655632620235
 30
0.0
 11
-677.0363564430725
 21
-270.5818999650182
 31
0.0
  0
LINE
  5
1B8
330
1F
100
AcDbEntity
  8
0-0
  6
JWW_DASHED1
 62
   120
370
     5
100
AcDbLine
 10
-121.0531982094821
 20
-816.6655632620284
 30
0.0
 11
-677.0363564430793
 21
-260.6824050284325
 31
0.0
  0
LINE
  5
1B9
330
1F
100
AcDbEntity
  8
0-0
  6
JWW_DASHED1
 62
   120
370
     5
100
AcDbLine
 10
-111.1537032728367
 20
-816.6655632620382
 30
0.0
 11
-677.0363564430827
 21
-250.7829100917931
 31
0.0
  0
LINE
  5
1BA
330
1F
100
AcDbEntity
  8
0-0
  6
JWW_DASHED1
 62
   120
370
     5
100
AcDbLine
 10
-101.2542083362834
 20
-816.6655632620118
 30
0.0
 11
-677.0363564430759
 21
-240.883415155218
 31
0.0
  0
LINE
  5
1BB
330
1F
100
AcDbEntity
  8
0-0
  6
JWW_DASHED1
 62
   120
370
     5
100
AcDbLine
 10
-91.3547133996397
 20
-816.6655632620203
 30
0.0
 11
-677.0363564430706
 21
-230.9839202185893
 31
0.0
  0
LINE
  5
1BC
330
1F
100
AcDbEntity
  8
0-0
  6
JWW_DASHED1
 62
   120
370
     5
100
AcDbLine
 10
-87.03635644307354
 20
-811.0844252819509
 30
0.0
 11
-677.0363564430793
 21
-221.0844252819447
 31
0.0
  0
LINE
  5
1BD
330
1F
100
AcDbEntity
  8
0-0
  6
JWW_DASHED1
 62
   120
370
     5
100
AcDbLine
 10
-87.03635644308036
 20
-801.1849303453652
 30
0.0
 11
-677.0363564430793
 21
-211.184930345365
 31
0.0
  0
LINE
  5
1BE
330
1F
100
AcDbEntity
  8
0-0
  6
JWW_DASHED1
 62
   120
370
     5
100
AcDbLine
 10
-87.03635644305649
 20
-791.2854354087524
 30
0.0
 11
-677.0363564430622
 21
-201.2854354087465
 31
0.0
  0
LINE
  5
1BF
330
1F
100
AcDbEntity
  8
0-0
  6
JWW_DASHED1
 62
   120
370
     5
100
AcDbLine
 10
-87.0363564430616
 20
-781.3859404721667
 30
0.0
 11
-677.036356443069
 21
-191.3859404721603
 31
0.0
  0
LINE
  5
1C0
330
1F
100
AcDbEntity
  8
0-0
  6
JWW_DASHED1
 62
   120
370
     5
100
AcDbLine
 10
-87.03635644307013
 20
-771.4864455355219
 30
0.0
 11
-677.0363564430775
 21
-181.4864455355158
 31
0.0
  0
LINE
  5
1C1
330
1F
100
AcDbEntity
  8
0-0
  6
JWW_DASHED1
 62
   120
370
     5
100
AcDbLine
 10
-87.03635644307695
 20
-761.5869505989368
 30
0.0
 11
-677.0363564430759
 21
-171.5869505989365
 31
0.0
  0
LINE
  5
1C2
330
1F
100
AcDbEntity
  8
0-0
  6
JWW_DASHED1
 62
   120
370
     5
100
AcDbLine
 10
-87.03635644307013
 20
-751.6874556623083
 30
0.0
 11
-677.0363564430861
 21
-161.6874556622919
 31
0.0
  0
LINE
  5
1C3
330
1F
100
AcDbEntity
  8
0-0
  6
JWW_DASHED1
 62
   120
370
     5
100
AcDbLine
 10
-87.03635644306331
 20
-741.7879607256791
 30
0.0
 11
-677.036356443069
 21
-151.7879607256729
 31
0.0
  0
LINE
  5
1C4
330
1F
100
AcDbEntity
  8
0-0
  6
JWW_DASHED1
 62
   120
370
     5
100
AcDbLine
 10
-87.03635644306843
 20
-731.8884657890932
 30
0.0
 11
-677.036356443074
 21
-141.8884657890877
 31
0.0
  0
LINE
  5
1C5
330
1F
100
AcDbEntity
  8
0-0
  6
JWW_DASHED1
 62
   120
370
     5
100
AcDbLine
 10
-87.03635644307695
 20
-721.9889708524497
 30
0.0
 11
-677.0363564430775
 21
-131.9889708524491
 31
0.0
  0
LINE
  5
1C6
330
1F
100
AcDbEntity
  8
0-0
  6
JWW_DASHED1
 62
   120
370
     5
100
AcDbLine
 10
-87.03635644308036
 20
-712.0894759158643
 30
0.0
 11
-677.0363564430827
 21
-122.0894759158634
 31
0.0
  0
LINE
  5
1C7
330
1F
100
AcDbEntity
  8
0-0
  6
JWW_DASHED1
 62
   120
370
     5
100
AcDbLine
 10
-87.0363564430599
 20
-702.1899809792503
 30
0.0
 11
-677.0363564430656
 21
-112.1899809792444
 31
0.0
  0
LINE
  5
1C8
330
1F
100
AcDbEntity
  8
0-0
  6
JWW_DASHED1
 62
   120
370
     5
100
AcDbLine
 10
-87.03635644306672
 20
-692.2904860426646
 30
0.0
 11
-677.0363564430725
 21
-102.2904860426587
 31
0.0
  0
LINE
  5
1C9
330
1F
100
AcDbEntity
  8
0-0
  6
JWW_DASHED1
 62
   120
370
     5
100
AcDbLine
 10
-87.03635644307354
 20
-682.3909911060214
 30
0.0
 11
-677.036356443074
 21
-92.39099110602098
 31
0.0
  0
LINE
  5
1CA
330
1F
100
AcDbEntity
  8
0-0
  6
JWW_DASHED1
 62
   120
370
     5
100
AcDbLine
 10
-87.03635644307866
 20
-672.4914961694357
 30
0.0
 11
-677.0363564430793
 21
-82.49149616943527
 31
0.0
  0
LINE
  5
1CB
330
1F
100
AcDbEntity
  8
0-0
  6
JWW_DASHED1
 62
   120
370
     5
100
AcDbLine
 10
-87.0363564430582
 20
-662.5920012328213
 30
0.0
 11
-677.0363564430638
 21
-72.59200123281587
 31
0.0
  0
LINE
  5
1CC
330
1F
100
AcDbEntity
  8
0-0
  6
JWW_DASHED1
 62
   120
370
     5
100
AcDbLine
 10
-87.03635644306672
 20
-652.692506296177
 30
0.0
 11
-677.0363564430725
 21
-62.69250629617133
 31
0.0
  0
LINE
  5
1CD
330
1F
100
AcDbEntity
  8
0-0
  6
JWW_DASHED1
 62
   120
370
     5
100
AcDbLine
 10
-87.03635644307184
 20
-642.7930113595916
 30
0.0
 11
-677.0363564430793
 21
-52.79301135958562
 31
0.0
  0
LINE
  5
1CE
330
1F
100
AcDbEntity
  8
0-0
  6
JWW_DASHED1
 62
   120
370
     5
100
AcDbLine
 10
-87.03635644308036
 20
-632.8935164229484
 30
0.0
 11
-677.0363564430793
 21
-42.89351642294832
 31
0.0
  0
LINE
  5
1CF
330
1F
100
AcDbEntity
  8
0-0
  6
JWW_DASHED1
 62
   120
370
     5
100
AcDbLine
 10
-87.03635644307013
 20
-622.9940214863788
 30
0.0
 11
-677.0363564430861
 21
-32.99402148636261
 31
0.0
  0
LINE
  5
1D0
330
1F
100
AcDbEntity
  8
0-0
  6
JWW_DASHED1
 62
   120
370
     5
100
AcDbLine
 10
-87.03635644306331
 20
-613.0945265497485
 30
0.0
 11
-677.036356443069
 21
-23.09452654974237
 31
0.0
  0
LINE
  5
1D1
330
1F
100
AcDbEntity
  8
0-0
  6
JWW_DASHED1
 62
   120
370
     5
100
AcDbLine
 10
-87.03635644307013
 20
-603.1950316131625
 30
0.0
 11
-677.0363564430759
 21
-13.19503161315708
 31
0.0
  0
LINE
  5
1D2
330
1F
100
AcDbEntity
  8
0-0
  6
JWW_DASHED1
 62
   120
370
     5
100
AcDbLine
 10
-87.03635644307695
 20
-593.2955366765201
 30
0.0
 11
-677.0363564430759
 21
-3.295536676519788
 31
0.0
  0
LINE
  5
1D3
330
1F
100
AcDbEntity
  8
0-0
  6
JWW_DASHED1
 62
   120
370
     5
100
AcDbLine
 10
-87.03635644308207
 20
-583.3960417399344
 30
0.0
 11
-677.0363564430827
 21
6.603958260065497
 31
0.0
  0
LINE
  5
1D4
330
1F
100
AcDbEntity
  8
0-0
  6
JWW_DASHED1
 62
   120
370
     5
100
AcDbLine
 10
-87.0363564430616
 20
-573.4965468033195
 30
0.0
 11
-677.0363564430672
 21
16.50345319668617
 31
0.0
  0
LINE
  5
1D5
330
1F
100
AcDbEntity
  8
0-0
  6
JWW_DASHED1
 62
   120
370
     5
100
AcDbLine
 10
-87.03635644307013
 20
-563.597051866675
 30
0.0
 11
-677.0363564430759
 21
26.40294813333071
 31
0.0
  0
LINE
  5
1D6
330
1F
100
AcDbEntity
  8
0-0
  6
JWW_DASHED1
 62
   120
370
     5
100
AcDbLine
 10
-87.03635644307354
 20
-553.6975569300919
 30
0.0
 11
-677.036356443074
 21
36.30244306990832
 31
0.0
  0
LINE
  5
1D7
330
1F
100
AcDbEntity
  8
0-0
  6
JWW_DASHED1
 62
   120
370
     5
100
AcDbLine
 10
-87.03635644308378
 20
-543.7980619934475
 30
0.0
 11
-677.0363564430827
 21
46.20193800655287
 31
0.0
  0
LINE
  5
1D8
330
1F
100
AcDbEntity
  8
0-0
  6
JWW_DASHED1
 62
   120
370
     5
100
AcDbLine
 10
-87.0363564430599
 20
-533.898567056891
 30
0.0
 11
-677.0363564430656
 21
56.10143294311513
 31
0.0
  0
LINE
  5
1D9
330
1F
100
AcDbEntity
  8
0-0
  6
JWW_DASHED1
 62
   120
370
     5
100
AcDbLine
 10
-87.03635644306672
 20
-523.9990721202466
 30
0.0
 11
-677.036356443074
 21
66.00092787975967
 31
0.0
  0
LINE
  5
1DA
330
1F
100
AcDbEntity
  8
0-0
  6
JWW_DASHED1
 62
   120
370
     5
100
AcDbLine
 10
-87.03635644307354
 20
-514.0995771836605
 30
0.0
 11
-677.0363564430793
 21
75.90042281634496
 31
0.0
  0
LINE
  5
1DB
330
1F
100
AcDbEntity
  8
0-0
  6
JWW_DASHED1
 62
   120
370
     5
100
AcDbLine
 10
-87.03635644308036
 20
-504.2000822470192
 30
0.0
 11
-677.0363564430793
 21
85.79991775298097
 31
0.0
  0
LINE
  5
1DC
330
1F
100
AcDbEntity
  8
0-0
  6
JWW_DASHED1
 62
   120
370
     5
100
AcDbLine
 10
-87.03635644307013
 20
-494.3005873104493
 30
0.0
 11
-677.0363564430861
 21
95.69941268956669
 31
0.0
  0
LINE
  5
1DD
330
1F
100
AcDbEntity
  8
0-0
  6
JWW_DASHED1
 62
   120
370
     5
100
AcDbLine
 10
-87.03635644306502
 20
-484.4010923738179
 30
0.0
 11
-677.0363564430706
 21
105.5989076261882
 31
0.0
  0
LINE
  5
1DE
330
1F
100
AcDbEntity
  8
0-0
  6
JWW_DASHED1
 62
   120
370
     5
100
AcDbLine
 10
-87.03635644307354
 20
-474.5015974371729
 30
0.0
 11
-677.0363564430793
 21
115.4984025628328
 31
0.0
  0
LINE
  5
1DF
330
1F
100
AcDbEntity
  8
0-0
  6
JWW_DASHED1
 62
   120
370
     5
100
AcDbLine
 10
-87.03635644307695
 20
-464.6021025005911
 30
0.0
 11
-677.0363564430759
 21
125.3978974994091
 31
0.0
  0
LINE
  5
1E0
330
1F
100
AcDbEntity
  8
0-0
  6
JWW_DASHED1
 62
   120
370
     5
100
AcDbLine
 10
-87.03635644305649
 20
-454.7026075639747
 30
0.0
 11
-677.0363564430793
 21
135.2973924360468
 31
0.0
  0
LINE
  5
1E1
330
1F
100
AcDbEntity
  8
0-0
  6
JWW_DASHED1
 62
   120
370
     5
100
AcDbLine
 10
-87.03635644306331
 20
-444.8031126273889
 30
0.0
 11
-677.036356443069
 21
145.1968873726167
 31
0.0
  0
LINE
  5
1E2
330
1F
100
AcDbEntity
  8
0-0
  6
JWW_DASHED1
 62
   120
370
     5
100
AcDbLine
 10
-87.03635644307184
 20
-434.9036176907444
 30
0.0
 11
-677.0363564430775
 21
155.0963823092613
 31
0.0
  0
LINE
  5
1E3
330
1F
100
AcDbEntity
  8
0-0
  6
JWW_DASHED1
 62
   120
370
     5
100
AcDbLine
 10
-87.03635644307354
 20
-425.0041227541625
 30
0.0
 11
-677.0363564430725
 21
164.995877245838
 31
0.0
  0
LINE
  5
1E4
330
1F
100
AcDbEntity
  8
0-0
  6
JWW_DASHED1
 62
   120
370
     5
100
AcDbLine
 10
-87.03635644308378
 20
-415.104627817518
 30
0.0
 11
-677.0363564430827
 21
174.8953721824822
 31
0.0
  0
LINE
  5
1E5
330
1F
100
AcDbEntity
  8
0-0
  6
JWW_DASHED1
 62
   120
370
     5
100
AcDbLine
 10
-87.03635644306331
 20
-405.2051328809011
 30
0.0
 11
-677.036356443069
 21
184.7948671191041
 31
0.0
  0
LINE
  5
1E6
330
1F
100
AcDbEntity
  8
0-0
  6
JWW_DASHED1
 62
   120
370
     5
100
AcDbLine
 10
-87.03635644307013
 20
-395.3056379443159
 30
0.0
 11
-677.0363564430759
 21
194.6943620556898
 31
0.0
  0
LINE
  5
1E7
330
1F
100
AcDbEntity
  8
0-0
  6
JWW_DASHED1
 62
   120
370
     5
100
AcDbLine
 10
-87.03635644307354
 20
-385.4061430076752
 30
0.0
 11
-677.0363564430759
 21
204.593856992325
 31
0.0
  0
LINE
  5
1E8
330
1F
100
AcDbEntity
  8
0-0
  6
JWW_DASHED1
 62
   120
370
     5
100
AcDbLine
 10
-87.03635644308036
 20
-375.5066480710894
 30
0.0
 11
-677.0363564430793
 21
214.4933519289107
 31
0.0
  0
LINE
  5
1E9
330
1F
100
AcDbEntity
  8
0-0
  6
JWW_DASHED1
 62
   120
370
     5
100
AcDbLine
 10
-87.0363564430599
 20
-365.607153134473
 30
0.0
 11
-677.0363564430672
 21
224.3928468655331
 31
0.0
  0
LINE
  5
1EA
330
1F
100
AcDbEntity
  8
0-0
  6
JWW_DASHED1
 62
   120
370
     5
100
AcDbLine
 10
-87.03635644306672
 20
-355.7076581978873
 30
0.0
 11
-677.0363564430725
 21
234.2923418021188
 31
0.0
  0
LINE
  5
1EB
330
1F
100
AcDbEntity
  8
0-0
  6
JWW_DASHED1
 62
   120
370
     5
100
AcDbLine
 10
-87.03635644307525
 20
-345.8081632612428
 30
0.0
 11
-677.0363564430827
 21
244.1918367387633
 31
0.0
  0
LINE
  5
1EC
330
1F
100
AcDbEntity
  8
0-0
  6
JWW_DASHED1
 62
   120
370
     5
100
AcDbLine
 10
-87.03635644307695
 20
-335.9086683246613
 30
0.0
 11
-677.0363564430759
 21
254.0913316753388
 31
0.0
  0
LINE
  5
1ED
330
1F
100
AcDbEntity
  8
0-0
  6
JWW_DASHED1
 62
   120
370
     5
100
AcDbLine
 10
-87.0363564430582
 20
-326.0091733880441
 30
0.0
 11
-677.0363564430638
 21
263.9908266119616
 31
0.0
  0
LINE
  5
1EE
330
1F
100
AcDbEntity
  8
0-0
  6
JWW_DASHED1
 62
   120
370
     5
100
AcDbLine
 10
-87.03635644306672
 20
-316.1096784513995
 30
0.0
 11
-677.0363564430725
 21
273.8903215486057
 31
0.0
  0
LINE
  5
1EF
330
1F
100
AcDbEntity
  8
0-0
  6
JWW_DASHED1
 62
   120
370
     5
100
AcDbLine
 10
-87.03635644307354
 20
-306.2101835148138
 30
0.0
 11
-677.0363564430793
 21
283.7898164851919
 31
0.0
  0
LINE
  5
1F0
330
1F
100
AcDbEntity
  8
0-0
  6
JWW_DASHED1
 62
   120
370
     5
100
AcDbLine
 10
-87.03635644307695
 20
-296.3106885781744
 30
0.0
 11
-677.0363564430775
 21
293.6893114218262
 31
0.0
  0
LINE
  5
1F1
330
1F
100
AcDbEntity
  8
0-0
  6
JWW_DASHED1
 62
   120
370
     5
100
AcDbLine
 10
-87.03635644306672
 20
-286.4111936416044
 30
0.0
 11
-677.0363564430827
 21
303.5888063584119
 31
0.0
  0
LINE
  5
1F2
330
1F
100
AcDbEntity
  8
0-0
  6
JWW_DASHED1
 62
   120
370
     5
100
AcDbLine
 10
-87.03635644306502
 20
-276.5116987049706
 30
0.0
 11
-677.0363564430706
 21
313.4883012950351
 31
0.0
  0
LINE
  5
1F3
330
1F
100
AcDbEntity
  8
0-0
  6
JWW_DASHED1
 62
   120
370
     5
100
AcDbLine
 10
-87.03635644307013
 20
-266.6122037683849
 30
0.0
 11
-677.0363564430759
 21
323.3877962316208
 31
0.0
  0
LINE
  5
1F4
330
1F
100
AcDbEntity
  8
0-0
  6
JWW_DASHED1
 62
   120
370
     5
100
AcDbLine
 10
-87.03635644307354
 20
-256.7127088317459
 30
0.0
 11
-677.036356443074
 21
333.2872911682543
 31
0.0
  0
LINE
  5
1F5
330
1F
100
AcDbEntity
  8
0-0
  6
JWW_DASHED1
 62
   120
370
     5
100
AcDbLine
 10
-87.03635644307866
 20
-246.8132138951606
 30
0.0
 11
-677.0363564430793
 21
343.18678610484
 31
0.0
  0
LINE
  5
1F6
330
1F
100
AcDbEntity
  8
0-0
  6
JWW_DASHED1
 62
   120
370
     5
100
AcDbLine
 10
-87.03635644306331
 20
-236.913718958542
 30
0.0
 11
-677.036356443069
 21
353.0862810414636
 31
0.0
  0
LINE
  5
1F7
330
1F
100
AcDbEntity
  8
0-0
  6
JWW_DASHED1
 62
   120
370
     5
100
AcDbLine
 10
-87.03635644307013
 20
-227.0142240218979
 30
0.0
 11
-677.0363564430775
 21
362.9857759781082
 31
0.0
  0
LINE
  5
1F8
330
1F
100
AcDbEntity
  8
0-0
  6
JWW_DASHED1
 62
   120
370
     5
100
AcDbLine
 10
-87.03635644307695
 20
-217.1147290853122
 30
0.0
 11
-677.0363564430827
 21
372.8852709146939
 31
0.0
  0
LINE
  5
1F9
330
1F
100
AcDbEntity
  8
0-0
  6
JWW_DASHED1
 62
   120
370
     5
100
AcDbLine
 10
-87.03635644308036
 20
-207.2152341486728
 30
0.0
 11
-677.0363564430809
 21
382.7847658513274
 31
0.0
  0
LINE
  5
1FA
330
1F
100
AcDbEntity
  8
0-0
  6
JWW_DASHED1
 62
   120
370
     5
100
AcDbLine
 10
-87.0363564430599
 20
-197.3157392121135
 30
0.0
 11
-677.0363564430656
 21
392.6842607878922
 31
0.0
  0
LINE
  5
1FB
330
1F
100
AcDbEntity
  8
0-0
  6
JWW_DASHED1
 62
   120
370
     5
100
AcDbLine
 10
-87.03635644306843
 20
-187.416244275469
 30
0.0
 11
-677.036356443074
 21
402.5837557245367
 31
0.0
  0
LINE
  5
1FC
330
1F
100
AcDbEntity
  8
0-0
  6
JWW_DASHED1
 62
   120
370
     5
100
AcDbLine
 10
-87.03635644307354
 20
-177.5167493388832
 30
0.0
 11
-677.0363564430793
 21
412.4832506611224
 31
0.0
  0
LINE
  5
1FD
330
1F
100
AcDbEntity
  8
0-0
  6
JWW_DASHED1
 62
   120
370
     5
100
AcDbLine
 10
-87.03635644307695
 20
-167.6172544022447
 30
0.0
 11
-677.0363564430775
 21
422.3827455977555
 31
0.0
  0
LINE
  5
1FE
330
1F
100
AcDbEntity
  8
0-0
  6
JWW_DASHED1
 62
   120
370
     5
100
AcDbLine
 10
-87.03635644306672
 20
-157.7177594656752
 30
0.0
 11
-677.0363564430827
 21
432.2822405343412
 31
0.0
  0
LINE
  5
1FF
330
1F
100
AcDbEntity
  8
0-0
  6
JWW_DASHED1
 62
   120
370
     5
100
AcDbLine
 10
-87.03635644306672
 20
-147.81826452904
 30
0.0
 11
-677.0363564430725
 21
442.1817354709657
 31
0.0
  0
LINE
  5
200
330
1F
100
AcDbEntity
  8
0-0
  6
JWW_DASHED1
 62
   120
370
     5
100
AcDbLine
 10
-87.03635644307525
 20
-137.9187695923954
 30
0.0
 11
-677.0363564430809
 21
452.0812304076102
 31
0.0
  0
LINE
  5
201
330
1F
100
AcDbEntity
  8
0-0
  6
JWW_DASHED1
 62
   120
370
     5
100
AcDbLine
 10
-87.03635644307354
 20
-128.0192746558166
 30
0.0
 11
-677.036356443074
 21
461.980725344184
 31
0.0
  0
LINE
  5
202
330
1F
100
AcDbEntity
  8
0-0
  6
JWW_DASHED1
 62
   120
370
     5
100
AcDbLine
 10
-87.03635644305649
 20
-118.1197797191972
 30
0.0
 11
-677.0363564430793
 21
471.8802202808243
 31
0.0
  0
LINE
  5
203
330
1F
100
AcDbEntity
  8
0-0
  6
JWW_DASHED1
 62
   120
370
     5
100
AcDbLine
 10
-87.03635644306331
 20
-108.2202847826115
 30
0.0
 11
-677.036356443069
 21
481.7797152173943
 31
0.0
  0
LINE
  5
204
330
1F
100
AcDbEntity
  8
0-0
  6
JWW_DASHED1
 62
   120
370
     5
100
AcDbLine
 10
-87.03635644307184
 20
-98.32078984596734
 30
0.0
 11
-677.0363564430793
 21
491.6792101540387
 31
0.0
  0
LINE
  5
205
330
1F
100
AcDbEntity
  8
0-0
  6
JWW_DASHED1
 62
   120
370
     5
100
AcDbLine
 10
-87.03635644307013
 20
-88.42129490938802
 30
0.0
 11
-677.0363564430706
 21
501.5787050906121
 31
0.0
  0
LINE
  5
206
330
1F
100
AcDbEntity
  8
0-0
  6
JWW_DASHED1
 62
   120
370
     5
100
AcDbLine
 10
-87.03635644308036
 20
-78.5217999727439
 30
0.0
 11
-677.0363564430793
 21
511.4782000272562
 31
0.0
  0
LINE
  5
207
330
1F
100
AcDbEntity
  8
0-0
  6
JWW_DASHED1
 62
   120
370
     5
100
AcDbLine
 10
-87.03635644306331
 20
-68.62230503612409
 30
0.0
 11
-677.036356443069
 21
521.377694963882
 31
0.0
  0
LINE
  5
208
330
1F
100
AcDbEntity
  8
0-0
  6
JWW_DASHED1
 62
   120
370
     5
100
AcDbLine
 10
-87.03635644307013
 20
-58.72281009953838
 30
0.0
 11
-677.0363564430759
 21
531.2771899004673
 31
0.0
  0
LINE
  5
209
330
1F
100
AcDbEntity
  8
0-0
  6
JWW_DASHED1
 62
   120
370
     5
100
AcDbLine
 10
-87.03635644307184
 20
-48.82331516290066
 30
0.0
 11
-677.0363564430725
 21
541.1766848370995
 31
0.0
  0
LINE
  5
20A
330
1F
100
AcDbEntity
  8
0-0
  6
JWW_DASHED1
 62
   120
370
     5
100
AcDbLine
 10
-87.03635644307695
 20
-38.92382022631494
 30
0.0
 11
-677.0363564430759
 21
551.0761797736852
 31
0.0
  0
LINE
  5
20B
330
1F
100
AcDbEntity
  8
0-0
  6
JWW_DASHED1
 62
   120
370
     5
100
AcDbLine
 10
-87.0363564430616
 20
-29.02432528969513
 30
0.0
 11
-677.0363564430672
 21
560.9756747103106
 31
0.0
  0
LINE
  5
20C
330
1F
100
AcDbEntity
  8
0-0
  6
JWW_DASHED1
 62
   120
370
     5
100
AcDbLine
 10
-87.03635644306672
 20
-19.12483035310942
 30
0.0
 11
-677.0363564430725
 21
570.8751696468962
 31
0.0
  0
LINE
  5
20D
330
1F
100
AcDbEntity
  8
0-0
  6
JWW_DASHED1
 62
   120
370
     5
100
AcDbLine
 10
-87.03635644307695
 20
-9.225335416464873
 30
0.0
 11
-677.0363564430827
 21
580.7746645835408
 31
0.0
  0
LINE
  5
20E
330
1F
100
AcDbEntity
  8
0-0
  6
JWW_DASHED1
 62
   120
370
     5
100
AcDbLine
 10
-87.03635644307354
 20
0.6741595201127382
 30
0.0
 11
-677.0363564430725
 21
590.6741595201133
 31
0.0
  0
LINE
  5
20F
330
1F
100
AcDbEntity
  8
0-0
  6
JWW_DASHED1
 62
   120
370
     5
100
AcDbLine
 10
-87.0363564430599
 20
10.57365445673383
 30
0.0
 11
-677.0363564430793
 21
600.5736544567544
 31
0.0
  0
LINE
  5
210
330
1F
100
AcDbEntity
  8
0-0
  6
JWW_DASHED1
 62
   120
370
     5
100
AcDbLine
 10
-87.03635644306672
 20
20.47314939337795
 30
0.0
 11
-677.036356443074
 21
610.4731493933837
 31
0.0
  0
LINE
  5
211
330
1F
100
AcDbEntity
  8
0-0
  6
JWW_DASHED1
 62
   120
370
     5
100
AcDbLine
 10
-87.03635644307354
 20
30.37264432996366
 30
0.0
 11
-677.0363564430793
 21
620.3726443299694
 31
0.0
  0
LINE
  5
212
330
1F
100
AcDbEntity
  8
0-0
  6
JWW_DASHED1
 62
   120
370
     5
100
AcDbLine
 10
-87.03635644307354
 20
40.27213926660011
 30
0.0
 11
-677.0363564430759
 21
630.2721392666007
 31
0.0
  0
LINE
  5
213
330
1F
100
AcDbEntity
  8
0-0
  6
JWW_DASHED1
 62
   120
370
     5
100
AcDbLine
 10
-87.03635644308036
 20
50.17163420318582
 30
0.0
 11
-677.0363564430793
 21
640.1716342031859
 31
0.0
  0
LINE
  5
214
330
1F
100
AcDbEntity
  8
0-0
  6
JWW_DASHED1
 62
   120
370
     5
100
AcDbLine
 10
-87.03635644306502
 20
60.07112913980649
 30
0.0
 11
-677.0363564430725
 21
650.0711291398126
 31
0.0
  0
LINE
  5
215
330
1F
100
AcDbEntity
  8
0-0
  6
JWW_DASHED1
 62
   120
370
     5
100
AcDbLine
 10
-87.03635644307013
 20
69.9706240763922
 30
0.0
 11
-677.0363564430759
 21
659.9706240763978
 31
0.0
  0
LINE
  5
216
330
1F
100
AcDbEntity
  8
0-0
  6
JWW_DASHED1
 62
   120
370
     5
100
AcDbLine
 10
-87.03635644307013
 20
79.87011901302864
 30
0.0
 11
-677.0363564430725
 21
669.8701190130288
 31
0.0
  0
LINE
  5
217
330
1F
100
AcDbEntity
  8
0-0
  6
JWW_DASHED1
 62
   120
370
     5
100
AcDbLine
 10
-87.03635644307695
 20
89.76961394961393
 30
0.0
 11
-677.0363564430759
 21
679.769613949614
 31
0.0
  0
LINE
  5
218
330
1F
100
AcDbEntity
  8
0-0
  6
JWW_DASHED1
 62
   120
370
     5
100
AcDbLine
 10
-87.03635644306331
 20
99.66910888623545
 30
0.0
 11
-677.036356443069
 21
689.6691088862411
 31
0.0
  0
LINE
  5
219
330
1F
100
AcDbEntity
  8
0-0
  6
JWW_DASHED1
 62
   120
370
     5
100
AcDbLine
 10
-87.03635644307184
 20
109.56860382288
 30
0.0
 11
-677.0363564430775
 21
699.5686038228857
 31
0.0
  0
LINE
  5
21A
330
1F
100
AcDbEntity
  8
0-0
  6
JWW_DASHED1
 62
   120
370
     5
100
AcDbLine
 10
-87.03635644307695
 20
119.4680987594657
 30
0.0
 11
-677.0363564430827
 21
709.4680987594713
 31
0.0
  0
LINE
  5
21B
330
1F
100
AcDbEntity
  8
0-0
  6
JWW_DASHED1
 62
   120
370
     5
100
AcDbLine
 10
-87.03635644307695
 20
129.3675936961013
 30
0.0
 11
-677.0363564430775
 21
719.3675936961015
 31
0.0
  0
LINE
  5
21C
330
1F
100
AcDbEntity
  8
0-0
  6
JWW_DASHED1
 62
   120
370
     5
100
AcDbLine
 10
-87.0363564430599
 20
139.2670886326644
 30
0.0
 11
-677.0363564430809
 21
729.2670886326855
 31
0.0
  0
LINE
  5
21D
330
1F
100
AcDbEntity
  8
0-0
  6
JWW_DASHED1
 62
   120
370
     5
100
AcDbLine
 10
-87.03635644307013
 20
149.166583569309
 30
0.0
 11
-677.0363564430759
 21
739.1665835693146
 31
0.0
  0
LINE
  5
21E
330
1F
100
AcDbEntity
  8
0-0
  6
JWW_DASHED1
 62
   120
370
     5
100
AcDbLine
 10
-87.03635644307354
 20
159.0660785058942
 30
0.0
 11
-677.0363564430793
 21
749.0660785058999
 31
0.0
  0
LINE
  5
21F
330
1F
100
AcDbEntity
  8
0-0
  6
JWW_DASHED1
 62
   120
370
     5
100
AcDbLine
 10
-87.03635644307354
 20
168.9655734425294
 30
0.0
 11
-677.0363564430759
 21
758.96557344253
 31
0.0
  0
LINE
  5
220
330
1F
100
AcDbEntity
  8
0-0
  6
JWW_DASHED1
 62
   120
370
     5
100
AcDbLine
 10
-87.03635644308036
 20
178.8650683791155
 30
0.0
 11
-677.0363564430793
 21
768.8650683791157
 31
0.0
  0
LINE
  5
221
330
1F
100
AcDbEntity
  8
0-0
  6
JWW_DASHED1
 62
   120
370
     5
100
AcDbLine
 10
-87.03635644306672
 20
188.7645633157371
 30
0.0
 11
-677.0363564430725
 21
778.7645633157432
 31
0.0
  0
LINE
  5
222
330
1F
100
AcDbEntity
  8
0-0
  6
JWW_DASHED1
 62
   120
370
     5
100
AcDbLine
 10
-87.03635644307525
 20
198.6640582523816
 30
0.0
 11
-677.0363564430827
 21
788.6640582523877
 31
0.0
  0
LINE
  5
223
330
1F
100
AcDbEntity
  8
0-0
  6
JWW_DASHED1
 62
   120
370
     5
100
AcDbLine
 10
-87.03635644307013
 20
208.5635531889575
 30
0.0
 11
-677.0363564430725
 21
798.5635531889585
 31
0.0
  0
LINE
  5
224
330
1F
100
AcDbEntity
  8
0-0
  6
JWW_DASHED1
 62
   120
370
     5
100
AcDbLine
 10
-87.03635644306331
 20
218.4630481255867
 30
0.0
 11
-677.0363564430809
 21
808.4630481256027
 31
0.0
  0
LINE
  5
225
330
1F
100
AcDbEntity
  8
0-0
  6
JWW_DASHED1
 62
   120
370
     5
100
AcDbLine
 10
-87.03635644306331
 20
228.362543062166
 30
0.0
 11
-677.036356443069
 21
818.3625430621717
 31
0.0
  0
LINE
  5
226
330
1F
100
AcDbEntity
  8
0-0
  6
JWW_DASHED1
 62
   120
370
     5
100
AcDbLine
 10
-87.03635644307354
 20
238.2620379988101
 30
0.0
 11
-677.0363564430793
 21
828.2620379988163
 31
0.0
  0
LINE
  5
227
330
1F
100
AcDbEntity
  8
0-0
  6
JWW_DASHED1
 62
   120
370
     5
100
AcDbLine
 10
-87.03635644307695
 20
248.1615329353959
 30
0.0
 11
-677.0363564430827
 21
838.1615329354015
 31
0.0
  0
LINE
  5
228
330
1F
100
AcDbEntity
  8
0-0
  6
JWW_DASHED1
 62
   120
370
     5
100
AcDbLine
 10
-87.03635644307695
 20
258.0610278720306
 30
0.0
 11
-677.0363564430775
 21
848.0610278720312
 31
0.0
  0
LINE
  5
229
330
1F
100
AcDbEntity
  8
0-0
  6
JWW_DASHED1
 62
   120
370
     5
100
AcDbLine
 10
-87.03635644306502
 20
267.9605228086538
 30
0.0
 11
-677.0363564430706
 21
857.9605228086596
 31
0.0
  0
LINE
  5
22A
330
1F
100
AcDbEntity
  8
0-0
  6
JWW_DASHED1
 62
   120
370
     5
100
AcDbLine
 10
-87.03635644307013
 20
277.8600177452395
 30
0.0
 11
-677.0363564430759
 21
867.8600177452452
 31
0.0
  0
LINE
  5
22B
330
1F
100
AcDbEntity
  8
0-0
  6
JWW_DASHED1
 62
   120
370
     5
100
AcDbLine
 10
-87.03635644307013
 20
287.7595126818738
 30
0.0
 11
-677.036356443069
 21
877.759512681874
 31
0.0
  0
LINE
  5
22C
330
1F
100
AcDbEntity
  8
0-0
  6
JWW_DASHED1
 62
   120
370
     5
100
AcDbLine
 10
-87.03635644307354
 20
297.6590076184591
 30
0.0
 11
-670.7117855625918
 21
881.3344367379766
 31
0.0
  0
LINE
  5
22D
330
1F
100
AcDbEntity
  8
0-0
  6
JWW_DASHED1
 62
   120
370
     5
100
AcDbLine
 10
-87.03635644307695
 20
871.8297139419366
 30
0.0
 11
-96.54107923911653
 21
881.3344367379766
 31
0.0
  0
LINE
  5
22E
330
1F
100
AcDbEntity
  8
0-0
  6
JWW_DASHED1
 62
   120
370
     5
100
AcDbLine
 10
-87.0363564430616
 20
307.5585025550819
 30
0.0
 11
-660.8122906259566
 21
881.3344367379766
 31
0.0
  0
LINE
  5
22F
330
1F
100
AcDbEntity
  8
0-0
  6
JWW_DASHED1
 62
   120
370
     5
100
AcDbLine
 10
-87.03635644306672
 20
317.4579974916676
 30
0.0
 11
-650.912795689376
 21
881.3344367379766
 31
0.0
  0
LINE
  5
230
330
1F
100
AcDbEntity
  8
0-0
  6
JWW_DASHED1
 62
   120
370
     5
100
AcDbLine
 10
-87.03635644307695
 20
327.3574924283122
 30
0.0
 11
-641.0133007527409
 21
881.3344367379766
 31
0.0
  0
LINE
  5
231
330
1F
100
AcDbEntity
  8
0-0
  6
JWW_DASHED1
 62
   120
370
     5
100
AcDbLine
 10
-87.03635644307013
 20
337.2569873648872
 30
0.0
 11
-631.1138058161603
 21
881.3344367379766
 31
0.0
  0
LINE
  5
232
330
1F
100
AcDbEntity
  8
0-0
  6
JWW_DASHED1
 62
   120
370
     5
100
AcDbLine
 10
-87.0363564430599
 20
347.1564823015109
 30
0.0
 11
-621.2143108795251
 21
881.3344367379766
 31
0.0
  0
LINE
  5
233
330
1F
100
AcDbEntity
  8
0-0
  6
JWW_DASHED1
 62
   120
370
     5
100
AcDbLine
 10
-87.03635644306843
 20
357.0559772381554
 30
0.0
 11
-611.3148159428899
 21
881.3344367379766
 31
0.0
  0
LINE
  5
234
330
1F
100
AcDbEntity
  8
0-0
  6
JWW_DASHED1
 62
   120
370
     5
100
AcDbLine
 10
-87.03635644307354
 20
366.9554721747411
 30
0.0
 11
-601.4153210063093
 21
881.3344367379766
 31
0.0
  0
LINE
  5
235
330
1F
100
AcDbEntity
  8
0-0
  6
JWW_DASHED1
 62
   120
370
     5
100
AcDbLine
 10
-87.03635644307184
 20
376.8549671113746
 30
0.0
 11
-591.5158260696742
 21
881.3344367379766
 31
0.0
  0
LINE
  5
236
330
1F
100
AcDbEntity
  8
0-0
  6
JWW_DASHED1
 62
   120
370
     5
100
AcDbLine
 10
-87.03635644307695
 20
386.7544620479603
 30
0.0
 11
-581.6163311330936
 21
881.3344367379766
 31
0.0
  0
LINE
  5
237
330
1F
100
AcDbEntity
  8
0-0
  6
JWW_DASHED1
 62
   120
370
     5
100
AcDbLine
 10
-87.03635644306672
 20
396.6539569845844
 30
0.0
 11
-571.7168361964584
 21
881.3344367379766
 31
0.0
  0
LINE
  5
238
330
1F
100
AcDbEntity
  8
0-0
  6
JWW_DASHED1
 62
   120
370
     5
100
AcDbLine
 10
-87.03635644307013
 20
406.5534519211697
 30
0.0
 11
-561.8173412598778
 21
881.3344367379766
 31
0.0
  0
LINE
  5
239
330
1F
100
AcDbEntity
  8
0-0
  6
JWW_DASHED1
 62
   120
370
     5
100
AcDbLine
 10
-87.03635644306843
 20
416.4529468578027
 30
0.0
 11
-551.9178463232427
 21
881.3344367379766
 31
0.0
  0
LINE
  5
23A
330
1F
100
AcDbEntity
  8
0-0
  6
JWW_DASHED1
 62
   120
370
     5
100
AcDbLine
 10
-87.03635644307354
 20
426.3524417943884
 30
0.0
 11
-542.0183513866621
 21
881.3344367379766
 31
0.0
  0
LINE
  5
23B
330
1F
100
AcDbEntity
  8
0-0
  6
JWW_DASHED1
 62
   120
370
     5
100
AcDbLine
 10
-87.03635644306331
 20
436.251936731013
 30
0.0
 11
-532.1188564500269
 21
881.3344367379766
 31
0.0
  0
LINE
  5
23C
330
1F
100
AcDbEntity
  8
0-0
  6
JWW_DASHED1
 62
   120
370
     5
100
AcDbLine
 10
-87.03635644307184
 20
446.1514316676574
 30
0.0
 11
-522.2193615133917
 21
881.3344367379766
 31
0.0
  0
LINE
  5
23D
330
1F
100
AcDbEntity
  8
0-0
  6
JWW_DASHED1
 62
   120
370
     5
100
AcDbLine
 10
-87.03635644307695
 20
456.0509266042428
 30
0.0
 11
-512.3198665768095
 21
881.3344367379766
 31
0.0
  0
LINE
  5
23E
330
1F
100
AcDbEntity
  8
0-0
  6
JWW_DASHED1
 62
   120
370
     5
100
AcDbLine
 10
-87.03635644307354
 20
465.9504215408758
 30
0.0
 11
-502.420371640176
 21
881.3344367379766
 31
0.0
  0
LINE
  5
23F
330
1F
100
AcDbEntity
  8
0-0
  6
JWW_DASHED1
 62
   120
370
     5
100
AcDbLine
 10
-87.0363564430599
 20
475.8499164774415
 30
0.0
 11
-492.5208767035937
 21
881.3344367379766
 31
0.0
  0
LINE
  5
240
330
1F
100
AcDbEntity
  8
0-0
  6
JWW_DASHED1
 62
   120
370
     5
100
AcDbLine
 10
-87.03635644307013
 20
485.749411414086
 30
0.0
 11
-482.6213817669603
 21
881.3344367379766
 31
0.0
  0
LINE
  5
241
330
1F
100
AcDbEntity
  8
0-0
  6
JWW_DASHED1
 62
   120
370
     5
100
AcDbLine
 10
-87.03635644307354
 20
495.6489063506713
 30
0.0
 11
-472.7218868303797
 21
881.3344367379766
 31
0.0
  0
LINE
  5
242
330
1F
100
AcDbEntity
  8
0-0
  6
JWW_DASHED1
 62
   120
370
     5
100
AcDbLine
 10
-87.03635644307184
 20
505.5484012873043
 30
0.0
 11
-462.8223918937445
 21
881.3344367379766
 31
0.0
  0
LINE
  5
243
330
1F
100
AcDbEntity
  8
0-0
  6
JWW_DASHED1
 62
   120
370
     5
100
AcDbLine
 10
-87.03635644307695
 20
515.4478962238896
 30
0.0
 11
-452.9228969571639
 21
881.3344367379766
 31
0.0
  0
LINE
  5
244
330
1F
100
AcDbEntity
  8
0-0
  6
JWW_DASHED1
 62
   120
370
     5
100
AcDbLine
 10
-87.03635644306672
 20
525.3473911605146
 30
0.0
 11
-443.0234020205287
 21
881.3344367379766
 31
0.0
  0
LINE
  5
245
330
1F
100
AcDbEntity
  8
0-0
  6
JWW_DASHED1
 62
   120
370
     5
100
AcDbLine
 10
-87.03635644307695
 20
535.2468860971591
 30
0.0
 11
-433.1239070838936
 21
881.3344367379766
 31
0.0
  0
LINE
  5
246
330
1F
100
AcDbEntity
  8
0-0
  6
JWW_DASHED1
 62
   120
370
     5
100
AcDbLine
 10
-87.03635644306843
 20
545.1463810337325
 30
0.0
 11
-423.224412147313
 21
881.3344367379766
 31
0.0
  0
LINE
  5
247
330
1F
100
AcDbEntity
  8
0-0
  6
JWW_DASHED1
 62
   120
370
     5
100
AcDbLine
 10
-87.0363564430616
 20
555.0458759703608
 30
0.0
 11
-413.3249172106778
 21
881.3344367379766
 31
0.0
  0
LINE
  5
248
330
1F
100
AcDbEntity
  8
0-0
  6
JWW_DASHED1
 62
   120
370
     5
100
AcDbLine
 10
-87.03635644306331
 20
564.9453709069435
 30
0.0
 11
-403.4254222740972
 21
881.3344367379766
 31
0.0
  0
LINE
  5
249
330
1F
100
AcDbEntity
  8
0-0
  6
JWW_DASHED1
 62
   120
370
     5
100
AcDbLine
 10
-87.03635644307354
 20
574.8448658435881
 30
0.0
 11
-393.5259273374621
 21
881.3344367379766
 31
0.0
  0
LINE
  5
24A
330
1F
100
AcDbEntity
  8
0-0
  6
JWW_DASHED1
 62
   120
370
     5
100
AcDbLine
 10
-87.03635644307695
 20
584.7443607801738
 30
0.0
 11
-383.6264324008798
 21
881.3344367379766
 31
0.0
  0
LINE
  5
24B
330
1F
100
AcDbEntity
  8
0-0
  6
JWW_DASHED1
 62
   120
370
     5
100
AcDbLine
 10
-87.03635644307354
 20
594.6438557168046
 30
0.0
 11
-373.7269374642463
 21
881.3344367379766
 31
0.0
  0
LINE
  5
24C
330
1F
100
AcDbEntity
  8
0-0
  6
JWW_DASHED1
 62
   120
370
     5
100
AcDbLine
 10
-87.03635644306502
 20
604.5433506534309
 30
0.0
 11
-363.8274425276111
 21
881.3344367379766
 31
0.0
  0
LINE
  5
24D
330
1F
100
AcDbEntity
  8
0-0
  6
JWW_DASHED1
 62
   120
370
     5
100
AcDbLine
 10
-87.03635644307013
 20
614.4428455900165
 30
0.0
 11
-353.9279475910305
 21
881.3344367379766
 31
0.0
  0
LINE
  5
24E
330
1F
100
AcDbEntity
  8
0-0
  6
JWW_DASHED1
 62
   120
370
     5
100
AcDbLine
 10
-87.03635644306672
 20
624.342340526648
 30
0.0
 11
-344.0284526543954
 21
881.3344367379766
 31
0.0
  0
LINE
  5
24F
330
1F
100
AcDbEntity
  8
0-0
  6
JWW_DASHED1
 62
   120
370
     5
100
AcDbLine
 10
-87.03635644307013
 20
634.2418354632327
 30
0.0
 11
-334.1289577178148
 21
881.3344367379766
 31
0.0
  0
LINE
  5
250
330
1F
100
AcDbEntity
  8
0-0
  6
JWW_DASHED1
 62
   120
370
     5
100
AcDbLine
 10
-87.03635644306331
 20
644.1413303998598
 30
0.0
 11
-324.2294627811796
 21
881.3344367379766
 31
0.0
  0
LINE
  5
251
330
1F
100
AcDbEntity
  8
0-0
  6
JWW_DASHED1
 62
   120
370
     5
100
AcDbLine
 10
-87.03635644306672
 20
654.0408253364451
 30
0.0
 11
-314.329967844599
 21
881.3344367379766
 31
0.0
  0
LINE
  5
252
330
1F
100
AcDbEntity
  8
0-0
  6
JWW_DASHED1
 62
   120
370
     5
100
AcDbLine
 10
-87.03635644307695
 20
663.94032027309
 30
0.0
 11
-304.4304729079622
 21
881.3344367379766
 31
0.0
  0
LINE
  5
253
330
1F
100
AcDbEntity
  8
0-0
  6
JWW_DASHED1
 62
   120
370
     5
100
AcDbLine
 10
-87.03635644306843
 20
673.8398152096622
 30
0.0
 11
-294.5309779713833
 21
881.3344367379766
 31
0.0
  0
LINE
  5
254
330
1F
100
AcDbEntity
  8
0-0
  6
JWW_DASHED1
 62
   120
370
     5
100
AcDbLine
 10
-87.0363564430616
 20
683.7393101462906
 30
0.0
 11
-284.6314830347481
 21
881.3344367379766
 31
0.0
  0
LINE
  5
255
330
1F
100
AcDbEntity
  8
0-0
  6
JWW_DASHED1
 62
   120
370
     5
100
AcDbLine
 10
-87.03635644307013
 20
693.6388050829329
 30
0.0
 11
-274.7319880981129
 21
881.3344367379766
 31
0.0
  0
LINE
  5
256
330
1F
100
AcDbEntity
  8
0-0
  6
JWW_DASHED1
 62
   120
370
     5
100
AcDbLine
 10
-87.03635644307354
 20
703.5383000195186
 30
0.0
 11
-264.8324931615323
 21
881.3344367379766
 31
0.0
  0
LINE
  5
257
330
1F
100
AcDbEntity
  8
0-0
  6
JWW_DASHED1
 62
   120
370
     5
100
AcDbLine
 10
-87.03635644307013
 20
713.4377949561491
 30
0.0
 11
-254.9329982248972
 21
881.3344367379766
 31
0.0
  0
LINE
  5
258
330
1F
100
AcDbEntity
  8
0-0
  6
JWW_DASHED1
 62
   120
370
     5
100
AcDbLine
 10
-87.03635644307354
 20
723.3372898927344
 30
0.0
 11
-245.0335032883166
 21
881.3344367379766
 31
0.0
  0
LINE
  5
259
330
1F
100
AcDbEntity
  8
0-0
  6
JWW_DASHED1
 62
   120
370
     5
100
AcDbLine
 10
-87.03635644306672
 20
733.2367848293615
 30
0.0
 11
-235.1340083516814
 21
881.3344367379766
 31
0.0
  0
LINE
  5
25A
330
1F
100
AcDbEntity
  8
0-0
  6
JWW_DASHED1
 62
   120
370
     5
100
AcDbLine
 10
-87.03635644307013
 20
743.1362797659467
 30
0.0
 11
-225.2345134151008
 21
881.3344367379766
 31
0.0
  0
LINE
  5
25B
330
1F
100
AcDbEntity
  8
0-0
  6
JWW_DASHED1
 62
   120
370
     5
100
AcDbLine
 10
-87.03635644306672
 20
753.0357747025772
 30
0.0
 11
-215.3350184784657
 21
881.3344367379766
 31
0.0
  0
LINE
  5
25C
330
1F
100
AcDbEntity
  8
0-0
  6
JWW_DASHED1
 62
   120
370
     5
100
AcDbLine
 10
-87.03635644307013
 20
762.9352696391625
 30
0.0
 11
-205.4355235418851
 21
881.3344367379766
 31
0.0
  0
LINE
  5
25D
330
1F
100
AcDbEntity
  8
0-0
  6
JWW_DASHED1
 62
   120
370
     5
100
AcDbLine
 10
-87.03635644306331
 20
772.8347645757904
 30
0.0
 11
-195.5360286052499
 21
881.3344367379766
 31
0.0
  0
LINE
  5
25E
330
1F
100
AcDbEntity
  8
0-0
  6
JWW_DASHED1
 62
   120
370
     5
100
AcDbLine
 10
-87.03635644307354
 20
782.734259512435
 30
0.0
 11
-185.6365336686147
 21
881.3344367379766
 31
0.0
  0
LINE
  5
25F
330
1F
100
AcDbEntity
  8
0-0
  6
JWW_DASHED1
 62
   120
370
     5
100
AcDbLine
 10
-87.03635644307695
 20
792.6337544490202
 30
0.0
 11
-175.7370387320341
 21
881.3344367379766
 31
0.0
  0
LINE
  5
260
330
1F
100
AcDbEntity
  8
0-0
  6
JWW_DASHED1
 62
   120
370
     5
100
AcDbLine
 10
-87.03635644307184
 20
802.5332493856499
 30
0.0
 11
-165.837543795399
 21
881.3344367379766
 31
0.0
  0
LINE
  5
261
330
1F
100
AcDbEntity
  8
0-0
  6
JWW_DASHED1
 62
   120
370
     5
100
AcDbLine
 10
-87.0363564430616
 20
812.4327443222198
 30
0.0
 11
-155.9380488588184
 21
881.3344367379766
 31
0.0
  0
LINE
  5
262
330
1F
100
AcDbEntity
  8
0-0
  6
JWW_DASHED1
 62
   120
370
     5
100
AcDbLine
 10
-87.03635644307013
 20
822.3322392588635
 30
0.0
 11
-146.0385539221832
 21
881.3344367379766
 31
0.0
  0
LINE
  5
263
330
1F
100
AcDbEntity
  8
0-0
  6
JWW_DASHED1
 62
   120
370
     5
100
AcDbLine
 10
-87.03635644307525
 20
832.2317341954492
 30
0.0
 11
-136.1390589856026
 21
881.3344367379766
 31
0.0
  0
LINE
  5
264
330
1F
100
AcDbEntity
  8
0-0
  6
JWW_DASHED1
 62
   120
370
     5
100
AcDbLine
 10
-87.03635644307013
 20
842.1312291320784
 30
0.0
 11
-126.2395640489675
 21
881.3344367379766
 31
0.0
  0
LINE
  5
265
330
1F
100
AcDbEntity
  8
0-0
  6
JWW_DASHED1
 62
   120
370
     5
100
AcDbLine
 10
-87.0363564430616
 20
852.0307240687067
 30
0.0
 11
-116.3400691123306
 21
881.3344367379766
 31
0.0
  0
LINE
  5
266
330
1F
100
AcDbEntity
  8
0-0
  6
JWW_DASHED1
 62
   120
370
     5
100
AcDbLine
 10
-87.03635644306672
 20
861.930219005292
 30
0.0
 11
-106.4405741757517
 21
881.3344367379766
 31
0.0
  0
LINE
  5
267
330
1F
100
AcDbEntity
  8
0-0
  6
JWW_DASHED1
 62
   120
370
     5
100
AcDbLine
 10
134.5750853403129
 20
-816.665563262028
 30
0.0
 11
132.9636435569276
 21
-815.0541214786424
 31
0.0
  0
LINE
  5
268
330
1F
100
AcDbEntity
  8
0-0
  6
JWW_DASHED1
 62
   120
370
     5
100
AcDbLine
 10
144.4745802769566
 20
-816.6655632620373
 30
0.0
 11
132.9636435569174
 21
-805.1546265419981
 31
0.0
  0
LINE
  5
269
330
1F
100
AcDbEntity
  8
0-0
  6
JWW_DASHED1
 62
   120
370
     5
100
AcDbLine
 10
154.3740752135423
 20
-816.6655632620423
 30
0.0
 11
132.9636435569122
 21
-795.2551316054124
 31
0.0
  0
LINE
  5
26A
330
1F
100
AcDbEntity
  8
0-0
  6
JWW_DASHED1
 62
   120
370
     5
100
AcDbLine
 10
164.2735701501536
 20
-816.6655632620196
 30
0.0
 11
132.9636435569344
 21
-785.3556366687994
 31
0.0
  0
LINE
  5
26B
330
1F
100
AcDbEntity
  8
0-0
  6
JWW_DASHED1
 62
   120
370
     5
100
AcDbLine
 10
174.173065086741
 20
-816.6655632620248
 30
0.0
 11
132.9636435569293
 21
-775.4561417322136
 31
0.0
  0
LINE
  5
26C
330
1F
100
AcDbEntity
  8
0-0
  6
JWW_DASHED1
 62
   120
370
     5
100
AcDbLine
 10
184.0725600233864
 20
-816.6655632620343
 30
0.0
 11
132.9636435569208
 21
-765.5566467955698
 31
0.0
  0
LINE
  5
26D
330
1F
100
AcDbEntity
  8
0-0
  6
JWW_DASHED1
 62
   120
370
     5
100
AcDbLine
 10
193.9720549599704
 20
-816.6655632620391
 30
0.0
 11
132.9636435569157
 21
-755.6571518589841
 31
0.0
  0
LINE
  5
26E
330
1F
100
AcDbEntity
  8
0-0
  6
JWW_DASHED1
 62
   120
370
     5
100
AcDbLine
 10
203.8715498965834
 20
-816.6655632620168
 30
0.0
 11
132.9636435569378
 21
-745.7576569223706
 31
0.0
  0
LINE
  5
26F
330
1F
100
AcDbEntity
  8
0-0
  6
JWW_DASHED1
 62
   120
370
     5
100
AcDbLine
 10
213.7710448332271
 20
-816.6655632620262
 30
0.0
 11
132.9636435569276
 21
-735.8581619857263
 31
0.0
  0
LINE
  5
270
330
1F
100
AcDbEntity
  8
0-0
  6
JWW_DASHED1
 62
   120
370
     5
100
AcDbLine
 10
223.6705397698145
 20
-816.6655632620309
 30
0.0
 11
132.9636435569225
 21
-725.9586670491403
 31
0.0
  0
LINE
  5
271
330
1F
100
AcDbEntity
  8
0-0
  6
JWW_DASHED1
 62
   120
370
     5
100
AcDbLine
 10
233.5700347064565
 20
-816.6655632620403
 30
0.0
 11
132.963643556914
 21
-716.0591721124969
 31
0.0
  0
LINE
  5
272
330
1F
100
AcDbEntity
  8
0-0
  6
JWW_DASHED1
 62
   120
370
     5
100
AcDbLine
 10
243.4695296430235
 20
-816.6655632620267
 30
0.0
 11
132.9636435569242
 21
-706.1596771759263
 31
0.0
  0
LINE
  5
273
330
1F
100
AcDbEntity
  8
0-0
  6
JWW_DASHED1
 62
   120
370
     5
100
AcDbLine
 10
253.3690245796552
 20
-816.6655632620226
 30
0.0
 11
132.963643556931
 21
-696.2601822392974
 31
0.0
  0
LINE
  5
274
330
1F
100
AcDbEntity
  8
0-0
  6
JWW_DASHED1
 62
   120
370
     5
100
AcDbLine
 10
263.2685195162426
 20
-816.6655632620277
 30
0.0
 11
132.9636435569259
 21
-686.3606873027119
 31
0.0
  0
LINE
  5
275
330
1F
100
AcDbEntity
  8
0-0
  6
JWW_DASHED1
 62
   120
370
     5
100
AcDbLine
 10
273.1680144528863
 20
-816.6655632620372
 30
0.0
 11
132.9636435569174
 21
-676.4611923660685
 31
0.0
  0
LINE
  5
276
330
1F
100
AcDbEntity
  8
0-0
  6
JWW_DASHED1
 62
   120
370
     5
100
AcDbLine
 10
283.067509389472
 20
-816.6655632620418
 30
0.0
 11
132.963643556914
 21
-666.561697429483
 31
0.0
  0
LINE
  5
277
330
1F
100
AcDbEntity
  8
0-0
  6
JWW_DASHED1
 62
   120
370
     5
100
AcDbLine
 10
292.9670043260833
 20
-816.6655632620199
 30
0.0
 11
132.9636435569344
 21
-656.6622024928688
 31
0.0
  0
LINE
  5
278
330
1F
100
AcDbEntity
  8
0-0
  6
JWW_DASHED1
 62
   120
370
     5
100
AcDbLine
 10
302.8664992627287
 20
-816.6655632620292
 30
0.0
 11
132.9636435569242
 21
-646.7627075562243
 31
0.0
  0
LINE
  5
279
330
1F
100
AcDbEntity
  8
0-0
  6
JWW_DASHED1
 62
   120
370
     5
100
AcDbLine
 10
312.7659941993144
 20
-816.6655632620339
 30
0.0
 11
132.9636435569208
 21
-636.8632126196403
 31
0.0
  0
LINE
  5
27A
330
1F
100
AcDbEntity
  8
0-0
  6
JWW_DASHED1
 62
   120
370
     5
100
AcDbLine
 10
322.6654891359547
 20
-816.6655632620382
 30
0.0
 11
132.9636435569105
 21
-626.9637176829959
 31
0.0
  0
LINE
  5
27B
330
1F
100
AcDbEntity
  8
0-0
  6
JWW_DASHED1
 62
   120
370
     5
100
AcDbLine
 10
332.5649840725131
 20
-816.6655632620167
 30
0.0
 11
132.9636435569361
 21
-617.06422274644
 31
0.0
  0
LINE
  5
27C
330
1F
100
AcDbEntity
  8
0-0
  6
JWW_DASHED1
 62
   120
370
     5
100
AcDbLine
 10
342.4644790091568
 20
-816.6655632620254
 30
0.0
 11
132.9636435569276
 21
-607.1647278097955
 31
0.0
  0
LINE
  5
27D
330
1F
100
AcDbEntity
  8
0-0
  6
JWW_DASHED1
 62
   120
370
     5
100
AcDbLine
 10
352.3639739457425
 20
-816.6655632620306
 30
0.0
 11
132.9636435569208
 21
-597.26523287321
 31
0.0
  0
LINE
  5
27E
330
1F
100
AcDbEntity
  8
0-0
  6
JWW_DASHED1
 62
   120
370
     5
100
AcDbLine
 10
362.2634688823862
 20
-816.6655632620401
 30
0.0
 11
132.963643556914
 21
-587.3657379365676
 31
0.0
  0
LINE
  5
27F
330
1F
100
AcDbEntity
  8
0-0
  6
JWW_DASHED1
 62
   120
370
     5
100
AcDbLine
 10
372.1629638189413
 20
-816.6655632620134
 30
0.0
 11
132.9636435569378
 21
-577.4662430000113
 31
0.0
  0
LINE
  5
280
330
1F
100
AcDbEntity
  8
0-0
  6
JWW_DASHED1
 62
   120
370
     5
100
AcDbLine
 10
382.0624587555849
 20
-816.6655632620224
 30
0.0
 11
132.963643556931
 21
-567.566748063367
 31
0.0
  0
LINE
  5
281
330
1F
100
AcDbEntity
  8
0-0
  6
JWW_DASHED1
 62
   120
370
     5
100
AcDbLine
 10
391.9619536922303
 20
-816.6655632620323
 30
0.0
 11
132.9636435569225
 21
-557.6672531267245
 31
0.0
  0
LINE
  5
282
330
1F
100
AcDbEntity
  8
0-0
  6
JWW_DASHED1
 62
   120
370
     5
100
AcDbLine
 10
401.861448628816
 20
-816.6655632620372
 30
0.0
 11
132.9636435569174
 21
-547.767758190139
 31
0.0
  0
LINE
  5
283
330
1F
100
AcDbEntity
  8
0-0
  6
JWW_DASHED1
 62
   120
370
     5
100
AcDbLine
 10
411.760943565429
 20
-816.6655632620145
 30
0.0
 11
132.9636435569378
 21
-537.8682632535238
 31
0.0
  0
LINE
  5
284
330
1F
100
AcDbEntity
  8
0-0
  6
JWW_DASHED1
 62
   120
370
     5
100
AcDbLine
 10
421.6604385020131
 20
-816.6655632620199
 30
0.0
 11
132.9636435569327
 21
-527.9687683169382
 31
0.0
  0
LINE
  5
285
330
1F
100
AcDbEntity
  8
0-0
  6
JWW_DASHED1
 62
   120
370
     5
100
AcDbLine
 10
431.5599334386584
 20
-816.6655632620289
 30
0.0
 11
132.9636435569242
 21
-518.0692733802937
 31
0.0
  0
LINE
  5
286
330
1F
100
AcDbEntity
  8
0-0
  6
JWW_DASHED1
 62
   120
370
     5
100
AcDbLine
 10
441.4594283752442
 20
-816.6655632620339
 30
0.0
 11
132.9636435569208
 21
-508.1697784437109
 31
0.0
  0
LINE
  5
287
330
1F
100
AcDbEntity
  8
0-0
  6
JWW_DASHED1
 62
   120
370
     5
100
AcDbLine
 10
451.358923311881
 20
-816.6655632620345
 30
0.0
 11
132.9636435569105
 21
-498.2702835070664
 31
0.0
  0
LINE
  5
288
330
1F
100
AcDbEntity
  8
0-0
  6
JWW_DASHED1
 62
   120
370
     5
100
AcDbLine
 10
461.2584182484412
 20
-816.665563262016
 30
0.0
 11
132.9636435569344
 21
-488.3707885705095
 31
0.0
  0
LINE
  5
289
330
1F
100
AcDbEntity
  8
0-0
  6
JWW_DASHED1
 62
   120
370
     5
100
AcDbLine
 10
471.1579131850866
 20
-816.6655632620254
 30
0.0
 11
132.9636435569259
 21
-478.4712936338647
 31
0.0
  0
LINE
  5
28A
330
1F
100
AcDbEntity
  8
0-0
  6
JWW_DASHED1
 62
   120
370
     5
100
AcDbLine
 10
481.057408121732
 20
-816.665563262035
 30
0.0
 11
132.9636435569208
 21
-468.5717986972236
 31
0.0
  0
LINE
  5
28B
330
1F
100
AcDbEntity
  8
0-0
  6
JWW_DASHED1
 62
   120
370
     5
100
AcDbLine
 10
490.956903058316
 20
-816.6655632620403
 30
0.0
 11
132.963643556914
 21
-458.6723037606379
 31
0.0
  0
LINE
  5
28C
330
1F
100
AcDbEntity
  8
0-0
  6
JWW_DASHED1
 62
   120
370
     5
100
AcDbLine
 10
500.8563979949307
 20
-816.6655632620175
 30
0.0
 11
132.9636435569344
 21
-448.7728088240219
 31
0.0
  0
LINE
  5
28D
330
1F
100
AcDbEntity
  8
0-0
  6
JWW_DASHED1
 62
   120
370
     5
100
AcDbLine
 10
510.7558929315147
 20
-816.6655632620224
 30
0.0
 11
132.9636435569276
 21
-438.8733138874362
 31
0.0
  0
LINE
  5
28E
330
1F
100
AcDbEntity
  8
0-0
  6
JWW_DASHED1
 62
   120
370
     5
100
AcDbLine
 10
520.65538786816
 20
-816.6655632620323
 30
0.0
 11
132.9636435569242
 21
-428.9738189507955
 31
0.0
  0
LINE
  5
28F
330
1F
100
AcDbEntity
  8
0-0
  6
JWW_DASHED1
 62
   120
370
     5
100
AcDbLine
 10
530.554882804744
 20
-816.6655632620365
 30
0.0
 11
132.9636435569174
 21
-419.0743240142098
 31
0.0
  0
LINE
  5
290
330
1F
100
AcDbEntity
  8
0-0
  6
JWW_DASHED1
 62
   120
370
     5
100
AcDbLine
 10
540.4543777413587
 20
-816.6655632620145
 30
0.0
 11
132.9636435569378
 21
-409.1748290775934
 31
0.0
  0
LINE
  5
291
330
1F
100
AcDbEntity
  8
0-0
  6
JWW_DASHED1
 62
   120
370
     5
100
AcDbLine
 10
550.3538726780025
 20
-816.6655632620237
 30
0.0
 11
132.9636435569276
 21
-399.2753341409488
 31
0.0
  0
LINE
  5
292
330
1F
100
AcDbEntity
  8
0-0
  6
JWW_DASHED1
 62
   120
370
     5
100
AcDbLine
 10
560.2533676145881
 20
-816.6655632620284
 30
0.0
 11
132.9636435569225
 21
-389.3758392043631
 31
0.0
  0
LINE
  5
293
330
1F
100
AcDbEntity
  8
0-0
  6
JWW_DASHED1
 62
   120
370
     5
100
AcDbLine
 10
570.1528625512335
 20
-816.665563262038
 30
0.0
 11
132.9636435569174
 21
-379.4763442677228
 31
0.0
  0
LINE
  5
294
330
1F
100
AcDbEntity
  8
0-0
  6
JWW_DASHED1
 62
   120
370
     5
100
AcDbLine
 10
580.0523574877902
 20
-816.6655632620152
 30
0.0
 11
132.9636435569242
 21
-369.576849331149
 31
0.0
  0
LINE
  5
295
330
1F
100
AcDbEntity
  8
0-0
  6
JWW_DASHED1
 62
   120
370
     5
100
AcDbLine
 10
589.9518524244322
 20
-816.6655632620207
 30
0.0
 11
132.963643556931
 21
-359.6773543945199
 31
0.0
  0
LINE
  5
296
330
1F
100
AcDbEntity
  8
0-0
  6
JWW_DASHED1
 62
   120
370
     5
100
AcDbLine
 10
599.8513473610162
 20
-816.6655632620258
 30
0.0
 11
132.9636435569242
 21
-349.7778594579341
 31
0.0
  0
LINE
  5
297
330
1F
100
AcDbEntity
  8
0-0
  6
JWW_DASHED1
 62
   120
370
     5
100
AcDbLine
 10
609.7508422976616
 20
-816.6655632620348
 30
0.0
 11
132.9636435569208
 21
-339.8783645212943
 31
0.0
  0
LINE
  5
298
330
1F
100
AcDbEntity
  8
0-0
  6
JWW_DASHED1
 62
   120
370
     5
100
AcDbLine
 10
619.6503372342456
 20
-816.6655632620399
 30
0.0
 11
132.963643556914
 21
-329.9788695847086
 31
0.0
  0
LINE
  5
299
330
1F
100
AcDbEntity
  8
0-0
  6
JWW_DASHED1
 62
   120
370
     5
100
AcDbLine
 10
629.5498321708603
 20
-816.6655632620175
 30
0.0
 11
132.9636435569344
 21
-320.0793746480913
 31
0.0
  0
LINE
  5
29A
330
1F
100
AcDbEntity
  8
0-0
  6
JWW_DASHED1
 62
   120
370
     5
100
AcDbLine
 10
639.4493271075041
 20
-816.6655632620269
 30
0.0
 11
132.9636435569242
 21
-310.1798797114468
 31
0.0
  0
LINE
  5
29B
330
1F
100
AcDbEntity
  8
0-0
  6
JWW_DASHED1
 62
   120
370
     5
100
AcDbLine
 10
649.3488220440897
 20
-816.6655632620323
 30
0.0
 11
132.9636435569242
 21
-300.2803847748658
 31
0.0
  0
LINE
  5
29C
330
1F
100
AcDbEntity
  8
0-0
  6
JWW_DASHED1
 62
   120
370
     5
100
AcDbLine
 10
659.2483169807199
 20
-816.6655632620269
 30
0.0
 11
132.963643556914
 21
-290.3808898382212
 31
0.0
  0
LINE
  5
29D
330
1F
100
AcDbEntity
  8
0-0
  6
JWW_DASHED1
 62
   120
370
     5
100
AcDbLine
 10
669.1478119172884
 20
-816.6655632620143
 30
0.0
 11
132.9636435569361
 21
-280.4813949016628
 31
0.0
  0
LINE
  5
29E
330
1F
100
AcDbEntity
  8
0-0
  6
JWW_DASHED1
 62
   120
370
     5
100
AcDbLine
 10
679.0473068539322
 20
-816.6655632620235
 30
0.0
 11
132.9636435569276
 21
-270.5818999650182
 31
0.0
  0
LINE
  5
29F
330
1F
100
AcDbEntity
  8
0-0
  6
JWW_DASHED1
 62
   120
370
     5
100
AcDbLine
 10
688.9468017905178
 20
-816.6655632620284
 30
0.0
 11
132.9636435569208
 21
-260.6824050284325
 31
0.0
  0
LINE
  5
2A0
330
1F
100
AcDbEntity
  8
0-0
  6
JWW_DASHED1
 62
   120
370
     5
100
AcDbLine
 10
698.8462967271632
 20
-816.6655632620382
 30
0.0
 11
132.9636435569174
 21
-250.7829100917931
 31
0.0
  0
LINE
  5
2A1
330
1F
100
AcDbEntity
  8
0-0
  6
JWW_DASHED1
 62
   120
370
     5
100
AcDbLine
 10
708.7457916637165
 20
-816.6655632620118
 30
0.0
 11
132.9636435569242
 21
-240.883415155218
 31
0.0
  0
LINE
  5
2A2
330
1F
100
AcDbEntity
  8
0-0
  6
JWW_DASHED1
 62
   120
370
     5
100
AcDbLine
 10
718.6452866003604
 20
-816.6655632620203
 30
0.0
 11
132.9636435569293
 21
-230.9839202185893
 31
0.0
  0
LINE
  5
2A3
330
1F
100
AcDbEntity
  8
0-0
  6
JWW_DASHED1
 62
   120
370
     5
100
AcDbLine
 10
722.9636435569264
 20
-811.0844252819509
 30
0.0
 11
132.9636435569208
 21
-221.0844252819447
 31
0.0
  0
LINE
  5
2A4
330
1F
100
AcDbEntity
  8
0-0
  6
JWW_DASHED1
 62
   120
370
     5
100
AcDbLine
 10
722.9636435569196
 20
-801.1849303453652
 30
0.0
 11
132.9636435569208
 21
-211.184930345365
 31
0.0
  0
LINE
  5
2A5
330
1F
100
AcDbEntity
  8
0-0
  6
JWW_DASHED1
 62
   120
370
     5
100
AcDbLine
 10
722.9636435569435
 20
-791.2854354087524
 30
0.0
 11
132.9636435569378
 21
-201.2854354087465
 31
0.0
  0
LINE
  5
2A6
330
1F
100
AcDbEntity
  8
0-0
  6
JWW_DASHED1
 62
   120
370
     5
100
AcDbLine
 10
722.9636435569385
 20
-781.3859404721667
 30
0.0
 11
132.963643556931
 21
-191.3859404721603
 31
0.0
  0
LINE
  5
2A7
330
1F
100
AcDbEntity
  8
0-0
  6
JWW_DASHED1
 62
   120
370
     5
100
AcDbLine
 10
722.9636435569298
 20
-771.4864455355219
 30
0.0
 11
132.9636435569225
 21
-181.4864455355158
 31
0.0
  0
LINE
  5
2A8
330
1F
100
AcDbEntity
  8
0-0
  6
JWW_DASHED1
 62
   120
370
     5
100
AcDbLine
 10
722.963643556923
 20
-761.5869505989368
 30
0.0
 11
132.9636435569242
 21
-171.5869505989365
 31
0.0
  0
LINE
  5
2A9
330
1F
100
AcDbEntity
  8
0-0
  6
JWW_DASHED1
 62
   120
370
     5
100
AcDbLine
 10
722.9636435569298
 20
-751.6874556623083
 30
0.0
 11
132.963643556914
 21
-161.6874556622919
 31
0.0
  0
LINE
  5
2AA
330
1F
100
AcDbEntity
  8
0-0
  6
JWW_DASHED1
 62
   120
370
     5
100
AcDbLine
 10
722.9636435569366
 20
-741.7879607256791
 30
0.0
 11
132.963643556931
 21
-151.7879607256729
 31
0.0
  0
LINE
  5
2AB
330
1F
100
AcDbEntity
  8
0-0
  6
JWW_DASHED1
 62
   120
370
     5
100
AcDbLine
 10
722.9636435569316
 20
-731.8884657890932
 30
0.0
 11
132.9636435569259
 21
-141.8884657890877
 31
0.0
  0
LINE
  5
2AC
330
1F
100
AcDbEntity
  8
0-0
  6
JWW_DASHED1
 62
   120
370
     5
100
AcDbLine
 10
722.963643556923
 20
-721.9889708524497
 30
0.0
 11
132.9636435569225
 21
-131.9889708524491
 31
0.0
  0
LINE
  5
2AD
330
1F
100
AcDbEntity
  8
0-0
  6
JWW_DASHED1
 62
   120
370
     5
100
AcDbLine
 10
722.9636435569196
 20
-712.0894759158643
 30
0.0
 11
132.9636435569174
 21
-122.0894759158634
 31
0.0
  0
LINE
  5
2AE
330
1F
100
AcDbEntity
  8
0-0
  6
JWW_DASHED1
 62
   120
370
     5
100
AcDbLine
 10
722.96364355694
 20
-702.1899809792503
 30
0.0
 11
132.9636435569344
 21
-112.1899809792444
 31
0.0
  0
LINE
  5
2AF
330
1F
100
AcDbEntity
  8
0-0
  6
JWW_DASHED1
 62
   120
370
     5
100
AcDbLine
 10
722.9636435569332
 20
-692.2904860426646
 30
0.0
 11
132.9636435569276
 21
-102.2904860426587
 31
0.0
  0
LINE
  5
2B0
330
1F
100
AcDbEntity
  8
0-0
  6
JWW_DASHED1
 62
   120
370
     5
100
AcDbLine
 10
722.9636435569264
 20
-682.3909911060214
 30
0.0
 11
132.9636435569259
 21
-92.39099110602098
 31
0.0
  0
LINE
  5
2B1
330
1F
100
AcDbEntity
  8
0-0
  6
JWW_DASHED1
 62
   120
370
     5
100
AcDbLine
 10
722.9636435569214
 20
-672.4914961694357
 30
0.0
 11
132.9636435569208
 21
-82.49149616943527
 31
0.0
  0
LINE
  5
2B2
330
1F
100
AcDbEntity
  8
0-0
  6
JWW_DASHED1
 62
   120
370
     5
100
AcDbLine
 10
722.9636435569419
 20
-662.5920012328213
 30
0.0
 11
132.9636435569361
 21
-72.59200123281587
 31
0.0
  0
LINE
  5
2B3
330
1F
100
AcDbEntity
  8
0-0
  6
JWW_DASHED1
 62
   120
370
     5
100
AcDbLine
 10
722.9636435569332
 20
-652.692506296177
 30
0.0
 11
132.9636435569276
 21
-62.69250629617133
 31
0.0
  0
LINE
  5
2B4
330
1F
100
AcDbEntity
  8
0-0
  6
JWW_DASHED1
 62
   120
370
     5
100
AcDbLine
 10
722.9636435569282
 20
-642.7930113595916
 30
0.0
 11
132.9636435569208
 21
-52.79301135958562
 31
0.0
  0
LINE
  5
2B5
330
1F
100
AcDbEntity
  8
0-0
  6
JWW_DASHED1
 62
   120
370
     5
100
AcDbLine
 10
722.9636435569196
 20
-632.8935164229484
 30
0.0
 11
132.9636435569208
 21
-42.89351642294832
 31
0.0
  0
LINE
  5
2B6
330
1F
100
AcDbEntity
  8
0-0
  6
JWW_DASHED1
 62
   120
370
     5
100
AcDbLine
 10
722.9636435569298
 20
-622.9940214863788
 30
0.0
 11
132.963643556914
 21
-32.99402148636261
 31
0.0
  0
LINE
  5
2B7
330
1F
100
AcDbEntity
  8
0-0
  6
JWW_DASHED1
 62
   120
370
     5
100
AcDbLine
 10
722.9636435569366
 20
-613.0945265497485
 30
0.0
 11
132.963643556931
 21
-23.09452654974237
 31
0.0
  0
LINE
  5
2B8
330
1F
100
AcDbEntity
  8
0-0
  6
JWW_DASHED1
 62
   120
370
     5
100
AcDbLine
 10
722.9636435569298
 20
-603.1950316131625
 30
0.0
 11
132.9636435569242
 21
-13.19503161315708
 31
0.0
  0
LINE
  5
2B9
330
1F
100
AcDbEntity
  8
0-0
  6
JWW_DASHED1
 62
   120
370
     5
100
AcDbLine
 10
722.963643556923
 20
-593.2955366765201
 30
0.0
 11
132.9636435569242
 21
-3.295536676519788
 31
0.0
  0
LINE
  5
2BA
330
1F
100
AcDbEntity
  8
0-0
  6
JWW_DASHED1
 62
   120
370
     5
100
AcDbLine
 10
722.963643556918
 20
-583.3960417399344
 30
0.0
 11
132.9636435569174
 21
6.603958260065497
 31
0.0
  0
LINE
  5
2BB
330
1F
100
AcDbEntity
  8
0-0
  6
JWW_DASHED1
 62
   120
370
     5
100
AcDbLine
 10
722.9636435569385
 20
-573.4965468033195
 30
0.0
 11
132.9636435569327
 21
16.50345319668617
 31
0.0
  0
LINE
  5
2BC
330
1F
100
AcDbEntity
  8
0-0
  6
JWW_DASHED1
 62
   120
370
     5
100
AcDbLine
 10
722.9636435569298
 20
-563.597051866675
 30
0.0
 11
132.9636435569242
 21
26.40294813333071
 31
0.0
  0
LINE
  5
2BD
330
1F
100
AcDbEntity
  8
0-0
  6
JWW_DASHED1
 62
   120
370
     5
100
AcDbLine
 10
722.9636435569264
 20
-553.6975569300919
 30
0.0
 11
132.9636435569259
 21
36.30244306990832
 31
0.0
  0
LINE
  5
2BE
330
1F
100
AcDbEntity
  8
0-0
  6
JWW_DASHED1
 62
   120
370
     5
100
AcDbLine
 10
722.9636435569162
 20
-543.7980619934475
 30
0.0
 11
132.9636435569174
 21
46.20193800655287
 31
0.0
  0
LINE
  5
2BF
330
1F
100
AcDbEntity
  8
0-0
  6
JWW_DASHED1
 62
   120
370
     5
100
AcDbLine
 10
722.96364355694
 20
-533.898567056891
 30
0.0
 11
132.9636435569344
 21
56.10143294311513
 31
0.0
  0
LINE
  5
2C0
330
1F
100
AcDbEntity
  8
0-0
  6
JWW_DASHED1
 62
   120
370
     5
100
AcDbLine
 10
722.9636435569332
 20
-523.9990721202466
 30
0.0
 11
132.9636435569259
 21
66.00092787975967
 31
0.0
  0
LINE
  5
2C1
330
1F
100
AcDbEntity
  8
0-0
  6
JWW_DASHED1
 62
   120
370
     5
100
AcDbLine
 10
722.9636435569264
 20
-514.0995771836605
 30
0.0
 11
132.9636435569208
 21
75.90042281634496
 31
0.0
  0
LINE
  5
2C2
330
1F
100
AcDbEntity
  8
0-0
  6
JWW_DASHED1
 62
   120
370
     5
100
AcDbLine
 10
722.9636435569196
 20
-504.2000822470192
 30
0.0
 11
132.9636435569208
 21
85.79991775298097
 31
0.0
  0
LINE
  5
2C3
330
1F
100
AcDbEntity
  8
0-0
  6
JWW_DASHED1
 62
   120
370
     5
100
AcDbLine
 10
722.9636435569298
 20
-494.3005873104493
 30
0.0
 11
132.963643556914
 21
95.69941268956669
 31
0.0
  0
LINE
  5
2C4
330
1F
100
AcDbEntity
  8
0-0
  6
JWW_DASHED1
 62
   120
370
     5
100
AcDbLine
 10
722.963643556935
 20
-484.4010923738179
 30
0.0
 11
132.9636435569293
 21
105.5989076261882
 31
0.0
  0
LINE
  5
2C5
330
1F
100
AcDbEntity
  8
0-0
  6
JWW_DASHED1
 62
   120
370
     5
100
AcDbLine
 10
722.9636435569264
 20
-474.5015974371729
 30
0.0
 11
132.9636435569208
 21
115.4984025628328
 31
0.0
  0
LINE
  5
2C6
330
1F
100
AcDbEntity
  8
0-0
  6
JWW_DASHED1
 62
   120
370
     5
100
AcDbLine
 10
722.963643556923
 20
-464.6021025005911
 30
0.0
 11
132.9636435569242
 21
125.3978974994091
 31
0.0
  0
LINE
  5
2C7
330
1F
100
AcDbEntity
  8
0-0
  6
JWW_DASHED1
 62
   120
370
     5
100
AcDbLine
 10
722.9636435569435
 20
-454.7026075639747
 30
0.0
 11
132.9636435569208
 21
135.2973924360468
 31
0.0
  0
LINE
  5
2C8
330
1F
100
AcDbEntity
  8
0-0
  6
JWW_DASHED1
 62
   120
370
     5
100
AcDbLine
 10
722.9636435569366
 20
-444.8031126273889
 30
0.0
 11
132.963643556931
 21
145.1968873726167
 31
0.0
  0
LINE
  5
2C9
330
1F
100
AcDbEntity
  8
0-0
  6
JWW_DASHED1
 62
   120
370
     5
100
AcDbLine
 10
722.9636435569282
 20
-434.9036176907444
 30
0.0
 11
132.9636435569225
 21
155.0963823092613
 31
0.0
  0
LINE
  5
2CA
330
1F
100
AcDbEntity
  8
0-0
  6
JWW_DASHED1
 62
   120
370
     5
100
AcDbLine
 10
722.9636435569264
 20
-425.0041227541625
 30
0.0
 11
132.9636435569276
 21
164.995877245838
 31
0.0
  0
LINE
  5
2CB
330
1F
100
AcDbEntity
  8
0-0
  6
JWW_DASHED1
 62
   120
370
     5
100
AcDbLine
 10
722.9636435569162
 20
-415.104627817518
 30
0.0
 11
132.9636435569174
 21
174.8953721824822
 31
0.0
  0
LINE
  5
2CC
330
1F
100
AcDbEntity
  8
0-0
  6
JWW_DASHED1
 62
   120
370
     5
100
AcDbLine
 10
722.9636435569366
 20
-405.2051328809011
 30
0.0
 11
132.963643556931
 21
184.7948671191041
 31
0.0
  0
LINE
  5
2CD
330
1F
100
AcDbEntity
  8
0-0
  6
JWW_DASHED1
 62
   120
370
     5
100
AcDbLine
 10
722.9636435569298
 20
-395.3056379443159
 30
0.0
 11
132.9636435569242
 21
194.6943620556898
 31
0.0
  0
LINE
  5
2CE
330
1F
100
AcDbEntity
  8
0-0
  6
JWW_DASHED1
 62
   120
370
     5
100
AcDbLine
 10
722.9636435569264
 20
-385.4061430076752
 30
0.0
 11
132.9636435569242
 21
204.593856992325
 31
0.0
  0
LINE
  5
2CF
330
1F
100
AcDbEntity
  8
0-0
  6
JWW_DASHED1
 62
   120
370
     5
100
AcDbLine
 10
722.9636435569196
 20
-375.5066480710894
 30
0.0
 11
132.9636435569208
 21
214.4933519289107
 31
0.0
  0
LINE
  5
2D0
330
1F
100
AcDbEntity
  8
0-0
  6
JWW_DASHED1
 62
   120
370
     5
100
AcDbLine
 10
722.96364355694
 20
-365.607153134473
 30
0.0
 11
132.9636435569327
 21
224.3928468655331
 31
0.0
  0
LINE
  5
2D1
330
1F
100
AcDbEntity
  8
0-0
  6
JWW_DASHED1
 62
   120
370
     5
100
AcDbLine
 10
722.9636435569332
 20
-355.7076581978873
 30
0.0
 11
132.9636435569276
 21
234.2923418021188
 31
0.0
  0
LINE
  5
2D2
330
1F
100
AcDbEntity
  8
0-0
  6
JWW_DASHED1
 62
   120
370
     5
100
AcDbLine
 10
722.9636435569248
 20
-345.8081632612428
 30
0.0
 11
132.9636435569174
 21
244.1918367387633
 31
0.0
  0
LINE
  5
2D3
330
1F
100
AcDbEntity
  8
0-0
  6
JWW_DASHED1
 62
   120
370
     5
100
AcDbLine
 10
722.963643556923
 20
-335.9086683246613
 30
0.0
 11
132.9636435569242
 21
254.0913316753388
 31
0.0
  0
LINE
  5
2D4
330
1F
100
AcDbEntity
  8
0-0
  6
JWW_DASHED1
 62
   120
370
     5
100
AcDbLine
 10
722.9636435569419
 20
-326.0091733880441
 30
0.0
 11
132.9636435569361
 21
263.9908266119616
 31
0.0
  0
LINE
  5
2D5
330
1F
100
AcDbEntity
  8
0-0
  6
JWW_DASHED1
 62
   120
370
     5
100
AcDbLine
 10
722.9636435569332
 20
-316.1096784513995
 30
0.0
 11
132.9636435569276
 21
273.8903215486057
 31
0.0
  0
LINE
  5
2D6
330
1F
100
AcDbEntity
  8
0-0
  6
JWW_DASHED1
 62
   120
370
     5
100
AcDbLine
 10
722.9636435569264
 20
-306.2101835148138
 30
0.0
 11
132.9636435569208
 21
283.7898164851919
 31
0.0
  0
LINE
  5
2D7
330
1F
100
AcDbEntity
  8
0-0
  6
JWW_DASHED1
 62
   120
370
     5
100
AcDbLine
 10
722.963643556923
 20
-296.3106885781744
 30
0.0
 11
132.9636435569225
 21
293.6893114218262
 31
0.0
  0
LINE
  5
2D8
330
1F
100
AcDbEntity
  8
0-0
  6
JWW_DASHED1
 62
   120
370
     5
100
AcDbLine
 10
722.9636435569332
 20
-286.4111936416044
 30
0.0
 11
132.9636435569174
 21
303.5888063584119
 31
0.0
  0
LINE
  5
2D9
330
1F
100
AcDbEntity
  8
0-0
  6
JWW_DASHED1
 62
   120
370
     5
100
AcDbLine
 10
722.963643556935
 20
-276.5116987049706
 30
0.0
 11
132.9636435569293
 21
313.4883012950351
 31
0.0
  0
LINE
  5
2DA
330
1F
100
AcDbEntity
  8
0-0
  6
JWW_DASHED1
 62
   120
370
     5
100
AcDbLine
 10
722.9636435569298
 20
-266.6122037683849
 30
0.0
 11
132.9636435569242
 21
323.3877962316208
 31
0.0
  0
LINE
  5
2DB
330
1F
100
AcDbEntity
  8
0-0
  6
JWW_DASHED1
 62
   120
370
     5
100
AcDbLine
 10
722.9636435569264
 20
-256.7127088317459
 30
0.0
 11
132.9636435569259
 21
333.2872911682543
 31
0.0
  0
LINE
  5
2DC
330
1F
100
AcDbEntity
  8
0-0
  6
JWW_DASHED1
 62
   120
370
     5
100
AcDbLine
 10
722.9636435569214
 20
-246.8132138951606
 30
0.0
 11
132.9636435569208
 21
343.18678610484
 31
0.0
  0
LINE
  5
2DD
330
1F
100
AcDbEntity
  8
0-0
  6
JWW_DASHED1
 62
   120
370
     5
100
AcDbLine
 10
722.9636435569366
 20
-236.913718958542
 30
0.0
 11
132.963643556931
 21
353.0862810414636
 31
0.0
  0
LINE
  5
2DE
330
1F
100
AcDbEntity
  8
0-0
  6
JWW_DASHED1
 62
   120
370
     5
100
AcDbLine
 10
722.9636435569298
 20
-227.0142240218979
 30
0.0
 11
132.9636435569225
 21
362.9857759781082
 31
0.0
  0
LINE
  5
2DF
330
1F
100
AcDbEntity
  8
0-0
  6
JWW_DASHED1
 62
   120
370
     5
100
AcDbLine
 10
722.963643556923
 20
-217.1147290853122
 30
0.0
 11
132.9636435569174
 21
372.8852709146939
 31
0.0
  0
LINE
  5
2E0
330
1F
100
AcDbEntity
  8
0-0
  6
JWW_DASHED1
 62
   120
370
     5
100
AcDbLine
 10
722.9636435569196
 20
-207.2152341486728
 30
0.0
 11
132.9636435569191
 21
382.7847658513274
 31
0.0
  0
LINE
  5
2E1
330
1F
100
AcDbEntity
  8
0-0
  6
JWW_DASHED1
 62
   120
370
     5
100
AcDbLine
 10
722.96364355694
 20
-197.3157392121135
 30
0.0
 11
132.9636435569344
 21
392.6842607878922
 31
0.0
  0
LINE
  5
2E2
330
1F
100
AcDbEntity
  8
0-0
  6
JWW_DASHED1
 62
   120
370
     5
100
AcDbLine
 10
722.9636435569316
 20
-187.416244275469
 30
0.0
 11
132.9636435569259
 21
402.5837557245367
 31
0.0
  0
LINE
  5
2E3
330
1F
100
AcDbEntity
  8
0-0
  6
JWW_DASHED1
 62
   120
370
     5
100
AcDbLine
 10
722.9636435569264
 20
-177.5167493388832
 30
0.0
 11
132.9636435569208
 21
412.4832506611224
 31
0.0
  0
LINE
  5
2E4
330
1F
100
AcDbEntity
  8
0-0
  6
JWW_DASHED1
 62
   120
370
     5
100
AcDbLine
 10
722.963643556923
 20
-167.6172544022447
 30
0.0
 11
132.9636435569225
 21
422.3827455977555
 31
0.0
  0
LINE
  5
2E5
330
1F
100
AcDbEntity
  8
0-0
  6
JWW_DASHED1
 62
   120
370
     5
100
AcDbLine
 10
722.9636435569332
 20
-157.7177594656752
 30
0.0
 11
132.9636435569174
 21
432.2822405343412
 31
0.0
  0
LINE
  5
2E6
330
1F
100
AcDbEntity
  8
0-0
  6
JWW_DASHED1
 62
   120
370
     5
100
AcDbLine
 10
722.9636435569332
 20
-147.81826452904
 30
0.0
 11
132.9636435569276
 21
442.1817354709657
 31
0.0
  0
LINE
  5
2E7
330
1F
100
AcDbEntity
  8
0-0
  6
JWW_DASHED1
 62
   120
370
     5
100
AcDbLine
 10
722.9636435569248
 20
-137.9187695923954
 30
0.0
 11
132.9636435569191
 21
452.0812304076102
 31
0.0
  0
LINE
  5
2E8
330
1F
100
AcDbEntity
  8
0-0
  6
JWW_DASHED1
 62
   120
370
     5
100
AcDbLine
 10
722.9636435569264
 20
-128.0192746558166
 30
0.0
 11
132.9636435569259
 21
461.980725344184
 31
0.0
  0
LINE
  5
2E9
330
1F
100
AcDbEntity
  8
0-0
  6
JWW_DASHED1
 62
   120
370
     5
100
AcDbLine
 10
722.9636435569435
 20
-118.1197797191972
 30
0.0
 11
132.9636435569208
 21
471.8802202808243
 31
0.0
  0
LINE
  5
2EA
330
1F
100
AcDbEntity
  8
0-0
  6
JWW_DASHED1
 62
   120
370
     5
100
AcDbLine
 10
722.9636435569366
 20
-108.2202847826115
 30
0.0
 11
132.963643556931
 21
481.7797152173943
 31
0.0
  0
LINE
  5
2EB
330
1F
100
AcDbEntity
  8
0-0
  6
JWW_DASHED1
 62
   120
370
     5
100
AcDbLine
 10
722.9636435569282
 20
-98.32078984596734
 30
0.0
 11
132.9636435569208
 21
491.6792101540387
 31
0.0
  0
LINE
  5
2EC
330
1F
100
AcDbEntity
  8
0-0
  6
JWW_DASHED1
 62
   120
370
     5
100
AcDbLine
 10
722.9636435569298
 20
-88.42129490938802
 30
0.0
 11
132.9636435569293
 21
501.5787050906121
 31
0.0
  0
LINE
  5
2ED
330
1F
100
AcDbEntity
  8
0-0
  6
JWW_DASHED1
 62
   120
370
     5
100
AcDbLine
 10
722.9636435569196
 20
-78.5217999727439
 30
0.0
 11
132.9636435569208
 21
511.4782000272562
 31
0.0
  0
LINE
  5
2EE
330
1F
100
AcDbEntity
  8
0-0
  6
JWW_DASHED1
 62
   120
370
     5
100
AcDbLine
 10
722.9636435569366
 20
-68.62230503612409
 30
0.0
 11
132.963643556931
 21
521.377694963882
 31
0.0
  0
LINE
  5
2EF
330
1F
100
AcDbEntity
  8
0-0
  6
JWW_DASHED1
 62
   120
370
     5
100
AcDbLine
 10
722.9636435569298
 20
-58.72281009953838
 30
0.0
 11
132.9636435569242
 21
531.2771899004673
 31
0.0
  0
LINE
  5
2F0
330
1F
100
AcDbEntity
  8
0-0
  6
JWW_DASHED1
 62
   120
370
     5
100
AcDbLine
 10
722.9636435569282
 20
-48.82331516290066
 30
0.0
 11
132.9636435569276
 21
541.1766848370995
 31
0.0
  0
LINE
  5
2F1
330
1F
100
AcDbEntity
  8
0-0
  6
JWW_DASHED1
 62
   120
370
     5
100
AcDbLine
 10
722.963643556923
 20
-38.92382022631494
 30
0.0
 11
132.9636435569242
 21
551.0761797736852
 31
0.0
  0
LINE
  5
2F2
330
1F
100
AcDbEntity
  8
0-0
  6
JWW_DASHED1
 62
   120
370
     5
100
AcDbLine
 10
722.9636435569385
 20
-29.02432528969513
 30
0.0
 11
132.9636435569327
 21
560.9756747103106
 31
0.0
  0
LINE
  5
2F3
330
1F
100
AcDbEntity
  8
0-0
  6
JWW_DASHED1
 62
   120
370
     5
100
AcDbLine
 10
722.9636435569332
 20
-19.12483035310942
 30
0.0
 11
132.9636435569276
 21
570.8751696468962
 31
0.0
  0
LINE
  5
2F4
330
1F
100
AcDbEntity
  8
0-0
  6
JWW_DASHED1
 62
   120
370
     5
100
AcDbLine
 10
722.963643556923
 20
-9.225335416464873
 30
0.0
 11
132.9636435569174
 21
580.7746645835408
 31
0.0
  0
LINE
  5
2F5
330
1F
100
AcDbEntity
  8
0-0
  6
JWW_DASHED1
 62
   120
370
     5
100
AcDbLine
 10
722.9636435569264
 20
0.6741595201127382
 30
0.0
 11
132.9636435569276
 21
590.6741595201133
 31
0.0
  0
LINE
  5
2F6
330
1F
100
AcDbEntity
  8
0-0
  6
JWW_DASHED1
 62
   120
370
     5
100
AcDbLine
 10
722.96364355694
 20
10.57365445673383
 30
0.0
 11
132.9636435569208
 21
600.5736544567544
 31
0.0
  0
LINE
  5
2F7
330
1F
100
AcDbEntity
  8
0-0
  6
JWW_DASHED1
 62
   120
370
     5
100
AcDbLine
 10
722.9636435569332
 20
20.47314939337795
 30
0.0
 11
132.9636435569259
 21
610.4731493933837
 31
0.0
  0
LINE
  5
2F8
330
1F
100
AcDbEntity
  8
0-0
  6
JWW_DASHED1
 62
   120
370
     5
100
AcDbLine
 10
722.9636435569264
 20
30.37264432996366
 30
0.0
 11
132.9636435569208
 21
620.3726443299694
 31
0.0
  0
LINE
  5
2F9
330
1F
100
AcDbEntity
  8
0-0
  6
JWW_DASHED1
 62
   120
370
     5
100
AcDbLine
 10
722.9636435569264
 20
40.27213926660011
 30
0.0
 11
132.9636435569242
 21
630.2721392666007
 31
0.0
  0
LINE
  5
2FA
330
1F
100
AcDbEntity
  8
0-0
  6
JWW_DASHED1
 62
   120
370
     5
100
AcDbLine
 10
722.9636435569196
 20
50.17163420318582
 30
0.0
 11
132.9636435569208
 21
640.1716342031859
 31
0.0
  0
LINE
  5
2FB
330
1F
100
AcDbEntity
  8
0-0
  6
JWW_DASHED1
 62
   120
370
     5
100
AcDbLine
 10
722.963643556935
 20
60.07112913980649
 30
0.0
 11
132.9636435569276
 21
650.0711291398126
 31
0.0
  0
LINE
  5
2FC
330
1F
100
AcDbEntity
  8
0-0
  6
JWW_DASHED1
 62
   120
370
     5
100
AcDbLine
 10
722.9636435569298
 20
69.9706240763922
 30
0.0
 11
132.9636435569242
 21
659.9706240763978
 31
0.0
  0
LINE
  5
2FD
330
1F
100
AcDbEntity
  8
0-0
  6
JWW_DASHED1
 62
   120
370
     5
100
AcDbLine
 10
722.9636435569298
 20
79.87011901302864
 30
0.0
 11
132.9636435569276
 21
669.8701190130288
 31
0.0
  0
LINE
  5
2FE
330
1F
100
AcDbEntity
  8
0-0
  6
JWW_DASHED1
 62
   120
370
     5
100
AcDbLine
 10
722.963643556923
 20
89.76961394961393
 30
0.0
 11
132.9636435569242
 21
679.769613949614
 31
0.0
  0
LINE
  5
2FF
330
1F
100
AcDbEntity
  8
0-0
  6
JWW_DASHED1
 62
   120
370
     5
100
AcDbLine
 10
722.9636435569366
 20
99.66910888623545
 30
0.0
 11
132.963643556931
 21
689.6691088862411
 31
0.0
  0
LINE
  5
300
330
1F
100
AcDbEntity
  8
0-0
  6
JWW_DASHED1
 62
   120
370
     5
100
AcDbLine
 10
722.9636435569282
 20
109.56860382288
 30
0.0
 11
132.9636435569225
 21
699.5686038228857
 31
0.0
  0
LINE
  5
301
330
1F
100
AcDbEntity
  8
0-0
  6
JWW_DASHED1
 62
   120
370
     5
100
AcDbLine
 10
722.963643556923
 20
119.4680987594657
 30
0.0
 11
132.9636435569174
 21
709.4680987594713
 31
0.0
  0
LINE
  5
302
330
1F
100
AcDbEntity
  8
0-0
  6
JWW_DASHED1
 62
   120
370
     5
100
AcDbLine
 10
722.963643556923
 20
129.3675936961013
 30
0.0
 11
132.9636435569225
 21
719.3675936961015
 31
0.0
  0
LINE
  5
303
330
1F
100
AcDbEntity
  8
0-0
  6
JWW_DASHED1
 62
   120
370
     5
100
AcDbLine
 10
722.96364355694
 20
139.2670886326644
 30
0.0
 11
132.9636435569191
 21
729.2670886326855
 31
0.0
  0
LINE
  5
304
330
1F
100
AcDbEntity
  8
0-0
  6
JWW_DASHED1
 62
   120
370
     5
100
AcDbLine
 10
722.9636435569298
 20
149.166583569309
 30
0.0
 11
132.9636435569242
 21
739.1665835693146
 31
0.0
  0
LINE
  5
305
330
1F
100
AcDbEntity
  8
0-0
  6
JWW_DASHED1
 62
   120
370
     5
100
AcDbLine
 10
722.9636435569264
 20
159.0660785058942
 30
0.0
 11
132.9636435569208
 21
749.0660785058999
 31
0.0
  0
LINE
  5
306
330
1F
100
AcDbEntity
  8
0-0
  6
JWW_DASHED1
 62
   120
370
     5
100
AcDbLine
 10
722.9636435569264
 20
168.9655734425294
 30
0.0
 11
132.9636435569242
 21
758.96557344253
 31
0.0
  0
LINE
  5
307
330
1F
100
AcDbEntity
  8
0-0
  6
JWW_DASHED1
 62
   120
370
     5
100
AcDbLine
 10
722.9636435569196
 20
178.8650683791155
 30
0.0
 11
132.9636435569208
 21
768.8650683791157
 31
0.0
  0
LINE
  5
308
330
1F
100
AcDbEntity
  8
0-0
  6
JWW_DASHED1
 62
   120
370
     5
100
AcDbLine
 10
722.9636435569332
 20
188.7645633157371
 30
0.0
 11
132.9636435569276
 21
778.7645633157432
 31
0.0
  0
LINE
  5
309
330
1F
100
AcDbEntity
  8
0-0
  6
JWW_DASHED1
 62
   120
370
     5
100
AcDbLine
 10
722.9636435569248
 20
198.6640582523816
 30
0.0
 11
132.9636435569174
 21
788.6640582523877
 31
0.0
  0
LINE
  5
30A
330
1F
100
AcDbEntity
  8
0-0
  6
JWW_DASHED1
 62
   120
370
     5
100
AcDbLine
 10
722.9636435569298
 20
208.5635531889575
 30
0.0
 11
132.9636435569276
 21
798.5635531889585
 31
0.0
  0
LINE
  5
30B
330
1F
100
AcDbEntity
  8
0-0
  6
JWW_DASHED1
 62
   120
370
     5
100
AcDbLine
 10
722.9636435569366
 20
218.4630481255867
 30
0.0
 11
132.9636435569191
 21
808.4630481256027
 31
0.0
  0
LINE
  5
30C
330
1F
100
AcDbEntity
  8
0-0
  6
JWW_DASHED1
 62
   120
370
     5
100
AcDbLine
 10
722.9636435569366
 20
228.362543062166
 30
0.0
 11
132.963643556931
 21
818.3625430621717
 31
0.0
  0
LINE
  5
30D
330
1F
100
AcDbEntity
  8
0-0
  6
JWW_DASHED1
 62
   120
370
     5
100
AcDbLine
 10
722.9636435569264
 20
238.2620379988101
 30
0.0
 11
132.9636435569208
 21
828.2620379988163
 31
0.0
  0
LINE
  5
30E
330
1F
100
AcDbEntity
  8
0-0
  6
JWW_DASHED1
 62
   120
370
     5
100
AcDbLine
 10
722.963643556923
 20
248.1615329353959
 30
0.0
 11
132.9636435569174
 21
838.1615329354015
 31
0.0
  0
LINE
  5
30F
330
1F
100
AcDbEntity
  8
0-0
  6
JWW_DASHED1
 62
   120
370
     5
100
AcDbLine
 10
722.963643556923
 20
258.0610278720306
 30
0.0
 11
132.9636435569225
 21
848.0610278720312
 31
0.0
  0
LINE
  5
310
330
1F
100
AcDbEntity
  8
0-0
  6
JWW_DASHED1
 62
   120
370
     5
100
AcDbLine
 10
722.963643556935
 20
267.9605228086538
 30
0.0
 11
132.9636435569293
 21
857.9605228086596
 31
0.0
  0
LINE
  5
311
330
1F
100
AcDbEntity
  8
0-0
  6
JWW_DASHED1
 62
   120
370
     5
100
AcDbLine
 10
722.9636435569298
 20
277.8600177452395
 30
0.0
 11
132.9636435569242
 21
867.8600177452452
 31
0.0
  0
LINE
  5
312
330
1F
100
AcDbEntity
  8
0-0
  6
JWW_DASHED1
 62
   120
370
     5
100
AcDbLine
 10
722.9636435569298
 20
287.7595126818738
 30
0.0
 11
132.963643556931
 21
877.759512681874
 31
0.0
  0
LINE
  5
313
330
1F
100
AcDbEntity
  8
0-0
  6
JWW_DASHED1
 62
   120
370
     5
100
AcDbLine
 10
722.9636435569264
 20
297.6590076184591
 30
0.0
 11
139.2882144374082
 21
881.3344367379766
 31
0.0
  0
LINE
  5
314
330
1F
100
AcDbEntity
  8
0-0
  6
JWW_DASHED1
 62
   120
370
     5
100
AcDbLine
 10
722.963643556923
 20
871.8297139419366
 30
0.0
 11
713.4589207608835
 21
881.3344367379766
 31
0.0
  0
LINE
  5
315
330
1F
100
AcDbEntity
  8
0-0
  6
JWW_DASHED1
 62
   120
370
     5
100
AcDbLine
 10
722.9636435569385
 20
307.5585025550819
 30
0.0
 11
149.1877093740433
 21
881.3344367379766
 31
0.0
  0
LINE
  5
316
330
1F
100
AcDbEntity
  8
0-0
  6
JWW_DASHED1
 62
   120
370
     5
100
AcDbLine
 10
722.9636435569332
 20
317.4579974916676
 30
0.0
 11
159.0872043106239
 21
881.3344367379766
 31
0.0
  0
LINE
  5
317
330
1F
100
AcDbEntity
  8
0-0
  6
JWW_DASHED1
 62
   120
370
     5
100
AcDbLine
 10
722.963643556923
 20
327.3574924283122
 30
0.0
 11
168.9866992472591
 21
881.3344367379766
 31
0.0
  0
LINE
  5
318
330
1F
100
AcDbEntity
  8
0-0
  6
JWW_DASHED1
 62
   120
370
     5
100
AcDbLine
 10
722.9636435569298
 20
337.2569873648872
 30
0.0
 11
178.8861941838397
 21
881.3344367379766
 31
0.0
  0
LINE
  5
319
330
1F
100
AcDbEntity
  8
0-0
  6
JWW_DASHED1
 62
   120
370
     5
100
AcDbLine
 10
722.96364355694
 20
347.1564823015109
 30
0.0
 11
188.7856891204748
 21
881.3344367379766
 31
0.0
  0
LINE
  5
31A
330
1F
100
AcDbEntity
  8
0-0
  6
JWW_DASHED1
 62
   120
370
     5
100
AcDbLine
 10
722.9636435569316
 20
357.0559772381554
 30
0.0
 11
198.68518405711
 21
881.3344367379766
 31
0.0
  0
LINE
  5
31B
330
1F
100
AcDbEntity
  8
0-0
  6
JWW_DASHED1
 62
   120
370
     5
100
AcDbLine
 10
722.9636435569264
 20
366.9554721747411
 30
0.0
 11
208.5846789936906
 21
881.3344367379766
 31
0.0
  0
LINE
  5
31C
330
1F
100
AcDbEntity
  8
0-0
  6
JWW_DASHED1
 62
   120
370
     5
100
AcDbLine
 10
722.9636435569282
 20
376.8549671113746
 30
0.0
 11
218.4841739303258
 21
881.3344367379766
 31
0.0
  0
LINE
  5
31D
330
1F
100
AcDbEntity
  8
0-0
  6
JWW_DASHED1
 62
   120
370
     5
100
AcDbLine
 10
722.963643556923
 20
386.7544620479603
 30
0.0
 11
228.3836688669064
 21
881.3344367379766
 31
0.0
  0
LINE
  5
31E
330
1F
100
AcDbEntity
  8
0-0
  6
JWW_DASHED1
 62
   120
370
     5
100
AcDbLine
 10
722.9636435569332
 20
396.6539569845844
 30
0.0
 11
238.2831638035415
 21
881.3344367379766
 31
0.0
  0
LINE
  5
31F
330
1F
100
AcDbEntity
  8
0-0
  6
JWW_DASHED1
 62
   120
370
     5
100
AcDbLine
 10
722.9636435569298
 20
406.5534519211697
 30
0.0
 11
248.1826587401221
 21
881.3344367379766
 31
0.0
  0
LINE
  5
320
330
1F
100
AcDbEntity
  8
0-0
  6
JWW_DASHED1
 62
   120
370
     5
100
AcDbLine
 10
722.9636435569316
 20
416.4529468578027
 30
0.0
 11
258.0821536767573
 21
881.3344367379766
 31
0.0
  0
LINE
  5
321
330
1F
100
AcDbEntity
  8
0-0
  6
JWW_DASHED1
 62
   120
370
     5
100
AcDbLine
 10
722.9636435569264
 20
426.3524417943884
 30
0.0
 11
267.9816486133379
 21
881.3344367379766
 31
0.0
  0
LINE
  5
322
330
1F
100
AcDbEntity
  8
0-0
  6
JWW_DASHED1
 62
   120
370
     5
100
AcDbLine
 10
722.9636435569366
 20
436.251936731013
 30
0.0
 11
277.881143549973
 21
881.3344367379766
 31
0.0
  0
LINE
  5
323
330
1F
100
AcDbEntity
  8
0-0
  6
JWW_DASHED1
 62
   120
370
     5
100
AcDbLine
 10
722.9636435569282
 20
446.1514316676574
 30
0.0
 11
287.7806384866082
 21
881.3344367379766
 31
0.0
  0
LINE
  5
324
330
1F
100
AcDbEntity
  8
0-0
  6
JWW_DASHED1
 62
   120
370
     5
100
AcDbLine
 10
722.963643556923
 20
456.0509266042428
 30
0.0
 11
297.6801334231905
 21
881.3344367379766
 31
0.0
  0
LINE
  5
325
330
1F
100
AcDbEntity
  8
0-0
  6
JWW_DASHED1
 62
   120
370
     5
100
AcDbLine
 10
722.9636435569264
 20
465.9504215408758
 30
0.0
 11
307.579628359824
 21
881.3344367379766
 31
0.0
  0
LINE
  5
326
330
1F
100
AcDbEntity
  8
0-0
  6
JWW_DASHED1
 62
   120
370
     5
100
AcDbLine
 10
722.96364355694
 20
475.8499164774415
 30
0.0
 11
317.4791232964063
 21
881.3344367379766
 31
0.0
  0
LINE
  5
327
330
1F
100
AcDbEntity
  8
0-0
  6
JWW_DASHED1
 62
   120
370
     5
100
AcDbLine
 10
722.9636435569298
 20
485.749411414086
 30
0.0
 11
327.3786182330397
 21
881.3344367379766
 31
0.0
  0
LINE
  5
328
330
1F
100
AcDbEntity
  8
0-0
  6
JWW_DASHED1
 62
   120
370
     5
100
AcDbLine
 10
722.9636435569264
 20
495.6489063506713
 30
0.0
 11
337.2781131696203
 21
881.3344367379766
 31
0.0
  0
LINE
  5
329
330
1F
100
AcDbEntity
  8
0-0
  6
JWW_DASHED1
 62
   120
370
     5
100
AcDbLine
 10
722.9636435569282
 20
505.5484012873043
 30
0.0
 11
347.1776081062555
 21
881.3344367379766
 31
0.0
  0
LINE
  5
32A
330
1F
100
AcDbEntity
  8
0-0
  6
JWW_DASHED1
 62
   120
370
     5
100
AcDbLine
 10
722.963643556923
 20
515.4478962238896
 30
0.0
 11
357.0771030428361
 21
881.3344367379766
 31
0.0
  0
LINE
  5
32B
330
1F
100
AcDbEntity
  8
0-0
  6
JWW_DASHED1
 62
   120
370
     5
100
AcDbLine
 10
722.9636435569332
 20
525.3473911605146
 30
0.0
 11
366.9765979794713
 21
881.3344367379766
 31
0.0
  0
LINE
  5
32C
330
1F
100
AcDbEntity
  8
0-0
  6
JWW_DASHED1
 62
   120
370
     5
100
AcDbLine
 10
722.963643556923
 20
535.2468860971591
 30
0.0
 11
376.8760929161064
 21
881.3344367379766
 31
0.0
  0
LINE
  5
32D
330
1F
100
AcDbEntity
  8
0-0
  6
JWW_DASHED1
 62
   120
370
     5
100
AcDbLine
 10
722.9636435569316
 20
545.1463810337325
 30
0.0
 11
386.775587852687
 21
881.3344367379766
 31
0.0
  0
LINE
  5
32E
330
1F
100
AcDbEntity
  8
0-0
  6
JWW_DASHED1
 62
   120
370
     5
100
AcDbLine
 10
722.9636435569385
 20
555.0458759703608
 30
0.0
 11
396.6750827893222
 21
881.3344367379766
 31
0.0
  0
LINE
  5
32F
330
1F
100
AcDbEntity
  8
0-0
  6
JWW_DASHED1
 62
   120
370
     5
100
AcDbLine
 10
722.9636435569366
 20
564.9453709069435
 30
0.0
 11
406.5745777259028
 21
881.3344367379766
 31
0.0
  0
LINE
  5
330
330
1F
100
AcDbEntity
  8
0-0
  6
JWW_DASHED1
 62
   120
370
     5
100
AcDbLine
 10
722.9636435569264
 20
574.8448658435881
 30
0.0
 11
416.4740726625379
 21
881.3344367379766
 31
0.0
  0
LINE
  5
331
330
1F
100
AcDbEntity
  8
0-0
  6
JWW_DASHED1
 62
   120
370
     5
100
AcDbLine
 10
722.963643556923
 20
584.7443607801738
 30
0.0
 11
426.3735675991202
 21
881.3344367379766
 31
0.0
  0
LINE
  5
332
330
1F
100
AcDbEntity
  8
0-0
  6
JWW_DASHED1
 62
   120
370
     5
100
AcDbLine
 10
722.9636435569264
 20
594.6438557168046
 30
0.0
 11
436.2730625357537
 21
881.3344367379766
 31
0.0
  0
LINE
  5
333
330
1F
100
AcDbEntity
  8
0-0
  6
JWW_DASHED1
 62
   120
370
     5
100
AcDbLine
 10
722.963643556935
 20
604.5433506534309
 30
0.0
 11
446.1725574723889
 21
881.3344367379766
 31
0.0
  0
LINE
  5
334
330
1F
100
AcDbEntity
  8
0-0
  6
JWW_DASHED1
 62
   120
370
     5
100
AcDbLine
 10
722.9636435569298
 20
614.4428455900165
 30
0.0
 11
456.0720524089695
 21
881.3344367379766
 31
0.0
  0
LINE
  5
335
330
1F
100
AcDbEntity
  8
0-0
  6
JWW_DASHED1
 62
   120
370
     5
100
AcDbLine
 10
722.9636435569332
 20
624.342340526648
 30
0.0
 11
465.9715473456046
 21
881.3344367379766
 31
0.0
  0
LINE
  5
336
330
1F
100
AcDbEntity
  8
0-0
  6
JWW_DASHED1
 62
   120
370
     5
100
AcDbLine
 10
722.9636435569298
 20
634.2418354632327
 30
0.0
 11
475.8710422821852
 21
881.3344367379766
 31
0.0
  0
LINE
  5
337
330
1F
100
AcDbEntity
  8
0-0
  6
JWW_DASHED1
 62
   120
370
     5
100
AcDbLine
 10
722.9636435569366
 20
644.1413303998598
 30
0.0
 11
485.7705372188204
 21
881.3344367379766
 31
0.0
  0
LINE
  5
338
330
1F
100
AcDbEntity
  8
0-0
  6
JWW_DASHED1
 62
   120
370
     5
100
AcDbLine
 10
722.9636435569332
 20
654.0408253364451
 30
0.0
 11
495.670032155401
 21
881.3344367379766
 31
0.0
  0
LINE
  5
339
330
1F
100
AcDbEntity
  8
0-0
  6
JWW_DASHED1
 62
   120
370
     5
100
AcDbLine
 10
722.963643556923
 20
663.94032027309
 30
0.0
 11
505.5695270920378
 21
881.3344367379766
 31
0.0
  0
LINE
  5
33A
330
1F
100
AcDbEntity
  8
0-0
  6
JWW_DASHED1
 62
   120
370
     5
100
AcDbLine
 10
722.9636435569316
 20
673.8398152096622
 30
0.0
 11
515.4690220286168
 21
881.3344367379766
 31
0.0
  0
LINE
  5
33B
330
1F
100
AcDbEntity
  8
0-0
  6
JWW_DASHED1
 62
   120
370
     5
100
AcDbLine
 10
722.9636435569385
 20
683.7393101462906
 30
0.0
 11
525.368516965252
 21
881.3344367379766
 31
0.0
  0
LINE
  5
33C
330
1F
100
AcDbEntity
  8
0-0
  6
JWW_DASHED1
 62
   120
370
     5
100
AcDbLine
 10
722.9636435569298
 20
693.6388050829329
 30
0.0
 11
535.2680119018871
 21
881.3344367379766
 31
0.0
  0
LINE
  5
33D
330
1F
100
AcDbEntity
  8
0-0
  6
JWW_DASHED1
 62
   120
370
     5
100
AcDbLine
 10
722.9636435569264
 20
703.5383000195186
 30
0.0
 11
545.1675068384677
 21
881.3344367379766
 31
0.0
  0
LINE
  5
33E
330
1F
100
AcDbEntity
  8
0-0
  6
JWW_DASHED1
 62
   120
370
     5
100
AcDbLine
 10
722.9636435569298
 20
713.4377949561491
 30
0.0
 11
555.0670017751029
 21
881.3344367379766
 31
0.0
  0
LINE
  5
33F
330
1F
100
AcDbEntity
  8
0-0
  6
JWW_DASHED1
 62
   120
370
     5
100
AcDbLine
 10
722.9636435569264
 20
723.3372898927344
 30
0.0
 11
564.9664967116835
 21
881.3344367379766
 31
0.0
  0
LINE
  5
340
330
1F
100
AcDbEntity
  8
0-0
  6
JWW_DASHED1
 62
   120
370
     5
100
AcDbLine
 10
722.9636435569332
 20
733.2367848293615
 30
0.0
 11
574.8659916483186
 21
881.3344367379766
 31
0.0
  0
LINE
  5
341
330
1F
100
AcDbEntity
  8
0-0
  6
JWW_DASHED1
 62
   120
370
     5
100
AcDbLine
 10
722.9636435569298
 20
743.1362797659467
 30
0.0
 11
584.7654865848992
 21
881.3344367379766
 31
0.0
  0
LINE
  5
342
330
1F
100
AcDbEntity
  8
0-0
  6
JWW_DASHED1
 62
   120
370
     5
100
AcDbLine
 10
722.9636435569332
 20
753.0357747025772
 30
0.0
 11
594.6649815215344
 21
881.3344367379766
 31
0.0
  0
LINE
  5
343
330
1F
100
AcDbEntity
  8
0-0
  6
JWW_DASHED1
 62
   120
370
     5
100
AcDbLine
 10
722.9636435569298
 20
762.9352696391625
 30
0.0
 11
604.564476458115
 21
881.3344367379766
 31
0.0
  0
LINE
  5
344
330
1F
100
AcDbEntity
  8
0-0
  6
JWW_DASHED1
 62
   120
370
     5
100
AcDbLine
 10
722.9636435569366
 20
772.8347645757904
 30
0.0
 11
614.4639713947502
 21
881.3344367379766
 31
0.0
  0
LINE
  5
345
330
1F
100
AcDbEntity
  8
0-0
  6
JWW_DASHED1
 62
   120
370
     5
100
AcDbLine
 10
722.9636435569264
 20
782.734259512435
 30
0.0
 11
624.3634663313853
 21
881.3344367379766
 31
0.0
  0
LINE
  5
346
330
1F
100
AcDbEntity
  8
0-0
  6
JWW_DASHED1
 62
   120
370
     5
100
AcDbLine
 10
722.963643556923
 20
792.6337544490202
 30
0.0
 11
634.2629612679659
 21
881.3344367379766
 31
0.0
  0
LINE
  5
347
330
1F
100
AcDbEntity
  8
0-0
  6
JWW_DASHED1
 62
   120
370
     5
100
AcDbLine
 10
722.9636435569282
 20
802.5332493856499
 30
0.0
 11
644.1624562046011
 21
881.3344367379766
 31
0.0
  0
LINE
  5
348
330
1F
100
AcDbEntity
  8
0-0
  6
JWW_DASHED1
 62
   120
370
     5
100
AcDbLine
 10
722.9636435569385
 20
812.4327443222198
 30
0.0
 11
654.0619511411817
 21
881.3344367379766
 31
0.0
  0
LINE
  5
349
330
1F
100
AcDbEntity
  8
0-0
  6
JWW_DASHED1
 62
   120
370
     5
100
AcDbLine
 10
722.9636435569298
 20
822.3322392588635
 30
0.0
 11
663.9614460778168
 21
881.3344367379766
 31
0.0
  0
LINE
  5
34A
330
1F
100
AcDbEntity
  8
0-0
  6
JWW_DASHED1
 62
   120
370
     5
100
AcDbLine
 10
722.9636435569248
 20
832.2317341954492
 30
0.0
 11
673.8609410143974
 21
881.3344367379766
 31
0.0
  0
LINE
  5
34B
330
1F
100
AcDbEntity
  8
0-0
  6
JWW_DASHED1
 62
   120
370
     5
100
AcDbLine
 10
722.9636435569298
 20
842.1312291320784
 30
0.0
 11
683.7604359510326
 21
881.3344367379766
 31
0.0
  0
LINE
  5
34C
330
1F
100
AcDbEntity
  8
0-0
  6
JWW_DASHED1
 62
   120
370
     5
100
AcDbLine
 10
722.9636435569385
 20
852.0307240687067
 30
0.0
 11
693.6599308876694
 21
881.3344367379766
 31
0.0
  0
LINE
  5
34D
330
1F
100
AcDbEntity
  8
0-0
  6
JWW_DASHED1
 62
   120
370
     5
100
AcDbLine
 10
722.9636435569332
 20
861.930219005292
 30
0.0
 11
703.5594258242484
 21
881.3344367379766
 31
0.0
  0
LINE
  5
34E
330
1F
100
AcDbEntity
  8
0-0
  6
JWW_DASHED1
 62
   120
370
     5
100
AcDbLine
 10
914.5750853403129
 20
-816.665563262028
 30
0.0
 11
912.9636435569275
 21
-815.0541214786424
 31
0.0
  0
LINE
  5
34F
330
1F
100
AcDbEntity
  8
0-0
  6
JWW_DASHED1
 62
   120
370
     5
100
AcDbLine
 10
924.4745802769567
 20
-816.6655632620373
 30
0.0
 11
912.9636435569173
 21
-805.1546265419981
 31
0.0
  0
LINE
  5
350
330
1F
100
AcDbEntity
  8
0-0
  6
JWW_DASHED1
 62
   120
370
     5
100
AcDbLine
 10
934.3740752135423
 20
-816.6655632620423
 30
0.0
 11
912.9636435569123
 21
-795.2551316054124
 31
0.0
  0
LINE
  5
351
330
1F
100
AcDbEntity
  8
0-0
  6
JWW_DASHED1
 62
   120
370
     5
100
AcDbLine
 10
944.2735701501535
 20
-816.6655632620196
 30
0.0
 11
912.9636435569344
 21
-785.3556366687994
 31
0.0
  0
LINE
  5
352
330
1F
100
AcDbEntity
  8
0-0
  6
JWW_DASHED1
 62
   120
370
     5
100
AcDbLine
 10
954.173065086741
 20
-816.6655632620248
 30
0.0
 11
912.9636435569294
 21
-775.4561417322136
 31
0.0
  0
LINE
  5
353
330
1F
100
AcDbEntity
  8
0-0
  6
JWW_DASHED1
 62
   120
370
     5
100
AcDbLine
 10
964.0725600233864
 20
-816.6655632620343
 30
0.0
 11
912.9636435569207
 21
-765.5566467955698
 31
0.0
  0
LINE
  5
354
330
1F
100
AcDbEntity
  8
0-0
  6
JWW_DASHED1
 62
   120
370
     5
100
AcDbLine
 10
973.9720549599704
 20
-816.6655632620391
 30
0.0
 11
912.9636435569157
 21
-755.6571518589841
 31
0.0
  0
LINE
  5
355
330
1F
100
AcDbEntity
  8
0-0
  6
JWW_DASHED1
 62
   120
370
     5
100
AcDbLine
 10
983.8715498965835
 20
-816.6655632620168
 30
0.0
 11
912.9636435569378
 21
-745.7576569223706
 31
0.0
  0
LINE
  5
356
330
1F
100
AcDbEntity
  8
0-0
  6
JWW_DASHED1
 62
   120
370
     5
100
AcDbLine
 10
993.771044833228
 20
-816.6655632620262
 30
0.0
 11
912.9636435569275
 21
-735.8581619857263
 31
0.0
  0
LINE
  5
357
330
1F
100
AcDbEntity
  8
0-0
  6
JWW_DASHED1
 62
   120
370
     5
100
AcDbLine
 10
1003.670539769814
 20
-816.6655632620309
 30
0.0
 11
912.9636435569225
 21
-725.9586670491403
 31
0.0
  0
LINE
  5
358
330
1F
100
AcDbEntity
  8
0-0
  6
JWW_DASHED1
 62
   120
370
     5
100
AcDbLine
 10
1013.570034706457
 20
-816.6655632620403
 30
0.0
 11
912.9636435569139
 21
-716.0591721124969
 31
0.0
  0
LINE
  5
359
330
1F
100
AcDbEntity
  8
0-0
  6
JWW_DASHED1
 62
   120
370
     5
100
AcDbLine
 10
1023.469529643024
 20
-816.6655632620267
 30
0.0
 11
912.9636435569241
 21
-706.1596771759263
 31
0.0
  0
LINE
  5
35A
330
1F
100
AcDbEntity
  8
0-0
  6
JWW_DASHED1
 62
   120
370
     5
100
AcDbLine
 10
1033.369024579656
 20
-816.6655632620226
 30
0.0
 11
912.963643556931
 21
-696.2601822392974
 31
0.0
  0
LINE
  5
35B
330
1F
100
AcDbEntity
  8
0-0
  6
JWW_DASHED1
 62
   120
370
     5
100
AcDbLine
 10
1043.268519516242
 20
-816.6655632620277
 30
0.0
 11
912.963643556926
 21
-686.3606873027119
 31
0.0
  0
LINE
  5
35C
330
1F
100
AcDbEntity
  8
0-0
  6
JWW_DASHED1
 62
   120
370
     5
100
AcDbLine
 10
1053.168014452886
 20
-816.6655632620372
 30
0.0
 11
912.9636435569173
 21
-676.4611923660685
 31
0.0
  0
LINE
  5
35D
330
1F
100
AcDbEntity
  8
0-0
  6
JWW_DASHED1
 62
   120
370
     5
100
AcDbLine
 10
1063.067509389471
 20
-816.6655632620418
 30
0.0
 11
912.9636435569139
 21
-666.561697429483
 31
0.0
  0
LINE
  5
35E
330
1F
100
AcDbEntity
  8
0-0
  6
JWW_DASHED1
 62
   120
370
     5
100
AcDbLine
 10
1072.967004326084
 20
-816.6655632620199
 30
0.0
 11
912.9636435569344
 21
-656.6622024928688
 31
0.0
  0
LINE
  5
35F
330
1F
100
AcDbEntity
  8
0-0
  6
JWW_DASHED1
 62
   120
370
     5
100
AcDbLine
 10
1082.86649926273
 20
-816.6655632620292
 30
0.0
 11
912.9636435569241
 21
-646.7627075562243
 31
0.0
  0
LINE
  5
360
330
1F
100
AcDbEntity
  8
0-0
  6
JWW_DASHED1
 62
   120
370
     5
100
AcDbLine
 10
1092.765994199314
 20
-816.6655632620339
 30
0.0
 11
912.9636435569207
 21
-636.8632126196403
 31
0.0
  0
LINE
  5
361
330
1F
100
AcDbEntity
  8
0-0
  6
JWW_DASHED1
 62
   120
370
     5
100
AcDbLine
 10
1102.665489135954
 20
-816.6655632620382
 30
0.0
 11
912.9636435569105
 21
-626.9637176829959
 31
0.0
  0
LINE
  5
362
330
1F
100
AcDbEntity
  8
0-0
  6
JWW_DASHED1
 62
   120
370
     5
100
AcDbLine
 10
1112.564984072513
 20
-816.6655632620167
 30
0.0
 11
912.9636435569362
 21
-617.06422274644
 31
0.0
  0
LINE
  5
363
330
1F
100
AcDbEntity
  8
0-0
  6
JWW_DASHED1
 62
   120
370
     5
100
AcDbLine
 10
1122.464479009157
 20
-816.6655632620254
 30
0.0
 11
912.9636435569275
 21
-607.1647278097955
 31
0.0
  0
LINE
  5
364
330
1F
100
AcDbEntity
  8
0-0
  6
JWW_DASHED1
 62
   120
370
     5
100
AcDbLine
 10
1132.363973945743
 20
-816.6655632620306
 30
0.0
 11
912.9636435569207
 21
-597.26523287321
 31
0.0
  0
LINE
  5
365
330
1F
100
AcDbEntity
  8
0-0
  6
JWW_DASHED1
 62
   120
370
     5
100
AcDbLine
 10
1142.263468882387
 20
-816.6655632620401
 30
0.0
 11
912.9636435569139
 21
-587.3657379365676
 31
0.0
  0
LINE
  5
366
330
1F
100
AcDbEntity
  8
0-0
  6
JWW_DASHED1
 62
   120
370
     5
100
AcDbLine
 10
1152.162963818941
 20
-816.6655632620134
 30
0.0
 11
912.9636435569378
 21
-577.4662430000113
 31
0.0
  0
LINE
  5
367
330
1F
100
AcDbEntity
  8
0-0
  6
JWW_DASHED1
 62
   120
370
     5
100
AcDbLine
 10
1162.062458755586
 20
-816.6655632620224
 30
0.0
 11
912.963643556931
 21
-567.566748063367
 31
0.0
  0
LINE
  5
368
330
1F
100
AcDbEntity
  8
0-0
  6
JWW_DASHED1
 62
   120
370
     5
100
AcDbLine
 10
1171.96195369223
 20
-816.6655632620323
 30
0.0
 11
912.9636435569225
 21
-557.6672531267245
 31
0.0
  0
LINE
  5
369
330
1F
100
AcDbEntity
  8
0-0
  6
JWW_DASHED1
 62
   120
370
     5
100
AcDbLine
 10
1181.861448628816
 20
-816.6655632620372
 30
0.0
 11
912.9636435569173
 21
-547.767758190139
 31
0.0
  0
LINE
  5
36A
330
1F
100
AcDbEntity
  8
0-0
  6
JWW_DASHED1
 62
   120
370
     5
100
AcDbLine
 10
1191.760943565428
 20
-816.6655632620145
 30
0.0
 11
912.9636435569378
 21
-537.8682632535238
 31
0.0
  0
LINE
  5
36B
330
1F
100
AcDbEntity
  8
0-0
  6
JWW_DASHED1
 62
   120
370
     5
100
AcDbLine
 10
1201.660438502014
 20
-816.6655632620199
 30
0.0
 11
912.9636435569328
 21
-527.9687683169382
 31
0.0
  0
LINE
  5
36C
330
1F
100
AcDbEntity
  8
0-0
  6
JWW_DASHED1
 62
   120
370
     5
100
AcDbLine
 10
1211.559933438658
 20
-816.6655632620289
 30
0.0
 11
912.9636435569241
 21
-518.0692733802937
 31
0.0
  0
LINE
  5
36D
330
1F
100
AcDbEntity
  8
0-0
  6
JWW_DASHED1
 62
   120
370
     5
100
AcDbLine
 10
1221.459428375244
 20
-816.6655632620339
 30
0.0
 11
912.9636435569207
 21
-508.1697784437109
 31
0.0
  0
LINE
  5
36E
330
1F
100
AcDbEntity
  8
0-0
  6
JWW_DASHED1
 62
   120
370
     5
100
AcDbLine
 10
1231.35892331188
 20
-816.6655632620345
 30
0.0
 11
912.9636435569105
 21
-498.2702835070664
 31
0.0
  0
LINE
  5
36F
330
1F
100
AcDbEntity
  8
0-0
  6
JWW_DASHED1
 62
   120
370
     5
100
AcDbLine
 10
1241.258418248442
 20
-816.665563262016
 30
0.0
 11
912.9636435569344
 21
-488.3707885705095
 31
0.0
  0
LINE
  5
370
330
1F
100
AcDbEntity
  8
0-0
  6
JWW_DASHED1
 62
   120
370
     5
100
AcDbLine
 10
1251.157913185086
 20
-816.6655632620254
 30
0.0
 11
912.963643556926
 21
-478.4712936338647
 31
0.0
  0
LINE
  5
371
330
1F
100
AcDbEntity
  8
0-0
  6
JWW_DASHED1
 62
   120
370
     5
100
AcDbLine
 10
1261.057408121731
 20
-816.665563262035
 30
0.0
 11
912.9636435569207
 21
-468.5717986972236
 31
0.0
  0
LINE
  5
372
330
1F
100
AcDbEntity
  8
0-0
  6
JWW_DASHED1
 62
   120
370
     5
100
AcDbLine
 10
1270.956903058317
 20
-816.6655632620403
 30
0.0
 11
912.9636435569139
 21
-458.6723037606379
 31
0.0
  0
LINE
  5
373
330
1F
100
AcDbEntity
  8
0-0
  6
JWW_DASHED1
 62
   120
370
     5
100
AcDbLine
 10
1280.85639799493
 20
-816.6655632620175
 30
0.0
 11
912.9636435569344
 21
-448.7728088240219
 31
0.0
  0
LINE
  5
374
330
1F
100
AcDbEntity
  8
0-0
  6
JWW_DASHED1
 62
   120
370
     5
100
AcDbLine
 10
1290.755892931516
 20
-816.6655632620224
 30
0.0
 11
912.9636435569275
 21
-438.8733138874362
 31
0.0
  0
LINE
  5
375
330
1F
100
AcDbEntity
  8
0-0
  6
JWW_DASHED1
 62
   120
370
     5
100
AcDbLine
 10
1300.65538786816
 20
-816.6655632620323
 30
0.0
 11
912.9636435569241
 21
-428.9738189507955
 31
0.0
  0
LINE
  5
376
330
1F
100
AcDbEntity
  8
0-0
  6
JWW_DASHED1
 62
   120
370
     5
100
AcDbLine
 10
1310.554882804745
 20
-816.6655632620365
 30
0.0
 11
912.9636435569173
 21
-419.0743240142098
 31
0.0
  0
LINE
  5
377
330
1F
100
AcDbEntity
  8
0-0
  6
JWW_DASHED1
 62
   120
370
     5
100
AcDbLine
 10
1320.454377741358
 20
-816.6655632620145
 30
0.0
 11
912.9636435569378
 21
-409.1748290775934
 31
0.0
  0
LINE
  5
378
330
1F
100
AcDbEntity
  8
0-0
  6
JWW_DASHED1
 62
   120
370
     5
100
AcDbLine
 10
1330.353872678003
 20
-816.6655632620237
 30
0.0
 11
912.9636435569275
 21
-399.2753341409488
 31
0.0
  0
LINE
  5
379
330
1F
100
AcDbEntity
  8
0-0
  6
JWW_DASHED1
 62
   120
370
     5
100
AcDbLine
 10
1340.253367614587
 20
-816.6655632620284
 30
0.0
 11
912.9636435569225
 21
-389.3758392043631
 31
0.0
  0
LINE
  5
37A
330
1F
100
AcDbEntity
  8
0-0
  6
JWW_DASHED1
 62
   120
370
     5
100
AcDbLine
 10
1350.152862551233
 20
-816.665563262038
 30
0.0
 11
912.9636435569173
 21
-379.4763442677228
 31
0.0
  0
LINE
  5
37B
330
1F
100
AcDbEntity
  8
0-0
  6
JWW_DASHED1
 62
   120
370
     5
100
AcDbLine
 10
1360.05235748779
 20
-816.6655632620152
 30
0.0
 11
912.9636435569241
 21
-369.576849331149
 31
0.0
  0
LINE
  5
37C
330
1F
100
AcDbEntity
  8
0-0
  6
JWW_DASHED1
 62
   120
370
     5
100
AcDbLine
 10
1369.951852424431
 20
-816.6655632620207
 30
0.0
 11
912.963643556931
 21
-359.6773543945199
 31
0.0
  0
LINE
  5
37D
330
1F
100
AcDbEntity
  8
0-0
  6
JWW_DASHED1
 62
   120
370
     5
100
AcDbLine
 10
1379.851347361017
 20
-816.6655632620258
 30
0.0
 11
912.9636435569241
 21
-349.7778594579341
 31
0.0
  0
LINE
  5
37E
330
1F
100
AcDbEntity
  8
0-0
  6
JWW_DASHED1
 62
   120
370
     5
100
AcDbLine
 10
1389.750842297661
 20
-816.6655632620348
 30
0.0
 11
912.9636435569207
 21
-339.8783645212943
 31
0.0
  0
LINE
  5
37F
330
1F
100
AcDbEntity
  8
0-0
  6
JWW_DASHED1
 62
   120
370
     5
100
AcDbLine
 10
1399.650337234247
 20
-816.6655632620399
 30
0.0
 11
912.9636435569139
 21
-329.9788695847086
 31
0.0
  0
LINE
  5
380
330
1F
100
AcDbEntity
  8
0-0
  6
JWW_DASHED1
 62
   120
370
     5
100
AcDbLine
 10
1409.54983217086
 20
-816.6655632620175
 30
0.0
 11
912.9636435569344
 21
-320.0793746480913
 31
0.0
  0
LINE
  5
381
330
1F
100
AcDbEntity
  8
0-0
  6
JWW_DASHED1
 62
   120
370
     5
100
AcDbLine
 10
1419.449327107504
 20
-816.6655632620269
 30
0.0
 11
912.9636435569241
 21
-310.1798797114468
 31
0.0
  0
LINE
  5
382
330
1F
100
AcDbEntity
  8
0-0
  6
JWW_DASHED1
 62
   120
370
     5
100
AcDbLine
 10
1429.34882204409
 20
-816.6655632620323
 30
0.0
 11
912.9636435569241
 21
-300.2803847748658
 31
0.0
  0
LINE
  5
383
330
1F
100
AcDbEntity
  8
0-0
  6
JWW_DASHED1
 62
   120
370
     5
100
AcDbLine
 10
1439.24831698072
 20
-816.6655632620269
 30
0.0
 11
912.9636435569139
 21
-290.3808898382212
 31
0.0
  0
LINE
  5
384
330
1F
100
AcDbEntity
  8
0-0
  6
JWW_DASHED1
 62
   120
370
     5
100
AcDbLine
 10
1449.147811917288
 20
-816.6655632620143
 30
0.0
 11
912.9636435569362
 21
-280.4813949016628
 31
0.0
  0
LINE
  5
385
330
1F
100
AcDbEntity
  8
0-0
  6
JWW_DASHED1
 62
   120
370
     5
100
AcDbLine
 10
1459.047306853932
 20
-816.6655632620235
 30
0.0
 11
912.9636435569275
 21
-270.5818999650182
 31
0.0
  0
LINE
  5
386
330
1F
100
AcDbEntity
  8
0-0
  6
JWW_DASHED1
 62
   120
370
     5
100
AcDbLine
 10
1468.946801790517
 20
-816.6655632620284
 30
0.0
 11
912.9636435569207
 21
-260.6824050284325
 31
0.0
  0
LINE
  5
387
330
1F
100
AcDbEntity
  8
0-0
  6
JWW_DASHED1
 62
   120
370
     5
100
AcDbLine
 10
1478.846296727163
 20
-816.6655632620382
 30
0.0
 11
912.9636435569173
 21
-250.7829100917931
 31
0.0
  0
LINE
  5
388
330
1F
100
AcDbEntity
  8
0-0
  6
JWW_DASHED1
 62
   120
370
     5
100
AcDbLine
 10
1488.745791663717
 20
-816.6655632620118
 30
0.0
 11
912.9636435569241
 21
-240.883415155218
 31
0.0
  0
LINE
  5
389
330
1F
100
AcDbEntity
  8
0-0
  6
JWW_DASHED1
 62
   120
370
     5
100
AcDbLine
 10
1498.64528660036
 20
-816.6655632620203
 30
0.0
 11
912.9636435569294
 21
-230.9839202185893
 31
0.0
  0
LINE
  5
38A
330
1F
100
AcDbEntity
  8
0-0
  6
JWW_DASHED1
 62
   120
370
     5
100
AcDbLine
 10
1502.963643556925
 20
-811.0844252819509
 30
0.0
 11
912.9636435569207
 21
-221.0844252819447
 31
0.0
  0
LINE
  5
38B
330
1F
100
AcDbEntity
  8
0-0
  6
JWW_DASHED1
 62
   120
370
     5
100
AcDbLine
 10
1502.96364355692
 20
-801.1849303453652
 30
0.0
 11
912.9636435569207
 21
-211.184930345365
 31
0.0
  0
LINE
  5
38C
330
1F
100
AcDbEntity
  8
0-0
  6
JWW_DASHED1
 62
   120
370
     5
100
AcDbLine
 10
1502.963643556943
 20
-791.2854354087524
 30
0.0
 11
912.9636435569378
 21
-201.2854354087465
 31
0.0
  0
LINE
  5
38D
330
1F
100
AcDbEntity
  8
0-0
  6
JWW_DASHED1
 62
   120
370
     5
100
AcDbLine
 10
1502.963643556938
 20
-781.3859404721667
 30
0.0
 11
912.963643556931
 21
-191.3859404721603
 31
0.0
  0
LINE
  5
38E
330
1F
100
AcDbEntity
  8
0-0
  6
JWW_DASHED1
 62
   120
370
     5
100
AcDbLine
 10
1502.963643556929
 20
-771.4864455355219
 30
0.0
 11
912.9636435569225
 21
-181.4864455355158
 31
0.0
  0
LINE
  5
38F
330
1F
100
AcDbEntity
  8
0-0
  6
JWW_DASHED1
 62
   120
370
     5
100
AcDbLine
 10
1502.963643556924
 20
-761.5869505989368
 30
0.0
 11
912.9636435569241
 21
-171.5869505989365
 31
0.0
  0
LINE
  5
390
330
1F
100
AcDbEntity
  8
0-0
  6
JWW_DASHED1
 62
   120
370
     5
100
AcDbLine
 10
1502.963643556931
 20
-751.6874556623083
 30
0.0
 11
912.9636435569139
 21
-161.6874556622919
 31
0.0
  0
LINE
  5
391
330
1F
100
AcDbEntity
  8
0-0
  6
JWW_DASHED1
 62
   120
370
     5
100
AcDbLine
 10
1502.963643556937
 20
-741.7879607256791
 30
0.0
 11
912.963643556931
 21
-151.7879607256729
 31
0.0
  0
LINE
  5
392
330
1F
100
AcDbEntity
  8
0-0
  6
JWW_DASHED1
 62
   120
370
     5
100
AcDbLine
 10
1502.963643556932
 20
-731.8884657890932
 30
0.0
 11
912.963643556926
 21
-141.8884657890877
 31
0.0
  0
LINE
  5
393
330
1F
100
AcDbEntity
  8
0-0
  6
JWW_DASHED1
 62
   120
370
     5
100
AcDbLine
 10
1502.963643556923
 20
-721.9889708524497
 30
0.0
 11
912.9636435569225
 21
-131.9889708524491
 31
0.0
  0
LINE
  5
394
330
1F
100
AcDbEntity
  8
0-0
  6
JWW_DASHED1
 62
   120
370
     5
100
AcDbLine
 10
1502.963643556919
 20
-712.0894759158643
 30
0.0
 11
912.9636435569173
 21
-122.0894759158634
 31
0.0
  0
LINE
  5
395
330
1F
100
AcDbEntity
  8
0-0
  6
JWW_DASHED1
 62
   120
370
     5
100
AcDbLine
 10
1502.963643556939
 20
-702.1899809792503
 30
0.0
 11
912.9636435569344
 21
-112.1899809792444
 31
0.0
  0
LINE
  5
396
330
1F
100
AcDbEntity
  8
0-0
  6
JWW_DASHED1
 62
   120
370
     5
100
AcDbLine
 10
1502.963643556934
 20
-692.2904860426646
 30
0.0
 11
912.9636435569275
 21
-102.2904860426587
 31
0.0
  0
LINE
  5
397
330
1F
100
AcDbEntity
  8
0-0
  6
JWW_DASHED1
 62
   120
370
     5
100
AcDbLine
 10
1502.963643556926
 20
-682.3909911060214
 30
0.0
 11
912.963643556926
 21
-92.39099110602098
 31
0.0
  0
LINE
  5
398
330
1F
100
AcDbEntity
  8
0-0
  6
JWW_DASHED1
 62
   120
370
     5
100
AcDbLine
 10
1502.963643556921
 20
-672.4914961694357
 30
0.0
 11
912.9636435569207
 21
-82.49149616943527
 31
0.0
  0
LINE
  5
399
330
1F
100
AcDbEntity
  8
0-0
  6
JWW_DASHED1
 62
   120
370
     5
100
AcDbLine
 10
1502.963643556942
 20
-662.5920012328213
 30
0.0
 11
912.9636435569362
 21
-72.59200123281587
 31
0.0
  0
LINE
  5
39A
330
1F
100
AcDbEntity
  8
0-0
  6
JWW_DASHED1
 62
   120
370
     5
100
AcDbLine
 10
1502.963643556932
 20
-652.692506296177
 30
0.0
 11
912.9636435569275
 21
-62.69250629617133
 31
0.0
  0
LINE
  5
39B
330
1F
100
AcDbEntity
  8
0-0
  6
JWW_DASHED1
 62
   120
370
     5
100
AcDbLine
 10
1502.963643556928
 20
-642.7930113595916
 30
0.0
 11
912.9636435569207
 21
-52.79301135958562
 31
0.0
  0
LINE
  5
39C
330
1F
100
AcDbEntity
  8
0-0
  6
JWW_DASHED1
 62
   120
370
     5
100
AcDbLine
 10
1502.96364355692
 20
-632.8935164229484
 30
0.0
 11
912.9636435569207
 21
-42.89351642294832
 31
0.0
  0
LINE
  5
39D
330
1F
100
AcDbEntity
  8
0-0
  6
JWW_DASHED1
 62
   120
370
     5
100
AcDbLine
 10
1502.963643556931
 20
-622.9940214863788
 30
0.0
 11
912.9636435569139
 21
-32.99402148636261
 31
0.0
  0
LINE
  5
39E
330
1F
100
AcDbEntity
  8
0-0
  6
JWW_DASHED1
 62
   120
370
     5
100
AcDbLine
 10
1502.963643556936
 20
-613.0945265497485
 30
0.0
 11
912.963643556931
 21
-23.09452654974237
 31
0.0
  0
LINE
  5
39F
330
1F
100
AcDbEntity
  8
0-0
  6
JWW_DASHED1
 62
   120
370
     5
100
AcDbLine
 10
1502.963643556931
 20
-603.1950316131625
 30
0.0
 11
912.9636435569241
 21
-13.19503161315708
 31
0.0
  0
LINE
  5
3A0
330
1F
100
AcDbEntity
  8
0-0
  6
JWW_DASHED1
 62
   120
370
     5
100
AcDbLine
 10
1502.963643556923
 20
-593.2955366765201
 30
0.0
 11
912.9636435569241
 21
-3.295536676519788
 31
0.0
  0
LINE
  5
3A1
330
1F
100
AcDbEntity
  8
0-0
  6
JWW_DASHED1
 62
   120
370
     5
100
AcDbLine
 10
1502.963643556918
 20
-583.3960417399344
 30
0.0
 11
912.9636435569173
 21
6.603958260065497
 31
0.0
  0
LINE
  5
3A2
330
1F
100
AcDbEntity
  8
0-0
  6
JWW_DASHED1
 62
   120
370
     5
100
AcDbLine
 10
1502.963643556938
 20
-573.4965468033195
 30
0.0
 11
912.9636435569328
 21
16.50345319668617
 31
0.0
  0
LINE
  5
3A3
330
1F
100
AcDbEntity
  8
0-0
  6
JWW_DASHED1
 62
   120
370
     5
100
AcDbLine
 10
1502.963643556929
 20
-563.597051866675
 30
0.0
 11
912.9636435569241
 21
26.40294813333071
 31
0.0
  0
LINE
  5
3A4
330
1F
100
AcDbEntity
  8
0-0
  6
JWW_DASHED1
 62
   120
370
     5
100
AcDbLine
 10
1502.963643556926
 20
-553.6975569300919
 30
0.0
 11
912.963643556926
 21
36.30244306990832
 31
0.0
  0
LINE
  5
3A5
330
1F
100
AcDbEntity
  8
0-0
  6
JWW_DASHED1
 62
   120
370
     5
100
AcDbLine
 10
1502.963643556917
 20
-543.7980619934475
 30
0.0
 11
912.9636435569173
 21
46.20193800655287
 31
0.0
  0
LINE
  5
3A6
330
1F
100
AcDbEntity
  8
0-0
  6
JWW_DASHED1
 62
   120
370
     5
100
AcDbLine
 10
1502.963643556941
 20
-533.898567056891
 30
0.0
 11
912.9636435569344
 21
56.10143294311513
 31
0.0
  0
LINE
  5
3A7
330
1F
100
AcDbEntity
  8
0-0
  6
JWW_DASHED1
 62
   120
370
     5
100
AcDbLine
 10
1502.963643556932
 20
-523.9990721202466
 30
0.0
 11
912.963643556926
 21
66.00092787975967
 31
0.0
  0
LINE
  5
3A8
330
1F
100
AcDbEntity
  8
0-0
  6
JWW_DASHED1
 62
   120
370
     5
100
AcDbLine
 10
1502.963643556926
 20
-514.0995771836605
 30
0.0
 11
912.9636435569207
 21
75.90042281634496
 31
0.0
  0
LINE
  5
3A9
330
1F
100
AcDbEntity
  8
0-0
  6
JWW_DASHED1
 62
   120
370
     5
100
AcDbLine
 10
1502.96364355692
 20
-504.2000822470192
 30
0.0
 11
912.9636435569207
 21
85.79991775298097
 31
0.0
  0
LINE
  5
3AA
330
1F
100
AcDbEntity
  8
0-0
  6
JWW_DASHED1
 62
   120
370
     5
100
AcDbLine
 10
1502.963643556931
 20
-494.3005873104493
 30
0.0
 11
912.9636435569139
 21
95.69941268956669
 31
0.0
  0
LINE
  5
3AB
330
1F
100
AcDbEntity
  8
0-0
  6
JWW_DASHED1
 62
   120
370
     5
100
AcDbLine
 10
1502.963643556935
 20
-484.4010923738179
 30
0.0
 11
912.9636435569294
 21
105.5989076261882
 31
0.0
  0
LINE
  5
3AC
330
1F
100
AcDbEntity
  8
0-0
  6
JWW_DASHED1
 62
   120
370
     5
100
AcDbLine
 10
1502.963643556925
 20
-474.5015974371729
 30
0.0
 11
912.9636435569207
 21
115.4984025628328
 31
0.0
  0
LINE
  5
3AD
330
1F
100
AcDbEntity
  8
0-0
  6
JWW_DASHED1
 62
   120
370
     5
100
AcDbLine
 10
1502.963643556924
 20
-464.6021025005911
 30
0.0
 11
912.9636435569241
 21
125.3978974994091
 31
0.0
  0
LINE
  5
3AE
330
1F
100
AcDbEntity
  8
0-0
  6
JWW_DASHED1
 62
   120
370
     5
100
AcDbLine
 10
1502.963643556943
 20
-454.7026075639747
 30
0.0
 11
912.9636435569207
 21
135.2973924360468
 31
0.0
  0
LINE
  5
3AF
330
1F
100
AcDbEntity
  8
0-0
  6
JWW_DASHED1
 62
   120
370
     5
100
AcDbLine
 10
1502.963643556938
 20
-444.8031126273889
 30
0.0
 11
912.963643556931
 21
145.1968873726167
 31
0.0
  0
LINE
  5
3B0
330
1F
100
AcDbEntity
  8
0-0
  6
JWW_DASHED1
 62
   120
370
     5
100
AcDbLine
 10
1502.963643556928
 20
-434.9036176907444
 30
0.0
 11
912.9636435569225
 21
155.0963823092613
 31
0.0
  0
LINE
  5
3B1
330
1F
100
AcDbEntity
  8
0-0
  6
JWW_DASHED1
 62
   120
370
     5
100
AcDbLine
 10
1502.963643556927
 20
-425.0041227541625
 30
0.0
 11
912.9636435569275
 21
164.995877245838
 31
0.0
  0
LINE
  5
3B2
330
1F
100
AcDbEntity
  8
0-0
  6
JWW_DASHED1
 62
   120
370
     5
100
AcDbLine
 10
1502.963643556917
 20
-415.104627817518
 30
0.0
 11
912.9636435569173
 21
174.8953721824822
 31
0.0
  0
LINE
  5
3B3
330
1F
100
AcDbEntity
  8
0-0
  6
JWW_DASHED1
 62
   120
370
     5
100
AcDbLine
 10
1502.963643556936
 20
-405.2051328809011
 30
0.0
 11
912.963643556931
 21
184.7948671191041
 31
0.0
  0
LINE
  5
3B4
330
1F
100
AcDbEntity
  8
0-0
  6
JWW_DASHED1
 62
   120
370
     5
100
AcDbLine
 10
1502.963643556931
 20
-395.3056379443159
 30
0.0
 11
912.9636435569241
 21
194.6943620556898
 31
0.0
  0
LINE
  5
3B5
330
1F
100
AcDbEntity
  8
0-0
  6
JWW_DASHED1
 62
   120
370
     5
100
AcDbLine
 10
1502.963643556925
 20
-385.4061430076752
 30
0.0
 11
912.9636435569241
 21
204.593856992325
 31
0.0
  0
LINE
  5
3B6
330
1F
100
AcDbEntity
  8
0-0
  6
JWW_DASHED1
 62
   120
370
     5
100
AcDbLine
 10
1502.96364355692
 20
-375.5066480710894
 30
0.0
 11
912.9636435569207
 21
214.4933519289107
 31
0.0
  0
LINE
  5
3B7
330
1F
100
AcDbEntity
  8
0-0
  6
JWW_DASHED1
 62
   120
370
     5
100
AcDbLine
 10
1502.963643556939
 20
-365.607153134473
 30
0.0
 11
912.9636435569328
 21
224.3928468655331
 31
0.0
  0
LINE
  5
3B8
330
1F
100
AcDbEntity
  8
0-0
  6
JWW_DASHED1
 62
   120
370
     5
100
AcDbLine
 10
1502.963643556934
 20
-355.7076581978873
 30
0.0
 11
912.9636435569275
 21
234.2923418021188
 31
0.0
  0
LINE
  5
3B9
330
1F
100
AcDbEntity
  8
0-0
  6
JWW_DASHED1
 62
   120
370
     5
100
AcDbLine
 10
1502.963643556925
 20
-345.8081632612428
 30
0.0
 11
912.9636435569173
 21
244.1918367387633
 31
0.0
  0
LINE
  5
3BA
330
1F
100
AcDbEntity
  8
0-0
  6
JWW_DASHED1
 62
   120
370
     5
100
AcDbLine
 10
1502.963643556924
 20
-335.9086683246613
 30
0.0
 11
912.9636435569241
 21
254.0913316753388
 31
0.0
  0
LINE
  5
3BB
330
1F
100
AcDbEntity
  8
0-0
  6
JWW_DASHED1
 62
   120
370
     5
100
AcDbLine
 10
1502.963643556942
 20
-326.0091733880441
 30
0.0
 11
912.9636435569362
 21
263.9908266119616
 31
0.0
  0
LINE
  5
3BC
330
1F
100
AcDbEntity
  8
0-0
  6
JWW_DASHED1
 62
   120
370
     5
100
AcDbLine
 10
1502.963643556932
 20
-316.1096784513995
 30
0.0
 11
912.9636435569275
 21
273.8903215486057
 31
0.0
  0
LINE
  5
3BD
330
1F
100
AcDbEntity
  8
0-0
  6
JWW_DASHED1
 62
   120
370
     5
100
AcDbLine
 10
1502.963643556927
 20
-306.2101835148138
 30
0.0
 11
912.9636435569207
 21
283.7898164851919
 31
0.0
  0
LINE
  5
3BE
330
1F
100
AcDbEntity
  8
0-0
  6
JWW_DASHED1
 62
   120
370
     5
100
AcDbLine
 10
1502.963643556923
 20
-296.3106885781744
 30
0.0
 11
912.9636435569225
 21
293.6893114218262
 31
0.0
  0
LINE
  5
3BF
330
1F
100
AcDbEntity
  8
0-0
  6
JWW_DASHED1
 62
   120
370
     5
100
AcDbLine
 10
1502.963643556934
 20
-286.4111936416044
 30
0.0
 11
912.9636435569173
 21
303.5888063584119
 31
0.0
  0
LINE
  5
3C0
330
1F
100
AcDbEntity
  8
0-0
  6
JWW_DASHED1
 62
   120
370
     5
100
AcDbLine
 10
1502.963643556935
 20
-276.5116987049706
 30
0.0
 11
912.9636435569294
 21
313.4883012950351
 31
0.0
  0
LINE
  5
3C1
330
1F
100
AcDbEntity
  8
0-0
  6
JWW_DASHED1
 62
   120
370
     5
100
AcDbLine
 10
1502.96364355693
 20
-266.6122037683849
 30
0.0
 11
912.9636435569241
 21
323.3877962316208
 31
0.0
  0
LINE
  5
3C2
330
1F
100
AcDbEntity
  8
0-0
  6
JWW_DASHED1
 62
   120
370
     5
100
AcDbLine
 10
1502.963643556925
 20
-256.7127088317459
 30
0.0
 11
912.963643556926
 21
333.2872911682543
 31
0.0
  0
LINE
  5
3C3
330
1F
100
AcDbEntity
  8
0-0
  6
JWW_DASHED1
 62
   120
370
     5
100
AcDbLine
 10
1502.963643556921
 20
-246.8132138951606
 30
0.0
 11
912.9636435569207
 21
343.18678610484
 31
0.0
  0
LINE
  5
3C4
330
1F
100
AcDbEntity
  8
0-0
  6
JWW_DASHED1
 62
   120
370
     5
100
AcDbLine
 10
1502.963643556938
 20
-236.913718958542
 30
0.0
 11
912.963643556931
 21
353.0862810414636
 31
0.0
  0
LINE
  5
3C5
330
1F
100
AcDbEntity
  8
0-0
  6
JWW_DASHED1
 62
   120
370
     5
100
AcDbLine
 10
1502.963643556929
 20
-227.0142240218979
 30
0.0
 11
912.9636435569225
 21
362.9857759781082
 31
0.0
  0
LINE
  5
3C6
330
1F
100
AcDbEntity
  8
0-0
  6
JWW_DASHED1
 62
   120
370
     5
100
AcDbLine
 10
1502.963643556924
 20
-217.1147290853122
 30
0.0
 11
912.9636435569173
 21
372.8852709146939
 31
0.0
  0
LINE
  5
3C7
330
1F
100
AcDbEntity
  8
0-0
  6
JWW_DASHED1
 62
   120
370
     5
100
AcDbLine
 10
1502.96364355692
 20
-207.2152341486728
 30
0.0
 11
912.9636435569191
 21
382.7847658513274
 31
0.0
  0
LINE
  5
3C8
330
1F
100
AcDbEntity
  8
0-0
  6
JWW_DASHED1
 62
   120
370
     5
100
AcDbLine
 10
1502.963643556941
 20
-197.3157392121135
 30
0.0
 11
912.9636435569344
 21
392.6842607878922
 31
0.0
  0
LINE
  5
3C9
330
1F
100
AcDbEntity
  8
0-0
  6
JWW_DASHED1
 62
   120
370
     5
100
AcDbLine
 10
1502.963643556932
 20
-187.416244275469
 30
0.0
 11
912.963643556926
 21
402.5837557245367
 31
0.0
  0
LINE
  5
3CA
330
1F
100
AcDbEntity
  8
0-0
  6
JWW_DASHED1
 62
   120
370
     5
100
AcDbLine
 10
1502.963643556926
 20
-177.5167493388832
 30
0.0
 11
912.9636435569207
 21
412.4832506611224
 31
0.0
  0
LINE
  5
3CB
330
1F
100
AcDbEntity
  8
0-0
  6
JWW_DASHED1
 62
   120
370
     5
100
AcDbLine
 10
1502.963643556923
 20
-167.6172544022447
 30
0.0
 11
912.9636435569225
 21
422.3827455977555
 31
0.0
  0
LINE
  5
3CC
330
1F
100
AcDbEntity
  8
0-0
  6
JWW_DASHED1
 62
   120
370
     5
100
AcDbLine
 10
1502.963643556934
 20
-157.7177594656752
 30
0.0
 11
912.9636435569173
 21
432.2822405343412
 31
0.0
  0
LINE
  5
3CD
330
1F
100
AcDbEntity
  8
0-0
  6
JWW_DASHED1
 62
   120
370
     5
100
AcDbLine
 10
1502.963643556934
 20
-147.81826452904
 30
0.0
 11
912.9636435569275
 21
442.1817354709657
 31
0.0
  0
LINE
  5
3CE
330
1F
100
AcDbEntity
  8
0-0
  6
JWW_DASHED1
 62
   120
370
     5
100
AcDbLine
 10
1502.963643556925
 20
-137.9187695923954
 30
0.0
 11
912.9636435569191
 21
452.0812304076102
 31
0.0
  0
LINE
  5
3CF
330
1F
100
AcDbEntity
  8
0-0
  6
JWW_DASHED1
 62
   120
370
     5
100
AcDbLine
 10
1502.963643556926
 20
-128.0192746558166
 30
0.0
 11
912.963643556926
 21
461.980725344184
 31
0.0
  0
LINE
  5
3D0
330
1F
100
AcDbEntity
  8
0-0
  6
JWW_DASHED1
 62
   120
370
     5
100
AcDbLine
 10
1502.963643556943
 20
-118.1197797191972
 30
0.0
 11
912.9636435569207
 21
471.8802202808243
 31
0.0
  0
LINE
  5
3D1
330
1F
100
AcDbEntity
  8
0-0
  6
JWW_DASHED1
 62
   120
370
     5
100
AcDbLine
 10
1502.963643556938
 20
-108.2202847826115
 30
0.0
 11
912.963643556931
 21
481.7797152173943
 31
0.0
  0
LINE
  5
3D2
330
1F
100
AcDbEntity
  8
0-0
  6
JWW_DASHED1
 62
   120
370
     5
100
AcDbLine
 10
1502.963643556928
 20
-98.32078984596734
 30
0.0
 11
912.9636435569207
 21
491.6792101540387
 31
0.0
  0
LINE
  5
3D3
330
1F
100
AcDbEntity
  8
0-0
  6
JWW_DASHED1
 62
   120
370
     5
100
AcDbLine
 10
1502.963643556929
 20
-88.42129490938802
 30
0.0
 11
912.9636435569294
 21
501.5787050906121
 31
0.0
  0
LINE
  5
3D4
330
1F
100
AcDbEntity
  8
0-0
  6
JWW_DASHED1
 62
   120
370
     5
100
AcDbLine
 10
1502.96364355692
 20
-78.5217999727439
 30
0.0
 11
912.9636435569207
 21
511.4782000272562
 31
0.0
  0
LINE
  5
3D5
330
1F
100
AcDbEntity
  8
0-0
  6
JWW_DASHED1
 62
   120
370
     5
100
AcDbLine
 10
1502.963643556936
 20
-68.62230503612409
 30
0.0
 11
912.963643556931
 21
521.377694963882
 31
0.0
  0
LINE
  5
3D6
330
1F
100
AcDbEntity
  8
0-0
  6
JWW_DASHED1
 62
   120
370
     5
100
AcDbLine
 10
1502.963643556931
 20
-58.72281009953838
 30
0.0
 11
912.9636435569241
 21
531.2771899004673
 31
0.0
  0
LINE
  5
3D7
330
1F
100
AcDbEntity
  8
0-0
  6
JWW_DASHED1
 62
   120
370
     5
100
AcDbLine
 10
1502.963643556928
 20
-48.82331516290066
 30
0.0
 11
912.9636435569275
 21
541.1766848370995
 31
0.0
  0
LINE
  5
3D8
330
1F
100
AcDbEntity
  8
0-0
  6
JWW_DASHED1
 62
   120
370
     5
100
AcDbLine
 10
1502.963643556923
 20
-38.92382022631494
 30
0.0
 11
912.9636435569241
 21
551.0761797736852
 31
0.0
  0
LINE
  5
3D9
330
1F
100
AcDbEntity
  8
0-0
  6
JWW_DASHED1
 62
   120
370
     5
100
AcDbLine
 10
1502.963643556938
 20
-29.02432528969513
 30
0.0
 11
912.9636435569328
 21
560.9756747103106
 31
0.0
  0
LINE
  5
3DA
330
1F
100
AcDbEntity
  8
0-0
  6
JWW_DASHED1
 62
   120
370
     5
100
AcDbLine
 10
1502.963643556933
 20
-19.12483035310942
 30
0.0
 11
912.9636435569275
 21
570.8751696468962
 31
0.0
  0
LINE
  5
3DB
330
1F
100
AcDbEntity
  8
0-0
  6
JWW_DASHED1
 62
   120
370
     5
100
AcDbLine
 10
1502.963643556924
 20
-9.225335416464873
 30
0.0
 11
912.9636435569173
 21
580.7746645835408
 31
0.0
  0
LINE
  5
3DC
330
1F
100
AcDbEntity
  8
0-0
  6
JWW_DASHED1
 62
   120
370
     5
100
AcDbLine
 10
1502.963643556927
 20
0.6741595201127382
 30
0.0
 11
912.9636435569275
 21
590.6741595201133
 31
0.0
  0
LINE
  5
3DD
330
1F
100
AcDbEntity
  8
0-0
  6
JWW_DASHED1
 62
   120
370
     5
100
AcDbLine
 10
1502.963643556941
 20
10.57365445673383
 30
0.0
 11
912.9636435569207
 21
600.5736544567544
 31
0.0
  0
LINE
  5
3DE
330
1F
100
AcDbEntity
  8
0-0
  6
JWW_DASHED1
 62
   120
370
     5
100
AcDbLine
 10
1502.963643556932
 20
20.47314939337795
 30
0.0
 11
912.963643556926
 21
610.4731493933837
 31
0.0
  0
LINE
  5
3DF
330
1F
100
AcDbEntity
  8
0-0
  6
JWW_DASHED1
 62
   120
370
     5
100
AcDbLine
 10
1502.963643556927
 20
30.37264432996366
 30
0.0
 11
912.9636435569207
 21
620.3726443299694
 31
0.0
  0
LINE
  5
3E0
330
1F
100
AcDbEntity
  8
0-0
  6
JWW_DASHED1
 62
   120
370
     5
100
AcDbLine
 10
1502.963643556925
 20
40.27213926660011
 30
0.0
 11
912.9636435569241
 21
630.2721392666007
 31
0.0
  0
LINE
  5
3E1
330
1F
100
AcDbEntity
  8
0-0
  6
JWW_DASHED1
 62
   120
370
     5
100
AcDbLine
 10
1502.96364355692
 20
50.17163420318582
 30
0.0
 11
912.9636435569207
 21
640.1716342031859
 31
0.0
  0
LINE
  5
3E2
330
1F
100
AcDbEntity
  8
0-0
  6
JWW_DASHED1
 62
   120
370
     5
100
AcDbLine
 10
1502.963643556935
 20
60.07112913980649
 30
0.0
 11
912.9636435569275
 21
650.0711291398126
 31
0.0
  0
LINE
  5
3E3
330
1F
100
AcDbEntity
  8
0-0
  6
JWW_DASHED1
 62
   120
370
     5
100
AcDbLine
 10
1502.96364355693
 20
69.9706240763922
 30
0.0
 11
912.9636435569241
 21
659.9706240763978
 31
0.0
  0
LINE
  5
3E4
330
1F
100
AcDbEntity
  8
0-0
  6
JWW_DASHED1
 62
   120
370
     5
100
AcDbLine
 10
1502.963643556929
 20
79.87011901302864
 30
0.0
 11
912.9636435569275
 21
669.8701190130288
 31
0.0
  0
LINE
  5
3E5
330
1F
100
AcDbEntity
  8
0-0
  6
JWW_DASHED1
 62
   120
370
     5
100
AcDbLine
 10
1502.963643556924
 20
89.76961394961393
 30
0.0
 11
912.9636435569241
 21
679.769613949614
 31
0.0
  0
LINE
  5
3E6
330
1F
100
AcDbEntity
  8
0-0
  6
JWW_DASHED1
 62
   120
370
     5
100
AcDbLine
 10
1502.963643556938
 20
99.66910888623545
 30
0.0
 11
912.963643556931
 21
689.6691088862411
 31
0.0
  0
LINE
  5
3E7
330
1F
100
AcDbEntity
  8
0-0
  6
JWW_DASHED1
 62
   120
370
     5
100
AcDbLine
 10
1502.963643556928
 20
109.56860382288
 30
0.0
 11
912.9636435569225
 21
699.5686038228857
 31
0.0
  0
LINE
  5
3E8
330
1F
100
AcDbEntity
  8
0-0
  6
JWW_DASHED1
 62
   120
370
     5
100
AcDbLine
 10
1502.963643556923
 20
119.4680987594657
 30
0.0
 11
912.9636435569173
 21
709.4680987594713
 31
0.0
  0
LINE
  5
3E9
330
1F
100
AcDbEntity
  8
0-0
  6
JWW_DASHED1
 62
   120
370
     5
100
AcDbLine
 10
1502.963643556922
 20
129.3675936961013
 30
0.0
 11
912.9636435569225
 21
719.3675936961015
 31
0.0
  0
LINE
  5
3EA
330
1F
100
AcDbEntity
  8
0-0
  6
JWW_DASHED1
 62
   120
370
     5
100
AcDbLine
 10
1502.96364355694
 20
139.2670886326644
 30
0.0
 11
912.9636435569191
 21
729.2670886326855
 31
0.0
  0
LINE
  5
3EB
330
1F
100
AcDbEntity
  8
0-0
  6
JWW_DASHED1
 62
   120
370
     5
100
AcDbLine
 10
1502.963643556931
 20
149.166583569309
 30
0.0
 11
912.9636435569241
 21
739.1665835693146
 31
0.0
  0
LINE
  5
3EC
330
1F
100
AcDbEntity
  8
0-0
  6
JWW_DASHED1
 62
   120
370
     5
100
AcDbLine
 10
1502.963643556925
 20
159.0660785058942
 30
0.0
 11
912.9636435569207
 21
749.0660785058999
 31
0.0
  0
LINE
  5
3ED
330
1F
100
AcDbEntity
  8
0-0
  6
JWW_DASHED1
 62
   120
370
     5
100
AcDbLine
 10
1502.963643556925
 20
168.9655734425294
 30
0.0
 11
912.9636435569241
 21
758.96557344253
 31
0.0
  0
LINE
  5
3EE
330
1F
100
AcDbEntity
  8
0-0
  6
JWW_DASHED1
 62
   120
370
     5
100
AcDbLine
 10
1502.96364355692
 20
178.8650683791155
 30
0.0
 11
912.9636435569207
 21
768.8650683791157
 31
0.0
  0
LINE
  5
3EF
330
1F
100
AcDbEntity
  8
0-0
  6
JWW_DASHED1
 62
   120
370
     5
100
AcDbLine
 10
1502.963643556934
 20
188.7645633157371
 30
0.0
 11
912.9636435569275
 21
778.7645633157432
 31
0.0
  0
LINE
  5
3F0
330
1F
100
AcDbEntity
  8
0-0
  6
JWW_DASHED1
 62
   120
370
     5
100
AcDbLine
 10
1502.963643556925
 20
198.6640582523816
 30
0.0
 11
912.9636435569173
 21
788.6640582523877
 31
0.0
  0
LINE
  5
3F1
330
1F
100
AcDbEntity
  8
0-0
  6
JWW_DASHED1
 62
   120
370
     5
100
AcDbLine
 10
1502.963643556929
 20
208.5635531889575
 30
0.0
 11
912.9636435569275
 21
798.5635531889585
 31
0.0
  0
LINE
  5
3F2
330
1F
100
AcDbEntity
  8
0-0
  6
JWW_DASHED1
 62
   120
370
     5
100
AcDbLine
 10
1502.963643556936
 20
218.4630481255867
 30
0.0
 11
912.9636435569191
 21
808.4630481256027
 31
0.0
  0
LINE
  5
3F3
330
1F
100
AcDbEntity
  8
0-0
  6
JWW_DASHED1
 62
   120
370
     5
100
AcDbLine
 10
1502.963643556937
 20
228.362543062166
 30
0.0
 11
912.963643556931
 21
818.3625430621717
 31
0.0
  0
LINE
  5
3F4
330
1F
100
AcDbEntity
  8
0-0
  6
JWW_DASHED1
 62
   120
370
     5
100
AcDbLine
 10
1502.963643556927
 20
238.2620379988101
 30
0.0
 11
912.9636435569207
 21
828.2620379988163
 31
0.0
  0
LINE
  5
3F5
330
1F
100
AcDbEntity
  8
0-0
  6
JWW_DASHED1
 62
   120
370
     5
100
AcDbLine
 10
1502.963643556922
 20
248.1615329353959
 30
0.0
 11
912.9636435569173
 21
838.1615329354015
 31
0.0
  0
LINE
  5
3F6
330
1F
100
AcDbEntity
  8
0-0
  6
JWW_DASHED1
 62
   120
370
     5
100
AcDbLine
 10
1502.963643556923
 20
258.0610278720306
 30
0.0
 11
912.9636435569225
 21
848.0610278720312
 31
0.0
  0
LINE
  5
3F7
330
1F
100
AcDbEntity
  8
0-0
  6
JWW_DASHED1
 62
   120
370
     5
100
AcDbLine
 10
1502.963643556935
 20
267.9605228086538
 30
0.0
 11
912.9636435569294
 21
857.9605228086596
 31
0.0
  0
LINE
  5
3F8
330
1F
100
AcDbEntity
  8
0-0
  6
JWW_DASHED1
 62
   120
370
     5
100
AcDbLine
 10
1502.96364355693
 20
277.8600177452395
 30
0.0
 11
912.9636435569241
 21
867.8600177452452
 31
0.0
  0
LINE
  5
3F9
330
1F
100
AcDbEntity
  8
0-0
  6
JWW_DASHED1
 62
   120
370
     5
100
AcDbLine
 10
1502.963643556931
 20
287.7595126818738
 30
0.0
 11
912.963643556931
 21
877.759512681874
 31
0.0
  0
LINE
  5
3FA
330
1F
100
AcDbEntity
  8
0-0
  6
JWW_DASHED1
 62
   120
370
     5
100
AcDbLine
 10
1502.963643556925
 20
297.6590076184591
 30
0.0
 11
919.2882144374082
 21
881.3344367379766
 31
0.0
  0
LINE
  5
3FB
330
1F
100
AcDbEntity
  8
0-0
  6
JWW_DASHED1
 62
   120
370
     5
100
AcDbLine
 10
1502.963643556924
 20
871.8297139419366
 30
0.0
 11
1493.458920760884
 21
881.3344367379766
 31
0.0
  0
LINE
  5
3FC
330
1F
100
AcDbEntity
  8
0-0
  6
JWW_DASHED1
 62
   120
370
     5
100
AcDbLine
 10
1502.963643556938
 20
307.5585025550819
 30
0.0
 11
929.1877093740434
 21
881.3344367379766
 31
0.0
  0
LINE
  5
3FD
330
1F
100
AcDbEntity
  8
0-0
  6
JWW_DASHED1
 62
   120
370
     5
100
AcDbLine
 10
1502.963643556933
 20
317.4579974916676
 30
0.0
 11
939.087204310624
 21
881.3344367379766
 31
0.0
  0
LINE
  5
3FE
330
1F
100
AcDbEntity
  8
0-0
  6
JWW_DASHED1
 62
   120
370
     5
100
AcDbLine
 10
1502.963643556924
 20
327.3574924283122
 30
0.0
 11
948.9866992472591
 21
881.3344367379766
 31
0.0
  0
LINE
  5
3FF
330
1F
100
AcDbEntity
  8
0-0
  6
JWW_DASHED1
 62
   120
370
     5
100
AcDbLine
 10
1502.963643556929
 20
337.2569873648872
 30
0.0
 11
958.8861941838397
 21
881.3344367379766
 31
0.0
  0
LINE
  5
400
330
1F
100
AcDbEntity
  8
0-0
  6
JWW_DASHED1
 62
   120
370
     5
100
AcDbLine
 10
1502.963643556941
 20
347.1564823015109
 30
0.0
 11
968.7856891204749
 21
881.3344367379766
 31
0.0
  0
LINE
  5
401
330
1F
100
AcDbEntity
  8
0-0
  6
JWW_DASHED1
 62
   120
370
     5
100
AcDbLine
 10
1502.963643556932
 20
357.0559772381554
 30
0.0
 11
978.6851840571101
 21
881.3344367379766
 31
0.0
  0
LINE
  5
402
330
1F
100
AcDbEntity
  8
0-0
  6
JWW_DASHED1
 62
   120
370
     5
100
AcDbLine
 10
1502.963643556926
 20
366.9554721747411
 30
0.0
 11
988.5846789936907
 21
881.3344367379766
 31
0.0
  0
LINE
  5
403
330
1F
100
AcDbEntity
  8
0-0
  6
JWW_DASHED1
 62
   120
370
     5
100
AcDbLine
 10
1502.963643556928
 20
376.8549671113746
 30
0.0
 11
998.4841739303258
 21
881.3344367379766
 31
0.0
  0
LINE
  5
404
330
1F
100
AcDbEntity
  8
0-0
  6
JWW_DASHED1
 62
   120
370
     5
100
AcDbLine
 10
1502.963643556923
 20
386.7544620479603
 30
0.0
 11
1008.383668866906
 21
881.3344367379766
 31
0.0
  0
LINE
  5
405
330
1F
100
AcDbEntity
  8
0-0
  6
JWW_DASHED1
 62
   120
370
     5
100
AcDbLine
 10
1502.963643556934
 20
396.6539569845844
 30
0.0
 11
1018.283163803542
 21
881.3344367379766
 31
0.0
  0
LINE
  5
406
330
1F
100
AcDbEntity
  8
0-0
  6
JWW_DASHED1
 62
   120
370
     5
100
AcDbLine
 10
1502.963643556929
 20
406.5534519211697
 30
0.0
 11
1028.182658740122
 21
881.3344367379766
 31
0.0
  0
LINE
  5
407
330
1F
100
AcDbEntity
  8
0-0
  6
JWW_DASHED1
 62
   120
370
     5
100
AcDbLine
 10
1502.963643556932
 20
416.4529468578027
 30
0.0
 11
1038.082153676757
 21
881.3344367379766
 31
0.0
  0
LINE
  5
408
330
1F
100
AcDbEntity
  8
0-0
  6
JWW_DASHED1
 62
   120
370
     5
100
AcDbLine
 10
1502.963643556926
 20
426.3524417943884
 30
0.0
 11
1047.981648613338
 21
881.3344367379766
 31
0.0
  0
LINE
  5
409
330
1F
100
AcDbEntity
  8
0-0
  6
JWW_DASHED1
 62
   120
370
     5
100
AcDbLine
 10
1502.963643556938
 20
436.251936731013
 30
0.0
 11
1057.881143549973
 21
881.3344367379766
 31
0.0
  0
LINE
  5
40A
330
1F
100
AcDbEntity
  8
0-0
  6
JWW_DASHED1
 62
   120
370
     5
100
AcDbLine
 10
1502.963643556928
 20
446.1514316676574
 30
0.0
 11
1067.780638486608
 21
881.3344367379766
 31
0.0
  0
LINE
  5
40B
330
1F
100
AcDbEntity
  8
0-0
  6
JWW_DASHED1
 62
   120
370
     5
100
AcDbLine
 10
1502.963643556923
 20
456.0509266042428
 30
0.0
 11
1077.68013342319
 21
881.3344367379766
 31
0.0
  0
LINE
  5
40C
330
1F
100
AcDbEntity
  8
0-0
  6
JWW_DASHED1
 62
   120
370
     5
100
AcDbLine
 10
1502.963643556925
 20
465.9504215408758
 30
0.0
 11
1087.579628359824
 21
881.3344367379766
 31
0.0
  0
LINE
  5
40D
330
1F
100
AcDbEntity
  8
0-0
  6
JWW_DASHED1
 62
   120
370
     5
100
AcDbLine
 10
1502.96364355694
 20
475.8499164774415
 30
0.0
 11
1097.479123296405
 21
881.3344367379766
 31
0.0
  0
LINE
  5
40E
330
1F
100
AcDbEntity
  8
0-0
  6
JWW_DASHED1
 62
   120
370
     5
100
AcDbLine
 10
1502.963643556931
 20
485.749411414086
 30
0.0
 11
1107.37861823304
 21
881.3344367379766
 31
0.0
  0
LINE
  5
40F
330
1F
100
AcDbEntity
  8
0-0
  6
JWW_DASHED1
 62
   120
370
     5
100
AcDbLine
 10
1502.963643556925
 20
495.6489063506713
 30
0.0
 11
1117.27811316962
 21
881.3344367379766
 31
0.0
  0
LINE
  5
410
330
1F
100
AcDbEntity
  8
0-0
  6
JWW_DASHED1
 62
   120
370
     5
100
AcDbLine
 10
1502.963643556928
 20
505.5484012873043
 30
0.0
 11
1127.177608106256
 21
881.3344367379766
 31
0.0
  0
LINE
  5
411
330
1F
100
AcDbEntity
  8
0-0
  6
JWW_DASHED1
 62
   120
370
     5
100
AcDbLine
 10
1502.963643556924
 20
515.4478962238896
 30
0.0
 11
1137.077103042836
 21
881.3344367379766
 31
0.0
  0
LINE
  5
412
330
1F
100
AcDbEntity
  8
0-0
  6
JWW_DASHED1
 62
   120
370
     5
100
AcDbLine
 10
1502.963643556933
 20
525.3473911605146
 30
0.0
 11
1146.976597979471
 21
881.3344367379766
 31
0.0
  0
LINE
  5
413
330
1F
100
AcDbEntity
  8
0-0
  6
JWW_DASHED1
 62
   120
370
     5
100
AcDbLine
 10
1502.963643556924
 20
535.2468860971591
 30
0.0
 11
1156.876092916106
 21
881.3344367379766
 31
0.0
  0
LINE
  5
414
330
1F
100
AcDbEntity
  8
0-0
  6
JWW_DASHED1
 62
   120
370
     5
100
AcDbLine
 10
1502.963643556932
 20
545.1463810337325
 30
0.0
 11
1166.775587852687
 21
881.3344367379766
 31
0.0
  0
LINE
  5
415
330
1F
100
AcDbEntity
  8
0-0
  6
JWW_DASHED1
 62
   120
370
     5
100
AcDbLine
 10
1502.963643556938
 20
555.0458759703608
 30
0.0
 11
1176.675082789322
 21
881.3344367379766
 31
0.0
  0
LINE
  5
416
330
1F
100
AcDbEntity
  8
0-0
  6
JWW_DASHED1
 62
   120
370
     5
100
AcDbLine
 10
1502.963643556937
 20
564.9453709069435
 30
0.0
 11
1186.574577725903
 21
881.3344367379766
 31
0.0
  0
LINE
  5
417
330
1F
100
AcDbEntity
  8
0-0
  6
JWW_DASHED1
 62
   120
370
     5
100
AcDbLine
 10
1502.963643556927
 20
574.8448658435881
 30
0.0
 11
1196.474072662538
 21
881.3344367379766
 31
0.0
  0
LINE
  5
418
330
1F
100
AcDbEntity
  8
0-0
  6
JWW_DASHED1
 62
   120
370
     5
100
AcDbLine
 10
1502.963643556922
 20
584.7443607801738
 30
0.0
 11
1206.373567599119
 21
881.3344367379766
 31
0.0
  0
LINE
  5
419
330
1F
100
AcDbEntity
  8
0-0
  6
JWW_DASHED1
 62
   120
370
     5
100
AcDbLine
 10
1502.963643556925
 20
594.6438557168046
 30
0.0
 11
1216.273062535754
 21
881.3344367379766
 31
0.0
  0
LINE
  5
41A
330
1F
100
AcDbEntity
  8
0-0
  6
JWW_DASHED1
 62
   120
370
     5
100
AcDbLine
 10
1502.963643556935
 20
604.5433506534309
 30
0.0
 11
1226.172557472389
 21
881.3344367379766
 31
0.0
  0
LINE
  5
41B
330
1F
100
AcDbEntity
  8
0-0
  6
JWW_DASHED1
 62
   120
370
     5
100
AcDbLine
 10
1502.96364355693
 20
614.4428455900165
 30
0.0
 11
1236.07205240897
 21
881.3344367379766
 31
0.0
  0
LINE
  5
41C
330
1F
100
AcDbEntity
  8
0-0
  6
JWW_DASHED1
 62
   120
370
     5
100
AcDbLine
 10
1502.963643556933
 20
624.342340526648
 30
0.0
 11
1245.971547345605
 21
881.3344367379766
 31
0.0
  0
LINE
  5
41D
330
1F
100
AcDbEntity
  8
0-0
  6
JWW_DASHED1
 62
   120
370
     5
100
AcDbLine
 10
1502.963643556929
 20
634.2418354632327
 30
0.0
 11
1255.871042282185
 21
881.3344367379766
 31
0.0
  0
LINE
  5
41E
330
1F
100
AcDbEntity
  8
0-0
  6
JWW_DASHED1
 62
   120
370
     5
100
AcDbLine
 10
1502.963643556938
 20
644.1413303998598
 30
0.0
 11
1265.77053721882
 21
881.3344367379766
 31
0.0
  0
LINE
  5
41F
330
1F
100
AcDbEntity
  8
0-0
  6
JWW_DASHED1
 62
   120
370
     5
100
AcDbLine
 10
1502.963643556932
 20
654.0408253364451
 30
0.0
 11
1275.670032155401
 21
881.3344367379766
 31
0.0
  0
LINE
  5
420
330
1F
100
AcDbEntity
  8
0-0
  6
JWW_DASHED1
 62
   120
370
     5
100
AcDbLine
 10
1502.963643556923
 20
663.94032027309
 30
0.0
 11
1285.569527092037
 21
881.3344367379766
 31
0.0
  0
LINE
  5
421
330
1F
100
AcDbEntity
  8
0-0
  6
JWW_DASHED1
 62
   120
370
     5
100
AcDbLine
 10
1502.963643556932
 20
673.8398152096622
 30
0.0
 11
1295.469022028617
 21
881.3344367379766
 31
0.0
  0
LINE
  5
422
330
1F
100
AcDbEntity
  8
0-0
  6
JWW_DASHED1
 62
   120
370
     5
100
AcDbLine
 10
1502.963643556938
 20
683.7393101462906
 30
0.0
 11
1305.368516965252
 21
881.3344367379766
 31
0.0
  0
LINE
  5
423
330
1F
100
AcDbEntity
  8
0-0
  6
JWW_DASHED1
 62
   120
370
     5
100
AcDbLine
 10
1502.963643556931
 20
693.6388050829329
 30
0.0
 11
1315.268011901887
 21
881.3344367379766
 31
0.0
  0
LINE
  5
424
330
1F
100
AcDbEntity
  8
0-0
  6
JWW_DASHED1
 62
   120
370
     5
100
AcDbLine
 10
1502.963643556926
 20
703.5383000195186
 30
0.0
 11
1325.167506838468
 21
881.3344367379766
 31
0.0
  0
LINE
  5
425
330
1F
100
AcDbEntity
  8
0-0
  6
JWW_DASHED1
 62
   120
370
     5
100
AcDbLine
 10
1502.963643556931
 20
713.4377949561491
 30
0.0
 11
1335.067001775103
 21
881.3344367379766
 31
0.0
  0
LINE
  5
426
330
1F
100
AcDbEntity
  8
0-0
  6
JWW_DASHED1
 62
   120
370
     5
100
AcDbLine
 10
1502.963643556925
 20
723.3372898927344
 30
0.0
 11
1344.966496711683
 21
881.3344367379766
 31
0.0
  0
LINE
  5
427
330
1F
100
AcDbEntity
  8
0-0
  6
JWW_DASHED1
 62
   120
370
     5
100
AcDbLine
 10
1502.963643556934
 20
733.2367848293615
 30
0.0
 11
1354.865991648319
 21
881.3344367379766
 31
0.0
  0
LINE
  5
428
330
1F
100
AcDbEntity
  8
0-0
  6
JWW_DASHED1
 62
   120
370
     5
100
AcDbLine
 10
1502.963643556929
 20
743.1362797659467
 30
0.0
 11
1364.765486584899
 21
881.3344367379766
 31
0.0
  0
LINE
  5
429
330
1F
100
AcDbEntity
  8
0-0
  6
JWW_DASHED1
 62
   120
370
     5
100
AcDbLine
 10
1502.963643556934
 20
753.0357747025772
 30
0.0
 11
1374.664981521534
 21
881.3344367379766
 31
0.0
  0
LINE
  5
42A
330
1F
100
AcDbEntity
  8
0-0
  6
JWW_DASHED1
 62
   120
370
     5
100
AcDbLine
 10
1502.963643556929
 20
762.9352696391625
 30
0.0
 11
1384.564476458115
 21
881.3344367379766
 31
0.0
  0
LINE
  5
42B
330
1F
100
AcDbEntity
  8
0-0
  6
JWW_DASHED1
 62
   120
370
     5
100
AcDbLine
 10
1502.963643556937
 20
772.8347645757904
 30
0.0
 11
1394.46397139475
 21
881.3344367379766
 31
0.0
  0
LINE
  5
42C
330
1F
100
AcDbEntity
  8
0-0
  6
JWW_DASHED1
 62
   120
370
     5
100
AcDbLine
 10
1502.963643556927
 20
782.734259512435
 30
0.0
 11
1404.363466331385
 21
881.3344367379766
 31
0.0
  0
LINE
  5
42D
330
1F
100
AcDbEntity
  8
0-0
  6
JWW_DASHED1
 62
   120
370
     5
100
AcDbLine
 10
1502.963643556922
 20
792.6337544490202
 30
0.0
 11
1414.262961267966
 21
881.3344367379766
 31
0.0
  0
LINE
  5
42E
330
1F
100
AcDbEntity
  8
0-0
  6
JWW_DASHED1
 62
   120
370
     5
100
AcDbLine
 10
1502.963643556928
 20
802.5332493856499
 30
0.0
 11
1424.162456204601
 21
881.3344367379766
 31
0.0
  0
LINE
  5
42F
330
1F
100
AcDbEntity
  8
0-0
  6
JWW_DASHED1
 62
   120
370
     5
100
AcDbLine
 10
1502.963643556938
 20
812.4327443222198
 30
0.0
 11
1434.061951141182
 21
881.3344367379766
 31
0.0
  0
LINE
  5
430
330
1F
100
AcDbEntity
  8
0-0
  6
JWW_DASHED1
 62
   120
370
     5
100
AcDbLine
 10
1502.96364355693
 20
822.3322392588635
 30
0.0
 11
1443.961446077817
 21
881.3344367379766
 31
0.0
  0
LINE
  5
431
330
1F
100
AcDbEntity
  8
0-0
  6
JWW_DASHED1
 62
   120
370
     5
100
AcDbLine
 10
1502.963643556925
 20
832.2317341954492
 30
0.0
 11
1453.860941014397
 21
881.3344367379766
 31
0.0
  0
LINE
  5
432
330
1F
100
AcDbEntity
  8
0-0
  6
JWW_DASHED1
 62
   120
370
     5
100
AcDbLine
 10
1502.963643556931
 20
842.1312291320784
 30
0.0
 11
1463.760435951033
 21
881.3344367379766
 31
0.0
  0
LINE
  5
433
330
1F
100
AcDbEntity
  8
0-0
  6
JWW_DASHED1
 62
   120
370
     5
100
AcDbLine
 10
1502.963643556938
 20
852.0307240687067
 30
0.0
 11
1473.659930887668
 21
881.3344367379766
 31
0.0
  0
LINE
  5
434
330
1F
100
AcDbEntity
  8
0-0
  6
JWW_DASHED1
 62
   120
370
     5
100
AcDbLine
 10
1502.963643556933
 20
861.930219005292
 30
0.0
 11
1483.559425824248
 21
881.3344367379766
 31
0.0
  0
LINE
  5
435
330
1F
100
AcDbEntity
  8
寸法
  6
Continuous
 62
   120
370
     5
100
AcDbLine
 10
-2044.036356443067
 20
1060.334436737978
 30
0.0
 11
-1644.036356443066
 21
1060.334436737978
 31
0.0
  0
LWPOLYLINE
  5
436
330
1F
100
AcDbEntity
  8
寸法
  6
Continuous
 62
     7
370
     9
100
AcDbPolyline
 90
        4
 70
     1
 43
3.0
 10
-2042.536356443067
 20
1060.334436737978
 42
0.4142135623731
 10
-2044.036356443067
 20
1061.834436737977
 42
0.4142135623731
 10
-2045.536356443067
 20
1060.334436737978
 42
0.4142135623731
 10
-2044.036356443067
 20
1058.834436737978
 42
0.4142135623731
  0
LINE
  5
437
330
1F
100
AcDbEntity
  8
寸法
  6
Continuous
 62
   120
370
     5
100
AcDbLine
 10
-2044.036356443067
 20
1060.334436737978
 30
0.0
 11
-2044.036356443067
 21
-986.6655632620239
 31
0.0
  0
LWPOLYLINE
  5
438
330
1F
100
AcDbEntity
  8
寸法
  6
Continuous
 62
     7
370
     9
100
AcDbPolyline
 90
        4
 70
     1
 43
3.0
 10
-2042.536356443067
 20
-986.6655632620239
 42
0.4142135623731
 10
-2044.036356443067
 20
-985.1655632620239
 42
0.4142135623731
 10
-2045.536356443067
 20
-986.6655632620239
 42
0.4142135623731
 10
-2044.036356443067
 20
-988.1655632620237
 42
0.4142135623731
  0
LWPOLYLINE
  5
439
330
1F
100
AcDbEntity
  8
寸法
  6
Continuous
 62
     7
370
     9
100
AcDbPolyline
 90
        4
 70
     1
 43
3.0
 10
-1842.536356443067
 20
-966.6655632620233
 42
0.4142135623731
 10
-1844.036356443067
 20
-965.1655632620234
 42
0.4142135623731
 10
-1845.536356443067
 20
-966.6655632620233
 42
0.4142135623731
 10
-1844.036356443067
 20
-968.1655632620232
 42
0.4142135623731
  0
LINE
  5
43A
330
1F
100
AcDbEntity
  8
寸法
  6
Continuous
 62
   120
370
     5
100
AcDbLine
 10
-2044.036356443067
 20
-986.6655632620239
 30
0.0
 11
-1644.036356443066
 21
-986.6655632620239
 31
0.0
  0
LINE
  5
43B
330
1F
100
AcDbEntity
  8
寸法
  6
Continuous
 62
   120
370
     5
100
AcDbLine
 10
-1844.036356443067
 20
-966.6655632620233
 30
0.0
 11
-1644.036356443066
 21
-966.6655632620233
 31
0.0
  0
LINE
  5
43C
330
1F
100
AcDbEntity
  8
寸法
  6
Continuous
 62
   120
370
     5
100
AcDbLine
 10
-1844.036356443067
 20
1016.334436737977
 30
0.0
 11
-1644.036356443066
 21
1016.334436737977
 31
0.0
  0
LWPOLYLINE
  5
43D
330
1F
100
AcDbEntity
  8
寸法
  6
Continuous
 62
     7
370
     9
100
AcDbPolyline
 90
        4
 70
     1
 43
3.0
 10
-1842.536356443067
 20
1016.334436737977
 42
0.4142135623731
 10
-1844.036356443067
 20
1017.834436737976
 42
0.4142135623731
 10
-1845.536356443067
 20
1016.334436737977
 42
0.4142135623731
 10
-1844.036356443067
 20
1014.834436737977
 42
0.4142135623731
  0
LINE
  5
43E
330
1F
100
AcDbEntity
  8
寸法
  6
Continuous
 62
   120
370
     5
100
AcDbLine
 10
-1844.036356443067
 20
1016.334436737977
 30
0.0
 11
-1844.036356443067
 21
-966.6655632620233
 31
0.0
  0
LINE
  5
43F
330
1F
100
AcDbEntity
  8
寸法
  6
Continuous
 62
   120
370
     5
100
AcDbLine
 10
-1564.036356443067
 20
-1436.665563262025
 30
0.0
 11
-1564.036356443067
 21
-1036.665563262026
 31
0.0
  0
LINE
  5
440
330
1F
100
AcDbEntity
  8
寸法
  6
Continuous
 62
   120
370
     5
100
AcDbLine
 10
-1594.036356443067
 20
-1636.665563262024
 30
0.0
 11
-1594.036356443067
 21
-1036.665563262026
 31
0.0
  0
LINE
  5
441
330
1F
100
AcDbEntity
  8
寸法
  6
Continuous
 62
   120
370
     5
100
AcDbLine
 10
22.96364355693214
 20
-1236.665563262023
 30
0.0
 11
22.96364355693214
 21
-1036.665563262026
 31
0.0
  0
LINE
  5
442
330
1F
100
AcDbEntity
  8
寸法
  6
Continuous
 62
   120
370
     5
100
AcDbLine
 10
-787.0363564430679
 20
-1236.665563262023
 30
0.0
 11
-787.0363564430679
 21
-1036.665563262026
 31
0.0
  0
LINE
  5
443
330
1F
100
AcDbEntity
  8
寸法
  6
Continuous
 62
   120
370
     5
100
AcDbLine
 10
-787.0363564430679
 20
-1236.665563262023
 30
0.0
 11
832.9636435569321
 21
-1236.665563262023
 31
0.0
  0
LINE
  5
444
330
1F
100
AcDbEntity
  8
寸法
  6
Continuous
 62
   120
370
     5
100
AcDbLine
 10
-1564.036356443067
 20
-1436.665563262025
 30
0.0
 11
1609.963643556931
 21
-1436.665563262023
 31
0.0
  0
LINE
  5
445
330
1F
100
AcDbEntity
  8
寸法
  6
Continuous
 62
   120
370
     5
100
AcDbLine
 10
1609.963643556931
 20
-1436.665563262023
 30
0.0
 11
1609.963643556931
 21
-1036.665563262024
 31
0.0
  0
LINE
  5
446
330
1F
100
AcDbEntity
  8
寸法
  6
Continuous
 62
   120
370
     5
100
AcDbLine
 10
-1594.036356443067
 20
-1636.665563262024
 30
0.0
 11
1639.963643556931
 21
-1636.665563262023
 31
0.0
  0
LINE
  5
447
330
1F
100
AcDbEntity
  8
寸法
  6
Continuous
 62
   120
370
     5
100
AcDbLine
 10
1639.963643556931
 20
-1636.665563262023
 30
0.0
 11
1639.963643556931
 21
-1036.665563262024
 31
0.0
  0
LINE
  5
448
330
1F
100
AcDbEntity
  8
寸法
  6
Continuous
 62
   120
370
     5
100
AcDbLine
 10
832.9636435569321
 20
-1236.665563262023
 30
0.0
 11
832.9636435569321
 21
-1036.665563262026
 31
0.0
  0
LWPOLYLINE
  5
449
330
1F
100
AcDbEntity
  8
寸法
  6
Continuous
 62
     7
370
     9
100
AcDbPolyline
 90
        4
 70
     1
 43
3.0
 10
-1562.536356443067
 20
-1436.665563262025
 42
0.4142135623731
 10
-1564.036356443067
 20
-1435.165563262025
 42
0.4142135623731
 10
-1565.536356443067
 20
-1436.665563262025
 42
0.4142135623731
 10
-1564.036356443067
 20
-1438.165563262025
 42
0.4142135623731
  0
LWPOLYLINE
  5
44A
330
1F
100
AcDbEntity
  8
寸法
  6
Continuous
 62
     7
370
     9
100
AcDbPolyline
 90
        4
 70
     1
 43
3.0
 10
-1592.536356443067
 20
-1636.665563262024
 42
0.4142135623731
 10
-1594.036356443067
 20
-1635.165563262024
 42
0.4142135623731
 10
-1595.536356443067
 20
-1636.665563262024
 42
0.4142135623731
 10
-1594.036356443067
 20
-1638.165563262023
 42
0.4142135623731
  0
LWPOLYLINE
  5
44B
330
1F
100
AcDbEntity
  8
寸法
  6
Continuous
 62
     7
370
     9
100
AcDbPolyline
 90
        4
 70
     1
 43
3.0
 10
24.46364355693214
 20
-1236.665563262023
 42
0.4142135623731
 10
22.96364355693214
 20
-1235.165563262023
 42
0.4142135623731
 10
21.46364355693214
 20
-1236.665563262023
 42
0.4142135623731
 10
22.96364355693214
 20
-1238.165563262023
 42
0.4142135623731
  0
LWPOLYLINE
  5
44C
330
1F
100
AcDbEntity
  8
寸法
  6
Continuous
 62
     7
370
     9
100
AcDbPolyline
 90
        4
 70
     1
 43
3.0
 10
-785.5363564430678
 20
-1236.665563262023
 42
0.4142135623731
 10
-787.0363564430679
 20
-1235.165563262023
 42
0.4142135623731
 10
-788.5363564430679
 20
-1236.665563262023
 42
0.4142135623731
 10
-787.0363564430679
 20
-1238.165563262023
 42
0.4142135623731
  0
LWPOLYLINE
  5
44D
330
1F
100
AcDbEntity
  8
寸法
  6
Continuous
 62
     7
370
     9
100
AcDbPolyline
 90
        4
 70
     1
 43
3.0
 10
1611.463643556931
 20
-1436.665563262023
 42
0.4142135623731
 10
1609.963643556931
 20
-1435.165563262023
 42
0.4142135623731
 10
1608.463643556932
 20
-1436.665563262023
 42
0.4142135623731
 10
1609.963643556931
 20
-1438.165563262023
 42
0.4142135623731
  0
LWPOLYLINE
  5
44E
330
1F
100
AcDbEntity
  8
寸法
  6
Continuous
 62
     7
370
     9
100
AcDbPolyline
 90
        4
 70
     1
 43
3.0
 10
1641.463643556931
 20
-1636.665563262023
 42
0.4142135623731
 10
1639.963643556931
 20
-1635.165563262023
 42
0.4142135623731
 10
1638.463643556932
 20
-1636.665563262023
 42
0.4142135623731
 10
1639.963643556931
 20
-1638.165563262023
 42
0.4142135623731
  0
LWPOLYLINE
  5
44F
330
1F
100
AcDbEntity
  8
寸法
  6
Continuous
 62
     7
370
     9
100
AcDbPolyline
 90
        4
 70
     1
 43
3.0
 10
834.4636435569321
 20
-1236.665563262023
 42
0.4142135623731
 10
832.9636435569321
 20
-1235.165563262023
 42
0.4142135623731
 10
831.463643556932
 20
-1236.665563262023
 42
0.4142135623731
 10
832.9636435569321
 20
-1238.165563262023
 42
0.4142135623731
  0
MTEXT
  5
450
330
1F
100
AcDbEntity
  8
寸法
  6
Continuous
 62
     7
370
    70
100
AcDbMText
 10
-2059.036356443067
 20
-178.3405632620228
 30
0.0
 40
57.14999999999999
 41
412.5
 46
0.0
 71
     7
 72
     1
  1
{\fＭＳ ゴシック|b0|i0|c128|p49;枠外＝2,047}
 11
6.123031769111886E-17
 21
1.0
 31
0.0
 73
     1
 44
1.0
  0
MTEXT
  5
451
330
1F
100
AcDbEntity
  8
寸法
  6
Continuous
 62
     7
370
    70
100
AcDbMText
 10
-1859.036356443067
 20
-184.3405632620224
 30
0.0
 40
57.14999999999999
 41
412.5
 46
0.0
 71
     7
 72
     1
  1
{\fＭＳ ゴシック|b0|i0|c128|p49;ＤＨ＝1,983}
 11
6.123031769111886E-17
 21
1.0
 31
0.0
 73
     1
 44
1.0
  0
MTEXT
  5
452
330
1F
100
AcDbEntity
  8
寸法
  6
Continuous
 62
     7
370
   211
100
AcDbMText
 10
-550.7863564430679
 20
-1230.590563262023
 30
0.0
 40
57.14999999999998
 41
337.4999999999999
 46
0.0
 71
     7
 72
     1
  1
{\fＭＳ ゴシック|b0|i0|c128|p49;ＤＷ＝810}
 73
     1
 44
1.0
  0
MTEXT
  5
453
330
1F
100
AcDbEntity
  8
寸法
  6
Continuous
 62
     7
370
   211
100
AcDbMText
 10
259.2136435569321
 20
-1230.590563262023
 30
0.0
 40
57.15000000000001
 41
337.5000000000001
 46
0.0
 71
     7
 72
     1
  1
{\fＭＳ ゴシック|b0|i0|c128|p49;ＤＷ＝810}
 73
     1
 44
1.0
  0
MTEXT
  5
454
330
1F
100
AcDbEntity
  8
寸法
  6
Continuous
 62
     7
370
   211
100
AcDbMText
 10
-183.2863564430679
 20
-1430.590563262025
 30
0.0
 40
57.14999999999999
 41
412.5
 46
0.0
 71
     7
 72
     1
  1
{\fＭＳ ゴシック|b0|i0|c128|p49;枠内＝3,174}
 73
     1
 44
1.0
  0
MTEXT
  5
455
330
1F
100
AcDbEntity
  8
寸法
  6
Continuous
 62
     7
370
   211
100
AcDbMText
 10
-183.2863564430679
 20
-1630.590563262024
 30
0.0
 40
57.14999999999999
 41
412.5
 46
0.0
 71
     7
 72
     1
  1
{\fＭＳ ゴシック|b0|i0|c128|p49;枠外＝3,234}
 73
     1
 44
1.0
  0
ENDSEC
  0
SECTION
  2
OBJECTS
  0
DICTIONARY
  5
C
330
0
100
AcDbDictionary
281
     1
  3
ACAD_GROUP
350
D
  3
ACAD_LAYOUT
350
1A
  3
ACAD_MATERIAL
350
3B
  3
ACAD_MLEADERSTYLE
350
457
  3
ACAD_MLINESTYLE
350
17
  3
ACAD_PLOTSETTINGS
350
19
  3
ACAD_PLOTSTYLENAME
350
E
  3
ACAD_TABLESTYLE
350
456
  3
ACAD_VISUALSTYLE
350
2A
  0
DICTIONARY
  5
D
102
{ACAD_REACTORS
330
C
102
}
330
C
100
AcDbDictionary
281
     1
  0
DICTIONARY
  5
1A
102
{ACAD_REACTORS
330
C
102
}
330
C
100
AcDbDictionary
281
     1
  3
Layout1
350
1E
  3
Layout2
350
26
  3
Model
350
22
  0
DICTIONARY
  5
3B
102
{ACAD_REACTORS
330
C
102
}
330
C
100
AcDbDictionary
281
     1
  3
ByBlock
350
3D
  3
ByLayer
350
3C
  3
Global
350
3E
  0
DICTIONARY
  5
457
102
{ACAD_REACTORS
330
C
102
}
330
C
100
AcDbDictionary
281
     1
  0
DICTIONARY
  5
17
102
{ACAD_REACTORS
330
C
102
}
330
C
100
AcDbDictionary
281
     1
  3
Standard
350
18
  0
DICTIONARY
  5
19
102
{ACAD_REACTORS
330
C
102
}
330
C
100
AcDbDictionary
281
     1
  0
ACDBDICTIONARYWDFLT
  5
E
102
{ACAD_REACTORS
330
C
102
}
330
C
100
AcDbDictionary
281
     1
  3
Normal
350
F
100
AcDbDictionaryWithDefault
340
F
  0
DICTIONARY
  5
456
102
{ACAD_REACTORS
330
C
102
}
330
C
100
AcDbDictionary
281
     1
  0
DICTIONARY
  5
2A
102
{ACAD_REACTORS
330
C
102
}
330
C
100
AcDbDictionary
281
     1
  3
2dWireframe
350
2F
  3
3D Hidden
350
31
  3
3dWireframe
350
30
  3
Basic
350
32
  3
Brighten
350
36
  3
ColorChange
350
3A
  3
Conceptual
350
34
  3
Dim
350
35
  3
Facepattern
350
39
  3
Flat
350
2B
  3
FlatWithEdges
350
2C
  3
Gouraud
350
2D
  3
GouraudWithEdges
350
2E
  3
Linepattern
350
38
  3
Realistic
350
33
  3
Thicken
350
37
  0
LAYOUT
  5
1E
102
{ACAD_REACTORS
330
1A
102
}
330
1A
100
AcDbPlotSettings
  1

  2
none_device
  4

  6

 40
0.0
 41
0.0
 42
0.0
 43
0.0
 44
0.0
 45
0.0
 46
0.0
 47
0.0
 48
0.0
 49
0.0
140
0.0
141
0.0
142
1.0
143
1.0
 70
   688
 72
     0
 73
     0
 74
     5
  7

 75
    16
 76
     0
 77
     5
 78
   300
147
1.0
148
0.0
149
0.0
100
AcDbLayout
  1
Layout1
 70
     1
 71
     1
 10
0.0
 20
0.0
 11
420.0
 21
297.0
 12
0.0
 22
0.0
 32
0.0
 14
1.000000000000000E+20
 24
1.000000000000000E+20
 34
1.000000000000000E+20
 15
-1.000000000000000E+20
 25
-1.000000000000000E+20
 35
-1.000000000000000E+20
146
0.0
 13
0.0
 23
0.0
 33
0.0
 16
1.0
 26
0.0
 36
0.0
 17
0.0
 27
1.0
 37
0.0
 76
     0
330
1B
  0
LAYOUT
  5
26
102
{ACAD_REACTORS
330
1A
102
}
330
1A
100
AcDbPlotSettings
  1

  2
none_device
  4

  6

 40
0.0
 41
0.0
 42
0.0
 43
0.0
 44
0.0
 45
0.0
 46
0.0
 47
0.0
 48
0.0
 49
0.0
140
0.0
141
0.0
142
1.0
143
1.0
 70
   688
 72
     0
 73
     0
 74
     5
  7

 75
    16
 76
     0
 77
     5
 78
   300
147
1.0
148
0.0
149
0.0
100
AcDbLayout
  1
Layout2
 70
     1
 71
     2
 10
0.0
 20
0.0
 11
0.0
 21
0.0
 12
0.0
 22
0.0
 32
0.0
 14
0.0
 24
0.0
 34
0.0
 15
0.0
 25
0.0
 35
0.0
146
0.0
 13
0.0
 23
0.0
 33
0.0
 16
1.0
 26
0.0
 36
0.0
 17
0.0
 27
1.0
 37
0.0
 76
     0
330
23
  0
LAYOUT
  5
22
102
{ACAD_REACTORS
330
1A
102
}
330
1A
100
AcDbPlotSettings
  1

  2
none_device
  4

  6

 40
0.0
 41
0.0
 42
0.0
 43
0.0
 44
0.0
 45
0.0
 46
0.0
 47
0.0
 48
0.0
 49
0.0
140
0.0
141
0.0
142
1.0
143
1.0
 70
  1712
 72
     0
 73
     0
 74
     0
  7

 75
     0
 76
     0
 77
     5
 78
   300
147
1.0
148
0.0
149
0.0
100
AcDbLayout
  1
Model
 70
     1
 71
     0
 10
-4455.0
 20
-3150.0
 11
4455.0
 21
3150.0
 12
0.0
 22
0.0
 32
0.0
 14
-4455.0
 24
-3150.0
 34
0.0
 15
4455.0
 25
3150.0
 35
0.0
146
0.0
 13
0.0
 23
0.0
 33
0.0
 16
1.0
 26
0.0
 36
0.0
 17
0.0
 27
1.0
 37
0.0
 76
     0
330
1F
331
29
  0
MATERIAL
  5
3D
102
{ACAD_REACTORS
330
3B
102
}
330
3B
100
AcDbMaterial
  1
ByBlock
 72
     1
 94
      127
  0
MATERIAL
  5
3C
102
{ACAD_REACTORS
330
3B
102
}
330
3B
100
AcDbMaterial
  1
ByLayer
 72
     1
 94
      127
  0
MATERIAL
  5
3E
102
{ACAD_REACTORS
330
3B
102
}
330
3B
100
AcDbMaterial
  1
Global
 72
     1
 94
      127
  0
MLINESTYLE
  5
18
102
{ACAD_REACTORS
330
17
102
}
330
17
100
AcDbMlineStyle
  2
Standard
 70
     0
  3

 62
   256
 51
90.0
 52
90.0
 71
     2
 49
0.5
 62
   256
  6
BYLAYER
 49
-0.5
 62
   256
  6
BYLAYER
  0
ACDBPLACEHOLDER
  5
F
102
{ACAD_REACTORS
330
E
102
}
330
E
  0
VISUALSTYLE
  5
2F
102
{ACAD_REACTORS
330
2A
102
}
330
2A
100
AcDbVisualStyle
  2
2dWireframe
 70
     4
177
     2
291
     0
 71
     0
176
     1
 72
     2
176
     1
 73
     0
176
     1
 90
        0
176
     1
 40
-0.6
176
     1
 41
-30.0
176
     1
 62
     5
 63
     7
421
 16777215
176
     1
 74
     1
176
     1
 91
        4
176
     1
 64
     7
176
     1
 65
   257
176
     1
 75
     1
176
     1
175
     1
176
     1
 42
1.0
176
     1
 92
        0
176
     1
 66
   257
176
     1
 43
1.0
176
     1
 76
     1
176
     1
 77
     6
176
     1
 78
     2
176
     1
 67
     7
176
     1
 79
     5
176
     1
170
     0
176
     1
171
     0
176
     1
290
     0
176
     1
 93
        1
176
     1
 44
0.0
176
     1
173
     0
176
     1
  0
VISUALSTYLE
  5
31
102
{ACAD_REACTORS
330
2A
102
}
330
2A
100
AcDbVisualStyle
  2
3D Hidden
 70
     6
177
     2
291
     0
 71
     1
176
     1
 72
     2
176
     1
 73
     2
176
     1
 90
        0
176
     1
 40
-0.6
176
     1
 41
-30.0
176
     1
 62
     5
 63
     7
421
 16777215
176
     1
 74
     2
176
     1
 91
        2
176
     1
 64
     7
176
     1
 65
   257
176
     1
 75
     2
176
     1
175
     1
176
     1
 42
40.0
176
     1
 92
        0
176
     1
 66
   257
176
     1
 43
1.0
176
     1
 76
     1
176
     1
 77
     6
176
     1
 78
     2
176
     1
 67
     7
176
     1
 79
     3
176
     1
170
     0
176
     1
171
     0
176
     1
290
     0
176
     1
 93
        1
176
     1
 44
0.0
176
     1
173
     0
176
     1
  0
VISUALSTYLE
  5
30
102
{ACAD_REACTORS
330
2A
102
}
330
2A
100
AcDbVisualStyle
  2
3dWireframe
 70
     5
177
     2
291
     0
 71
     0
176
     1
 72
     2
176
     1
 73
     0
176
     1
 90
        0
176
     1
 40
-0.6
176
     1
 41
-30.0
176
     1
 62
     5
 63
     7
421
 16777215
176
     1
 74
     1
176
     1
 91
        4
176
     1
 64
     7
176
     1
 65
   257
176
     1
 75
     1
176
     1
175
     1
176
     1
 42
1.0
176
     1
 92
        0
176
     1
 66
   257
176
     1
 43
1.0
176
     1
 76
     1
176
     1
 77
     6
176
     1
 78
     2
176
     1
 67
     7
176
     1
 79
     5
176
     1
170
     0
176
     1
171
     0
176
     1
290
     0
176
     1
 93
        1
176
     1
 44
0.0
176
     1
173
     0
176
     1
  0
VISUALSTYLE
  5
32
102
{ACAD_REACTORS
330
2A
102
}
330
2A
100
AcDbVisualStyle
  2
Basic
 70
     7
177
     2
291
     1
 71
     1
176
     1
 72
     0
176
     1
 73
     1
176
     1
 90
        0
176
     1
 40
-0.6
176
     1
 41
-30.0
176
     1
 62
     5
 63
     7
421
 16777215
176
     1
 74
     0
176
     1
 91
        4
176
     1
 64
     7
176
     1
 65
   257
176
     1
 75
     1
176
     1
175
     1
176
     1
 42
1.0
176
     1
 92
        8
176
     1
 66
     7
176
     1
 43
1.0
176
     1
 76
     1
176
     1
 77
     6
176
     1
 78
     2
176
     1
 67
     7
176
     1
 79
     5
176
     1
170
     0
176
     1
171
     0
176
     1
290
     0
176
     1
 93
        1
176
     1
 44
0.0
176
     1
173
     0
176
     1
  0
VISUALSTYLE
  5
36
102
{ACAD_REACTORS
330
2A
102
}
330
2A
100
AcDbVisualStyle
  2
Brighten
 70
    12
177
     2
291
     1
 71
     2
176
     1
 72
     2
176
     1
 73
     0
176
     1
 90
        0
176
     1
 40
-0.6
176
     1
 41
-30.0
176
     1
 62
     5
 63
     7
421
 16777215
176
     1
 74
     1
176
     1
 91
        4
176
     1
 64
     7
176
     1
 65
   257
176
     1
 75
     1
176
     1
175
     1
176
     1
 42
1.0
176
     1
 92
        8
176
     1
 66
     7
176
     1
 43
1.0
176
     1
 76
     1
176
     1
 77
     6
176
     1
 78
     2
176
     1
 67
     7
176
     1
 79
     5
176
     1
170
     0
176
     1
171
     0
176
     1
290
     0
176
     1
 93
        1
176
     1
 44
50.0
176
     1
173
     0
176
     1
  0
VISUALSTYLE
  5
3A
102
{ACAD_REACTORS
330
2A
102
}
330
2A
100
AcDbVisualStyle
  2
ColorChange
 70
    16
177
     2
291
     1
 71
     2
176
     1
 72
     2
176
     1
 73
     3
176
     1
 90
        0
176
     1
 40
-0.6
176
     1
 41
-30.0
176
     1
 62
     5
 63
     8
421
  8421504
176
     1
 74
     1
176
     1
 91
        4
176
     1
 64
     7
176
     1
 65
   257
176
     1
 75
     1
176
     1
175
     1
176
     1
 42
1.0
176
     1
 92
        8
176
     1
 66
     8
424
  8421504
176
     1
 43
1.0
176
     1
 76
     1
176
     1
 77
     6
176
     1
 78
     2
176
     1
 67
     7
176
     1
 79
     5
176
     1
170
     0
176
     1
171
     0
176
     1
290
     0
176
     1
 93
        1
176
     1
 44
0.0
176
     1
173
     0
176
     1
  0
VISUALSTYLE
  5
34
102
{ACAD_REACTORS
330
2A
102
}
330
2A
100
AcDbVisualStyle
  2
Conceptual
 70
     9
177
     2
291
     0
 71
     3
176
     1
 72
     2
176
     1
 73
     0
176
     1
 90
        0
176
     1
 40
-0.6
176
     1
 41
-30.0
176
     1
 62
     5
 63
     7
421
 16777215
176
     1
 74
     2
176
     1
 91
        2
176
     1
 64
     7
176
     1
 65
   257
176
     1
 75
     1
176
     1
175
     1
176
     1
 42
40.0
176
     1
 92
        8
176
     1
 66
     7
176
     1
 43
1.0
176
     1
 76
     1
176
     1
 77
     6
176
     1
 78
     2
176
     1
 67
     7
176
     1
 79
     3
176
     1
170
     0
176
     1
171
     0
176
     1
290
     0
176
     1
 93
        1
176
     1
 44
0.0
176
     1
173
     0
176
     1
  0
VISUALSTYLE
  5
35
102
{ACAD_REACTORS
330
2A
102
}
330
2A
100
AcDbVisualStyle
  2
Dim
 70
    11
177
     2
291
     1
 71
     2
176
     1
 72
     2
176
     1
 73
     0
176
     1
 90
        0
176
     1
 40
-0.6
176
     1
 41
-30.0
176
     1
 62
     5
 63
     7
421
 16777215
176
     1
 74
     1
176
     1
 91
        4
176
     1
 64
     7
176
     1
 65
   257
176
     1
 75
     1
176
     1
175
     1
176
     1
 42
1.0
176
     1
 92
        8
176
     1
 66
     7
176
     1
 43
1.0
176
     1
 76
     1
176
     1
 77
     6
176
     1
 78
     2
176
     1
 67
     7
176
     1
 79
     5
176
     1
170
     0
176
     1
171
     0
176
     1
290
     0
176
     1
 93
        1
176
     1
 44
-50.0
176
     1
173
     0
176
     1
  0
VISUALSTYLE
  5
39
102
{ACAD_REACTORS
330
2A
102
}
330
2A
100
AcDbVisualStyle
  2
Facepattern
 70
    15
177
     2
291
     1
 71
     2
176
     1
 72
     2
176
     1
 73
     0
176
     1
 90
        0
176
     1
 40
-0.6
176
     1
 41
-30.0
176
     1
 62
     5
 63
     7
421
 16777215
176
     1
 74
     1
176
     1
 91
        4
176
     1
 64
     7
176
     1
 65
   257
176
     1
 75
     1
176
     1
175
     1
176
     1
 42
1.0
176
     1
 92
        8
176
     1
 66
     7
176
     1
 43
1.0
176
     1
 76
     1
176
     1
 77
     6
176
     1
 78
     2
176
     1
 67
     7
176
     1
 79
     5
176
     1
170
     0
176
     1
171
     0
176
     1
290
     0
176
     1
 93
        1
176
     1
 44
0.0
176
     1
173
     0
176
     1
  0
VISUALSTYLE
  5
2B
102
{ACAD_REACTORS
330
2A
102
}
330
2A
100
AcDbVisualStyle
  2
Flat
 70
     0
177
     2
291
     1
 71
     2
176
     1
 72
     1
176
     1
 73
     1
176
     1
 90
        2
176
     1
 40
-0.6
176
     1
 41
30.0
176
     1
 62
     5
 63
     7
421
 16777215
176
     1
 74
     0
176
     1
 91
        4
176
     1
 64
     7
176
     1
 65
   257
176
     1
 75
     1
176
     1
175
     1
176
     1
 42
1.0
176
     1
 92
        8
176
     1
 66
     7
176
     1
 43
1.0
176
     1
 76
     1
176
     1
 77
     6
176
     1
 78
     2
176
     1
 67
     7
176
     1
 79
     5
176
     1
170
     0
176
     1
171
     0
176
     1
290
     0
176
     1
 93
       13
176
     1
 44
0.0
176
     1
173
     0
176
     1
  0
VISUALSTYLE
  5
2C
102
{ACAD_REACTORS
330
2A
102
}
330
2A
100
AcDbVisualStyle
  2
FlatWithEdges
 70
     1
177
     2
291
     1
 71
     2
176
     1
 72
     1
176
     1
 73
     1
176
     1
 90
        2
176
     1
 40
-0.6
176
     1
 41
30.0
176
     1
 62
     5
 63
     7
421
 16777215
176
     1
 74
     1
176
     1
 91
        4
176
     1
 64
     7
176
     1
 65
   257
176
     1
 75
     1
176
     1
175
     1
176
     1
 42
1.0
176
     1
 92
        0
176
     1
 66
   257
176
     1
 43
1.0
176
     1
 76
     1
176
     1
 77
     6
176
     1
 78
     2
176
     1
 67
     7
176
     1
 79
     5
176
     1
170
     0
176
     1
171
     0
176
     1
290
     0
176
     1
 93
       13
176
     1
 44
0.0
176
     1
173
     0
176
     1
  0
VISUALSTYLE
  5
2D
102
{ACAD_REACTORS
330
2A
102
}
330
2A
100
AcDbVisualStyle
  2
Gouraud
 70
     2
177
     2
291
     1
 71
     2
176
     1
 72
     2
176
     1
 73
     1
176
     1
 90
        2
176
     1
 40
-0.6
176
     1
 41
30.0
176
     1
 62
     5
 63
     7
421
 16777215
176
     1
 74
     0
176
     1
 91
        4
176
     1
 64
     7
176
     1
 65
   257
176
     1
 75
     1
176
     1
175
     1
176
     1
 42
1.0
176
     1
 92
        0
176
     1
 66
     7
176
     1
 43
1.0
176
     1
 76
     1
176
     1
 77
     6
176
     1
 78
     2
176
     1
 67
     7
176
     1
 79
     5
176
     1
170
     0
176
     1
171
     0
176
     1
290
     0
176
     1
 93
       13
176
     1
 44
0.0
176
     1
173
     0
176
     1
  0
VISUALSTYLE
  5
2E
102
{ACAD_REACTORS
330
2A
102
}
330
2A
100
AcDbVisualStyle
  2
GouraudWithEdges
 70
     3
177
     2
291
     1
 71
     2
176
     1
 72
     2
176
     1
 73
     1
176
     1
 90
        2
176
     1
 40
-0.6
176
     1
 41
30.0
176
     1
 62
     5
 63
     7
421
 16777215
176
     1
 74
     1
176
     1
 91
        4
176
     1
 64
     7
176
     1
 65
   257
176
     1
 75
     1
176
     1
175
     1
176
     1
 42
1.0
176
     1
 92
        0
176
     1
 66
   257
176
     1
 43
1.0
176
     1
 76
     1
176
     1
 77
     6
176
     1
 78
     2
176
     1
 67
     7
176
     1
 79
     5
176
     1
170
     0
176
     1
171
     0
176
     1
290
     0
176
     1
 93
       13
176
     1
 44
0.0
176
     1
173
     0
176
     1
  0
VISUALSTYLE
  5
38
102
{ACAD_REACTORS
330
2A
102
}
330
2A
100
AcDbVisualStyle
  2
Linepattern
 70
    14
177
     2
291
     1
 71
     2
176
     1
 72
     2
176
     1
 73
     0
176
     1
 90
        0
176
     1
 40
-0.6
176
     1
 41
-30.0
176
     1
 62
     5
 63
     7
421
 16777215
176
     1
 74
     1
176
     1
 91
        4
176
     1
 64
     7
176
     1
 65
   257
176
     1
 75
     7
176
     1
175
     7
176
     1
 42
1.0
176
     1
 92
        8
176
     1
 66
     7
176
     1
 43
1.0
176
     1
 76
     1
176
     1
 77
     6
176
     1
 78
     2
176
     1
 67
     7
176
     1
 79
     5
176
     1
170
     0
176
     1
171
     0
176
     1
290
     0
176
     1
 93
        1
176
     1
 44
0.0
176
     1
173
     0
176
     1
  0
VISUALSTYLE
  5
33
102
{ACAD_REACTORS
330
2A
102
}
330
2A
100
AcDbVisualStyle
  2
Realistic
 70
     8
177
     2
291
     0
 71
     2
176
     1
 72
     2
176
     1
 73
     0
176
     1
 90
        0
176
     1
 40
-0.6
176
     1
 41
-30.0
176
     1
 62
     5
 63
     7
421
 16777215
176
     1
 74
     1
176
     1
 91
        0
176
     1
 64
     7
176
     1
 65
   257
176
     1
 75
     1
176
     1
175
     1
176
     1
 42
1.0
176
     1
 92
        8
176
     1
 66
     8
424
  7895160
176
     1
 43
1.0
176
     1
 76
     1
176
     1
 77
     6
176
     1
 78
     2
176
     1
 67
     7
176
     1
 79
     5
176
     1
170
     0
176
     1
171
     0
176
     1
290
     0
176
     1
 93
       13
176
     1
 44
0.0
176
     1
173
     0
176
     1
  0
VISUALSTYLE
  5
37
102
{ACAD_REACTORS
330
2A
102
}
330
2A
100
AcDbVisualStyle
  2
Thicken
 70
    13
177
     2
291
     1
 71
     2
176
     1
 72
     2
176
     1
 73
     0
176
     1
 90
        0
176
     1
 40
-0.6
176
     1
 41
-30.0
176
     1
 62
     5
 63
     7
421
 16777215
176
     1
 74
     1
176
     1
 91
        4
176
     1
 64
     7
176
     1
 65
   257
176
     1
 75
     1
176
     1
175
     1
176
     1
 42
1.0
176
     1
 92
       12
176
     1
 66
     7
176
     1
 43
1.0
176
     1
 76
     1
176
     1
 77
     6
176
     1
 78
     2
176
     1
 67
     7
176
     1
 79
     5
176
     1
170
     0
176
     1
171
     0
176
     1
290
     0
176
     1
 93
        1
176
     1
 44
0.0
176
     1
173
     0
176
     1
  0
ENDSEC
  0
EOF
