  0
SECTION
  2
HEADER
  9
$ACADVER
  1
AC1024
  9
$ACADMAINTVER
 70
     6
  9
$DWGCODEPAGE
  3
ANSI_932
  9
$INSBASE
 10
0.0
 20
0.0
 30
0.0
  9
$EXTMIN
 10
-4455.0
 20
-3150.0
 30
0.0
  9
$EXTMAX
 10
4455.0
 20
3150.0
 30
0.0
  9
$LIMMIN
 10
-4455.0
 20
-3150.0
  9
$LIMMAX
 10
4455.0
 20
3150.0
  9
$ORTHOMODE
 70
     0
  9
$REGENMODE
 70
     1
  9
$FILLMODE
 70
     1
  9
$QTEXTMODE
 70
     0
  9
$MIRRTEXT
 70
     1
  9
$LTSCALE
 40
30.0
  9
$ATTMODE
 70
     1
  9
$TEXTSIZE
 40
2.5
  9
$TRACEWID
 40
1.0
  9
$TEXTSTYLE
  7
Standard
  9
$CLAYER
  8
0
  9
$CELTYPE
  6
ByLayer
  9
$CECOLOR
 62
   256
  9
$CELTSCALE
 40
1.0
  9
$DISPSILH
 70
     0
  9
$DIMSCALE
 40
1.0
  9
$DIMASZ
 40
2.5
  9
$DIMEXO
 40
0.625
  9
$DIMDLI
 40
3.75
  9
$DIMRND
 40
0.0
  9
$DIMDLE
 40
0.0
  9
$DIMEXE
 40
1.25
  9
$DIMTP
 40
0.0
  9
$DIMTM
 40
0.0
  9
$DIMTXT
 40
2.5
  9
$DIMCEN
 40
2.5
  9
$DIMTSZ
 40
0.0
  9
$DIMTOL
 70
     0
  9
$DIMLIM
 70
     0
  9
$DIMTIH
 70
     0
  9
$DIMTOH
 70
     0
  9
$DIMSE1
 70
     0
  9
$DIMSE2
 70
     0
  9
$DIMTAD
 70
     1
  9
$DIMZIN
 70
     8
  9
$DIMBLK
  1

  9
$DIMASO
 70
     1
  9
$DIMSHO
 70
     1
  9
$DIMPOST
  1

  9
$DIMAPOST
  1

  9
$DIMALT
 70
     0
  9
$DIMALTD
 70
     3
  9
$DIMALTF
 40
0.03937007874016
  9
$DIMLFAC
 40
1.0
  9
$DIMTOFL
 70
     1
  9
$DIMTVP
 40
0.0
  9
$DIMTIX
 70
     0
  9
$DIMSOXD
 70
     0
  9
$DIMSAH
 70
     0
  9
$DIMBLK1
  1

  9
$DIMBLK2
  1

  9
$DIMSTYLE
  2
ISO-25
  9
$DIMCLRD
 70
     0
  9
$DIMCLRE
 70
     0
  9
$DIMCLRT
 70
     0
  9
$DIMTFAC
 40
1.0
  9
$DIMGAP
 40
0.625
  9
$DIMJUST
 70
     0
  9
$DIMSD1
 70
     0
  9
$DIMSD2
 70
     0
  9
$DIMTOLJ
 70
     0
  9
$DIMTZIN
 70
     8
  9
$DIMALTZ
 70
     0
  9
$DIMALTTZ
 70
     0
  9
$DIMUPT
 70
     0
  9
$DIMDEC
 70
     2
  9
$DIMTDEC
 70
     2
  9
$DIMALTU
 70
     2
  9
$DIMALTTD
 70
     3
  9
$DIMTXSTY
  7
Standard
  9
$DIMAUNIT
 70
     0
  9
$DIMADEC
 70
     0
  9
$DIMALTRND
 40
0.0
  9
$DIMAZIN
 70
     0
  9
$DIMDSEP
 70
    44
  9
$DIMATFIT
 70
     3
  9
$DIMFRAC
 70
     0
  9
$DIMLDRBLK
  1

  9
$DIMLUNIT
 70
     2
  9
$DIMLWD
 70
    -2
  9
$DIMLWE
 70
    -2
  9
$DIMTMOVE
 70
     0
  9
$DIMFXL
 40
1.0
  9
$DIMFXLON
 70
     0
  9
$DIMJOGANG
 40
0.7853981633974483
  9
$DIMTFILL
 70
     0
  9
$DIMTFILLCLR
 70
     0
  9
$DIMARCSYM
 70
     0
  9
$DIMLTYPE
  6

  9
$DIMLTEX1
  6

  9
$DIMLTEX2
  6

  9
$DIMTXTDIRECTION
 70
     0
  9
$LUNITS
 70
     2
  9
$LUPREC
 70
     4
  9
$SKETCHINC
 40
1.0
  9
$FILLETRAD
 40
10.0
  9
$AUNITS
 70
     0
  9
$AUPREC
 70
     0
  9
$MENU
  1
.
  9
$ELEVATION
 40
0.0
  9
$PELEVATION
 40
0.0
  9
$THICKNESS
 40
0.0
  9
$LIMCHECK
 70
     0
  9
$CHAMFERA
 40
10.0
  9
$CHAMFERB
 40
10.0
  9
$CHAMFERC
 40
20.0
  9
$CHAMFERD
 40
0.0
  9
$SKPOLY
 70
     0
  9
$TDCREATE
 40
2457953.399905752
  9
$TDUCREATE
 40
2457953.024905752
  9
$TDUPDATE
 40
2457953.399905764
  9
$TDUUPDATE
 40
2457953.024905764
  9
$TDINDWG
 40
0.0000000116
  9
$TDUSRTIMER
 40
0.0000000116
  9
$USRTIMER
 70
     1
  9
$ANGBASE
 50
0.0
  9
$ANGDIR
 70
     0
  9
$PDMODE
 70
     0
  9
$PDSIZE
 40
0.0
  9
$PLINEWID
 40
0.0
  9
$SPLFRAME
 70
     0
  9
$SPLINETYPE
 70
     6
  9
$SPLINESEGS
 70
     8
  9
$HANDSEED
  5
2C0
  9
$SURFTAB1
 70
     6
  9
$SURFTAB2
 70
     6
  9
$SURFTYPE
 70
     6
  9
$SURFU
 70
     6
  9
$SURFV
 70
     6
  9
$UCSBASE
  2

  9
$UCSNAME
  2

  9
$UCSORG
 10
0.0
 20
0.0
 30
0.0
  9
$UCSXDIR
 10
1.0
 20
0.0
 30
0.0
  9
$UCSYDIR
 10
0.0
 20
1.0
 30
0.0
  9
$UCSORTHOREF
  2

  9
$UCSORTHOVIEW
 70
     0
  9
$UCSORGTOP
 10
0.0
 20
0.0
 30
0.0
  9
$UCSORGBOTTOM
 10
0.0
 20
0.0
 30
0.0
  9
$UCSORGLEFT
 10
0.0
 20
0.0
 30
0.0
  9
$UCSORGRIGHT
 10
0.0
 20
0.0
 30
0.0
  9
$UCSORGFRONT
 10
0.0
 20
0.0
 30
0.0
  9
$UCSORGBACK
 10
0.0
 20
0.0
 30
0.0
  9
$PUCSBASE
  2

  9
$PUCSNAME
  2

  9
$PUCSORG
 10
0.0
 20
0.0
 30
0.0
  9
$PUCSXDIR
 10
1.0
 20
0.0
 30
0.0
  9
$PUCSYDIR
 10
0.0
 20
1.0
 30
0.0
  9
$PUCSORTHOREF
  2

  9
$PUCSORTHOVIEW
 70
     0
  9
$PUCSORGTOP
 10
0.0
 20
0.0
 30
0.0
  9
$PUCSORGBOTTOM
 10
0.0
 20
0.0
 30
0.0
  9
$PUCSORGLEFT
 10
0.0
 20
0.0
 30
0.0
  9
$PUCSORGRIGHT
 10
0.0
 20
0.0
 30
0.0
  9
$PUCSORGFRONT
 10
0.0
 20
0.0
 30
0.0
  9
$PUCSORGBACK
 10
0.0
 20
0.0
 30
0.0
  9
$USERI1
 70
     0
  9
$USERI2
 70
     0
  9
$USERI3
 70
     0
  9
$USERI4
 70
     0
  9
$USERI5
 70
     0
  9
$USERR1
 40
0.0
  9
$USERR2
 40
0.0
  9
$USERR3
 40
0.0
  9
$USERR4
 40
0.0
  9
$USERR5
 40
0.0
  9
$WORLDVIEW
 70
     1
  9
$SHADEDGE
 70
     3
  9
$SHADEDIF
 70
    70
  9
$TILEMODE
 70
     1
  9
$MAXACTVP
 70
    64
  9
$PINSBASE
 10
0.0
 20
0.0
 30
0.0
  9
$PLIMCHECK
 70
     0
  9
$PEXTMIN
 10
1.000000000000000E+20
 20
1.000000000000000E+20
 30
1.000000000000000E+20
  9
$PEXTMAX
 10
-1.000000000000000E+20
 20
-1.000000000000000E+20
 30
-1.000000000000000E+20
  9
$PLIMMIN
 10
0.0
 20
0.0
  9
$PLIMMAX
 10
420.0
 20
297.0
  9
$UNITMODE
 70
     0
  9
$VISRETAIN
 70
     1
  9
$PLINEGEN
 70
     0
  9
$PSLTSCALE
 70
     1
  9
$TREEDEPTH
 70
  3020
  9
$CMLSTYLE
  2
Standard
  9
$CMLJUST
 70
     0
  9
$CMLSCALE
 40
20.0
  9
$PROXYGRAPHICS
 70
     1
  9
$MEASUREMENT
 70
     1
  9
$CELWEIGHT
370
    -1
  9
$ENDCAPS
280
     0
  9
$JOINSTYLE
280
     0
  9
$LWDISPLAY
290
     0
  9
$INSUNITS
 70
     4
  9
$HYPERLINKBASE
  1

  9
$STYLESHEET
  1

  9
$XEDIT
290
     1
  9
$CEPSNTYPE
380
     0
  9
$PSTYLEMODE
290
     1
  9
$FINGERPRINTGUID
  2
{0E763391-9F03-4961-B975-0E205F98E1CC}
  9
$VERSIONGUID
  2
{FAEB1C32-E019-11D5-929B-00C0DF256EC4}
  9
$EXTNAMES
290
     1
  9
$PSVPSCALE
 40
0.0
  9
$OLESTARTUP
290
     0
  9
$SORTENTS
280
   127
  9
$INDEXCTL
280
     0
  9
$HIDETEXT
280
     1
  9
$XCLIPFRAME
280
     2
  9
$HALOGAP
280
     0
  9
$OBSCOLOR
 70
   257
  9
$OBSLTYPE
280
     0
  9
$INTERSECTIONDISPLAY
280
     0
  9
$INTERSECTIONCOLOR
 70
   257
  9
$DIMASSOC
280
     2
  9
$PROJECTNAME
  1

  9
$CAMERADISPLAY
290
     0
  9
$LENSLENGTH
 40
50.0
  9
$CAMERAHEIGHT
 40
0.0
  9
$STEPSPERSEC
 40
2.0
  9
$STEPSIZE
 40
6.0
  9
$3DDWFPREC
 40
2.0
  9
$PSOLWIDTH
 40
5.0
  9
$PSOLHEIGHT
 40
80.0
  9
$LOFTANG1
 40
1.570796326794897
  9
$LOFTANG2
 40
1.570796326794897
  9
$LOFTMAG1
 40
0.0
  9
$LOFTMAG2
 40
0.0
  9
$LOFTPARAM
 70
     7
  9
$LOFTNORMALS
280
     1
  9
$LATITUDE
 40
37.795
  9
$LONGITUDE
 40
-122.394
  9
$NORTHDIRECTION
 40
0.0
  9
$TIMEZONE
 70
 -8000
  9
$LIGHTGLYPHDISPLAY
280
     1
  9
$TILEMODELIGHTSYNCH
280
     1
  9
$SOLIDHIST
280
     1
  9
$SHOWHIST
280
     1
  9
$DWFFRAME
280
     2
  9
$DGNFRAME
280
     2
  9
$REALWORLDSCALE
290
     1
  9
$INTERFERECOLOR
 62
   256
  9
$CSHADOW
280
     0
  9
$SHADOWPLANELOCATION
 40
0.0
  0
ENDSEC
  0
SECTION
  2
CLASSES
  0
CLASS
  1
ACDBDICTIONARYWDFLT
  2
AcDbDictionaryWithDefault
  3
ObjectDBX Classes
 90
        0
 91
        4
280
     0
281
     0
  0
CLASS
  1
VISUALSTYLE
  2
AcDbVisualStyle
  3
ObjectDBX Classes
 90
     4095
 91
        4
280
     0
281
     0
  0
CLASS
  1
MATERIAL
  2
AcDbMaterial
  3
ObjectDBX Classes
 90
     1153
 91
        4
280
     0
281
     0
  0
ENDSEC
  0
SECTION
  2
TABLES
  0
TABLE
  2
VPORT
  5
8
330
0
100
AcDbSymbolTable
 70
     1
  0
VPORT
  5
29
330
8
100
AcDbSymbolTableRecord
100
AcDbViewportTableRecord
  2
*Active
 70
     0
 10
0.0
 20
0.0
 11
1.0
 21
1.0
 12
0.0
 22
0.0
 13
0.0
 23
0.0
 14
10.0
 24
10.0
 15
10.0
 25
10.0
 16
0.0
 26
0.0
 36
1.0
 17
0.0
 27
0.0
 37
0.0
 40
6930.000000000001
 41
1.414285714285714
 42
50.0
 43
0.0
 44
0.0
 50
0.0
 51
0.0
 71
     0
 72
 10000
 73
     1
 74
     3
 75
     0
 76
     0
 77
     0
 78
     0
281
     0
 65
     1
110
0.0
120
0.0
130
0.0
111
1.0
121
0.0
131
0.0
112
0.0
122
1.0
132
0.0
 79
     0
146
0.0
 60
     3
 61
     5
292
     1
282
     1
141
0.0
142
0.0
 63
   250
  0
ENDTAB
  0
TABLE
  2
LTYPE
  5
5
330
0
100
AcDbSymbolTable
 70
     2
  0
LTYPE
  5
14
330
5
100
AcDbSymbolTableRecord
100
AcDbLinetypeTableRecord
  2
ByBlock
 70
     0
  3

 72
    65
 73
     0
 40
0.0
  0
LTYPE
  5
15
330
5
100
AcDbSymbolTableRecord
100
AcDbLinetypeTableRecord
  2
ByLayer
 70
     0
  3

 72
    65
 73
     0
 40
0.0
  0
LTYPE
  5
16
330
5
100
AcDbSymbolTableRecord
100
AcDbLinetypeTableRecord
  2
Continuous
 70
     0
  3
Solid line
 72
    65
 73
     0
 40
0.0
  0
LTYPE
  5
3F
330
5
100
AcDbSymbolTableRecord
100
AcDbLinetypeTableRecord
  2
JWW_DASHED1
 70
     0
  3
-  --  --  --  --  --  --  --  -
 72
    65
 73
     2
 40
1.693333333333333
 49
0.8466666666666667
 74
     0
 49
-0.8466666666666667
 74
     0
  0
ENDTAB
  0
TABLE
  2
LAYER
  5
2
330
0
100
AcDbSymbolTable
 70
     3
  0
LAYER
  5
10
330
2
100
AcDbSymbolTableRecord
100
AcDbLayerTableRecord
  2
0
 70
     0
 62
     7
  6
Continuous
370
    -3
390
F
347
3E
  0
LAYER
  5
40
330
2
100
AcDbSymbolTableRecord
100
AcDbLayerTableRecord
  2
寸法
 70
     0
 62
     7
  6
Continuous
370
    -3
390
F
347
3E
  0
LAYER
  5
41
330
2
100
AcDbSymbolTableRecord
100
AcDbLayerTableRecord
  2
0-0
 70
     0
 62
     7
  6
Continuous
370
    -3
390
F
347
3E
  0
ENDTAB
  0
TABLE
  2
STYLE
  5
3
330
0
100
AcDbSymbolTable
 70
     1
  0
STYLE
  5
11
330
3
100
AcDbSymbolTableRecord
100
AcDbTextStyleTableRecord
  2
Standard
 70
     0
 40
0.0
 41
1.0
 50
0.0
 71
     0
 42
2.5
  3
txt
  4

  0
ENDTAB
  0
TABLE
  2
VIEW
  5
6
330
0
100
AcDbSymbolTable
 70
     0
  0
ENDTAB
  0
TABLE
  2
UCS
  5
7
330
0
100
AcDbSymbolTable
 70
     0
  0
ENDTAB
  0
TABLE
  2
APPID
  5
9
330
0
100
AcDbSymbolTable
 70
     1
  0
APPID
  5
12
330
9
100
AcDbSymbolTableRecord
100
AcDbRegAppTableRecord
  2
ACAD
 70
     0
  0
ENDTAB
  0
TABLE
  2
DIMSTYLE
  5
A
330
0
100
AcDbSymbolTable
 70
     1
100
AcDbDimStyleTable
  0
DIMSTYLE
105
27
330
A
100
AcDbSymbolTableRecord
100
AcDbDimStyleTableRecord
  2
ISO-25
 70
     0
 41
2.5
 42
0.625
 43
3.75
 44
1.25
 73
     0
 74
     0
 77
     1
 78
     8
140
2.5
141
2.5
143
0.03937007874016
147
0.625
171
     3
172
     1
178
     0
271
     2
272
     2
274
     3
278
    44
283
     0
284
     8
340
11
  0
ENDTAB
  0
TABLE
  2
BLOCK_RECORD
  5
1
330
0
100
AcDbSymbolTable
 70
     1
  0
BLOCK_RECORD
  5
1F
330
1
100
AcDbSymbolTableRecord
100
AcDbBlockTableRecord
  2
*Model_Space
340
22
 70
     0
280
     1
281
     0
  0
BLOCK_RECORD
  5
1B
330
1
100
AcDbSymbolTableRecord
100
AcDbBlockTableRecord
  2
*Paper_Space
340
1E
 70
     0
280
     1
281
     0
  0
BLOCK_RECORD
  5
23
330
1
100
AcDbSymbolTableRecord
100
AcDbBlockTableRecord
  2
*Paper_Space0
340
26
 70
     0
280
     1
281
     0
  0
ENDTAB
  0
ENDSEC
  0
SECTION
  2
BLOCKS
  0
BLOCK
  5
20
330
1F
100
AcDbEntity
  8
0
100
AcDbBlockBegin
  2
*Model_Space
 70
     0
 10
0.0
 20
0.0
 30
0.0
  3
*Model_Space
  1

  0
ENDBLK
  5
21
330
1F
100
AcDbEntity
  8
0
100
AcDbBlockEnd
  0
BLOCK
  5
1C
330
1B
100
AcDbEntity
 67
     1
  8
0
100
AcDbBlockBegin
  2
*Paper_Space
 70
     0
 10
0.0
 20
0.0
 30
0.0
  3
*Paper_Space
  1

  0
ENDBLK
  5
1D
330
1B
100
AcDbEntity
 67
     1
  8
0
100
AcDbBlockEnd
  0
BLOCK
  5
24
330
23
100
AcDbEntity
  8
0
100
AcDbBlockBegin
  2
*Paper_Space0
 70
     0
 10
0.0
 20
0.0
 30
0.0
  3
*Paper_Space0
  1

  0
ENDBLK
  5
25
330
23
100
AcDbEntity
  8
0
100
AcDbBlockEnd
  0
ENDSEC
  0
SECTION
  2
ENTITIES
  0
LWPOLYLINE
  5
42
330
1F
100
AcDbEntity
  8
寸法
  6
Continuous
 62
     7
370
     9
100
AcDbPolyline
 90
        4
 70
     1
 43
3.0
 10
-1932.87987792627
 20
1243.207386363638
 42
0.4142135623731
 10
-1934.37987792627
 20
1244.707386363638
 42
0.4142135623731
 10
-1935.87987792627
 20
1243.207386363638
 42
0.4142135623731
 10
-1934.37987792627
 20
1241.707386363638
 42
0.4142135623731
  0
LINE
  5
43
330
1F
100
AcDbEntity
  8
寸法
  6
Continuous
 62
   120
370
     5
100
AcDbLine
 10
-1934.37987792627
 20
1243.207386363638
 30
0.0
 11
-1534.37987792627
 21
1243.207386363638
 31
0.0
  0
LINE
  5
44
330
1F
100
AcDbEntity
  8
寸法
  6
Continuous
 62
   120
370
     5
100
AcDbLine
 10
-1934.37987792627
 20
1243.207386363638
 30
0.0
 11
-1934.37987792627
 21
-803.7926136363625
 31
0.0
  0
LINE
  5
45
330
1F
100
AcDbEntity
  8
寸法
  6
Continuous
 62
   120
370
     5
100
AcDbLine
 10
-1934.37987792627
 20
-803.7926136363625
 30
0.0
 11
-1534.37987792627
 21
-803.7926136363625
 31
0.0
  0
LINE
  5
46
330
1F
100
AcDbEntity
  8
寸法
  6
Continuous
 62
   120
370
     5
100
AcDbLine
 10
-1734.379877926269
 20
-783.7926136363619
 30
0.0
 11
-1534.37987792627
 21
-783.7926136363619
 31
0.0
  0
LWPOLYLINE
  5
47
330
1F
100
AcDbEntity
  8
寸法
  6
Continuous
 62
     7
370
     9
100
AcDbPolyline
 90
        4
 70
     1
 43
3.0
 10
-1932.87987792627
 20
-803.7926136363625
 42
0.4142135623731
 10
-1934.37987792627
 20
-802.2926136363625
 42
0.4142135623731
 10
-1935.87987792627
 20
-803.7926136363625
 42
0.4142135623731
 10
-1934.37987792627
 20
-805.2926136363625
 42
0.4142135623731
  0
LWPOLYLINE
  5
48
330
1F
100
AcDbEntity
  8
寸法
  6
Continuous
 62
     7
370
     9
100
AcDbPolyline
 90
        4
 70
     1
 43
3.0
 10
-1732.879877926269
 20
-783.7926136363619
 42
0.4142135623731
 10
-1734.379877926269
 20
-782.2926136363619
 42
0.4142135623731
 10
-1735.879877926269
 20
-783.7926136363619
 42
0.4142135623731
 10
-1734.379877926269
 20
-785.2926136363619
 42
0.4142135623731
  0
LWPOLYLINE
  5
49
330
1F
100
AcDbEntity
  8
寸法
  6
Continuous
 62
     7
370
     9
100
AcDbPolyline
 90
        4
 70
     1
 43
3.0
 10
-1732.879877926269
 20
1199.207386363637
 42
0.4142135623731
 10
-1734.379877926269
 20
1200.707386363637
 42
0.4142135623731
 10
-1735.879877926269
 20
1199.207386363637
 42
0.4142135623731
 10
-1734.379877926269
 20
1197.707386363637
 42
0.4142135623731
  0
LINE
  5
4A
330
1F
100
AcDbEntity
  8
寸法
  6
Continuous
 62
   120
370
     5
100
AcDbLine
 10
-1734.379877926269
 20
1199.207386363637
 30
0.0
 11
-1734.379877926269
 21
-783.7926136363619
 31
0.0
  0
LINE
  5
4B
330
1F
100
AcDbEntity
  8
寸法
  6
Continuous
 62
   120
370
     5
100
AcDbLine
 10
-1734.379877926269
 20
1199.207386363637
 30
0.0
 11
-1534.37987792627
 21
1199.207386363637
 31
0.0
  0
LINE
  5
4C
330
1F
100
AcDbEntity
  8
寸法
  6
Continuous
 62
   120
370
     5
100
AcDbLine
 10
-1454.379877926269
 20
-1253.792613636362
 30
0.0
 11
-1454.379877926269
 21
-853.7926136363631
 31
0.0
  0
LINE
  5
4D
330
1F
100
AcDbEntity
  8
寸法
  6
Continuous
 62
   120
370
     5
100
AcDbLine
 10
-1484.379877926269
 20
-1453.792613636363
 30
0.0
 11
-1484.379877926269
 21
-853.7926136363631
 31
0.0
  0
LINE
  5
4E
330
1F
100
AcDbEntity
  8
寸法
  6
Continuous
 62
   120
370
     5
100
AcDbLine
 10
132.6201220737308
 20
-1053.792613636362
 30
0.0
 11
132.6201220737308
 21
-853.7926136363631
 31
0.0
  0
LINE
  5
4F
330
1F
100
AcDbEntity
  8
寸法
  6
Continuous
 62
   120
370
     5
100
AcDbLine
 10
-677.3798779262692
 20
-1053.792613636362
 30
0.0
 11
-677.3798779262692
 21
-853.7926136363631
 31
0.0
  0
LINE
  5
50
330
1F
100
AcDbEntity
  8
寸法
  6
Continuous
 62
   120
370
     5
100
AcDbLine
 10
-677.3798779262692
 20
-1053.792613636362
 30
0.0
 11
942.6201220737308
 21
-1053.792613636362
 31
0.0
  0
LINE
  5
51
330
1F
100
AcDbEntity
  8
寸法
  6
Continuous
 62
   120
370
     5
100
AcDbLine
 10
-1454.379877926269
 20
-1253.792613636362
 30
0.0
 11
1719.620122073731
 21
-1253.792613636362
 31
0.0
  0
LINE
  5
52
330
1F
100
AcDbEntity
  8
寸法
  6
Continuous
 62
   120
370
     5
100
AcDbLine
 10
1719.620122073731
 20
-1253.792613636362
 30
0.0
 11
1719.620122073731
 21
-853.7926136363631
 31
0.0
  0
LINE
  5
53
330
1F
100
AcDbEntity
  8
寸法
  6
Continuous
 62
   120
370
     5
100
AcDbLine
 10
-1484.379877926269
 20
-1453.792613636363
 30
0.0
 11
1749.620122073731
 21
-1453.792613636362
 31
0.0
  0
LINE
  5
54
330
1F
100
AcDbEntity
  8
寸法
  6
Continuous
 62
   120
370
     5
100
AcDbLine
 10
1749.620122073731
 20
-1453.792613636362
 30
0.0
 11
1749.620122073731
 21
-853.7926136363631
 31
0.0
  0
LINE
  5
55
330
1F
100
AcDbEntity
  8
寸法
  6
Continuous
 62
   120
370
     5
100
AcDbLine
 10
942.6201220737308
 20
-1053.792613636362
 30
0.0
 11
942.6201220737308
 21
-853.7926136363631
 31
0.0
  0
LWPOLYLINE
  5
56
330
1F
100
AcDbEntity
  8
寸法
  6
Continuous
 62
     7
370
     9
100
AcDbPolyline
 90
        4
 70
     1
 43
3.0
 10
-1452.87987792627
 20
-1253.792613636362
 42
0.4142135623731
 10
-1454.379877926269
 20
-1252.292613636363
 42
0.4142135623731
 10
-1455.879877926269
 20
-1253.792613636362
 42
0.4142135623731
 10
-1454.379877926269
 20
-1255.292613636362
 42
0.4142135623731
  0
LWPOLYLINE
  5
57
330
1F
100
AcDbEntity
  8
寸法
  6
Continuous
 62
     7
370
     9
100
AcDbPolyline
 90
        4
 70
     1
 43
3.0
 10
-1482.87987792627
 20
-1453.792613636363
 42
0.4142135623731
 10
-1484.379877926269
 20
-1452.292613636363
 42
0.4142135623731
 10
-1485.879877926269
 20
-1453.792613636363
 42
0.4142135623731
 10
-1484.379877926269
 20
-1455.292613636363
 42
0.4142135623731
  0
LWPOLYLINE
  5
58
330
1F
100
AcDbEntity
  8
寸法
  6
Continuous
 62
     7
370
     9
100
AcDbPolyline
 90
        4
 70
     1
 43
3.0
 10
134.1201220737308
 20
-1053.792613636362
 42
0.4142135623731
 10
132.6201220737308
 20
-1052.292613636362
 42
0.4142135623731
 10
131.1201220737308
 20
-1053.792613636362
 42
0.4142135623731
 10
132.6201220737308
 20
-1055.292613636362
 42
0.4142135623731
  0
LWPOLYLINE
  5
59
330
1F
100
AcDbEntity
  8
寸法
  6
Continuous
 62
     7
370
     9
100
AcDbPolyline
 90
        4
 70
     1
 43
3.0
 10
-675.8798779262692
 20
-1053.792613636362
 42
0.4142135623731
 10
-677.3798779262692
 20
-1052.292613636362
 42
0.4142135623731
 10
-678.8798779262692
 20
-1053.792613636362
 42
0.4142135623731
 10
-677.3798779262692
 20
-1055.292613636362
 42
0.4142135623731
  0
LWPOLYLINE
  5
5A
330
1F
100
AcDbEntity
  8
寸法
  6
Continuous
 62
     7
370
     9
100
AcDbPolyline
 90
        4
 70
     1
 43
3.0
 10
1721.120122073731
 20
-1253.792613636362
 42
0.4142135623731
 10
1719.620122073731
 20
-1252.292613636363
 42
0.4142135623731
 10
1718.120122073731
 20
-1253.792613636362
 42
0.4142135623731
 10
1719.620122073731
 20
-1255.292613636362
 42
0.4142135623731
  0
LWPOLYLINE
  5
5B
330
1F
100
AcDbEntity
  8
寸法
  6
Continuous
 62
     7
370
     9
100
AcDbPolyline
 90
        4
 70
     1
 43
3.0
 10
1751.120122073731
 20
-1453.792613636362
 42
0.4142135623731
 10
1749.620122073731
 20
-1452.292613636362
 42
0.4142135623731
 10
1748.120122073731
 20
-1453.792613636362
 42
0.4142135623731
 10
1749.620122073731
 20
-1455.292613636362
 42
0.4142135623731
  0
LWPOLYLINE
  5
5C
330
1F
100
AcDbEntity
  8
寸法
  6
Continuous
 62
     7
370
     9
100
AcDbPolyline
 90
        4
 70
     1
 43
3.0
 10
944.1201220737308
 20
-1053.792613636362
 42
0.4142135623731
 10
942.6201220737308
 20
-1052.292613636362
 42
0.4142135623731
 10
941.1201220737308
 20
-1053.792613636362
 42
0.4142135623731
 10
942.6201220737308
 20
-1055.292613636362
 42
0.4142135623731
  0
MTEXT
  5
5D
330
1F
100
AcDbEntity
  8
寸法
  6
Continuous
 62
     7
370
    70
100
AcDbMText
 10
-1949.37987792627
 20
4.532386363637762
 30
0.0
 40
57.14999999999999
 41
412.5
 46
0.0
 71
     7
 72
     1
  1
{\fＭＳ ゴシック|b0|i0|c128|p49;枠外＝2,047}
 11
6.123031769111886E-17
 21
1.0
 31
0.0
 73
     1
 44
1.0
  0
MTEXT
  5
5E
330
1F
100
AcDbEntity
  8
寸法
  6
Continuous
 62
     7
370
    70
100
AcDbMText
 10
-1749.379877926269
 20
-1.467613636361897
 30
0.0
 40
57.14999999999999
 41
412.5
 46
0.0
 71
     7
 72
     1
  1
{\fＭＳ ゴシック|b0|i0|c128|p49;ＤＨ＝1,983}
 11
6.123031769111886E-17
 21
1.0
 31
0.0
 73
     1
 44
1.0
  0
MTEXT
  5
5F
330
1F
100
AcDbEntity
  8
寸法
  6
Continuous
 62
     7
370
   211
100
AcDbMText
 10
-441.1298779262692
 20
-1047.717613636362
 30
0.0
 40
57.15
 41
337.5
 46
0.0
 71
     7
 72
     1
  1
{\fＭＳ ゴシック|b0|i0|c128|p49;ＤＷ＝810}
 73
     1
 44
1.0
  0
MTEXT
  5
60
330
1F
100
AcDbEntity
  8
寸法
  6
Continuous
 62
     7
370
   211
100
AcDbMText
 10
368.8701220737308
 20
-1047.717613636362
 30
0.0
 40
57.15
 41
337.5
 46
0.0
 71
     7
 72
     1
  1
{\fＭＳ ゴシック|b0|i0|c128|p49;ＤＷ＝810}
 73
     1
 44
1.0
  0
MTEXT
  5
61
330
1F
100
AcDbEntity
  8
寸法
  6
Continuous
 62
     7
370
   211
100
AcDbMText
 10
-73.62987792627024
 20
-1247.717613636362
 30
0.0
 40
57.15000000000006
 41
412.5000000000005
 46
0.0
 71
     7
 72
     1
  1
{\fＭＳ ゴシック|b0|i0|c128|p49;枠内＝3,174}
 73
     1
 44
1.0
  0
MTEXT
  5
62
330
1F
100
AcDbEntity
  8
寸法
  6
Continuous
 62
     7
370
   211
100
AcDbMText
 10
-73.62987792627024
 20
-1447.717613636363
 30
0.0
 40
57.15000000000006
 41
412.5000000000005
 46
0.0
 71
     7
 72
     1
  1
{\fＭＳ ゴシック|b0|i0|c128|p49;枠外＝3,234}
 73
     1
 44
1.0
  0
LINE
  5
63
330
1F
100
AcDbEntity
  8
0-0
  6
Continuous
 62
    92
370
    13
100
AcDbLine
 10
-1484.379877926269
 20
1243.207386363638
 30
0.0
 11
1749.620122073731
 21
1243.207386363638
 31
0.0
  0
LINE
  5
64
330
1F
100
AcDbEntity
  8
0-0
  6
Continuous
 62
    92
370
    13
100
AcDbLine
 10
-1454.379877926269
 20
1207.207386363637
 30
0.0
 11
1719.620122073731
 21
1207.207386363637
 31
0.0
  0
LINE
  5
65
330
1F
100
AcDbEntity
  8
0-0
  6
Continuous
 62
    92
370
    13
100
AcDbLine
 10
1719.620122073731
 20
-803.7926136363625
 30
0.0
 11
1719.620122073731
 21
1243.207386363638
 31
0.0
  0
LINE
  5
66
330
1F
100
AcDbEntity
  8
0-0
  6
Continuous
 62
    92
370
    13
100
AcDbLine
 10
-1454.379877926269
 20
-803.7926136363625
 30
0.0
 11
-1454.379877926269
 21
1243.207386363638
 31
0.0
  0
LINE
  5
67
330
1F
100
AcDbEntity
  8
0-0
  6
Continuous
 62
    92
370
    13
100
AcDbLine
 10
1749.620122073731
 20
-803.7926136363625
 30
0.0
 11
1749.620122073731
 21
1243.207386363638
 31
0.0
  0
LINE
  5
68
330
1F
100
AcDbEntity
  8
0-0
  6
Continuous
 62
    92
370
    13
100
AcDbLine
 10
-1484.379877926269
 20
-803.7926136363625
 30
0.0
 11
-1484.379877926269
 21
1243.207386363638
 31
0.0
  0
LINE
  5
69
330
1F
100
AcDbEntity
  8
0-0
  6
Continuous
 62
    92
370
    13
100
AcDbLine
 10
1749.620122073731
 20
-803.7926136363625
 30
0.0
 11
-1484.379877926269
 21
-803.7926136363625
 31
0.0
  0
LINE
  5
6A
330
1F
100
AcDbEntity
  8
0-0
  6
Continuous
 62
    92
370
    13
100
AcDbLine
 10
1719.620122073731
 20
-788.7926136363625
 30
0.0
 11
-1454.379877926269
 21
-788.7926136363625
 31
0.0
  0
ARC
  5
6B
330
1F
100
AcDbEntity
  8
0-0
  6
Continuous
 62
    92
370
    13
100
AcDbCircle
 10
62.1201220737327
 20
233.2073863636383
 30
0.0
 40
1.5
100
AcDbArc
 50
90.0
 51
180.0
  0
LINE
  5
6C
330
1F
100
AcDbEntity
  8
0-0
  6
Continuous
 62
    92
370
    13
100
AcDbLine
 10
101.1201220737313
 20
234.7073863636378
 30
0.0
 11
62.1201220737327
 21
234.7073863636378
 31
0.0
  0
ARC
  5
6D
330
1F
100
AcDbEntity
  8
0-0
  6
Continuous
 62
    92
370
    13
100
AcDbCircle
 10
101.1201220737313
 20
233.2073863636383
 30
0.0
 40
1.5
100
AcDbArc
 50
0.0
 51
90.00000000000001
  0
LINE
  5
6E
330
1F
100
AcDbEntity
  8
0-0
  6
Continuous
 62
    92
370
    13
100
AcDbLine
 10
102.6201220737315
 20
114.2073863636382
 30
0.0
 11
102.6201220737315
 21
233.2073863636383
 31
0.0
  0
ARC
  5
6F
330
1F
100
AcDbEntity
  8
0-0
  6
Continuous
 62
    92
370
    13
100
AcDbCircle
 10
101.1201220737313
 20
114.2073863636382
 30
0.0
 40
1.5
100
AcDbArc
 50
270.0
 51
0.0
  0
LINE
  5
70
330
1F
100
AcDbEntity
  8
0-0
  6
Continuous
 62
    92
370
    13
100
AcDbLine
 10
62.1201220737327
 20
112.7073863636362
 30
0.0
 11
101.1201220737313
 21
112.7073863636362
 31
0.0
  0
LINE
  5
71
330
1F
100
AcDbEntity
  8
0-0
  6
Continuous
 62
    92
370
    13
100
AcDbLine
 10
60.62012207373236
 20
114.2073863636382
 30
0.0
 11
60.62012207373236
 21
233.2073863636383
 31
0.0
  0
ARC
  5
72
330
1F
100
AcDbEntity
  8
0-0
  6
Continuous
 62
    92
370
    13
100
AcDbCircle
 10
62.1201220737327
 20
114.2073863636382
 30
0.0
 40
1.5
100
AcDbArc
 50
180.0
 51
270.0
  0
ARC
  5
73
330
1F
100
AcDbEntity
  8
0-0
  6
Continuous
 62
     7
370
     9
100
AcDbCircle
 10
81.62012207373202
 20
144.1073863636383
 30
0.0
 40
15.0
100
AcDbArc
 50
180.0
 51
0.0
  0
ARC
  5
74
330
1F
100
AcDbEntity
  8
0-0
  6
Continuous
 62
     7
370
     9
100
AcDbCircle
 10
81.62012207373202
 20
203.3073863636382
 30
0.0
 40
15.0
100
AcDbArc
 50
0.0
 51
180.0
  0
LINE
  5
75
330
1F
100
AcDbEntity
  8
0-0
  6
Continuous
 62
     7
370
     9
100
AcDbLine
 10
96.62012207373202
 20
144.1073863636383
 30
0.0
 11
96.62012207373202
 21
203.3073863636382
 31
0.0
  0
LINE
  5
76
330
1F
100
AcDbEntity
  8
0-0
  6
Continuous
 62
     7
370
     9
100
AcDbLine
 10
66.62012207373202
 20
203.3073863636382
 30
0.0
 11
66.62012207373202
 21
144.1073863636383
 31
0.0
  0
ARC
  5
77
330
1F
100
AcDbEntity
  8
0-0
  6
Continuous
 62
    92
370
    13
100
AcDbCircle
 10
164.1201220737286
 20
233.2073863636383
 30
0.0
 40
1.5
100
AcDbArc
 50
90.0
 51
180.0
  0
LINE
  5
78
330
1F
100
AcDbEntity
  8
0-0
  6
Continuous
 62
    92
370
    13
100
AcDbLine
 10
203.1201220737307
 20
234.7073863636378
 30
0.0
 11
164.1201220737286
 21
234.7073863636378
 31
0.0
  0
ARC
  5
79
330
1F
100
AcDbEntity
  8
0-0
  6
Continuous
 62
    92
370
    13
100
AcDbCircle
 10
203.1201220737307
 20
233.2073863636383
 30
0.0
 40
1.5
100
AcDbArc
 50
0.0
 51
90.00000000000001
  0
LINE
  5
7A
330
1F
100
AcDbEntity
  8
0-0
  6
Continuous
 62
    92
370
    13
100
AcDbLine
 10
204.6201220737293
 20
114.2073863636382
 30
0.0
 11
204.6201220737293
 21
233.2073863636383
 31
0.0
  0
ARC
  5
7B
330
1F
100
AcDbEntity
  8
0-0
  6
Continuous
 62
    92
370
    13
100
AcDbCircle
 10
203.1201220737307
 20
114.2073863636382
 30
0.0
 40
1.5
100
AcDbArc
 50
270.0
 51
0.0
  0
LINE
  5
7C
330
1F
100
AcDbEntity
  8
0-0
  6
Continuous
 62
    92
370
    13
100
AcDbLine
 10
164.1201220737286
 20
112.7073863636362
 30
0.0
 11
203.1201220737307
 21
112.7073863636362
 31
0.0
  0
LINE
  5
7D
330
1F
100
AcDbEntity
  8
0-0
  6
Continuous
 62
    92
370
    13
100
AcDbLine
 10
162.6201220737308
 20
114.2073863636382
 30
0.0
 11
162.6201220737308
 21
233.2073863636383
 31
0.0
  0
ARC
  5
7E
330
1F
100
AcDbEntity
  8
0-0
  6
Continuous
 62
    92
370
    13
100
AcDbCircle
 10
164.1201220737286
 20
114.2073863636382
 30
0.0
 40
1.5
100
AcDbArc
 50
180.0
 51
270.0
  0
ARC
  5
7F
330
1F
100
AcDbEntity
  8
0-0
  6
Continuous
 62
     7
370
     9
100
AcDbCircle
 10
183.6201220737296
 20
144.1073863636383
 30
0.0
 40
15.0
100
AcDbArc
 50
180.0
 51
0.0
  0
ARC
  5
80
330
1F
100
AcDbEntity
  8
0-0
  6
Continuous
 62
     7
370
     9
100
AcDbCircle
 10
183.6201220737296
 20
203.3073863636382
 30
0.0
 40
15.0
100
AcDbArc
 50
0.0
 51
180.0
  0
LINE
  5
81
330
1F
100
AcDbEntity
  8
0-0
  6
Continuous
 62
     7
370
     9
100
AcDbLine
 10
198.6201220737296
 20
144.1073863636383
 30
0.0
 11
198.6201220737296
 21
203.3073863636382
 31
0.0
  0
LINE
  5
82
330
1F
100
AcDbEntity
  8
0-0
  6
Continuous
 62
     7
370
     9
100
AcDbLine
 10
168.6201220737296
 20
203.3073863636382
 30
0.0
 11
168.6201220737296
 21
144.1073863636383
 31
0.0
  0
LINE
  5
83
330
1F
100
AcDbEntity
  8
0-0
  6
Continuous
 62
    92
370
    13
100
AcDbLine
 10
-677.3798779262692
 20
-783.7926136363627
 30
0.0
 11
-677.3798779262692
 21
1199.207386363637
 31
0.0
  0
LINE
  5
84
330
1F
100
AcDbEntity
  8
0-0
  6
JWW_DASHED1
 62
   120
370
     5
100
AcDbLine
 10
-647.3798779262692
 20
-783.7926136363627
 30
0.0
 11
-647.3798779262692
 21
1199.207386363637
 31
0.0
  0
LINE
  5
85
330
1F
100
AcDbEntity
  8
0-0
  6
Continuous
 62
    92
370
    13
100
AcDbLine
 10
-677.3798779262692
 20
-783.7926136363627
 30
0.0
 11
132.6201220737308
 21
-783.7926136363627
 31
0.0
  0
LINE
  5
86
330
1F
100
AcDbEntity
  8
0-0
  6
Continuous
 62
    92
370
    13
100
AcDbLine
 10
-677.3798779262692
 20
1199.207386363637
 30
0.0
 11
132.6201220737308
 21
1199.207386363637
 31
0.0
  0
LINE
  5
87
330
1F
100
AcDbEntity
  8
0-0
  6
Continuous
 62
    92
370
    13
100
AcDbLine
 10
132.6201220737308
 20
-783.7926136363627
 30
0.0
 11
132.6201220737308
 21
1199.207386363637
 31
0.0
  0
LINE
  5
88
330
1F
100
AcDbEntity
  8
0-0
  6
Continuous
 62
    92
370
    13
100
AcDbLine
 10
942.6201220737308
 20
-783.7926136363627
 30
0.0
 11
942.6201220737308
 21
1199.207386363637
 31
0.0
  0
LINE
  5
89
330
1F
100
AcDbEntity
  8
0-0
  6
JWW_DASHED1
 62
   120
370
     5
100
AcDbLine
 10
912.6201220737308
 20
-783.7926136363627
 30
0.0
 11
912.6201220737308
 21
1199.207386363637
 31
0.0
  0
LINE
  5
8A
330
1F
100
AcDbEntity
  8
0-0
  6
Continuous
 62
    92
370
    13
100
AcDbLine
 10
942.6201220737308
 20
-783.7926136363627
 30
0.0
 11
132.6201220737308
 21
-783.7926136363627
 31
0.0
  0
LINE
  5
8B
330
1F
100
AcDbEntity
  8
0-0
  6
Continuous
 62
    92
370
    13
100
AcDbLine
 10
942.6201220737308
 20
1199.207386363637
 30
0.0
 11
132.6201220737308
 21
1199.207386363637
 31
0.0
  0
LINE
  5
8C
330
1F
100
AcDbEntity
  8
0-0
  6
JWW_DASHED1
 62
   120
370
     5
100
AcDbLine
 10
912.6201220737316
 20
-788.7926136363633
 30
0.0
 11
912.6201220737316
 21
1207.207386363637
 31
0.0
  0
LINE
  5
8D
330
1F
100
AcDbEntity
  8
0-0
  6
JWW_DASHED1
 62
   120
370
     5
100
AcDbLine
 10
942.6201220737316
 20
-788.7926136363633
 30
0.0
 11
942.6201220737316
 21
1207.207386363637
 31
0.0
  0
LINE
  5
8E
330
1F
100
AcDbEntity
  8
0-0
  6
JWW_DASHED1
 62
   120
370
     5
100
AcDbLine
 10
-677.3798779262684
 20
-788.7926136363633
 30
0.0
 11
-677.3798779262684
 21
1207.207386363637
 31
0.0
  0
LINE
  5
8F
330
1F
100
AcDbEntity
  8
0-0
  6
JWW_DASHED1
 62
   120
370
     5
100
AcDbLine
 10
-647.3798779262684
 20
-788.7926136363633
 30
0.0
 11
-647.3798779262684
 21
1207.207386363637
 31
0.0
  0
LINE
  5
90
330
1F
100
AcDbEntity
  8
0-0
  6
Continuous
 62
     7
370
     9
100
AcDbLine
 10
-558.8798779262687
 20
-633.7926136363627
 30
0.0
 11
-573.8798779262687
 21
-648.7926136363627
 31
0.0
  0
LINE
  5
91
330
1F
100
AcDbEntity
  8
0-0
  6
Continuous
 62
     7
370
     9
100
AcDbLine
 10
-573.8798779262687
 20
1079.207386363637
 30
0.0
 11
-558.8798779262687
 21
1064.207386363637
 31
0.0
  0
LINE
  5
92
330
1F
100
AcDbEntity
  8
0-0
  6
Continuous
 62
     7
370
     9
100
AcDbLine
 10
-573.8798779262687
 20
-783.7926136363627
 30
0.0
 11
-573.8798779262687
 21
1199.207386363637
 31
0.0
  0
LINE
  5
93
330
1F
100
AcDbEntity
  8
0-0
  6
Continuous
 62
     7
370
     9
100
AcDbLine
 10
14.1201220737301
 20
-633.7926136363627
 30
0.0
 11
29.1201220737301
 21
-648.7926136363627
 31
0.0
  0
LINE
  5
94
330
1F
100
AcDbEntity
  8
0-0
  6
Continuous
 62
     7
370
     9
100
AcDbLine
 10
29.1201220737301
 20
1079.207386363637
 30
0.0
 11
14.1201220737301
 21
1064.207386363637
 31
0.0
  0
LINE
  5
95
330
1F
100
AcDbEntity
  8
0-0
  6
Continuous
 62
     7
370
     9
100
AcDbLine
 10
29.1201220737301
 20
-783.7926136363627
 30
0.0
 11
29.1201220737301
 21
1199.207386363637
 31
0.0
  0
LINE
  5
96
330
1F
100
AcDbEntity
  8
0-0
  6
Continuous
 62
     7
370
     9
100
AcDbLine
 10
-573.8798779262687
 20
1079.207386363637
 30
0.0
 11
29.1201220737301
 21
1079.207386363637
 31
0.0
  0
LINE
  5
97
330
1F
100
AcDbEntity
  8
0-0
  6
Continuous
 62
     7
370
     9
100
AcDbLine
 10
-573.8798779262687
 20
-648.7926136363627
 30
0.0
 11
29.1201220737301
 21
-648.7926136363627
 31
0.0
  0
LINE
  5
98
330
1F
100
AcDbEntity
  8
0-0
  6
Continuous
 62
     7
370
     9
100
AcDbLine
 10
-558.8798779262687
 20
-110.7926136363627
 30
0.0
 11
-573.8798779262687
 21
-125.7926136363627
 31
0.0
  0
LINE
  5
99
330
1F
100
AcDbEntity
  8
0-0
  6
Continuous
 62
     7
370
     9
100
AcDbLine
 10
-573.8798779262687
 20
-200.7926136363627
 30
0.0
 11
-558.8798779262687
 21
-215.7926136363627
 31
0.0
  0
LINE
  5
9A
330
1F
100
AcDbEntity
  8
0-0
  6
Continuous
 62
     7
370
     9
100
AcDbLine
 10
14.1201220737301
 20
-110.7926136363627
 30
0.0
 11
29.1201220737301
 21
-125.7926136363627
 31
0.0
  0
LINE
  5
9B
330
1F
100
AcDbEntity
  8
0-0
  6
Continuous
 62
     7
370
     9
100
AcDbLine
 10
29.1201220737301
 20
-200.7926136363627
 30
0.0
 11
14.1201220737301
 21
-215.7926136363627
 31
0.0
  0
LINE
  5
9C
330
1F
100
AcDbEntity
  8
0-0
  6
Continuous
 62
     7
370
     9
100
AcDbLine
 10
-573.8798779262687
 20
-125.7926136363627
 30
0.0
 11
29.1201220737301
 21
-125.7926136363627
 31
0.0
  0
LINE
  5
9D
330
1F
100
AcDbEntity
  8
0-0
  6
Continuous
 62
     7
370
     9
100
AcDbLine
 10
-573.8798779262687
 20
-200.7926136363627
 30
0.0
 11
29.1201220737301
 21
-200.7926136363627
 31
0.0
  0
LINE
  5
9E
330
1F
100
AcDbEntity
  8
0-0
  6
Continuous
 62
     7
370
     9
100
AcDbLine
 10
-528.8798779262687
 20
-603.7926136363627
 30
0.0
 11
-528.8798779262687
 21
-245.7926136363627
 31
0.0
  0
LINE
  5
9F
330
1F
100
AcDbEntity
  8
0-0
  6
Continuous
 62
     7
370
     9
100
AcDbLine
 10
-528.8798779262687
 20
-603.7926136363627
 30
0.0
 11
-543.8798779262687
 21
-618.7926136363627
 31
0.0
  0
LINE
  5
A0
330
1F
100
AcDbEntity
  8
0-0
  6
Continuous
 62
     7
370
     9
100
AcDbLine
 10
-543.8798779262687
 20
-230.7926136363627
 30
0.0
 11
-528.8798779262687
 21
-245.7926136363627
 31
0.0
  0
LINE
  5
A1
330
1F
100
AcDbEntity
  8
0-0
  6
Continuous
 62
     7
370
     9
100
AcDbLine
 10
-15.8798779262699
 20
-603.7926136363627
 30
0.0
 11
-0.8798779262698986
 21
-618.7926136363627
 31
0.0
  0
LINE
  5
A2
330
1F
100
AcDbEntity
  8
0-0
  6
Continuous
 62
     7
370
     9
100
AcDbLine
 10
-0.8798779262698986
 20
-230.7926136363627
 30
0.0
 11
-15.8798779262699
 21
-245.7926136363627
 31
0.0
  0
LINE
  5
A3
330
1F
100
AcDbEntity
  8
0-0
  6
Continuous
 62
     7
370
     9
100
AcDbLine
 10
-528.8798779262687
 20
-245.7926136363627
 30
0.0
 11
-15.8798779262699
 21
-245.7926136363627
 31
0.0
  0
LINE
  5
A4
330
1F
100
AcDbEntity
  8
0-0
  6
Continuous
 62
     7
370
     9
100
AcDbLine
 10
-15.8798779262699
 20
-603.7926136363627
 30
0.0
 11
-15.8798779262699
 21
-245.7926136363627
 31
0.0
  0
LINE
  5
A5
330
1F
100
AcDbEntity
  8
0-0
  6
Continuous
 62
     7
370
     9
100
AcDbLine
 10
-528.8798779262687
 20
-603.7926136363627
 30
0.0
 11
-15.8798779262699
 21
-603.7926136363627
 31
0.0
  0
LINE
  5
A6
330
1F
100
AcDbEntity
  8
0-0
  6
Continuous
 62
    92
370
    13
100
AcDbLine
 10
-558.8798779262687
 20
1064.207386363637
 30
0.0
 11
14.1201220737301
 21
1064.207386363637
 31
0.0
  0
LINE
  5
A7
330
1F
100
AcDbEntity
  8
0-0
  6
Continuous
 62
    92
370
    13
100
AcDbLine
 10
-558.8798779262687
 20
-633.7926136363627
 30
0.0
 11
14.1201220737301
 21
-633.7926136363627
 31
0.0
  0
LINE
  5
A8
330
1F
100
AcDbEntity
  8
0-0
  6
Continuous
 62
    92
370
    13
100
AcDbLine
 10
-558.8798779262687
 20
-110.7926136363627
 30
0.0
 11
14.1201220737301
 21
-110.7926136363627
 31
0.0
  0
LINE
  5
A9
330
1F
100
AcDbEntity
  8
0-0
  6
Continuous
 62
    92
370
    13
100
AcDbLine
 10
-558.8798779262687
 20
-215.7926136363627
 30
0.0
 11
14.1201220737301
 21
-215.7926136363627
 31
0.0
  0
LINE
  5
AA
330
1F
100
AcDbEntity
  8
0-0
  6
Continuous
 62
    92
370
    13
100
AcDbLine
 10
-558.8798779262687
 20
-110.7926136363627
 30
0.0
 11
-558.8798779262687
 21
1064.207386363637
 31
0.0
  0
LINE
  5
AB
330
1F
100
AcDbEntity
  8
0-0
  6
Continuous
 62
    92
370
    13
100
AcDbLine
 10
-558.8798779262687
 20
-633.7926136363627
 30
0.0
 11
-558.8798779262687
 21
-215.7926136363627
 31
0.0
  0
LINE
  5
AC
330
1F
100
AcDbEntity
  8
0-0
  6
Continuous
 62
    92
370
    13
100
AcDbLine
 10
14.1201220737301
 20
-110.7926136363627
 30
0.0
 11
14.1201220737301
 21
1064.207386363637
 31
0.0
  0
LINE
  5
AD
330
1F
100
AcDbEntity
  8
0-0
  6
Continuous
 62
    92
370
    13
100
AcDbLine
 10
14.1201220737301
 20
-633.7926136363627
 30
0.0
 11
14.1201220737301
 21
-215.7926136363627
 31
0.0
  0
LINE
  5
AE
330
1F
100
AcDbEntity
  8
0-0
  6
Continuous
 62
     7
370
     9
100
AcDbLine
 10
251.1201220737314
 20
-633.7926136363627
 30
0.0
 11
236.1201220737314
 21
-648.7926136363627
 31
0.0
  0
LINE
  5
AF
330
1F
100
AcDbEntity
  8
0-0
  6
Continuous
 62
     7
370
     9
100
AcDbLine
 10
236.1201220737314
 20
1079.207386363637
 30
0.0
 11
251.1201220737314
 21
1064.207386363637
 31
0.0
  0
LINE
  5
B0
330
1F
100
AcDbEntity
  8
0-0
  6
Continuous
 62
     7
370
     9
100
AcDbLine
 10
236.1201220737314
 20
-783.7926136363627
 30
0.0
 11
236.1201220737314
 21
1199.207386363637
 31
0.0
  0
LINE
  5
B1
330
1F
100
AcDbEntity
  8
0-0
  6
Continuous
 62
     7
370
     9
100
AcDbLine
 10
824.1201220737303
 20
-633.7926136363627
 30
0.0
 11
839.1201220737303
 21
-648.7926136363627
 31
0.0
  0
LINE
  5
B2
330
1F
100
AcDbEntity
  8
0-0
  6
Continuous
 62
     7
370
     9
100
AcDbLine
 10
839.1201220737303
 20
1079.207386363637
 30
0.0
 11
824.1201220737303
 21
1064.207386363637
 31
0.0
  0
LINE
  5
B3
330
1F
100
AcDbEntity
  8
0-0
  6
Continuous
 62
     7
370
     9
100
AcDbLine
 10
839.1201220737303
 20
-783.7926136363627
 30
0.0
 11
839.1201220737303
 21
1199.207386363637
 31
0.0
  0
LINE
  5
B4
330
1F
100
AcDbEntity
  8
0-0
  6
Continuous
 62
     7
370
     9
100
AcDbLine
 10
236.1201220737314
 20
1079.207386363637
 30
0.0
 11
839.1201220737303
 21
1079.207386363637
 31
0.0
  0
LINE
  5
B5
330
1F
100
AcDbEntity
  8
0-0
  6
Continuous
 62
     7
370
     9
100
AcDbLine
 10
236.1201220737314
 20
-648.7926136363627
 30
0.0
 11
839.1201220737303
 21
-648.7926136363627
 31
0.0
  0
LINE
  5
B6
330
1F
100
AcDbEntity
  8
0-0
  6
Continuous
 62
     7
370
     9
100
AcDbLine
 10
251.1201220737314
 20
-110.7926136363627
 30
0.0
 11
236.1201220737314
 21
-125.7926136363627
 31
0.0
  0
LINE
  5
B7
330
1F
100
AcDbEntity
  8
0-0
  6
Continuous
 62
     7
370
     9
100
AcDbLine
 10
236.1201220737314
 20
-200.7926136363627
 30
0.0
 11
251.1201220737314
 21
-215.7926136363627
 31
0.0
  0
LINE
  5
B8
330
1F
100
AcDbEntity
  8
0-0
  6
Continuous
 62
     7
370
     9
100
AcDbLine
 10
824.1201220737303
 20
-110.7926136363627
 30
0.0
 11
839.1201220737303
 21
-125.7926136363627
 31
0.0
  0
LINE
  5
B9
330
1F
100
AcDbEntity
  8
0-0
  6
Continuous
 62
     7
370
     9
100
AcDbLine
 10
839.1201220737303
 20
-200.7926136363627
 30
0.0
 11
824.1201220737303
 21
-215.7926136363627
 31
0.0
  0
LINE
  5
BA
330
1F
100
AcDbEntity
  8
0-0
  6
Continuous
 62
     7
370
     9
100
AcDbLine
 10
236.1201220737314
 20
-125.7926136363627
 30
0.0
 11
839.1201220737303
 21
-125.7926136363627
 31
0.0
  0
LINE
  5
BB
330
1F
100
AcDbEntity
  8
0-0
  6
Continuous
 62
     7
370
     9
100
AcDbLine
 10
236.1201220737314
 20
-200.7926136363627
 30
0.0
 11
839.1201220737303
 21
-200.7926136363627
 31
0.0
  0
LINE
  5
BC
330
1F
100
AcDbEntity
  8
0-0
  6
Continuous
 62
     7
370
     9
100
AcDbLine
 10
281.1201220737314
 20
-603.7926136363627
 30
0.0
 11
281.1201220737314
 21
-245.7926136363627
 31
0.0
  0
LINE
  5
BD
330
1F
100
AcDbEntity
  8
0-0
  6
Continuous
 62
     7
370
     9
100
AcDbLine
 10
281.1201220737314
 20
-603.7926136363627
 30
0.0
 11
266.1201220737314
 21
-618.7926136363627
 31
0.0
  0
LINE
  5
BE
330
1F
100
AcDbEntity
  8
0-0
  6
Continuous
 62
     7
370
     9
100
AcDbLine
 10
266.1201220737314
 20
-230.7926136363627
 30
0.0
 11
281.1201220737314
 21
-245.7926136363627
 31
0.0
  0
LINE
  5
BF
330
1F
100
AcDbEntity
  8
0-0
  6
Continuous
 62
     7
370
     9
100
AcDbLine
 10
794.1201220737303
 20
-603.7926136363627
 30
0.0
 11
809.1201220737303
 21
-618.7926136363627
 31
0.0
  0
LINE
  5
C0
330
1F
100
AcDbEntity
  8
0-0
  6
Continuous
 62
     7
370
     9
100
AcDbLine
 10
809.1201220737303
 20
-230.7926136363627
 30
0.0
 11
794.1201220737303
 21
-245.7926136363627
 31
0.0
  0
LINE
  5
C1
330
1F
100
AcDbEntity
  8
0-0
  6
Continuous
 62
     7
370
     9
100
AcDbLine
 10
281.1201220737314
 20
-245.7926136363627
 30
0.0
 11
794.1201220737303
 21
-245.7926136363627
 31
0.0
  0
LINE
  5
C2
330
1F
100
AcDbEntity
  8
0-0
  6
Continuous
 62
     7
370
     9
100
AcDbLine
 10
794.1201220737303
 20
-603.7926136363627
 30
0.0
 11
794.1201220737303
 21
-245.7926136363627
 31
0.0
  0
LINE
  5
C3
330
1F
100
AcDbEntity
  8
0-0
  6
Continuous
 62
     7
370
     9
100
AcDbLine
 10
281.1201220737314
 20
-603.7926136363627
 30
0.0
 11
794.1201220737303
 21
-603.7926136363627
 31
0.0
  0
LINE
  5
C4
330
1F
100
AcDbEntity
  8
0-0
  6
Continuous
 62
    92
370
    13
100
AcDbLine
 10
251.1201220737314
 20
1064.207386363637
 30
0.0
 11
824.1201220737303
 21
1064.207386363637
 31
0.0
  0
LINE
  5
C5
330
1F
100
AcDbEntity
  8
0-0
  6
Continuous
 62
    92
370
    13
100
AcDbLine
 10
251.1201220737314
 20
-633.7926136363627
 30
0.0
 11
824.1201220737303
 21
-633.7926136363627
 31
0.0
  0
LINE
  5
C6
330
1F
100
AcDbEntity
  8
0-0
  6
Continuous
 62
    92
370
    13
100
AcDbLine
 10
251.1201220737314
 20
-110.7926136363627
 30
0.0
 11
824.1201220737303
 21
-110.7926136363627
 31
0.0
  0
LINE
  5
C7
330
1F
100
AcDbEntity
  8
0-0
  6
Continuous
 62
    92
370
    13
100
AcDbLine
 10
251.1201220737314
 20
-215.7926136363627
 30
0.0
 11
824.1201220737303
 21
-215.7926136363627
 31
0.0
  0
LINE
  5
C8
330
1F
100
AcDbEntity
  8
0-0
  6
Continuous
 62
    92
370
    13
100
AcDbLine
 10
251.1201220737314
 20
-110.7926136363627
 30
0.0
 11
251.1201220737314
 21
1064.207386363637
 31
0.0
  0
LINE
  5
C9
330
1F
100
AcDbEntity
  8
0-0
  6
Continuous
 62
    92
370
    13
100
AcDbLine
 10
251.1201220737314
 20
-633.7926136363627
 30
0.0
 11
251.1201220737314
 21
-215.7926136363627
 31
0.0
  0
LINE
  5
CA
330
1F
100
AcDbEntity
  8
0-0
  6
Continuous
 62
    92
370
    13
100
AcDbLine
 10
824.1201220737303
 20
-110.7926136363627
 30
0.0
 11
824.1201220737303
 21
1064.207386363637
 31
0.0
  0
LINE
  5
CB
330
1F
100
AcDbEntity
  8
0-0
  6
Continuous
 62
    92
370
    13
100
AcDbLine
 10
824.1201220737303
 20
-633.7926136363627
 30
0.0
 11
824.1201220737303
 21
-215.7926136363627
 31
0.0
  0
LINE
  5
CC
330
1F
100
AcDbEntity
  8
0-0
  6
JWW_DASHED1
 62
   120
370
     5
100
AcDbLine
 10
-558.8798779262696
 20
-109.7927619503062
 30
0.0
 11
14.12012207373117
 21
-109.7927619503062
 31
0.0
  0
LINE
  5
CD
330
1F
100
AcDbEntity
  8
0-0
  6
JWW_DASHED1
 62
   120
370
     5
100
AcDbLine
 10
-558.8798779262696
 20
-96.79276194920672
 30
0.0
 11
14.12012207373117
 21
-96.79276194920672
 31
0.0
  0
LINE
  5
CE
330
1F
100
AcDbEntity
  8
0-0
  6
JWW_DASHED1
 62
   120
370
     5
100
AcDbLine
 10
-558.8798779262696
 20
-95.79276194930654
 30
0.0
 11
14.12012207373117
 21
-95.79276194930654
 31
0.0
  0
LINE
  5
CF
330
1F
100
AcDbEntity
  8
0-0
  6
JWW_DASHED1
 62
   120
370
     5
100
AcDbLine
 10
-558.8798779262696
 20
-82.79276194820682
 30
0.0
 11
14.12012207373117
 21
-82.79276194820682
 31
0.0
  0
LINE
  5
D0
330
1F
100
AcDbEntity
  8
0-0
  6
JWW_DASHED1
 62
   120
370
     5
100
AcDbLine
 10
-558.8798779262696
 20
-81.79276194830663
 30
0.0
 11
14.12012207373117
 21
-81.79276194830663
 31
0.0
  0
LINE
  5
D1
330
1F
100
AcDbEntity
  8
0-0
  6
JWW_DASHED1
 62
   120
370
     5
100
AcDbLine
 10
-558.8798779262696
 20
-68.79276194720703
 30
0.0
 11
14.12012207373117
 21
-68.79276194720703
 31
0.0
  0
LINE
  5
D2
330
1F
100
AcDbEntity
  8
0-0
  6
JWW_DASHED1
 62
   120
370
     5
100
AcDbLine
 10
-558.8798779262696
 20
-67.79276194730684
 30
0.0
 11
14.12012207373117
 21
-67.79276194730684
 31
0.0
  0
LINE
  5
D3
330
1F
100
AcDbEntity
  8
0-0
  6
JWW_DASHED1
 62
   120
370
     5
100
AcDbLine
 10
-558.8798779262696
 20
-54.79276194620724
 30
0.0
 11
14.12012207373117
 21
-54.79276194620724
 31
0.0
  0
LINE
  5
D4
330
1F
100
AcDbEntity
  8
0-0
  6
JWW_DASHED1
 62
   120
370
     5
100
AcDbLine
 10
-558.8798779262696
 20
-53.79276194630705
 30
0.0
 11
14.12012207373117
 21
-53.79276194630705
 31
0.0
  0
LINE
  5
D5
330
1F
100
AcDbEntity
  8
0-0
  6
JWW_DASHED1
 62
   120
370
     5
100
AcDbLine
 10
-558.8798779262696
 20
-40.79276194520745
 30
0.0
 11
14.12012207373117
 21
-40.79276194520745
 31
0.0
  0
LINE
  5
D6
330
1F
100
AcDbEntity
  8
0-0
  6
JWW_DASHED1
 62
   120
370
     5
100
AcDbLine
 10
-558.8798779262696
 20
-39.79276194530726
 30
0.0
 11
14.12012207373117
 21
-39.79276194530726
 31
0.0
  0
LINE
  5
D7
330
1F
100
AcDbEntity
  8
0-0
  6
JWW_DASHED1
 62
   120
370
     5
100
AcDbLine
 10
-558.8798779262696
 20
-26.79276194420765
 30
0.0
 11
14.12012207373117
 21
-26.79276194420765
 31
0.0
  0
LINE
  5
D8
330
1F
100
AcDbEntity
  8
0-0
  6
JWW_DASHED1
 62
   120
370
     5
100
AcDbLine
 10
-558.8798779262696
 20
-25.79276194430747
 30
0.0
 11
14.12012207373117
 21
-25.79276194430747
 31
0.0
  0
LINE
  5
D9
330
1F
100
AcDbEntity
  8
0-0
  6
JWW_DASHED1
 62
   120
370
     5
100
AcDbLine
 10
-558.8798779262696
 20
-12.79276194320786
 30
0.0
 11
14.12012207373117
 21
-12.79276194320786
 31
0.0
  0
LINE
  5
DA
330
1F
100
AcDbEntity
  8
0-0
  6
JWW_DASHED1
 62
   120
370
     5
100
AcDbLine
 10
-558.8798779262696
 20
-11.79276194330768
 30
0.0
 11
14.12012207373117
 21
-11.79276194330768
 31
0.0
  0
LINE
  5
DB
330
1F
100
AcDbEntity
  8
0-0
  6
JWW_DASHED1
 62
   120
370
     5
100
AcDbLine
 10
-558.8798779262696
 20
1.207238057791926
 30
0.0
 11
14.12012207373117
 21
1.207238057791926
 31
0.0
  0
LINE
  5
DC
330
1F
100
AcDbEntity
  8
0-0
  6
JWW_DASHED1
 62
   120
370
     5
100
AcDbLine
 10
-558.8798779262696
 20
2.207238057692109
 30
0.0
 11
14.12012207373117
 21
2.207238057692109
 31
0.0
  0
LINE
  5
DD
330
1F
100
AcDbEntity
  8
0-0
  6
JWW_DASHED1
 62
   120
370
     5
100
AcDbLine
 10
-558.8798779262696
 20
15.20723805879161
 30
0.0
 11
14.12012207373117
 21
15.20723805879161
 31
0.0
  0
LINE
  5
DE
330
1F
100
AcDbEntity
  8
0-0
  6
JWW_DASHED1
 62
   120
370
     5
100
AcDbLine
 10
-558.8798779262696
 20
16.20723805869179
 30
0.0
 11
14.12012207373117
 21
16.20723805869179
 31
0.0
  0
LINE
  5
DF
330
1F
100
AcDbEntity
  8
0-0
  6
JWW_DASHED1
 62
   120
370
     5
100
AcDbLine
 10
-558.8798779262696
 20
29.20723805979151
 30
0.0
 11
14.12012207373117
 21
29.20723805979151
 31
0.0
  0
LINE
  5
E0
330
1F
100
AcDbEntity
  8
0-0
  6
JWW_DASHED1
 62
   120
370
     5
100
AcDbLine
 10
-558.8798779262696
 20
30.20723805969169
 30
0.0
 11
14.12012207373117
 21
30.20723805969169
 31
0.0
  0
LINE
  5
E1
330
1F
100
AcDbEntity
  8
0-0
  6
JWW_DASHED1
 62
   120
370
     5
100
AcDbLine
 10
-558.8798779262696
 20
43.2072380607913
 30
0.0
 11
14.12012207373117
 21
43.2072380607913
 31
0.0
  0
LINE
  5
E2
330
1F
100
AcDbEntity
  8
0-0
  6
JWW_DASHED1
 62
   120
370
     5
100
AcDbLine
 10
-558.8798779262696
 20
44.20723806069148
 30
0.0
 11
14.12012207373117
 21
44.20723806069148
 31
0.0
  0
LINE
  5
E3
330
1F
100
AcDbEntity
  8
0-0
  6
JWW_DASHED1
 62
   120
370
     5
100
AcDbLine
 10
-558.8798779262696
 20
57.20723806179109
 30
0.0
 11
14.12012207373117
 21
57.20723806179109
 31
0.0
  0
LINE
  5
E4
330
1F
100
AcDbEntity
  8
0-0
  6
JWW_DASHED1
 62
   120
370
     5
100
AcDbLine
 10
-558.8798779262696
 20
58.20723806169127
 30
0.0
 11
14.12012207373117
 21
58.20723806169127
 31
0.0
  0
LINE
  5
E5
330
1F
100
AcDbEntity
  8
0-0
  6
JWW_DASHED1
 62
   120
370
     5
100
AcDbLine
 10
-558.8798779262696
 20
71.20723806279088
 30
0.0
 11
14.12012207373117
 21
71.20723806279088
 31
0.0
  0
LINE
  5
E6
330
1F
100
AcDbEntity
  8
0-0
  6
JWW_DASHED1
 62
   120
370
     5
100
AcDbLine
 10
-558.8798779262696
 20
72.20723806269106
 30
0.0
 11
14.12012207373117
 21
72.20723806269106
 31
0.0
  0
LINE
  5
E7
330
1F
100
AcDbEntity
  8
0-0
  6
JWW_DASHED1
 62
   120
370
     5
100
AcDbLine
 10
-558.8798779262696
 20
85.20723806379067
 30
0.0
 11
14.12012207373117
 21
85.20723806379067
 31
0.0
  0
LINE
  5
E8
330
1F
100
AcDbEntity
  8
0-0
  6
JWW_DASHED1
 62
   120
370
     5
100
AcDbLine
 10
-558.8798779262696
 20
86.20723806369085
 30
0.0
 11
14.12012207373117
 21
86.20723806369085
 31
0.0
  0
LINE
  5
E9
330
1F
100
AcDbEntity
  8
0-0
  6
JWW_DASHED1
 62
   120
370
     5
100
AcDbLine
 10
-558.8798779262696
 20
99.20723806479046
 30
0.0
 11
14.12012207373117
 21
99.20723806479046
 31
0.0
  0
LINE
  5
EA
330
1F
100
AcDbEntity
  8
0-0
  6
JWW_DASHED1
 62
   120
370
     5
100
AcDbLine
 10
-558.8798779262696
 20
100.2072380646906
 30
0.0
 11
14.12012207373117
 21
100.2072380646906
 31
0.0
  0
LINE
  5
EB
330
1F
100
AcDbEntity
  8
0-0
  6
JWW_DASHED1
 62
   120
370
     5
100
AcDbLine
 10
-558.8798779262696
 20
113.2072380657902
 30
0.0
 11
14.12012207373117
 21
113.2072380657902
 31
0.0
  0
LINE
  5
EC
330
1F
100
AcDbEntity
  8
0-0
  6
JWW_DASHED1
 62
   120
370
     5
100
AcDbLine
 10
-558.8798779262696
 20
114.2072380656904
 30
0.0
 11
14.12012207373117
 21
114.2072380656904
 31
0.0
  0
LINE
  5
ED
330
1F
100
AcDbEntity
  8
0-0
  6
JWW_DASHED1
 62
   120
370
     5
100
AcDbLine
 10
-558.8798779262696
 20
127.2072380667899
 30
0.0
 11
14.12012207373117
 21
127.2072380667899
 31
0.0
  0
LINE
  5
EE
330
1F
100
AcDbEntity
  8
0-0
  6
JWW_DASHED1
 62
   120
370
     5
100
AcDbLine
 10
-558.8798779262696
 20
128.2072380666901
 30
0.0
 11
14.12012207373117
 21
128.2072380666901
 31
0.0
  0
LINE
  5
EF
330
1F
100
AcDbEntity
  8
0-0
  6
JWW_DASHED1
 62
   120
370
     5
100
AcDbLine
 10
-558.8798779262696
 20
141.2072380677898
 30
0.0
 11
14.12012207373117
 21
141.2072380677898
 31
0.0
  0
LINE
  5
F0
330
1F
100
AcDbEntity
  8
0-0
  6
JWW_DASHED1
 62
   120
370
     5
100
AcDbLine
 10
-558.8798779262696
 20
142.20723806769
 30
0.0
 11
14.12012207373117
 21
142.20723806769
 31
0.0
  0
LINE
  5
F1
330
1F
100
AcDbEntity
  8
0-0
  6
JWW_DASHED1
 62
   120
370
     5
100
AcDbLine
 10
-558.8798779262696
 20
155.2072380687896
 30
0.0
 11
14.12012207373117
 21
155.2072380687896
 31
0.0
  0
LINE
  5
F2
330
1F
100
AcDbEntity
  8
0-0
  6
JWW_DASHED1
 62
   120
370
     5
100
AcDbLine
 10
-558.8798779262696
 20
156.2072380686898
 30
0.0
 11
14.12012207373117
 21
156.2072380686898
 31
0.0
  0
LINE
  5
F3
330
1F
100
AcDbEntity
  8
0-0
  6
JWW_DASHED1
 62
   120
370
     5
100
AcDbLine
 10
-558.8798779262696
 20
169.2072380697894
 30
0.0
 11
14.12012207373117
 21
169.2072380697894
 31
0.0
  0
LINE
  5
F4
330
1F
100
AcDbEntity
  8
0-0
  6
JWW_DASHED1
 62
   120
370
     5
100
AcDbLine
 10
-558.8798779262696
 20
170.2072380696896
 30
0.0
 11
14.12012207373117
 21
170.2072380696896
 31
0.0
  0
LINE
  5
F5
330
1F
100
AcDbEntity
  8
0-0
  6
JWW_DASHED1
 62
   120
370
     5
100
AcDbLine
 10
-558.8798779262696
 20
183.2072380707892
 30
0.0
 11
14.12012207373117
 21
183.2072380707892
 31
0.0
  0
LINE
  5
F6
330
1F
100
AcDbEntity
  8
0-0
  6
JWW_DASHED1
 62
   120
370
     5
100
AcDbLine
 10
-558.8798779262696
 20
184.2072380706894
 30
0.0
 11
14.12012207373117
 21
184.2072380706894
 31
0.0
  0
LINE
  5
F7
330
1F
100
AcDbEntity
  8
0-0
  6
JWW_DASHED1
 62
   120
370
     5
100
AcDbLine
 10
-558.8798779262696
 20
197.207238071789
 30
0.0
 11
14.12012207373117
 21
197.207238071789
 31
0.0
  0
LINE
  5
F8
330
1F
100
AcDbEntity
  8
0-0
  6
JWW_DASHED1
 62
   120
370
     5
100
AcDbLine
 10
-558.8798779262696
 20
198.2072380716892
 30
0.0
 11
14.12012207373117
 21
198.2072380716892
 31
0.0
  0
LINE
  5
F9
330
1F
100
AcDbEntity
  8
0-0
  6
JWW_DASHED1
 62
   120
370
     5
100
AcDbLine
 10
-558.8798779262696
 20
211.2072380727888
 30
0.0
 11
14.12012207373117
 21
211.2072380727888
 31
0.0
  0
LINE
  5
FA
330
1F
100
AcDbEntity
  8
0-0
  6
JWW_DASHED1
 62
   120
370
     5
100
AcDbLine
 10
-558.8798779262696
 20
212.207238072689
 30
0.0
 11
14.12012207373117
 21
212.207238072689
 31
0.0
  0
LINE
  5
FB
330
1F
100
AcDbEntity
  8
0-0
  6
JWW_DASHED1
 62
   120
370
     5
100
AcDbLine
 10
-558.8798779262696
 20
225.2072380737886
 30
0.0
 11
14.12012207373117
 21
225.2072380737886
 31
0.0
  0
LINE
  5
FC
330
1F
100
AcDbEntity
  8
0-0
  6
JWW_DASHED1
 62
   120
370
     5
100
AcDbLine
 10
-558.8798779262696
 20
226.2072380736888
 30
0.0
 11
14.12012207373117
 21
226.2072380736888
 31
0.0
  0
LINE
  5
FD
330
1F
100
AcDbEntity
  8
0-0
  6
JWW_DASHED1
 62
   120
370
     5
100
AcDbLine
 10
-558.8798779262696
 20
239.2072380747884
 30
0.0
 11
14.12012207373117
 21
239.2072380747884
 31
0.0
  0
LINE
  5
FE
330
1F
100
AcDbEntity
  8
0-0
  6
JWW_DASHED1
 62
   120
370
     5
100
AcDbLine
 10
-558.8798779262696
 20
240.2072380746885
 30
0.0
 11
14.12012207373117
 21
240.2072380746885
 31
0.0
  0
LINE
  5
FF
330
1F
100
AcDbEntity
  8
0-0
  6
JWW_DASHED1
 62
   120
370
     5
100
AcDbLine
 10
-558.8798779262696
 20
253.2072380757882
 30
0.0
 11
14.12012207373117
 21
253.2072380757882
 31
0.0
  0
LINE
  5
100
330
1F
100
AcDbEntity
  8
0-0
  6
JWW_DASHED1
 62
   120
370
     5
100
AcDbLine
 10
-558.8798779262696
 20
254.2072380756883
 30
0.0
 11
14.12012207373117
 21
254.2072380756883
 31
0.0
  0
LINE
  5
101
330
1F
100
AcDbEntity
  8
0-0
  6
JWW_DASHED1
 62
   120
370
     5
100
AcDbLine
 10
-558.8798779262696
 20
267.2072380767877
 30
0.0
 11
14.12012207373117
 21
267.2072380767877
 31
0.0
  0
LINE
  5
102
330
1F
100
AcDbEntity
  8
0-0
  6
JWW_DASHED1
 62
   120
370
     5
100
AcDbLine
 10
-558.8798779262696
 20
268.2072380766881
 30
0.0
 11
14.12012207373117
 21
268.2072380766881
 31
0.0
  0
LINE
  5
103
330
1F
100
AcDbEntity
  8
0-0
  6
JWW_DASHED1
 62
   120
370
     5
100
AcDbLine
 10
-558.8798779262696
 20
281.2072380777877
 30
0.0
 11
14.12012207373117
 21
281.2072380777877
 31
0.0
  0
LINE
  5
104
330
1F
100
AcDbEntity
  8
0-0
  6
JWW_DASHED1
 62
   120
370
     5
100
AcDbLine
 10
-558.8798779262696
 20
282.2072380776879
 30
0.0
 11
14.12012207373117
 21
282.2072380776879
 31
0.0
  0
LINE
  5
105
330
1F
100
AcDbEntity
  8
0-0
  6
JWW_DASHED1
 62
   120
370
     5
100
AcDbLine
 10
-558.8798779262696
 20
295.2072380787876
 30
0.0
 11
14.12012207373117
 21
295.2072380787876
 31
0.0
  0
LINE
  5
106
330
1F
100
AcDbEntity
  8
0-0
  6
JWW_DASHED1
 62
   120
370
     5
100
AcDbLine
 10
-558.8798779262696
 20
296.2072380786877
 30
0.0
 11
14.12012207373117
 21
296.2072380786877
 31
0.0
  0
LINE
  5
107
330
1F
100
AcDbEntity
  8
0-0
  6
JWW_DASHED1
 62
   120
370
     5
100
AcDbLine
 10
-558.8798779262696
 20
309.2072380797873
 30
0.0
 11
14.12012207373117
 21
309.2072380797873
 31
0.0
  0
LINE
  5
108
330
1F
100
AcDbEntity
  8
0-0
  6
JWW_DASHED1
 62
   120
370
     5
100
AcDbLine
 10
-558.8798779262696
 20
310.2072380796875
 30
0.0
 11
14.12012207373117
 21
310.2072380796875
 31
0.0
  0
LINE
  5
109
330
1F
100
AcDbEntity
  8
0-0
  6
JWW_DASHED1
 62
   120
370
     5
100
AcDbLine
 10
-558.8798779262696
 20
323.2072380807871
 30
0.0
 11
14.12012207373117
 21
323.2072380807871
 31
0.0
  0
LINE
  5
10A
330
1F
100
AcDbEntity
  8
0-0
  6
JWW_DASHED1
 62
   120
370
     5
100
AcDbLine
 10
-558.8798779262696
 20
324.2072380806873
 30
0.0
 11
14.12012207373117
 21
324.2072380806873
 31
0.0
  0
LINE
  5
10B
330
1F
100
AcDbEntity
  8
0-0
  6
JWW_DASHED1
 62
   120
370
     5
100
AcDbLine
 10
-558.8798779262696
 20
337.2072380817869
 30
0.0
 11
14.12012207373117
 21
337.2072380817869
 31
0.0
  0
LINE
  5
10C
330
1F
100
AcDbEntity
  8
0-0
  6
JWW_DASHED1
 62
   120
370
     5
100
AcDbLine
 10
-558.8798779262696
 20
338.2072380816871
 30
0.0
 11
14.12012207373117
 21
338.2072380816871
 31
0.0
  0
LINE
  5
10D
330
1F
100
AcDbEntity
  8
0-0
  6
JWW_DASHED1
 62
   120
370
     5
100
AcDbLine
 10
-558.8798779262696
 20
351.2072380827867
 30
0.0
 11
14.12012207373117
 21
351.2072380827867
 31
0.0
  0
LINE
  5
10E
330
1F
100
AcDbEntity
  8
0-0
  6
JWW_DASHED1
 62
   120
370
     5
100
AcDbLine
 10
-558.8798779262696
 20
352.2072380826869
 30
0.0
 11
14.12012207373117
 21
352.2072380826869
 31
0.0
  0
LINE
  5
10F
330
1F
100
AcDbEntity
  8
0-0
  6
JWW_DASHED1
 62
   120
370
     5
100
AcDbLine
 10
-558.8798779262696
 20
365.2072380837865
 30
0.0
 11
14.12012207373117
 21
365.2072380837865
 31
0.0
  0
LINE
  5
110
330
1F
100
AcDbEntity
  8
0-0
  6
JWW_DASHED1
 62
   120
370
     5
100
AcDbLine
 10
-558.8798779262696
 20
366.2072380836867
 30
0.0
 11
14.12012207373117
 21
366.2072380836867
 31
0.0
  0
LINE
  5
111
330
1F
100
AcDbEntity
  8
0-0
  6
JWW_DASHED1
 62
   120
370
     5
100
AcDbLine
 10
-558.8798779262696
 20
379.2072380847862
 30
0.0
 11
14.12012207373117
 21
379.2072380847862
 31
0.0
  0
LINE
  5
112
330
1F
100
AcDbEntity
  8
0-0
  6
JWW_DASHED1
 62
   120
370
     5
100
AcDbLine
 10
-558.8798779262696
 20
380.2072380846863
 30
0.0
 11
14.12012207373117
 21
380.2072380846863
 31
0.0
  0
LINE
  5
113
330
1F
100
AcDbEntity
  8
0-0
  6
JWW_DASHED1
 62
   120
370
     5
100
AcDbLine
 10
-558.8798779262696
 20
393.2072380857861
 30
0.0
 11
14.12012207373117
 21
393.2072380857861
 31
0.0
  0
LINE
  5
114
330
1F
100
AcDbEntity
  8
0-0
  6
JWW_DASHED1
 62
   120
370
     5
100
AcDbLine
 10
-558.8798779262696
 20
394.2072380856862
 30
0.0
 11
14.12012207373117
 21
394.2072380856862
 31
0.0
  0
LINE
  5
115
330
1F
100
AcDbEntity
  8
0-0
  6
JWW_DASHED1
 62
   120
370
     5
100
AcDbLine
 10
-558.8798779262696
 20
407.2072380867859
 30
0.0
 11
14.12012207373117
 21
407.2072380867859
 31
0.0
  0
LINE
  5
116
330
1F
100
AcDbEntity
  8
0-0
  6
JWW_DASHED1
 62
   120
370
     5
100
AcDbLine
 10
-558.8798779262696
 20
408.2072380866861
 30
0.0
 11
14.12012207373117
 21
408.2072380866861
 31
0.0
  0
LINE
  5
117
330
1F
100
AcDbEntity
  8
0-0
  6
JWW_DASHED1
 62
   120
370
     5
100
AcDbLine
 10
-558.8798779262696
 20
421.2072380877856
 30
0.0
 11
14.12012207373117
 21
421.2072380877856
 31
0.0
  0
LINE
  5
118
330
1F
100
AcDbEntity
  8
0-0
  6
JWW_DASHED1
 62
   120
370
     5
100
AcDbLine
 10
-558.8798779262696
 20
422.2072380876858
 30
0.0
 11
14.12012207373117
 21
422.2072380876858
 31
0.0
  0
LINE
  5
119
330
1F
100
AcDbEntity
  8
0-0
  6
JWW_DASHED1
 62
   120
370
     5
100
AcDbLine
 10
-558.8798779262696
 20
435.2072380887854
 30
0.0
 11
14.12012207373117
 21
435.2072380887854
 31
0.0
  0
LINE
  5
11A
330
1F
100
AcDbEntity
  8
0-0
  6
JWW_DASHED1
 62
   120
370
     5
100
AcDbLine
 10
-558.8798779262696
 20
436.2072380886856
 30
0.0
 11
14.12012207373117
 21
436.2072380886856
 31
0.0
  0
LINE
  5
11B
330
1F
100
AcDbEntity
  8
0-0
  6
JWW_DASHED1
 62
   120
370
     5
100
AcDbLine
 10
-558.8798779262696
 20
449.2072380897852
 30
0.0
 11
14.12012207373117
 21
449.2072380897852
 31
0.0
  0
LINE
  5
11C
330
1F
100
AcDbEntity
  8
0-0
  6
JWW_DASHED1
 62
   120
370
     5
100
AcDbLine
 10
-558.8798779262696
 20
450.2072380896854
 30
0.0
 11
14.12012207373117
 21
450.2072380896854
 31
0.0
  0
LINE
  5
11D
330
1F
100
AcDbEntity
  8
0-0
  6
JWW_DASHED1
 62
   120
370
     5
100
AcDbLine
 10
-558.8798779262696
 20
463.207238090785
 30
0.0
 11
14.12012207373117
 21
463.207238090785
 31
0.0
  0
LINE
  5
11E
330
1F
100
AcDbEntity
  8
0-0
  6
JWW_DASHED1
 62
   120
370
     5
100
AcDbLine
 10
-558.8798779262696
 20
464.2072380906852
 30
0.0
 11
14.12012207373117
 21
464.2072380906852
 31
0.0
  0
LINE
  5
11F
330
1F
100
AcDbEntity
  8
0-0
  6
JWW_DASHED1
 62
   120
370
     5
100
AcDbLine
 10
-558.8798779262696
 20
477.2072380917848
 30
0.0
 11
14.12012207373117
 21
477.2072380917848
 31
0.0
  0
LINE
  5
120
330
1F
100
AcDbEntity
  8
0-0
  6
JWW_DASHED1
 62
   120
370
     5
100
AcDbLine
 10
-558.8798779262696
 20
478.207238091685
 30
0.0
 11
14.12012207373117
 21
478.207238091685
 31
0.0
  0
LINE
  5
121
330
1F
100
AcDbEntity
  8
0-0
  6
JWW_DASHED1
 62
   120
370
     5
100
AcDbLine
 10
-558.8798779262696
 20
491.2072380927844
 30
0.0
 11
14.12012207373117
 21
491.2072380927844
 31
0.0
  0
LINE
  5
122
330
1F
100
AcDbEntity
  8
0-0
  6
JWW_DASHED1
 62
   120
370
     5
100
AcDbLine
 10
-558.8798779262696
 20
492.2072380926847
 30
0.0
 11
14.12012207373117
 21
492.2072380926847
 31
0.0
  0
LINE
  5
123
330
1F
100
AcDbEntity
  8
0-0
  6
JWW_DASHED1
 62
   120
370
     5
100
AcDbLine
 10
-558.8798779262696
 20
505.2072380937844
 30
0.0
 11
14.12012207373117
 21
505.2072380937844
 31
0.0
  0
LINE
  5
124
330
1F
100
AcDbEntity
  8
0-0
  6
JWW_DASHED1
 62
   120
370
     5
100
AcDbLine
 10
-558.8798779262696
 20
506.2072380936846
 30
0.0
 11
14.12012207373117
 21
506.2072380936846
 31
0.0
  0
LINE
  5
125
330
1F
100
AcDbEntity
  8
0-0
  6
JWW_DASHED1
 62
   120
370
     5
100
AcDbLine
 10
-558.8798779262696
 20
519.2072380947842
 30
0.0
 11
14.12012207373117
 21
519.2072380947842
 31
0.0
  0
LINE
  5
126
330
1F
100
AcDbEntity
  8
0-0
  6
JWW_DASHED1
 62
   120
370
     5
100
AcDbLine
 10
-558.8798779262696
 20
520.2072380946844
 30
0.0
 11
14.12012207373117
 21
520.2072380946844
 31
0.0
  0
LINE
  5
127
330
1F
100
AcDbEntity
  8
0-0
  6
JWW_DASHED1
 62
   120
370
     5
100
AcDbLine
 10
-558.8798779262696
 20
533.207238095784
 30
0.0
 11
14.12012207373117
 21
533.207238095784
 31
0.0
  0
LINE
  5
128
330
1F
100
AcDbEntity
  8
0-0
  6
JWW_DASHED1
 62
   120
370
     5
100
AcDbLine
 10
-558.8798779262696
 20
534.2072380956841
 30
0.0
 11
14.12012207373117
 21
534.2072380956841
 31
0.0
  0
LINE
  5
129
330
1F
100
AcDbEntity
  8
0-0
  6
JWW_DASHED1
 62
   120
370
     5
100
AcDbLine
 10
-558.8798779262696
 20
547.2072380967837
 30
0.0
 11
14.12012207373117
 21
547.2072380967837
 31
0.0
  0
LINE
  5
12A
330
1F
100
AcDbEntity
  8
0-0
  6
JWW_DASHED1
 62
   120
370
     5
100
AcDbLine
 10
-558.8798779262696
 20
548.2072380966839
 30
0.0
 11
14.12012207373117
 21
548.2072380966839
 31
0.0
  0
LINE
  5
12B
330
1F
100
AcDbEntity
  8
0-0
  6
JWW_DASHED1
 62
   120
370
     5
100
AcDbLine
 10
-558.8798779262696
 20
561.2072380977836
 30
0.0
 11
14.12012207373117
 21
561.2072380977836
 31
0.0
  0
LINE
  5
12C
330
1F
100
AcDbEntity
  8
0-0
  6
JWW_DASHED1
 62
   120
370
     5
100
AcDbLine
 10
-558.8798779262696
 20
562.2072380976838
 30
0.0
 11
14.12012207373117
 21
562.2072380976838
 31
0.0
  0
LINE
  5
12D
330
1F
100
AcDbEntity
  8
0-0
  6
JWW_DASHED1
 62
   120
370
     5
100
AcDbLine
 10
-558.8798779262696
 20
575.2072380987834
 30
0.0
 11
14.12012207373117
 21
575.2072380987834
 31
0.0
  0
LINE
  5
12E
330
1F
100
AcDbEntity
  8
0-0
  6
JWW_DASHED1
 62
   120
370
     5
100
AcDbLine
 10
-558.8798779262696
 20
576.2072380986835
 30
0.0
 11
14.12012207373117
 21
576.2072380986835
 31
0.0
  0
LINE
  5
12F
330
1F
100
AcDbEntity
  8
0-0
  6
JWW_DASHED1
 62
   120
370
     5
100
AcDbLine
 10
-558.8798779262696
 20
589.2072380997831
 30
0.0
 11
14.12012207373117
 21
589.2072380997831
 31
0.0
  0
LINE
  5
130
330
1F
100
AcDbEntity
  8
0-0
  6
JWW_DASHED1
 62
   120
370
     5
100
AcDbLine
 10
-558.8798779262696
 20
590.2072380996833
 30
0.0
 11
14.12012207373117
 21
590.2072380996833
 31
0.0
  0
LINE
  5
131
330
1F
100
AcDbEntity
  8
0-0
  6
JWW_DASHED1
 62
   120
370
     5
100
AcDbLine
 10
-558.8798779262696
 20
603.2072381007829
 30
0.0
 11
14.12012207373117
 21
603.2072381007829
 31
0.0
  0
LINE
  5
132
330
1F
100
AcDbEntity
  8
0-0
  6
JWW_DASHED1
 62
   120
370
     5
100
AcDbLine
 10
-558.8798779262696
 20
604.2072381006828
 30
0.0
 11
14.12012207373117
 21
604.2072381006828
 31
0.0
  0
LINE
  5
133
330
1F
100
AcDbEntity
  8
0-0
  6
JWW_DASHED1
 62
   120
370
     5
100
AcDbLine
 10
-558.8798779262696
 20
617.2072381017827
 30
0.0
 11
14.12012207373117
 21
617.2072381017827
 31
0.0
  0
LINE
  5
134
330
1F
100
AcDbEntity
  8
0-0
  6
JWW_DASHED1
 62
   120
370
     5
100
AcDbLine
 10
-558.8798779262696
 20
618.2072381016828
 30
0.0
 11
14.12012207373117
 21
618.2072381016828
 31
0.0
  0
LINE
  5
135
330
1F
100
AcDbEntity
  8
0-0
  6
JWW_DASHED1
 62
   120
370
     5
100
AcDbLine
 10
-558.8798779262696
 20
631.2072381027825
 30
0.0
 11
14.12012207373117
 21
631.2072381027825
 31
0.0
  0
LINE
  5
136
330
1F
100
AcDbEntity
  8
0-0
  6
JWW_DASHED1
 62
   120
370
     5
100
AcDbLine
 10
-558.8798779262696
 20
632.2072381026827
 30
0.0
 11
14.12012207373117
 21
632.2072381026827
 31
0.0
  0
LINE
  5
137
330
1F
100
AcDbEntity
  8
0-0
  6
JWW_DASHED1
 62
   120
370
     5
100
AcDbLine
 10
-558.8798779262696
 20
645.2072381037823
 30
0.0
 11
14.12012207373117
 21
645.2072381037823
 31
0.0
  0
LINE
  5
138
330
1F
100
AcDbEntity
  8
0-0
  6
JWW_DASHED1
 62
   120
370
     5
100
AcDbLine
 10
-558.8798779262696
 20
646.2072381036825
 30
0.0
 11
14.12012207373117
 21
646.2072381036825
 31
0.0
  0
LINE
  5
139
330
1F
100
AcDbEntity
  8
0-0
  6
JWW_DASHED1
 62
   120
370
     5
100
AcDbLine
 10
-558.8798779262696
 20
659.207238104782
 30
0.0
 11
14.12012207373117
 21
659.207238104782
 31
0.0
  0
LINE
  5
13A
330
1F
100
AcDbEntity
  8
0-0
  6
JWW_DASHED1
 62
   120
370
     5
100
AcDbLine
 10
-558.8798779262696
 20
660.2072381046822
 30
0.0
 11
14.12012207373117
 21
660.2072381046822
 31
0.0
  0
LINE
  5
13B
330
1F
100
AcDbEntity
  8
0-0
  6
JWW_DASHED1
 62
   120
370
     5
100
AcDbLine
 10
-558.8798779262696
 20
673.2072381057819
 30
0.0
 11
14.12012207373117
 21
673.2072381057819
 31
0.0
  0
LINE
  5
13C
330
1F
100
AcDbEntity
  8
0-0
  6
JWW_DASHED1
 62
   120
370
     5
100
AcDbLine
 10
-558.8798779262696
 20
674.2072381056821
 30
0.0
 11
14.12012207373117
 21
674.2072381056821
 31
0.0
  0
LINE
  5
13D
330
1F
100
AcDbEntity
  8
0-0
  6
JWW_DASHED1
 62
   120
370
     5
100
AcDbLine
 10
-558.8798779262696
 20
687.2072381067817
 30
0.0
 11
14.12012207373117
 21
687.2072381067817
 31
0.0
  0
LINE
  5
13E
330
1F
100
AcDbEntity
  8
0-0
  6
JWW_DASHED1
 62
   120
370
     5
100
AcDbLine
 10
-558.8798779262696
 20
688.2072381066819
 30
0.0
 11
14.12012207373117
 21
688.2072381066819
 31
0.0
  0
LINE
  5
13F
330
1F
100
AcDbEntity
  8
0-0
  6
JWW_DASHED1
 62
   120
370
     5
100
AcDbLine
 10
-558.8798779262696
 20
701.2072381077814
 30
0.0
 11
14.12012207373117
 21
701.2072381077814
 31
0.0
  0
LINE
  5
140
330
1F
100
AcDbEntity
  8
0-0
  6
JWW_DASHED1
 62
   120
370
     5
100
AcDbLine
 10
-558.8798779262696
 20
702.2072381076816
 30
0.0
 11
14.12012207373117
 21
702.2072381076816
 31
0.0
  0
LINE
  5
141
330
1F
100
AcDbEntity
  8
0-0
  6
JWW_DASHED1
 62
   120
370
     5
100
AcDbLine
 10
-558.8798779262696
 20
715.207238108781
 30
0.0
 11
14.12012207373117
 21
715.207238108781
 31
0.0
  0
LINE
  5
142
330
1F
100
AcDbEntity
  8
0-0
  6
JWW_DASHED1
 62
   120
370
     5
100
AcDbLine
 10
-558.8798779262696
 20
716.2072381086814
 30
0.0
 11
14.12012207373117
 21
716.2072381086814
 31
0.0
  0
LINE
  5
143
330
1F
100
AcDbEntity
  8
0-0
  6
JWW_DASHED1
 62
   120
370
     5
100
AcDbLine
 10
-558.8798779262696
 20
729.207238109781
 30
0.0
 11
14.12012207373117
 21
729.207238109781
 31
0.0
  0
LINE
  5
144
330
1F
100
AcDbEntity
  8
0-0
  6
JWW_DASHED1
 62
   120
370
     5
100
AcDbLine
 10
-558.8798779262696
 20
730.2072381096812
 30
0.0
 11
14.12012207373117
 21
730.2072381096812
 31
0.0
  0
LINE
  5
145
330
1F
100
AcDbEntity
  8
0-0
  6
JWW_DASHED1
 62
   120
370
     5
100
AcDbLine
 10
-558.8798779262696
 20
743.2072381107808
 30
0.0
 11
14.12012207373117
 21
743.2072381107808
 31
0.0
  0
LINE
  5
146
330
1F
100
AcDbEntity
  8
0-0
  6
JWW_DASHED1
 62
   120
370
     5
100
AcDbLine
 10
-558.8798779262696
 20
744.207238110681
 30
0.0
 11
14.12012207373117
 21
744.207238110681
 31
0.0
  0
LINE
  5
147
330
1F
100
AcDbEntity
  8
0-0
  6
JWW_DASHED1
 62
   120
370
     5
100
AcDbLine
 10
-558.8798779262696
 20
757.2072381117806
 30
0.0
 11
14.12012207373117
 21
757.2072381117806
 31
0.0
  0
LINE
  5
148
330
1F
100
AcDbEntity
  8
0-0
  6
JWW_DASHED1
 62
   120
370
     5
100
AcDbLine
 10
-558.8798779262696
 20
758.2072381116808
 30
0.0
 11
14.12012207373117
 21
758.2072381116808
 31
0.0
  0
LINE
  5
149
330
1F
100
AcDbEntity
  8
0-0
  6
JWW_DASHED1
 62
   120
370
     5
100
AcDbLine
 10
-558.8798779262696
 20
771.2072381127804
 30
0.0
 11
14.12012207373117
 21
771.2072381127804
 31
0.0
  0
LINE
  5
14A
330
1F
100
AcDbEntity
  8
0-0
  6
JWW_DASHED1
 62
   120
370
     5
100
AcDbLine
 10
-558.8798779262696
 20
772.2072381126806
 30
0.0
 11
14.12012207373117
 21
772.2072381126806
 31
0.0
  0
LINE
  5
14B
330
1F
100
AcDbEntity
  8
0-0
  6
JWW_DASHED1
 62
   120
370
     5
100
AcDbLine
 10
-558.8798779262696
 20
785.2072381137802
 30
0.0
 11
14.12012207373117
 21
785.2072381137802
 31
0.0
  0
LINE
  5
14C
330
1F
100
AcDbEntity
  8
0-0
  6
JWW_DASHED1
 62
   120
370
     5
100
AcDbLine
 10
-558.8798779262696
 20
786.2072381136804
 30
0.0
 11
14.12012207373117
 21
786.2072381136804
 31
0.0
  0
LINE
  5
14D
330
1F
100
AcDbEntity
  8
0-0
  6
JWW_DASHED1
 62
   120
370
     5
100
AcDbLine
 10
-558.8798779262696
 20
799.20723811478
 30
0.0
 11
14.12012207373117
 21
799.20723811478
 31
0.0
  0
LINE
  5
14E
330
1F
100
AcDbEntity
  8
0-0
  6
JWW_DASHED1
 62
   120
370
     5
100
AcDbLine
 10
-558.8798779262696
 20
800.2072381146802
 30
0.0
 11
14.12012207373117
 21
800.2072381146802
 31
0.0
  0
LINE
  5
14F
330
1F
100
AcDbEntity
  8
0-0
  6
JWW_DASHED1
 62
   120
370
     5
100
AcDbLine
 10
-558.8798779262696
 20
813.2072381157795
 30
0.0
 11
14.12012207373117
 21
813.2072381157795
 31
0.0
  0
LINE
  5
150
330
1F
100
AcDbEntity
  8
0-0
  6
JWW_DASHED1
 62
   120
370
     5
100
AcDbLine
 10
-558.8798779262696
 20
814.2072381156797
 30
0.0
 11
14.12012207373117
 21
814.2072381156797
 31
0.0
  0
LINE
  5
151
330
1F
100
AcDbEntity
  8
0-0
  6
JWW_DASHED1
 62
   120
370
     5
100
AcDbLine
 10
-558.8798779262696
 20
827.2072381167795
 30
0.0
 11
14.12012207373117
 21
827.2072381167795
 31
0.0
  0
LINE
  5
152
330
1F
100
AcDbEntity
  8
0-0
  6
JWW_DASHED1
 62
   120
370
     5
100
AcDbLine
 10
-558.8798779262696
 20
828.2072381166795
 30
0.0
 11
14.12012207373117
 21
828.2072381166795
 31
0.0
  0
LINE
  5
153
330
1F
100
AcDbEntity
  8
0-0
  6
JWW_DASHED1
 62
   120
370
     5
100
AcDbLine
 10
-558.8798779262696
 20
841.2072381177793
 30
0.0
 11
14.12012207373117
 21
841.2072381177793
 31
0.0
  0
LINE
  5
154
330
1F
100
AcDbEntity
  8
0-0
  6
JWW_DASHED1
 62
   120
370
     5
100
AcDbLine
 10
-558.8798779262696
 20
842.2072381176795
 30
0.0
 11
14.12012207373117
 21
842.2072381176795
 31
0.0
  0
LINE
  5
155
330
1F
100
AcDbEntity
  8
0-0
  6
JWW_DASHED1
 62
   120
370
     5
100
AcDbLine
 10
-558.8798779262696
 20
855.2072381187792
 30
0.0
 11
14.12012207373117
 21
855.2072381187792
 31
0.0
  0
LINE
  5
156
330
1F
100
AcDbEntity
  8
0-0
  6
JWW_DASHED1
 62
   120
370
     5
100
AcDbLine
 10
-558.8798779262696
 20
856.2072381186794
 30
0.0
 11
14.12012207373117
 21
856.2072381186794
 31
0.0
  0
LINE
  5
157
330
1F
100
AcDbEntity
  8
0-0
  6
JWW_DASHED1
 62
   120
370
     5
100
AcDbLine
 10
-558.8798779262696
 20
869.2072381197789
 30
0.0
 11
14.12012207373117
 21
869.2072381197789
 31
0.0
  0
LINE
  5
158
330
1F
100
AcDbEntity
  8
0-0
  6
JWW_DASHED1
 62
   120
370
     5
100
AcDbLine
 10
-558.8798779262696
 20
870.2072381196791
 30
0.0
 11
14.12012207373117
 21
870.2072381196791
 31
0.0
  0
LINE
  5
159
330
1F
100
AcDbEntity
  8
0-0
  6
JWW_DASHED1
 62
   120
370
     5
100
AcDbLine
 10
-558.8798779262696
 20
883.2072381207787
 30
0.0
 11
14.12012207373117
 21
883.2072381207787
 31
0.0
  0
LINE
  5
15A
330
1F
100
AcDbEntity
  8
0-0
  6
JWW_DASHED1
 62
   120
370
     5
100
AcDbLine
 10
-558.8798779262696
 20
884.2072381206789
 30
0.0
 11
14.12012207373117
 21
884.2072381206789
 31
0.0
  0
LINE
  5
15B
330
1F
100
AcDbEntity
  8
0-0
  6
JWW_DASHED1
 62
   120
370
     5
100
AcDbLine
 10
-558.8798779262696
 20
897.2072381217786
 30
0.0
 11
14.12012207373117
 21
897.2072381217786
 31
0.0
  0
LINE
  5
15C
330
1F
100
AcDbEntity
  8
0-0
  6
JWW_DASHED1
 62
   120
370
     5
100
AcDbLine
 10
-558.8798779262696
 20
898.2072381216788
 30
0.0
 11
14.12012207373117
 21
898.2072381216788
 31
0.0
  0
LINE
  5
15D
330
1F
100
AcDbEntity
  8
0-0
  6
JWW_DASHED1
 62
   120
370
     5
100
AcDbLine
 10
-558.8798779262696
 20
911.2072381227783
 30
0.0
 11
14.12012207373117
 21
911.2072381227783
 31
0.0
  0
LINE
  5
15E
330
1F
100
AcDbEntity
  8
0-0
  6
JWW_DASHED1
 62
   120
370
     5
100
AcDbLine
 10
-558.8798779262696
 20
912.2072381226785
 30
0.0
 11
14.12012207373117
 21
912.2072381226785
 31
0.0
  0
LINE
  5
15F
330
1F
100
AcDbEntity
  8
0-0
  6
JWW_DASHED1
 62
   120
370
     5
100
AcDbLine
 10
-558.8798779262696
 20
925.2072381237779
 30
0.0
 11
14.12012207373117
 21
925.2072381237779
 31
0.0
  0
LINE
  5
160
330
1F
100
AcDbEntity
  8
0-0
  6
JWW_DASHED1
 62
   120
370
     5
100
AcDbLine
 10
-558.8798779262696
 20
926.207238123678
 30
0.0
 11
14.12012207373117
 21
926.207238123678
 31
0.0
  0
LINE
  5
161
330
1F
100
AcDbEntity
  8
0-0
  6
JWW_DASHED1
 62
   120
370
     5
100
AcDbLine
 10
-558.8798779262696
 20
939.2072381247776
 30
0.0
 11
14.12012207373117
 21
939.2072381247776
 31
0.0
  0
LINE
  5
162
330
1F
100
AcDbEntity
  8
0-0
  6
JWW_DASHED1
 62
   120
370
     5
100
AcDbLine
 10
-558.8798779262696
 20
940.207238124678
 30
0.0
 11
14.12012207373117
 21
940.207238124678
 31
0.0
  0
LINE
  5
163
330
1F
100
AcDbEntity
  8
0-0
  6
JWW_DASHED1
 62
   120
370
     5
100
AcDbLine
 10
-558.8798779262696
 20
953.2072381257776
 30
0.0
 11
14.12012207373117
 21
953.2072381257776
 31
0.0
  0
LINE
  5
164
330
1F
100
AcDbEntity
  8
0-0
  6
JWW_DASHED1
 62
   120
370
     5
100
AcDbLine
 10
-558.8798779262696
 20
954.2072381256778
 30
0.0
 11
14.12012207373117
 21
954.2072381256778
 31
0.0
  0
LINE
  5
165
330
1F
100
AcDbEntity
  8
0-0
  6
JWW_DASHED1
 62
   120
370
     5
100
AcDbLine
 10
-558.8798779262696
 20
967.2072381267775
 30
0.0
 11
14.12012207373117
 21
967.2072381267775
 31
0.0
  0
LINE
  5
166
330
1F
100
AcDbEntity
  8
0-0
  6
JWW_DASHED1
 62
   120
370
     5
100
AcDbLine
 10
-558.8798779262696
 20
968.2072381266777
 30
0.0
 11
14.12012207373117
 21
968.2072381266777
 31
0.0
  0
LINE
  5
167
330
1F
100
AcDbEntity
  8
0-0
  6
JWW_DASHED1
 62
   120
370
     5
100
AcDbLine
 10
-558.8798779262696
 20
981.2072381277773
 30
0.0
 11
14.12012207373117
 21
981.2072381277773
 31
0.0
  0
LINE
  5
168
330
1F
100
AcDbEntity
  8
0-0
  6
JWW_DASHED1
 62
   120
370
     5
100
AcDbLine
 10
-558.8798779262696
 20
982.2072381276774
 30
0.0
 11
14.12012207373117
 21
982.2072381276774
 31
0.0
  0
LINE
  5
169
330
1F
100
AcDbEntity
  8
0-0
  6
JWW_DASHED1
 62
   120
370
     5
100
AcDbLine
 10
-558.8798779262696
 20
995.207238128777
 30
0.0
 11
14.12012207373117
 21
995.207238128777
 31
0.0
  0
LINE
  5
16A
330
1F
100
AcDbEntity
  8
0-0
  6
JWW_DASHED1
 62
   120
370
     5
100
AcDbLine
 10
-558.8798779262696
 20
996.2072381286772
 30
0.0
 11
14.12012207373117
 21
996.2072381286772
 31
0.0
  0
LINE
  5
16B
330
1F
100
AcDbEntity
  8
0-0
  6
JWW_DASHED1
 62
   120
370
     5
100
AcDbLine
 10
-552.8798594682378
 20
-110.7926136363627
 30
0.0
 11
-552.8798594682378
 21
1064.207386363637
 31
0.0
  0
LINE
  5
16C
330
1F
100
AcDbEntity
  8
0-0
  6
JWW_DASHED1
 62
   120
370
     5
100
AcDbLine
 10
-19.87985943033742
 20
-110.7926136363627
 30
0.0
 11
-19.87985943033742
 21
1064.207386363637
 31
0.0
  0
LINE
  5
16D
330
1F
100
AcDbEntity
  8
0-0
  6
JWW_DASHED1
 62
   120
370
     5
100
AcDbLine
 10
-20.8798594302376
 20
-110.7926136363627
 30
0.0
 11
-20.87985943023718
 21
1064.207386363637
 31
0.0
  0
LINE
  5
16E
330
1F
100
AcDbEntity
  8
0-0
  6
JWW_DASHED1
 62
   120
370
     5
100
AcDbLine
 10
-33.87985943133764
 20
-110.7926136363627
 30
0.0
 11
-33.87985943133721
 21
1064.207386363637
 31
0.0
  0
LINE
  5
16F
330
1F
100
AcDbEntity
  8
0-0
  6
JWW_DASHED1
 62
   120
370
     5
100
AcDbLine
 10
-34.87985943123739
 20
-110.7926136363627
 30
0.0
 11
-34.87985943123739
 21
1064.207386363637
 31
0.0
  0
LINE
  5
170
330
1F
100
AcDbEntity
  8
0-0
  6
JWW_DASHED1
 62
   120
370
     5
100
AcDbLine
 10
-47.87985943233785
 20
-110.7926136363627
 30
0.0
 11
-47.87985943233785
 21
1064.207386363637
 31
0.0
  0
LINE
  5
171
330
1F
100
AcDbEntity
  8
0-0
  6
JWW_DASHED1
 62
   120
370
     5
100
AcDbLine
 10
-48.87985943223761
 20
-110.7926136363627
 30
0.0
 11
-48.87985943223761
 21
1064.207386363637
 31
0.0
  0
LINE
  5
172
330
1F
100
AcDbEntity
  8
0-0
  6
JWW_DASHED1
 62
   120
370
     5
100
AcDbLine
 10
-61.87985943333764
 20
-110.7926136363627
 30
0.0
 11
-61.87985943333764
 21
1064.207386363637
 31
0.0
  0
LINE
  5
173
330
1F
100
AcDbEntity
  8
0-0
  6
JWW_DASHED1
 62
   120
370
     5
100
AcDbLine
 10
-62.87985943323783
 20
-110.7926136363627
 30
0.0
 11
-62.87985943323783
 21
1064.207386363637
 31
0.0
  0
LINE
  5
174
330
1F
100
AcDbEntity
  8
0-0
  6
JWW_DASHED1
 62
   120
370
     5
100
AcDbLine
 10
-75.87985943433786
 20
-110.7926136363627
 30
0.0
 11
-75.87985943433786
 21
1064.207386363637
 31
0.0
  0
LINE
  5
175
330
1F
100
AcDbEntity
  8
0-0
  6
JWW_DASHED1
 62
   120
370
     5
100
AcDbLine
 10
-76.87985943423762
 20
-110.7926136363627
 30
0.0
 11
-76.87985943423719
 21
1064.207386363637
 31
0.0
  0
LINE
  5
176
330
1F
100
AcDbEntity
  8
0-0
  6
JWW_DASHED1
 62
   120
370
     5
100
AcDbLine
 10
-89.87985943533765
 20
-110.7926136363627
 30
0.0
 11
-89.87985943533722
 21
1064.207386363637
 31
0.0
  0
LINE
  5
177
330
1F
100
AcDbEntity
  8
0-0
  6
JWW_DASHED1
 62
   120
370
     5
100
AcDbLine
 10
-90.87985943523762
 20
-110.7926136363627
 30
0.0
 11
-90.87985943523762
 21
1064.207386363637
 31
0.0
  0
LINE
  5
178
330
1F
100
AcDbEntity
  8
0-0
  6
JWW_DASHED1
 62
   120
370
     5
100
AcDbLine
 10
-103.8798594363377
 20
-110.7926136363627
 30
0.0
 11
-103.8798594363377
 21
1064.207386363637
 31
0.0
  0
LINE
  5
179
330
1F
100
AcDbEntity
  8
0-0
  6
JWW_DASHED1
 62
   120
370
     5
100
AcDbLine
 10
-104.8798594362376
 20
-110.7926136363627
 30
0.0
 11
-104.8798594362376
 21
1064.207386363637
 31
0.0
  0
LINE
  5
17A
330
1F
100
AcDbEntity
  8
0-0
  6
JWW_DASHED1
 62
   120
370
     5
100
AcDbLine
 10
-117.8798594373372
 20
-110.7926136363627
 30
0.0
 11
-117.8798594373372
 21
1064.207386363637
 31
0.0
  0
LINE
  5
17B
330
1F
100
AcDbEntity
  8
0-0
  6
JWW_DASHED1
 62
   120
370
     5
100
AcDbLine
 10
-118.8798594372374
 20
-110.7926136363627
 30
0.0
 11
-118.8798594372374
 21
1064.207386363637
 31
0.0
  0
LINE
  5
17C
330
1F
100
AcDbEntity
  8
0-0
  6
JWW_DASHED1
 62
   120
370
     5
100
AcDbLine
 10
-131.879859438337
 20
-110.7926136363627
 30
0.0
 11
-131.879859438337
 21
1064.207386363637
 31
0.0
  0
LINE
  5
17D
330
1F
100
AcDbEntity
  8
0-0
  6
JWW_DASHED1
 62
   120
370
     5
100
AcDbLine
 10
-132.8798594382372
 20
-110.7926136363627
 30
0.0
 11
-132.8798594382372
 21
1064.207386363637
 31
0.0
  0
LINE
  5
17E
330
1F
100
AcDbEntity
  8
0-0
  6
JWW_DASHED1
 62
   120
370
     5
100
AcDbLine
 10
-145.8798594393372
 20
-110.7926136363627
 30
0.0
 11
-145.8798594393372
 21
1064.207386363637
 31
0.0
  0
LINE
  5
17F
330
1F
100
AcDbEntity
  8
0-0
  6
JWW_DASHED1
 62
   120
370
     5
100
AcDbLine
 10
-146.8798594392374
 20
-110.7926136363627
 30
0.0
 11
-146.8798594392374
 21
1064.207386363637
 31
0.0
  0
LINE
  5
180
330
1F
100
AcDbEntity
  8
0-0
  6
JWW_DASHED1
 62
   120
370
     5
100
AcDbLine
 10
-159.8798594403374
 20
-110.7926136363627
 30
0.0
 11
-159.8798594403374
 21
1064.207386363637
 31
0.0
  0
LINE
  5
181
330
1F
100
AcDbEntity
  8
0-0
  6
JWW_DASHED1
 62
   120
370
     5
100
AcDbLine
 10
-160.8798594402376
 20
-110.7926136363627
 30
0.0
 11
-160.8798594402376
 21
1064.207386363637
 31
0.0
  0
LINE
  5
182
330
1F
100
AcDbEntity
  8
0-0
  6
JWW_DASHED1
 62
   120
370
     5
100
AcDbLine
 10
-173.8798594413373
 20
-110.7926136363627
 30
0.0
 11
-173.8798594413373
 21
1064.207386363637
 31
0.0
  0
LINE
  5
183
330
1F
100
AcDbEntity
  8
0-0
  6
JWW_DASHED1
 62
   120
370
     5
100
AcDbLine
 10
-174.8798594412374
 20
-110.7926136363627
 30
0.0
 11
-174.8798594412374
 21
1064.207386363637
 31
0.0
  0
LINE
  5
184
330
1F
100
AcDbEntity
  8
0-0
  6
JWW_DASHED1
 62
   120
370
     5
100
AcDbLine
 10
-187.879859442337
 20
-110.7926136363627
 30
0.0
 11
-187.879859442337
 21
1064.207386363637
 31
0.0
  0
LINE
  5
185
330
1F
100
AcDbEntity
  8
0-0
  6
JWW_DASHED1
 62
   120
370
     5
100
AcDbLine
 10
-188.8798594422372
 20
-110.7926136363627
 30
0.0
 11
-188.8798594422372
 21
1064.207386363637
 31
0.0
  0
LINE
  5
186
330
1F
100
AcDbEntity
  8
0-0
  6
JWW_DASHED1
 62
   120
370
     5
100
AcDbLine
 10
-201.8798594433372
 20
-110.7926136363627
 30
0.0
 11
-201.8798594433372
 21
1064.207386363637
 31
0.0
  0
LINE
  5
187
330
1F
100
AcDbEntity
  8
0-0
  6
JWW_DASHED1
 62
   120
370
     5
100
AcDbLine
 10
-202.8798594432374
 20
-110.7926136363627
 30
0.0
 11
-202.8798594432374
 21
1064.207386363637
 31
0.0
  0
LINE
  5
188
330
1F
100
AcDbEntity
  8
0-0
  6
JWW_DASHED1
 62
   120
370
     5
100
AcDbLine
 10
-215.8798594443375
 20
-110.7926136363627
 30
0.0
 11
-215.8798594443375
 21
1064.207386363637
 31
0.0
  0
LINE
  5
189
330
1F
100
AcDbEntity
  8
0-0
  6
JWW_DASHED1
 62
   120
370
     5
100
AcDbLine
 10
-216.8798594442376
 20
-110.7926136363627
 30
0.0
 11
-216.8798594442376
 21
1064.207386363637
 31
0.0
  0
LINE
  5
18A
330
1F
100
AcDbEntity
  8
0-0
  6
JWW_DASHED1
 62
   120
370
     5
100
AcDbLine
 10
-229.8798594453373
 20
-110.7926136363627
 30
0.0
 11
-229.8798594453373
 21
1064.207386363637
 31
0.0
  0
LINE
  5
18B
330
1F
100
AcDbEntity
  8
0-0
  6
JWW_DASHED1
 62
   120
370
     5
100
AcDbLine
 10
-230.8798594452375
 20
-110.7926136363627
 30
0.0
 11
-230.8798594452375
 21
1064.207386363637
 31
0.0
  0
LINE
  5
18C
330
1F
100
AcDbEntity
  8
0-0
  6
JWW_DASHED1
 62
   120
370
     5
100
AcDbLine
 10
-243.879859446337
 20
-110.7926136363627
 30
0.0
 11
-243.879859446337
 21
1064.207386363637
 31
0.0
  0
LINE
  5
18D
330
1F
100
AcDbEntity
  8
0-0
  6
JWW_DASHED1
 62
   120
370
     5
100
AcDbLine
 10
-244.8798594462377
 20
-110.7926136363627
 30
0.0
 11
-244.8798594462377
 21
1064.207386363637
 31
0.0
  0
LINE
  5
18E
330
1F
100
AcDbEntity
  8
0-0
  6
JWW_DASHED1
 62
   120
370
     5
100
AcDbLine
 10
-257.8798594473373
 20
-110.7926136363627
 30
0.0
 11
-257.8798594473373
 21
1064.207386363637
 31
0.0
  0
LINE
  5
18F
330
1F
100
AcDbEntity
  8
0-0
  6
JWW_DASHED1
 62
   120
370
     5
100
AcDbLine
 10
-258.8798594472374
 20
-110.7926136363627
 30
0.0
 11
-258.8798594472374
 21
1064.207386363637
 31
0.0
  0
LINE
  5
190
330
1F
100
AcDbEntity
  8
0-0
  6
JWW_DASHED1
 62
   120
370
     5
100
AcDbLine
 10
-271.8798594483375
 20
-110.7926136363627
 30
0.0
 11
-271.8798594483375
 21
1064.207386363637
 31
0.0
  0
LINE
  5
191
330
1F
100
AcDbEntity
  8
0-0
  6
JWW_DASHED1
 62
   120
370
     5
100
AcDbLine
 10
-272.8798594482377
 20
-110.7926136363627
 30
0.0
 11
-272.8798594482377
 21
1064.207386363637
 31
0.0
  0
LINE
  5
192
330
1F
100
AcDbEntity
  8
0-0
  6
JWW_DASHED1
 62
   120
370
     5
100
AcDbLine
 10
-285.8798594493377
 20
-110.7926136363627
 30
0.0
 11
-285.8798594493377
 21
1064.207386363637
 31
0.0
  0
LINE
  5
193
330
1F
100
AcDbEntity
  8
0-0
  6
JWW_DASHED1
 62
   120
370
     5
100
AcDbLine
 10
-286.8798594492375
 20
-110.7926136363627
 30
0.0
 11
-286.8798594492375
 21
1064.207386363637
 31
0.0
  0
LINE
  5
194
330
1F
100
AcDbEntity
  8
0-0
  6
JWW_DASHED1
 62
   120
370
     5
100
AcDbLine
 10
-299.8798594503371
 20
-110.7926136363627
 30
0.0
 11
-299.8798594503371
 21
1064.207386363637
 31
0.0
  0
LINE
  5
195
330
1F
100
AcDbEntity
  8
0-0
  6
JWW_DASHED1
 62
   120
370
     5
100
AcDbLine
 10
-300.8798594502375
 20
-110.7926136363627
 30
0.0
 11
-300.8798594502375
 21
1064.207386363637
 31
0.0
  0
LINE
  5
196
330
1F
100
AcDbEntity
  8
0-0
  6
JWW_DASHED1
 62
   120
370
     5
100
AcDbLine
 10
-313.8798594513375
 20
-110.7926136363627
 30
0.0
 11
-313.8798594513375
 21
1064.207386363637
 31
0.0
  0
LINE
  5
197
330
1F
100
AcDbEntity
  8
0-0
  6
JWW_DASHED1
 62
   120
370
     5
100
AcDbLine
 10
-314.8798594512375
 20
-110.7926136363627
 30
0.0
 11
-314.8798594512375
 21
1064.207386363637
 31
0.0
  0
LINE
  5
198
330
1F
100
AcDbEntity
  8
0-0
  6
JWW_DASHED1
 62
   120
370
     5
100
AcDbLine
 10
-327.8798594523375
 20
-110.7926136363627
 30
0.0
 11
-327.8798594523375
 21
1064.207386363637
 31
0.0
  0
LINE
  5
199
330
1F
100
AcDbEntity
  8
0-0
  6
JWW_DASHED1
 62
   120
370
     5
100
AcDbLine
 10
-328.8798594522379
 20
-110.7926136363627
 30
0.0
 11
-328.8798594522379
 21
1064.207386363637
 31
0.0
  0
LINE
  5
19A
330
1F
100
AcDbEntity
  8
0-0
  6
JWW_DASHED1
 62
   120
370
     5
100
AcDbLine
 10
-341.8798594533373
 20
-110.7926136363627
 30
0.0
 11
-341.8798594533373
 21
1064.207386363637
 31
0.0
  0
LINE
  5
19B
330
1F
100
AcDbEntity
  8
0-0
  6
JWW_DASHED1
 62
   120
370
     5
100
AcDbLine
 10
-342.8798594532375
 20
-110.7926136363627
 30
0.0
 11
-342.8798594532375
 21
1064.207386363637
 31
0.0
  0
LINE
  5
19C
330
1F
100
AcDbEntity
  8
0-0
  6
JWW_DASHED1
 62
   120
370
     5
100
AcDbLine
 10
-355.8798594543371
 20
-110.7926136363627
 30
0.0
 11
-355.8798594543371
 21
1064.207386363637
 31
0.0
  0
LINE
  5
19D
330
1F
100
AcDbEntity
  8
0-0
  6
JWW_DASHED1
 62
   120
370
     5
100
AcDbLine
 10
-356.8798594542372
 20
-110.7926136363627
 30
0.0
 11
-356.8798594542372
 21
1064.207386363637
 31
0.0
  0
LINE
  5
19E
330
1F
100
AcDbEntity
  8
0-0
  6
JWW_DASHED1
 62
   120
370
     5
100
AcDbLine
 10
-369.8798594553373
 20
-110.7926136363627
 30
0.0
 11
-369.8798594553373
 21
1064.207386363637
 31
0.0
  0
LINE
  5
19F
330
1F
100
AcDbEntity
  8
0-0
  6
JWW_DASHED1
 62
   120
370
     5
100
AcDbLine
 10
-370.8798594552375
 20
-110.7926136363627
 30
0.0
 11
-370.8798594552375
 21
1064.207386363637
 31
0.0
  0
LINE
  5
1A0
330
1F
100
AcDbEntity
  8
0-0
  6
JWW_DASHED1
 62
   120
370
     5
100
AcDbLine
 10
-383.8798594563375
 20
-110.7926136363627
 30
0.0
 11
-383.8798594563375
 21
1064.207386363637
 31
0.0
  0
LINE
  5
1A1
330
1F
100
AcDbEntity
  8
0-0
  6
JWW_DASHED1
 62
   120
370
     5
100
AcDbLine
 10
-384.8798594562377
 20
-110.7926136363627
 30
0.0
 11
-384.8798594562377
 21
1064.207386363637
 31
0.0
  0
LINE
  5
1A2
330
1F
100
AcDbEntity
  8
0-0
  6
JWW_DASHED1
 62
   120
370
     5
100
AcDbLine
 10
-397.8798594573373
 20
-110.7926136363627
 30
0.0
 11
-397.8798594573373
 21
1064.207386363637
 31
0.0
  0
LINE
  5
1A3
330
1F
100
AcDbEntity
  8
0-0
  6
JWW_DASHED1
 62
   120
370
     5
100
AcDbLine
 10
-398.8798594572375
 20
-110.7926136363627
 30
0.0
 11
-398.8798594572375
 21
1064.207386363637
 31
0.0
  0
LINE
  5
1A4
330
1F
100
AcDbEntity
  8
0-0
  6
JWW_DASHED1
 62
   120
370
     5
100
AcDbLine
 10
-411.8798594583371
 20
-110.7926136363627
 30
0.0
 11
-411.8798594583371
 21
1064.207386363637
 31
0.0
  0
LINE
  5
1A5
330
1F
100
AcDbEntity
  8
0-0
  6
JWW_DASHED1
 62
   120
370
     5
100
AcDbLine
 10
-412.8798594582373
 20
-110.7926136363627
 30
0.0
 11
-412.8798594582373
 21
1064.207386363637
 31
0.0
  0
LINE
  5
1A6
330
1F
100
AcDbEntity
  8
0-0
  6
JWW_DASHED1
 62
   120
370
     5
100
AcDbLine
 10
-425.8798594593373
 20
-110.7926136363627
 30
0.0
 11
-425.8798594593373
 21
1064.207386363637
 31
0.0
  0
LINE
  5
1A7
330
1F
100
AcDbEntity
  8
0-0
  6
JWW_DASHED1
 62
   120
370
     5
100
AcDbLine
 10
-426.8798594592375
 20
-110.7926136363627
 30
0.0
 11
-426.8798594592375
 21
1064.207386363637
 31
0.0
  0
LINE
  5
1A8
330
1F
100
AcDbEntity
  8
0-0
  6
JWW_DASHED1
 62
   120
370
     5
100
AcDbLine
 10
-439.8798594603375
 20
-110.7926136363627
 30
0.0
 11
-439.8798594603375
 21
1064.207386363637
 31
0.0
  0
LINE
  5
1A9
330
1F
100
AcDbEntity
  8
0-0
  6
JWW_DASHED1
 62
   120
370
     5
100
AcDbLine
 10
-440.8798594602377
 20
-110.7926136363627
 30
0.0
 11
-440.8798594602377
 21
1064.207386363637
 31
0.0
  0
LINE
  5
1AA
330
1F
100
AcDbEntity
  8
0-0
  6
JWW_DASHED1
 62
   120
370
     5
100
AcDbLine
 10
-453.8798594613373
 20
-110.7926136363627
 30
0.0
 11
-453.8798594613373
 21
1064.207386363637
 31
0.0
  0
LINE
  5
1AB
330
1F
100
AcDbEntity
  8
0-0
  6
JWW_DASHED1
 62
   120
370
     5
100
AcDbLine
 10
-454.8798594612375
 20
-110.7926136363627
 30
0.0
 11
-454.8798594612375
 21
1064.207386363637
 31
0.0
  0
LINE
  5
1AC
330
1F
100
AcDbEntity
  8
0-0
  6
JWW_DASHED1
 62
   120
370
     5
100
AcDbLine
 10
-467.8798594623375
 20
-110.7926136363627
 30
0.0
 11
-467.8798594623375
 21
1064.207386363637
 31
0.0
  0
LINE
  5
1AD
330
1F
100
AcDbEntity
  8
0-0
  6
JWW_DASHED1
 62
   120
370
     5
100
AcDbLine
 10
-468.8798594622373
 20
-110.7926136363627
 30
0.0
 11
-468.8798594622373
 21
1064.207386363637
 31
0.0
  0
LINE
  5
1AE
330
1F
100
AcDbEntity
  8
0-0
  6
JWW_DASHED1
 62
   120
370
     5
100
AcDbLine
 10
-481.8798594633373
 20
-110.7926136363627
 30
0.0
 11
-481.8798594633373
 21
1064.207386363637
 31
0.0
  0
LINE
  5
1AF
330
1F
100
AcDbEntity
  8
0-0
  6
JWW_DASHED1
 62
   120
370
     5
100
AcDbLine
 10
-482.8798594632379
 20
-110.7926136363627
 30
0.0
 11
-482.8798594632379
 21
1064.207386363637
 31
0.0
  0
LINE
  5
1B0
330
1F
100
AcDbEntity
  8
0-0
  6
JWW_DASHED1
 62
   120
370
     5
100
AcDbLine
 10
-495.8798594643375
 20
-110.7926136363627
 30
0.0
 11
-495.8798594643375
 21
1064.207386363637
 31
0.0
  0
LINE
  5
1B1
330
1F
100
AcDbEntity
  8
0-0
  6
JWW_DASHED1
 62
   120
370
     5
100
AcDbLine
 10
-496.8798594642377
 20
-110.7926136363627
 30
0.0
 11
-496.8798594642377
 21
1064.207386363637
 31
0.0
  0
LINE
  5
1B2
330
1F
100
AcDbEntity
  8
0-0
  6
JWW_DASHED1
 62
   120
370
     5
100
AcDbLine
 10
-509.8798594653373
 20
-110.7926136363627
 30
0.0
 11
-509.8798594653373
 21
1064.207386363637
 31
0.0
  0
LINE
  5
1B3
330
1F
100
AcDbEntity
  8
0-0
  6
JWW_DASHED1
 62
   120
370
     5
100
AcDbLine
 10
-510.8798594652379
 20
-110.7926136363627
 30
0.0
 11
-510.8798594652379
 21
1064.207386363637
 31
0.0
  0
LINE
  5
1B4
330
1F
100
AcDbEntity
  8
0-0
  6
JWW_DASHED1
 62
   120
370
     5
100
AcDbLine
 10
-523.8798594663372
 20
-110.7926136363627
 30
0.0
 11
-523.8798594663372
 21
1064.207386363637
 31
0.0
  0
LINE
  5
1B5
330
1F
100
AcDbEntity
  8
0-0
  6
JWW_DASHED1
 62
   120
370
     5
100
AcDbLine
 10
-524.8798594662373
 20
-110.7926136363627
 30
0.0
 11
-524.8798594662373
 21
1064.207386363637
 31
0.0
  0
LINE
  5
1B6
330
1F
100
AcDbEntity
  8
0-0
  6
JWW_DASHED1
 62
   120
370
     5
100
AcDbLine
 10
-537.8798594673374
 20
-110.7926136363627
 30
0.0
 11
-537.8798594673374
 21
1064.207386363637
 31
0.0
  0
LINE
  5
1B7
330
1F
100
AcDbEntity
  8
0-0
  6
JWW_DASHED1
 62
   120
370
     5
100
AcDbLine
 10
-538.8798594672376
 20
-110.7926136363627
 30
0.0
 11
-538.8798594672376
 21
1064.207386363637
 31
0.0
  0
LINE
  5
1B8
330
1F
100
AcDbEntity
  8
0-0
  6
JWW_DASHED1
 62
   120
370
     5
100
AcDbLine
 10
-551.8798594683376
 20
-110.7926136363627
 30
0.0
 11
-551.8798594683376
 21
1064.207386363637
 31
0.0
  0
LINE
  5
1B9
330
1F
100
AcDbEntity
  8
0-0
  6
JWW_DASHED1
 62
   120
370
     5
100
AcDbLine
 10
8.120140571662589
 20
-110.7926136363627
 30
0.0
 11
8.120140571662589
 21
1064.207386363637
 31
0.0
  0
LINE
  5
1BA
330
1F
100
AcDbEntity
  8
0-0
  6
JWW_DASHED1
 62
   120
370
     5
100
AcDbLine
 10
-6.879859429237385
 20
-110.7926136363627
 30
0.0
 11
-6.879859429237385
 21
1064.207386363637
 31
0.0
  0
LINE
  5
1BB
330
1F
100
AcDbEntity
  8
0-0
  6
JWW_DASHED1
 62
   120
370
     5
100
AcDbLine
 10
7.120140571762406
 20
-110.7926136363627
 30
0.0
 11
7.120140571762406
 21
1064.207386363637
 31
0.0
  0
LINE
  5
1BC
330
1F
100
AcDbEntity
  8
0-0
  6
JWW_DASHED1
 62
   120
370
     5
100
AcDbLine
 10
-5.879859429337628
 20
-110.7926136363627
 30
0.0
 11
-5.879859429337628
 21
1064.207386363637
 31
0.0
  0
LINE
  5
1BD
330
1F
100
AcDbEntity
  8
0-0
  6
JWW_DASHED1
 62
   120
370
     5
100
AcDbLine
 10
-558.8798779262687
 20
1052.207238132676
 30
0.0
 11
14.1201220737301
 21
1052.207238132676
 31
0.0
  0
LINE
  5
1BE
330
1F
100
AcDbEntity
  8
0-0
  6
JWW_DASHED1
 62
   120
370
     5
100
AcDbLine
 10
-558.8798779262687
 20
1009.207238129777
 30
0.0
 11
14.1201220737301
 21
1009.207238129777
 31
0.0
  0
LINE
  5
1BF
330
1F
100
AcDbEntity
  8
0-0
  6
JWW_DASHED1
 62
   120
370
     5
100
AcDbLine
 10
-558.8798779262687
 20
1010.207238129677
 30
0.0
 11
14.1201220737301
 21
1010.207238129677
 31
0.0
  0
LINE
  5
1C0
330
1F
100
AcDbEntity
  8
0-0
  6
JWW_DASHED1
 62
   120
370
     5
100
AcDbLine
 10
-558.8798779262687
 20
1023.207238130777
 30
0.0
 11
14.1201220737301
 21
1023.207238130777
 31
0.0
  0
LINE
  5
1C1
330
1F
100
AcDbEntity
  8
0-0
  6
JWW_DASHED1
 62
   120
370
     5
100
AcDbLine
 10
-558.8798779262687
 20
1024.207238130677
 30
0.0
 11
14.1201220737301
 21
1024.207238130677
 31
0.0
  0
LINE
  5
1C2
330
1F
100
AcDbEntity
  8
0-0
  6
JWW_DASHED1
 62
   120
370
     5
100
AcDbLine
 10
-558.8798779262687
 20
1037.207238131776
 30
0.0
 11
14.1201220737301
 21
1037.207238131776
 31
0.0
  0
LINE
  5
1C3
330
1F
100
AcDbEntity
  8
0-0
  6
JWW_DASHED1
 62
   120
370
     5
100
AcDbLine
 10
-558.8798779262687
 20
1038.207238131676
 30
0.0
 11
14.1201220737301
 21
1038.207238131676
 31
0.0
  0
LINE
  5
1C4
330
1F
100
AcDbEntity
  8
0-0
  6
JWW_DASHED1
 62
   120
370
     5
100
AcDbLine
 10
-558.8798779262687
 20
1051.207238132776
 30
0.0
 11
14.1201220737301
 21
1051.207238132776
 31
0.0
  0
LINE
  5
1C5
330
1F
100
AcDbEntity
  8
0-0
  6
JWW_DASHED1
 62
   120
370
     5
100
AcDbLine
 10
251.1201220737305
 20
-109.7927619503062
 30
0.0
 11
824.1201220737312
 21
-109.7927619503062
 31
0.0
  0
LINE
  5
1C6
330
1F
100
AcDbEntity
  8
0-0
  6
JWW_DASHED1
 62
   120
370
     5
100
AcDbLine
 10
251.1201220737305
 20
-96.79276194920672
 30
0.0
 11
824.1201220737312
 21
-96.79276194920672
 31
0.0
  0
LINE
  5
1C7
330
1F
100
AcDbEntity
  8
0-0
  6
JWW_DASHED1
 62
   120
370
     5
100
AcDbLine
 10
251.1201220737305
 20
-95.79276194930654
 30
0.0
 11
824.1201220737312
 21
-95.79276194930654
 31
0.0
  0
LINE
  5
1C8
330
1F
100
AcDbEntity
  8
0-0
  6
JWW_DASHED1
 62
   120
370
     5
100
AcDbLine
 10
251.1201220737305
 20
-82.79276194820682
 30
0.0
 11
824.1201220737312
 21
-82.79276194820682
 31
0.0
  0
LINE
  5
1C9
330
1F
100
AcDbEntity
  8
0-0
  6
JWW_DASHED1
 62
   120
370
     5
100
AcDbLine
 10
251.1201220737305
 20
-81.79276194830663
 30
0.0
 11
824.1201220737312
 21
-81.79276194830663
 31
0.0
  0
LINE
  5
1CA
330
1F
100
AcDbEntity
  8
0-0
  6
JWW_DASHED1
 62
   120
370
     5
100
AcDbLine
 10
251.1201220737305
 20
-68.79276194720703
 30
0.0
 11
824.1201220737312
 21
-68.79276194720703
 31
0.0
  0
LINE
  5
1CB
330
1F
100
AcDbEntity
  8
0-0
  6
JWW_DASHED1
 62
   120
370
     5
100
AcDbLine
 10
251.1201220737305
 20
-67.79276194730684
 30
0.0
 11
824.1201220737312
 21
-67.79276194730684
 31
0.0
  0
LINE
  5
1CC
330
1F
100
AcDbEntity
  8
0-0
  6
JWW_DASHED1
 62
   120
370
     5
100
AcDbLine
 10
251.1201220737305
 20
-54.79276194620724
 30
0.0
 11
824.1201220737312
 21
-54.79276194620724
 31
0.0
  0
LINE
  5
1CD
330
1F
100
AcDbEntity
  8
0-0
  6
JWW_DASHED1
 62
   120
370
     5
100
AcDbLine
 10
251.1201220737305
 20
-53.79276194630705
 30
0.0
 11
824.1201220737312
 21
-53.79276194630705
 31
0.0
  0
LINE
  5
1CE
330
1F
100
AcDbEntity
  8
0-0
  6
JWW_DASHED1
 62
   120
370
     5
100
AcDbLine
 10
251.1201220737305
 20
-40.79276194520745
 30
0.0
 11
824.1201220737312
 21
-40.79276194520745
 31
0.0
  0
LINE
  5
1CF
330
1F
100
AcDbEntity
  8
0-0
  6
JWW_DASHED1
 62
   120
370
     5
100
AcDbLine
 10
251.1201220737305
 20
-39.79276194530726
 30
0.0
 11
824.1201220737312
 21
-39.79276194530726
 31
0.0
  0
LINE
  5
1D0
330
1F
100
AcDbEntity
  8
0-0
  6
JWW_DASHED1
 62
   120
370
     5
100
AcDbLine
 10
251.1201220737305
 20
-26.79276194420765
 30
0.0
 11
824.1201220737312
 21
-26.79276194420765
 31
0.0
  0
LINE
  5
1D1
330
1F
100
AcDbEntity
  8
0-0
  6
JWW_DASHED1
 62
   120
370
     5
100
AcDbLine
 10
251.1201220737305
 20
-25.79276194430747
 30
0.0
 11
824.1201220737312
 21
-25.79276194430747
 31
0.0
  0
LINE
  5
1D2
330
1F
100
AcDbEntity
  8
0-0
  6
JWW_DASHED1
 62
   120
370
     5
100
AcDbLine
 10
251.1201220737305
 20
-12.79276194320786
 30
0.0
 11
824.1201220737312
 21
-12.79276194320786
 31
0.0
  0
LINE
  5
1D3
330
1F
100
AcDbEntity
  8
0-0
  6
JWW_DASHED1
 62
   120
370
     5
100
AcDbLine
 10
251.1201220737305
 20
-11.79276194330768
 30
0.0
 11
824.1201220737312
 21
-11.79276194330768
 31
0.0
  0
LINE
  5
1D4
330
1F
100
AcDbEntity
  8
0-0
  6
JWW_DASHED1
 62
   120
370
     5
100
AcDbLine
 10
251.1201220737305
 20
1.207238057791926
 30
0.0
 11
824.1201220737312
 21
1.207238057791926
 31
0.0
  0
LINE
  5
1D5
330
1F
100
AcDbEntity
  8
0-0
  6
JWW_DASHED1
 62
   120
370
     5
100
AcDbLine
 10
251.1201220737305
 20
2.207238057692109
 30
0.0
 11
824.1201220737312
 21
2.207238057692109
 31
0.0
  0
LINE
  5
1D6
330
1F
100
AcDbEntity
  8
0-0
  6
JWW_DASHED1
 62
   120
370
     5
100
AcDbLine
 10
251.1201220737305
 20
15.20723805879161
 30
0.0
 11
824.1201220737312
 21
15.20723805879161
 31
0.0
  0
LINE
  5
1D7
330
1F
100
AcDbEntity
  8
0-0
  6
JWW_DASHED1
 62
   120
370
     5
100
AcDbLine
 10
251.1201220737305
 20
16.20723805869179
 30
0.0
 11
824.1201220737312
 21
16.20723805869179
 31
0.0
  0
LINE
  5
1D8
330
1F
100
AcDbEntity
  8
0-0
  6
JWW_DASHED1
 62
   120
370
     5
100
AcDbLine
 10
251.1201220737305
 20
29.20723805979151
 30
0.0
 11
824.1201220737312
 21
29.20723805979151
 31
0.0
  0
LINE
  5
1D9
330
1F
100
AcDbEntity
  8
0-0
  6
JWW_DASHED1
 62
   120
370
     5
100
AcDbLine
 10
251.1201220737305
 20
30.20723805969169
 30
0.0
 11
824.1201220737312
 21
30.20723805969169
 31
0.0
  0
LINE
  5
1DA
330
1F
100
AcDbEntity
  8
0-0
  6
JWW_DASHED1
 62
   120
370
     5
100
AcDbLine
 10
251.1201220737305
 20
43.2072380607913
 30
0.0
 11
824.1201220737312
 21
43.2072380607913
 31
0.0
  0
LINE
  5
1DB
330
1F
100
AcDbEntity
  8
0-0
  6
JWW_DASHED1
 62
   120
370
     5
100
AcDbLine
 10
251.1201220737305
 20
44.20723806069148
 30
0.0
 11
824.1201220737312
 21
44.20723806069148
 31
0.0
  0
LINE
  5
1DC
330
1F
100
AcDbEntity
  8
0-0
  6
JWW_DASHED1
 62
   120
370
     5
100
AcDbLine
 10
251.1201220737305
 20
57.20723806179109
 30
0.0
 11
824.1201220737312
 21
57.20723806179109
 31
0.0
  0
LINE
  5
1DD
330
1F
100
AcDbEntity
  8
0-0
  6
JWW_DASHED1
 62
   120
370
     5
100
AcDbLine
 10
251.1201220737305
 20
58.20723806169127
 30
0.0
 11
824.1201220737312
 21
58.20723806169127
 31
0.0
  0
LINE
  5
1DE
330
1F
100
AcDbEntity
  8
0-0
  6
JWW_DASHED1
 62
   120
370
     5
100
AcDbLine
 10
251.1201220737305
 20
71.20723806279088
 30
0.0
 11
824.1201220737312
 21
71.20723806279088
 31
0.0
  0
LINE
  5
1DF
330
1F
100
AcDbEntity
  8
0-0
  6
JWW_DASHED1
 62
   120
370
     5
100
AcDbLine
 10
251.1201220737305
 20
72.20723806269106
 30
0.0
 11
824.1201220737312
 21
72.20723806269106
 31
0.0
  0
LINE
  5
1E0
330
1F
100
AcDbEntity
  8
0-0
  6
JWW_DASHED1
 62
   120
370
     5
100
AcDbLine
 10
251.1201220737305
 20
85.20723806379067
 30
0.0
 11
824.1201220737312
 21
85.20723806379067
 31
0.0
  0
LINE
  5
1E1
330
1F
100
AcDbEntity
  8
0-0
  6
JWW_DASHED1
 62
   120
370
     5
100
AcDbLine
 10
251.1201220737305
 20
86.20723806369085
 30
0.0
 11
824.1201220737312
 21
86.20723806369085
 31
0.0
  0
LINE
  5
1E2
330
1F
100
AcDbEntity
  8
0-0
  6
JWW_DASHED1
 62
   120
370
     5
100
AcDbLine
 10
251.1201220737305
 20
99.20723806479046
 30
0.0
 11
824.1201220737312
 21
99.20723806479046
 31
0.0
  0
LINE
  5
1E3
330
1F
100
AcDbEntity
  8
0-0
  6
JWW_DASHED1
 62
   120
370
     5
100
AcDbLine
 10
251.1201220737305
 20
100.2072380646906
 30
0.0
 11
824.1201220737312
 21
100.2072380646906
 31
0.0
  0
LINE
  5
1E4
330
1F
100
AcDbEntity
  8
0-0
  6
JWW_DASHED1
 62
   120
370
     5
100
AcDbLine
 10
251.1201220737305
 20
113.2072380657902
 30
0.0
 11
824.1201220737312
 21
113.2072380657902
 31
0.0
  0
LINE
  5
1E5
330
1F
100
AcDbEntity
  8
0-0
  6
JWW_DASHED1
 62
   120
370
     5
100
AcDbLine
 10
251.1201220737305
 20
114.2072380656904
 30
0.0
 11
824.1201220737312
 21
114.2072380656904
 31
0.0
  0
LINE
  5
1E6
330
1F
100
AcDbEntity
  8
0-0
  6
JWW_DASHED1
 62
   120
370
     5
100
AcDbLine
 10
251.1201220737305
 20
127.2072380667899
 30
0.0
 11
824.1201220737312
 21
127.2072380667899
 31
0.0
  0
LINE
  5
1E7
330
1F
100
AcDbEntity
  8
0-0
  6
JWW_DASHED1
 62
   120
370
     5
100
AcDbLine
 10
251.1201220737305
 20
128.2072380666901
 30
0.0
 11
824.1201220737312
 21
128.2072380666901
 31
0.0
  0
LINE
  5
1E8
330
1F
100
AcDbEntity
  8
0-0
  6
JWW_DASHED1
 62
   120
370
     5
100
AcDbLine
 10
251.1201220737305
 20
141.2072380677898
 30
0.0
 11
824.1201220737312
 21
141.2072380677898
 31
0.0
  0
LINE
  5
1E9
330
1F
100
AcDbEntity
  8
0-0
  6
JWW_DASHED1
 62
   120
370
     5
100
AcDbLine
 10
251.1201220737305
 20
142.20723806769
 30
0.0
 11
824.1201220737312
 21
142.20723806769
 31
0.0
  0
LINE
  5
1EA
330
1F
100
AcDbEntity
  8
0-0
  6
JWW_DASHED1
 62
   120
370
     5
100
AcDbLine
 10
251.1201220737305
 20
155.2072380687896
 30
0.0
 11
824.1201220737312
 21
155.2072380687896
 31
0.0
  0
LINE
  5
1EB
330
1F
100
AcDbEntity
  8
0-0
  6
JWW_DASHED1
 62
   120
370
     5
100
AcDbLine
 10
251.1201220737305
 20
156.2072380686898
 30
0.0
 11
824.1201220737312
 21
156.2072380686898
 31
0.0
  0
LINE
  5
1EC
330
1F
100
AcDbEntity
  8
0-0
  6
JWW_DASHED1
 62
   120
370
     5
100
AcDbLine
 10
251.1201220737305
 20
169.2072380697894
 30
0.0
 11
824.1201220737312
 21
169.2072380697894
 31
0.0
  0
LINE
  5
1ED
330
1F
100
AcDbEntity
  8
0-0
  6
JWW_DASHED1
 62
   120
370
     5
100
AcDbLine
 10
251.1201220737305
 20
170.2072380696896
 30
0.0
 11
824.1201220737312
 21
170.2072380696896
 31
0.0
  0
LINE
  5
1EE
330
1F
100
AcDbEntity
  8
0-0
  6
JWW_DASHED1
 62
   120
370
     5
100
AcDbLine
 10
251.1201220737305
 20
183.2072380707892
 30
0.0
 11
824.1201220737312
 21
183.2072380707892
 31
0.0
  0
LINE
  5
1EF
330
1F
100
AcDbEntity
  8
0-0
  6
JWW_DASHED1
 62
   120
370
     5
100
AcDbLine
 10
251.1201220737305
 20
184.2072380706894
 30
0.0
 11
824.1201220737312
 21
184.2072380706894
 31
0.0
  0
LINE
  5
1F0
330
1F
100
AcDbEntity
  8
0-0
  6
JWW_DASHED1
 62
   120
370
     5
100
AcDbLine
 10
251.1201220737305
 20
197.207238071789
 30
0.0
 11
824.1201220737312
 21
197.207238071789
 31
0.0
  0
LINE
  5
1F1
330
1F
100
AcDbEntity
  8
0-0
  6
JWW_DASHED1
 62
   120
370
     5
100
AcDbLine
 10
251.1201220737305
 20
198.2072380716892
 30
0.0
 11
824.1201220737312
 21
198.2072380716892
 31
0.0
  0
LINE
  5
1F2
330
1F
100
AcDbEntity
  8
0-0
  6
JWW_DASHED1
 62
   120
370
     5
100
AcDbLine
 10
251.1201220737305
 20
211.2072380727888
 30
0.0
 11
824.1201220737312
 21
211.2072380727888
 31
0.0
  0
LINE
  5
1F3
330
1F
100
AcDbEntity
  8
0-0
  6
JWW_DASHED1
 62
   120
370
     5
100
AcDbLine
 10
251.1201220737305
 20
212.207238072689
 30
0.0
 11
824.1201220737312
 21
212.207238072689
 31
0.0
  0
LINE
  5
1F4
330
1F
100
AcDbEntity
  8
0-0
  6
JWW_DASHED1
 62
   120
370
     5
100
AcDbLine
 10
251.1201220737305
 20
225.2072380737886
 30
0.0
 11
824.1201220737312
 21
225.2072380737886
 31
0.0
  0
LINE
  5
1F5
330
1F
100
AcDbEntity
  8
0-0
  6
JWW_DASHED1
 62
   120
370
     5
100
AcDbLine
 10
251.1201220737305
 20
226.2072380736888
 30
0.0
 11
824.1201220737312
 21
226.2072380736888
 31
0.0
  0
LINE
  5
1F6
330
1F
100
AcDbEntity
  8
0-0
  6
JWW_DASHED1
 62
   120
370
     5
100
AcDbLine
 10
251.1201220737305
 20
239.2072380747884
 30
0.0
 11
824.1201220737312
 21
239.2072380747884
 31
0.0
  0
LINE
  5
1F7
330
1F
100
AcDbEntity
  8
0-0
  6
JWW_DASHED1
 62
   120
370
     5
100
AcDbLine
 10
251.1201220737305
 20
240.2072380746885
 30
0.0
 11
824.1201220737312
 21
240.2072380746885
 31
0.0
  0
LINE
  5
1F8
330
1F
100
AcDbEntity
  8
0-0
  6
JWW_DASHED1
 62
   120
370
     5
100
AcDbLine
 10
251.1201220737305
 20
253.2072380757882
 30
0.0
 11
824.1201220737312
 21
253.2072380757882
 31
0.0
  0
LINE
  5
1F9
330
1F
100
AcDbEntity
  8
0-0
  6
JWW_DASHED1
 62
   120
370
     5
100
AcDbLine
 10
251.1201220737305
 20
254.2072380756883
 30
0.0
 11
824.1201220737312
 21
254.2072380756883
 31
0.0
  0
LINE
  5
1FA
330
1F
100
AcDbEntity
  8
0-0
  6
JWW_DASHED1
 62
   120
370
     5
100
AcDbLine
 10
251.1201220737305
 20
267.2072380767877
 30
0.0
 11
824.1201220737312
 21
267.2072380767877
 31
0.0
  0
LINE
  5
1FB
330
1F
100
AcDbEntity
  8
0-0
  6
JWW_DASHED1
 62
   120
370
     5
100
AcDbLine
 10
251.1201220737305
 20
268.2072380766881
 30
0.0
 11
824.1201220737312
 21
268.2072380766881
 31
0.0
  0
LINE
  5
1FC
330
1F
100
AcDbEntity
  8
0-0
  6
JWW_DASHED1
 62
   120
370
     5
100
AcDbLine
 10
251.1201220737305
 20
281.2072380777877
 30
0.0
 11
824.1201220737312
 21
281.2072380777877
 31
0.0
  0
LINE
  5
1FD
330
1F
100
AcDbEntity
  8
0-0
  6
JWW_DASHED1
 62
   120
370
     5
100
AcDbLine
 10
251.1201220737305
 20
282.2072380776879
 30
0.0
 11
824.1201220737312
 21
282.2072380776879
 31
0.0
  0
LINE
  5
1FE
330
1F
100
AcDbEntity
  8
0-0
  6
JWW_DASHED1
 62
   120
370
     5
100
AcDbLine
 10
251.1201220737305
 20
295.2072380787876
 30
0.0
 11
824.1201220737312
 21
295.2072380787876
 31
0.0
  0
LINE
  5
1FF
330
1F
100
AcDbEntity
  8
0-0
  6
JWW_DASHED1
 62
   120
370
     5
100
AcDbLine
 10
251.1201220737305
 20
296.2072380786877
 30
0.0
 11
824.1201220737312
 21
296.2072380786877
 31
0.0
  0
LINE
  5
200
330
1F
100
AcDbEntity
  8
0-0
  6
JWW_DASHED1
 62
   120
370
     5
100
AcDbLine
 10
251.1201220737305
 20
309.2072380797873
 30
0.0
 11
824.1201220737312
 21
309.2072380797873
 31
0.0
  0
LINE
  5
201
330
1F
100
AcDbEntity
  8
0-0
  6
JWW_DASHED1
 62
   120
370
     5
100
AcDbLine
 10
251.1201220737305
 20
310.2072380796875
 30
0.0
 11
824.1201220737312
 21
310.2072380796875
 31
0.0
  0
LINE
  5
202
330
1F
100
AcDbEntity
  8
0-0
  6
JWW_DASHED1
 62
   120
370
     5
100
AcDbLine
 10
251.1201220737305
 20
323.2072380807871
 30
0.0
 11
824.1201220737312
 21
323.2072380807871
 31
0.0
  0
LINE
  5
203
330
1F
100
AcDbEntity
  8
0-0
  6
JWW_DASHED1
 62
   120
370
     5
100
AcDbLine
 10
251.1201220737305
 20
324.2072380806873
 30
0.0
 11
824.1201220737312
 21
324.2072380806873
 31
0.0
  0
LINE
  5
204
330
1F
100
AcDbEntity
  8
0-0
  6
JWW_DASHED1
 62
   120
370
     5
100
AcDbLine
 10
251.1201220737305
 20
337.2072380817869
 30
0.0
 11
824.1201220737312
 21
337.2072380817869
 31
0.0
  0
LINE
  5
205
330
1F
100
AcDbEntity
  8
0-0
  6
JWW_DASHED1
 62
   120
370
     5
100
AcDbLine
 10
251.1201220737305
 20
338.2072380816871
 30
0.0
 11
824.1201220737312
 21
338.2072380816871
 31
0.0
  0
LINE
  5
206
330
1F
100
AcDbEntity
  8
0-0
  6
JWW_DASHED1
 62
   120
370
     5
100
AcDbLine
 10
251.1201220737305
 20
351.2072380827867
 30
0.0
 11
824.1201220737312
 21
351.2072380827867
 31
0.0
  0
LINE
  5
207
330
1F
100
AcDbEntity
  8
0-0
  6
JWW_DASHED1
 62
   120
370
     5
100
AcDbLine
 10
251.1201220737305
 20
352.2072380826869
 30
0.0
 11
824.1201220737312
 21
352.2072380826869
 31
0.0
  0
LINE
  5
208
330
1F
100
AcDbEntity
  8
0-0
  6
JWW_DASHED1
 62
   120
370
     5
100
AcDbLine
 10
251.1201220737305
 20
365.2072380837865
 30
0.0
 11
824.1201220737312
 21
365.2072380837865
 31
0.0
  0
LINE
  5
209
330
1F
100
AcDbEntity
  8
0-0
  6
JWW_DASHED1
 62
   120
370
     5
100
AcDbLine
 10
251.1201220737305
 20
366.2072380836867
 30
0.0
 11
824.1201220737312
 21
366.2072380836867
 31
0.0
  0
LINE
  5
20A
330
1F
100
AcDbEntity
  8
0-0
  6
JWW_DASHED1
 62
   120
370
     5
100
AcDbLine
 10
251.1201220737305
 20
379.2072380847862
 30
0.0
 11
824.1201220737312
 21
379.2072380847862
 31
0.0
  0
LINE
  5
20B
330
1F
100
AcDbEntity
  8
0-0
  6
JWW_DASHED1
 62
   120
370
     5
100
AcDbLine
 10
251.1201220737305
 20
380.2072380846863
 30
0.0
 11
824.1201220737312
 21
380.2072380846863
 31
0.0
  0
LINE
  5
20C
330
1F
100
AcDbEntity
  8
0-0
  6
JWW_DASHED1
 62
   120
370
     5
100
AcDbLine
 10
251.1201220737305
 20
393.2072380857861
 30
0.0
 11
824.1201220737312
 21
393.2072380857861
 31
0.0
  0
LINE
  5
20D
330
1F
100
AcDbEntity
  8
0-0
  6
JWW_DASHED1
 62
   120
370
     5
100
AcDbLine
 10
251.1201220737305
 20
394.2072380856862
 30
0.0
 11
824.1201220737312
 21
394.2072380856862
 31
0.0
  0
LINE
  5
20E
330
1F
100
AcDbEntity
  8
0-0
  6
JWW_DASHED1
 62
   120
370
     5
100
AcDbLine
 10
251.1201220737305
 20
407.2072380867859
 30
0.0
 11
824.1201220737312
 21
407.2072380867859
 31
0.0
  0
LINE
  5
20F
330
1F
100
AcDbEntity
  8
0-0
  6
JWW_DASHED1
 62
   120
370
     5
100
AcDbLine
 10
251.1201220737305
 20
408.2072380866861
 30
0.0
 11
824.1201220737312
 21
408.2072380866861
 31
0.0
  0
LINE
  5
210
330
1F
100
AcDbEntity
  8
0-0
  6
JWW_DASHED1
 62
   120
370
     5
100
AcDbLine
 10
251.1201220737305
 20
421.2072380877856
 30
0.0
 11
824.1201220737312
 21
421.2072380877856
 31
0.0
  0
LINE
  5
211
330
1F
100
AcDbEntity
  8
0-0
  6
JWW_DASHED1
 62
   120
370
     5
100
AcDbLine
 10
251.1201220737305
 20
422.2072380876858
 30
0.0
 11
824.1201220737312
 21
422.2072380876858
 31
0.0
  0
LINE
  5
212
330
1F
100
AcDbEntity
  8
0-0
  6
JWW_DASHED1
 62
   120
370
     5
100
AcDbLine
 10
251.1201220737305
 20
435.2072380887854
 30
0.0
 11
824.1201220737312
 21
435.2072380887854
 31
0.0
  0
LINE
  5
213
330
1F
100
AcDbEntity
  8
0-0
  6
JWW_DASHED1
 62
   120
370
     5
100
AcDbLine
 10
251.1201220737305
 20
436.2072380886856
 30
0.0
 11
824.1201220737312
 21
436.2072380886856
 31
0.0
  0
LINE
  5
214
330
1F
100
AcDbEntity
  8
0-0
  6
JWW_DASHED1
 62
   120
370
     5
100
AcDbLine
 10
251.1201220737305
 20
449.2072380897852
 30
0.0
 11
824.1201220737312
 21
449.2072380897852
 31
0.0
  0
LINE
  5
215
330
1F
100
AcDbEntity
  8
0-0
  6
JWW_DASHED1
 62
   120
370
     5
100
AcDbLine
 10
251.1201220737305
 20
450.2072380896854
 30
0.0
 11
824.1201220737312
 21
450.2072380896854
 31
0.0
  0
LINE
  5
216
330
1F
100
AcDbEntity
  8
0-0
  6
JWW_DASHED1
 62
   120
370
     5
100
AcDbLine
 10
251.1201220737305
 20
463.207238090785
 30
0.0
 11
824.1201220737312
 21
463.207238090785
 31
0.0
  0
LINE
  5
217
330
1F
100
AcDbEntity
  8
0-0
  6
JWW_DASHED1
 62
   120
370
     5
100
AcDbLine
 10
251.1201220737305
 20
464.2072380906852
 30
0.0
 11
824.1201220737312
 21
464.2072380906852
 31
0.0
  0
LINE
  5
218
330
1F
100
AcDbEntity
  8
0-0
  6
JWW_DASHED1
 62
   120
370
     5
100
AcDbLine
 10
251.1201220737305
 20
477.2072380917848
 30
0.0
 11
824.1201220737312
 21
477.2072380917848
 31
0.0
  0
LINE
  5
219
330
1F
100
AcDbEntity
  8
0-0
  6
JWW_DASHED1
 62
   120
370
     5
100
AcDbLine
 10
251.1201220737305
 20
478.207238091685
 30
0.0
 11
824.1201220737312
 21
478.207238091685
 31
0.0
  0
LINE
  5
21A
330
1F
100
AcDbEntity
  8
0-0
  6
JWW_DASHED1
 62
   120
370
     5
100
AcDbLine
 10
251.1201220737305
 20
491.2072380927844
 30
0.0
 11
824.1201220737312
 21
491.2072380927844
 31
0.0
  0
LINE
  5
21B
330
1F
100
AcDbEntity
  8
0-0
  6
JWW_DASHED1
 62
   120
370
     5
100
AcDbLine
 10
251.1201220737305
 20
492.2072380926847
 30
0.0
 11
824.1201220737312
 21
492.2072380926847
 31
0.0
  0
LINE
  5
21C
330
1F
100
AcDbEntity
  8
0-0
  6
JWW_DASHED1
 62
   120
370
     5
100
AcDbLine
 10
251.1201220737305
 20
505.2072380937844
 30
0.0
 11
824.1201220737312
 21
505.2072380937844
 31
0.0
  0
LINE
  5
21D
330
1F
100
AcDbEntity
  8
0-0
  6
JWW_DASHED1
 62
   120
370
     5
100
AcDbLine
 10
251.1201220737305
 20
506.2072380936846
 30
0.0
 11
824.1201220737312
 21
506.2072380936846
 31
0.0
  0
LINE
  5
21E
330
1F
100
AcDbEntity
  8
0-0
  6
JWW_DASHED1
 62
   120
370
     5
100
AcDbLine
 10
251.1201220737305
 20
519.2072380947842
 30
0.0
 11
824.1201220737312
 21
519.2072380947842
 31
0.0
  0
LINE
  5
21F
330
1F
100
AcDbEntity
  8
0-0
  6
JWW_DASHED1
 62
   120
370
     5
100
AcDbLine
 10
251.1201220737305
 20
520.2072380946844
 30
0.0
 11
824.1201220737312
 21
520.2072380946844
 31
0.0
  0
LINE
  5
220
330
1F
100
AcDbEntity
  8
0-0
  6
JWW_DASHED1
 62
   120
370
     5
100
AcDbLine
 10
251.1201220737305
 20
533.207238095784
 30
0.0
 11
824.1201220737312
 21
533.207238095784
 31
0.0
  0
LINE
  5
221
330
1F
100
AcDbEntity
  8
0-0
  6
JWW_DASHED1
 62
   120
370
     5
100
AcDbLine
 10
251.1201220737305
 20
534.2072380956841
 30
0.0
 11
824.1201220737312
 21
534.2072380956841
 31
0.0
  0
LINE
  5
222
330
1F
100
AcDbEntity
  8
0-0
  6
JWW_DASHED1
 62
   120
370
     5
100
AcDbLine
 10
251.1201220737305
 20
547.2072380967837
 30
0.0
 11
824.1201220737312
 21
547.2072380967837
 31
0.0
  0
LINE
  5
223
330
1F
100
AcDbEntity
  8
0-0
  6
JWW_DASHED1
 62
   120
370
     5
100
AcDbLine
 10
251.1201220737305
 20
548.2072380966839
 30
0.0
 11
824.1201220737312
 21
548.2072380966839
 31
0.0
  0
LINE
  5
224
330
1F
100
AcDbEntity
  8
0-0
  6
JWW_DASHED1
 62
   120
370
     5
100
AcDbLine
 10
251.1201220737305
 20
561.2072380977836
 30
0.0
 11
824.1201220737312
 21
561.2072380977836
 31
0.0
  0
LINE
  5
225
330
1F
100
AcDbEntity
  8
0-0
  6
JWW_DASHED1
 62
   120
370
     5
100
AcDbLine
 10
251.1201220737305
 20
562.2072380976838
 30
0.0
 11
824.1201220737312
 21
562.2072380976838
 31
0.0
  0
LINE
  5
226
330
1F
100
AcDbEntity
  8
0-0
  6
JWW_DASHED1
 62
   120
370
     5
100
AcDbLine
 10
251.1201220737305
 20
575.2072380987834
 30
0.0
 11
824.1201220737312
 21
575.2072380987834
 31
0.0
  0
LINE
  5
227
330
1F
100
AcDbEntity
  8
0-0
  6
JWW_DASHED1
 62
   120
370
     5
100
AcDbLine
 10
251.1201220737305
 20
576.2072380986835
 30
0.0
 11
824.1201220737312
 21
576.2072380986835
 31
0.0
  0
LINE
  5
228
330
1F
100
AcDbEntity
  8
0-0
  6
JWW_DASHED1
 62
   120
370
     5
100
AcDbLine
 10
251.1201220737305
 20
589.2072380997831
 30
0.0
 11
824.1201220737312
 21
589.2072380997831
 31
0.0
  0
LINE
  5
229
330
1F
100
AcDbEntity
  8
0-0
  6
JWW_DASHED1
 62
   120
370
     5
100
AcDbLine
 10
251.1201220737305
 20
590.2072380996833
 30
0.0
 11
824.1201220737312
 21
590.2072380996833
 31
0.0
  0
LINE
  5
22A
330
1F
100
AcDbEntity
  8
0-0
  6
JWW_DASHED1
 62
   120
370
     5
100
AcDbLine
 10
251.1201220737305
 20
603.2072381007829
 30
0.0
 11
824.1201220737312
 21
603.2072381007829
 31
0.0
  0
LINE
  5
22B
330
1F
100
AcDbEntity
  8
0-0
  6
JWW_DASHED1
 62
   120
370
     5
100
AcDbLine
 10
251.1201220737305
 20
604.2072381006828
 30
0.0
 11
824.1201220737312
 21
604.2072381006828
 31
0.0
  0
LINE
  5
22C
330
1F
100
AcDbEntity
  8
0-0
  6
JWW_DASHED1
 62
   120
370
     5
100
AcDbLine
 10
251.1201220737305
 20
617.2072381017827
 30
0.0
 11
824.1201220737312
 21
617.2072381017827
 31
0.0
  0
LINE
  5
22D
330
1F
100
AcDbEntity
  8
0-0
  6
JWW_DASHED1
 62
   120
370
     5
100
AcDbLine
 10
251.1201220737305
 20
618.2072381016828
 30
0.0
 11
824.1201220737312
 21
618.2072381016828
 31
0.0
  0
LINE
  5
22E
330
1F
100
AcDbEntity
  8
0-0
  6
JWW_DASHED1
 62
   120
370
     5
100
AcDbLine
 10
251.1201220737305
 20
631.2072381027825
 30
0.0
 11
824.1201220737312
 21
631.2072381027825
 31
0.0
  0
LINE
  5
22F
330
1F
100
AcDbEntity
  8
0-0
  6
JWW_DASHED1
 62
   120
370
     5
100
AcDbLine
 10
251.1201220737305
 20
632.2072381026827
 30
0.0
 11
824.1201220737312
 21
632.2072381026827
 31
0.0
  0
LINE
  5
230
330
1F
100
AcDbEntity
  8
0-0
  6
JWW_DASHED1
 62
   120
370
     5
100
AcDbLine
 10
251.1201220737305
 20
645.2072381037823
 30
0.0
 11
824.1201220737312
 21
645.2072381037823
 31
0.0
  0
LINE
  5
231
330
1F
100
AcDbEntity
  8
0-0
  6
JWW_DASHED1
 62
   120
370
     5
100
AcDbLine
 10
251.1201220737305
 20
646.2072381036825
 30
0.0
 11
824.1201220737312
 21
646.2072381036825
 31
0.0
  0
LINE
  5
232
330
1F
100
AcDbEntity
  8
0-0
  6
JWW_DASHED1
 62
   120
370
     5
100
AcDbLine
 10
251.1201220737305
 20
659.207238104782
 30
0.0
 11
824.1201220737312
 21
659.207238104782
 31
0.0
  0
LINE
  5
233
330
1F
100
AcDbEntity
  8
0-0
  6
JWW_DASHED1
 62
   120
370
     5
100
AcDbLine
 10
251.1201220737305
 20
660.2072381046822
 30
0.0
 11
824.1201220737312
 21
660.2072381046822
 31
0.0
  0
LINE
  5
234
330
1F
100
AcDbEntity
  8
0-0
  6
JWW_DASHED1
 62
   120
370
     5
100
AcDbLine
 10
251.1201220737305
 20
673.2072381057819
 30
0.0
 11
824.1201220737312
 21
673.2072381057819
 31
0.0
  0
LINE
  5
235
330
1F
100
AcDbEntity
  8
0-0
  6
JWW_DASHED1
 62
   120
370
     5
100
AcDbLine
 10
251.1201220737305
 20
674.2072381056821
 30
0.0
 11
824.1201220737312
 21
674.2072381056821
 31
0.0
  0
LINE
  5
236
330
1F
100
AcDbEntity
  8
0-0
  6
JWW_DASHED1
 62
   120
370
     5
100
AcDbLine
 10
251.1201220737305
 20
687.2072381067817
 30
0.0
 11
824.1201220737312
 21
687.2072381067817
 31
0.0
  0
LINE
  5
237
330
1F
100
AcDbEntity
  8
0-0
  6
JWW_DASHED1
 62
   120
370
     5
100
AcDbLine
 10
251.1201220737305
 20
688.2072381066819
 30
0.0
 11
824.1201220737312
 21
688.2072381066819
 31
0.0
  0
LINE
  5
238
330
1F
100
AcDbEntity
  8
0-0
  6
JWW_DASHED1
 62
   120
370
     5
100
AcDbLine
 10
251.1201220737305
 20
701.2072381077814
 30
0.0
 11
824.1201220737312
 21
701.2072381077814
 31
0.0
  0
LINE
  5
239
330
1F
100
AcDbEntity
  8
0-0
  6
JWW_DASHED1
 62
   120
370
     5
100
AcDbLine
 10
251.1201220737305
 20
702.2072381076816
 30
0.0
 11
824.1201220737312
 21
702.2072381076816
 31
0.0
  0
LINE
  5
23A
330
1F
100
AcDbEntity
  8
0-0
  6
JWW_DASHED1
 62
   120
370
     5
100
AcDbLine
 10
251.1201220737305
 20
715.207238108781
 30
0.0
 11
824.1201220737312
 21
715.207238108781
 31
0.0
  0
LINE
  5
23B
330
1F
100
AcDbEntity
  8
0-0
  6
JWW_DASHED1
 62
   120
370
     5
100
AcDbLine
 10
251.1201220737305
 20
716.2072381086814
 30
0.0
 11
824.1201220737312
 21
716.2072381086814
 31
0.0
  0
LINE
  5
23C
330
1F
100
AcDbEntity
  8
0-0
  6
JWW_DASHED1
 62
   120
370
     5
100
AcDbLine
 10
251.1201220737305
 20
729.207238109781
 30
0.0
 11
824.1201220737312
 21
729.207238109781
 31
0.0
  0
LINE
  5
23D
330
1F
100
AcDbEntity
  8
0-0
  6
JWW_DASHED1
 62
   120
370
     5
100
AcDbLine
 10
251.1201220737305
 20
730.2072381096812
 30
0.0
 11
824.1201220737312
 21
730.2072381096812
 31
0.0
  0
LINE
  5
23E
330
1F
100
AcDbEntity
  8
0-0
  6
JWW_DASHED1
 62
   120
370
     5
100
AcDbLine
 10
251.1201220737305
 20
743.2072381107808
 30
0.0
 11
824.1201220737312
 21
743.2072381107808
 31
0.0
  0
LINE
  5
23F
330
1F
100
AcDbEntity
  8
0-0
  6
JWW_DASHED1
 62
   120
370
     5
100
AcDbLine
 10
251.1201220737305
 20
744.207238110681
 30
0.0
 11
824.1201220737312
 21
744.207238110681
 31
0.0
  0
LINE
  5
240
330
1F
100
AcDbEntity
  8
0-0
  6
JWW_DASHED1
 62
   120
370
     5
100
AcDbLine
 10
251.1201220737305
 20
757.2072381117806
 30
0.0
 11
824.1201220737312
 21
757.2072381117806
 31
0.0
  0
LINE
  5
241
330
1F
100
AcDbEntity
  8
0-0
  6
JWW_DASHED1
 62
   120
370
     5
100
AcDbLine
 10
251.1201220737305
 20
758.2072381116808
 30
0.0
 11
824.1201220737312
 21
758.2072381116808
 31
0.0
  0
LINE
  5
242
330
1F
100
AcDbEntity
  8
0-0
  6
JWW_DASHED1
 62
   120
370
     5
100
AcDbLine
 10
251.1201220737305
 20
771.2072381127804
 30
0.0
 11
824.1201220737312
 21
771.2072381127804
 31
0.0
  0
LINE
  5
243
330
1F
100
AcDbEntity
  8
0-0
  6
JWW_DASHED1
 62
   120
370
     5
100
AcDbLine
 10
251.1201220737305
 20
772.2072381126806
 30
0.0
 11
824.1201220737312
 21
772.2072381126806
 31
0.0
  0
LINE
  5
244
330
1F
100
AcDbEntity
  8
0-0
  6
JWW_DASHED1
 62
   120
370
     5
100
AcDbLine
 10
251.1201220737305
 20
785.2072381137802
 30
0.0
 11
824.1201220737312
 21
785.2072381137802
 31
0.0
  0
LINE
  5
245
330
1F
100
AcDbEntity
  8
0-0
  6
JWW_DASHED1
 62
   120
370
     5
100
AcDbLine
 10
251.1201220737305
 20
786.2072381136804
 30
0.0
 11
824.1201220737312
 21
786.2072381136804
 31
0.0
  0
LINE
  5
246
330
1F
100
AcDbEntity
  8
0-0
  6
JWW_DASHED1
 62
   120
370
     5
100
AcDbLine
 10
251.1201220737305
 20
799.20723811478
 30
0.0
 11
824.1201220737312
 21
799.20723811478
 31
0.0
  0
LINE
  5
247
330
1F
100
AcDbEntity
  8
0-0
  6
JWW_DASHED1
 62
   120
370
     5
100
AcDbLine
 10
251.1201220737305
 20
800.2072381146802
 30
0.0
 11
824.1201220737312
 21
800.2072381146802
 31
0.0
  0
LINE
  5
248
330
1F
100
AcDbEntity
  8
0-0
  6
JWW_DASHED1
 62
   120
370
     5
100
AcDbLine
 10
251.1201220737305
 20
813.2072381157795
 30
0.0
 11
824.1201220737312
 21
813.2072381157795
 31
0.0
  0
LINE
  5
249
330
1F
100
AcDbEntity
  8
0-0
  6
JWW_DASHED1
 62
   120
370
     5
100
AcDbLine
 10
251.1201220737305
 20
814.2072381156797
 30
0.0
 11
824.1201220737312
 21
814.2072381156797
 31
0.0
  0
LINE
  5
24A
330
1F
100
AcDbEntity
  8
0-0
  6
JWW_DASHED1
 62
   120
370
     5
100
AcDbLine
 10
251.1201220737305
 20
827.2072381167795
 30
0.0
 11
824.1201220737312
 21
827.2072381167795
 31
0.0
  0
LINE
  5
24B
330
1F
100
AcDbEntity
  8
0-0
  6
JWW_DASHED1
 62
   120
370
     5
100
AcDbLine
 10
251.1201220737305
 20
828.2072381166795
 30
0.0
 11
824.1201220737312
 21
828.2072381166795
 31
0.0
  0
LINE
  5
24C
330
1F
100
AcDbEntity
  8
0-0
  6
JWW_DASHED1
 62
   120
370
     5
100
AcDbLine
 10
251.1201220737305
 20
841.2072381177793
 30
0.0
 11
824.1201220737312
 21
841.2072381177793
 31
0.0
  0
LINE
  5
24D
330
1F
100
AcDbEntity
  8
0-0
  6
JWW_DASHED1
 62
   120
370
     5
100
AcDbLine
 10
251.1201220737305
 20
842.2072381176795
 30
0.0
 11
824.1201220737312
 21
842.2072381176795
 31
0.0
  0
LINE
  5
24E
330
1F
100
AcDbEntity
  8
0-0
  6
JWW_DASHED1
 62
   120
370
     5
100
AcDbLine
 10
251.1201220737305
 20
855.2072381187792
 30
0.0
 11
824.1201220737312
 21
855.2072381187792
 31
0.0
  0
LINE
  5
24F
330
1F
100
AcDbEntity
  8
0-0
  6
JWW_DASHED1
 62
   120
370
     5
100
AcDbLine
 10
251.1201220737305
 20
856.2072381186794
 30
0.0
 11
824.1201220737312
 21
856.2072381186794
 31
0.0
  0
LINE
  5
250
330
1F
100
AcDbEntity
  8
0-0
  6
JWW_DASHED1
 62
   120
370
     5
100
AcDbLine
 10
251.1201220737305
 20
869.2072381197789
 30
0.0
 11
824.1201220737312
 21
869.2072381197789
 31
0.0
  0
LINE
  5
251
330
1F
100
AcDbEntity
  8
0-0
  6
JWW_DASHED1
 62
   120
370
     5
100
AcDbLine
 10
251.1201220737305
 20
870.2072381196791
 30
0.0
 11
824.1201220737312
 21
870.2072381196791
 31
0.0
  0
LINE
  5
252
330
1F
100
AcDbEntity
  8
0-0
  6
JWW_DASHED1
 62
   120
370
     5
100
AcDbLine
 10
251.1201220737305
 20
883.2072381207787
 30
0.0
 11
824.1201220737312
 21
883.2072381207787
 31
0.0
  0
LINE
  5
253
330
1F
100
AcDbEntity
  8
0-0
  6
JWW_DASHED1
 62
   120
370
     5
100
AcDbLine
 10
251.1201220737305
 20
884.2072381206789
 30
0.0
 11
824.1201220737312
 21
884.2072381206789
 31
0.0
  0
LINE
  5
254
330
1F
100
AcDbEntity
  8
0-0
  6
JWW_DASHED1
 62
   120
370
     5
100
AcDbLine
 10
251.1201220737305
 20
897.2072381217786
 30
0.0
 11
824.1201220737312
 21
897.2072381217786
 31
0.0
  0
LINE
  5
255
330
1F
100
AcDbEntity
  8
0-0
  6
JWW_DASHED1
 62
   120
370
     5
100
AcDbLine
 10
251.1201220737305
 20
898.2072381216788
 30
0.0
 11
824.1201220737312
 21
898.2072381216788
 31
0.0
  0
LINE
  5
256
330
1F
100
AcDbEntity
  8
0-0
  6
JWW_DASHED1
 62
   120
370
     5
100
AcDbLine
 10
251.1201220737305
 20
911.2072381227783
 30
0.0
 11
824.1201220737312
 21
911.2072381227783
 31
0.0
  0
LINE
  5
257
330
1F
100
AcDbEntity
  8
0-0
  6
JWW_DASHED1
 62
   120
370
     5
100
AcDbLine
 10
251.1201220737305
 20
912.2072381226785
 30
0.0
 11
824.1201220737312
 21
912.2072381226785
 31
0.0
  0
LINE
  5
258
330
1F
100
AcDbEntity
  8
0-0
  6
JWW_DASHED1
 62
   120
370
     5
100
AcDbLine
 10
251.1201220737305
 20
925.2072381237779
 30
0.0
 11
824.1201220737312
 21
925.2072381237779
 31
0.0
  0
LINE
  5
259
330
1F
100
AcDbEntity
  8
0-0
  6
JWW_DASHED1
 62
   120
370
     5
100
AcDbLine
 10
251.1201220737305
 20
926.207238123678
 30
0.0
 11
824.1201220737312
 21
926.207238123678
 31
0.0
  0
LINE
  5
25A
330
1F
100
AcDbEntity
  8
0-0
  6
JWW_DASHED1
 62
   120
370
     5
100
AcDbLine
 10
251.1201220737305
 20
939.2072381247776
 30
0.0
 11
824.1201220737312
 21
939.2072381247776
 31
0.0
  0
LINE
  5
25B
330
1F
100
AcDbEntity
  8
0-0
  6
JWW_DASHED1
 62
   120
370
     5
100
AcDbLine
 10
251.1201220737305
 20
940.207238124678
 30
0.0
 11
824.1201220737312
 21
940.207238124678
 31
0.0
  0
LINE
  5
25C
330
1F
100
AcDbEntity
  8
0-0
  6
JWW_DASHED1
 62
   120
370
     5
100
AcDbLine
 10
251.1201220737305
 20
953.2072381257776
 30
0.0
 11
824.1201220737312
 21
953.2072381257776
 31
0.0
  0
LINE
  5
25D
330
1F
100
AcDbEntity
  8
0-0
  6
JWW_DASHED1
 62
   120
370
     5
100
AcDbLine
 10
251.1201220737305
 20
954.2072381256778
 30
0.0
 11
824.1201220737312
 21
954.2072381256778
 31
0.0
  0
LINE
  5
25E
330
1F
100
AcDbEntity
  8
0-0
  6
JWW_DASHED1
 62
   120
370
     5
100
AcDbLine
 10
251.1201220737305
 20
967.2072381267775
 30
0.0
 11
824.1201220737312
 21
967.2072381267775
 31
0.0
  0
LINE
  5
25F
330
1F
100
AcDbEntity
  8
0-0
  6
JWW_DASHED1
 62
   120
370
     5
100
AcDbLine
 10
251.1201220737305
 20
968.2072381266777
 30
0.0
 11
824.1201220737312
 21
968.2072381266777
 31
0.0
  0
LINE
  5
260
330
1F
100
AcDbEntity
  8
0-0
  6
JWW_DASHED1
 62
   120
370
     5
100
AcDbLine
 10
251.1201220737305
 20
981.2072381277773
 30
0.0
 11
824.1201220737312
 21
981.2072381277773
 31
0.0
  0
LINE
  5
261
330
1F
100
AcDbEntity
  8
0-0
  6
JWW_DASHED1
 62
   120
370
     5
100
AcDbLine
 10
251.1201220737305
 20
982.2072381276774
 30
0.0
 11
824.1201220737312
 21
982.2072381276774
 31
0.0
  0
LINE
  5
262
330
1F
100
AcDbEntity
  8
0-0
  6
JWW_DASHED1
 62
   120
370
     5
100
AcDbLine
 10
251.1201220737305
 20
995.207238128777
 30
0.0
 11
824.1201220737312
 21
995.207238128777
 31
0.0
  0
LINE
  5
263
330
1F
100
AcDbEntity
  8
0-0
  6
JWW_DASHED1
 62
   120
370
     5
100
AcDbLine
 10
251.1201220737305
 20
996.2072381286772
 30
0.0
 11
824.1201220737312
 21
996.2072381286772
 31
0.0
  0
LINE
  5
264
330
1F
100
AcDbEntity
  8
0-0
  6
JWW_DASHED1
 62
   120
370
     5
100
AcDbLine
 10
257.1201405317623
 20
-110.7926136363627
 30
0.0
 11
257.1201405317623
 21
1064.207386363637
 31
0.0
  0
LINE
  5
265
330
1F
100
AcDbEntity
  8
0-0
  6
JWW_DASHED1
 62
   120
370
     5
100
AcDbLine
 10
790.1201405696621
 20
-110.7926136363627
 30
0.0
 11
790.1201405696621
 21
1064.207386363637
 31
0.0
  0
LINE
  5
266
330
1F
100
AcDbEntity
  8
0-0
  6
JWW_DASHED1
 62
   120
370
     5
100
AcDbLine
 10
789.1201405697624
 20
-110.7926136363627
 30
0.0
 11
789.1201405697628
 21
1064.207386363637
 31
0.0
  0
LINE
  5
267
330
1F
100
AcDbEntity
  8
0-0
  6
JWW_DASHED1
 62
   120
370
     5
100
AcDbLine
 10
776.1201405686624
 20
-110.7926136363627
 30
0.0
 11
776.1201405686628
 21
1064.207386363637
 31
0.0
  0
LINE
  5
268
330
1F
100
AcDbEntity
  8
0-0
  6
JWW_DASHED1
 62
   120
370
     5
100
AcDbLine
 10
775.1201405687626
 20
-110.7926136363627
 30
0.0
 11
775.1201405687626
 21
1064.207386363637
 31
0.0
  0
LINE
  5
269
330
1F
100
AcDbEntity
  8
0-0
  6
JWW_DASHED1
 62
   120
370
     5
100
AcDbLine
 10
762.1201405676617
 20
-110.7926136363627
 30
0.0
 11
762.1201405676617
 21
1064.207386363637
 31
0.0
  0
LINE
  5
26A
330
1F
100
AcDbEntity
  8
0-0
  6
JWW_DASHED1
 62
   120
370
     5
100
AcDbLine
 10
761.1201405677624
 20
-110.7926136363627
 30
0.0
 11
761.1201405677624
 21
1064.207386363637
 31
0.0
  0
LINE
  5
26B
330
1F
100
AcDbEntity
  8
0-0
  6
JWW_DASHED1
 62
   120
370
     5
100
AcDbLine
 10
748.1201405666624
 20
-110.7926136363627
 30
0.0
 11
748.1201405666624
 21
1064.207386363637
 31
0.0
  0
LINE
  5
26C
330
1F
100
AcDbEntity
  8
0-0
  6
JWW_DASHED1
 62
   120
370
     5
100
AcDbLine
 10
747.1201405667622
 20
-110.7926136363627
 30
0.0
 11
747.1201405667622
 21
1064.207386363637
 31
0.0
  0
LINE
  5
26D
330
1F
100
AcDbEntity
  8
0-0
  6
JWW_DASHED1
 62
   120
370
     5
100
AcDbLine
 10
734.1201405656622
 20
-110.7926136363627
 30
0.0
 11
734.1201405656622
 21
1064.207386363637
 31
0.0
  0
LINE
  5
26E
330
1F
100
AcDbEntity
  8
0-0
  6
JWW_DASHED1
 62
   120
370
     5
100
AcDbLine
 10
733.1201405657624
 20
-110.7926136363627
 30
0.0
 11
733.1201405657628
 21
1064.207386363637
 31
0.0
  0
LINE
  5
26F
330
1F
100
AcDbEntity
  8
0-0
  6
JWW_DASHED1
 62
   120
370
     5
100
AcDbLine
 10
720.1201405646624
 20
-110.7926136363627
 30
0.0
 11
720.1201405646627
 21
1064.207386363637
 31
0.0
  0
LINE
  5
270
330
1F
100
AcDbEntity
  8
0-0
  6
JWW_DASHED1
 62
   120
370
     5
100
AcDbLine
 10
719.1201405647626
 20
-110.7926136363627
 30
0.0
 11
719.1201405647626
 21
1064.207386363637
 31
0.0
  0
LINE
  5
271
330
1F
100
AcDbEntity
  8
0-0
  6
JWW_DASHED1
 62
   120
370
     5
100
AcDbLine
 10
706.1201405636625
 20
-110.7926136363627
 30
0.0
 11
706.1201405636625
 21
1064.207386363637
 31
0.0
  0
LINE
  5
272
330
1F
100
AcDbEntity
  8
0-0
  6
JWW_DASHED1
 62
   120
370
     5
100
AcDbLine
 10
705.1201405637623
 20
-110.7926136363627
 30
0.0
 11
705.1201405637623
 21
1064.207386363637
 31
0.0
  0
LINE
  5
273
330
1F
100
AcDbEntity
  8
0-0
  6
JWW_DASHED1
 62
   120
370
     5
100
AcDbLine
 10
692.1201405626628
 20
-110.7926136363627
 30
0.0
 11
692.1201405626628
 21
1064.207386363637
 31
0.0
  0
LINE
  5
274
330
1F
100
AcDbEntity
  8
0-0
  6
JWW_DASHED1
 62
   120
370
     5
100
AcDbLine
 10
691.1201405627626
 20
-110.7926136363627
 30
0.0
 11
691.1201405627626
 21
1064.207386363637
 31
0.0
  0
LINE
  5
275
330
1F
100
AcDbEntity
  8
0-0
  6
JWW_DASHED1
 62
   120
370
     5
100
AcDbLine
 10
678.120140561663
 20
-110.7926136363627
 30
0.0
 11
678.120140561663
 21
1064.207386363637
 31
0.0
  0
LINE
  5
276
330
1F
100
AcDbEntity
  8
0-0
  6
JWW_DASHED1
 62
   120
370
     5
100
AcDbLine
 10
677.1201405617628
 20
-110.7926136363627
 30
0.0
 11
677.1201405617628
 21
1064.207386363637
 31
0.0
  0
LINE
  5
277
330
1F
100
AcDbEntity
  8
0-0
  6
JWW_DASHED1
 62
   120
370
     5
100
AcDbLine
 10
664.1201405606628
 20
-110.7926136363627
 30
0.0
 11
664.1201405606628
 21
1064.207386363637
 31
0.0
  0
LINE
  5
278
330
1F
100
AcDbEntity
  8
0-0
  6
JWW_DASHED1
 62
   120
370
     5
100
AcDbLine
 10
663.1201405607626
 20
-110.7926136363627
 30
0.0
 11
663.1201405607626
 21
1064.207386363637
 31
0.0
  0
LINE
  5
279
330
1F
100
AcDbEntity
  8
0-0
  6
JWW_DASHED1
 62
   120
370
     5
100
AcDbLine
 10
650.1201405596626
 20
-110.7926136363627
 30
0.0
 11
650.1201405596626
 21
1064.207386363637
 31
0.0
  0
LINE
  5
27A
330
1F
100
AcDbEntity
  8
0-0
  6
JWW_DASHED1
 62
   120
370
     5
100
AcDbLine
 10
649.1201405597624
 20
-110.7926136363627
 30
0.0
 11
649.1201405597624
 21
1064.207386363637
 31
0.0
  0
LINE
  5
27B
330
1F
100
AcDbEntity
  8
0-0
  6
JWW_DASHED1
 62
   120
370
     5
100
AcDbLine
 10
636.1201405586628
 20
-110.7926136363627
 30
0.0
 11
636.1201405586628
 21
1064.207386363637
 31
0.0
  0
LINE
  5
27C
330
1F
100
AcDbEntity
  8
0-0
  6
JWW_DASHED1
 62
   120
370
     5
100
AcDbLine
 10
635.1201405587626
 20
-110.7926136363627
 30
0.0
 11
635.1201405587626
 21
1064.207386363637
 31
0.0
  0
LINE
  5
27D
330
1F
100
AcDbEntity
  8
0-0
  6
JWW_DASHED1
 62
   120
370
     5
100
AcDbLine
 10
622.1201405576629
 20
-110.7926136363627
 30
0.0
 11
622.1201405576629
 21
1064.207386363637
 31
0.0
  0
LINE
  5
27E
330
1F
100
AcDbEntity
  8
0-0
  6
JWW_DASHED1
 62
   120
370
     5
100
AcDbLine
 10
621.1201405577624
 20
-110.7926136363627
 30
0.0
 11
621.1201405577624
 21
1064.207386363637
 31
0.0
  0
LINE
  5
27F
330
1F
100
AcDbEntity
  8
0-0
  6
JWW_DASHED1
 62
   120
370
     5
100
AcDbLine
 10
608.1201405566627
 20
-110.7926136363627
 30
0.0
 11
608.1201405566627
 21
1064.207386363637
 31
0.0
  0
LINE
  5
280
330
1F
100
AcDbEntity
  8
0-0
  6
JWW_DASHED1
 62
   120
370
     5
100
AcDbLine
 10
607.1201405567625
 20
-110.7926136363627
 30
0.0
 11
607.1201405567625
 21
1064.207386363637
 31
0.0
  0
LINE
  5
281
330
1F
100
AcDbEntity
  8
0-0
  6
JWW_DASHED1
 62
   120
370
     5
100
AcDbLine
 10
594.1201405556625
 20
-110.7926136363627
 30
0.0
 11
594.1201405556625
 21
1064.207386363637
 31
0.0
  0
LINE
  5
282
330
1F
100
AcDbEntity
  8
0-0
  6
JWW_DASHED1
 62
   120
370
     5
100
AcDbLine
 10
593.1201405557623
 20
-110.7926136363627
 30
0.0
 11
593.1201405557623
 21
1064.207386363637
 31
0.0
  0
LINE
  5
283
330
1F
100
AcDbEntity
  8
0-0
  6
JWW_DASHED1
 62
   120
370
     5
100
AcDbLine
 10
580.1201405546623
 20
-110.7926136363627
 30
0.0
 11
580.1201405546623
 21
1064.207386363637
 31
0.0
  0
LINE
  5
284
330
1F
100
AcDbEntity
  8
0-0
  6
JWW_DASHED1
 62
   120
370
     5
100
AcDbLine
 10
579.1201405547625
 20
-110.7926136363627
 30
0.0
 11
579.1201405547625
 21
1064.207386363637
 31
0.0
  0
LINE
  5
285
330
1F
100
AcDbEntity
  8
0-0
  6
JWW_DASHED1
 62
   120
370
     5
100
AcDbLine
 10
566.120140553663
 20
-110.7926136363627
 30
0.0
 11
566.120140553663
 21
1064.207386363637
 31
0.0
  0
LINE
  5
286
330
1F
100
AcDbEntity
  8
0-0
  6
JWW_DASHED1
 62
   120
370
     5
100
AcDbLine
 10
565.1201405537619
 20
-110.7926136363627
 30
0.0
 11
565.1201405537619
 21
1064.207386363637
 31
0.0
  0
LINE
  5
287
330
1F
100
AcDbEntity
  8
0-0
  6
JWW_DASHED1
 62
   120
370
     5
100
AcDbLine
 10
552.1201405526627
 20
-110.7926136363627
 30
0.0
 11
552.1201405526627
 21
1064.207386363637
 31
0.0
  0
LINE
  5
288
330
1F
100
AcDbEntity
  8
0-0
  6
JWW_DASHED1
 62
   120
370
     5
100
AcDbLine
 10
551.1201405527626
 20
-110.7926136363627
 30
0.0
 11
551.1201405527626
 21
1064.207386363637
 31
0.0
  0
LINE
  5
289
330
1F
100
AcDbEntity
  8
0-0
  6
JWW_DASHED1
 62
   120
370
     5
100
AcDbLine
 10
538.1201405516625
 20
-110.7926136363627
 30
0.0
 11
538.1201405516625
 21
1064.207386363637
 31
0.0
  0
LINE
  5
28A
330
1F
100
AcDbEntity
  8
0-0
  6
JWW_DASHED1
 62
   120
370
     5
100
AcDbLine
 10
537.1201405517623
 20
-110.7926136363627
 30
0.0
 11
537.1201405517623
 21
1064.207386363637
 31
0.0
  0
LINE
  5
28B
330
1F
100
AcDbEntity
  8
0-0
  6
JWW_DASHED1
 62
   120
370
     5
100
AcDbLine
 10
524.1201405506623
 20
-110.7926136363627
 30
0.0
 11
524.1201405506623
 21
1064.207386363637
 31
0.0
  0
LINE
  5
28C
330
1F
100
AcDbEntity
  8
0-0
  6
JWW_DASHED1
 62
   120
370
     5
100
AcDbLine
 10
523.1201405507626
 20
-110.7926136363627
 30
0.0
 11
523.1201405507626
 21
1064.207386363637
 31
0.0
  0
LINE
  5
28D
330
1F
100
AcDbEntity
  8
0-0
  6
JWW_DASHED1
 62
   120
370
     5
100
AcDbLine
 10
510.1201405496629
 20
-110.7926136363627
 30
0.0
 11
510.1201405496629
 21
1064.207386363637
 31
0.0
  0
LINE
  5
28E
330
1F
100
AcDbEntity
  8
0-0
  6
JWW_DASHED1
 62
   120
370
     5
100
AcDbLine
 10
509.1201405497628
 20
-110.7926136363627
 30
0.0
 11
509.1201405497628
 21
1064.207386363637
 31
0.0
  0
LINE
  5
28F
330
1F
100
AcDbEntity
  8
0-0
  6
JWW_DASHED1
 62
   120
370
     5
100
AcDbLine
 10
496.1201405486627
 20
-110.7926136363627
 30
0.0
 11
496.1201405486627
 21
1064.207386363637
 31
0.0
  0
LINE
  5
290
330
1F
100
AcDbEntity
  8
0-0
  6
JWW_DASHED1
 62
   120
370
     5
100
AcDbLine
 10
495.1201405487625
 20
-110.7926136363627
 30
0.0
 11
495.1201405487625
 21
1064.207386363637
 31
0.0
  0
LINE
  5
291
330
1F
100
AcDbEntity
  8
0-0
  6
JWW_DASHED1
 62
   120
370
     5
100
AcDbLine
 10
482.1201405476625
 20
-110.7926136363627
 30
0.0
 11
482.1201405476625
 21
1064.207386363637
 31
0.0
  0
LINE
  5
292
330
1F
100
AcDbEntity
  8
0-0
  6
JWW_DASHED1
 62
   120
370
     5
100
AcDbLine
 10
481.1201405477623
 20
-110.7926136363627
 30
0.0
 11
481.1201405477623
 21
1064.207386363637
 31
0.0
  0
LINE
  5
293
330
1F
100
AcDbEntity
  8
0-0
  6
JWW_DASHED1
 62
   120
370
     5
100
AcDbLine
 10
468.1201405466627
 20
-110.7926136363627
 30
0.0
 11
468.1201405466627
 21
1064.207386363637
 31
0.0
  0
LINE
  5
294
330
1F
100
AcDbEntity
  8
0-0
  6
JWW_DASHED1
 62
   120
370
     5
100
AcDbLine
 10
467.1201405467625
 20
-110.7926136363627
 30
0.0
 11
467.1201405467625
 21
1064.207386363637
 31
0.0
  0
LINE
  5
295
330
1F
100
AcDbEntity
  8
0-0
  6
JWW_DASHED1
 62
   120
370
     5
100
AcDbLine
 10
454.1201405456629
 20
-110.7926136363627
 30
0.0
 11
454.1201405456629
 21
1064.207386363637
 31
0.0
  0
LINE
  5
296
330
1F
100
AcDbEntity
  8
0-0
  6
JWW_DASHED1
 62
   120
370
     5
100
AcDbLine
 10
453.1201405457628
 20
-110.7926136363627
 30
0.0
 11
453.1201405457628
 21
1064.207386363637
 31
0.0
  0
LINE
  5
297
330
1F
100
AcDbEntity
  8
0-0
  6
JWW_DASHED1
 62
   120
370
     5
100
AcDbLine
 10
440.1201405446627
 20
-110.7926136363627
 30
0.0
 11
440.1201405446627
 21
1064.207386363637
 31
0.0
  0
LINE
  5
298
330
1F
100
AcDbEntity
  8
0-0
  6
JWW_DASHED1
 62
   120
370
     5
100
AcDbLine
 10
439.1201405447625
 20
-110.7926136363627
 30
0.0
 11
439.1201405447625
 21
1064.207386363637
 31
0.0
  0
LINE
  5
299
330
1F
100
AcDbEntity
  8
0-0
  6
JWW_DASHED1
 62
   120
370
     5
100
AcDbLine
 10
426.1201405436625
 20
-110.7926136363627
 30
0.0
 11
426.1201405436625
 21
1064.207386363637
 31
0.0
  0
LINE
  5
29A
330
1F
100
AcDbEntity
  8
0-0
  6
JWW_DASHED1
 62
   120
370
     5
100
AcDbLine
 10
425.1201405437623
 20
-110.7926136363627
 30
0.0
 11
425.1201405437623
 21
1064.207386363637
 31
0.0
  0
LINE
  5
29B
330
1F
100
AcDbEntity
  8
0-0
  6
JWW_DASHED1
 62
   120
370
     5
100
AcDbLine
 10
412.1201405426627
 20
-110.7926136363627
 30
0.0
 11
412.1201405426627
 21
1064.207386363637
 31
0.0
  0
LINE
  5
29C
330
1F
100
AcDbEntity
  8
0-0
  6
JWW_DASHED1
 62
   120
370
     5
100
AcDbLine
 10
411.1201405427625
 20
-110.7926136363627
 30
0.0
 11
411.1201405427625
 21
1064.207386363637
 31
0.0
  0
LINE
  5
29D
330
1F
100
AcDbEntity
  8
0-0
  6
JWW_DASHED1
 62
   120
370
     5
100
AcDbLine
 10
398.1201405416629
 20
-110.7926136363627
 30
0.0
 11
398.1201405416629
 21
1064.207386363637
 31
0.0
  0
LINE
  5
29E
330
1F
100
AcDbEntity
  8
0-0
  6
JWW_DASHED1
 62
   120
370
     5
100
AcDbLine
 10
397.1201405417627
 20
-110.7926136363627
 30
0.0
 11
397.1201405417627
 21
1064.207386363637
 31
0.0
  0
LINE
  5
29F
330
1F
100
AcDbEntity
  8
0-0
  6
JWW_DASHED1
 62
   120
370
     5
100
AcDbLine
 10
384.1201405406627
 20
-110.7926136363627
 30
0.0
 11
384.1201405406627
 21
1064.207386363637
 31
0.0
  0
LINE
  5
2A0
330
1F
100
AcDbEntity
  8
0-0
  6
JWW_DASHED1
 62
   120
370
     5
100
AcDbLine
 10
383.1201405407625
 20
-110.7926136363627
 30
0.0
 11
383.1201405407625
 21
1064.207386363637
 31
0.0
  0
LINE
  5
2A1
330
1F
100
AcDbEntity
  8
0-0
  6
JWW_DASHED1
 62
   120
370
     5
100
AcDbLine
 10
370.1201405396625
 20
-110.7926136363627
 30
0.0
 11
370.1201405396625
 21
1064.207386363637
 31
0.0
  0
LINE
  5
2A2
330
1F
100
AcDbEntity
  8
0-0
  6
JWW_DASHED1
 62
   120
370
     5
100
AcDbLine
 10
369.1201405397623
 20
-110.7926136363627
 30
0.0
 11
369.1201405397623
 21
1064.207386363637
 31
0.0
  0
LINE
  5
2A3
330
1F
100
AcDbEntity
  8
0-0
  6
JWW_DASHED1
 62
   120
370
     5
100
AcDbLine
 10
356.1201405386627
 20
-110.7926136363627
 30
0.0
 11
356.1201405386627
 21
1064.207386363637
 31
0.0
  0
LINE
  5
2A4
330
1F
100
AcDbEntity
  8
0-0
  6
JWW_DASHED1
 62
   120
370
     5
100
AcDbLine
 10
355.1201405387625
 20
-110.7926136363627
 30
0.0
 11
355.1201405387625
 21
1064.207386363637
 31
0.0
  0
LINE
  5
2A5
330
1F
100
AcDbEntity
  8
0-0
  6
JWW_DASHED1
 62
   120
370
     5
100
AcDbLine
 10
342.1201405376625
 20
-110.7926136363627
 30
0.0
 11
342.1201405376625
 21
1064.207386363637
 31
0.0
  0
LINE
  5
2A6
330
1F
100
AcDbEntity
  8
0-0
  6
JWW_DASHED1
 62
   120
370
     5
100
AcDbLine
 10
341.1201405377627
 20
-110.7926136363627
 30
0.0
 11
341.1201405377627
 21
1064.207386363637
 31
0.0
  0
LINE
  5
2A7
330
1F
100
AcDbEntity
  8
0-0
  6
JWW_DASHED1
 62
   120
370
     5
100
AcDbLine
 10
328.1201405366627
 20
-110.7926136363627
 30
0.0
 11
328.1201405366627
 21
1064.207386363637
 31
0.0
  0
LINE
  5
2A8
330
1F
100
AcDbEntity
  8
0-0
  6
JWW_DASHED1
 62
   120
370
     5
100
AcDbLine
 10
327.1201405367621
 20
-110.7926136363627
 30
0.0
 11
327.1201405367621
 21
1064.207386363637
 31
0.0
  0
LINE
  5
2A9
330
1F
100
AcDbEntity
  8
0-0
  6
JWW_DASHED1
 62
   120
370
     5
100
AcDbLine
 10
314.1201405356625
 20
-110.7926136363627
 30
0.0
 11
314.1201405356625
 21
1064.207386363637
 31
0.0
  0
LINE
  5
2AA
330
1F
100
AcDbEntity
  8
0-0
  6
JWW_DASHED1
 62
   120
370
     5
100
AcDbLine
 10
313.1201405357623
 20
-110.7926136363627
 30
0.0
 11
313.1201405357623
 21
1064.207386363637
 31
0.0
  0
LINE
  5
2AB
330
1F
100
AcDbEntity
  8
0-0
  6
JWW_DASHED1
 62
   120
370
     5
100
AcDbLine
 10
300.1201405346627
 20
-110.7926136363627
 30
0.0
 11
300.1201405346627
 21
1064.207386363637
 31
0.0
  0
LINE
  5
2AC
330
1F
100
AcDbEntity
  8
0-0
  6
JWW_DASHED1
 62
   120
370
     5
100
AcDbLine
 10
299.1201405347621
 20
-110.7926136363627
 30
0.0
 11
299.1201405347621
 21
1064.207386363637
 31
0.0
  0
LINE
  5
2AD
330
1F
100
AcDbEntity
  8
0-0
  6
JWW_DASHED1
 62
   120
370
     5
100
AcDbLine
 10
286.1201405336627
 20
-110.7926136363627
 30
0.0
 11
286.1201405336627
 21
1064.207386363637
 31
0.0
  0
LINE
  5
2AE
330
1F
100
AcDbEntity
  8
0-0
  6
JWW_DASHED1
 62
   120
370
     5
100
AcDbLine
 10
285.1201405337627
 20
-110.7926136363627
 30
0.0
 11
285.1201405337627
 21
1064.207386363637
 31
0.0
  0
LINE
  5
2AF
330
1F
100
AcDbEntity
  8
0-0
  6
JWW_DASHED1
 62
   120
370
     5
100
AcDbLine
 10
272.1201405326627
 20
-110.7926136363627
 30
0.0
 11
272.1201405326627
 21
1064.207386363637
 31
0.0
  0
LINE
  5
2B0
330
1F
100
AcDbEntity
  8
0-0
  6
JWW_DASHED1
 62
   120
370
     5
100
AcDbLine
 10
271.1201405327623
 20
-110.7926136363627
 30
0.0
 11
271.1201405327623
 21
1064.207386363637
 31
0.0
  0
LINE
  5
2B1
330
1F
100
AcDbEntity
  8
0-0
  6
JWW_DASHED1
 62
   120
370
     5
100
AcDbLine
 10
258.1201405316622
 20
-110.7926136363627
 30
0.0
 11
258.1201405316622
 21
1064.207386363637
 31
0.0
  0
LINE
  5
2B2
330
1F
100
AcDbEntity
  8
0-0
  6
JWW_DASHED1
 62
   120
370
     5
100
AcDbLine
 10
818.1201405716622
 20
-110.7926136363627
 30
0.0
 11
818.1201405716622
 21
1064.207386363637
 31
0.0
  0
LINE
  5
2B3
330
1F
100
AcDbEntity
  8
0-0
  6
JWW_DASHED1
 62
   120
370
     5
100
AcDbLine
 10
803.1201405707621
 20
-110.7926136363627
 30
0.0
 11
803.1201405707621
 21
1064.207386363637
 31
0.0
  0
LINE
  5
2B4
330
1F
100
AcDbEntity
  8
0-0
  6
JWW_DASHED1
 62
   120
370
     5
100
AcDbLine
 10
817.1201405717624
 20
-110.7926136363627
 30
0.0
 11
817.1201405717624
 21
1064.207386363637
 31
0.0
  0
LINE
  5
2B5
330
1F
100
AcDbEntity
  8
0-0
  6
JWW_DASHED1
 62
   120
370
     5
100
AcDbLine
 10
804.1201405706623
 20
-110.7926136363627
 30
0.0
 11
804.1201405706623
 21
1064.207386363637
 31
0.0
  0
LINE
  5
2B6
330
1F
100
AcDbEntity
  8
0-0
  6
JWW_DASHED1
 62
   120
370
     5
100
AcDbLine
 10
251.1201220737314
 20
1052.207238132676
 30
0.0
 11
824.1201220737303
 21
1052.207238132676
 31
0.0
  0
LINE
  5
2B7
330
1F
100
AcDbEntity
  8
0-0
  6
JWW_DASHED1
 62
   120
370
     5
100
AcDbLine
 10
251.1201220737314
 20
1009.207238129777
 30
0.0
 11
824.1201220737303
 21
1009.207238129777
 31
0.0
  0
LINE
  5
2B8
330
1F
100
AcDbEntity
  8
0-0
  6
JWW_DASHED1
 62
   120
370
     5
100
AcDbLine
 10
251.1201220737314
 20
1010.207238129677
 30
0.0
 11
824.1201220737303
 21
1010.207238129677
 31
0.0
  0
LINE
  5
2B9
330
1F
100
AcDbEntity
  8
0-0
  6
JWW_DASHED1
 62
   120
370
     5
100
AcDbLine
 10
251.1201220737314
 20
1023.207238130777
 30
0.0
 11
824.1201220737303
 21
1023.207238130777
 31
0.0
  0
LINE
  5
2BA
330
1F
100
AcDbEntity
  8
0-0
  6
JWW_DASHED1
 62
   120
370
     5
100
AcDbLine
 10
251.1201220737314
 20
1024.207238130677
 30
0.0
 11
824.1201220737303
 21
1024.207238130677
 31
0.0
  0
LINE
  5
2BB
330
1F
100
AcDbEntity
  8
0-0
  6
JWW_DASHED1
 62
   120
370
     5
100
AcDbLine
 10
251.1201220737314
 20
1037.207238131776
 30
0.0
 11
824.1201220737303
 21
1037.207238131776
 31
0.0
  0
LINE
  5
2BC
330
1F
100
AcDbEntity
  8
0-0
  6
JWW_DASHED1
 62
   120
370
     5
100
AcDbLine
 10
251.1201220737314
 20
1038.207238131676
 30
0.0
 11
824.1201220737303
 21
1038.207238131676
 31
0.0
  0
LINE
  5
2BD
330
1F
100
AcDbEntity
  8
0-0
  6
JWW_DASHED1
 62
   120
370
     5
100
AcDbLine
 10
251.1201220737314
 20
1051.207238132776
 30
0.0
 11
824.1201220737303
 21
1051.207238132776
 31
0.0
  0
ENDSEC
  0
SECTION
  2
OBJECTS
  0
DICTIONARY
  5
C
330
0
100
AcDbDictionary
281
     1
  3
ACAD_GROUP
350
D
  3
ACAD_LAYOUT
350
1A
  3
ACAD_MATERIAL
350
3B
  3
ACAD_MLEADERSTYLE
350
2BF
  3
ACAD_MLINESTYLE
350
17
  3
ACAD_PLOTSETTINGS
350
19
  3
ACAD_PLOTSTYLENAME
350
E
  3
ACAD_TABLESTYLE
350
2BE
  3
ACAD_VISUALSTYLE
350
2A
  0
DICTIONARY
  5
D
102
{ACAD_REACTORS
330
C
102
}
330
C
100
AcDbDictionary
281
     1
  0
DICTIONARY
  5
1A
102
{ACAD_REACTORS
330
C
102
}
330
C
100
AcDbDictionary
281
     1
  3
Layout1
350
1E
  3
Layout2
350
26
  3
Model
350
22
  0
DICTIONARY
  5
3B
102
{ACAD_REACTORS
330
C
102
}
330
C
100
AcDbDictionary
281
     1
  3
ByBlock
350
3D
  3
ByLayer
350
3C
  3
Global
350
3E
  0
DICTIONARY
  5
2BF
102
{ACAD_REACTORS
330
C
102
}
330
C
100
AcDbDictionary
281
     1
  0
DICTIONARY
  5
17
102
{ACAD_REACTORS
330
C
102
}
330
C
100
AcDbDictionary
281
     1
  3
Standard
350
18
  0
DICTIONARY
  5
19
102
{ACAD_REACTORS
330
C
102
}
330
C
100
AcDbDictionary
281
     1
  0
ACDBDICTIONARYWDFLT
  5
E
102
{ACAD_REACTORS
330
C
102
}
330
C
100
AcDbDictionary
281
     1
  3
Normal
350
F
100
AcDbDictionaryWithDefault
340
F
  0
DICTIONARY
  5
2BE
102
{ACAD_REACTORS
330
C
102
}
330
C
100
AcDbDictionary
281
     1
  0
DICTIONARY
  5
2A
102
{ACAD_REACTORS
330
C
102
}
330
C
100
AcDbDictionary
281
     1
  3
2dWireframe
350
2F
  3
3D Hidden
350
31
  3
3dWireframe
350
30
  3
Basic
350
32
  3
Brighten
350
36
  3
ColorChange
350
3A
  3
Conceptual
350
34
  3
Dim
350
35
  3
Facepattern
350
39
  3
Flat
350
2B
  3
FlatWithEdges
350
2C
  3
Gouraud
350
2D
  3
GouraudWithEdges
350
2E
  3
Linepattern
350
38
  3
Realistic
350
33
  3
Thicken
350
37
  0
LAYOUT
  5
1E
102
{ACAD_REACTORS
330
1A
102
}
330
1A
100
AcDbPlotSettings
  1

  2
none_device
  4

  6

 40
0.0
 41
0.0
 42
0.0
 43
0.0
 44
0.0
 45
0.0
 46
0.0
 47
0.0
 48
0.0
 49
0.0
140
0.0
141
0.0
142
1.0
143
1.0
 70
   688
 72
     0
 73
     0
 74
     5
  7

 75
    16
 76
     0
 77
     5
 78
   300
147
1.0
148
0.0
149
0.0
100
AcDbLayout
  1
Layout1
 70
     1
 71
     1
 10
0.0
 20
0.0
 11
420.0
 21
297.0
 12
0.0
 22
0.0
 32
0.0
 14
1.000000000000000E+20
 24
1.000000000000000E+20
 34
1.000000000000000E+20
 15
-1.000000000000000E+20
 25
-1.000000000000000E+20
 35
-1.000000000000000E+20
146
0.0
 13
0.0
 23
0.0
 33
0.0
 16
1.0
 26
0.0
 36
0.0
 17
0.0
 27
1.0
 37
0.0
 76
     0
330
1B
  0
LAYOUT
  5
26
102
{ACAD_REACTORS
330
1A
102
}
330
1A
100
AcDbPlotSettings
  1

  2
none_device
  4

  6

 40
0.0
 41
0.0
 42
0.0
 43
0.0
 44
0.0
 45
0.0
 46
0.0
 47
0.0
 48
0.0
 49
0.0
140
0.0
141
0.0
142
1.0
143
1.0
 70
   688
 72
     0
 73
     0
 74
     5
  7

 75
    16
 76
     0
 77
     5
 78
   300
147
1.0
148
0.0
149
0.0
100
AcDbLayout
  1
Layout2
 70
     1
 71
     2
 10
0.0
 20
0.0
 11
0.0
 21
0.0
 12
0.0
 22
0.0
 32
0.0
 14
0.0
 24
0.0
 34
0.0
 15
0.0
 25
0.0
 35
0.0
146
0.0
 13
0.0
 23
0.0
 33
0.0
 16
1.0
 26
0.0
 36
0.0
 17
0.0
 27
1.0
 37
0.0
 76
     0
330
23
  0
LAYOUT
  5
22
102
{ACAD_REACTORS
330
1A
102
}
330
1A
100
AcDbPlotSettings
  1

  2
none_device
  4

  6

 40
0.0
 41
0.0
 42
0.0
 43
0.0
 44
0.0
 45
0.0
 46
0.0
 47
0.0
 48
0.0
 49
0.0
140
0.0
141
0.0
142
1.0
143
1.0
 70
  1712
 72
     0
 73
     0
 74
     0
  7

 75
     0
 76
     0
 77
     5
 78
   300
147
1.0
148
0.0
149
0.0
100
AcDbLayout
  1
Model
 70
     1
 71
     0
 10
-4455.0
 20
-3150.0
 11
4455.0
 21
3150.0
 12
0.0
 22
0.0
 32
0.0
 14
-4455.0
 24
-3150.0
 34
0.0
 15
4455.0
 25
3150.0
 35
0.0
146
0.0
 13
0.0
 23
0.0
 33
0.0
 16
1.0
 26
0.0
 36
0.0
 17
0.0
 27
1.0
 37
0.0
 76
     0
330
1F
331
29
  0
MATERIAL
  5
3D
102
{ACAD_REACTORS
330
3B
102
}
330
3B
100
AcDbMaterial
  1
ByBlock
 72
     1
 94
      127
  0
MATERIAL
  5
3C
102
{ACAD_REACTORS
330
3B
102
}
330
3B
100
AcDbMaterial
  1
ByLayer
 72
     1
 94
      127
  0
MATERIAL
  5
3E
102
{ACAD_REACTORS
330
3B
102
}
330
3B
100
AcDbMaterial
  1
Global
 72
     1
 94
      127
  0
MLINESTYLE
  5
18
102
{ACAD_REACTORS
330
17
102
}
330
17
100
AcDbMlineStyle
  2
Standard
 70
     0
  3

 62
   256
 51
90.0
 52
90.0
 71
     2
 49
0.5
 62
   256
  6
BYLAYER
 49
-0.5
 62
   256
  6
BYLAYER
  0
ACDBPLACEHOLDER
  5
F
102
{ACAD_REACTORS
330
E
102
}
330
E
  0
VISUALSTYLE
  5
2F
102
{ACAD_REACTORS
330
2A
102
}
330
2A
100
AcDbVisualStyle
  2
2dWireframe
 70
     4
177
     2
291
     0
 71
     0
176
     1
 72
     2
176
     1
 73
     0
176
     1
 90
        0
176
     1
 40
-0.6
176
     1
 41
-30.0
176
     1
 62
     5
 63
     7
421
 16777215
176
     1
 74
     1
176
     1
 91
        4
176
     1
 64
     7
176
     1
 65
   257
176
     1
 75
     1
176
     1
175
     1
176
     1
 42
1.0
176
     1
 92
        0
176
     1
 66
   257
176
     1
 43
1.0
176
     1
 76
     1
176
     1
 77
     6
176
     1
 78
     2
176
     1
 67
     7
176
     1
 79
     5
176
     1
170
     0
176
     1
171
     0
176
     1
290
     0
176
     1
 93
        1
176
     1
 44
0.0
176
     1
173
     0
176
     1
  0
VISUALSTYLE
  5
31
102
{ACAD_REACTORS
330
2A
102
}
330
2A
100
AcDbVisualStyle
  2
3D Hidden
 70
     6
177
     2
291
     0
 71
     1
176
     1
 72
     2
176
     1
 73
     2
176
     1
 90
        0
176
     1
 40
-0.6
176
     1
 41
-30.0
176
     1
 62
     5
 63
     7
421
 16777215
176
     1
 74
     2
176
     1
 91
        2
176
     1
 64
     7
176
     1
 65
   257
176
     1
 75
     2
176
     1
175
     1
176
     1
 42
40.0
176
     1
 92
        0
176
     1
 66
   257
176
     1
 43
1.0
176
     1
 76
     1
176
     1
 77
     6
176
     1
 78
     2
176
     1
 67
     7
176
     1
 79
     3
176
     1
170
     0
176
     1
171
     0
176
     1
290
     0
176
     1
 93
        1
176
     1
 44
0.0
176
     1
173
     0
176
     1
  0
VISUALSTYLE
  5
30
102
{ACAD_REACTORS
330
2A
102
}
330
2A
100
AcDbVisualStyle
  2
3dWireframe
 70
     5
177
     2
291
     0
 71
     0
176
     1
 72
     2
176
     1
 73
     0
176
     1
 90
        0
176
     1
 40
-0.6
176
     1
 41
-30.0
176
     1
 62
     5
 63
     7
421
 16777215
176
     1
 74
     1
176
     1
 91
        4
176
     1
 64
     7
176
     1
 65
   257
176
     1
 75
     1
176
     1
175
     1
176
     1
 42
1.0
176
     1
 92
        0
176
     1
 66
   257
176
     1
 43
1.0
176
     1
 76
     1
176
     1
 77
     6
176
     1
 78
     2
176
     1
 67
     7
176
     1
 79
     5
176
     1
170
     0
176
     1
171
     0
176
     1
290
     0
176
     1
 93
        1
176
     1
 44
0.0
176
     1
173
     0
176
     1
  0
VISUALSTYLE
  5
32
102
{ACAD_REACTORS
330
2A
102
}
330
2A
100
AcDbVisualStyle
  2
Basic
 70
     7
177
     2
291
     1
 71
     1
176
     1
 72
     0
176
     1
 73
     1
176
     1
 90
        0
176
     1
 40
-0.6
176
     1
 41
-30.0
176
     1
 62
     5
 63
     7
421
 16777215
176
     1
 74
     0
176
     1
 91
        4
176
     1
 64
     7
176
     1
 65
   257
176
     1
 75
     1
176
     1
175
     1
176
     1
 42
1.0
176
     1
 92
        8
176
     1
 66
     7
176
     1
 43
1.0
176
     1
 76
     1
176
     1
 77
     6
176
     1
 78
     2
176
     1
 67
     7
176
     1
 79
     5
176
     1
170
     0
176
     1
171
     0
176
     1
290
     0
176
     1
 93
        1
176
     1
 44
0.0
176
     1
173
     0
176
     1
  0
VISUALSTYLE
  5
36
102
{ACAD_REACTORS
330
2A
102
}
330
2A
100
AcDbVisualStyle
  2
Brighten
 70
    12
177
     2
291
     1
 71
     2
176
     1
 72
     2
176
     1
 73
     0
176
     1
 90
        0
176
     1
 40
-0.6
176
     1
 41
-30.0
176
     1
 62
     5
 63
     7
421
 16777215
176
     1
 74
     1
176
     1
 91
        4
176
     1
 64
     7
176
     1
 65
   257
176
     1
 75
     1
176
     1
175
     1
176
     1
 42
1.0
176
     1
 92
        8
176
     1
 66
     7
176
     1
 43
1.0
176
     1
 76
     1
176
     1
 77
     6
176
     1
 78
     2
176
     1
 67
     7
176
     1
 79
     5
176
     1
170
     0
176
     1
171
     0
176
     1
290
     0
176
     1
 93
        1
176
     1
 44
50.0
176
     1
173
     0
176
     1
  0
VISUALSTYLE
  5
3A
102
{ACAD_REACTORS
330
2A
102
}
330
2A
100
AcDbVisualStyle
  2
ColorChange
 70
    16
177
     2
291
     1
 71
     2
176
     1
 72
     2
176
     1
 73
     3
176
     1
 90
        0
176
     1
 40
-0.6
176
     1
 41
-30.0
176
     1
 62
     5
 63
     8
421
  8421504
176
     1
 74
     1
176
     1
 91
        4
176
     1
 64
     7
176
     1
 65
   257
176
     1
 75
     1
176
     1
175
     1
176
     1
 42
1.0
176
     1
 92
        8
176
     1
 66
     8
424
  8421504
176
     1
 43
1.0
176
     1
 76
     1
176
     1
 77
     6
176
     1
 78
     2
176
     1
 67
     7
176
     1
 79
     5
176
     1
170
     0
176
     1
171
     0
176
     1
290
     0
176
     1
 93
        1
176
     1
 44
0.0
176
     1
173
     0
176
     1
  0
VISUALSTYLE
  5
34
102
{ACAD_REACTORS
330
2A
102
}
330
2A
100
AcDbVisualStyle
  2
Conceptual
 70
     9
177
     2
291
     0
 71
     3
176
     1
 72
     2
176
     1
 73
     0
176
     1
 90
        0
176
     1
 40
-0.6
176
     1
 41
-30.0
176
     1
 62
     5
 63
     7
421
 16777215
176
     1
 74
     2
176
     1
 91
        2
176
     1
 64
     7
176
     1
 65
   257
176
     1
 75
     1
176
     1
175
     1
176
     1
 42
40.0
176
     1
 92
        8
176
     1
 66
     7
176
     1
 43
1.0
176
     1
 76
     1
176
     1
 77
     6
176
     1
 78
     2
176
     1
 67
     7
176
     1
 79
     3
176
     1
170
     0
176
     1
171
     0
176
     1
290
     0
176
     1
 93
        1
176
     1
 44
0.0
176
     1
173
     0
176
     1
  0
VISUALSTYLE
  5
35
102
{ACAD_REACTORS
330
2A
102
}
330
2A
100
AcDbVisualStyle
  2
Dim
 70
    11
177
     2
291
     1
 71
     2
176
     1
 72
     2
176
     1
 73
     0
176
     1
 90
        0
176
     1
 40
-0.6
176
     1
 41
-30.0
176
     1
 62
     5
 63
     7
421
 16777215
176
     1
 74
     1
176
     1
 91
        4
176
     1
 64
     7
176
     1
 65
   257
176
     1
 75
     1
176
     1
175
     1
176
     1
 42
1.0
176
     1
 92
        8
176
     1
 66
     7
176
     1
 43
1.0
176
     1
 76
     1
176
     1
 77
     6
176
     1
 78
     2
176
     1
 67
     7
176
     1
 79
     5
176
     1
170
     0
176
     1
171
     0
176
     1
290
     0
176
     1
 93
        1
176
     1
 44
-50.0
176
     1
173
     0
176
     1
  0
VISUALSTYLE
  5
39
102
{ACAD_REACTORS
330
2A
102
}
330
2A
100
AcDbVisualStyle
  2
Facepattern
 70
    15
177
     2
291
     1
 71
     2
176
     1
 72
     2
176
     1
 73
     0
176
     1
 90
        0
176
     1
 40
-0.6
176
     1
 41
-30.0
176
     1
 62
     5
 63
     7
421
 16777215
176
     1
 74
     1
176
     1
 91
        4
176
     1
 64
     7
176
     1
 65
   257
176
     1
 75
     1
176
     1
175
     1
176
     1
 42
1.0
176
     1
 92
        8
176
     1
 66
     7
176
     1
 43
1.0
176
     1
 76
     1
176
     1
 77
     6
176
     1
 78
     2
176
     1
 67
     7
176
     1
 79
     5
176
     1
170
     0
176
     1
171
     0
176
     1
290
     0
176
     1
 93
        1
176
     1
 44
0.0
176
     1
173
     0
176
     1
  0
VISUALSTYLE
  5
2B
102
{ACAD_REACTORS
330
2A
102
}
330
2A
100
AcDbVisualStyle
  2
Flat
 70
     0
177
     2
291
     1
 71
     2
176
     1
 72
     1
176
     1
 73
     1
176
     1
 90
        2
176
     1
 40
-0.6
176
     1
 41
30.0
176
     1
 62
     5
 63
     7
421
 16777215
176
     1
 74
     0
176
     1
 91
        4
176
     1
 64
     7
176
     1
 65
   257
176
     1
 75
     1
176
     1
175
     1
176
     1
 42
1.0
176
     1
 92
        8
176
     1
 66
     7
176
     1
 43
1.0
176
     1
 76
     1
176
     1
 77
     6
176
     1
 78
     2
176
     1
 67
     7
176
     1
 79
     5
176
     1
170
     0
176
     1
171
     0
176
     1
290
     0
176
     1
 93
       13
176
     1
 44
0.0
176
     1
173
     0
176
     1
  0
VISUALSTYLE
  5
2C
102
{ACAD_REACTORS
330
2A
102
}
330
2A
100
AcDbVisualStyle
  2
FlatWithEdges
 70
     1
177
     2
291
     1
 71
     2
176
     1
 72
     1
176
     1
 73
     1
176
     1
 90
        2
176
     1
 40
-0.6
176
     1
 41
30.0
176
     1
 62
     5
 63
     7
421
 16777215
176
     1
 74
     1
176
     1
 91
        4
176
     1
 64
     7
176
     1
 65
   257
176
     1
 75
     1
176
     1
175
     1
176
     1
 42
1.0
176
     1
 92
        0
176
     1
 66
   257
176
     1
 43
1.0
176
     1
 76
     1
176
     1
 77
     6
176
     1
 78
     2
176
     1
 67
     7
176
     1
 79
     5
176
     1
170
     0
176
     1
171
     0
176
     1
290
     0
176
     1
 93
       13
176
     1
 44
0.0
176
     1
173
     0
176
     1
  0
VISUALSTYLE
  5
2D
102
{ACAD_REACTORS
330
2A
102
}
330
2A
100
AcDbVisualStyle
  2
Gouraud
 70
     2
177
     2
291
     1
 71
     2
176
     1
 72
     2
176
     1
 73
     1
176
     1
 90
        2
176
     1
 40
-0.6
176
     1
 41
30.0
176
     1
 62
     5
 63
     7
421
 16777215
176
     1
 74
     0
176
     1
 91
        4
176
     1
 64
     7
176
     1
 65
   257
176
     1
 75
     1
176
     1
175
     1
176
     1
 42
1.0
176
     1
 92
        0
176
     1
 66
     7
176
     1
 43
1.0
176
     1
 76
     1
176
     1
 77
     6
176
     1
 78
     2
176
     1
 67
     7
176
     1
 79
     5
176
     1
170
     0
176
     1
171
     0
176
     1
290
     0
176
     1
 93
       13
176
     1
 44
0.0
176
     1
173
     0
176
     1
  0
VISUALSTYLE
  5
2E
102
{ACAD_REACTORS
330
2A
102
}
330
2A
100
AcDbVisualStyle
  2
GouraudWithEdges
 70
     3
177
     2
291
     1
 71
     2
176
     1
 72
     2
176
     1
 73
     1
176
     1
 90
        2
176
     1
 40
-0.6
176
     1
 41
30.0
176
     1
 62
     5
 63
     7
421
 16777215
176
     1
 74
     1
176
     1
 91
        4
176
     1
 64
     7
176
     1
 65
   257
176
     1
 75
     1
176
     1
175
     1
176
     1
 42
1.0
176
     1
 92
        0
176
     1
 66
   257
176
     1
 43
1.0
176
     1
 76
     1
176
     1
 77
     6
176
     1
 78
     2
176
     1
 67
     7
176
     1
 79
     5
176
     1
170
     0
176
     1
171
     0
176
     1
290
     0
176
     1
 93
       13
176
     1
 44
0.0
176
     1
173
     0
176
     1
  0
VISUALSTYLE
  5
38
102
{ACAD_REACTORS
330
2A
102
}
330
2A
100
AcDbVisualStyle
  2
Linepattern
 70
    14
177
     2
291
     1
 71
     2
176
     1
 72
     2
176
     1
 73
     0
176
     1
 90
        0
176
     1
 40
-0.6
176
     1
 41
-30.0
176
     1
 62
     5
 63
     7
421
 16777215
176
     1
 74
     1
176
     1
 91
        4
176
     1
 64
     7
176
     1
 65
   257
176
     1
 75
     7
176
     1
175
     7
176
     1
 42
1.0
176
     1
 92
        8
176
     1
 66
     7
176
     1
 43
1.0
176
     1
 76
     1
176
     1
 77
     6
176
     1
 78
     2
176
     1
 67
     7
176
     1
 79
     5
176
     1
170
     0
176
     1
171
     0
176
     1
290
     0
176
     1
 93
        1
176
     1
 44
0.0
176
     1
173
     0
176
     1
  0
VISUALSTYLE
  5
33
102
{ACAD_REACTORS
330
2A
102
}
330
2A
100
AcDbVisualStyle
  2
Realistic
 70
     8
177
     2
291
     0
 71
     2
176
     1
 72
     2
176
     1
 73
     0
176
     1
 90
        0
176
     1
 40
-0.6
176
     1
 41
-30.0
176
     1
 62
     5
 63
     7
421
 16777215
176
     1
 74
     1
176
     1
 91
        0
176
     1
 64
     7
176
     1
 65
   257
176
     1
 75
     1
176
     1
175
     1
176
     1
 42
1.0
176
     1
 92
        8
176
     1
 66
     8
424
  7895160
176
     1
 43
1.0
176
     1
 76
     1
176
     1
 77
     6
176
     1
 78
     2
176
     1
 67
     7
176
     1
 79
     5
176
     1
170
     0
176
     1
171
     0
176
     1
290
     0
176
     1
 93
       13
176
     1
 44
0.0
176
     1
173
     0
176
     1
  0
VISUALSTYLE
  5
37
102
{ACAD_REACTORS
330
2A
102
}
330
2A
100
AcDbVisualStyle
  2
Thicken
 70
    13
177
     2
291
     1
 71
     2
176
     1
 72
     2
176
     1
 73
     0
176
     1
 90
        0
176
     1
 40
-0.6
176
     1
 41
-30.0
176
     1
 62
     5
 63
     7
421
 16777215
176
     1
 74
     1
176
     1
 91
        4
176
     1
 64
     7
176
     1
 65
   257
176
     1
 75
     1
176
     1
175
     1
176
     1
 42
1.0
176
     1
 92
       12
176
     1
 66
     7
176
     1
 43
1.0
176
     1
 76
     1
176
     1
 77
     6
176
     1
 78
     2
176
     1
 67
     7
176
     1
 79
     5
176
     1
170
     0
176
     1
171
     0
176
     1
290
     0
176
     1
 93
        1
176
     1
 44
0.0
176
     1
173
     0
176
     1
  0
ENDSEC
  0
EOF
