  0
SECTION
  2
HEADER
  9
$ACADVER
  1
AC1024
  9
$ACADMAINTVER
 70
     6
  9
$DWGCODEPAGE
  3
ANSI_932
  9
$INSBASE
 10
0.0
 20
0.0
 30
0.0
  9
$EXTMIN
 10
-4455.0
 20
-3150.0
 30
0.0
  9
$EXTMAX
 10
4455.0
 20
3150.0
 30
0.0
  9
$LIMMIN
 10
-4455.0
 20
-3150.0
  9
$LIMMAX
 10
4455.0
 20
3150.0
  9
$ORTHOMODE
 70
     0
  9
$REGENMODE
 70
     1
  9
$FILLMODE
 70
     1
  9
$QTEXTMODE
 70
     0
  9
$MIRRTEXT
 70
     1
  9
$LTSCALE
 40
30.0
  9
$ATTMODE
 70
     1
  9
$TEXTSIZE
 40
2.5
  9
$TRACEWID
 40
1.0
  9
$TEXTSTYLE
  7
Standard
  9
$CLAYER
  8
0
  9
$CELTYPE
  6
ByLayer
  9
$CECOLOR
 62
   256
  9
$CELTSCALE
 40
1.0
  9
$DISPSILH
 70
     0
  9
$DIMSCALE
 40
1.0
  9
$DIMASZ
 40
2.5
  9
$DIMEXO
 40
0.625
  9
$DIMDLI
 40
3.75
  9
$DIMRND
 40
0.0
  9
$DIMDLE
 40
0.0
  9
$DIMEXE
 40
1.25
  9
$DIMTP
 40
0.0
  9
$DIMTM
 40
0.0
  9
$DIMTXT
 40
2.5
  9
$DIMCEN
 40
2.5
  9
$DIMTSZ
 40
0.0
  9
$DIMTOL
 70
     0
  9
$DIMLIM
 70
     0
  9
$DIMTIH
 70
     0
  9
$DIMTOH
 70
     0
  9
$DIMSE1
 70
     0
  9
$DIMSE2
 70
     0
  9
$DIMTAD
 70
     1
  9
$DIMZIN
 70
     8
  9
$DIMBLK
  1

  9
$DIMASO
 70
     1
  9
$DIMSHO
 70
     1
  9
$DIMPOST
  1

  9
$DIMAPOST
  1

  9
$DIMALT
 70
     0
  9
$DIMALTD
 70
     3
  9
$DIMALTF
 40
0.03937007874016
  9
$DIMLFAC
 40
1.0
  9
$DIMTOFL
 70
     1
  9
$DIMTVP
 40
0.0
  9
$DIMTIX
 70
     0
  9
$DIMSOXD
 70
     0
  9
$DIMSAH
 70
     0
  9
$DIMBLK1
  1

  9
$DIMBLK2
  1

  9
$DIMSTYLE
  2
ISO-25
  9
$DIMCLRD
 70
     0
  9
$DIMCLRE
 70
     0
  9
$DIMCLRT
 70
     0
  9
$DIMTFAC
 40
1.0
  9
$DIMGAP
 40
0.625
  9
$DIMJUST
 70
     0
  9
$DIMSD1
 70
     0
  9
$DIMSD2
 70
     0
  9
$DIMTOLJ
 70
     0
  9
$DIMTZIN
 70
     8
  9
$DIMALTZ
 70
     0
  9
$DIMALTTZ
 70
     0
  9
$DIMUPT
 70
     0
  9
$DIMDEC
 70
     2
  9
$DIMTDEC
 70
     2
  9
$DIMALTU
 70
     2
  9
$DIMALTTD
 70
     3
  9
$DIMTXSTY
  7
Standard
  9
$DIMAUNIT
 70
     0
  9
$DIMADEC
 70
     0
  9
$DIMALTRND
 40
0.0
  9
$DIMAZIN
 70
     0
  9
$DIMDSEP
 70
    44
  9
$DIMATFIT
 70
     3
  9
$DIMFRAC
 70
     0
  9
$DIMLDRBLK
  1

  9
$DIMLUNIT
 70
     2
  9
$DIMLWD
 70
    -2
  9
$DIMLWE
 70
    -2
  9
$DIMTMOVE
 70
     0
  9
$DIMFXL
 40
1.0
  9
$DIMFXLON
 70
     0
  9
$DIMJOGANG
 40
0.7853981633974483
  9
$DIMTFILL
 70
     0
  9
$DIMTFILLCLR
 70
     0
  9
$DIMARCSYM
 70
     0
  9
$DIMLTYPE
  6

  9
$DIMLTEX1
  6

  9
$DIMLTEX2
  6

  9
$DIMTXTDIRECTION
 70
     0
  9
$LUNITS
 70
     2
  9
$LUPREC
 70
     4
  9
$SKETCHINC
 40
1.0
  9
$FILLETRAD
 40
10.0
  9
$AUNITS
 70
     0
  9
$AUPREC
 70
     0
  9
$MENU
  1
.
  9
$ELEVATION
 40
0.0
  9
$PELEVATION
 40
0.0
  9
$THICKNESS
 40
0.0
  9
$LIMCHECK
 70
     0
  9
$CHAMFERA
 40
10.0
  9
$CHAMFERB
 40
10.0
  9
$CHAMFERC
 40
20.0
  9
$CHAMFERD
 40
0.0
  9
$SKPOLY
 70
     0
  9
$TDCREATE
 40
2457953.399891829
  9
$TDUCREATE
 40
2457953.024891829
  9
$TDUPDATE
 40
2457953.39989184
  9
$TDUUPDATE
 40
2457953.02489184
  9
$TDINDWG
 40
0.0000000116
  9
$TDUSRTIMER
 40
0.0000000116
  9
$USRTIMER
 70
     1
  9
$ANGBASE
 50
0.0
  9
$ANGDIR
 70
     0
  9
$PDMODE
 70
     0
  9
$PDSIZE
 40
0.0
  9
$PLINEWID
 40
0.0
  9
$SPLFRAME
 70
     0
  9
$SPLINETYPE
 70
     6
  9
$SPLINESEGS
 70
     8
  9
$HANDSEED
  5
238
  9
$SURFTAB1
 70
     6
  9
$SURFTAB2
 70
     6
  9
$SURFTYPE
 70
     6
  9
$SURFU
 70
     6
  9
$SURFV
 70
     6
  9
$UCSBASE
  2

  9
$UCSNAME
  2

  9
$UCSORG
 10
0.0
 20
0.0
 30
0.0
  9
$UCSXDIR
 10
1.0
 20
0.0
 30
0.0
  9
$UCSYDIR
 10
0.0
 20
1.0
 30
0.0
  9
$UCSORTHOREF
  2

  9
$UCSORTHOVIEW
 70
     0
  9
$UCSORGTOP
 10
0.0
 20
0.0
 30
0.0
  9
$UCSORGBOTTOM
 10
0.0
 20
0.0
 30
0.0
  9
$UCSORGLEFT
 10
0.0
 20
0.0
 30
0.0
  9
$UCSORGRIGHT
 10
0.0
 20
0.0
 30
0.0
  9
$UCSORGFRONT
 10
0.0
 20
0.0
 30
0.0
  9
$UCSORGBACK
 10
0.0
 20
0.0
 30
0.0
  9
$PUCSBASE
  2

  9
$PUCSNAME
  2

  9
$PUCSORG
 10
0.0
 20
0.0
 30
0.0
  9
$PUCSXDIR
 10
1.0
 20
0.0
 30
0.0
  9
$PUCSYDIR
 10
0.0
 20
1.0
 30
0.0
  9
$PUCSORTHOREF
  2

  9
$PUCSORTHOVIEW
 70
     0
  9
$PUCSORGTOP
 10
0.0
 20
0.0
 30
0.0
  9
$PUCSORGBOTTOM
 10
0.0
 20
0.0
 30
0.0
  9
$PUCSORGLEFT
 10
0.0
 20
0.0
 30
0.0
  9
$PUCSORGRIGHT
 10
0.0
 20
0.0
 30
0.0
  9
$PUCSORGFRONT
 10
0.0
 20
0.0
 30
0.0
  9
$PUCSORGBACK
 10
0.0
 20
0.0
 30
0.0
  9
$USERI1
 70
     0
  9
$USERI2
 70
     0
  9
$USERI3
 70
     0
  9
$USERI4
 70
     0
  9
$USERI5
 70
     0
  9
$USERR1
 40
0.0
  9
$USERR2
 40
0.0
  9
$USERR3
 40
0.0
  9
$USERR4
 40
0.0
  9
$USERR5
 40
0.0
  9
$WORLDVIEW
 70
     1
  9
$SHADEDGE
 70
     3
  9
$SHADEDIF
 70
    70
  9
$TILEMODE
 70
     1
  9
$MAXACTVP
 70
    64
  9
$PINSBASE
 10
0.0
 20
0.0
 30
0.0
  9
$PLIMCHECK
 70
     0
  9
$PEXTMIN
 10
1.000000000000000E+20
 20
1.000000000000000E+20
 30
1.000000000000000E+20
  9
$PEXTMAX
 10
-1.000000000000000E+20
 20
-1.000000000000000E+20
 30
-1.000000000000000E+20
  9
$PLIMMIN
 10
0.0
 20
0.0
  9
$PLIMMAX
 10
420.0
 20
297.0
  9
$UNITMODE
 70
     0
  9
$VISRETAIN
 70
     1
  9
$PLINEGEN
 70
     0
  9
$PSLTSCALE
 70
     1
  9
$TREEDEPTH
 70
  3020
  9
$CMLSTYLE
  2
Standard
  9
$CMLJUST
 70
     0
  9
$CMLSCALE
 40
20.0
  9
$PROXYGRAPHICS
 70
     1
  9
$MEASUREMENT
 70
     1
  9
$CELWEIGHT
370
    -1
  9
$ENDCAPS
280
     0
  9
$JOINSTYLE
280
     0
  9
$LWDISPLAY
290
     0
  9
$INSUNITS
 70
     4
  9
$HYPERLINKBASE
  1

  9
$STYLESHEET
  1

  9
$XEDIT
290
     1
  9
$CEPSNTYPE
380
     0
  9
$PSTYLEMODE
290
     1
  9
$FINGERPRINTGUID
  2
{5E83ECFC-C005-4769-85E1-63DD02475FC8}
  9
$VERSIONGUID
  2
{FAEB1C32-E019-11D5-929B-00C0DF256EC4}
  9
$EXTNAMES
290
     1
  9
$PSVPSCALE
 40
0.0
  9
$OLESTARTUP
290
     0
  9
$SORTENTS
280
   127
  9
$INDEXCTL
280
     0
  9
$HIDETEXT
280
     1
  9
$XCLIPFRAME
280
     2
  9
$HALOGAP
280
     0
  9
$OBSCOLOR
 70
   257
  9
$OBSLTYPE
280
     0
  9
$INTERSECTIONDISPLAY
280
     0
  9
$INTERSECTIONCOLOR
 70
   257
  9
$DIMASSOC
280
     2
  9
$PROJECTNAME
  1

  9
$CAMERADISPLAY
290
     0
  9
$LENSLENGTH
 40
50.0
  9
$CAMERAHEIGHT
 40
0.0
  9
$STEPSPERSEC
 40
2.0
  9
$STEPSIZE
 40
6.0
  9
$3DDWFPREC
 40
2.0
  9
$PSOLWIDTH
 40
5.0
  9
$PSOLHEIGHT
 40
80.0
  9
$LOFTANG1
 40
1.570796326794897
  9
$LOFTANG2
 40
1.570796326794897
  9
$LOFTMAG1
 40
0.0
  9
$LOFTMAG2
 40
0.0
  9
$LOFTPARAM
 70
     7
  9
$LOFTNORMALS
280
     1
  9
$LATITUDE
 40
37.795
  9
$LONGITUDE
 40
-122.394
  9
$NORTHDIRECTION
 40
0.0
  9
$TIMEZONE
 70
 -8000
  9
$LIGHTGLYPHDISPLAY
280
     1
  9
$TILEMODELIGHTSYNCH
280
     1
  9
$SOLIDHIST
280
     1
  9
$SHOWHIST
280
     1
  9
$DWFFRAME
280
     2
  9
$DGNFRAME
280
     2
  9
$REALWORLDSCALE
290
     1
  9
$INTERFERECOLOR
 62
   256
  9
$CSHADOW
280
     0
  9
$SHADOWPLANELOCATION
 40
0.0
  0
ENDSEC
  0
SECTION
  2
CLASSES
  0
CLASS
  1
ACDBDICTIONARYWDFLT
  2
AcDbDictionaryWithDefault
  3
ObjectDBX Classes
 90
        0
 91
        4
280
     0
281
     0
  0
CLASS
  1
VISUALSTYLE
  2
AcDbVisualStyle
  3
ObjectDBX Classes
 90
     4095
 91
        4
280
     0
281
     0
  0
CLASS
  1
MATERIAL
  2
AcDbMaterial
  3
ObjectDBX Classes
 90
     1153
 91
        4
280
     0
281
     0
  0
ENDSEC
  0
SECTION
  2
TABLES
  0
TABLE
  2
VPORT
  5
8
330
0
100
AcDbSymbolTable
 70
     1
  0
VPORT
  5
29
330
8
100
AcDbSymbolTableRecord
100
AcDbViewportTableRecord
  2
*Active
 70
     0
 10
0.0
 20
0.0
 11
1.0
 21
1.0
 12
0.0
 22
0.0
 13
0.0
 23
0.0
 14
10.0
 24
10.0
 15
10.0
 25
10.0
 16
0.0
 26
0.0
 36
1.0
 17
0.0
 27
0.0
 37
0.0
 40
6930.000000000001
 41
1.414285714285714
 42
50.0
 43
0.0
 44
0.0
 50
0.0
 51
0.0
 71
     0
 72
 10000
 73
     1
 74
     3
 75
     0
 76
     0
 77
     0
 78
     0
281
     0
 65
     1
110
0.0
120
0.0
130
0.0
111
1.0
121
0.0
131
0.0
112
0.0
122
1.0
132
0.0
 79
     0
146
0.0
 60
     3
 61
     5
292
     1
282
     1
141
0.0
142
0.0
 63
   250
  0
ENDTAB
  0
TABLE
  2
LTYPE
  5
5
330
0
100
AcDbSymbolTable
 70
     2
  0
LTYPE
  5
14
330
5
100
AcDbSymbolTableRecord
100
AcDbLinetypeTableRecord
  2
ByBlock
 70
     0
  3

 72
    65
 73
     0
 40
0.0
  0
LTYPE
  5
15
330
5
100
AcDbSymbolTableRecord
100
AcDbLinetypeTableRecord
  2
ByLayer
 70
     0
  3

 72
    65
 73
     0
 40
0.0
  0
LTYPE
  5
16
330
5
100
AcDbSymbolTableRecord
100
AcDbLinetypeTableRecord
  2
Continuous
 70
     0
  3
Solid line
 72
    65
 73
     0
 40
0.0
  0
LTYPE
  5
3F
330
5
100
AcDbSymbolTableRecord
100
AcDbLinetypeTableRecord
  2
JWW_DASHED1
 70
     0
  3
-  --  --  --  --  --  --  --  -
 72
    65
 73
     2
 40
1.693333333333333
 49
0.8466666666666667
 74
     0
 49
-0.8466666666666667
 74
     0
  0
ENDTAB
  0
TABLE
  2
LAYER
  5
2
330
0
100
AcDbSymbolTable
 70
     4
  0
LAYER
  5
10
330
2
100
AcDbSymbolTableRecord
100
AcDbLayerTableRecord
  2
0
 70
     0
 62
     7
  6
Continuous
370
    -3
390
F
347
3E
  0
LAYER
  5
40
330
2
100
AcDbSymbolTableRecord
100
AcDbLayerTableRecord
  2
0-0
 70
     0
 62
     7
  6
Continuous
370
    -3
390
F
347
3E
  0
LAYER
  5
41
330
2
100
AcDbSymbolTableRecord
100
AcDbLayerTableRecord
  2
文字
 70
     0
 62
     7
  6
Continuous
370
    -3
390
F
347
3E
  0
LAYER
  5
42
330
2
100
AcDbSymbolTableRecord
100
AcDbLayerTableRecord
  2
寸法
 70
     0
 62
     7
  6
Continuous
370
    -3
390
F
347
3E
  0
ENDTAB
  0
TABLE
  2
STYLE
  5
3
330
0
100
AcDbSymbolTable
 70
     1
  0
STYLE
  5
11
330
3
100
AcDbSymbolTableRecord
100
AcDbTextStyleTableRecord
  2
Standard
 70
     0
 40
0.0
 41
1.0
 50
0.0
 71
     0
 42
2.5
  3
txt
  4

  0
ENDTAB
  0
TABLE
  2
VIEW
  5
6
330
0
100
AcDbSymbolTable
 70
     0
  0
ENDTAB
  0
TABLE
  2
UCS
  5
7
330
0
100
AcDbSymbolTable
 70
     0
  0
ENDTAB
  0
TABLE
  2
APPID
  5
9
330
0
100
AcDbSymbolTable
 70
     1
  0
APPID
  5
12
330
9
100
AcDbSymbolTableRecord
100
AcDbRegAppTableRecord
  2
ACAD
 70
     0
  0
ENDTAB
  0
TABLE
  2
DIMSTYLE
  5
A
330
0
100
AcDbSymbolTable
 70
     1
100
AcDbDimStyleTable
  0
DIMSTYLE
105
27
330
A
100
AcDbSymbolTableRecord
100
AcDbDimStyleTableRecord
  2
ISO-25
 70
     0
 41
2.5
 42
0.625
 43
3.75
 44
1.25
 73
     0
 74
     0
 77
     1
 78
     8
140
2.5
141
2.5
143
0.03937007874016
147
0.625
171
     3
172
     1
178
     0
271
     2
272
     2
274
     3
278
    44
283
     0
284
     8
340
11
  0
ENDTAB
  0
TABLE
  2
BLOCK_RECORD
  5
1
330
0
100
AcDbSymbolTable
 70
     1
  0
BLOCK_RECORD
  5
1F
330
1
100
AcDbSymbolTableRecord
100
AcDbBlockTableRecord
  2
*Model_Space
340
22
 70
     0
280
     1
281
     0
  0
BLOCK_RECORD
  5
1B
330
1
100
AcDbSymbolTableRecord
100
AcDbBlockTableRecord
  2
*Paper_Space
340
1E
 70
     0
280
     1
281
     0
  0
BLOCK_RECORD
  5
23
330
1
100
AcDbSymbolTableRecord
100
AcDbBlockTableRecord
  2
*Paper_Space0
340
26
 70
     0
280
     1
281
     0
  0
ENDTAB
  0
ENDSEC
  0
SECTION
  2
BLOCKS
  0
BLOCK
  5
20
330
1F
100
AcDbEntity
  8
0
100
AcDbBlockBegin
  2
*Model_Space
 70
     0
 10
0.0
 20
0.0
 30
0.0
  3
*Model_Space
  1

  0
ENDBLK
  5
21
330
1F
100
AcDbEntity
  8
0
100
AcDbBlockEnd
  0
BLOCK
  5
1C
330
1B
100
AcDbEntity
 67
     1
  8
0
100
AcDbBlockBegin
  2
*Paper_Space
 70
     0
 10
0.0
 20
0.0
 30
0.0
  3
*Paper_Space
  1

  0
ENDBLK
  5
1D
330
1B
100
AcDbEntity
 67
     1
  8
0
100
AcDbBlockEnd
  0
BLOCK
  5
24
330
23
100
AcDbEntity
  8
0
100
AcDbBlockBegin
  2
*Paper_Space0
 70
     0
 10
0.0
 20
0.0
 30
0.0
  3
*Paper_Space0
  1

  0
ENDBLK
  5
25
330
23
100
AcDbEntity
  8
0
100
AcDbBlockEnd
  0
ENDSEC
  0
SECTION
  2
ENTITIES
  0
LINE
  5
43
330
1F
100
AcDbEntity
  8
0-0
  6
Continuous
 62
    92
370
    13
100
AcDbLine
 10
-1568.088481623372
 20
1090.793380863144
 30
0.0
 11
1665.911518376629
 21
1090.793380863144
 31
0.0
  0
LINE
  5
44
330
1F
100
AcDbEntity
  8
0-0
  6
Continuous
 62
    92
370
    13
100
AcDbLine
 10
-1538.088481623372
 20
1054.793380863142
 30
0.0
 11
1635.911518376629
 21
1054.793380863142
 31
0.0
  0
LINE
  5
45
330
1F
100
AcDbEntity
  8
0-0
  6
Continuous
 62
    92
370
    13
100
AcDbLine
 10
1635.911518376629
 20
-956.2066191368568
 30
0.0
 11
1635.911518376629
 21
1090.793380863144
 31
0.0
  0
LINE
  5
46
330
1F
100
AcDbEntity
  8
0-0
  6
Continuous
 62
    92
370
    13
100
AcDbLine
 10
-1538.088481623372
 20
-956.2066191368568
 30
0.0
 11
-1538.088481623372
 21
1090.793380863144
 31
0.0
  0
LINE
  5
47
330
1F
100
AcDbEntity
  8
0-0
  6
Continuous
 62
    92
370
    13
100
AcDbLine
 10
1665.911518376629
 20
-956.2066191368568
 30
0.0
 11
1665.911518376629
 21
1090.793380863144
 31
0.0
  0
LINE
  5
48
330
1F
100
AcDbEntity
  8
0-0
  6
Continuous
 62
    92
370
    13
100
AcDbLine
 10
-1568.088481623372
 20
-956.2066191368568
 30
0.0
 11
-1568.088481623372
 21
1090.793380863144
 31
0.0
  0
LINE
  5
49
330
1F
100
AcDbEntity
  8
0-0
  6
Continuous
 62
    92
370
    13
100
AcDbLine
 10
1665.911518376629
 20
-956.2066191368568
 30
0.0
 11
-1568.088481623372
 21
-956.2066191368568
 31
0.0
  0
LINE
  5
4A
330
1F
100
AcDbEntity
  8
0-0
  6
Continuous
 62
    92
370
    13
100
AcDbLine
 10
1635.911518376629
 20
-941.2066191368568
 30
0.0
 11
-1538.088481623372
 21
-941.2066191368568
 31
0.0
  0
ARC
  5
4B
330
1F
100
AcDbEntity
  8
0-0
  6
Continuous
 62
    92
370
    13
100
AcDbCircle
 10
-21.5884816233696
 20
80.79338086314394
 30
0.0
 40
1.5
100
AcDbArc
 50
90.0
 51
180.0
  0
LINE
  5
4C
330
1F
100
AcDbEntity
  8
0-0
  6
Continuous
 62
    92
370
    13
100
AcDbLine
 10
17.41151837662904
 20
82.29338086314343
 30
0.0
 11
-21.5884816233696
 21
82.29338086314343
 31
0.0
  0
ARC
  5
4D
330
1F
100
AcDbEntity
  8
0-0
  6
Continuous
 62
    92
370
    13
100
AcDbCircle
 10
17.41151837662904
 20
80.79338086314394
 30
0.0
 40
1.5
100
AcDbArc
 50
0.0
 51
90.00000000000001
  0
LINE
  5
4E
330
1F
100
AcDbEntity
  8
0-0
  6
Continuous
 62
    92
370
    13
100
AcDbLine
 10
18.91151837662938
 20
-38.20661913685612
 30
0.0
 11
18.91151837662938
 21
80.79338086314394
 31
0.0
  0
ARC
  5
4F
330
1F
100
AcDbEntity
  8
0-0
  6
Continuous
 62
    92
370
    13
100
AcDbCircle
 10
17.41151837662904
 20
-38.20661913685612
 30
0.0
 40
1.5
100
AcDbArc
 50
270.0
 51
0.0
  0
LINE
  5
50
330
1F
100
AcDbEntity
  8
0-0
  6
Continuous
 62
    92
370
    13
100
AcDbLine
 10
-21.5884816233696
 20
-39.70661913685817
 30
0.0
 11
17.41151837662904
 21
-39.70661913685817
 31
0.0
  0
LINE
  5
51
330
1F
100
AcDbEntity
  8
0-0
  6
Continuous
 62
    92
370
    13
100
AcDbLine
 10
-23.08848162336994
 20
-38.20661913685612
 30
0.0
 11
-23.08848162336994
 21
80.79338086314394
 31
0.0
  0
ARC
  5
52
330
1F
100
AcDbEntity
  8
0-0
  6
Continuous
 62
    92
370
    13
100
AcDbCircle
 10
-21.5884816233696
 20
-38.20661913685612
 30
0.0
 40
1.5
100
AcDbArc
 50
180.0
 51
270.0
  0
ARC
  5
53
330
1F
100
AcDbEntity
  8
0-0
  6
Continuous
 62
     7
370
     9
100
AcDbCircle
 10
-2.088481623370282
 20
-8.306619136856028
 30
0.0
 40
15.0
100
AcDbArc
 50
180.0
 51
0.0
  0
ARC
  5
54
330
1F
100
AcDbEntity
  8
0-0
  6
Continuous
 62
     7
370
     9
100
AcDbCircle
 10
-2.088481623370282
 20
50.89338086314385
 30
0.0
 40
15.0
100
AcDbArc
 50
0.0
 51
180.0
  0
LINE
  5
55
330
1F
100
AcDbEntity
  8
0-0
  6
Continuous
 62
     7
370
     9
100
AcDbLine
 10
12.91151837662972
 20
-8.306619136856028
 30
0.0
 11
12.91151837662972
 21
50.89338086314385
 31
0.0
  0
LINE
  5
56
330
1F
100
AcDbEntity
  8
0-0
  6
Continuous
 62
     7
370
     9
100
AcDbLine
 10
-17.08848162337028
 20
50.89338086314385
 30
0.0
 11
-17.08848162337028
 21
-8.306619136856028
 31
0.0
  0
ARC
  5
57
330
1F
100
AcDbEntity
  8
0-0
  6
Continuous
 62
    92
370
    13
100
AcDbCircle
 10
80.4115183766263
 20
80.79338086314394
 30
0.0
 40
1.5
100
AcDbArc
 50
90.0
 51
180.0
  0
LINE
  5
58
330
1F
100
AcDbEntity
  8
0-0
  6
Continuous
 62
    92
370
    13
100
AcDbLine
 10
119.4115183766284
 20
82.29338086314343
 30
0.0
 11
80.4115183766263
 21
82.29338086314343
 31
0.0
  0
ARC
  5
59
330
1F
100
AcDbEntity
  8
0-0
  6
Continuous
 62
    92
370
    13
100
AcDbCircle
 10
119.4115183766284
 20
80.79338086314394
 30
0.0
 40
1.5
100
AcDbArc
 50
0.0
 51
90.00000000000001
  0
LINE
  5
5A
330
1F
100
AcDbEntity
  8
0-0
  6
Continuous
 62
    92
370
    13
100
AcDbLine
 10
120.911518376627
 20
-38.20661913685612
 30
0.0
 11
120.911518376627
 21
80.79338086314394
 31
0.0
  0
ARC
  5
5B
330
1F
100
AcDbEntity
  8
0-0
  6
Continuous
 62
    92
370
    13
100
AcDbCircle
 10
119.4115183766284
 20
-38.20661913685612
 30
0.0
 40
1.5
100
AcDbArc
 50
270.0
 51
0.0
  0
LINE
  5
5C
330
1F
100
AcDbEntity
  8
0-0
  6
Continuous
 62
    92
370
    13
100
AcDbLine
 10
80.4115183766263
 20
-39.70661913685817
 30
0.0
 11
119.4115183766284
 21
-39.70661913685817
 31
0.0
  0
LINE
  5
5D
330
1F
100
AcDbEntity
  8
0-0
  6
Continuous
 62
    92
370
    13
100
AcDbLine
 10
78.91151837662852
 20
-38.20661913685612
 30
0.0
 11
78.91151837662852
 21
80.79338086314394
 31
0.0
  0
ARC
  5
5E
330
1F
100
AcDbEntity
  8
0-0
  6
Continuous
 62
    92
370
    13
100
AcDbCircle
 10
80.4115183766263
 20
-38.20661913685612
 30
0.0
 40
1.5
100
AcDbArc
 50
180.0
 51
270.0
  0
ARC
  5
5F
330
1F
100
AcDbEntity
  8
0-0
  6
Continuous
 62
     7
370
     9
100
AcDbCircle
 10
99.91151837662733
 20
-8.306619136856028
 30
0.0
 40
15.0
100
AcDbArc
 50
180.0
 51
0.0
  0
ARC
  5
60
330
1F
100
AcDbEntity
  8
0-0
  6
Continuous
 62
     7
370
     9
100
AcDbCircle
 10
99.91151837662733
 20
50.89338086314385
 30
0.0
 40
15.0
100
AcDbArc
 50
0.0
 51
180.0
  0
LINE
  5
61
330
1F
100
AcDbEntity
  8
0-0
  6
Continuous
 62
     7
370
     9
100
AcDbLine
 10
114.9115183766273
 20
-8.306619136856028
 30
0.0
 11
114.9115183766273
 21
50.89338086314385
 31
0.0
  0
LINE
  5
62
330
1F
100
AcDbEntity
  8
0-0
  6
Continuous
 62
     7
370
     9
100
AcDbLine
 10
84.91151837662733
 20
50.89338086314385
 30
0.0
 11
84.91151837662733
 21
-8.306619136856028
 31
0.0
  0
LINE
  5
63
330
1F
100
AcDbEntity
  8
0-0
  6
Continuous
 62
    92
370
    13
100
AcDbLine
 10
-761.0884816233714
 20
-936.2066191368571
 30
0.0
 11
-761.0884816233714
 21
1046.793380863143
 31
0.0
  0
LINE
  5
64
330
1F
100
AcDbEntity
  8
0-0
  6
JWW_DASHED1
 62
   120
370
     5
100
AcDbLine
 10
-731.0884816233714
 20
-936.2066191368571
 30
0.0
 11
-731.0884816233714
 21
1046.793380863143
 31
0.0
  0
LINE
  5
65
330
1F
100
AcDbEntity
  8
0-0
  6
Continuous
 62
    92
370
    13
100
AcDbLine
 10
-761.0884816233714
 20
-936.2066191368571
 30
0.0
 11
48.91151837662852
 21
-936.2066191368571
 31
0.0
  0
LINE
  5
66
330
1F
100
AcDbEntity
  8
0-0
  6
Continuous
 62
    92
370
    13
100
AcDbLine
 10
-761.0884816233714
 20
1046.793380863143
 30
0.0
 11
48.91151837662852
 21
1046.793380863143
 31
0.0
  0
LINE
  5
67
330
1F
100
AcDbEntity
  8
0-0
  6
Continuous
 62
    92
370
    13
100
AcDbLine
 10
48.91151837662852
 20
-936.2066191368571
 30
0.0
 11
48.91151837662852
 21
1046.793380863143
 31
0.0
  0
LINE
  5
68
330
1F
100
AcDbEntity
  8
0-0
  6
Continuous
 62
    92
370
    13
100
AcDbLine
 10
858.9115183766286
 20
-936.2066191368571
 30
0.0
 11
858.9115183766286
 21
1046.793380863143
 31
0.0
  0
LINE
  5
69
330
1F
100
AcDbEntity
  8
0-0
  6
JWW_DASHED1
 62
   120
370
     5
100
AcDbLine
 10
828.9115183766286
 20
-936.2066191368571
 30
0.0
 11
828.9115183766286
 21
1046.793380863143
 31
0.0
  0
LINE
  5
6A
330
1F
100
AcDbEntity
  8
0-0
  6
Continuous
 62
    92
370
    13
100
AcDbLine
 10
858.9115183766286
 20
-936.2066191368571
 30
0.0
 11
48.91151837662852
 21
-936.2066191368571
 31
0.0
  0
LINE
  5
6B
330
1F
100
AcDbEntity
  8
0-0
  6
Continuous
 62
    92
370
    13
100
AcDbLine
 10
858.9115183766286
 20
1046.793380863143
 30
0.0
 11
48.91151837662852
 21
1046.793380863143
 31
0.0
  0
LINE
  5
6C
330
1F
100
AcDbEntity
  8
0-0
  6
JWW_DASHED1
 62
   120
370
     5
100
AcDbLine
 10
828.9115183766294
 20
-941.2066191368576
 30
0.0
 11
828.9115183766294
 21
1054.793380863142
 31
0.0
  0
LINE
  5
6D
330
1F
100
AcDbEntity
  8
0-0
  6
JWW_DASHED1
 62
   120
370
     5
100
AcDbLine
 10
858.9115183766294
 20
-941.2066191368576
 30
0.0
 11
858.9115183766294
 21
1054.793380863142
 31
0.0
  0
LINE
  5
6E
330
1F
100
AcDbEntity
  8
0-0
  6
JWW_DASHED1
 62
   120
370
     5
100
AcDbLine
 10
-761.0884816233706
 20
-941.2066191368576
 30
0.0
 11
-761.0884816233706
 21
1054.793380863142
 31
0.0
  0
LINE
  5
6F
330
1F
100
AcDbEntity
  8
0-0
  6
JWW_DASHED1
 62
   120
370
     5
100
AcDbLine
 10
-731.0884816233706
 20
-941.2066191368576
 30
0.0
 11
-731.0884816233706
 21
1054.793380863142
 31
0.0
  0
LINE
  5
70
330
1F
100
AcDbEntity
  8
0-0
  6
Continuous
 62
    92
370
    13
100
AcDbLine
 10
-61.08848162337119
 20
-936.2066191368571
 30
0.0
 11
-61.08848162337119
 21
1046.793380863143
 31
0.0
  0
LINE
  5
71
330
1F
100
AcDbEntity
  8
0-0
  6
Continuous
 62
     7
370
     9
100
AcDbLine
 10
-141.0884816233718
 20
-928.2066191368575
 30
0.0
 11
-61.08848162337119
 21
-928.2066191368575
 31
0.0
  0
LINE
  5
72
330
1F
100
AcDbEntity
  8
0-0
  6
Continuous
 62
     7
370
     9
100
AcDbLine
 10
-141.0884816233718
 20
1038.793380863143
 30
0.0
 11
-61.08848162337119
 21
1038.793380863143
 31
0.0
  0
LINE
  5
73
330
1F
100
AcDbEntity
  8
0-0
  6
Continuous
 62
    92
370
    13
100
AcDbLine
 10
-141.0884816233718
 20
-936.2066191368571
 30
0.0
 11
-141.0884816233718
 21
1046.793380863143
 31
0.0
  0
LINE
  5
74
330
1F
100
AcDbEntity
  8
0-0
  6
JWW_DASHED1
 62
   120
370
     5
100
AcDbLine
 10
-70.88073013675364
 20
-928.2066191368765
 30
0.0
 11
-61.08848162335073
 21
-918.4143706234723
 31
0.0
  0
LINE
  5
75
330
1F
100
AcDbEntity
  8
0-0
  6
JWW_DASHED1
 62
   120
370
     5
100
AcDbLine
 10
-80.78022507196658
 20
-928.2066191368706
 30
0.0
 11
-61.08848162335926
 21
-908.5148756882647
 31
0.0
  0
LINE
  5
76
330
1F
100
AcDbEntity
  8
0-0
  6
JWW_DASHED1
 62
   120
370
     5
100
AcDbLine
 10
-90.67972000711472
 20
-928.2066191368577
 30
0.0
 11
-61.08848162337119
 21
-898.6153807531157
 31
0.0
  0
LINE
  5
77
330
1F
100
AcDbEntity
  8
0-0
  6
JWW_DASHED1
 62
   120
370
     5
100
AcDbLine
 10
-100.5792149423464
 20
-928.2066191368735
 30
0.0
 11
-61.08848162334903
 21
-888.7158858178764
 31
0.0
  0
LINE
  5
78
330
1F
100
AcDbEntity
  8
0-0
  6
JWW_DASHED1
 62
   120
370
     5
100
AcDbLine
 10
-110.4787098775611
 20
-928.2066191368731
 30
0.0
 11
-61.08848162335755
 21
-878.8163908826676
 31
0.0
  0
LINE
  5
79
330
1F
100
AcDbEntity
  8
0-0
  6
JWW_DASHED1
 62
   120
370
     5
100
AcDbLine
 10
-120.3782048127126
 20
-928.2066191368604
 30
0.0
 11
-61.08848162336949
 21
-868.9168959475187
 31
0.0
  0
LINE
  5
7A
330
1F
100
AcDbEntity
  8
0-0
  6
JWW_DASHED1
 62
   120
370
     5
100
AcDbLine
 10
-130.2776997479222
 20
-928.2066191368541
 30
0.0
 11
-61.08848162336267
 21
-859.0174010122953
 31
0.0
  0
LINE
  5
7B
330
1F
100
AcDbEntity
  8
0-0
  6
JWW_DASHED1
 62
   120
370
     5
100
AcDbLine
 10
-140.177194683159
 20
-928.2066191368757
 30
0.0
 11
-61.08848162335414
 21
-849.1179060770711
 31
0.0
  0
LINE
  5
7C
330
1F
100
AcDbEntity
  8
0-0
  6
JWW_DASHED1
 62
   120
370
     5
100
AcDbLine
 10
-141.0884816233666
 20
-919.2184111419209
 30
0.0
 11
-61.08848162336778
 21
-839.218411141922
 31
0.0
  0
LINE
  5
7D
330
1F
100
AcDbEntity
  8
0-0
  6
JWW_DASHED1
 62
   120
370
     5
100
AcDbLine
 10
-141.0884816233735
 20
-909.3189162067129
 30
0.0
 11
-61.08848162336096
 21
-829.3189162066984
 31
0.0
  0
LINE
  5
7E
330
1F
100
AcDbEntity
  8
0-0
  6
JWW_DASHED1
 62
   120
370
     5
100
AcDbLine
 10
-141.0884816233666
 20
-899.4194212714889
 30
0.0
 11
-61.08848162335244
 21
-819.4194212714744
 31
0.0
  0
LINE
  5
7F
330
1F
100
AcDbEntity
  8
0-0
  6
JWW_DASHED1
 62
   120
370
     5
100
AcDbLine
 10
-141.0884816233632
 20
-889.5199263363239
 30
0.0
 11
-61.08848162336437
 21
-809.5199263363254
 31
0.0
  0
LINE
  5
80
330
1F
100
AcDbEntity
  8
0-0
  6
JWW_DASHED1
 62
   120
370
     5
100
AcDbLine
 10
-141.0884816233735
 20
-879.6204314011161
 30
0.0
 11
-61.08848162337461
 21
-799.6204314011172
 31
0.0
  0
LINE
  5
81
330
1F
100
AcDbEntity
  8
0-0
  6
JWW_DASHED1
 62
   120
370
     5
100
AcDbLine
 10
-141.0884816233666
 20
-869.7209364658929
 30
0.0
 11
-61.08848162335073
 21
-789.7209364658787
 31
0.0
  0
LINE
  5
82
330
1F
100
AcDbEntity
  8
0-0
  6
JWW_DASHED1
 62
   120
370
     5
100
AcDbLine
 10
-141.0884816233632
 20
-859.8214415307277
 30
0.0
 11
-61.08848162336437
 21
-779.8214415307286
 31
0.0
  0
LINE
  5
83
330
1F
100
AcDbEntity
  8
0-0
  6
JWW_DASHED1
 62
   120
370
     5
100
AcDbLine
 10
-141.0884816233701
 20
-849.9219465955194
 30
0.0
 11
-61.08848162337119
 21
-769.9219465955209
 31
0.0
  0
LINE
  5
84
330
1F
100
AcDbEntity
  8
0-0
  6
JWW_DASHED1
 62
   120
370
     5
100
AcDbLine
 10
-141.0884816233786
 20
-840.0224516603116
 30
0.0
 11
-61.08848162336437
 21
-760.022451660297
 31
0.0
  0
LINE
  5
85
330
1F
100
AcDbEntity
  8
0-0
  6
JWW_DASHED1
 62
   120
370
     5
100
AcDbLine
 10
-141.0884816233598
 20
-830.1229567251306
 30
0.0
 11
-61.08848162336096
 21
-750.1229567251322
 31
0.0
  0
LINE
  5
86
330
1F
100
AcDbEntity
  8
0-0
  6
JWW_DASHED1
 62
   120
370
     5
100
AcDbLine
 10
-141.0884816233684
 20
-820.2234617899228
 30
0.0
 11
-61.08848162336949
 21
-740.2234617899237
 31
0.0
  0
LINE
  5
87
330
1F
100
AcDbEntity
  8
0-0
  6
JWW_DASHED1
 62
   120
370
     5
100
AcDbLine
 10
-141.0884816233769
 20
-810.3239668547145
 30
0.0
 11
-61.08848162336096
 21
-730.3239668547003
 31
0.0
  0
LINE
  5
88
330
1F
100
AcDbEntity
  8
0-0
  6
JWW_DASHED1
 62
   120
370
     5
100
AcDbLine
 10
-141.0884816233564
 20
-800.4244719195342
 30
0.0
 11
-61.08848162335755
 21
-720.4244719195351
 31
0.0
  0
LINE
  5
89
330
1F
100
AcDbEntity
  8
0-0
  6
JWW_DASHED1
 62
   120
370
     5
100
AcDbLine
 10
-141.0884816233666
 20
-790.5249769843261
 30
0.0
 11
-61.08848162336778
 21
-710.5249769843273
 31
0.0
  0
LINE
  5
8A
330
1F
100
AcDbEntity
  8
0-0
  6
JWW_DASHED1
 62
   120
370
     5
100
AcDbLine
 10
-141.0884816233735
 20
-780.625482049118
 30
0.0
 11
-61.08848162335926
 21
-700.6254820491033
 31
0.0
  0
LINE
  5
8B
330
1F
100
AcDbEntity
  8
0-0
  6
JWW_DASHED1
 62
   120
370
     5
100
AcDbLine
 10
-141.0884816233564
 20
-770.7259871139374
 30
0.0
 11
-61.08848162335755
 21
-690.7259871139386
 31
0.0
  0
LINE
  5
8C
330
1F
100
AcDbEntity
  8
0-0
  6
JWW_DASHED1
 62
   120
370
     5
100
AcDbLine
 10
-141.0884816233632
 20
-760.8264921787294
 30
0.0
 11
-61.08848162336437
 21
-680.8264921787306
 31
0.0
  0
LINE
  5
8D
330
1F
100
AcDbEntity
  8
0-0
  6
JWW_DASHED1
 62
   120
370
     5
100
AcDbLine
 10
-141.0884816233718
 20
-750.9269972435213
 30
0.0
 11
-61.08848162337461
 21
-670.9269972435227
 31
0.0
  0
LINE
  5
8E
330
1F
100
AcDbEntity
  8
0-0
  6
JWW_DASHED1
 62
   120
370
     5
100
AcDbLine
 10
-141.088481623353
 20
-741.0275023083406
 30
0.0
 11
-61.08848162335414
 21
-661.0275023083419
 31
0.0
  0
LINE
  5
8F
330
1F
100
AcDbEntity
  8
0-0
  6
JWW_DASHED1
 62
   120
370
     5
100
AcDbLine
 10
-141.0884816233615
 20
-731.128007373133
 30
0.0
 11
-61.08848162336267
 21
-651.1280073731339
 31
0.0
  0
LINE
  5
90
330
1F
100
AcDbEntity
  8
0-0
  6
JWW_DASHED1
 62
   120
370
     5
100
AcDbLine
 10
-141.0884816233701
 20
-721.2285124379245
 30
0.0
 11
-61.08848162337119
 21
-641.2285124379258
 31
0.0
  0
LINE
  5
91
330
1F
100
AcDbEntity
  8
0-0
  6
JWW_DASHED1
 62
   120
370
     5
100
AcDbLine
 10
-141.0884816233684
 20
-711.3290175027616
 30
0.0
 11
-61.08848162335414
 21
-631.3290175027474
 31
0.0
  0
LINE
  5
92
330
1F
100
AcDbEntity
  8
0-0
  6
JWW_DASHED1
 62
   120
370
     5
100
AcDbLine
 10
-141.0884816233598
 20
-701.4295225675359
 30
0.0
 11
-61.08848162336096
 21
-621.429522567537
 31
0.0
  0
LINE
  5
93
330
1F
100
AcDbEntity
  8
0-0
  6
JWW_DASHED1
 62
   120
370
     5
100
AcDbLine
 10
-141.0884816233666
 20
-691.530027632328
 30
0.0
 11
-61.08848162336778
 21
-611.5300276323294
 31
0.0
  0
LINE
  5
94
330
1F
100
AcDbEntity
  8
0-0
  6
JWW_DASHED1
 62
   120
370
     5
100
AcDbLine
 10
-141.0884816233803
 20
-681.6305326971791
 30
0.0
 11
-61.08848162336608
 21
-601.6305326971642
 31
0.0
  0
LINE
  5
95
330
1F
100
AcDbEntity
  8
0-0
  6
JWW_DASHED1
 62
   120
370
     5
100
AcDbLine
 10
-141.0884816233564
 20
-671.7310377619392
 30
0.0
 11
-61.08848162335755
 21
-591.7310377619403
 31
0.0
  0
LINE
  5
96
330
1F
100
AcDbEntity
  8
0-0
  6
JWW_DASHED1
 62
   120
370
     5
100
AcDbLine
 10
-141.0884816233649
 20
-661.831542826731
 30
0.0
 11
-61.08848162336778
 21
-581.8315428267326
 31
0.0
  0
LINE
  5
97
330
1F
100
AcDbEntity
  8
0-0
  6
JWW_DASHED1
 62
   120
370
     5
100
AcDbLine
 10
-141.0884816233769
 20
-651.932047891582
 30
0.0
 11
-61.08848162336437
 21
-571.9320478915678
 31
0.0
  0
LINE
  5
98
330
1F
100
AcDbEntity
  8
0-0
  6
JWW_DASHED1
 62
   120
370
     5
100
AcDbLine
 10
-141.0884816233547
 20
-642.0325529563427
 30
0.0
 11
-61.08848162335585
 21
-562.0325529563438
 31
0.0
  0
LINE
  5
99
330
1F
100
AcDbEntity
  8
0-0
  6
JWW_DASHED1
 62
   120
370
     5
100
AcDbLine
 10
-141.0884816233632
 20
-632.1330580211346
 30
0.0
 11
-61.08848162336437
 21
-552.133058021136
 31
0.0
  0
LINE
  5
9A
330
1F
100
AcDbEntity
  8
0-0
  6
JWW_DASHED1
 62
   120
370
     5
100
AcDbLine
 10
-141.0884816233769
 20
-622.2335630859856
 30
0.0
 11
-61.08848162336096
 21
-542.2335630859708
 31
0.0
  0
LINE
  5
9B
330
1F
100
AcDbEntity
  8
0-0
  6
JWW_DASHED1
 62
   120
370
     5
100
AcDbLine
 10
-141.0884816233684
 20
-612.3340681507616
 30
0.0
 11
-61.08848162335414
 21
-532.3340681507472
 31
0.0
  0
LINE
  5
9C
330
1F
100
AcDbEntity
  8
0-0
  6
JWW_DASHED1
 62
   120
370
     5
100
AcDbLine
 10
-141.0884816233598
 20
-602.4345732155377
 30
0.0
 11
-61.08848162336096
 21
-522.4345732155391
 31
0.0
  0
LINE
  5
9D
330
1F
100
AcDbEntity
  8
0-0
  6
JWW_DASHED1
 62
   120
370
     5
100
AcDbLine
 10
-141.0884816233735
 20
-592.5350782803888
 30
0.0
 11
-61.08848162337461
 21
-512.5350782803899
 31
0.0
  0
LINE
  5
9E
330
1F
100
AcDbEntity
  8
0-0
  6
JWW_DASHED1
 62
   120
370
     5
100
AcDbLine
 10
-141.0884816233701
 20
-582.6355833451681
 30
0.0
 11
-61.08848162335414
 21
-502.6355833451539
 31
0.0
  0
LINE
  5
9F
330
1F
100
AcDbEntity
  8
0-0
  6
JWW_DASHED1
 62
   120
370
     5
100
AcDbLine
 10
-141.0884816233598
 20
-572.7360884099412
 30
0.0
 11
-61.08848162336096
 21
-492.7360884099425
 31
0.0
  0
LINE
  5
A0
330
1F
100
AcDbEntity
  8
0-0
  6
JWW_DASHED1
 62
   120
370
     5
100
AcDbLine
 10
-141.0884816233701
 20
-562.8365934747919
 30
0.0
 11
-61.0884816233729
 21
-482.8365934747933
 31
0.0
  0
LINE
  5
A1
330
1F
100
AcDbEntity
  8
0-0
  6
JWW_DASHED1
 62
   120
370
     5
100
AcDbLine
 10
-141.0884816233803
 20
-552.9370985395843
 30
0.0
 11
-61.08848162336437
 21
-472.9370985395695
 31
0.0
  0
LINE
  5
A2
330
1F
100
AcDbEntity
  8
0-0
  6
JWW_DASHED1
 62
   120
370
     5
100
AcDbLine
 10
-141.0884816233598
 20
-543.0376036043741
 30
0.0
 11
-61.08848162336096
 21
-463.0376036043753
 31
0.0
  0
LINE
  5
A3
330
1F
100
AcDbEntity
  8
0-0
  6
JWW_DASHED1
 62
   120
370
     5
100
AcDbLine
 10
-141.0884816233701
 20
-533.1381086691955
 30
0.0
 11
-61.08848162337119
 21
-453.1381086691966
 31
0.0
  0
LINE
  5
A4
330
1F
100
AcDbEntity
  8
0-0
  6
JWW_DASHED1
 62
   120
370
     5
100
AcDbLine
 10
-141.0884816233769
 20
-523.2386137339874
 30
0.0
 11
-61.08848162336437
 21
-443.2386137339727
 31
0.0
  0
LINE
  5
A5
330
1F
100
AcDbEntity
  8
0-0
  6
JWW_DASHED1
 62
   120
370
     5
100
AcDbLine
 10
-141.0884816233564
 20
-513.3391187987773
 30
0.0
 11
-61.08848162335755
 21
-433.3391187987785
 31
0.0
  0
LINE
  5
A6
330
1F
100
AcDbEntity
  8
0-0
  6
JWW_DASHED1
 62
   120
370
     5
100
AcDbLine
 10
-141.0884816233666
 20
-503.4396238635987
 30
0.0
 11
-61.08848162336778
 21
-423.4396238635996
 31
0.0
  0
LINE
  5
A7
330
1F
100
AcDbEntity
  8
0-0
  6
JWW_DASHED1
 62
   120
370
     5
100
AcDbLine
 10
-141.0884816233752
 20
-493.5401289283907
 30
0.0
 11
-61.08848162336096
 21
-413.5401289283765
 31
0.0
  0
LINE
  5
A8
330
1F
100
AcDbEntity
  8
0-0
  6
JWW_DASHED1
 62
   120
370
     5
100
AcDbLine
 10
-141.0884816233564
 20
-483.6406339932101
 30
0.0
 11
-61.08848162335755
 21
-403.6406339932113
 31
0.0
  0
LINE
  5
A9
330
1F
100
AcDbEntity
  8
0-0
  6
JWW_DASHED1
 62
   120
370
     5
100
AcDbLine
 10
-141.0884816233649
 20
-473.7411390580021
 30
0.0
 11
-61.08848162336608
 21
-393.7411390580035
 31
0.0
  0
LINE
  5
AA
330
1F
100
AcDbEntity
  8
0-0
  6
JWW_DASHED1
 62
   120
370
     5
100
AcDbLine
 10
-141.0884816233735
 20
-463.841644122794
 30
0.0
 11
-61.08848162337461
 21
-383.8416441227952
 31
0.0
  0
LINE
  5
AB
330
1F
100
AcDbEntity
  8
0-0
  6
JWW_DASHED1
 62
   120
370
     5
100
AcDbLine
 10
-141.088481623353
 20
-453.942149187613
 30
0.0
 11
-61.08848162335414
 21
-373.9421491876146
 31
0.0
  0
LINE
  5
AC
330
1F
100
AcDbEntity
  8
0-0
  6
JWW_DASHED1
 62
   120
370
     5
100
AcDbLine
 10
-141.0884816233632
 20
-444.0426542524052
 30
0.0
 11
-61.08848162336437
 21
-364.0426542524064
 31
0.0
  0
LINE
  5
AD
330
1F
100
AcDbEntity
  8
0-0
  6
JWW_DASHED1
 62
   120
370
     5
100
AcDbLine
 10
-141.0884816233701
 20
-434.1431593171974
 30
0.0
 11
-61.08848162337119
 21
-354.1431593171985
 31
0.0
  0
LINE
  5
AE
330
1F
100
AcDbEntity
  8
0-0
  6
JWW_DASHED1
 62
   120
370
     5
100
AcDbLine
 10
-141.0884816233718
 20
-424.2436643820365
 30
0.0
 11
-61.08848162335755
 21
-344.2436643820227
 31
0.0
  0
LINE
  5
AF
330
1F
100
AcDbEntity
  8
0-0
  6
JWW_DASHED1
 62
   120
370
     5
100
AcDbLine
 10
-141.0884816233598
 20
-414.344169446809
 30
0.0
 11
-61.08848162336096
 21
-334.3441694468102
 31
0.0
  0
LINE
  5
B0
330
1F
100
AcDbEntity
  8
0-0
  6
JWW_DASHED1
 62
   120
370
     5
100
AcDbLine
 10
-141.0884816233701
 20
-404.4446745116008
 30
0.0
 11
-61.08848162337119
 21
-324.4446745116015
 31
0.0
  0
LINE
  5
B1
330
1F
100
AcDbEntity
  8
0-0
  6
JWW_DASHED1
 62
   120
370
     5
100
AcDbLine
 10
-141.088481623382
 20
-394.5451795764518
 30
0.0
 11
-61.08848162336778
 21
-314.5451795764371
 31
0.0
  0
LINE
  5
B2
330
1F
100
AcDbEntity
  8
0-0
  6
JWW_DASHED1
 62
   120
370
     5
100
AcDbLine
 10
-141.0884816233581
 20
-384.645684641212
 30
0.0
 11
-61.08848162336096
 21
-304.6456846412132
 31
0.0
  0
LINE
  5
B3
330
1F
100
AcDbEntity
  8
0-0
  6
JWW_DASHED1
 62
   120
370
     5
100
AcDbLine
 10
-141.0884816233666
 20
-374.7461897060042
 30
0.0
 11
-61.08848162336778
 21
-294.7461897060053
 31
0.0
  0
LINE
  5
B4
330
1F
100
AcDbEntity
  8
0-0
  6
JWW_DASHED1
 62
   120
370
     5
100
AcDbLine
 10
-141.0884816233803
 20
-364.8466947708552
 30
0.0
 11
-61.08848162336437
 21
-284.8466947708405
 31
0.0
  0
LINE
  5
B5
330
1F
100
AcDbEntity
  8
0-0
  6
JWW_DASHED1
 62
   120
370
     5
100
AcDbLine
 10
-141.0884816233564
 20
-354.9471998356149
 30
0.0
 11
-61.08848162335755
 21
-274.9471998356165
 31
0.0
  0
LINE
  5
B6
330
1F
100
AcDbEntity
  8
0-0
  6
JWW_DASHED1
 62
   120
370
     5
100
AcDbLine
 10
-141.0884816233632
 20
-345.0477049004071
 30
0.0
 11
-61.08848162336437
 21
-265.0477049004082
 31
0.0
  0
LINE
  5
B7
330
1F
100
AcDbEntity
  8
0-0
  6
JWW_DASHED1
 62
   120
370
     5
100
AcDbLine
 10
-141.0884816233769
 20
-335.1482099652582
 30
0.0
 11
-61.08848162336267
 21
-255.1482099652435
 31
0.0
  0
LINE
  5
B8
330
1F
100
AcDbEntity
  8
0-0
  6
JWW_DASHED1
 62
   120
370
     5
100
AcDbLine
 10
-141.0884816233701
 20
-325.2487150300345
 30
0.0
 11
-61.08848162335414
 21
-245.2487150300199
 31
0.0
  0
LINE
  5
B9
330
1F
100
AcDbEntity
  8
0-0
  6
JWW_DASHED1
 62
   120
370
     5
100
AcDbLine
 10
-141.0884816233632
 20
-315.3492200948105
 30
0.0
 11
-61.08848162336437
 21
-235.3492200948121
 31
0.0
  0
LINE
  5
BA
330
1F
100
AcDbEntity
  8
0-0
  6
JWW_DASHED1
 62
   120
370
     5
100
AcDbLine
 10
-141.0884816233752
 20
-305.4497251596615
 30
0.0
 11
-61.08848162337631
 21
-225.4497251596626
 31
0.0
  0
LINE
  5
BB
330
1F
100
AcDbEntity
  8
0-0
  6
JWW_DASHED1
 62
   120
370
     5
100
AcDbLine
 10
-141.0884816233735
 20
-295.550230224443
 30
0.0
 11
-61.08848162335755
 21
-215.5502302244288
 31
0.0
  0
LINE
  5
BC
330
1F
100
AcDbEntity
  8
0-0
  6
JWW_DASHED1
 62
   120
370
     5
100
AcDbLine
 10
-141.0884816233598
 20
-285.6507352892139
 30
0.0
 11
-61.08848162336096
 21
-205.650735289215
 31
0.0
  0
LINE
  5
BD
330
1F
100
AcDbEntity
  8
0-0
  6
JWW_DASHED1
 62
   120
370
     5
100
AcDbLine
 10
-141.0884816233735
 20
-275.7512403540649
 30
0.0
 11
-61.08848162337461
 21
-195.751240354066
 31
0.0
  0
LINE
  5
BE
330
1F
100
AcDbEntity
  8
0-0
  6
JWW_DASHED1
 62
   120
370
     5
100
AcDbLine
 10
-141.0884816233803
 20
-265.851745418857
 30
0.0
 11
-61.08848162336778
 21
-185.851745418842
 31
0.0
  0
LINE
  5
BF
330
1F
100
AcDbEntity
  8
0-0
  6
JWW_DASHED1
 62
   120
370
     5
100
AcDbLine
 10
-141.0884816233564
 20
-255.9522504836168
 30
0.0
 11
-61.08848162335926
 21
-175.9522504836188
 31
0.0
  0
LINE
  5
C0
330
1F
100
AcDbEntity
  8
0-0
  6
JWW_DASHED1
 62
   120
370
     5
100
AcDbLine
 10
-141.0884816233701
 20
-246.0527555484683
 30
0.0
 11
-61.08848162337119
 21
-166.052755548469
 31
0.0
  0
LINE
  5
C1
330
1F
100
AcDbEntity
  8
0-0
  6
JWW_DASHED1
 62
   120
370
     5
100
AcDbLine
 10
-141.0884816233786
 20
-236.15326061326
 30
0.0
 11
-61.08848162336437
 21
-156.1532606132454
 31
0.0
  0
LINE
  5
C2
330
1F
100
AcDbEntity
  8
0-0
  6
JWW_DASHED1
 62
   120
370
     5
100
AcDbLine
 10
-141.0884816233701
 20
-226.253765678036
 30
0.0
 11
-61.08848162335755
 21
-146.2537656780218
 31
0.0
  0
LINE
  5
C3
330
1F
100
AcDbEntity
  8
0-0
  6
JWW_DASHED1
 62
   120
370
     5
100
AcDbLine
 10
-141.0884816233684
 20
-216.3542707428712
 30
0.0
 11
-61.08848162336949
 21
-136.3542707428728
 31
0.0
  0
LINE
  5
C4
330
1F
100
AcDbEntity
  8
0-0
  6
JWW_DASHED1
 62
   120
370
     5
100
AcDbLine
 10
-141.0884816233769
 20
-206.4547758076634
 30
0.0
 11
-61.08848162337802
 21
-126.454775807665
 31
0.0
  0
LINE
  5
C5
330
1F
100
AcDbEntity
  8
0-0
  6
JWW_DASHED1
 62
   120
370
     5
100
AcDbLine
 10
-141.0884816233752
 20
-196.5552808724458
 30
0.0
 11
-61.08848162336096
 21
-116.5552808724316
 31
0.0
  0
LINE
  5
C6
330
1F
100
AcDbEntity
  8
0-0
  6
JWW_DASHED1
 62
   120
370
     5
100
AcDbLine
 10
-141.0884816233666
 20
-186.6557859372746
 30
0.0
 11
-61.08848162336778
 21
-106.6557859372757
 31
0.0
  0
LINE
  5
C7
330
1F
100
AcDbEntity
  8
0-0
  6
JWW_DASHED1
 62
   120
370
     5
100
AcDbLine
 10
-141.0884816233735
 20
-176.7562910020668
 30
0.0
 11
-61.08848162337461
 21
-96.75629100206791
 31
0.0
  0
LINE
  5
C8
330
1F
100
AcDbEntity
  8
0-0
  6
JWW_DASHED1
 62
   120
370
     5
100
AcDbLine
 10
-141.0884816233837
 20
-166.8567960668589
 30
0.0
 11
-61.08848162336778
 21
-86.85679606684431
 31
0.0
  0
LINE
  5
C9
330
1F
100
AcDbEntity
  8
0-0
  6
JWW_DASHED1
 62
   120
370
     5
100
AcDbLine
 10
-141.0884816233632
 20
-156.957301131678
 30
0.0
 11
-61.08848162336437
 21
-76.95730113167912
 31
0.0
  0
LINE
  5
CA
330
1F
100
AcDbEntity
  8
0-0
  6
JWW_DASHED1
 62
   120
370
     5
100
AcDbLine
 10
-141.0884816233735
 20
-147.0578061964702
 30
0.0
 11
-61.08848162337461
 21
-67.05780619647086
 31
0.0
  0
LINE
  5
CB
330
1F
100
AcDbEntity
  8
0-0
  6
JWW_DASHED1
 62
   120
370
     5
100
AcDbLine
 10
-141.0884816233803
 20
-137.1583112612619
 30
0.0
 11
-61.08848162336608
 21
-57.15831126124769
 31
0.0
  0
LINE
  5
CC
330
1F
100
AcDbEntity
  8
0-0
  6
JWW_DASHED1
 62
   120
370
     5
100
AcDbLine
 10
-141.0884816233615
 20
-127.2588163260814
 30
0.0
 11
-61.08848162336267
 21
-47.2588163260825
 31
0.0
  0
LINE
  5
CD
330
1F
100
AcDbEntity
  8
0-0
  6
JWW_DASHED1
 62
   120
370
     5
100
AcDbLine
 10
-141.0884816233701
 20
-117.3593213908735
 30
0.0
 11
-61.08848162337119
 21
-37.35932139087467
 31
0.0
  0
LINE
  5
CE
330
1F
100
AcDbEntity
  8
0-0
  6
JWW_DASHED1
 62
   120
370
     5
100
AcDbLine
 10
-141.0884816233786
 20
-107.4598264556657
 30
0.0
 11
-61.08848162336437
 21
-27.45982645565064
 31
0.0
  0
LINE
  5
CF
330
1F
100
AcDbEntity
  8
0-0
  6
JWW_DASHED1
 62
   120
370
     5
100
AcDbLine
 10
-141.0884816233598
 20
-97.56033152048474
 30
0.0
 11
-61.08848162336096
 21
-17.56033152048587
 31
0.0
  0
LINE
  5
D0
330
1F
100
AcDbEntity
  8
0-0
  6
JWW_DASHED1
 62
   120
370
     5
100
AcDbLine
 10
-141.0884816233666
 20
-87.66083658527648
 30
0.0
 11
-61.08848162336778
 21
-7.660836585278048
 31
0.0
  0
LINE
  5
D1
330
1F
100
AcDbEntity
  8
0-0
  6
JWW_DASHED1
 62
   120
370
     5
100
AcDbLine
 10
-141.0884816233769
 20
-77.76134165006866
 30
0.0
 11
-61.08848162337802
 21
2.238658349930205
 31
0.0
  0
LINE
  5
D2
330
1F
100
AcDbEntity
  8
0-0
  6
JWW_DASHED1
 62
   120
370
     5
100
AcDbLine
 10
-141.0884816233564
 20
-67.86184671488812
 30
0.0
 11
-61.08848162335755
 21
12.13815328511075
 31
0.0
  0
LINE
  5
D3
330
1F
100
AcDbEntity
  8
0-0
  6
JWW_DASHED1
 62
   120
370
     5
100
AcDbLine
 10
-141.0884816233666
 20
-57.96235177967986
 30
0.0
 11
-61.08848162336778
 21
22.03764822031857
 31
0.0
  0
LINE
  5
D4
330
1F
100
AcDbEntity
  8
0-0
  6
JWW_DASHED1
 62
   120
370
     5
100
AcDbLine
 10
-141.0884816233735
 20
-48.06285684447161
 30
0.0
 11
-61.08848162337461
 21
31.93714315552683
 31
0.0
  0
LINE
  5
D5
330
1F
100
AcDbEntity
  8
0-0
  6
JWW_DASHED1
 62
   120
370
     5
100
AcDbLine
 10
-141.0884816233701
 20
-38.16336190930727
 30
0.0
 11
-61.08848162335755
 21
41.83663809070779
 31
0.0
  0
LINE
  5
D6
330
1F
100
AcDbEntity
  8
0-0
  6
JWW_DASHED1
 62
   120
370
     5
100
AcDbLine
 10
-141.0884816233632
 20
-28.26386697408324
 30
0.0
 11
-61.08848162336437
 21
51.73613302591562
 31
0.0
  0
LINE
  5
D7
330
1F
100
AcDbEntity
  8
0-0
  6
JWW_DASHED1
 62
   120
370
     5
100
AcDbLine
 10
-141.0884816233718
 20
-18.36437203887542
 30
0.0
 11
-61.0884816233729
 21
61.63562796112345
 31
0.0
  0
LINE
  5
D8
330
1F
100
AcDbEntity
  8
0-0
  6
JWW_DASHED1
 62
   120
370
     5
100
AcDbLine
 10
-141.0884816233769
 20
-8.464877103717896
 30
0.0
 11
-61.08848162336267
 21
71.53512289629589
 31
0.0
  0
LINE
  5
D9
330
1F
100
AcDbEntity
  8
0-0
  6
JWW_DASHED1
 62
   120
370
     5
100
AcDbLine
 10
-141.0884816233598
 20
1.434617831513805
 30
0.0
 11
-61.08848162336267
 21
81.43461783151224
 31
0.0
  0
LINE
  5
DA
330
1F
100
AcDbEntity
  8
0-0
  6
JWW_DASHED1
 62
   120
370
     5
100
AcDbLine
 10
-141.0884816233701
 20
11.3341127667212
 30
0.0
 11
-61.08848162337119
 21
91.3341127667205
 31
0.0
  0
LINE
  5
DB
330
1F
100
AcDbEntity
  8
0-0
  6
JWW_DASHED1
 62
   120
370
     5
100
AcDbLine
 10
-141.088481623382
 20
21.23360770187062
 30
0.0
 11
-61.08848162336778
 21
101.2336077018848
 31
0.0
  0
LINE
  5
DC
330
1F
100
AcDbEntity
  8
0-0
  6
JWW_DASHED1
 62
   120
370
     5
100
AcDbLine
 10
-141.0884816233598
 20
31.13310263711
 30
0.0
 11
-61.08848162336096
 21
111.1331026371089
 31
0.0
  0
LINE
  5
DD
330
1F
100
AcDbEntity
  8
0-0
  6
JWW_DASHED1
 62
   120
370
     5
100
AcDbLine
 10
-141.0884816233666
 20
41.03259757231783
 30
0.0
 11
-61.08848162336778
 21
121.0325975723167
 31
0.0
  0
LINE
  5
DE
330
1F
100
AcDbEntity
  8
0-0
  6
JWW_DASHED1
 62
   120
370
     5
100
AcDbLine
 10
-141.0884816233803
 20
50.93209250746767
 30
0.0
 11
-61.08848162336437
 21
130.9320925074819
 31
0.0
  0
LINE
  5
DF
330
1F
100
AcDbEntity
  8
0-0
  6
JWW_DASHED1
 62
   120
370
     5
100
AcDbLine
 10
-141.0884816233735
 20
60.83158744269085
 30
0.0
 11
-61.08848162335755
 21
140.8315874427055
 31
0.0
  0
LINE
  5
E0
330
1F
100
AcDbEntity
  8
0-0
  6
JWW_DASHED1
 62
   120
370
     5
100
AcDbLine
 10
-141.0884816233649
 20
70.73108237791487
 30
0.0
 11
-61.08848162336778
 21
150.7310823779137
 31
0.0
  0
LINE
  5
E1
330
1F
100
AcDbEntity
  8
0-0
  6
JWW_DASHED1
 62
   120
370
     5
100
AcDbLine
 10
-141.0884816233769
 20
80.63057731306387
 30
0.0
 11
-61.08848162337802
 21
160.6305773130627
 31
0.0
  0
LINE
  5
E2
330
1F
100
AcDbEntity
  8
0-0
  6
JWW_DASHED1
 62
   120
370
     5
100
AcDbLine
 10
-141.0884816233786
 20
90.53007224827937
 30
0.0
 11
-61.08848162336437
 21
170.5300722482936
 31
0.0
  0
LINE
  5
E3
330
1F
100
AcDbEntity
  8
0-0
  6
JWW_DASHED1
 62
   120
370
     5
100
AcDbLine
 10
-141.0884816233666
 20
100.4295671834527
 30
0.0
 11
-61.08848162336778
 21
180.4295671834511
 31
0.0
  0
LINE
  5
E4
330
1F
100
AcDbEntity
  8
0-0
  6
JWW_DASHED1
 62
   120
370
     5
100
AcDbLine
 10
-141.0884816233769
 20
110.3290621186609
 30
0.0
 11
-61.08848162337802
 21
190.3290621186594
 31
0.0
  0
LINE
  5
E5
330
1F
100
AcDbEntity
  8
0-0
  6
JWW_DASHED1
 62
   120
370
     5
100
AcDbLine
 10
-141.0884816233837
 20
120.2285570538687
 30
0.0
 11
-61.08848162336949
 21
200.228557053883
 31
0.0
  0
LINE
  5
E6
330
1F
100
AcDbEntity
  8
0-0
  6
JWW_DASHED1
 62
   120
370
     5
100
AcDbLine
 10
-141.0884816233649
 20
130.1280519890493
 30
0.0
 11
-61.08848162336608
 21
210.1280519890481
 31
0.0
  0
LINE
  5
E7
330
1F
100
AcDbEntity
  8
0-0
  6
JWW_DASHED1
 62
   120
370
     5
100
AcDbLine
 10
-141.0884816233735
 20
140.0275469242571
 30
0.0
 11
-61.08848162337461
 21
220.027546924256
 31
0.0
  0
LINE
  5
E8
330
1F
100
AcDbEntity
  8
0-0
  6
JWW_DASHED1
 62
   120
370
     5
100
AcDbLine
 10
-141.0884816233803
 20
149.9270418594654
 30
0.0
 11
-61.08848162336778
 21
229.92704185948
 31
0.0
  0
LINE
  5
E9
330
1F
100
AcDbEntity
  8
0-0
  6
JWW_DASHED1
 62
   120
370
     5
100
AcDbLine
 10
-141.0884816233632
 20
159.8265367946459
 30
0.0
 11
-61.08848162336437
 21
239.8265367946452
 31
0.0
  0
LINE
  5
EA
330
1F
100
AcDbEntity
  8
0-0
  6
JWW_DASHED1
 62
   120
370
     5
100
AcDbLine
 10
-141.0884816233701
 20
169.7260317298542
 30
0.0
 11
-61.0884816233729
 21
249.7260317298526
 31
0.0
  0
LINE
  5
EB
330
1F
100
AcDbEntity
  8
0-0
  6
JWW_DASHED1
 62
   120
370
     5
100
AcDbLine
 10
-141.0884816233803
 20
179.625526665062
 30
0.0
 11
-61.08848162336437
 21
259.6255266650766
 31
0.0
  0
LINE
  5
EC
330
1F
100
AcDbEntity
  8
0-0
  6
JWW_DASHED1
 62
   120
370
     5
100
AcDbLine
 10
-141.0884816233598
 20
189.5250216002425
 30
0.0
 11
-61.08848162336096
 21
269.5250216002414
 31
0.0
  0
LINE
  5
ED
330
1F
100
AcDbEntity
  8
0-0
  6
JWW_DASHED1
 62
   120
370
     5
100
AcDbLine
 10
-141.0884816233701
 20
199.4245165354512
 30
0.0
 11
-61.08848162337119
 21
279.4245165354492
 31
0.0
  0
LINE
  5
EE
330
1F
100
AcDbEntity
  8
0-0
  6
JWW_DASHED1
 62
   120
370
     5
100
AcDbLine
 10
-141.0884816233769
 20
209.3240114706586
 30
0.0
 11
-61.08848162337802
 21
289.3240114706575
 31
0.0
  0
LINE
  5
EF
330
1F
100
AcDbEntity
  8
0-0
  6
JWW_DASHED1
 62
   120
370
     5
100
AcDbLine
 10
-141.0884816233598
 20
219.2235064058391
 30
0.0
 11
-61.08848162336096
 21
299.223506405838
 31
0.0
  0
LINE
  5
F0
330
1F
100
AcDbEntity
  8
0-0
  6
JWW_DASHED1
 62
   120
370
     5
100
AcDbLine
 10
-141.0884816233666
 20
229.1230013410474
 30
0.0
 11
-61.08848162336778
 21
309.1230013410462
 31
0.0
  0
LINE
  5
F1
330
1F
100
AcDbEntity
  8
0-0
  6
JWW_DASHED1
 62
   120
370
     5
100
AcDbLine
 10
-141.0884816233752
 20
239.0224962762552
 30
0.0
 11
-61.08848162337631
 21
319.0224962762541
 31
0.0
  0
LINE
  5
F2
330
1F
100
AcDbEntity
  8
0-0
  6
JWW_DASHED1
 62
   120
370
     5
100
AcDbLine
 10
-141.0884816233803
 20
248.921991211411
 30
0.0
 11
-61.08848162336778
 21
328.9219912114244
 31
0.0
  0
LINE
  5
F3
330
1F
100
AcDbEntity
  8
0-0
  6
JWW_DASHED1
 62
   120
370
     5
100
AcDbLine
 10
-141.0884816233632
 20
258.8214861466445
 30
0.0
 11
-61.08848162336608
 21
338.8214861466429
 31
0.0
  0
LINE
  5
F4
330
1F
100
AcDbEntity
  8
0-0
  6
JWW_DASHED1
 62
   120
370
     5
100
AcDbLine
 10
-141.0884816233735
 20
268.7209810818518
 30
0.0
 11
-61.08848162337461
 21
348.7209810818512
 31
0.0
  0
LINE
  5
F5
330
1F
100
AcDbEntity
  8
0-0
  6
JWW_DASHED1
 62
   120
370
     5
100
AcDbLine
 10
-141.0884816233854
 20
278.6204760170012
 30
0.0
 11
-61.08848162337119
 21
358.6204760170154
 31
0.0
  0
LINE
  5
F6
330
1F
100
AcDbEntity
  8
0-0
  6
JWW_DASHED1
 62
   120
370
     5
100
AcDbLine
 10
-141.0884816233632
 20
288.5199709522407
 30
0.0
 11
-61.08848162336437
 21
368.5199709522395
 31
0.0
  0
LINE
  5
F7
330
1F
100
AcDbEntity
  8
0-0
  6
JWW_DASHED1
 62
   120
370
     5
100
AcDbLine
 10
-141.0884816233701
 20
298.4194658874485
 30
0.0
 11
-61.08848162337119
 21
378.4194658874474
 31
0.0
  0
LINE
  5
F8
330
1F
100
AcDbEntity
  8
0-0
  6
JWW_DASHED1
 62
   120
370
     5
100
AcDbLine
 10
-141.0884816233837
 20
308.3189608225983
 30
0.0
 11
-61.08848162336778
 21
388.3189608226126
 31
0.0
  0
LINE
  5
F9
330
1F
100
AcDbEntity
  8
0-0
  6
JWW_DASHED1
 62
   120
370
     5
100
AcDbLine
 10
-141.0884816233598
 20
318.2184557578377
 30
0.0
 11
-61.08848162336096
 21
398.2184557578361
 31
0.0
  0
LINE
  5
FA
330
1F
100
AcDbEntity
  8
0-0
  6
JWW_DASHED1
 62
   120
370
     5
100
AcDbLine
 10
-141.0884816233684
 20
328.1179506930455
 30
0.0
 11
-61.08848162337119
 21
408.1179506930443
 31
0.0
  0
LINE
  5
FB
330
1F
100
AcDbEntity
  8
0-0
  6
JWW_DASHED1
 62
   120
370
     5
100
AcDbLine
 10
-141.0884816233803
 20
338.0174456281945
 30
0.0
 11
-61.08848162336778
 21
418.0174456282091
 31
0.0
  0
LINE
  5
FC
330
1F
100
AcDbEntity
  8
0-0
  6
JWW_DASHED1
 62
   120
370
     5
100
AcDbLine
 10
-141.0884816233735
 20
347.9169405634181
 30
0.0
 11
-61.08848162335926
 21
427.9169405634327
 31
0.0
  0
LINE
  5
FD
330
1F
100
AcDbEntity
  8
0-0
  6
JWW_DASHED1
 62
   120
370
     5
100
AcDbLine
 10
-141.0884816233666
 20
357.8164354986421
 30
0.0
 11
-61.08848162336778
 21
437.8164354986415
 31
0.0
  0
LINE
  5
FE
330
1F
100
AcDbEntity
  8
0-0
  6
JWW_DASHED1
 62
   120
370
     5
100
AcDbLine
 10
-141.0884816233803
 20
367.7159304337911
 30
0.0
 11
-61.08848162338143
 21
447.71593043379
 31
0.0
  0
LINE
  5
FF
330
1F
100
AcDbEntity
  8
0-0
  6
JWW_DASHED1
 62
   120
370
     5
100
AcDbLine
 10
-141.088481623382
 20
377.6154253690045
 30
0.0
 11
-61.08848162336778
 21
457.6154253690183
 31
0.0
  0
LINE
  5
100
330
1F
100
AcDbEntity
  8
0-0
  6
JWW_DASHED1
 62
   120
370
     5
100
AcDbLine
 10
-141.0884816233632
 20
387.5149203042388
 30
0.0
 11
-61.08848162336437
 21
467.5149203042376
 31
0.0
  0
LINE
  5
101
330
1F
100
AcDbEntity
  8
0-0
  6
JWW_DASHED1
 62
   120
370
     5
100
AcDbLine
 10
-141.0884816233769
 20
397.4144152393877
 30
0.0
 11
-61.08848162337802
 21
477.4144152393866
 31
0.0
  0
LINE
  5
102
330
1F
100
AcDbEntity
  8
0-0
  6
JWW_DASHED1
 62
   120
370
     5
100
AcDbLine
 10
-141.0884816233854
 20
407.313910174596
 30
0.0
 11
-61.08848162337119
 21
487.3139101746107
 31
0.0
  0
LINE
  5
103
330
1F
100
AcDbEntity
  8
0-0
  6
JWW_DASHED1
 62
   120
370
     5
100
AcDbLine
 10
-141.0884816233632
 20
417.2134051098354
 30
0.0
 11
-61.08848162336437
 21
497.2134051098342
 31
0.0
  0
LINE
  5
104
330
1F
100
AcDbEntity
  8
0-0
  6
JWW_DASHED1
 62
   120
370
     5
100
AcDbLine
 10
-141.0884816233735
 20
427.1129000449848
 30
0.0
 11
-61.08848162337461
 21
507.1129000449832
 31
0.0
  0
LINE
  5
105
330
1F
100
AcDbEntity
  8
0-0
  6
JWW_DASHED1
 62
   120
370
     5
100
AcDbLine
 10
-141.0884816233837
 20
437.0123949801927
 30
0.0
 11
-61.08848162336778
 21
517.0123949802073
 31
0.0
  0
LINE
  5
106
330
1F
100
AcDbEntity
  8
0-0
  6
JWW_DASHED1
 62
   120
370
     5
100
AcDbLine
 10
-141.0884816233598
 20
446.911889915432
 30
0.0
 11
-61.08848162336096
 21
526.9118899154308
 31
0.0
  0
LINE
  5
107
330
1F
100
AcDbEntity
  8
0-0
  6
JWW_DASHED1
 62
   120
370
     5
100
AcDbLine
 10
-141.0884816233735
 20
456.811384850581
 30
0.0
 11
-61.08848162337461
 21
536.8113848505799
 31
0.0
  0
LINE
  5
108
330
1F
100
AcDbEntity
  8
0-0
  6
JWW_DASHED1
 62
   120
370
     5
100
AcDbLine
 10
-141.0884816233803
 20
466.7108797857892
 30
0.0
 11
-61.08848162336608
 21
546.7108797858039
 31
0.0
  0
LINE
  5
109
330
1F
100
AcDbEntity
  8
0-0
  6
JWW_DASHED1
 62
   120
370
     5
100
AcDbLine
 10
-141.0884816233837
 20
476.6103747210018
 30
0.0
 11
-61.08848162337119
 21
556.6103747210155
 31
0.0
  0
LINE
  5
10A
330
1F
100
AcDbEntity
  8
0-0
  6
JWW_DASHED1
 62
   120
370
     5
100
AcDbLine
 10
-141.0884816233701
 20
486.509869656178
 30
0.0
 11
-61.08848162337119
 21
566.5098696561769
 31
0.0
  0
LINE
  5
10B
330
1F
100
AcDbEntity
  8
0-0
  6
JWW_DASHED1
 62
   120
370
     5
100
AcDbLine
 10
-141.0884816233786
 20
496.4093645913858
 30
0.0
 11
-61.08848162337972
 21
576.4093645913847
 31
0.0
  0
LINE
  5
10C
330
1F
100
AcDbEntity
  8
0-0
  6
JWW_DASHED1
 62
   120
370
     5
100
AcDbLine
 10
-141.0884816233871
 20
506.3088595265941
 30
0.0
 11
-61.0884816233729
 21
586.3088595266083
 31
0.0
  0
LINE
  5
10D
330
1F
100
AcDbEntity
  8
0-0
  6
JWW_DASHED1
 62
   120
370
     5
100
AcDbLine
 10
-141.0884816233684
 20
516.2083544617747
 30
0.0
 11
-61.08848162336778
 21
596.2083544617735
 31
0.0
  0
LINE
  5
10E
330
1F
100
AcDbEntity
  8
0-0
  6
JWW_DASHED1
 62
   120
370
     5
100
AcDbLine
 10
-141.0884816233769
 20
526.1078493969825
 30
0.0
 11
-61.08848162337802
 21
606.1078493969814
 31
0.0
  0
LINE
  5
10F
330
1F
100
AcDbEntity
  8
0-0
  6
JWW_DASHED1
 62
   120
370
     5
100
AcDbLine
 10
-141.0884816233837
 20
536.0073443321908
 30
0.0
 11
-61.08848162337119
 21
616.007344332205
 31
0.0
  0
LINE
  5
110
330
1F
100
AcDbEntity
  8
0-0
  6
JWW_DASHED1
 62
   120
370
     5
100
AcDbLine
 10
-141.0884816233666
 20
545.9068392673713
 30
0.0
 11
-61.08848162336778
 21
625.9068392673702
 31
0.0
  0
LINE
  5
111
330
1F
100
AcDbEntity
  8
0-0
  6
JWW_DASHED1
 62
   120
370
     5
100
AcDbLine
 10
-141.0884816233735
 20
555.8063342025796
 30
0.0
 11
-61.08848162337461
 21
635.806334202578
 31
0.0
  0
LINE
  5
112
330
1F
100
AcDbEntity
  8
0-0
  6
JWW_DASHED1
 62
   120
370
     5
100
AcDbLine
 10
-141.0884816233837
 20
565.7058291377873
 30
0.0
 11
-61.08848162336778
 21
645.705829137802
 31
0.0
  0
LINE
  5
113
330
1F
100
AcDbEntity
  8
0-0
  6
JWW_DASHED1
 62
   120
370
     5
100
AcDbLine
 10
-141.0884816233632
 20
575.605324072968
 30
0.0
 11
-61.08848162336437
 21
655.6053240729672
 31
0.0
  0
LINE
  5
114
330
1F
100
AcDbEntity
  8
0-0
  6
JWW_DASHED1
 62
   120
370
     5
100
AcDbLine
 10
-141.0884816233718
 20
585.5048190081761
 30
0.0
 11
-61.08848162337461
 21
665.5048190081745
 31
0.0
  0
LINE
  5
115
330
1F
100
AcDbEntity
  8
0-0
  6
JWW_DASHED1
 62
   120
370
     5
100
AcDbLine
 10
-141.0884816233803
 20
595.404313943384
 30
0.0
 11
-61.08848162338143
 21
675.4043139433828
 31
0.0
  0
LINE
  5
116
330
1F
100
AcDbEntity
  8
0-0
  6
JWW_DASHED1
 62
   120
370
     5
100
AcDbLine
 10
-141.0884816233615
 20
605.3038088785645
 30
0.0
 11
-61.08848162336267
 21
685.3038088785634
 31
0.0
  0
LINE
  5
117
330
1F
100
AcDbEntity
  8
0-0
  6
JWW_DASHED1
 62
   120
370
     5
100
AcDbLine
 10
-141.0884816233701
 20
615.2033038137728
 30
0.0
 11
-61.08848162337119
 21
695.2033038137712
 31
0.0
  0
LINE
  5
118
330
1F
100
AcDbEntity
  8
0-0
  6
JWW_DASHED1
 62
   120
370
     5
100
AcDbLine
 10
-141.0884816233769
 20
625.1027987489806
 30
0.0
 11
-61.08848162337972
 21
705.1027987489795
 31
0.0
  0
LINE
  5
119
330
1F
100
AcDbEntity
  8
0-0
  6
JWW_DASHED1
 62
   120
370
     5
100
AcDbLine
 10
-141.0884816233752
 20
635.0022936841453
 30
0.0
 11
-61.08848162336096
 21
715.0022936841605
 31
0.0
  0
LINE
  5
11A
330
1F
100
AcDbEntity
  8
0-0
  6
JWW_DASHED1
 62
   120
370
     5
100
AcDbLine
 10
-141.0884816233666
 20
644.9017886193694
 30
0.0
 11
-61.08848162336778
 21
724.9017886193683
 31
0.0
  0
LINE
  5
11B
330
1F
100
AcDbEntity
  8
0-0
  6
JWW_DASHED1
 62
   120
370
     5
100
AcDbLine
 10
-141.0884816233769
 20
654.8012835545478
 30
0.0
 11
-61.08848162337972
 21
734.8012835545467
 31
0.0
  0
LINE
  5
11C
330
1F
100
AcDbEntity
  8
0-0
  6
JWW_DASHED1
 62
   120
370
     5
100
AcDbLine
 10
-141.0884816233854
 20
664.7007784897296
 30
0.0
 11
-61.08848162337119
 21
744.700778489743
 31
0.0
  0
LINE
  5
11D
330
1F
100
AcDbEntity
  8
0-0
  6
JWW_DASHED1
 62
   120
370
     5
100
AcDbLine
 10
-141.0884816233666
 20
674.600273424966
 30
0.0
 11
-61.08848162336778
 21
754.6002734249648
 31
0.0
  0
LINE
  5
11E
330
1F
100
AcDbEntity
  8
0-0
  6
JWW_DASHED1
 62
   120
370
     5
100
AcDbLine
 10
-141.0884816233769
 20
684.4997683601448
 30
0.0
 11
-61.08848162337802
 21
764.4997683601433
 31
0.0
  0
LINE
  5
11F
330
1F
100
AcDbEntity
  8
0-0
  6
JWW_DASHED1
 62
   120
370
     5
100
AcDbLine
 10
-141.0884816233871
 20
694.3992632953233
 30
0.0
 11
-61.08848162337119
 21
774.3992632953375
 31
0.0
  0
LINE
  5
120
330
1F
100
AcDbEntity
  8
0-0
  6
JWW_DASHED1
 62
   120
370
     5
100
AcDbLine
 10
-141.0884816233632
 20
704.2987582305631
 30
0.0
 11
-61.08848162336437
 21
784.2987582305615
 31
0.0
  0
LINE
  5
121
330
1F
100
AcDbEntity
  8
0-0
  6
JWW_DASHED1
 62
   120
370
     5
100
AcDbLine
 10
-141.0884816233735
 20
714.1982531657414
 30
0.0
 11
-61.08848162337461
 21
794.1982531657403
 31
0.0
  0
LINE
  5
122
330
1F
100
AcDbEntity
  8
0-0
  6
JWW_DASHED1
 62
   120
370
     5
100
AcDbLine
 10
-141.0884816233837
 20
724.0977481009203
 30
0.0
 11
-61.08848162336949
 21
804.0977481009345
 31
0.0
  0
LINE
  5
123
330
1F
100
AcDbEntity
  8
0-0
  6
JWW_DASHED1
 62
   120
370
     5
100
AcDbLine
 10
-141.0884816233769
 20
733.9972430361435
 30
0.0
 11
-61.08848162336267
 21
813.9972430361581
 31
0.0
  0
LINE
  5
124
330
1F
100
AcDbEntity
  8
0-0
  6
JWW_DASHED1
 62
   120
370
     5
100
AcDbLine
 10
-141.0884816233701
 20
743.8967379713381
 30
0.0
 11
-61.0884816233729
 21
823.8967379713365
 31
0.0
  0
LINE
  5
125
330
1F
100
AcDbEntity
  8
0-0
  6
JWW_DASHED1
 62
   120
370
     5
100
AcDbLine
 10
-141.088481623382
 20
753.7962329065165
 30
0.0
 11
-61.08848162338313
 21
833.7962329065153
 31
0.0
  0
LINE
  5
126
330
1F
100
AcDbEntity
  8
0-0
  6
JWW_DASHED1
 62
   120
370
     5
100
AcDbLine
 10
-141.0884816233871
 20
763.6957278417269
 30
0.0
 11
-61.08848162337461
 21
843.6957278417407
 31
0.0
  0
LINE
  5
127
330
1F
100
AcDbEntity
  8
0-0
  6
JWW_DASHED1
 62
   120
370
     5
100
AcDbLine
 10
-141.0884816233718
 20
773.5952227769053
 30
0.0
 11
-61.08848162337119
 21
853.5952227769042
 31
0.0
  0
LINE
  5
128
330
1F
100
AcDbEntity
  8
0-0
  6
JWW_DASHED1
 62
   120
370
     5
100
AcDbLine
 10
-141.0884816233803
 20
783.4947177121136
 30
0.0
 11
-61.08848162338143
 21
863.494717712112
 31
0.0
  0
LINE
  5
129
330
1F
100
AcDbEntity
  8
0-0
  6
JWW_DASHED1
 62
   120
370
     5
100
AcDbLine
 10
-141.0884816233871
 20
793.3942126473214
 30
0.0
 11
-61.08848162337461
 21
873.394212647336
 31
0.0
  0
LINE
  5
12A
330
1F
100
AcDbEntity
  8
0-0
  6
JWW_DASHED1
 62
   120
370
     5
100
AcDbLine
 10
-141.0884816233701
 20
803.293707582502
 30
0.0
 11
-61.08848162337119
 21
883.2937075825008
 31
0.0
  0
LINE
  5
12B
330
1F
100
AcDbEntity
  8
0-0
  6
JWW_DASHED1
 62
   120
370
     5
100
AcDbLine
 10
-141.0884816233769
 20
813.1932025177098
 30
0.0
 11
-61.08848162337802
 21
893.1932025177086
 31
0.0
  0
LINE
  5
12C
330
1F
100
AcDbEntity
  8
0-0
  6
JWW_DASHED1
 62
   120
370
     5
100
AcDbLine
 10
-141.0884816233871
 20
823.092697452918
 30
0.0
 11
-61.08848162337119
 21
903.0926974529326
 31
0.0
  0
LINE
  5
12D
330
1F
100
AcDbEntity
  8
0-0
  6
JWW_DASHED1
 62
   120
370
     5
100
AcDbLine
 10
-141.0884816233666
 20
832.9921923880981
 30
0.0
 11
-61.08848162336778
 21
912.992192388097
 31
0.0
  0
LINE
  5
12E
330
1F
100
AcDbEntity
  8
0-0
  6
JWW_DASHED1
 62
   120
370
     5
100
AcDbLine
 10
-141.0884816233752
 20
842.8916873233068
 30
0.0
 11
-61.08848162337631
 21
922.8916873233056
 31
0.0
  0
LINE
  5
12F
330
1F
100
AcDbEntity
  8
0-0
  6
JWW_DASHED1
 62
   120
370
     5
100
AcDbLine
 10
-141.0884816233837
 20
852.7911822585146
 30
0.0
 11
-61.08848162336778
 21
932.7911822585293
 31
0.0
  0
LINE
  5
130
330
1F
100
AcDbEntity
  8
0-0
  6
JWW_DASHED1
 62
   120
370
     5
100
AcDbLine
 10
-141.0884816233649
 20
862.6906771936951
 30
0.0
 11
-61.08848162336608
 21
942.690677193694
 31
0.0
  0
LINE
  5
131
330
1F
100
AcDbEntity
  8
0-0
  6
JWW_DASHED1
 62
   120
370
     5
100
AcDbLine
 10
-141.0884816233735
 20
872.5901721289034
 30
0.0
 11
-61.08848162337461
 21
952.5901721289023
 31
0.0
  0
LINE
  5
132
330
1F
100
AcDbEntity
  8
0-0
  6
JWW_DASHED1
 62
   120
370
     5
100
AcDbLine
 10
-141.088481623382
 20
882.4896670641112
 30
0.0
 11
-61.08848162338143
 21
962.4896670641101
 31
0.0
  0
LINE
  5
133
330
1F
100
AcDbEntity
  8
0-0
  6
JWW_DASHED1
 62
   120
370
     5
100
AcDbLine
 10
-141.0884816233632
 20
892.3891619992922
 30
0.0
 11
-61.08848162336437
 21
972.3891619992911
 31
0.0
  0
LINE
  5
134
330
1F
100
AcDbEntity
  8
0-0
  6
JWW_DASHED1
 62
   120
370
     5
100
AcDbLine
 10
-141.0884816233701
 20
902.2886569345001
 30
0.0
 11
-61.08848162337119
 21
982.2886569344989
 31
0.0
  0
LINE
  5
135
330
1F
100
AcDbEntity
  8
0-0
  6
JWW_DASHED1
 62
   120
370
     5
100
AcDbLine
 10
-141.0884816233803
 20
912.1881518697082
 30
0.0
 11
-61.08848162338143
 21
992.1881518697068
 31
0.0
  0
LINE
  5
136
330
1F
100
AcDbEntity
  8
0-0
  6
JWW_DASHED1
 62
   120
370
     5
100
AcDbLine
 10
-141.0884816233905
 20
922.0876468048577
 30
0.0
 11
-61.08848162337802
 21
1002.087646804872
 31
0.0
  0
LINE
  5
137
330
1F
100
AcDbEntity
  8
0-0
  6
JWW_DASHED1
 62
   120
370
     5
100
AcDbLine
 10
-141.0884816233701
 20
931.9871417400966
 30
0.0
 11
-61.08848162337119
 21
1011.987141740095
 31
0.0
  0
LINE
  5
138
330
1F
100
AcDbEntity
  8
0-0
  6
JWW_DASHED1
 62
   120
370
     5
100
AcDbLine
 10
-141.0884816233769
 20
941.8866366753049
 30
0.0
 11
-61.08848162337802
 21
1021.886636675303
 31
0.0
  0
LINE
  5
139
330
1F
100
AcDbEntity
  8
0-0
  6
JWW_DASHED1
 62
   120
370
     5
100
AcDbLine
 10
-141.0884816233888
 20
951.7861316104547
 30
0.0
 11
-61.08848162337461
 21
1031.786131610469
 31
0.0
  0
LINE
  5
13A
330
1F
100
AcDbEntity
  8
0-0
  6
JWW_DASHED1
 62
   120
370
     5
100
AcDbLine
 10
-141.0884816233666
 20
961.6856265456937
 30
0.0
 11
-63.98072730592014
 21
1038.793380863139
 31
0.0
  0
LINE
  5
13B
330
1F
100
AcDbEntity
  8
0-0
  6
JWW_DASHED1
 62
   120
370
     5
100
AcDbLine
 10
-141.0884816233752
 20
971.5851214809015
 30
0.0
 11
-73.88022224112967
 21
1038.793380863147
 31
0.0
  0
LINE
  5
13C
330
1F
100
AcDbEntity
  8
0-0
  6
JWW_DASHED1
 62
   120
370
     5
100
AcDbLine
 10
-141.0884816233871
 20
981.4846164160501
 30
0.0
 11
-83.77971717628975
 21
1038.793380863148
 31
0.0
  0
LINE
  5
13D
330
1F
100
AcDbEntity
  8
0-0
  6
JWW_DASHED1
 62
   120
370
     5
100
AcDbLine
 10
-141.0884816233632
 20
991.3841113512904
 30
0.0
 11
-93.67921211151804
 21
1038.793380863136
 31
0.0
  0
LINE
  5
13E
330
1F
100
AcDbEntity
  8
0-0
  6
JWW_DASHED1
 62
   120
370
     5
100
AcDbLine
 10
-141.0884816233735
 20
1001.283606286498
 30
0.0
 11
-103.5787070467276
 21
1038.793380863144
 31
0.0
  0
LINE
  5
13F
330
1F
100
AcDbEntity
  8
0-0
  6
JWW_DASHED1
 62
   120
370
     5
100
AcDbLine
 10
-141.0884816233854
 20
1011.183101221647
 30
0.0
 11
-113.4782019818808
 21
1038.793380863152
 31
0.0
  0
LINE
  5
140
330
1F
100
AcDbEntity
  8
0-0
  6
JWW_DASHED1
 62
   120
370
     5
100
AcDbLine
 10
-141.0884816233769
 20
1021.082596156871
 30
0.0
 11
-123.3776969171023
 21
1038.793380863146
 31
0.0
  0
LINE
  5
141
330
1F
100
AcDbEntity
  8
0-0
  6
JWW_DASHED1
 62
   120
370
     5
100
AcDbLine
 10
-141.0884816233701
 20
1030.982091092095
 30
0.0
 11
-133.2771918523238
 21
1038.793380863142
 31
0.0
  0
LINE
  5
142
330
1F
100
AcDbEntity
  8
0-0
  6
Continuous
 62
    92
370
    13
100
AcDbLine
 10
238.9115183766288
 20
-936.2066191368571
 30
0.0
 11
238.9115183766288
 21
1046.793380863143
 31
0.0
  0
LINE
  5
143
330
1F
100
AcDbEntity
  8
0-0
  6
Continuous
 62
     7
370
     9
100
AcDbLine
 10
238.9115183766288
 20
1038.793380863143
 30
0.0
 11
158.9115183766299
 21
1038.793380863143
 31
0.0
  0
LINE
  5
144
330
1F
100
AcDbEntity
  8
0-0
  6
Continuous
 62
     7
370
     9
100
AcDbLine
 10
238.9115183766288
 20
-928.2066191368575
 30
0.0
 11
158.9115183766299
 21
-928.2066191368575
 31
0.0
  0
LINE
  5
145
330
1F
100
AcDbEntity
  8
0-0
  6
Continuous
 62
    92
370
    13
100
AcDbLine
 10
158.9115183766299
 20
-936.2066191368571
 30
0.0
 11
158.9115183766299
 21
1046.793380863143
 31
0.0
  0
LINE
  5
146
330
1F
100
AcDbEntity
  8
0-0
  6
JWW_DASHED1
 62
   120
370
     5
100
AcDbLine
 10
158.9115183766299
 20
1030.982091092095
 30
0.0
 11
166.7228081476762
 21
1038.793380863142
 31
0.0
  0
LINE
  5
147
330
1F
100
AcDbEntity
  8
0-0
  6
JWW_DASHED1
 62
   120
370
     5
100
AcDbLine
 10
158.9115183766231
 20
1021.082596156871
 30
0.0
 11
176.6223030828977
 21
1038.793380863146
 31
0.0
  0
LINE
  5
148
330
1F
100
AcDbEntity
  8
0-0
  6
JWW_DASHED1
 62
   120
370
     5
100
AcDbLine
 10
158.9115183766146
 20
1011.183101221647
 30
0.0
 11
186.5217980181192
 21
1038.793380863152
 31
0.0
  0
LINE
  5
149
330
1F
100
AcDbEntity
  8
0-0
  6
JWW_DASHED1
 62
   120
370
     5
100
AcDbLine
 10
158.9115183766265
 20
1001.283606286498
 30
0.0
 11
196.4212929532724
 21
1038.793380863144
 31
0.0
  0
LINE
  5
14A
330
1F
100
AcDbEntity
  8
0-0
  6
JWW_DASHED1
 62
   120
370
     5
100
AcDbLine
 10
158.9115183766368
 20
991.3841113512904
 30
0.0
 11
206.320787888482
 21
1038.793380863136
 31
0.0
  0
LINE
  5
14B
330
1F
100
AcDbEntity
  8
0-0
  6
JWW_DASHED1
 62
   120
370
     5
100
AcDbLine
 10
158.9115183766129
 20
981.4846164160501
 30
0.0
 11
216.2202828237102
 21
1038.793380863148
 31
0.0
  0
LINE
  5
14C
330
1F
100
AcDbEntity
  8
0-0
  6
JWW_DASHED1
 62
   120
370
     5
100
AcDbLine
 10
158.9115183766248
 20
971.5851214809015
 30
0.0
 11
226.1197777588703
 21
1038.793380863147
 31
0.0
  0
LINE
  5
14D
330
1F
100
AcDbEntity
  8
0-0
  6
JWW_DASHED1
 62
   120
370
     5
100
AcDbLine
 10
158.9115183766334
 20
961.6856265456937
 30
0.0
 11
236.0192726940799
 21
1038.793380863139
 31
0.0
  0
LINE
  5
14E
330
1F
100
AcDbEntity
  8
0-0
  6
JWW_DASHED1
 62
   120
370
     5
100
AcDbLine
 10
158.9115183766112
 20
951.7861316104547
 30
0.0
 11
238.9115183766254
 21
1031.786131610469
 31
0.0
  0
LINE
  5
14F
330
1F
100
AcDbEntity
  8
0-0
  6
JWW_DASHED1
 62
   120
370
     5
100
AcDbLine
 10
158.9115183766231
 20
941.8866366753049
 30
0.0
 11
238.911518376622
 21
1021.886636675303
 31
0.0
  0
LINE
  5
150
330
1F
100
AcDbEntity
  8
0-0
  6
JWW_DASHED1
 62
   120
370
     5
100
AcDbLine
 10
158.9115183766299
 20
931.9871417400966
 30
0.0
 11
238.9115183766288
 21
1011.987141740095
 31
0.0
  0
LINE
  5
151
330
1F
100
AcDbEntity
  8
0-0
  6
JWW_DASHED1
 62
   120
370
     5
100
AcDbLine
 10
158.9115183766095
 20
922.0876468048577
 30
0.0
 11
238.911518376622
 21
1002.087646804872
 31
0.0
  0
LINE
  5
152
330
1F
100
AcDbEntity
  8
0-0
  6
JWW_DASHED1
 62
   120
370
     5
100
AcDbLine
 10
158.9115183766197
 20
912.1881518697082
 30
0.0
 11
238.9115183766186
 21
992.1881518697068
 31
0.0
  0
LINE
  5
153
330
1F
100
AcDbEntity
  8
0-0
  6
JWW_DASHED1
 62
   120
370
     5
100
AcDbLine
 10
158.9115183766299
 20
902.2886569345001
 30
0.0
 11
238.9115183766288
 21
982.2886569344989
 31
0.0
  0
LINE
  5
154
330
1F
100
AcDbEntity
  8
0-0
  6
JWW_DASHED1
 62
   120
370
     5
100
AcDbLine
 10
158.9115183766368
 20
892.3891619992922
 30
0.0
 11
238.9115183766356
 21
972.3891619992911
 31
0.0
  0
LINE
  5
155
330
1F
100
AcDbEntity
  8
0-0
  6
JWW_DASHED1
 62
   120
370
     5
100
AcDbLine
 10
158.911518376618
 20
882.4896670641112
 30
0.0
 11
238.9115183766186
 21
962.4896670641101
 31
0.0
  0
LINE
  5
156
330
1F
100
AcDbEntity
  8
0-0
  6
JWW_DASHED1
 62
   120
370
     5
100
AcDbLine
 10
158.9115183766265
 20
872.5901721289034
 30
0.0
 11
238.9115183766254
 21
952.5901721289023
 31
0.0
  0
LINE
  5
157
330
1F
100
AcDbEntity
  8
0-0
  6
JWW_DASHED1
 62
   120
370
     5
100
AcDbLine
 10
158.9115183766351
 20
862.6906771936951
 30
0.0
 11
238.9115183766339
 21
942.690677193694
 31
0.0
  0
LINE
  5
158
330
1F
100
AcDbEntity
  8
0-0
  6
JWW_DASHED1
 62
   120
370
     5
100
AcDbLine
 10
158.9115183766163
 20
852.7911822585146
 30
0.0
 11
238.9115183766322
 21
932.7911822585293
 31
0.0
  0
LINE
  5
159
330
1F
100
AcDbEntity
  8
0-0
  6
JWW_DASHED1
 62
   120
370
     5
100
AcDbLine
 10
158.9115183766248
 20
842.8916873233068
 30
0.0
 11
238.9115183766237
 21
922.8916873233056
 31
0.0
  0
LINE
  5
15A
330
1F
100
AcDbEntity
  8
0-0
  6
JWW_DASHED1
 62
   120
370
     5
100
AcDbLine
 10
158.9115183766334
 20
832.9921923880981
 30
0.0
 11
238.9115183766322
 21
912.992192388097
 31
0.0
  0
LINE
  5
15B
330
1F
100
AcDbEntity
  8
0-0
  6
JWW_DASHED1
 62
   120
370
     5
100
AcDbLine
 10
158.9115183766129
 20
823.092697452918
 30
0.0
 11
238.9115183766288
 21
903.0926974529326
 31
0.0
  0
LINE
  5
15C
330
1F
100
AcDbEntity
  8
0-0
  6
JWW_DASHED1
 62
   120
370
     5
100
AcDbLine
 10
158.9115183766231
 20
813.1932025177098
 30
0.0
 11
238.911518376622
 21
893.1932025177086
 31
0.0
  0
LINE
  5
15D
330
1F
100
AcDbEntity
  8
0-0
  6
JWW_DASHED1
 62
   120
370
     5
100
AcDbLine
 10
158.9115183766299
 20
803.293707582502
 30
0.0
 11
238.9115183766288
 21
883.2937075825008
 31
0.0
  0
LINE
  5
15E
330
1F
100
AcDbEntity
  8
0-0
  6
JWW_DASHED1
 62
   120
370
     5
100
AcDbLine
 10
158.9115183766129
 20
793.3942126473214
 30
0.0
 11
238.9115183766254
 21
873.394212647336
 31
0.0
  0
LINE
  5
15F
330
1F
100
AcDbEntity
  8
0-0
  6
JWW_DASHED1
 62
   120
370
     5
100
AcDbLine
 10
158.9115183766197
 20
783.4947177121136
 30
0.0
 11
238.9115183766186
 21
863.494717712112
 31
0.0
  0
LINE
  5
160
330
1F
100
AcDbEntity
  8
0-0
  6
JWW_DASHED1
 62
   120
370
     5
100
AcDbLine
 10
158.9115183766282
 20
773.5952227769053
 30
0.0
 11
238.9115183766288
 21
853.5952227769042
 31
0.0
  0
LINE
  5
161
330
1F
100
AcDbEntity
  8
0-0
  6
JWW_DASHED1
 62
   120
370
     5
100
AcDbLine
 10
158.9115183766129
 20
763.6957278417269
 30
0.0
 11
238.9115183766254
 21
843.6957278417407
 31
0.0
  0
LINE
  5
162
330
1F
100
AcDbEntity
  8
0-0
  6
JWW_DASHED1
 62
   120
370
     5
100
AcDbLine
 10
158.911518376618
 20
753.7962329065165
 30
0.0
 11
238.9115183766169
 21
833.7962329065153
 31
0.0
  0
LINE
  5
163
330
1F
100
AcDbEntity
  8
0-0
  6
JWW_DASHED1
 62
   120
370
     5
100
AcDbLine
 10
158.9115183766299
 20
743.8967379713381
 30
0.0
 11
238.9115183766271
 21
823.8967379713365
 31
0.0
  0
LINE
  5
164
330
1F
100
AcDbEntity
  8
0-0
  6
JWW_DASHED1
 62
   120
370
     5
100
AcDbLine
 10
158.9115183766231
 20
733.9972430361435
 30
0.0
 11
238.9115183766373
 21
813.9972430361581
 31
0.0
  0
LINE
  5
165
330
1F
100
AcDbEntity
  8
0-0
  6
JWW_DASHED1
 62
   120
370
     5
100
AcDbLine
 10
158.9115183766163
 20
724.0977481009203
 30
0.0
 11
238.9115183766305
 21
804.0977481009345
 31
0.0
  0
LINE
  5
166
330
1F
100
AcDbEntity
  8
0-0
  6
JWW_DASHED1
 62
   120
370
     5
100
AcDbLine
 10
158.9115183766265
 20
714.1982531657414
 30
0.0
 11
238.9115183766254
 21
794.1982531657403
 31
0.0
  0
LINE
  5
167
330
1F
100
AcDbEntity
  8
0-0
  6
JWW_DASHED1
 62
   120
370
     5
100
AcDbLine
 10
158.9115183766368
 20
704.2987582305631
 30
0.0
 11
238.9115183766356
 21
784.2987582305615
 31
0.0
  0
LINE
  5
168
330
1F
100
AcDbEntity
  8
0-0
  6
JWW_DASHED1
 62
   120
370
     5
100
AcDbLine
 10
158.9115183766129
 20
694.3992632953233
 30
0.0
 11
238.9115183766288
 21
774.3992632953375
 31
0.0
  0
LINE
  5
169
330
1F
100
AcDbEntity
  8
0-0
  6
JWW_DASHED1
 62
   120
370
     5
100
AcDbLine
 10
158.9115183766231
 20
684.4997683601448
 30
0.0
 11
238.911518376622
 21
764.4997683601433
 31
0.0
  0
LINE
  5
16A
330
1F
100
AcDbEntity
  8
0-0
  6
JWW_DASHED1
 62
   120
370
     5
100
AcDbLine
 10
158.9115183766334
 20
674.600273424966
 30
0.0
 11
238.9115183766322
 21
754.6002734249648
 31
0.0
  0
LINE
  5
16B
330
1F
100
AcDbEntity
  8
0-0
  6
JWW_DASHED1
 62
   120
370
     5
100
AcDbLine
 10
158.9115183766146
 20
664.7007784897296
 30
0.0
 11
238.9115183766288
 21
744.700778489743
 31
0.0
  0
LINE
  5
16C
330
1F
100
AcDbEntity
  8
0-0
  6
JWW_DASHED1
 62
   120
370
     5
100
AcDbLine
 10
158.9115183766231
 20
654.8012835545478
 30
0.0
 11
238.9115183766203
 21
734.8012835545467
 31
0.0
  0
LINE
  5
16D
330
1F
100
AcDbEntity
  8
0-0
  6
JWW_DASHED1
 62
   120
370
     5
100
AcDbLine
 10
158.9115183766334
 20
644.9017886193694
 30
0.0
 11
238.9115183766322
 21
724.9017886193683
 31
0.0
  0
LINE
  5
16E
330
1F
100
AcDbEntity
  8
0-0
  6
JWW_DASHED1
 62
   120
370
     5
100
AcDbLine
 10
158.9115183766248
 20
635.0022936841453
 30
0.0
 11
238.911518376639
 21
715.0022936841605
 31
0.0
  0
LINE
  5
16F
330
1F
100
AcDbEntity
  8
0-0
  6
JWW_DASHED1
 62
   120
370
     5
100
AcDbLine
 10
158.9115183766231
 20
625.1027987489806
 30
0.0
 11
238.9115183766203
 21
705.1027987489795
 31
0.0
  0
LINE
  5
170
330
1F
100
AcDbEntity
  8
0-0
  6
JWW_DASHED1
 62
   120
370
     5
100
AcDbLine
 10
158.9115183766299
 20
615.2033038137728
 30
0.0
 11
238.9115183766288
 21
695.2033038137712
 31
0.0
  0
LINE
  5
171
330
1F
100
AcDbEntity
  8
0-0
  6
JWW_DASHED1
 62
   120
370
     5
100
AcDbLine
 10
158.9115183766385
 20
605.3038088785645
 30
0.0
 11
238.9115183766373
 21
685.3038088785634
 31
0.0
  0
LINE
  5
172
330
1F
100
AcDbEntity
  8
0-0
  6
JWW_DASHED1
 62
   120
370
     5
100
AcDbLine
 10
158.9115183766197
 20
595.404313943384
 30
0.0
 11
238.9115183766186
 21
675.4043139433828
 31
0.0
  0
LINE
  5
173
330
1F
100
AcDbEntity
  8
0-0
  6
JWW_DASHED1
 62
   120
370
     5
100
AcDbLine
 10
158.9115183766282
 20
585.5048190081761
 30
0.0
 11
238.9115183766254
 21
665.5048190081745
 31
0.0
  0
LINE
  5
174
330
1F
100
AcDbEntity
  8
0-0
  6
JWW_DASHED1
 62
   120
370
     5
100
AcDbLine
 10
158.9115183766368
 20
575.605324072968
 30
0.0
 11
238.9115183766356
 21
655.6053240729672
 31
0.0
  0
LINE
  5
175
330
1F
100
AcDbEntity
  8
0-0
  6
JWW_DASHED1
 62
   120
370
     5
100
AcDbLine
 10
158.9115183766163
 20
565.7058291377873
 30
0.0
 11
238.9115183766322
 21
645.705829137802
 31
0.0
  0
LINE
  5
176
330
1F
100
AcDbEntity
  8
0-0
  6
JWW_DASHED1
 62
   120
370
     5
100
AcDbLine
 10
158.9115183766265
 20
555.8063342025796
 30
0.0
 11
238.9115183766254
 21
635.806334202578
 31
0.0
  0
LINE
  5
177
330
1F
100
AcDbEntity
  8
0-0
  6
JWW_DASHED1
 62
   120
370
     5
100
AcDbLine
 10
158.9115183766334
 20
545.9068392673713
 30
0.0
 11
238.9115183766322
 21
625.9068392673702
 31
0.0
  0
LINE
  5
178
330
1F
100
AcDbEntity
  8
0-0
  6
JWW_DASHED1
 62
   120
370
     5
100
AcDbLine
 10
158.9115183766163
 20
536.0073443321908
 30
0.0
 11
238.9115183766288
 21
616.007344332205
 31
0.0
  0
LINE
  5
179
330
1F
100
AcDbEntity
  8
0-0
  6
JWW_DASHED1
 62
   120
370
     5
100
AcDbLine
 10
158.9115183766231
 20
526.1078493969825
 30
0.0
 11
238.911518376622
 21
606.1078493969814
 31
0.0
  0
LINE
  5
17A
330
1F
100
AcDbEntity
  8
0-0
  6
JWW_DASHED1
 62
   120
370
     5
100
AcDbLine
 10
158.9115183766316
 20
516.2083544617747
 30
0.0
 11
238.9115183766322
 21
596.2083544617735
 31
0.0
  0
LINE
  5
17B
330
1F
100
AcDbEntity
  8
0-0
  6
JWW_DASHED1
 62
   120
370
     5
100
AcDbLine
 10
158.9115183766129
 20
506.3088595265941
 30
0.0
 11
238.9115183766271
 21
586.3088595266083
 31
0.0
  0
LINE
  5
17C
330
1F
100
AcDbEntity
  8
0-0
  6
JWW_DASHED1
 62
   120
370
     5
100
AcDbLine
 10
158.9115183766214
 20
496.4093645913858
 30
0.0
 11
238.9115183766203
 21
576.4093645913847
 31
0.0
  0
LINE
  5
17D
330
1F
100
AcDbEntity
  8
0-0
  6
JWW_DASHED1
 62
   120
370
     5
100
AcDbLine
 10
158.9115183766299
 20
486.509869656178
 30
0.0
 11
238.9115183766288
 21
566.5098696561769
 31
0.0
  0
LINE
  5
17E
330
1F
100
AcDbEntity
  8
0-0
  6
JWW_DASHED1
 62
   120
370
     5
100
AcDbLine
 10
158.9115183766163
 20
476.6103747210018
 30
0.0
 11
238.9115183766288
 21
556.6103747210155
 31
0.0
  0
LINE
  5
17F
330
1F
100
AcDbEntity
  8
0-0
  6
JWW_DASHED1
 62
   120
370
     5
100
AcDbLine
 10
158.9115183766197
 20
466.7108797857892
 30
0.0
 11
238.9115183766339
 21
546.7108797858039
 31
0.0
  0
LINE
  5
180
330
1F
100
AcDbEntity
  8
0-0
  6
JWW_DASHED1
 62
   120
370
     5
100
AcDbLine
 10
158.9115183766265
 20
456.811384850581
 30
0.0
 11
238.9115183766254
 21
536.8113848505799
 31
0.0
  0
LINE
  5
181
330
1F
100
AcDbEntity
  8
0-0
  6
JWW_DASHED1
 62
   120
370
     5
100
AcDbLine
 10
158.9115183766402
 20
446.911889915432
 30
0.0
 11
238.911518376639
 21
526.9118899154308
 31
0.0
  0
LINE
  5
182
330
1F
100
AcDbEntity
  8
0-0
  6
JWW_DASHED1
 62
   120
370
     5
100
AcDbLine
 10
158.9115183766163
 20
437.0123949801927
 30
0.0
 11
238.9115183766322
 21
517.0123949802073
 31
0.0
  0
LINE
  5
183
330
1F
100
AcDbEntity
  8
0-0
  6
JWW_DASHED1
 62
   120
370
     5
100
AcDbLine
 10
158.9115183766265
 20
427.1129000449848
 30
0.0
 11
238.9115183766254
 21
507.1129000449832
 31
0.0
  0
LINE
  5
184
330
1F
100
AcDbEntity
  8
0-0
  6
JWW_DASHED1
 62
   120
370
     5
100
AcDbLine
 10
158.9115183766368
 20
417.2134051098354
 30
0.0
 11
238.9115183766356
 21
497.2134051098342
 31
0.0
  0
LINE
  5
185
330
1F
100
AcDbEntity
  8
0-0
  6
JWW_DASHED1
 62
   120
370
     5
100
AcDbLine
 10
158.9115183766146
 20
407.313910174596
 30
0.0
 11
238.9115183766288
 21
487.3139101746107
 31
0.0
  0
LINE
  5
186
330
1F
100
AcDbEntity
  8
0-0
  6
JWW_DASHED1
 62
   120
370
     5
100
AcDbLine
 10
158.9115183766231
 20
397.4144152393877
 30
0.0
 11
238.911518376622
 21
477.4144152393866
 31
0.0
  0
LINE
  5
187
330
1F
100
AcDbEntity
  8
0-0
  6
JWW_DASHED1
 62
   120
370
     5
100
AcDbLine
 10
158.9115183766368
 20
387.5149203042388
 30
0.0
 11
238.9115183766356
 21
467.5149203042376
 31
0.0
  0
LINE
  5
188
330
1F
100
AcDbEntity
  8
0-0
  6
JWW_DASHED1
 62
   120
370
     5
100
AcDbLine
 10
158.911518376618
 20
377.6154253690045
 30
0.0
 11
238.9115183766322
 21
457.6154253690183
 31
0.0
  0
LINE
  5
189
330
1F
100
AcDbEntity
  8
0-0
  6
JWW_DASHED1
 62
   120
370
     5
100
AcDbLine
 10
158.9115183766197
 20
367.7159304337911
 30
0.0
 11
238.9115183766186
 21
447.71593043379
 31
0.0
  0
LINE
  5
18A
330
1F
100
AcDbEntity
  8
0-0
  6
JWW_DASHED1
 62
   120
370
     5
100
AcDbLine
 10
158.9115183766334
 20
357.8164354986421
 30
0.0
 11
238.9115183766322
 21
437.8164354986415
 31
0.0
  0
LINE
  5
18B
330
1F
100
AcDbEntity
  8
0-0
  6
JWW_DASHED1
 62
   120
370
     5
100
AcDbLine
 10
158.9115183766265
 20
347.9169405634181
 30
0.0
 11
238.9115183766407
 21
427.9169405634327
 31
0.0
  0
LINE
  5
18C
330
1F
100
AcDbEntity
  8
0-0
  6
JWW_DASHED1
 62
   120
370
     5
100
AcDbLine
 10
158.9115183766197
 20
338.0174456281945
 30
0.0
 11
238.9115183766322
 21
418.0174456282091
 31
0.0
  0
LINE
  5
18D
330
1F
100
AcDbEntity
  8
0-0
  6
JWW_DASHED1
 62
   120
370
     5
100
AcDbLine
 10
158.9115183766316
 20
328.1179506930455
 30
0.0
 11
238.9115183766288
 21
408.1179506930443
 31
0.0
  0
LINE
  5
18E
330
1F
100
AcDbEntity
  8
0-0
  6
JWW_DASHED1
 62
   120
370
     5
100
AcDbLine
 10
158.9115183766402
 20
318.2184557578377
 30
0.0
 11
238.911518376639
 21
398.2184557578361
 31
0.0
  0
LINE
  5
18F
330
1F
100
AcDbEntity
  8
0-0
  6
JWW_DASHED1
 62
   120
370
     5
100
AcDbLine
 10
158.9115183766163
 20
308.3189608225983
 30
0.0
 11
238.9115183766322
 21
388.3189608226126
 31
0.0
  0
LINE
  5
190
330
1F
100
AcDbEntity
  8
0-0
  6
JWW_DASHED1
 62
   120
370
     5
100
AcDbLine
 10
158.9115183766299
 20
298.4194658874485
 30
0.0
 11
238.9115183766288
 21
378.4194658874474
 31
0.0
  0
LINE
  5
191
330
1F
100
AcDbEntity
  8
0-0
  6
JWW_DASHED1
 62
   120
370
     5
100
AcDbLine
 10
158.9115183766368
 20
288.5199709522407
 30
0.0
 11
238.9115183766356
 21
368.5199709522395
 31
0.0
  0
LINE
  5
192
330
1F
100
AcDbEntity
  8
0-0
  6
JWW_DASHED1
 62
   120
370
     5
100
AcDbLine
 10
158.9115183766146
 20
278.6204760170012
 30
0.0
 11
238.9115183766288
 21
358.6204760170154
 31
0.0
  0
LINE
  5
193
330
1F
100
AcDbEntity
  8
0-0
  6
JWW_DASHED1
 62
   120
370
     5
100
AcDbLine
 10
158.9115183766265
 20
268.7209810818518
 30
0.0
 11
238.9115183766254
 21
348.7209810818512
 31
0.0
  0
LINE
  5
194
330
1F
100
AcDbEntity
  8
0-0
  6
JWW_DASHED1
 62
   120
370
     5
100
AcDbLine
 10
158.9115183766368
 20
258.8214861466445
 30
0.0
 11
238.9115183766339
 21
338.8214861466429
 31
0.0
  0
LINE
  5
195
330
1F
100
AcDbEntity
  8
0-0
  6
JWW_DASHED1
 62
   120
370
     5
100
AcDbLine
 10
158.9115183766197
 20
248.921991211411
 30
0.0
 11
238.9115183766322
 21
328.9219912114244
 31
0.0
  0
LINE
  5
196
330
1F
100
AcDbEntity
  8
0-0
  6
JWW_DASHED1
 62
   120
370
     5
100
AcDbLine
 10
158.9115183766248
 20
239.0224962762552
 30
0.0
 11
238.9115183766237
 21
319.0224962762541
 31
0.0
  0
LINE
  5
197
330
1F
100
AcDbEntity
  8
0-0
  6
JWW_DASHED1
 62
   120
370
     5
100
AcDbLine
 10
158.9115183766334
 20
229.1230013410474
 30
0.0
 11
238.9115183766322
 21
309.1230013410462
 31
0.0
  0
LINE
  5
198
330
1F
100
AcDbEntity
  8
0-0
  6
JWW_DASHED1
 62
   120
370
     5
100
AcDbLine
 10
158.9115183766402
 20
219.2235064058391
 30
0.0
 11
238.911518376639
 21
299.223506405838
 31
0.0
  0
LINE
  5
199
330
1F
100
AcDbEntity
  8
0-0
  6
JWW_DASHED1
 62
   120
370
     5
100
AcDbLine
 10
158.9115183766231
 20
209.3240114706586
 30
0.0
 11
238.911518376622
 21
289.3240114706575
 31
0.0
  0
LINE
  5
19A
330
1F
100
AcDbEntity
  8
0-0
  6
JWW_DASHED1
 62
   120
370
     5
100
AcDbLine
 10
158.9115183766299
 20
199.4245165354512
 30
0.0
 11
238.9115183766288
 21
279.4245165354492
 31
0.0
  0
LINE
  5
19B
330
1F
100
AcDbEntity
  8
0-0
  6
JWW_DASHED1
 62
   120
370
     5
100
AcDbLine
 10
158.9115183766402
 20
189.5250216002425
 30
0.0
 11
238.911518376639
 21
269.5250216002414
 31
0.0
  0
LINE
  5
19C
330
1F
100
AcDbEntity
  8
0-0
  6
JWW_DASHED1
 62
   120
370
     5
100
AcDbLine
 10
158.9115183766197
 20
179.625526665062
 30
0.0
 11
238.9115183766356
 21
259.6255266650766
 31
0.0
  0
LINE
  5
19D
330
1F
100
AcDbEntity
  8
0-0
  6
JWW_DASHED1
 62
   120
370
     5
100
AcDbLine
 10
158.9115183766299
 20
169.7260317298542
 30
0.0
 11
238.9115183766271
 21
249.7260317298526
 31
0.0
  0
LINE
  5
19E
330
1F
100
AcDbEntity
  8
0-0
  6
JWW_DASHED1
 62
   120
370
     5
100
AcDbLine
 10
158.9115183766368
 20
159.8265367946459
 30
0.0
 11
238.9115183766356
 21
239.8265367946452
 31
0.0
  0
LINE
  5
19F
330
1F
100
AcDbEntity
  8
0-0
  6
JWW_DASHED1
 62
   120
370
     5
100
AcDbLine
 10
158.9115183766197
 20
149.9270418594654
 30
0.0
 11
238.9115183766322
 21
229.92704185948
 31
0.0
  0
LINE
  5
1A0
330
1F
100
AcDbEntity
  8
0-0
  6
JWW_DASHED1
 62
   120
370
     5
100
AcDbLine
 10
158.9115183766265
 20
140.0275469242571
 30
0.0
 11
238.9115183766254
 21
220.027546924256
 31
0.0
  0
LINE
  5
1A1
330
1F
100
AcDbEntity
  8
0-0
  6
JWW_DASHED1
 62
   120
370
     5
100
AcDbLine
 10
158.9115183766351
 20
130.1280519890493
 30
0.0
 11
238.9115183766339
 21
210.1280519890481
 31
0.0
  0
LINE
  5
1A2
330
1F
100
AcDbEntity
  8
0-0
  6
JWW_DASHED1
 62
   120
370
     5
100
AcDbLine
 10
158.9115183766163
 20
120.2285570538687
 30
0.0
 11
238.9115183766305
 21
200.228557053883
 31
0.0
  0
LINE
  5
1A3
330
1F
100
AcDbEntity
  8
0-0
  6
JWW_DASHED1
 62
   120
370
     5
100
AcDbLine
 10
158.9115183766231
 20
110.3290621186609
 30
0.0
 11
238.911518376622
 21
190.3290621186594
 31
0.0
  0
LINE
  5
1A4
330
1F
100
AcDbEntity
  8
0-0
  6
JWW_DASHED1
 62
   120
370
     5
100
AcDbLine
 10
158.9115183766334
 20
100.4295671834527
 30
0.0
 11
238.9115183766322
 21
180.4295671834511
 31
0.0
  0
LINE
  5
1A5
330
1F
100
AcDbEntity
  8
0-0
  6
JWW_DASHED1
 62
   120
370
     5
100
AcDbLine
 10
158.9115183766214
 20
90.53007224827937
 30
0.0
 11
238.9115183766356
 21
170.5300722482936
 31
0.0
  0
LINE
  5
1A6
330
1F
100
AcDbEntity
  8
0-0
  6
JWW_DASHED1
 62
   120
370
     5
100
AcDbLine
 10
158.9115183766231
 20
80.63057731306387
 30
0.0
 11
238.911518376622
 21
160.6305773130627
 31
0.0
  0
LINE
  5
1A7
330
1F
100
AcDbEntity
  8
0-0
  6
JWW_DASHED1
 62
   120
370
     5
100
AcDbLine
 10
158.9115183766351
 20
70.73108237791487
 30
0.0
 11
238.9115183766322
 21
150.7310823779137
 31
0.0
  0
LINE
  5
1A8
330
1F
100
AcDbEntity
  8
0-0
  6
JWW_DASHED1
 62
   120
370
     5
100
AcDbLine
 10
158.9115183766265
 20
60.83158744269085
 30
0.0
 11
238.9115183766424
 21
140.8315874427055
 31
0.0
  0
LINE
  5
1A9
330
1F
100
AcDbEntity
  8
0-0
  6
JWW_DASHED1
 62
   120
370
     5
100
AcDbLine
 10
158.9115183766197
 20
50.93209250746767
 30
0.0
 11
238.9115183766356
 21
130.9320925074819
 31
0.0
  0
LINE
  5
1AA
330
1F
100
AcDbEntity
  8
0-0
  6
JWW_DASHED1
 62
   120
370
     5
100
AcDbLine
 10
158.9115183766334
 20
41.03259757231783
 30
0.0
 11
238.9115183766322
 21
121.0325975723167
 31
0.0
  0
LINE
  5
1AB
330
1F
100
AcDbEntity
  8
0-0
  6
JWW_DASHED1
 62
   120
370
     5
100
AcDbLine
 10
158.9115183766402
 20
31.13310263711
 30
0.0
 11
238.911518376639
 21
111.1331026371089
 31
0.0
  0
LINE
  5
1AC
330
1F
100
AcDbEntity
  8
0-0
  6
JWW_DASHED1
 62
   120
370
     5
100
AcDbLine
 10
158.911518376618
 20
21.23360770187062
 30
0.0
 11
238.9115183766322
 21
101.2336077018848
 31
0.0
  0
LINE
  5
1AD
330
1F
100
AcDbEntity
  8
0-0
  6
JWW_DASHED1
 62
   120
370
     5
100
AcDbLine
 10
158.9115183766299
 20
11.3341127667212
 30
0.0
 11
238.9115183766288
 21
91.3341127667205
 31
0.0
  0
LINE
  5
1AE
330
1F
100
AcDbEntity
  8
0-0
  6
JWW_DASHED1
 62
   120
370
     5
100
AcDbLine
 10
158.9115183766402
 20
1.434617831513805
 30
0.0
 11
238.9115183766373
 21
81.43461783151224
 31
0.0
  0
LINE
  5
1AF
330
1F
100
AcDbEntity
  8
0-0
  6
JWW_DASHED1
 62
   120
370
     5
100
AcDbLine
 10
158.9115183766231
 20
-8.464877103717896
 30
0.0
 11
238.9115183766373
 21
71.53512289629589
 31
0.0
  0
LINE
  5
1B0
330
1F
100
AcDbEntity
  8
0-0
  6
JWW_DASHED1
 62
   120
370
     5
100
AcDbLine
 10
158.9115183766282
 20
-18.36437203887542
 30
0.0
 11
238.9115183766271
 21
61.63562796112345
 31
0.0
  0
LINE
  5
1B1
330
1F
100
AcDbEntity
  8
0-0
  6
JWW_DASHED1
 62
   120
370
     5
100
AcDbLine
 10
158.9115183766368
 20
-28.26386697408324
 30
0.0
 11
238.9115183766356
 21
51.73613302591562
 31
0.0
  0
LINE
  5
1B2
330
1F
100
AcDbEntity
  8
0-0
  6
JWW_DASHED1
 62
   120
370
     5
100
AcDbLine
 10
158.9115183766299
 20
-38.16336190930727
 30
0.0
 11
238.9115183766424
 21
41.83663809070779
 31
0.0
  0
LINE
  5
1B3
330
1F
100
AcDbEntity
  8
0-0
  6
JWW_DASHED1
 62
   120
370
     5
100
AcDbLine
 10
158.9115183766265
 20
-48.06285684447161
 30
0.0
 11
238.9115183766254
 21
31.93714315552683
 31
0.0
  0
LINE
  5
1B4
330
1F
100
AcDbEntity
  8
0-0
  6
JWW_DASHED1
 62
   120
370
     5
100
AcDbLine
 10
158.9115183766334
 20
-57.96235177967986
 30
0.0
 11
238.9115183766322
 21
22.03764822031857
 31
0.0
  0
LINE
  5
1B5
330
1F
100
AcDbEntity
  8
0-0
  6
JWW_DASHED1
 62
   120
370
     5
100
AcDbLine
 10
158.9115183766436
 20
-67.86184671488812
 30
0.0
 11
238.9115183766424
 21
12.13815328511075
 31
0.0
  0
LINE
  5
1B6
330
1F
100
AcDbEntity
  8
0-0
  6
JWW_DASHED1
 62
   120
370
     5
100
AcDbLine
 10
158.9115183766231
 20
-77.76134165006866
 30
0.0
 11
238.911518376622
 21
2.238658349930205
 31
0.0
  0
LINE
  5
1B7
330
1F
100
AcDbEntity
  8
0-0
  6
JWW_DASHED1
 62
   120
370
     5
100
AcDbLine
 10
158.9115183766334
 20
-87.66083658527648
 30
0.0
 11
238.9115183766322
 21
-7.660836585278048
 31
0.0
  0
LINE
  5
1B8
330
1F
100
AcDbEntity
  8
0-0
  6
JWW_DASHED1
 62
   120
370
     5
100
AcDbLine
 10
158.9115183766402
 20
-97.56033152048474
 30
0.0
 11
238.911518376639
 21
-17.56033152048587
 31
0.0
  0
LINE
  5
1B9
330
1F
100
AcDbEntity
  8
0-0
  6
JWW_DASHED1
 62
   120
370
     5
100
AcDbLine
 10
158.9115183766214
 20
-107.4598264556657
 30
0.0
 11
238.9115183766356
 21
-27.45982645565064
 31
0.0
  0
LINE
  5
1BA
330
1F
100
AcDbEntity
  8
0-0
  6
JWW_DASHED1
 62
   120
370
     5
100
AcDbLine
 10
158.9115183766299
 20
-117.3593213908735
 30
0.0
 11
238.9115183766288
 21
-37.35932139087467
 31
0.0
  0
LINE
  5
1BB
330
1F
100
AcDbEntity
  8
0-0
  6
JWW_DASHED1
 62
   120
370
     5
100
AcDbLine
 10
158.9115183766385
 20
-127.2588163260814
 30
0.0
 11
238.9115183766373
 21
-47.2588163260825
 31
0.0
  0
LINE
  5
1BC
330
1F
100
AcDbEntity
  8
0-0
  6
JWW_DASHED1
 62
   120
370
     5
100
AcDbLine
 10
158.9115183766197
 20
-137.1583112612619
 30
0.0
 11
238.9115183766339
 21
-57.15831126124769
 31
0.0
  0
LINE
  5
1BD
330
1F
100
AcDbEntity
  8
0-0
  6
JWW_DASHED1
 62
   120
370
     5
100
AcDbLine
 10
158.9115183766265
 20
-147.0578061964702
 30
0.0
 11
238.9115183766254
 21
-67.05780619647086
 31
0.0
  0
LINE
  5
1BE
330
1F
100
AcDbEntity
  8
0-0
  6
JWW_DASHED1
 62
   120
370
     5
100
AcDbLine
 10
158.9115183766368
 20
-156.957301131678
 30
0.0
 11
238.9115183766356
 21
-76.95730113167912
 31
0.0
  0
LINE
  5
1BF
330
1F
100
AcDbEntity
  8
0-0
  6
JWW_DASHED1
 62
   120
370
     5
100
AcDbLine
 10
158.9115183766163
 20
-166.8567960668589
 30
0.0
 11
238.9115183766322
 21
-86.85679606684431
 31
0.0
  0
LINE
  5
1C0
330
1F
100
AcDbEntity
  8
0-0
  6
JWW_DASHED1
 62
   120
370
     5
100
AcDbLine
 10
158.9115183766265
 20
-176.7562910020668
 30
0.0
 11
238.9115183766254
 21
-96.75629100206791
 31
0.0
  0
LINE
  5
1C1
330
1F
100
AcDbEntity
  8
0-0
  6
JWW_DASHED1
 62
   120
370
     5
100
AcDbLine
 10
158.9115183766334
 20
-186.6557859372746
 30
0.0
 11
238.9115183766322
 21
-106.6557859372757
 31
0.0
  0
LINE
  5
1C2
330
1F
100
AcDbEntity
  8
0-0
  6
JWW_DASHED1
 62
   120
370
     5
100
AcDbLine
 10
158.9115183766248
 20
-196.5552808724458
 30
0.0
 11
238.911518376639
 21
-116.5552808724316
 31
0.0
  0
LINE
  5
1C3
330
1F
100
AcDbEntity
  8
0-0
  6
JWW_DASHED1
 62
   120
370
     5
100
AcDbLine
 10
158.9115183766231
 20
-206.4547758076634
 30
0.0
 11
238.911518376622
 21
-126.454775807665
 31
0.0
  0
LINE
  5
1C4
330
1F
100
AcDbEntity
  8
0-0
  6
JWW_DASHED1
 62
   120
370
     5
100
AcDbLine
 10
158.9115183766316
 20
-216.3542707428712
 30
0.0
 11
238.9115183766305
 21
-136.3542707428728
 31
0.0
  0
LINE
  5
1C5
330
1F
100
AcDbEntity
  8
0-0
  6
JWW_DASHED1
 62
   120
370
     5
100
AcDbLine
 10
158.9115183766299
 20
-226.253765678036
 30
0.0
 11
238.9115183766424
 21
-146.2537656780218
 31
0.0
  0
LINE
  5
1C6
330
1F
100
AcDbEntity
  8
0-0
  6
JWW_DASHED1
 62
   120
370
     5
100
AcDbLine
 10
158.9115183766214
 20
-236.15326061326
 30
0.0
 11
238.9115183766356
 21
-156.1532606132454
 31
0.0
  0
LINE
  5
1C7
330
1F
100
AcDbEntity
  8
0-0
  6
JWW_DASHED1
 62
   120
370
     5
100
AcDbLine
 10
158.9115183766299
 20
-246.0527555484683
 30
0.0
 11
238.9115183766288
 21
-166.052755548469
 31
0.0
  0
LINE
  5
1C8
330
1F
100
AcDbEntity
  8
0-0
  6
JWW_DASHED1
 62
   120
370
     5
100
AcDbLine
 10
158.9115183766436
 20
-255.9522504836168
 30
0.0
 11
238.9115183766407
 21
-175.9522504836188
 31
0.0
  0
LINE
  5
1C9
330
1F
100
AcDbEntity
  8
0-0
  6
JWW_DASHED1
 62
   120
370
     5
100
AcDbLine
 10
158.9115183766197
 20
-265.851745418857
 30
0.0
 11
238.9115183766322
 21
-185.851745418842
 31
0.0
  0
LINE
  5
1CA
330
1F
100
AcDbEntity
  8
0-0
  6
JWW_DASHED1
 62
   120
370
     5
100
AcDbLine
 10
158.9115183766265
 20
-275.7512403540649
 30
0.0
 11
238.9115183766254
 21
-195.751240354066
 31
0.0
  0
LINE
  5
1CB
330
1F
100
AcDbEntity
  8
0-0
  6
JWW_DASHED1
 62
   120
370
     5
100
AcDbLine
 10
158.9115183766402
 20
-285.6507352892139
 30
0.0
 11
238.911518376639
 21
-205.650735289215
 31
0.0
  0
LINE
  5
1CC
330
1F
100
AcDbEntity
  8
0-0
  6
JWW_DASHED1
 62
   120
370
     5
100
AcDbLine
 10
158.9115183766265
 20
-295.550230224443
 30
0.0
 11
238.9115183766424
 21
-215.5502302244288
 31
0.0
  0
LINE
  5
1CD
330
1F
100
AcDbEntity
  8
0-0
  6
JWW_DASHED1
 62
   120
370
     5
100
AcDbLine
 10
158.9115183766248
 20
-305.4497251596615
 30
0.0
 11
238.9115183766237
 21
-225.4497251596626
 31
0.0
  0
LINE
  5
1CE
330
1F
100
AcDbEntity
  8
0-0
  6
JWW_DASHED1
 62
   120
370
     5
100
AcDbLine
 10
158.9115183766368
 20
-315.3492200948105
 30
0.0
 11
238.9115183766356
 21
-235.3492200948121
 31
0.0
  0
LINE
  5
1CF
330
1F
100
AcDbEntity
  8
0-0
  6
JWW_DASHED1
 62
   120
370
     5
100
AcDbLine
 10
158.9115183766299
 20
-325.2487150300345
 30
0.0
 11
238.9115183766459
 21
-245.2487150300199
 31
0.0
  0
LINE
  5
1D0
330
1F
100
AcDbEntity
  8
0-0
  6
JWW_DASHED1
 62
   120
370
     5
100
AcDbLine
 10
158.9115183766231
 20
-335.1482099652582
 30
0.0
 11
238.9115183766373
 21
-255.1482099652435
 31
0.0
  0
LINE
  5
1D1
330
1F
100
AcDbEntity
  8
0-0
  6
JWW_DASHED1
 62
   120
370
     5
100
AcDbLine
 10
158.9115183766368
 20
-345.0477049004071
 30
0.0
 11
238.9115183766356
 21
-265.0477049004082
 31
0.0
  0
LINE
  5
1D2
330
1F
100
AcDbEntity
  8
0-0
  6
JWW_DASHED1
 62
   120
370
     5
100
AcDbLine
 10
158.9115183766436
 20
-354.9471998356149
 30
0.0
 11
238.9115183766424
 21
-274.9471998356165
 31
0.0
  0
LINE
  5
1D3
330
1F
100
AcDbEntity
  8
0-0
  6
JWW_DASHED1
 62
   120
370
     5
100
AcDbLine
 10
158.9115183766197
 20
-364.8466947708552
 30
0.0
 11
238.9115183766356
 21
-284.8466947708405
 31
0.0
  0
LINE
  5
1D4
330
1F
100
AcDbEntity
  8
0-0
  6
JWW_DASHED1
 62
   120
370
     5
100
AcDbLine
 10
158.9115183766334
 20
-374.7461897060042
 30
0.0
 11
238.9115183766322
 21
-294.7461897060053
 31
0.0
  0
LINE
  5
1D5
330
1F
100
AcDbEntity
  8
0-0
  6
JWW_DASHED1
 62
   120
370
     5
100
AcDbLine
 10
158.9115183766419
 20
-384.645684641212
 30
0.0
 11
238.911518376639
 21
-304.6456846412132
 31
0.0
  0
LINE
  5
1D6
330
1F
100
AcDbEntity
  8
0-0
  6
JWW_DASHED1
 62
   120
370
     5
100
AcDbLine
 10
158.911518376618
 20
-394.5451795764518
 30
0.0
 11
238.9115183766322
 21
-314.5451795764371
 31
0.0
  0
LINE
  5
1D7
330
1F
100
AcDbEntity
  8
0-0
  6
JWW_DASHED1
 62
   120
370
     5
100
AcDbLine
 10
158.9115183766299
 20
-404.4446745116008
 30
0.0
 11
238.9115183766288
 21
-324.4446745116015
 31
0.0
  0
LINE
  5
1D8
330
1F
100
AcDbEntity
  8
0-0
  6
JWW_DASHED1
 62
   120
370
     5
100
AcDbLine
 10
158.9115183766402
 20
-414.344169446809
 30
0.0
 11
238.911518376639
 21
-334.3441694468102
 31
0.0
  0
LINE
  5
1D9
330
1F
100
AcDbEntity
  8
0-0
  6
JWW_DASHED1
 62
   120
370
     5
100
AcDbLine
 10
158.9115183766282
 20
-424.2436643820365
 30
0.0
 11
238.9115183766424
 21
-344.2436643820227
 31
0.0
  0
LINE
  5
1DA
330
1F
100
AcDbEntity
  8
0-0
  6
JWW_DASHED1
 62
   120
370
     5
100
AcDbLine
 10
158.9115183766299
 20
-434.1431593171974
 30
0.0
 11
238.9115183766288
 21
-354.1431593171985
 31
0.0
  0
LINE
  5
1DB
330
1F
100
AcDbEntity
  8
0-0
  6
JWW_DASHED1
 62
   120
370
     5
100
AcDbLine
 10
158.9115183766368
 20
-444.0426542524052
 30
0.0
 11
238.9115183766356
 21
-364.0426542524064
 31
0.0
  0
LINE
  5
1DC
330
1F
100
AcDbEntity
  8
0-0
  6
JWW_DASHED1
 62
   120
370
     5
100
AcDbLine
 10
158.911518376647
 20
-453.942149187613
 30
0.0
 11
238.9115183766459
 21
-373.9421491876146
 31
0.0
  0
LINE
  5
1DD
330
1F
100
AcDbEntity
  8
0-0
  6
JWW_DASHED1
 62
   120
370
     5
100
AcDbLine
 10
158.9115183766265
 20
-463.841644122794
 30
0.0
 11
238.9115183766254
 21
-383.8416441227952
 31
0.0
  0
LINE
  5
1DE
330
1F
100
AcDbEntity
  8
0-0
  6
JWW_DASHED1
 62
   120
370
     5
100
AcDbLine
 10
158.9115183766351
 20
-473.7411390580021
 30
0.0
 11
238.9115183766339
 21
-393.7411390580035
 31
0.0
  0
LINE
  5
1DF
330
1F
100
AcDbEntity
  8
0-0
  6
JWW_DASHED1
 62
   120
370
     5
100
AcDbLine
 10
158.9115183766436
 20
-483.6406339932101
 30
0.0
 11
238.9115183766424
 21
-403.6406339932113
 31
0.0
  0
LINE
  5
1E0
330
1F
100
AcDbEntity
  8
0-0
  6
JWW_DASHED1
 62
   120
370
     5
100
AcDbLine
 10
158.9115183766248
 20
-493.5401289283907
 30
0.0
 11
238.911518376639
 21
-413.5401289283765
 31
0.0
  0
LINE
  5
1E1
330
1F
100
AcDbEntity
  8
0-0
  6
JWW_DASHED1
 62
   120
370
     5
100
AcDbLine
 10
158.9115183766334
 20
-503.4396238635987
 30
0.0
 11
238.9115183766322
 21
-423.4396238635996
 31
0.0
  0
LINE
  5
1E2
330
1F
100
AcDbEntity
  8
0-0
  6
JWW_DASHED1
 62
   120
370
     5
100
AcDbLine
 10
158.9115183766436
 20
-513.3391187987773
 30
0.0
 11
238.9115183766424
 21
-433.3391187987785
 31
0.0
  0
LINE
  5
1E3
330
1F
100
AcDbEntity
  8
0-0
  6
JWW_DASHED1
 62
   120
370
     5
100
AcDbLine
 10
158.9115183766231
 20
-523.2386137339874
 30
0.0
 11
238.9115183766356
 21
-443.2386137339727
 31
0.0
  0
LINE
  5
1E4
330
1F
100
AcDbEntity
  8
0-0
  6
JWW_DASHED1
 62
   120
370
     5
100
AcDbLine
 10
158.9115183766299
 20
-533.1381086691955
 30
0.0
 11
238.9115183766288
 21
-453.1381086691966
 31
0.0
  0
LINE
  5
1E5
330
1F
100
AcDbEntity
  8
0-0
  6
JWW_DASHED1
 62
   120
370
     5
100
AcDbLine
 10
158.9115183766402
 20
-543.0376036043741
 30
0.0
 11
238.911518376639
 21
-463.0376036043753
 31
0.0
  0
LINE
  5
1E6
330
1F
100
AcDbEntity
  8
0-0
  6
JWW_DASHED1
 62
   120
370
     5
100
AcDbLine
 10
158.9115183766197
 20
-552.9370985395843
 30
0.0
 11
238.9115183766356
 21
-472.9370985395695
 31
0.0
  0
LINE
  5
1E7
330
1F
100
AcDbEntity
  8
0-0
  6
JWW_DASHED1
 62
   120
370
     5
100
AcDbLine
 10
158.9115183766299
 20
-562.8365934747919
 30
0.0
 11
238.9115183766271
 21
-482.8365934747933
 31
0.0
  0
LINE
  5
1E8
330
1F
100
AcDbEntity
  8
0-0
  6
JWW_DASHED1
 62
   120
370
     5
100
AcDbLine
 10
158.9115183766402
 20
-572.7360884099412
 30
0.0
 11
238.911518376639
 21
-492.7360884099425
 31
0.0
  0
LINE
  5
1E9
330
1F
100
AcDbEntity
  8
0-0
  6
JWW_DASHED1
 62
   120
370
     5
100
AcDbLine
 10
158.9115183766299
 20
-582.6355833451681
 30
0.0
 11
238.9115183766459
 21
-502.6355833451539
 31
0.0
  0
LINE
  5
1EA
330
1F
100
AcDbEntity
  8
0-0
  6
JWW_DASHED1
 62
   120
370
     5
100
AcDbLine
 10
158.9115183766265
 20
-592.5350782803888
 30
0.0
 11
238.9115183766254
 21
-512.5350782803899
 31
0.0
  0
LINE
  5
1EB
330
1F
100
AcDbEntity
  8
0-0
  6
JWW_DASHED1
 62
   120
370
     5
100
AcDbLine
 10
158.9115183766402
 20
-602.4345732155377
 30
0.0
 11
238.911518376639
 21
-522.4345732155391
 31
0.0
  0
LINE
  5
1EC
330
1F
100
AcDbEntity
  8
0-0
  6
JWW_DASHED1
 62
   120
370
     5
100
AcDbLine
 10
158.9115183766316
 20
-612.3340681507616
 30
0.0
 11
238.9115183766459
 21
-532.3340681507472
 31
0.0
  0
LINE
  5
1ED
330
1F
100
AcDbEntity
  8
0-0
  6
JWW_DASHED1
 62
   120
370
     5
100
AcDbLine
 10
158.9115183766231
 20
-622.2335630859856
 30
0.0
 11
238.911518376639
 21
-542.2335630859708
 31
0.0
  0
LINE
  5
1EE
330
1F
100
AcDbEntity
  8
0-0
  6
JWW_DASHED1
 62
   120
370
     5
100
AcDbLine
 10
158.9115183766368
 20
-632.1330580211346
 30
0.0
 11
238.9115183766356
 21
-552.133058021136
 31
0.0
  0
LINE
  5
1EF
330
1F
100
AcDbEntity
  8
0-0
  6
JWW_DASHED1
 62
   120
370
     5
100
AcDbLine
 10
158.9115183766453
 20
-642.0325529563427
 30
0.0
 11
238.9115183766442
 21
-562.0325529563438
 31
0.0
  0
LINE
  5
1F0
330
1F
100
AcDbEntity
  8
0-0
  6
JWW_DASHED1
 62
   120
370
     5
100
AcDbLine
 10
158.9115183766231
 20
-651.932047891582
 30
0.0
 11
238.9115183766356
 21
-571.9320478915678
 31
0.0
  0
LINE
  5
1F1
330
1F
100
AcDbEntity
  8
0-0
  6
JWW_DASHED1
 62
   120
370
     5
100
AcDbLine
 10
158.9115183766351
 20
-661.831542826731
 30
0.0
 11
238.9115183766322
 21
-581.8315428267326
 31
0.0
  0
LINE
  5
1F2
330
1F
100
AcDbEntity
  8
0-0
  6
JWW_DASHED1
 62
   120
370
     5
100
AcDbLine
 10
158.9115183766436
 20
-671.7310377619392
 30
0.0
 11
238.9115183766424
 21
-591.7310377619403
 31
0.0
  0
LINE
  5
1F3
330
1F
100
AcDbEntity
  8
0-0
  6
JWW_DASHED1
 62
   120
370
     5
100
AcDbLine
 10
158.9115183766197
 20
-681.6305326971791
 30
0.0
 11
238.9115183766339
 21
-601.6305326971642
 31
0.0
  0
LINE
  5
1F4
330
1F
100
AcDbEntity
  8
0-0
  6
JWW_DASHED1
 62
   120
370
     5
100
AcDbLine
 10
158.9115183766334
 20
-691.530027632328
 30
0.0
 11
238.9115183766322
 21
-611.5300276323294
 31
0.0
  0
LINE
  5
1F5
330
1F
100
AcDbEntity
  8
0-0
  6
JWW_DASHED1
 62
   120
370
     5
100
AcDbLine
 10
158.9115183766402
 20
-701.4295225675359
 30
0.0
 11
238.911518376639
 21
-621.429522567537
 31
0.0
  0
LINE
  5
1F6
330
1F
100
AcDbEntity
  8
0-0
  6
JWW_DASHED1
 62
   120
370
     5
100
AcDbLine
 10
158.9115183766316
 20
-711.3290175027616
 30
0.0
 11
238.9115183766459
 21
-631.3290175027474
 31
0.0
  0
LINE
  5
1F7
330
1F
100
AcDbEntity
  8
0-0
  6
JWW_DASHED1
 62
   120
370
     5
100
AcDbLine
 10
158.9115183766299
 20
-721.2285124379245
 30
0.0
 11
238.9115183766288
 21
-641.2285124379258
 31
0.0
  0
LINE
  5
1F8
330
1F
100
AcDbEntity
  8
0-0
  6
JWW_DASHED1
 62
   120
370
     5
100
AcDbLine
 10
158.9115183766385
 20
-731.128007373133
 30
0.0
 11
238.9115183766373
 21
-651.1280073731339
 31
0.0
  0
LINE
  5
1F9
330
1F
100
AcDbEntity
  8
0-0
  6
JWW_DASHED1
 62
   120
370
     5
100
AcDbLine
 10
158.911518376647
 20
-741.0275023083406
 30
0.0
 11
238.9115183766459
 21
-661.0275023083419
 31
0.0
  0
LINE
  5
1FA
330
1F
100
AcDbEntity
  8
0-0
  6
JWW_DASHED1
 62
   120
370
     5
100
AcDbLine
 10
158.9115183766282
 20
-750.9269972435213
 30
0.0
 11
238.9115183766254
 21
-670.9269972435227
 31
0.0
  0
LINE
  5
1FB
330
1F
100
AcDbEntity
  8
0-0
  6
JWW_DASHED1
 62
   120
370
     5
100
AcDbLine
 10
158.9115183766368
 20
-760.8264921787294
 30
0.0
 11
238.9115183766356
 21
-680.8264921787306
 31
0.0
  0
LINE
  5
1FC
330
1F
100
AcDbEntity
  8
0-0
  6
JWW_DASHED1
 62
   120
370
     5
100
AcDbLine
 10
158.9115183766436
 20
-770.7259871139374
 30
0.0
 11
238.9115183766424
 21
-690.7259871139386
 31
0.0
  0
LINE
  5
1FD
330
1F
100
AcDbEntity
  8
0-0
  6
JWW_DASHED1
 62
   120
370
     5
100
AcDbLine
 10
158.9115183766265
 20
-780.625482049118
 30
0.0
 11
238.9115183766407
 21
-700.6254820491033
 31
0.0
  0
LINE
  5
1FE
330
1F
100
AcDbEntity
  8
0-0
  6
JWW_DASHED1
 62
   120
370
     5
100
AcDbLine
 10
158.9115183766334
 20
-790.5249769843261
 30
0.0
 11
238.9115183766322
 21
-710.5249769843273
 31
0.0
  0
LINE
  5
1FF
330
1F
100
AcDbEntity
  8
0-0
  6
JWW_DASHED1
 62
   120
370
     5
100
AcDbLine
 10
158.9115183766436
 20
-800.4244719195342
 30
0.0
 11
238.9115183766424
 21
-720.4244719195351
 31
0.0
  0
LINE
  5
200
330
1F
100
AcDbEntity
  8
0-0
  6
JWW_DASHED1
 62
   120
370
     5
100
AcDbLine
 10
158.9115183766231
 20
-810.3239668547145
 30
0.0
 11
238.911518376639
 21
-730.3239668547003
 31
0.0
  0
LINE
  5
201
330
1F
100
AcDbEntity
  8
0-0
  6
JWW_DASHED1
 62
   120
370
     5
100
AcDbLine
 10
158.9115183766316
 20
-820.2234617899228
 30
0.0
 11
238.9115183766305
 21
-740.2234617899237
 31
0.0
  0
LINE
  5
202
330
1F
100
AcDbEntity
  8
0-0
  6
JWW_DASHED1
 62
   120
370
     5
100
AcDbLine
 10
158.9115183766402
 20
-830.1229567251306
 30
0.0
 11
238.911518376639
 21
-750.1229567251322
 31
0.0
  0
LINE
  5
203
330
1F
100
AcDbEntity
  8
0-0
  6
JWW_DASHED1
 62
   120
370
     5
100
AcDbLine
 10
158.9115183766214
 20
-840.0224516603116
 30
0.0
 11
238.9115183766356
 21
-760.022451660297
 31
0.0
  0
LINE
  5
204
330
1F
100
AcDbEntity
  8
0-0
  6
JWW_DASHED1
 62
   120
370
     5
100
AcDbLine
 10
158.9115183766299
 20
-849.9219465955194
 30
0.0
 11
238.9115183766288
 21
-769.9219465955209
 31
0.0
  0
LINE
  5
205
330
1F
100
AcDbEntity
  8
0-0
  6
JWW_DASHED1
 62
   120
370
     5
100
AcDbLine
 10
158.9115183766368
 20
-859.8214415307277
 30
0.0
 11
238.9115183766356
 21
-779.8214415307286
 31
0.0
  0
LINE
  5
206
330
1F
100
AcDbEntity
  8
0-0
  6
JWW_DASHED1
 62
   120
370
     5
100
AcDbLine
 10
158.9115183766334
 20
-869.7209364658929
 30
0.0
 11
238.9115183766493
 21
-789.7209364658787
 31
0.0
  0
LINE
  5
207
330
1F
100
AcDbEntity
  8
0-0
  6
JWW_DASHED1
 62
   120
370
     5
100
AcDbLine
 10
158.9115183766265
 20
-879.6204314011161
 30
0.0
 11
238.9115183766254
 21
-799.6204314011172
 31
0.0
  0
LINE
  5
208
330
1F
100
AcDbEntity
  8
0-0
  6
JWW_DASHED1
 62
   120
370
     5
100
AcDbLine
 10
158.9115183766368
 20
-889.5199263363239
 30
0.0
 11
238.9115183766356
 21
-809.5199263363254
 31
0.0
  0
LINE
  5
209
330
1F
100
AcDbEntity
  8
0-0
  6
JWW_DASHED1
 62
   120
370
     5
100
AcDbLine
 10
158.9115183766334
 20
-899.4194212714889
 30
0.0
 11
238.9115183766476
 21
-819.4194212714744
 31
0.0
  0
LINE
  5
20A
330
1F
100
AcDbEntity
  8
0-0
  6
JWW_DASHED1
 62
   120
370
     5
100
AcDbLine
 10
158.9115183766265
 20
-909.3189162067129
 30
0.0
 11
238.911518376639
 21
-829.3189162066984
 31
0.0
  0
LINE
  5
20B
330
1F
100
AcDbEntity
  8
0-0
  6
JWW_DASHED1
 62
   120
370
     5
100
AcDbLine
 10
158.9115183766334
 20
-919.2184111419209
 30
0.0
 11
238.9115183766322
 21
-839.218411141922
 31
0.0
  0
LINE
  5
20C
330
1F
100
AcDbEntity
  8
0-0
  6
JWW_DASHED1
 62
   120
370
     5
100
AcDbLine
 10
159.822805316841
 20
-928.2066191368757
 30
0.0
 11
238.9115183766459
 21
-849.1179060770711
 31
0.0
  0
LINE
  5
20D
330
1F
100
AcDbEntity
  8
0-0
  6
JWW_DASHED1
 62
   120
370
     5
100
AcDbLine
 10
169.7223002520778
 20
-928.2066191368541
 30
0.0
 11
238.9115183766373
 21
-859.0174010122953
 31
0.0
  0
LINE
  5
20E
330
1F
100
AcDbEntity
  8
0-0
  6
JWW_DASHED1
 62
   120
370
     5
100
AcDbLine
 10
179.6217951872874
 20
-928.2066191368604
 30
0.0
 11
238.9115183766305
 21
-868.9168959475187
 31
0.0
  0
LINE
  5
20F
330
1F
100
AcDbEntity
  8
0-0
  6
JWW_DASHED1
 62
   120
370
     5
100
AcDbLine
 10
189.5212901224389
 20
-928.2066191368731
 30
0.0
 11
238.9115183766424
 21
-878.8163908826676
 31
0.0
  0
LINE
  5
210
330
1F
100
AcDbEntity
  8
0-0
  6
JWW_DASHED1
 62
   120
370
     5
100
AcDbLine
 10
199.4207850576536
 20
-928.2066191368735
 30
0.0
 11
238.911518376651
 21
-888.7158858178764
 31
0.0
  0
LINE
  5
211
330
1F
100
AcDbEntity
  8
0-0
  6
JWW_DASHED1
 62
   120
370
     5
100
AcDbLine
 10
209.3202799928853
 20
-928.2066191368577
 30
0.0
 11
238.9115183766288
 21
-898.6153807531157
 31
0.0
  0
LINE
  5
212
330
1F
100
AcDbEntity
  8
0-0
  6
JWW_DASHED1
 62
   120
370
     5
100
AcDbLine
 10
219.2197749280334
 20
-928.2066191368706
 30
0.0
 11
238.9115183766407
 21
-908.5148756882647
 31
0.0
  0
LINE
  5
213
330
1F
100
AcDbEntity
  8
0-0
  6
JWW_DASHED1
 62
   120
370
     5
100
AcDbLine
 10
229.1192698632464
 20
-928.2066191368765
 30
0.0
 11
238.9115183766493
 21
-918.4143706234723
 31
0.0
  0
MTEXT
  5
214
330
1F
100
AcDbEntity
  8
文字
  6
Continuous
 62
     7
370
     9
100
AcDbMText
 10
-2118.088481623373
 20
1453.026499176846
 30
0.0
 40
45.71999999999998
 41
1620.0
 46
0.0
 71
     7
 72
     1
  1
{\fＭＳ ゴシック|b0|i0|c128|p49;※ＸＭは縦木目柄、ＬＭは横木目柄のデザインとなります。}
 73
     1
 44
1.0
  0
LWPOLYLINE
  5
215
330
1F
100
AcDbEntity
  8
寸法
  6
Continuous
 62
     7
370
     9
100
AcDbPolyline
 90
        4
 70
     1
 43
3.0
 10
-2016.588481623372
 20
1090.793380863144
 42
0.4142135623731
 10
-2018.088481623372
 20
1092.293380863144
 42
0.4142135623731
 10
-2019.588481623372
 20
1090.793380863144
 42
0.4142135623731
 10
-2018.088481623372
 20
1089.293380863144
 42
0.4142135623731
  0
LINE
  5
216
330
1F
100
AcDbEntity
  8
寸法
  6
Continuous
 62
   120
370
     5
100
AcDbLine
 10
-2018.088481623372
 20
1090.793380863144
 30
0.0
 11
-1618.088481623372
 21
1090.793380863144
 31
0.0
  0
LINE
  5
217
330
1F
100
AcDbEntity
  8
寸法
  6
Continuous
 62
   120
370
     5
100
AcDbLine
 10
-2018.088481623372
 20
1090.793380863144
 30
0.0
 11
-2018.088481623372
 21
-956.2066191368568
 31
0.0
  0
LINE
  5
218
330
1F
100
AcDbEntity
  8
寸法
  6
Continuous
 62
   120
370
     5
100
AcDbLine
 10
-2018.088481623372
 20
-956.2066191368568
 30
0.0
 11
-1618.088481623372
 21
-956.2066191368568
 31
0.0
  0
LINE
  5
219
330
1F
100
AcDbEntity
  8
寸法
  6
Continuous
 62
   120
370
     5
100
AcDbLine
 10
-1818.088481623371
 20
-936.2066191368563
 30
0.0
 11
-1618.088481623372
 21
-936.2066191368563
 31
0.0
  0
LWPOLYLINE
  5
21A
330
1F
100
AcDbEntity
  8
寸法
  6
Continuous
 62
     7
370
     9
100
AcDbPolyline
 90
        4
 70
     1
 43
3.0
 10
-2016.588481623372
 20
-956.2066191368568
 42
0.4142135623731
 10
-2018.088481623372
 20
-954.7066191368568
 42
0.4142135623731
 10
-2019.588481623372
 20
-956.2066191368568
 42
0.4142135623731
 10
-2018.088481623372
 20
-957.7066191368568
 42
0.4142135623731
  0
LWPOLYLINE
  5
21B
330
1F
100
AcDbEntity
  8
寸法
  6
Continuous
 62
     7
370
     9
100
AcDbPolyline
 90
        4
 70
     1
 43
3.0
 10
-1816.588481623371
 20
-936.2066191368563
 42
0.4142135623731
 10
-1818.088481623371
 20
-934.7066191368563
 42
0.4142135623731
 10
-1819.588481623371
 20
-936.2066191368563
 42
0.4142135623731
 10
-1818.088481623371
 20
-937.7066191368563
 42
0.4142135623731
  0
LWPOLYLINE
  5
21C
330
1F
100
AcDbEntity
  8
寸法
  6
Continuous
 62
     7
370
     9
100
AcDbPolyline
 90
        4
 70
     1
 43
3.0
 10
-1816.588481623371
 20
1046.793380863143
 42
0.4142135623731
 10
-1818.088481623371
 20
1048.293380863143
 42
0.4142135623731
 10
-1819.588481623371
 20
1046.793380863143
 42
0.4142135623731
 10
-1818.088481623371
 20
1045.293380863143
 42
0.4142135623731
  0
LINE
  5
21D
330
1F
100
AcDbEntity
  8
寸法
  6
Continuous
 62
   120
370
     5
100
AcDbLine
 10
-1818.088481623371
 20
1046.793380863143
 30
0.0
 11
-1818.088481623371
 21
-936.2066191368563
 31
0.0
  0
LINE
  5
21E
330
1F
100
AcDbEntity
  8
寸法
  6
Continuous
 62
   120
370
     5
100
AcDbLine
 10
-1818.088481623371
 20
1046.793380863143
 30
0.0
 11
-1618.088481623372
 21
1046.793380863143
 31
0.0
  0
LINE
  5
21F
330
1F
100
AcDbEntity
  8
寸法
  6
Continuous
 62
   120
370
     5
100
AcDbLine
 10
-1538.088481623372
 20
-1406.206619136857
 30
0.0
 11
-1538.088481623372
 21
-1006.206619136857
 31
0.0
  0
LINE
  5
220
330
1F
100
AcDbEntity
  8
寸法
  6
Continuous
 62
   120
370
     5
100
AcDbLine
 10
-1568.088481623372
 20
-1606.206619136857
 30
0.0
 11
-1568.088481623372
 21
-1006.206619136857
 31
0.0
  0
LINE
  5
221
330
1F
100
AcDbEntity
  8
寸法
  6
Continuous
 62
   120
370
     5
100
AcDbLine
 10
48.91151837662852
 20
-1206.206619136856
 30
0.0
 11
48.91151837662852
 21
-1006.206619136857
 31
0.0
  0
LINE
  5
222
330
1F
100
AcDbEntity
  8
寸法
  6
Continuous
 62
   120
370
     5
100
AcDbLine
 10
-761.0884816233714
 20
-1206.206619136856
 30
0.0
 11
-761.0884816233714
 21
-1006.206619136857
 31
0.0
  0
LINE
  5
223
330
1F
100
AcDbEntity
  8
寸法
  6
Continuous
 62
   120
370
     5
100
AcDbLine
 10
-761.0884816233714
 20
-1206.206619136856
 30
0.0
 11
858.9115183766286
 21
-1206.206619136856
 31
0.0
  0
LINE
  5
224
330
1F
100
AcDbEntity
  8
寸法
  6
Continuous
 62
   120
370
     5
100
AcDbLine
 10
-1538.088481623372
 20
-1406.206619136857
 30
0.0
 11
1635.911518376629
 21
-1406.206619136857
 31
0.0
  0
LINE
  5
225
330
1F
100
AcDbEntity
  8
寸法
  6
Continuous
 62
   120
370
     5
100
AcDbLine
 10
1635.911518376629
 20
-1406.206619136857
 30
0.0
 11
1635.911518376629
 21
-1006.206619136857
 31
0.0
  0
LINE
  5
226
330
1F
100
AcDbEntity
  8
寸法
  6
Continuous
 62
   120
370
     5
100
AcDbLine
 10
-1568.088481623372
 20
-1606.206619136857
 30
0.0
 11
1665.911518376629
 21
-1606.206619136856
 31
0.0
  0
LINE
  5
227
330
1F
100
AcDbEntity
  8
寸法
  6
Continuous
 62
   120
370
     5
100
AcDbLine
 10
1665.911518376629
 20
-1606.206619136856
 30
0.0
 11
1665.911518376629
 21
-1006.206619136857
 31
0.0
  0
LINE
  5
228
330
1F
100
AcDbEntity
  8
寸法
  6
Continuous
 62
   120
370
     5
100
AcDbLine
 10
858.9115183766286
 20
-1206.206619136856
 30
0.0
 11
858.9115183766286
 21
-1006.206619136857
 31
0.0
  0
LWPOLYLINE
  5
229
330
1F
100
AcDbEntity
  8
寸法
  6
Continuous
 62
     7
370
     9
100
AcDbPolyline
 90
        4
 70
     1
 43
3.0
 10
-1536.588481623372
 20
-1406.206619136857
 42
0.4142135623731
 10
-1538.088481623372
 20
-1404.706619136857
 42
0.4142135623731
 10
-1539.588481623372
 20
-1406.206619136857
 42
0.4142135623731
 10
-1538.088481623372
 20
-1407.706619136857
 42
0.4142135623731
  0
LWPOLYLINE
  5
22A
330
1F
100
AcDbEntity
  8
寸法
  6
Continuous
 62
     7
370
     9
100
AcDbPolyline
 90
        4
 70
     1
 43
3.0
 10
-1566.588481623372
 20
-1606.206619136857
 42
0.4142135623731
 10
-1568.088481623372
 20
-1604.706619136857
 42
0.4142135623731
 10
-1569.588481623372
 20
-1606.206619136857
 42
0.4142135623731
 10
-1568.088481623372
 20
-1607.706619136857
 42
0.4142135623731
  0
LWPOLYLINE
  5
22B
330
1F
100
AcDbEntity
  8
寸法
  6
Continuous
 62
     7
370
     9
100
AcDbPolyline
 90
        4
 70
     1
 43
3.0
 10
50.41151837662852
 20
-1206.206619136856
 42
0.4142135623731
 10
48.91151837662852
 20
-1204.706619136856
 42
0.4142135623731
 10
47.41151837662851
 20
-1206.206619136856
 42
0.4142135623731
 10
48.91151837662852
 20
-1207.706619136856
 42
0.4142135623731
  0
LWPOLYLINE
  5
22C
330
1F
100
AcDbEntity
  8
寸法
  6
Continuous
 62
     7
370
     9
100
AcDbPolyline
 90
        4
 70
     1
 43
3.0
 10
-759.5884816233714
 20
-1206.206619136856
 42
0.4142135623731
 10
-761.0884816233714
 20
-1204.706619136856
 42
0.4142135623731
 10
-762.5884816233714
 20
-1206.206619136856
 42
0.4142135623731
 10
-761.0884816233714
 20
-1207.706619136856
 42
0.4142135623731
  0
LWPOLYLINE
  5
22D
330
1F
100
AcDbEntity
  8
寸法
  6
Continuous
 62
     7
370
     9
100
AcDbPolyline
 90
        4
 70
     1
 43
3.0
 10
1637.411518376628
 20
-1406.206619136857
 42
0.4142135623731
 10
1635.911518376629
 20
-1404.706619136857
 42
0.4142135623731
 10
1634.411518376629
 20
-1406.206619136857
 42
0.4142135623731
 10
1635.911518376629
 20
-1407.706619136857
 42
0.4142135623731
  0
LWPOLYLINE
  5
22E
330
1F
100
AcDbEntity
  8
寸法
  6
Continuous
 62
     7
370
     9
100
AcDbPolyline
 90
        4
 70
     1
 43
3.0
 10
1667.411518376628
 20
-1606.206619136856
 42
0.4142135623731
 10
1665.911518376629
 20
-1604.706619136857
 42
0.4142135623731
 10
1664.411518376629
 20
-1606.206619136856
 42
0.4142135623731
 10
1665.911518376629
 20
-1607.706619136856
 42
0.4142135623731
  0
LWPOLYLINE
  5
22F
330
1F
100
AcDbEntity
  8
寸法
  6
Continuous
 62
     7
370
     9
100
AcDbPolyline
 90
        4
 70
     1
 43
3.0
 10
860.4115183766286
 20
-1206.206619136856
 42
0.4142135623731
 10
858.9115183766286
 20
-1204.706619136856
 42
0.4142135623731
 10
857.4115183766286
 20
-1206.206619136856
 42
0.4142135623731
 10
858.9115183766286
 20
-1207.706619136856
 42
0.4142135623731
  0
MTEXT
  5
230
330
1F
100
AcDbEntity
  8
寸法
  6
Continuous
 62
     7
370
    70
100
AcDbMText
 10
-2033.088481623372
 20
-147.8816191368566
 30
0.0
 40
57.14999999999999
 41
412.5
 46
0.0
 71
     7
 72
     1
  1
{\fＭＳ ゴシック|b0|i0|c128|p49;枠外＝2,047}
 11
6.123031769111886E-17
 21
1.0
 31
0.0
 73
     1
 44
1.0
  0
MTEXT
  5
231
330
1F
100
AcDbEntity
  8
寸法
  6
Continuous
 62
     7
370
    70
100
AcDbMText
 10
-1833.088481623371
 20
-153.8816191368562
 30
0.0
 40
57.14999999999999
 41
412.5
 46
0.0
 71
     7
 72
     1
  1
{\fＭＳ ゴシック|b0|i0|c128|p49;ＤＨ＝1,983}
 11
6.123031769111886E-17
 21
1.0
 31
0.0
 73
     1
 44
1.0
  0
MTEXT
  5
232
330
1F
100
AcDbEntity
  8
寸法
  6
Continuous
 62
     7
370
   211
100
AcDbMText
 10
-524.8384816233714
 20
-1200.131619136856
 30
0.0
 40
57.15
 41
337.5
 46
0.0
 71
     7
 72
     1
  1
{\fＭＳ ゴシック|b0|i0|c128|p49;ＤＷ＝810}
 73
     1
 44
1.0
  0
MTEXT
  5
233
330
1F
100
AcDbEntity
  8
寸法
  6
Continuous
 62
     7
370
   211
100
AcDbMText
 10
285.1615183766286
 20
-1200.131619136856
 30
0.0
 40
57.15
 41
337.5
 46
0.0
 71
     7
 72
     1
  1
{\fＭＳ ゴシック|b0|i0|c128|p49;ＤＷ＝810}
 73
     1
 44
1.0
  0
MTEXT
  5
234
330
1F
100
AcDbEntity
  8
寸法
  6
Continuous
 62
     7
370
   211
100
AcDbMText
 10
-157.3384816233723
 20
-1400.131619136857
 30
0.0
 40
57.14999999999999
 41
412.5
 46
0.0
 71
     7
 72
     1
  1
{\fＭＳ ゴシック|b0|i0|c128|p49;枠内＝3,174}
 73
     1
 44
1.0
  0
MTEXT
  5
235
330
1F
100
AcDbEntity
  8
寸法
  6
Continuous
 62
     7
370
   211
100
AcDbMText
 10
-157.3384816233723
 20
-1600.131619136857
 30
0.0
 40
57.14999999999999
 41
412.5
 46
0.0
 71
     7
 72
     1
  1
{\fＭＳ ゴシック|b0|i0|c128|p49;枠外＝3,234}
 73
     1
 44
1.0
  0
ENDSEC
  0
SECTION
  2
OBJECTS
  0
DICTIONARY
  5
C
330
0
100
AcDbDictionary
281
     1
  3
ACAD_GROUP
350
D
  3
ACAD_LAYOUT
350
1A
  3
ACAD_MATERIAL
350
3B
  3
ACAD_MLEADERSTYLE
350
237
  3
ACAD_MLINESTYLE
350
17
  3
ACAD_PLOTSETTINGS
350
19
  3
ACAD_PLOTSTYLENAME
350
E
  3
ACAD_TABLESTYLE
350
236
  3
ACAD_VISUALSTYLE
350
2A
  0
DICTIONARY
  5
D
102
{ACAD_REACTORS
330
C
102
}
330
C
100
AcDbDictionary
281
     1
  0
DICTIONARY
  5
1A
102
{ACAD_REACTORS
330
C
102
}
330
C
100
AcDbDictionary
281
     1
  3
Layout1
350
1E
  3
Layout2
350
26
  3
Model
350
22
  0
DICTIONARY
  5
3B
102
{ACAD_REACTORS
330
C
102
}
330
C
100
AcDbDictionary
281
     1
  3
ByBlock
350
3D
  3
ByLayer
350
3C
  3
Global
350
3E
  0
DICTIONARY
  5
237
102
{ACAD_REACTORS
330
C
102
}
330
C
100
AcDbDictionary
281
     1
  0
DICTIONARY
  5
17
102
{ACAD_REACTORS
330
C
102
}
330
C
100
AcDbDictionary
281
     1
  3
Standard
350
18
  0
DICTIONARY
  5
19
102
{ACAD_REACTORS
330
C
102
}
330
C
100
AcDbDictionary
281
     1
  0
ACDBDICTIONARYWDFLT
  5
E
102
{ACAD_REACTORS
330
C
102
}
330
C
100
AcDbDictionary
281
     1
  3
Normal
350
F
100
AcDbDictionaryWithDefault
340
F
  0
DICTIONARY
  5
236
102
{ACAD_REACTORS
330
C
102
}
330
C
100
AcDbDictionary
281
     1
  0
DICTIONARY
  5
2A
102
{ACAD_REACTORS
330
C
102
}
330
C
100
AcDbDictionary
281
     1
  3
2dWireframe
350
2F
  3
3D Hidden
350
31
  3
3dWireframe
350
30
  3
Basic
350
32
  3
Brighten
350
36
  3
ColorChange
350
3A
  3
Conceptual
350
34
  3
Dim
350
35
  3
Facepattern
350
39
  3
Flat
350
2B
  3
FlatWithEdges
350
2C
  3
Gouraud
350
2D
  3
GouraudWithEdges
350
2E
  3
Linepattern
350
38
  3
Realistic
350
33
  3
Thicken
350
37
  0
LAYOUT
  5
1E
102
{ACAD_REACTORS
330
1A
102
}
330
1A
100
AcDbPlotSettings
  1

  2
none_device
  4

  6

 40
0.0
 41
0.0
 42
0.0
 43
0.0
 44
0.0
 45
0.0
 46
0.0
 47
0.0
 48
0.0
 49
0.0
140
0.0
141
0.0
142
1.0
143
1.0
 70
   688
 72
     0
 73
     0
 74
     5
  7

 75
    16
 76
     0
 77
     5
 78
   300
147
1.0
148
0.0
149
0.0
100
AcDbLayout
  1
Layout1
 70
     1
 71
     1
 10
0.0
 20
0.0
 11
420.0
 21
297.0
 12
0.0
 22
0.0
 32
0.0
 14
1.000000000000000E+20
 24
1.000000000000000E+20
 34
1.000000000000000E+20
 15
-1.000000000000000E+20
 25
-1.000000000000000E+20
 35
-1.000000000000000E+20
146
0.0
 13
0.0
 23
0.0
 33
0.0
 16
1.0
 26
0.0
 36
0.0
 17
0.0
 27
1.0
 37
0.0
 76
     0
330
1B
  0
LAYOUT
  5
26
102
{ACAD_REACTORS
330
1A
102
}
330
1A
100
AcDbPlotSettings
  1

  2
none_device
  4

  6

 40
0.0
 41
0.0
 42
0.0
 43
0.0
 44
0.0
 45
0.0
 46
0.0
 47
0.0
 48
0.0
 49
0.0
140
0.0
141
0.0
142
1.0
143
1.0
 70
   688
 72
     0
 73
     0
 74
     5
  7

 75
    16
 76
     0
 77
     5
 78
   300
147
1.0
148
0.0
149
0.0
100
AcDbLayout
  1
Layout2
 70
     1
 71
     2
 10
0.0
 20
0.0
 11
0.0
 21
0.0
 12
0.0
 22
0.0
 32
0.0
 14
0.0
 24
0.0
 34
0.0
 15
0.0
 25
0.0
 35
0.0
146
0.0
 13
0.0
 23
0.0
 33
0.0
 16
1.0
 26
0.0
 36
0.0
 17
0.0
 27
1.0
 37
0.0
 76
     0
330
23
  0
LAYOUT
  5
22
102
{ACAD_REACTORS
330
1A
102
}
330
1A
100
AcDbPlotSettings
  1

  2
none_device
  4

  6

 40
0.0
 41
0.0
 42
0.0
 43
0.0
 44
0.0
 45
0.0
 46
0.0
 47
0.0
 48
0.0
 49
0.0
140
0.0
141
0.0
142
1.0
143
1.0
 70
  1712
 72
     0
 73
     0
 74
     0
  7

 75
     0
 76
     0
 77
     5
 78
   300
147
1.0
148
0.0
149
0.0
100
AcDbLayout
  1
Model
 70
     1
 71
     0
 10
-4455.0
 20
-3150.0
 11
4455.0
 21
3150.0
 12
0.0
 22
0.0
 32
0.0
 14
-4455.0
 24
-3150.0
 34
0.0
 15
4455.0
 25
3150.0
 35
0.0
146
0.0
 13
0.0
 23
0.0
 33
0.0
 16
1.0
 26
0.0
 36
0.0
 17
0.0
 27
1.0
 37
0.0
 76
     0
330
1F
331
29
  0
MATERIAL
  5
3D
102
{ACAD_REACTORS
330
3B
102
}
330
3B
100
AcDbMaterial
  1
ByBlock
 72
     1
 94
      127
  0
MATERIAL
  5
3C
102
{ACAD_REACTORS
330
3B
102
}
330
3B
100
AcDbMaterial
  1
ByLayer
 72
     1
 94
      127
  0
MATERIAL
  5
3E
102
{ACAD_REACTORS
330
3B
102
}
330
3B
100
AcDbMaterial
  1
Global
 72
     1
 94
      127
  0
MLINESTYLE
  5
18
102
{ACAD_REACTORS
330
17
102
}
330
17
100
AcDbMlineStyle
  2
Standard
 70
     0
  3

 62
   256
 51
90.0
 52
90.0
 71
     2
 49
0.5
 62
   256
  6
BYLAYER
 49
-0.5
 62
   256
  6
BYLAYER
  0
ACDBPLACEHOLDER
  5
F
102
{ACAD_REACTORS
330
E
102
}
330
E
  0
VISUALSTYLE
  5
2F
102
{ACAD_REACTORS
330
2A
102
}
330
2A
100
AcDbVisualStyle
  2
2dWireframe
 70
     4
177
     2
291
     0
 71
     0
176
     1
 72
     2
176
     1
 73
     0
176
     1
 90
        0
176
     1
 40
-0.6
176
     1
 41
-30.0
176
     1
 62
     5
 63
     7
421
 16777215
176
     1
 74
     1
176
     1
 91
        4
176
     1
 64
     7
176
     1
 65
   257
176
     1
 75
     1
176
     1
175
     1
176
     1
 42
1.0
176
     1
 92
        0
176
     1
 66
   257
176
     1
 43
1.0
176
     1
 76
     1
176
     1
 77
     6
176
     1
 78
     2
176
     1
 67
     7
176
     1
 79
     5
176
     1
170
     0
176
     1
171
     0
176
     1
290
     0
176
     1
 93
        1
176
     1
 44
0.0
176
     1
173
     0
176
     1
  0
VISUALSTYLE
  5
31
102
{ACAD_REACTORS
330
2A
102
}
330
2A
100
AcDbVisualStyle
  2
3D Hidden
 70
     6
177
     2
291
     0
 71
     1
176
     1
 72
     2
176
     1
 73
     2
176
     1
 90
        0
176
     1
 40
-0.6
176
     1
 41
-30.0
176
     1
 62
     5
 63
     7
421
 16777215
176
     1
 74
     2
176
     1
 91
        2
176
     1
 64
     7
176
     1
 65
   257
176
     1
 75
     2
176
     1
175
     1
176
     1
 42
40.0
176
     1
 92
        0
176
     1
 66
   257
176
     1
 43
1.0
176
     1
 76
     1
176
     1
 77
     6
176
     1
 78
     2
176
     1
 67
     7
176
     1
 79
     3
176
     1
170
     0
176
     1
171
     0
176
     1
290
     0
176
     1
 93
        1
176
     1
 44
0.0
176
     1
173
     0
176
     1
  0
VISUALSTYLE
  5
30
102
{ACAD_REACTORS
330
2A
102
}
330
2A
100
AcDbVisualStyle
  2
3dWireframe
 70
     5
177
     2
291
     0
 71
     0
176
     1
 72
     2
176
     1
 73
     0
176
     1
 90
        0
176
     1
 40
-0.6
176
     1
 41
-30.0
176
     1
 62
     5
 63
     7
421
 16777215
176
     1
 74
     1
176
     1
 91
        4
176
     1
 64
     7
176
     1
 65
   257
176
     1
 75
     1
176
     1
175
     1
176
     1
 42
1.0
176
     1
 92
        0
176
     1
 66
   257
176
     1
 43
1.0
176
     1
 76
     1
176
     1
 77
     6
176
     1
 78
     2
176
     1
 67
     7
176
     1
 79
     5
176
     1
170
     0
176
     1
171
     0
176
     1
290
     0
176
     1
 93
        1
176
     1
 44
0.0
176
     1
173
     0
176
     1
  0
VISUALSTYLE
  5
32
102
{ACAD_REACTORS
330
2A
102
}
330
2A
100
AcDbVisualStyle
  2
Basic
 70
     7
177
     2
291
     1
 71
     1
176
     1
 72
     0
176
     1
 73
     1
176
     1
 90
        0
176
     1
 40
-0.6
176
     1
 41
-30.0
176
     1
 62
     5
 63
     7
421
 16777215
176
     1
 74
     0
176
     1
 91
        4
176
     1
 64
     7
176
     1
 65
   257
176
     1
 75
     1
176
     1
175
     1
176
     1
 42
1.0
176
     1
 92
        8
176
     1
 66
     7
176
     1
 43
1.0
176
     1
 76
     1
176
     1
 77
     6
176
     1
 78
     2
176
     1
 67
     7
176
     1
 79
     5
176
     1
170
     0
176
     1
171
     0
176
     1
290
     0
176
     1
 93
        1
176
     1
 44
0.0
176
     1
173
     0
176
     1
  0
VISUALSTYLE
  5
36
102
{ACAD_REACTORS
330
2A
102
}
330
2A
100
AcDbVisualStyle
  2
Brighten
 70
    12
177
     2
291
     1
 71
     2
176
     1
 72
     2
176
     1
 73
     0
176
     1
 90
        0
176
     1
 40
-0.6
176
     1
 41
-30.0
176
     1
 62
     5
 63
     7
421
 16777215
176
     1
 74
     1
176
     1
 91
        4
176
     1
 64
     7
176
     1
 65
   257
176
     1
 75
     1
176
     1
175
     1
176
     1
 42
1.0
176
     1
 92
        8
176
     1
 66
     7
176
     1
 43
1.0
176
     1
 76
     1
176
     1
 77
     6
176
     1
 78
     2
176
     1
 67
     7
176
     1
 79
     5
176
     1
170
     0
176
     1
171
     0
176
     1
290
     0
176
     1
 93
        1
176
     1
 44
50.0
176
     1
173
     0
176
     1
  0
VISUALSTYLE
  5
3A
102
{ACAD_REACTORS
330
2A
102
}
330
2A
100
AcDbVisualStyle
  2
ColorChange
 70
    16
177
     2
291
     1
 71
     2
176
     1
 72
     2
176
     1
 73
     3
176
     1
 90
        0
176
     1
 40
-0.6
176
     1
 41
-30.0
176
     1
 62
     5
 63
     8
421
  8421504
176
     1
 74
     1
176
     1
 91
        4
176
     1
 64
     7
176
     1
 65
   257
176
     1
 75
     1
176
     1
175
     1
176
     1
 42
1.0
176
     1
 92
        8
176
     1
 66
     8
424
  8421504
176
     1
 43
1.0
176
     1
 76
     1
176
     1
 77
     6
176
     1
 78
     2
176
     1
 67
     7
176
     1
 79
     5
176
     1
170
     0
176
     1
171
     0
176
     1
290
     0
176
     1
 93
        1
176
     1
 44
0.0
176
     1
173
     0
176
     1
  0
VISUALSTYLE
  5
34
102
{ACAD_REACTORS
330
2A
102
}
330
2A
100
AcDbVisualStyle
  2
Conceptual
 70
     9
177
     2
291
     0
 71
     3
176
     1
 72
     2
176
     1
 73
     0
176
     1
 90
        0
176
     1
 40
-0.6
176
     1
 41
-30.0
176
     1
 62
     5
 63
     7
421
 16777215
176
     1
 74
     2
176
     1
 91
        2
176
     1
 64
     7
176
     1
 65
   257
176
     1
 75
     1
176
     1
175
     1
176
     1
 42
40.0
176
     1
 92
        8
176
     1
 66
     7
176
     1
 43
1.0
176
     1
 76
     1
176
     1
 77
     6
176
     1
 78
     2
176
     1
 67
     7
176
     1
 79
     3
176
     1
170
     0
176
     1
171
     0
176
     1
290
     0
176
     1
 93
        1
176
     1
 44
0.0
176
     1
173
     0
176
     1
  0
VISUALSTYLE
  5
35
102
{ACAD_REACTORS
330
2A
102
}
330
2A
100
AcDbVisualStyle
  2
Dim
 70
    11
177
     2
291
     1
 71
     2
176
     1
 72
     2
176
     1
 73
     0
176
     1
 90
        0
176
     1
 40
-0.6
176
     1
 41
-30.0
176
     1
 62
     5
 63
     7
421
 16777215
176
     1
 74
     1
176
     1
 91
        4
176
     1
 64
     7
176
     1
 65
   257
176
     1
 75
     1
176
     1
175
     1
176
     1
 42
1.0
176
     1
 92
        8
176
     1
 66
     7
176
     1
 43
1.0
176
     1
 76
     1
176
     1
 77
     6
176
     1
 78
     2
176
     1
 67
     7
176
     1
 79
     5
176
     1
170
     0
176
     1
171
     0
176
     1
290
     0
176
     1
 93
        1
176
     1
 44
-50.0
176
     1
173
     0
176
     1
  0
VISUALSTYLE
  5
39
102
{ACAD_REACTORS
330
2A
102
}
330
2A
100
AcDbVisualStyle
  2
Facepattern
 70
    15
177
     2
291
     1
 71
     2
176
     1
 72
     2
176
     1
 73
     0
176
     1
 90
        0
176
     1
 40
-0.6
176
     1
 41
-30.0
176
     1
 62
     5
 63
     7
421
 16777215
176
     1
 74
     1
176
     1
 91
        4
176
     1
 64
     7
176
     1
 65
   257
176
     1
 75
     1
176
     1
175
     1
176
     1
 42
1.0
176
     1
 92
        8
176
     1
 66
     7
176
     1
 43
1.0
176
     1
 76
     1
176
     1
 77
     6
176
     1
 78
     2
176
     1
 67
     7
176
     1
 79
     5
176
     1
170
     0
176
     1
171
     0
176
     1
290
     0
176
     1
 93
        1
176
     1
 44
0.0
176
     1
173
     0
176
     1
  0
VISUALSTYLE
  5
2B
102
{ACAD_REACTORS
330
2A
102
}
330
2A
100
AcDbVisualStyle
  2
Flat
 70
     0
177
     2
291
     1
 71
     2
176
     1
 72
     1
176
     1
 73
     1
176
     1
 90
        2
176
     1
 40
-0.6
176
     1
 41
30.0
176
     1
 62
     5
 63
     7
421
 16777215
176
     1
 74
     0
176
     1
 91
        4
176
     1
 64
     7
176
     1
 65
   257
176
     1
 75
     1
176
     1
175
     1
176
     1
 42
1.0
176
     1
 92
        8
176
     1
 66
     7
176
     1
 43
1.0
176
     1
 76
     1
176
     1
 77
     6
176
     1
 78
     2
176
     1
 67
     7
176
     1
 79
     5
176
     1
170
     0
176
     1
171
     0
176
     1
290
     0
176
     1
 93
       13
176
     1
 44
0.0
176
     1
173
     0
176
     1
  0
VISUALSTYLE
  5
2C
102
{ACAD_REACTORS
330
2A
102
}
330
2A
100
AcDbVisualStyle
  2
FlatWithEdges
 70
     1
177
     2
291
     1
 71
     2
176
     1
 72
     1
176
     1
 73
     1
176
     1
 90
        2
176
     1
 40
-0.6
176
     1
 41
30.0
176
     1
 62
     5
 63
     7
421
 16777215
176
     1
 74
     1
176
     1
 91
        4
176
     1
 64
     7
176
     1
 65
   257
176
     1
 75
     1
176
     1
175
     1
176
     1
 42
1.0
176
     1
 92
        0
176
     1
 66
   257
176
     1
 43
1.0
176
     1
 76
     1
176
     1
 77
     6
176
     1
 78
     2
176
     1
 67
     7
176
     1
 79
     5
176
     1
170
     0
176
     1
171
     0
176
     1
290
     0
176
     1
 93
       13
176
     1
 44
0.0
176
     1
173
     0
176
     1
  0
VISUALSTYLE
  5
2D
102
{ACAD_REACTORS
330
2A
102
}
330
2A
100
AcDbVisualStyle
  2
Gouraud
 70
     2
177
     2
291
     1
 71
     2
176
     1
 72
     2
176
     1
 73
     1
176
     1
 90
        2
176
     1
 40
-0.6
176
     1
 41
30.0
176
     1
 62
     5
 63
     7
421
 16777215
176
     1
 74
     0
176
     1
 91
        4
176
     1
 64
     7
176
     1
 65
   257
176
     1
 75
     1
176
     1
175
     1
176
     1
 42
1.0
176
     1
 92
        0
176
     1
 66
     7
176
     1
 43
1.0
176
     1
 76
     1
176
     1
 77
     6
176
     1
 78
     2
176
     1
 67
     7
176
     1
 79
     5
176
     1
170
     0
176
     1
171
     0
176
     1
290
     0
176
     1
 93
       13
176
     1
 44
0.0
176
     1
173
     0
176
     1
  0
VISUALSTYLE
  5
2E
102
{ACAD_REACTORS
330
2A
102
}
330
2A
100
AcDbVisualStyle
  2
GouraudWithEdges
 70
     3
177
     2
291
     1
 71
     2
176
     1
 72
     2
176
     1
 73
     1
176
     1
 90
        2
176
     1
 40
-0.6
176
     1
 41
30.0
176
     1
 62
     5
 63
     7
421
 16777215
176
     1
 74
     1
176
     1
 91
        4
176
     1
 64
     7
176
     1
 65
   257
176
     1
 75
     1
176
     1
175
     1
176
     1
 42
1.0
176
     1
 92
        0
176
     1
 66
   257
176
     1
 43
1.0
176
     1
 76
     1
176
     1
 77
     6
176
     1
 78
     2
176
     1
 67
     7
176
     1
 79
     5
176
     1
170
     0
176
     1
171
     0
176
     1
290
     0
176
     1
 93
       13
176
     1
 44
0.0
176
     1
173
     0
176
     1
  0
VISUALSTYLE
  5
38
102
{ACAD_REACTORS
330
2A
102
}
330
2A
100
AcDbVisualStyle
  2
Linepattern
 70
    14
177
     2
291
     1
 71
     2
176
     1
 72
     2
176
     1
 73
     0
176
     1
 90
        0
176
     1
 40
-0.6
176
     1
 41
-30.0
176
     1
 62
     5
 63
     7
421
 16777215
176
     1
 74
     1
176
     1
 91
        4
176
     1
 64
     7
176
     1
 65
   257
176
     1
 75
     7
176
     1
175
     7
176
     1
 42
1.0
176
     1
 92
        8
176
     1
 66
     7
176
     1
 43
1.0
176
     1
 76
     1
176
     1
 77
     6
176
     1
 78
     2
176
     1
 67
     7
176
     1
 79
     5
176
     1
170
     0
176
     1
171
     0
176
     1
290
     0
176
     1
 93
        1
176
     1
 44
0.0
176
     1
173
     0
176
     1
  0
VISUALSTYLE
  5
33
102
{ACAD_REACTORS
330
2A
102
}
330
2A
100
AcDbVisualStyle
  2
Realistic
 70
     8
177
     2
291
     0
 71
     2
176
     1
 72
     2
176
     1
 73
     0
176
     1
 90
        0
176
     1
 40
-0.6
176
     1
 41
-30.0
176
     1
 62
     5
 63
     7
421
 16777215
176
     1
 74
     1
176
     1
 91
        0
176
     1
 64
     7
176
     1
 65
   257
176
     1
 75
     1
176
     1
175
     1
176
     1
 42
1.0
176
     1
 92
        8
176
     1
 66
     8
424
  7895160
176
     1
 43
1.0
176
     1
 76
     1
176
     1
 77
     6
176
     1
 78
     2
176
     1
 67
     7
176
     1
 79
     5
176
     1
170
     0
176
     1
171
     0
176
     1
290
     0
176
     1
 93
       13
176
     1
 44
0.0
176
     1
173
     0
176
     1
  0
VISUALSTYLE
  5
37
102
{ACAD_REACTORS
330
2A
102
}
330
2A
100
AcDbVisualStyle
  2
Thicken
 70
    13
177
     2
291
     1
 71
     2
176
     1
 72
     2
176
     1
 73
     0
176
     1
 90
        0
176
     1
 40
-0.6
176
     1
 41
-30.0
176
     1
 62
     5
 63
     7
421
 16777215
176
     1
 74
     1
176
     1
 91
        4
176
     1
 64
     7
176
     1
 65
   257
176
     1
 75
     1
176
     1
175
     1
176
     1
 42
1.0
176
     1
 92
       12
176
     1
 66
     7
176
     1
 43
1.0
176
     1
 76
     1
176
     1
 77
     6
176
     1
 78
     2
176
     1
 67
     7
176
     1
 79
     5
176
     1
170
     0
176
     1
171
     0
176
     1
290
     0
176
     1
 93
        1
176
     1
 44
0.0
176
     1
173
     0
176
     1
  0
ENDSEC
  0
EOF
