  0
SECTION
  2
HEADER
  9
$ACADVER
  1
AC1024
  9
$ACADMAINTVER
 70
     6
  9
$DWGCODEPAGE
  3
ANSI_932
  9
$INSBASE
 10
0.0
 20
0.0
 30
0.0
  9
$EXTMIN
 10
-4455.0
 20
-3150.0
 30
0.0
  9
$EXTMAX
 10
4455.0
 20
3150.0
 30
0.0
  9
$LIMMIN
 10
-4455.0
 20
-3150.0
  9
$LIMMAX
 10
4455.0
 20
3150.0
  9
$ORTHOMODE
 70
     0
  9
$REGENMODE
 70
     1
  9
$FILLMODE
 70
     1
  9
$QTEXTMODE
 70
     0
  9
$MIRRTEXT
 70
     1
  9
$LTSCALE
 40
30.0
  9
$ATTMODE
 70
     1
  9
$TEXTSIZE
 40
2.5
  9
$TRACEWID
 40
1.0
  9
$TEXTSTYLE
  7
Standard
  9
$CLAYER
  8
0
  9
$CELTYPE
  6
ByLayer
  9
$CECOLOR
 62
   256
  9
$CELTSCALE
 40
1.0
  9
$DISPSILH
 70
     0
  9
$DIMSCALE
 40
1.0
  9
$DIMASZ
 40
2.5
  9
$DIMEXO
 40
0.625
  9
$DIMDLI
 40
3.75
  9
$DIMRND
 40
0.0
  9
$DIMDLE
 40
0.0
  9
$DIMEXE
 40
1.25
  9
$DIMTP
 40
0.0
  9
$DIMTM
 40
0.0
  9
$DIMTXT
 40
2.5
  9
$DIMCEN
 40
2.5
  9
$DIMTSZ
 40
0.0
  9
$DIMTOL
 70
     0
  9
$DIMLIM
 70
     0
  9
$DIMTIH
 70
     0
  9
$DIMTOH
 70
     0
  9
$DIMSE1
 70
     0
  9
$DIMSE2
 70
     0
  9
$DIMTAD
 70
     1
  9
$DIMZIN
 70
     8
  9
$DIMBLK
  1

  9
$DIMASO
 70
     1
  9
$DIMSHO
 70
     1
  9
$DIMPOST
  1

  9
$DIMAPOST
  1

  9
$DIMALT
 70
     0
  9
$DIMALTD
 70
     3
  9
$DIMALTF
 40
0.03937007874016
  9
$DIMLFAC
 40
1.0
  9
$DIMTOFL
 70
     1
  9
$DIMTVP
 40
0.0
  9
$DIMTIX
 70
     0
  9
$DIMSOXD
 70
     0
  9
$DIMSAH
 70
     0
  9
$DIMBLK1
  1

  9
$DIMBLK2
  1

  9
$DIMSTYLE
  2
ISO-25
  9
$DIMCLRD
 70
     0
  9
$DIMCLRE
 70
     0
  9
$DIMCLRT
 70
     0
  9
$DIMTFAC
 40
1.0
  9
$DIMGAP
 40
0.625
  9
$DIMJUST
 70
     0
  9
$DIMSD1
 70
     0
  9
$DIMSD2
 70
     0
  9
$DIMTOLJ
 70
     0
  9
$DIMTZIN
 70
     8
  9
$DIMALTZ
 70
     0
  9
$DIMALTTZ
 70
     0
  9
$DIMUPT
 70
     0
  9
$DIMDEC
 70
     2
  9
$DIMTDEC
 70
     2
  9
$DIMALTU
 70
     2
  9
$DIMALTTD
 70
     3
  9
$DIMTXSTY
  7
Standard
  9
$DIMAUNIT
 70
     0
  9
$DIMADEC
 70
     0
  9
$DIMALTRND
 40
0.0
  9
$DIMAZIN
 70
     0
  9
$DIMDSEP
 70
    44
  9
$DIMATFIT
 70
     3
  9
$DIMFRAC
 70
     0
  9
$DIMLDRBLK
  1

  9
$DIMLUNIT
 70
     2
  9
$DIMLWD
 70
    -2
  9
$DIMLWE
 70
    -2
  9
$DIMTMOVE
 70
     0
  9
$DIMFXL
 40
1.0
  9
$DIMFXLON
 70
     0
  9
$DIMJOGANG
 40
0.7853981633974483
  9
$DIMTFILL
 70
     0
  9
$DIMTFILLCLR
 70
     0
  9
$DIMARCSYM
 70
     0
  9
$DIMLTYPE
  6

  9
$DIMLTEX1
  6

  9
$DIMLTEX2
  6

  9
$DIMTXTDIRECTION
 70
     0
  9
$LUNITS
 70
     2
  9
$LUPREC
 70
     4
  9
$SKETCHINC
 40
1.0
  9
$FILLETRAD
 40
10.0
  9
$AUNITS
 70
     0
  9
$AUPREC
 70
     0
  9
$MENU
  1
.
  9
$ELEVATION
 40
0.0
  9
$PELEVATION
 40
0.0
  9
$THICKNESS
 40
0.0
  9
$LIMCHECK
 70
     0
  9
$CHAMFERA
 40
10.0
  9
$CHAMFERB
 40
10.0
  9
$CHAMFERC
 40
20.0
  9
$CHAMFERD
 40
0.0
  9
$SKPOLY
 70
     0
  9
$TDCREATE
 40
2457953.399834873
  9
$TDUCREATE
 40
2457953.024834873
  9
$TDUPDATE
 40
2457953.399834884
  9
$TDUUPDATE
 40
2457953.024834884
  9
$TDINDWG
 40
0.0000000116
  9
$TDUSRTIMER
 40
0.0000000116
  9
$USRTIMER
 70
     1
  9
$ANGBASE
 50
0.0
  9
$ANGDIR
 70
     0
  9
$PDMODE
 70
     0
  9
$PDSIZE
 40
0.0
  9
$PLINEWID
 40
0.0
  9
$SPLFRAME
 70
     0
  9
$SPLINETYPE
 70
     6
  9
$SPLINESEGS
 70
     8
  9
$HANDSEED
  5
4EA
  9
$SURFTAB1
 70
     6
  9
$SURFTAB2
 70
     6
  9
$SURFTYPE
 70
     6
  9
$SURFU
 70
     6
  9
$SURFV
 70
     6
  9
$UCSBASE
  2

  9
$UCSNAME
  2

  9
$UCSORG
 10
0.0
 20
0.0
 30
0.0
  9
$UCSXDIR
 10
1.0
 20
0.0
 30
0.0
  9
$UCSYDIR
 10
0.0
 20
1.0
 30
0.0
  9
$UCSORTHOREF
  2

  9
$UCSORTHOVIEW
 70
     0
  9
$UCSORGTOP
 10
0.0
 20
0.0
 30
0.0
  9
$UCSORGBOTTOM
 10
0.0
 20
0.0
 30
0.0
  9
$UCSORGLEFT
 10
0.0
 20
0.0
 30
0.0
  9
$UCSORGRIGHT
 10
0.0
 20
0.0
 30
0.0
  9
$UCSORGFRONT
 10
0.0
 20
0.0
 30
0.0
  9
$UCSORGBACK
 10
0.0
 20
0.0
 30
0.0
  9
$PUCSBASE
  2

  9
$PUCSNAME
  2

  9
$PUCSORG
 10
0.0
 20
0.0
 30
0.0
  9
$PUCSXDIR
 10
1.0
 20
0.0
 30
0.0
  9
$PUCSYDIR
 10
0.0
 20
1.0
 30
0.0
  9
$PUCSORTHOREF
  2

  9
$PUCSORTHOVIEW
 70
     0
  9
$PUCSORGTOP
 10
0.0
 20
0.0
 30
0.0
  9
$PUCSORGBOTTOM
 10
0.0
 20
0.0
 30
0.0
  9
$PUCSORGLEFT
 10
0.0
 20
0.0
 30
0.0
  9
$PUCSORGRIGHT
 10
0.0
 20
0.0
 30
0.0
  9
$PUCSORGFRONT
 10
0.0
 20
0.0
 30
0.0
  9
$PUCSORGBACK
 10
0.0
 20
0.0
 30
0.0
  9
$USERI1
 70
     0
  9
$USERI2
 70
     0
  9
$USERI3
 70
     0
  9
$USERI4
 70
     0
  9
$USERI5
 70
     0
  9
$USERR1
 40
0.0
  9
$USERR2
 40
0.0
  9
$USERR3
 40
0.0
  9
$USERR4
 40
0.0
  9
$USERR5
 40
0.0
  9
$WORLDVIEW
 70
     1
  9
$SHADEDGE
 70
     3
  9
$SHADEDIF
 70
    70
  9
$TILEMODE
 70
     1
  9
$MAXACTVP
 70
    64
  9
$PINSBASE
 10
0.0
 20
0.0
 30
0.0
  9
$PLIMCHECK
 70
     0
  9
$PEXTMIN
 10
1.000000000000000E+20
 20
1.000000000000000E+20
 30
1.000000000000000E+20
  9
$PEXTMAX
 10
-1.000000000000000E+20
 20
-1.000000000000000E+20
 30
-1.000000000000000E+20
  9
$PLIMMIN
 10
0.0
 20
0.0
  9
$PLIMMAX
 10
420.0
 20
297.0
  9
$UNITMODE
 70
     0
  9
$VISRETAIN
 70
     1
  9
$PLINEGEN
 70
     0
  9
$PSLTSCALE
 70
     1
  9
$TREEDEPTH
 70
  3020
  9
$CMLSTYLE
  2
Standard
  9
$CMLJUST
 70
     0
  9
$CMLSCALE
 40
20.0
  9
$PROXYGRAPHICS
 70
     1
  9
$MEASUREMENT
 70
     1
  9
$CELWEIGHT
370
    -1
  9
$ENDCAPS
280
     0
  9
$JOINSTYLE
280
     0
  9
$LWDISPLAY
290
     0
  9
$INSUNITS
 70
     4
  9
$HYPERLINKBASE
  1

  9
$STYLESHEET
  1

  9
$XEDIT
290
     1
  9
$CEPSNTYPE
380
     0
  9
$PSTYLEMODE
290
     1
  9
$FINGERPRINTGUID
  2
{F1E20CE2-3B0C-4464-A870-524174CC1FF7}
  9
$VERSIONGUID
  2
{FAEB1C32-E019-11D5-929B-00C0DF256EC4}
  9
$EXTNAMES
290
     1
  9
$PSVPSCALE
 40
0.0
  9
$OLESTARTUP
290
     0
  9
$SORTENTS
280
   127
  9
$INDEXCTL
280
     0
  9
$HIDETEXT
280
     1
  9
$XCLIPFRAME
280
     2
  9
$HALOGAP
280
     0
  9
$OBSCOLOR
 70
   257
  9
$OBSLTYPE
280
     0
  9
$INTERSECTIONDISPLAY
280
     0
  9
$INTERSECTIONCOLOR
 70
   257
  9
$DIMASSOC
280
     2
  9
$PROJECTNAME
  1

  9
$CAMERADISPLAY
290
     0
  9
$LENSLENGTH
 40
50.0
  9
$CAMERAHEIGHT
 40
0.0
  9
$STEPSPERSEC
 40
2.0
  9
$STEPSIZE
 40
6.0
  9
$3DDWFPREC
 40
2.0
  9
$PSOLWIDTH
 40
5.0
  9
$PSOLHEIGHT
 40
80.0
  9
$LOFTANG1
 40
1.570796326794897
  9
$LOFTANG2
 40
1.570796326794897
  9
$LOFTMAG1
 40
0.0
  9
$LOFTMAG2
 40
0.0
  9
$LOFTPARAM
 70
     7
  9
$LOFTNORMALS
280
     1
  9
$LATITUDE
 40
37.795
  9
$LONGITUDE
 40
-122.394
  9
$NORTHDIRECTION
 40
0.0
  9
$TIMEZONE
 70
 -8000
  9
$LIGHTGLYPHDISPLAY
280
     1
  9
$TILEMODELIGHTSYNCH
280
     1
  9
$SOLIDHIST
280
     1
  9
$SHOWHIST
280
     1
  9
$DWFFRAME
280
     2
  9
$DGNFRAME
280
     2
  9
$REALWORLDSCALE
290
     1
  9
$INTERFERECOLOR
 62
   256
  9
$CSHADOW
280
     0
  9
$SHADOWPLANELOCATION
 40
0.0
  0
ENDSEC
  0
SECTION
  2
CLASSES
  0
CLASS
  1
ACDBDICTIONARYWDFLT
  2
AcDbDictionaryWithDefault
  3
ObjectDBX Classes
 90
        0
 91
        4
280
     0
281
     0
  0
CLASS
  1
VISUALSTYLE
  2
AcDbVisualStyle
  3
ObjectDBX Classes
 90
     4095
 91
        4
280
     0
281
     0
  0
CLASS
  1
MATERIAL
  2
AcDbMaterial
  3
ObjectDBX Classes
 90
     1153
 91
        4
280
     0
281
     0
  0
ENDSEC
  0
SECTION
  2
TABLES
  0
TABLE
  2
VPORT
  5
8
330
0
100
AcDbSymbolTable
 70
     1
  0
VPORT
  5
29
330
8
100
AcDbSymbolTableRecord
100
AcDbViewportTableRecord
  2
*Active
 70
     0
 10
0.0
 20
0.0
 11
1.0
 21
1.0
 12
0.0
 22
0.0
 13
0.0
 23
0.0
 14
10.0
 24
10.0
 15
10.0
 25
10.0
 16
0.0
 26
0.0
 36
1.0
 17
0.0
 27
0.0
 37
0.0
 40
6930.000000000001
 41
1.414285714285714
 42
50.0
 43
0.0
 44
0.0
 50
0.0
 51
0.0
 71
     0
 72
 10000
 73
     1
 74
     3
 75
     0
 76
     0
 77
     0
 78
     0
281
     0
 65
     1
110
0.0
120
0.0
130
0.0
111
1.0
121
0.0
131
0.0
112
0.0
122
1.0
132
0.0
 79
     0
146
0.0
 60
     3
 61
     5
292
     1
282
     1
141
0.0
142
0.0
 63
   250
  0
ENDTAB
  0
TABLE
  2
LTYPE
  5
5
330
0
100
AcDbSymbolTable
 70
     2
  0
LTYPE
  5
14
330
5
100
AcDbSymbolTableRecord
100
AcDbLinetypeTableRecord
  2
ByBlock
 70
     0
  3

 72
    65
 73
     0
 40
0.0
  0
LTYPE
  5
15
330
5
100
AcDbSymbolTableRecord
100
AcDbLinetypeTableRecord
  2
ByLayer
 70
     0
  3

 72
    65
 73
     0
 40
0.0
  0
LTYPE
  5
16
330
5
100
AcDbSymbolTableRecord
100
AcDbLinetypeTableRecord
  2
Continuous
 70
     0
  3
Solid line
 72
    65
 73
     0
 40
0.0
  0
LTYPE
  5
3F
330
5
100
AcDbSymbolTableRecord
100
AcDbLinetypeTableRecord
  2
JWW_DASHED1
 70
     0
  3
-  --  --  --  --  --  --  --  -
 72
    65
 73
     2
 40
1.693333333333333
 49
0.8466666666666667
 74
     0
 49
-0.8466666666666667
 74
     0
  0
ENDTAB
  0
TABLE
  2
LAYER
  5
2
330
0
100
AcDbSymbolTable
 70
     3
  0
LAYER
  5
10
330
2
100
AcDbSymbolTableRecord
100
AcDbLayerTableRecord
  2
0
 70
     0
 62
     7
  6
Continuous
370
    -3
390
F
347
3E
  0
LAYER
  5
40
330
2
100
AcDbSymbolTableRecord
100
AcDbLayerTableRecord
  2
0-0
 70
     0
 62
     7
  6
Continuous
370
    -3
390
F
347
3E
  0
LAYER
  5
41
330
2
100
AcDbSymbolTableRecord
100
AcDbLayerTableRecord
  2
寸法
 70
     0
 62
     7
  6
Continuous
370
    -3
390
F
347
3E
  0
ENDTAB
  0
TABLE
  2
STYLE
  5
3
330
0
100
AcDbSymbolTable
 70
     1
  0
STYLE
  5
11
330
3
100
AcDbSymbolTableRecord
100
AcDbTextStyleTableRecord
  2
Standard
 70
     0
 40
0.0
 41
1.0
 50
0.0
 71
     0
 42
2.5
  3
txt
  4

  0
ENDTAB
  0
TABLE
  2
VIEW
  5
6
330
0
100
AcDbSymbolTable
 70
     0
  0
ENDTAB
  0
TABLE
  2
UCS
  5
7
330
0
100
AcDbSymbolTable
 70
     0
  0
ENDTAB
  0
TABLE
  2
APPID
  5
9
330
0
100
AcDbSymbolTable
 70
     1
  0
APPID
  5
12
330
9
100
AcDbSymbolTableRecord
100
AcDbRegAppTableRecord
  2
ACAD
 70
     0
  0
ENDTAB
  0
TABLE
  2
DIMSTYLE
  5
A
330
0
100
AcDbSymbolTable
 70
     1
100
AcDbDimStyleTable
  0
DIMSTYLE
105
27
330
A
100
AcDbSymbolTableRecord
100
AcDbDimStyleTableRecord
  2
ISO-25
 70
     0
 41
2.5
 42
0.625
 43
3.75
 44
1.25
 73
     0
 74
     0
 77
     1
 78
     8
140
2.5
141
2.5
143
0.03937007874016
147
0.625
171
     3
172
     1
178
     0
271
     2
272
     2
274
     3
278
    44
283
     0
284
     8
340
11
  0
ENDTAB
  0
TABLE
  2
BLOCK_RECORD
  5
1
330
0
100
AcDbSymbolTable
 70
     1
  0
BLOCK_RECORD
  5
1F
330
1
100
AcDbSymbolTableRecord
100
AcDbBlockTableRecord
  2
*Model_Space
340
22
 70
     0
280
     1
281
     0
  0
BLOCK_RECORD
  5
1B
330
1
100
AcDbSymbolTableRecord
100
AcDbBlockTableRecord
  2
*Paper_Space
340
1E
 70
     0
280
     1
281
     0
  0
BLOCK_RECORD
  5
23
330
1
100
AcDbSymbolTableRecord
100
AcDbBlockTableRecord
  2
*Paper_Space0
340
26
 70
     0
280
     1
281
     0
  0
ENDTAB
  0
ENDSEC
  0
SECTION
  2
BLOCKS
  0
BLOCK
  5
20
330
1F
100
AcDbEntity
  8
0
100
AcDbBlockBegin
  2
*Model_Space
 70
     0
 10
0.0
 20
0.0
 30
0.0
  3
*Model_Space
  1

  0
ENDBLK
  5
21
330
1F
100
AcDbEntity
  8
0
100
AcDbBlockEnd
  0
BLOCK
  5
1C
330
1B
100
AcDbEntity
 67
     1
  8
0
100
AcDbBlockBegin
  2
*Paper_Space
 70
     0
 10
0.0
 20
0.0
 30
0.0
  3
*Paper_Space
  1

  0
ENDBLK
  5
1D
330
1B
100
AcDbEntity
 67
     1
  8
0
100
AcDbBlockEnd
  0
BLOCK
  5
24
330
23
100
AcDbEntity
  8
0
100
AcDbBlockBegin
  2
*Paper_Space0
 70
     0
 10
0.0
 20
0.0
 30
0.0
  3
*Paper_Space0
  1

  0
ENDBLK
  5
25
330
23
100
AcDbEntity
  8
0
100
AcDbBlockEnd
  0
ENDSEC
  0
SECTION
  2
ENTITIES
  0
LINE
  5
42
330
1F
100
AcDbEntity
  8
0-0
  6
Continuous
 62
    92
370
    13
100
AcDbLine
 10
-1597.819386460417
 20
1054.417749654176
 30
0.0
 11
1636.180613539583
 21
1054.417749654176
 31
0.0
  0
LINE
  5
43
330
1F
100
AcDbEntity
  8
0-0
  6
Continuous
 62
    92
370
    13
100
AcDbLine
 10
-1567.819386460417
 20
1018.417749654174
 30
0.0
 11
1606.180613539583
 21
1018.417749654174
 31
0.0
  0
LINE
  5
44
330
1F
100
AcDbEntity
  8
0-0
  6
Continuous
 62
    92
370
    13
100
AcDbLine
 10
1606.180613539583
 20
-992.582250345825
 30
0.0
 11
1606.180613539583
 21
1054.417749654176
 31
0.0
  0
LINE
  5
45
330
1F
100
AcDbEntity
  8
0-0
  6
Continuous
 62
    92
370
    13
100
AcDbLine
 10
-1567.819386460417
 20
-992.582250345825
 30
0.0
 11
-1567.819386460417
 21
1054.417749654176
 31
0.0
  0
LINE
  5
46
330
1F
100
AcDbEntity
  8
0-0
  6
Continuous
 62
    92
370
    13
100
AcDbLine
 10
1636.180613539583
 20
-992.582250345825
 30
0.0
 11
1636.180613539583
 21
1054.417749654176
 31
0.0
  0
LINE
  5
47
330
1F
100
AcDbEntity
  8
0-0
  6
Continuous
 62
    92
370
    13
100
AcDbLine
 10
-1597.819386460417
 20
-992.582250345825
 30
0.0
 11
-1597.819386460417
 21
1054.417749654176
 31
0.0
  0
LINE
  5
48
330
1F
100
AcDbEntity
  8
0-0
  6
Continuous
 62
    92
370
    13
100
AcDbLine
 10
1636.180613539583
 20
-992.582250345825
 30
0.0
 11
-1597.819386460417
 21
-992.582250345825
 31
0.0
  0
LINE
  5
49
330
1F
100
AcDbEntity
  8
0-0
  6
Continuous
 62
    92
370
    13
100
AcDbLine
 10
1606.180613539583
 20
-977.582250345825
 30
0.0
 11
-1567.819386460417
 21
-977.582250345825
 31
0.0
  0
ARC
  5
4A
330
1F
100
AcDbEntity
  8
0-0
  6
Continuous
 62
    92
370
    13
100
AcDbCircle
 10
-51.31938646041555
 20
44.41774965417579
 30
0.0
 40
1.5
100
AcDbArc
 50
90.0
 51
180.0
  0
LINE
  5
4B
330
1F
100
AcDbEntity
  8
0-0
  6
Continuous
 62
    92
370
    13
100
AcDbLine
 10
-12.31938646041692
 20
45.91774965417528
 30
0.0
 11
-51.31938646041555
 21
45.91774965417528
 31
0.0
  0
ARC
  5
4C
330
1F
100
AcDbEntity
  8
0-0
  6
Continuous
 62
    92
370
    13
100
AcDbCircle
 10
-12.31938646041692
 20
44.41774965417579
 30
0.0
 40
1.5
100
AcDbArc
 50
0.0
 51
90.00000000000001
  0
LINE
  5
4D
330
1F
100
AcDbEntity
  8
0-0
  6
Continuous
 62
    92
370
    13
100
AcDbLine
 10
-10.81938646041658
 20
-74.58225034582426
 30
0.0
 11
-10.81938646041658
 21
44.41774965417579
 31
0.0
  0
ARC
  5
4E
330
1F
100
AcDbEntity
  8
0-0
  6
Continuous
 62
    92
370
    13
100
AcDbCircle
 10
-12.31938646041692
 20
-74.58225034582426
 30
0.0
 40
1.5
100
AcDbArc
 50
270.0
 51
0.0
  0
LINE
  5
4F
330
1F
100
AcDbEntity
  8
0-0
  6
Continuous
 62
    92
370
    13
100
AcDbLine
 10
-51.31938646041555
 20
-76.08225034582631
 30
0.0
 11
-12.31938646041692
 21
-76.08225034582631
 31
0.0
  0
LINE
  5
50
330
1F
100
AcDbEntity
  8
0-0
  6
Continuous
 62
    92
370
    13
100
AcDbLine
 10
-52.81938646041589
 20
-74.58225034582426
 30
0.0
 11
-52.81938646041589
 21
44.41774965417579
 31
0.0
  0
ARC
  5
51
330
1F
100
AcDbEntity
  8
0-0
  6
Continuous
 62
    92
370
    13
100
AcDbCircle
 10
-51.31938646041555
 20
-74.58225034582426
 30
0.0
 40
1.5
100
AcDbArc
 50
180.0
 51
270.0
  0
ARC
  5
52
330
1F
100
AcDbEntity
  8
0-0
  6
Continuous
 62
     7
370
     9
100
AcDbCircle
 10
-31.81938646041623
 20
-44.68225034582417
 30
0.0
 40
15.0
100
AcDbArc
 50
180.0
 51
0.0
  0
ARC
  5
53
330
1F
100
AcDbEntity
  8
0-0
  6
Continuous
 62
     7
370
     9
100
AcDbCircle
 10
-31.81938646041623
 20
14.5177496541757
 30
0.0
 40
15.0
100
AcDbArc
 50
0.0
 51
180.0
  0
LINE
  5
54
330
1F
100
AcDbEntity
  8
0-0
  6
Continuous
 62
     7
370
     9
100
AcDbLine
 10
-16.81938646041623
 20
-44.68225034582417
 30
0.0
 11
-16.81938646041623
 21
14.5177496541757
 31
0.0
  0
LINE
  5
55
330
1F
100
AcDbEntity
  8
0-0
  6
Continuous
 62
     7
370
     9
100
AcDbLine
 10
-46.81938646041623
 20
14.5177496541757
 30
0.0
 11
-46.81938646041623
 21
-44.68225034582417
 31
0.0
  0
ARC
  5
56
330
1F
100
AcDbEntity
  8
0-0
  6
Continuous
 62
    92
370
    13
100
AcDbCircle
 10
50.68061353958036
 20
44.41774965417579
 30
0.0
 40
1.5
100
AcDbArc
 50
90.0
 51
180.0
  0
LINE
  5
57
330
1F
100
AcDbEntity
  8
0-0
  6
Continuous
 62
    92
370
    13
100
AcDbLine
 10
89.6806135395824
 20
45.91774965417528
 30
0.0
 11
50.68061353958036
 21
45.91774965417528
 31
0.0
  0
ARC
  5
58
330
1F
100
AcDbEntity
  8
0-0
  6
Continuous
 62
    92
370
    13
100
AcDbCircle
 10
89.6806135395824
 20
44.41774965417579
 30
0.0
 40
1.5
100
AcDbArc
 50
0.0
 51
90.00000000000001
  0
LINE
  5
59
330
1F
100
AcDbEntity
  8
0-0
  6
Continuous
 62
    92
370
    13
100
AcDbLine
 10
91.18061353958103
 20
-74.58225034582426
 30
0.0
 11
91.18061353958103
 21
44.41774965417579
 31
0.0
  0
ARC
  5
5A
330
1F
100
AcDbEntity
  8
0-0
  6
Continuous
 62
    92
370
    13
100
AcDbCircle
 10
89.6806135395824
 20
-74.58225034582426
 30
0.0
 40
1.5
100
AcDbArc
 50
270.0
 51
0.0
  0
LINE
  5
5B
330
1F
100
AcDbEntity
  8
0-0
  6
Continuous
 62
    92
370
    13
100
AcDbLine
 10
50.68061353958036
 20
-76.08225034582631
 30
0.0
 11
89.6806135395824
 21
-76.08225034582631
 31
0.0
  0
LINE
  5
5C
330
1F
100
AcDbEntity
  8
0-0
  6
Continuous
 62
    92
370
    13
100
AcDbLine
 10
49.18061353958257
 20
-74.58225034582426
 30
0.0
 11
49.18061353958257
 21
44.41774965417579
 31
0.0
  0
ARC
  5
5D
330
1F
100
AcDbEntity
  8
0-0
  6
Continuous
 62
    92
370
    13
100
AcDbCircle
 10
50.68061353958036
 20
-74.58225034582426
 30
0.0
 40
1.5
100
AcDbArc
 50
180.0
 51
270.0
  0
ARC
  5
5E
330
1F
100
AcDbEntity
  8
0-0
  6
Continuous
 62
     7
370
     9
100
AcDbCircle
 10
70.18061353958137
 20
-44.68225034582417
 30
0.0
 40
15.0
100
AcDbArc
 50
180.0
 51
0.0
  0
ARC
  5
5F
330
1F
100
AcDbEntity
  8
0-0
  6
Continuous
 62
     7
370
     9
100
AcDbCircle
 10
70.18061353958137
 20
14.5177496541757
 30
0.0
 40
15.0
100
AcDbArc
 50
0.0
 51
180.0
  0
LINE
  5
60
330
1F
100
AcDbEntity
  8
0-0
  6
Continuous
 62
     7
370
     9
100
AcDbLine
 10
85.18061353958137
 20
-44.68225034582417
 30
0.0
 11
85.18061353958137
 21
14.5177496541757
 31
0.0
  0
LINE
  5
61
330
1F
100
AcDbEntity
  8
0-0
  6
Continuous
 62
     7
370
     9
100
AcDbLine
 10
55.18061353958138
 20
14.5177496541757
 30
0.0
 11
55.18061353958138
 21
-44.68225034582417
 31
0.0
  0
LINE
  5
62
330
1F
100
AcDbEntity
  8
0-0
  6
Continuous
 62
    92
370
    13
100
AcDbLine
 10
-790.8193864604175
 20
-972.5822503458253
 30
0.0
 11
-790.8193864604175
 21
1010.417749654175
 31
0.0
  0
LINE
  5
63
330
1F
100
AcDbEntity
  8
0-0
  6
JWW_DASHED1
 62
   120
370
     5
100
AcDbLine
 10
-760.8193864604175
 20
-972.5822503458253
 30
0.0
 11
-760.8193864604175
 21
1010.417749654175
 31
0.0
  0
LINE
  5
64
330
1F
100
AcDbEntity
  8
0-0
  6
Continuous
 62
    92
370
    13
100
AcDbLine
 10
-790.8193864604175
 20
-972.5822503458253
 30
0.0
 11
19.18061353958257
 21
-972.5822503458253
 31
0.0
  0
LINE
  5
65
330
1F
100
AcDbEntity
  8
0-0
  6
Continuous
 62
    92
370
    13
100
AcDbLine
 10
-790.8193864604175
 20
1010.417749654175
 30
0.0
 11
19.18061353958257
 21
1010.417749654175
 31
0.0
  0
LINE
  5
66
330
1F
100
AcDbEntity
  8
0-0
  6
Continuous
 62
    92
370
    13
100
AcDbLine
 10
19.18061353958257
 20
-972.5822503458253
 30
0.0
 11
19.18061353958257
 21
1010.417749654175
 31
0.0
  0
LINE
  5
67
330
1F
100
AcDbEntity
  8
0-0
  6
Continuous
 62
    92
370
    13
100
AcDbLine
 10
829.1806135395825
 20
-972.5822503458253
 30
0.0
 11
829.1806135395825
 21
1010.417749654175
 31
0.0
  0
LINE
  5
68
330
1F
100
AcDbEntity
  8
0-0
  6
JWW_DASHED1
 62
   120
370
     5
100
AcDbLine
 10
799.1806135395825
 20
-972.5822503458253
 30
0.0
 11
799.1806135395825
 21
1010.417749654175
 31
0.0
  0
LINE
  5
69
330
1F
100
AcDbEntity
  8
0-0
  6
Continuous
 62
    92
370
    13
100
AcDbLine
 10
829.1806135395825
 20
-972.5822503458253
 30
0.0
 11
19.18061353958257
 21
-972.5822503458253
 31
0.0
  0
LINE
  5
6A
330
1F
100
AcDbEntity
  8
0-0
  6
Continuous
 62
    92
370
    13
100
AcDbLine
 10
829.1806135395825
 20
1010.417749654175
 30
0.0
 11
19.18061353958257
 21
1010.417749654175
 31
0.0
  0
LINE
  5
6B
330
1F
100
AcDbEntity
  8
0-0
  6
JWW_DASHED1
 62
   120
370
     5
100
AcDbLine
 10
799.1806135395834
 20
-977.5822503458257
 30
0.0
 11
799.1806135395834
 21
1018.417749654174
 31
0.0
  0
LINE
  5
6C
330
1F
100
AcDbEntity
  8
0-0
  6
JWW_DASHED1
 62
   120
370
     5
100
AcDbLine
 10
829.1806135395834
 20
-977.5822503458257
 30
0.0
 11
829.1806135395834
 21
1018.417749654174
 31
0.0
  0
LINE
  5
6D
330
1F
100
AcDbEntity
  8
0-0
  6
JWW_DASHED1
 62
   120
370
     5
100
AcDbLine
 10
-790.8193864604166
 20
-977.5822503458257
 30
0.0
 11
-790.8193864604166
 21
1018.417749654174
 31
0.0
  0
LINE
  5
6E
330
1F
100
AcDbEntity
  8
0-0
  6
JWW_DASHED1
 62
   120
370
     5
100
AcDbLine
 10
-760.8193864604166
 20
-977.5822503458257
 30
0.0
 11
-760.8193864604166
 21
1018.417749654174
 31
0.0
  0
LINE
  5
6F
330
1F
100
AcDbEntity
  8
0-0
  6
Continuous
 62
    92
370
    13
100
AcDbLine
 10
-680.8193864604194
 20
-822.5822503458251
 30
0.0
 11
-90.81938646041715
 21
-822.5822503458251
 31
0.0
  0
LINE
  5
70
330
1F
100
AcDbEntity
  8
0-0
  6
Continuous
 62
    92
370
    13
100
AcDbLine
 10
129.1806135395806
 20
-822.5822503458251
 30
0.0
 11
719.1806135395829
 21
-822.5822503458251
 31
0.0
  0
LINE
  5
71
330
1F
100
AcDbEntity
  8
0-0
  6
Continuous
 62
    92
370
    13
100
AcDbLine
 10
-680.8193864604194
 20
875.4177496541746
 30
0.0
 11
-90.81938646041715
 21
875.4177496541746
 31
0.0
  0
LINE
  5
72
330
1F
100
AcDbEntity
  8
0-0
  6
Continuous
 62
    92
370
    13
100
AcDbLine
 10
129.1806135395806
 20
875.4177496541746
 30
0.0
 11
719.1806135395829
 21
875.4177496541746
 31
0.0
  0
LINE
  5
73
330
1F
100
AcDbEntity
  8
0-0
  6
Continuous
 62
    92
370
    13
100
AcDbLine
 10
-430.8193864604182
 20
875.4177496541746
 30
0.0
 11
-430.8193864604182
 21
-822.5822503458251
 31
0.0
  0
LINE
  5
74
330
1F
100
AcDbEntity
  8
0-0
  6
Continuous
 62
    92
370
    13
100
AcDbLine
 10
-340.8193864604183
 20
875.4177496541746
 30
0.0
 11
-340.8193864604183
 21
-822.5822503458251
 31
0.0
  0
LINE
  5
75
330
1F
100
AcDbEntity
  8
0-0
  6
Continuous
 62
    92
370
    13
100
AcDbLine
 10
379.1806135395817
 20
875.4177496541746
 30
0.0
 11
379.1806135395817
 21
-822.5822503458251
 31
0.0
  0
LINE
  5
76
330
1F
100
AcDbEntity
  8
0-0
  6
Continuous
 62
    92
370
    13
100
AcDbLine
 10
469.1806135395817
 20
875.4177496541746
 30
0.0
 11
469.1806135395817
 21
-822.5822503458251
 31
0.0
  0
LINE
  5
77
330
1F
100
AcDbEntity
  8
0-0
  6
JWW_DASHED1
 62
   120
370
     5
100
AcDbLine
 10
-94.88411240797541
 20
-822.5822503458168
 30
0.0
 11
-90.81938646042397
 21
-818.5175243982668
 31
0.0
  0
LINE
  5
78
330
1F
100
AcDbEntity
  8
0-0
  6
JWW_DASHED1
 62
   120
370
     5
100
AcDbLine
 10
-101.9551802198506
 20
-822.5822503458268
 30
0.0
 11
-90.81938646041544
 21
-811.4464565863901
 31
0.0
  0
LINE
  5
79
330
1F
100
AcDbEntity
  8
0-0
  6
JWW_DASHED1
 62
   120
370
     5
100
AcDbLine
 10
-109.0262480316968
 20
-822.5822503458063
 30
0.0
 11
-90.81938646043761
 21
-804.3753887745452
 31
0.0
  0
LINE
  5
7A
330
1F
100
AcDbEntity
  8
0-0
  6
JWW_DASHED1
 62
   120
370
     5
100
AcDbLine
 10
-116.0973158435737
 20
-822.5822503458165
 30
0.0
 11
-90.81938646042738
 21
-797.3043209626685
 31
0.0
  0
LINE
  5
7B
330
1F
100
AcDbEntity
  8
0-0
  6
JWW_DASHED1
 62
   120
370
     5
100
AcDbLine
 10
-123.1683836554489
 20
-822.5822503458246
 30
0.0
 11
-90.81938646041715
 21
-790.2332531507922
 31
0.0
  0
LINE
  5
7C
330
1F
100
AcDbEntity
  8
0-0
  6
JWW_DASHED1
 62
   120
370
     5
100
AcDbLine
 10
-130.2394514672968
 20
-822.5822503458054
 30
0.0
 11
-90.81938646043761
 21
-783.1621853389471
 31
0.0
  0
LINE
  5
7D
330
1F
100
AcDbEntity
  8
0-0
  6
JWW_DASHED1
 62
   120
370
     5
100
AcDbLine
 10
-137.3105192791737
 20
-822.5822503458156
 30
0.0
 11
-90.81938646042738
 21
-776.0911175270702
 31
0.0
  0
LINE
  5
7E
330
1F
100
AcDbEntity
  8
0-0
  6
JWW_DASHED1
 62
   120
370
     5
100
AcDbLine
 10
-144.3815870910472
 20
-822.5822503458222
 30
0.0
 11
-90.81938646041885
 21
-769.0200497151941
 31
0.0
  0
LINE
  5
7F
330
1F
100
AcDbEntity
  8
0-0
  6
JWW_DASHED1
 62
   120
370
     5
100
AcDbLine
 10
-151.4526549029122
 20
-822.5822503458202
 30
0.0
 11
-90.81938646042397
 21
-761.9489819033334
 31
0.0
  0
LINE
  5
80
330
1F
100
AcDbEntity
  8
0-0
  6
JWW_DASHED1
 62
   120
370
     5
100
AcDbLine
 10
-158.5237227147737
 20
-822.5822503458148
 30
0.0
 11
-90.81938646043079
 21
-754.8779140914721
 31
0.0
  0
LINE
  5
81
330
1F
100
AcDbEntity
  8
0-0
  6
JWW_DASHED1
 62
   120
370
     5
100
AcDbLine
 10
-165.5947905266455
 20
-822.5822503458202
 30
0.0
 11
-90.81938646042056
 21
-747.8068462795953
 31
0.0
  0
LINE
  5
82
330
1F
100
AcDbEntity
  8
0-0
  6
JWW_DASHED1
 62
   120
370
     5
100
AcDbLine
 10
-172.6658583385105
 20
-822.5822503458195
 30
0.0
 11
-90.81938646042738
 21
-740.7357784677354
 31
0.0
  0
LINE
  5
83
330
1F
100
AcDbEntity
  8
0-0
  6
JWW_DASHED1
 62
   120
370
     5
100
AcDbLine
 10
-179.736926150372
 20
-822.5822503458137
 30
0.0
 11
-90.81938646043079
 21
-733.6647106558736
 31
0.0
  0
LINE
  5
84
330
1F
100
AcDbEntity
  8
0-0
  6
JWW_DASHED1
 62
   120
370
     5
100
AcDbLine
 10
-186.8079939622421
 20
-822.5822503458178
 30
0.0
 11
-90.81938646042227
 21
-726.593642843997
 31
0.0
  0
LINE
  5
85
330
1F
100
AcDbEntity
  8
0-0
  6
JWW_DASHED1
 62
   120
370
     5
100
AcDbLine
 10
-193.8790617741105
 20
-822.5822503458185
 30
0.0
 11
-90.81938646042909
 21
-719.5225750321372
 31
0.0
  0
LINE
  5
86
330
1F
100
AcDbEntity
  8
0-0
  6
JWW_DASHED1
 62
   120
370
     5
100
AcDbLine
 10
-200.9501295859703
 20
-822.5822503458131
 30
0.0
 11
-90.8193864604342
 21
-712.4515072202753
 31
0.0
  0
LINE
  5
87
330
1F
100
AcDbEntity
  8
0-0
  6
JWW_DASHED1
 62
   120
370
     5
100
AcDbLine
 10
-208.0211973978404
 20
-822.5822503458159
 30
0.0
 11
-90.81938646042397
 21
-705.3804394083987
 31
0.0
  0
LINE
  5
88
330
1F
100
AcDbEntity
  8
0-0
  6
JWW_DASHED1
 62
   120
370
     5
100
AcDbLine
 10
-215.0922652097105
 20
-822.582250345818
 30
0.0
 11
-90.81938646043079
 21
-698.3093715965389
 31
0.0
  0
LINE
  5
89
330
1F
100
AcDbEntity
  8
0-0
  6
JWW_DASHED1
 62
   120
370
     5
100
AcDbLine
 10
-222.1633330215703
 20
-822.5822503458116
 30
0.0
 11
-90.8193864604342
 21
-691.2383037846771
 31
0.0
  0
LINE
  5
8A
330
1F
100
AcDbEntity
  8
0-0
  6
JWW_DASHED1
 62
   120
370
     5
100
AcDbLine
 10
-229.2344008334472
 20
-822.5822503458219
 30
0.0
 11
-90.81938646042397
 21
-684.1672359728002
 31
0.0
  0
LINE
  5
8B
330
1F
100
AcDbEntity
  8
0-0
  6
JWW_DASHED1
 62
   120
370
     5
100
AcDbLine
 10
-236.3054686453139
 20
-822.5822503458234
 30
0.0
 11
-90.81938646041715
 21
-677.0961681609251
 31
0.0
  0
LINE
  5
8C
330
1F
100
AcDbEntity
  8
0-0
  6
JWW_DASHED1
 62
   120
370
     5
100
AcDbLine
 10
-243.3765364571687
 20
-822.582250345811
 30
0.0
 11
-90.81938646043761
 21
-670.0251003490789
 31
0.0
  0
LINE
  5
8D
330
1F
100
AcDbEntity
  8
0-0
  6
JWW_DASHED1
 62
   120
370
     5
100
AcDbLine
 10
-250.4476042690456
 20
-822.5822503458212
 30
0.0
 11
-90.81938646042738
 21
-662.9540325372021
 31
0.0
  0
LINE
  5
8E
330
1F
100
AcDbEntity
  8
0-0
  6
JWW_DASHED1
 62
   120
370
     5
100
AcDbLine
 10
-257.5186720809122
 20
-822.582250345821
 30
0.0
 11
-90.81938646041885
 21
-655.8829647253269
 31
0.0
  0
LINE
  5
8F
330
1F
100
AcDbEntity
  8
0-0
  6
JWW_DASHED1
 62
   120
370
     5
100
AcDbLine
 10
-264.589739892784
 20
-822.5822503458256
 30
0.0
 11
-90.81938646042397
 21
-648.8118969134665
 31
0.0
  0
LINE
  5
90
330
1F
100
AcDbEntity
  8
0-0
  6
JWW_DASHED1
 62
   120
370
     5
100
AcDbLine
 10
-271.6608077046455
 20
-822.5822503458202
 30
0.0
 11
-90.81938646042909
 21
-641.7408291016038
 31
0.0
  0
LINE
  5
91
330
1F
100
AcDbEntity
  8
0-0
  6
JWW_DASHED1
 62
   120
370
     5
100
AcDbLine
 10
-278.7318755164525
 20
-822.5822503458146
 30
0.0
 11
-90.81938646042397
 21
-634.6697612897863
 31
0.0
  0
LINE
  5
92
330
1F
100
AcDbEntity
  8
0-0
  6
JWW_DASHED1
 62
   120
370
     5
100
AcDbLine
 10
-285.8029433283243
 20
-822.582250345821
 30
0.0
 11
-90.81938646043079
 21
-627.5986934779272
 31
0.0
  0
LINE
  5
93
330
1F
100
AcDbEntity
  8
0-0
  6
JWW_DASHED1
 62
   120
370
     5
100
AcDbLine
 10
-292.8740111401859
 20
-822.5822503458154
 30
0.0
 11
-90.8193864604342
 21
-620.5276256660644
 31
0.0
  0
LINE
  5
94
330
1F
100
AcDbEntity
  8
0-0
  6
JWW_DASHED1
 62
   120
370
     5
100
AcDbLine
 10
-299.9450789520628
 20
-822.5822503458253
 30
0.0
 11
-90.81938646042397
 21
-613.4565578541877
 31
0.0
  0
LINE
  5
95
330
1F
100
AcDbEntity
  8
0-0
  6
JWW_DASHED1
 62
   120
370
     5
100
AcDbLine
 10
-307.016146763926
 20
-822.5822503458219
 30
0.0
 11
-90.81938646041715
 21
-606.3854900423133
 31
0.0
  0
LINE
  5
96
330
1F
100
AcDbEntity
  8
0-0
  6
JWW_DASHED1
 62
   120
370
     5
100
AcDbLine
 10
-314.0872145757842
 20
-822.5822503458141
 30
0.0
 11
-90.81938646043591
 21
-599.3144222304661
 31
0.0
  0
LINE
  5
97
330
1F
100
AcDbEntity
  8
0-0
  6
JWW_DASHED1
 62
   120
370
     5
100
AcDbLine
 10
-321.1582823876611
 20
-822.5822503458246
 30
0.0
 11
-90.81938646042738
 21
-592.2433544185897
 31
0.0
  0
LINE
  5
98
330
1F
100
AcDbEntity
  8
0-0
  6
JWW_DASHED1
 62
   120
370
     5
100
AcDbLine
 10
-328.2293501995226
 20
-822.58225034582
 30
0.0
 11
-90.81938646041885
 21
-585.172286606715
 31
0.0
  0
LINE
  5
99
330
1F
100
AcDbEntity
  8
0-0
  6
JWW_DASHED1
 62
   120
370
     5
100
AcDbLine
 10
-335.3004180113842
 20
-822.5822503458133
 30
0.0
 11
-90.81938646043761
 21
-578.1012187948678
 31
0.0
  0
LINE
  5
9A
330
1F
100
AcDbEntity
  8
0-0
  6
JWW_DASHED1
 62
   120
370
     5
100
AcDbLine
 10
-340.81938646042
 20
-821.0301509829831
 30
0.0
 11
-90.81938646042738
 21
-571.0301509829911
 31
0.0
  0
LINE
  5
9B
330
1F
100
AcDbEntity
  8
0-0
  6
JWW_DASHED1
 62
   120
370
     5
100
AcDbLine
 10
-340.8193864604251
 20
-813.959083171122
 30
0.0
 11
-90.81938646042056
 21
-563.959083171117
 31
0.0
  0
LINE
  5
9C
330
1F
100
AcDbEntity
  8
0-0
  6
JWW_DASHED1
 62
   120
370
     5
100
AcDbLine
 10
-340.8193864604149
 20
-806.8880153592453
 30
0.0
 11
-90.81938646042738
 21
-556.8880153592563
 31
0.0
  0
LINE
  5
9D
330
1F
100
AcDbEntity
  8
0-0
  6
JWW_DASHED1
 62
   120
370
     5
100
AcDbLine
 10
-340.8193864604217
 20
-799.8169475473845
 30
0.0
 11
-90.81938646043079
 21
-549.816947547393
 31
0.0
  0
LINE
  5
9E
330
1F
100
AcDbEntity
  8
0-0
  6
JWW_DASHED1
 62
   120
370
     5
100
AcDbLine
 10
-340.8193864604285
 20
-792.7458797355239
 30
0.0
 11
-90.81938646042056
 21
-542.7458797355164
 31
0.0
  0
LINE
  5
9F
330
1F
100
AcDbEntity
  8
0-0
  6
JWW_DASHED1
 62
   120
370
     5
100
AcDbLine
 10
-340.8193864604183
 20
-785.6748119236474
 30
0.0
 11
-90.81938646042738
 21
-535.6748119236581
 31
0.0
  0
LINE
  5
A0
330
1F
100
AcDbEntity
  8
0-0
  6
JWW_DASHED1
 62
   120
370
     5
100
AcDbLine
 10
-340.8193864604234
 20
-778.6037441117859
 30
0.0
 11
-90.81938646043079
 21
-528.6037441117948
 31
0.0
  0
LINE
  5
A1
330
1F
100
AcDbEntity
  8
0-0
  6
JWW_DASHED1
 62
   120
370
     5
100
AcDbLine
 10
-340.8193864604285
 20
-771.5326762999256
 30
0.0
 11
-90.81938646042056
 21
-521.532676299918
 31
0.0
  0
LINE
  5
A2
330
1F
100
AcDbEntity
  8
0-0
  6
JWW_DASHED1
 62
   120
370
     5
100
AcDbLine
 10
-340.81938646042
 20
-764.4616084880495
 30
0.0
 11
-90.81938646043079
 21
-514.4616084880599
 31
0.0
  0
LINE
  5
A3
330
1F
100
AcDbEntity
  8
0-0
  6
JWW_DASHED1
 62
   120
370
     5
100
AcDbLine
 10
-340.8193864604251
 20
-757.3905406761877
 30
0.0
 11
-90.8193864604342
 21
-507.3905406761964
 31
0.0
  0
LINE
  5
A4
330
1F
100
AcDbEntity
  8
0-0
  6
JWW_DASHED1
 62
   120
370
     5
100
AcDbLine
 10
-340.8193864604302
 20
-750.319472864327
 30
0.0
 11
-90.81938646042397
 21
-500.3194728643197
 31
0.0
  0
LINE
  5
A5
330
1F
100
AcDbEntity
  8
0-0
  6
JWW_DASHED1
 62
   120
370
     5
100
AcDbLine
 10
-340.8193864604217
 20
-743.2484050524512
 30
0.0
 11
-90.81938646041715
 21
-493.248405052446
 31
0.0
  0
LINE
  5
A6
330
1F
100
AcDbEntity
  8
0-0
  6
JWW_DASHED1
 62
   120
370
     5
100
AcDbLine
 10
-340.8193864604268
 20
-736.1773372405896
 30
0.0
 11
-90.8193864604342
 21
-486.1773372405983
 31
0.0
  0
LINE
  5
A7
330
1F
100
AcDbEntity
  8
0-0
  6
JWW_DASHED1
 62
   120
370
     5
100
AcDbLine
 10
-434.2953673775226
 20
-822.5822503458193
 30
0.0
 11
-430.8193864604233
 21
-819.1062694287202
 31
0.0
  0
LINE
  5
A8
330
1F
100
AcDbEntity
  8
0-0
  6
JWW_DASHED1
 62
   120
370
     5
100
AcDbLine
 10
-340.8193864604166
 20
-729.1062694287127
 30
0.0
 11
-90.81938646042397
 21
-479.1062694287214
 31
0.0
  0
LINE
  5
A9
330
1F
100
AcDbEntity
  8
0-0
  6
JWW_DASHED1
 62
   120
370
     5
100
AcDbLine
 10
-441.3664351893995
 20
-822.5822503458287
 30
0.0
 11
-430.8193864604148
 21
-812.035201616844
 31
0.0
  0
LINE
  5
AA
330
1F
100
AcDbEntity
  8
0-0
  6
JWW_DASHED1
 62
   120
370
     5
100
AcDbLine
 10
-340.8193864604234
 20
-722.0352016168529
 30
0.0
 11
-90.81938646041715
 21
-472.0352016168479
 31
0.0
  0
LINE
  5
AB
330
1F
100
AcDbEntity
  8
0-0
  6
JWW_DASHED1
 62
   120
370
     5
100
AcDbLine
 10
-448.4375030012457
 20
-822.5822503458082
 30
0.0
 11
-430.8193864604353
 21
-804.9641338049986
 31
0.0
  0
LINE
  5
AC
330
1F
100
AcDbEntity
  8
0-0
  6
JWW_DASHED1
 62
   120
370
     5
100
AcDbLine
 10
-340.8193864604285
 20
-714.9641338049913
 30
0.0
 11
-90.81938646043761
 21
-464.964133805
 31
0.0
  0
LINE
  5
AD
330
1F
100
AcDbEntity
  8
0-0
  6
JWW_DASHED1
 62
   120
370
     5
100
AcDbLine
 10
-455.5085708131226
 20
-822.5822503458182
 30
0.0
 11
-430.8193864604251
 21
-797.8930659931219
 31
0.0
  0
LINE
  5
AE
330
1F
100
AcDbEntity
  8
0-0
  6
JWW_DASHED1
 62
   120
370
     5
100
AcDbLine
 10
-340.8193864604183
 20
-707.8930659931146
 30
0.0
 11
-90.81938646042738
 21
-457.8930659931231
 31
0.0
  0
LINE
  5
AF
330
1F
100
AcDbEntity
  8
0-0
  6
JWW_DASHED1
 62
   120
370
     5
100
AcDbLine
 10
-462.5796386249961
 20
-822.5822503458268
 30
0.0
 11
-430.8193864604165
 21
-790.8219981812457
 31
0.0
  0
LINE
  5
B0
330
1F
100
AcDbEntity
  8
0-0
  6
JWW_DASHED1
 62
   120
370
     5
100
AcDbLine
 10
-340.8193864604251
 20
-700.8219981812548
 30
0.0
 11
-90.81938646042056
 21
-450.82199818125
 31
0.0
  0
LINE
  5
B1
330
1F
100
AcDbEntity
  8
0-0
  6
JWW_DASHED1
 62
   120
370
     5
100
AcDbLine
 10
-469.6507064368594
 20
-822.5822503458229
 30
0.0
 11
-430.8193864604216
 21
-783.7509303693847
 31
0.0
  0
LINE
  5
B2
330
1F
100
AcDbEntity
  8
0-0
  6
JWW_DASHED1
 62
   120
370
     5
100
AcDbLine
 10
-340.8193864604149
 20
-693.7509303693784
 30
0.0
 11
-90.81938646042568
 21
-443.7509303693889
 31
0.0
  0
LINE
  5
B3
330
1F
100
AcDbEntity
  8
0-0
  6
JWW_DASHED1
 62
   120
370
     5
100
AcDbLine
 10
-476.7217742487209
 20
-822.5822503458176
 30
0.0
 11
-430.8193864604285
 21
-776.6798625575238
 31
0.0
  0
LINE
  5
B4
330
1F
100
AcDbEntity
  8
0-0
  6
JWW_DASHED1
 62
   120
370
     5
100
AcDbLine
 10
-340.81938646042
 20
-686.6798625575163
 30
0.0
 11
-90.81938646042738
 21
-436.6798625575248
 31
0.0
  0
LINE
  5
B5
330
1F
100
AcDbEntity
  8
0-0
  6
JWW_DASHED1
 62
   120
370
     5
100
AcDbLine
 10
-483.7928420605945
 20
-822.5822503458239
 30
0.0
 11
-430.8193864604182
 21
-769.6087947456474
 31
0.0
  0
LINE
  5
B6
330
1F
100
AcDbEntity
  8
0-0
  6
JWW_DASHED1
 62
   120
370
     5
100
AcDbLine
 10
-340.8193864604268
 20
-679.608794745657
 30
0.0
 11
-90.81938646042227
 21
-429.6087947456522
 31
0.0
  0
LINE
  5
B7
330
1F
100
AcDbEntity
  8
0-0
  6
JWW_DASHED1
 62
   120
370
     5
100
AcDbLine
 10
-490.8639098724594
 20
-822.5822503458219
 30
0.0
 11
-430.8193864604251
 21
-762.5377269337873
 31
0.0
  0
LINE
  5
B8
330
1F
100
AcDbEntity
  8
0-0
  6
JWW_DASHED1
 62
   120
370
     5
100
AcDbLine
 10
-340.8193864604183
 20
-672.5377269337803
 30
0.0
 11
-90.81938646042738
 21
-422.5377269337911
 31
0.0
  0
LINE
  5
B9
330
1F
100
AcDbEntity
  8
0-0
  6
JWW_DASHED1
 62
   120
370
     5
100
AcDbLine
 10
-497.9349776843193
 20
-822.5822503458163
 30
0.0
 11
-430.8193864604285
 21
-755.4666591219255
 31
0.0
  0
LINE
  5
BA
330
1F
100
AcDbEntity
  8
0-0
  6
JWW_DASHED1
 62
   120
370
     5
100
AcDbLine
 10
-340.8193864604217
 20
-665.4666591219183
 30
0.0
 11
-90.81938646043079
 21
-415.4666591219265
 31
0.0
  0
LINE
  5
BB
330
1F
100
AcDbEntity
  8
0-0
  6
JWW_DASHED1
 62
   120
370
     5
100
AcDbLine
 10
-505.0060454961962
 20
-822.5822503458268
 30
0.0
 11
-430.8193864604182
 21
-748.3955913100489
 31
0.0
  0
LINE
  5
BC
330
1F
100
AcDbEntity
  8
0-0
  6
JWW_DASHED1
 62
   120
370
     5
100
AcDbLine
 10
-340.8193864604285
 20
-658.3955913100572
 30
0.0
 11
-90.81938646042056
 21
-408.3955913100496
 31
0.0
  0
LINE
  5
BD
330
1F
100
AcDbEntity
  8
0-0
  6
JWW_DASHED1
 62
   120
370
     5
100
AcDbLine
 10
-512.0771133080697
 20
-822.5822503458317
 30
0.0
 11
-430.8193864604097
 21
-741.324523498173
 31
0.0
  0
LINE
  5
BE
330
1F
100
AcDbEntity
  8
0-0
  6
JWW_DASHED1
 62
   120
370
     5
100
AcDbLine
 10
-340.8193864604183
 20
-651.3245234981822
 30
0.0
 11
-90.81938646043079
 21
-401.3245234981932
 31
0.0
  0
LINE
  5
BF
330
1F
100
AcDbEntity
  8
0-0
  6
JWW_DASHED1
 62
   120
370
     5
100
AcDbLine
 10
-519.1481811198886
 20
-822.5822503458132
 30
0.0
 11
-430.8193864604336
 21
-734.2534556863568
 31
0.0
  0
LINE
  5
C0
330
1F
100
AcDbEntity
  8
0-0
  6
JWW_DASHED1
 62
   120
370
     5
100
AcDbLine
 10
-340.8193864604251
 20
-644.2534556863492
 30
0.0
 11
-90.8193864604342
 21
-394.2534556863576
 31
0.0
  0
LINE
  5
C1
330
1F
100
AcDbEntity
  8
0-0
  6
JWW_DASHED1
 62
   120
370
     5
100
AcDbLine
 10
-526.2192489317382
 20
-822.5822503458219
 30
0.0
 11
-430.8193864604251
 21
-727.1823878745096
 31
0.0
  0
LINE
  5
C2
330
1F
100
AcDbEntity
  8
0-0
  6
JWW_DASHED1
 62
   120
370
     5
100
AcDbLine
 10
-340.8193864604183
 20
-637.1823878745021
 30
0.0
 11
-90.81938646042568
 21
-387.1823878745106
 31
0.0
  0
LINE
  5
C3
330
1F
100
AcDbEntity
  8
0-0
  6
JWW_DASHED1
 62
   120
370
     5
100
AcDbLine
 10
-533.2903167436083
 20
-822.5822503458253
 30
0.0
 11
-430.8193864604165
 21
-720.1113200626339
 31
0.0
  0
LINE
  5
C4
330
1F
100
AcDbEntity
  8
0-0
  6
JWW_DASHED1
 62
   120
370
     5
100
AcDbLine
 10
-340.8193864604251
 20
-630.1113200626429
 30
0.0
 11
-90.81938646042056
 21
-380.1113200626384
 31
0.0
  0
LINE
  5
C5
330
1F
100
AcDbEntity
  8
0-0
  6
JWW_DASHED1
 62
   120
370
     5
100
AcDbLine
 10
-540.361384555475
 20
-822.5822503458261
 30
0.0
 11
-430.8193864604216
 21
-713.040252250773
 31
0.0
  0
LINE
  5
C6
330
1F
100
AcDbEntity
  8
0-0
  6
JWW_DASHED1
 62
   120
370
     5
100
AcDbLine
 10
-340.8193864604149
 20
-623.0402522507665
 30
0.0
 11
-90.81938646042568
 21
-373.0402522507768
 31
0.0
  0
LINE
  5
C7
330
1F
100
AcDbEntity
  8
0-0
  6
JWW_DASHED1
 62
   120
370
     5
100
AcDbLine
 10
-547.4324523673365
 20
-822.5822503458205
 30
0.0
 11
-430.8193864604268
 21
-705.969184438911
 31
0.0
  0
LINE
  5
C8
330
1F
100
AcDbEntity
  8
0-0
  6
JWW_DASHED1
 62
   120
370
     5
100
AcDbLine
 10
-340.81938646042
 20
-615.9691844389038
 30
0.0
 11
-90.81938646042738
 21
-365.9691844389118
 31
0.0
  0
LINE
  5
C9
330
1F
100
AcDbEntity
  8
0-0
  6
JWW_DASHED1
 62
   120
370
     5
100
AcDbLine
 10
-554.5035201792049
 20
-822.5822503458227
 30
0.0
 11
-430.8193864604182
 21
-698.8981166270358
 31
0.0
  0
LINE
  5
CA
330
1F
100
AcDbEntity
  8
0-0
  6
JWW_DASHED1
 62
   120
370
     5
100
AcDbLine
 10
-340.8193864604268
 20
-608.8981166270448
 30
0.0
 11
-90.81938646042227
 21
-358.8981166270401
 31
0.0
  0
LINE
  5
CB
330
1F
100
AcDbEntity
  8
0-0
  6
JWW_DASHED1
 62
   120
370
     5
100
AcDbLine
 10
-561.574587991075
 20
-822.5822503458251
 30
0.0
 11
-430.8193864604251
 21
-691.8270488151752
 31
0.0
  0
LINE
  5
CC
330
1F
100
AcDbEntity
  8
0-0
  6
JWW_DASHED1
 62
   120
370
     5
100
AcDbLine
 10
-340.8193864604183
 20
-601.8270488151684
 30
0.0
 11
-90.81938646042738
 21
-351.8270488151794
 31
0.0
  0
LINE
  5
CD
330
1F
100
AcDbEntity
  8
0-0
  6
JWW_DASHED1
 62
   120
370
     5
100
AcDbLine
 10
-568.6456558029348
 20
-822.5822503458193
 30
0.0
 11
-430.8193864604285
 21
-684.7559810033127
 31
0.0
  0
LINE
  5
CE
330
1F
100
AcDbEntity
  8
0-0
  6
JWW_DASHED1
 62
   120
370
     5
100
AcDbLine
 10
-340.8193864604217
 20
-594.7559810033055
 30
0.0
 11
-90.81938646043079
 21
-344.755981003314
 31
0.0
  0
LINE
  5
CF
330
1F
100
AcDbEntity
  8
0-0
  6
JWW_DASHED1
 62
   120
370
     5
100
AcDbLine
 10
-575.7167236148032
 20
-822.582250345821
 30
0.0
 11
-430.8193864604182
 21
-677.6849131914363
 31
0.0
  0
LINE
  5
D0
330
1F
100
AcDbEntity
  8
0-0
  6
JWW_DASHED1
 62
   120
370
     5
100
AcDbLine
 10
-340.8193864604268
 20
-587.6849131914448
 30
0.0
 11
-90.81938646042056
 21
-337.6849131914375
 31
0.0
  0
LINE
  5
D1
330
1F
100
AcDbEntity
  8
0-0
  6
JWW_DASHED1
 62
   120
370
     5
100
AcDbLine
 10
-582.7877914266784
 20
-822.5822503458303
 30
0.0
 11
-430.8193864604097
 21
-670.6138453795611
 31
0.0
  0
LINE
  5
D2
330
1F
100
AcDbEntity
  8
0-0
  6
JWW_DASHED1
 62
   120
370
     5
100
AcDbLine
 10
-340.8193864604183
 20
-580.6138453795702
 30
0.0
 11
-90.81938646043079
 21
-330.6138453795811
 31
0.0
  0
LINE
  5
D3
330
1F
100
AcDbEntity
  8
0-0
  6
JWW_DASHED1
 62
   120
370
     5
100
AcDbLine
 10
-589.8588592385348
 20
-822.5822503458188
 30
0.0
 11
-430.8193864604302
 21
-663.5427775677147
 31
0.0
  0
LINE
  5
D4
330
1F
100
AcDbEntity
  8
0-0
  6
JWW_DASHED1
 62
   120
370
     5
100
AcDbLine
 10
-340.8193864604234
 20
-573.5427775677072
 30
0.0
 11
-90.81938646043079
 21
-323.5427775677152
 31
0.0
  0
LINE
  5
D5
330
1F
100
AcDbEntity
  8
0-0
  6
JWW_DASHED1
 62
   120
370
     5
100
AcDbLine
 10
-596.9299270504117
 20
-822.5822503458287
 30
0.0
 11
-430.8193864604199
 21
-656.4717097558378
 31
0.0
  0
LINE
  5
D6
330
1F
100
AcDbEntity
  8
0-0
  6
JWW_DASHED1
 62
   120
370
     5
100
AcDbLine
 10
-340.8193864604285
 20
-566.4717097558463
 30
0.0
 11
-90.81938646042056
 21
-316.4717097558392
 31
0.0
  0
LINE
  5
D7
330
1F
100
AcDbEntity
  8
0-0
  6
JWW_DASHED1
 62
   120
370
     5
100
AcDbLine
 10
-604.0009948622767
 20
-822.582250345828
 30
0.0
 11
-430.8193864604114
 21
-649.400641943963
 31
0.0
  0
LINE
  5
D8
330
1F
100
AcDbEntity
  8
0-0
  6
JWW_DASHED1
 62
   120
370
     5
100
AcDbLine
 10
-340.8193864604217
 20
-559.4006419439721
 30
0.0
 11
-90.81938646043079
 21
-309.4006419439827
 31
0.0
  0
LINE
  5
D9
330
1F
100
AcDbEntity
  8
0-0
  6
JWW_DASHED1
 62
   120
370
     5
100
AcDbLine
 10
-611.0720626741331
 20
-822.5822503458176
 30
0.0
 11
-430.8193864604319
 21
-642.3295741321164
 31
0.0
  0
LINE
  5
DA
330
1F
100
AcDbEntity
  8
0-0
  6
JWW_DASHED1
 62
   120
370
     5
100
AcDbLine
 10
-340.8193864604251
 20
-552.3295741321089
 30
0.0
 11
-90.8193864604325
 21
-302.3295741321169
 31
0.0
  0
LINE
  5
DB
330
1F
100
AcDbEntity
  8
0-0
  6
JWW_DASHED1
 62
   120
370
     5
100
AcDbLine
 10
-618.14313048601
 20
-822.582250345828
 30
0.0
 11
-430.8193864604216
 21
-635.2585063202397
 31
0.0
  0
LINE
  5
DC
330
1F
100
AcDbEntity
  8
0-0
  6
JWW_DASHED1
 62
   120
370
     5
100
AcDbLine
 10
-340.8193864604302
 20
-545.258506320248
 30
0.0
 11
-90.81938646042397
 21
-295.2585063202409
 31
0.0
  0
LINE
  5
DD
330
1F
100
AcDbEntity
  8
0-0
  6
JWW_DASHED1
 62
   120
370
     5
100
AcDbLine
 10
-625.214198297875
 20
-822.5822503458256
 30
0.0
 11
-430.8193864604148
 21
-628.1874385083647
 31
0.0
  0
LINE
  5
DE
330
1F
100
AcDbEntity
  8
0-0
  6
JWW_DASHED1
 62
   120
370
     5
100
AcDbLine
 10
-340.8193864604234
 20
-538.1874385083738
 30
0.0
 11
-90.81938646041715
 21
-288.1874385083691
 31
0.0
  0
LINE
  5
DF
330
1F
100
AcDbEntity
  8
0-0
  6
JWW_DASHED1
 62
   120
370
     5
100
AcDbLine
 10
-632.2852661097331
 20
-822.5822503458168
 30
0.0
 11
-430.8193864604336
 21
-621.1163706965181
 31
0.0
  0
LINE
  5
E0
330
1F
100
AcDbEntity
  8
0-0
  6
JWW_DASHED1
 62
   120
370
     5
100
AcDbLine
 10
-340.8193864604251
 20
-531.1163706965106
 30
0.0
 11
-90.8193864604342
 21
-281.1163706965191
 31
0.0
  0
LINE
  5
E1
330
1F
100
AcDbEntity
  8
0-0
  6
JWW_DASHED1
 62
   120
370
     5
100
AcDbLine
 10
-639.35633392161
 20
-822.582250345827
 30
0.0
 11
-430.8193864604233
 21
-614.0453028846414
 31
0.0
  0
LINE
  5
E2
330
1F
100
AcDbEntity
  8
0-0
  6
JWW_DASHED1
 62
   120
370
     5
100
AcDbLine
 10
-340.8193864604166
 20
-524.0453028846339
 30
0.0
 11
-90.81938646042397
 21
-274.0453028846426
 31
0.0
  0
LINE
  5
E3
330
1F
100
AcDbEntity
  8
0-0
  6
JWW_DASHED1
 62
   120
370
     5
100
AcDbLine
 10
-646.4274017334733
 20
-822.5822503458236
 30
0.0
 11
-430.8193864604148
 21
-606.9742350727666
 31
0.0
  0
LINE
  5
E4
330
1F
100
AcDbEntity
  8
0-0
  6
JWW_DASHED1
 62
   120
370
     5
100
AcDbLine
 10
-340.8193864604251
 20
-516.974235072776
 30
0.0
 11
-90.81938646042056
 21
-266.9742350727708
 31
0.0
  0
LINE
  5
E5
330
1F
100
AcDbEntity
  8
0-0
  6
JWW_DASHED1
 62
   120
370
     5
100
AcDbLine
 10
-653.4984695453314
 20
-822.5822503458161
 30
0.0
 11
-430.8193864604353
 21
-599.90316726092
 31
0.0
  0
LINE
  5
E6
330
1F
100
AcDbEntity
  8
0-0
  6
JWW_DASHED1
 62
   120
370
     5
100
AcDbLine
 10
-340.8193864604285
 20
-509.9031672609123
 30
0.0
 11
-90.81938646043761
 21
-259.9031672609212
 31
0.0
  0
LINE
  5
E7
330
1F
100
AcDbEntity
  8
0-0
  6
JWW_DASHED1
 62
   120
370
     5
100
AcDbLine
 10
-660.5695373572083
 20
-822.5822503458261
 30
0.0
 11
-430.8193864604251
 21
-592.8320994490433
 31
0.0
  0
LINE
  5
E8
330
1F
100
AcDbEntity
  8
0-0
  6
JWW_DASHED1
 62
   120
370
     5
100
AcDbLine
 10
-340.8193864604183
 20
-502.8320994490356
 30
0.0
 11
-90.81938646042738
 21
-252.8320994490443
 31
0.0
  0
LINE
  5
E9
330
1F
100
AcDbEntity
  8
0-0
  6
JWW_DASHED1
 62
   120
370
     5
100
AcDbLine
 10
-667.6406051690699
 20
-822.5822503458212
 30
0.0
 11
-430.8193864604182
 21
-585.7610316371686
 31
0.0
  0
LINE
  5
EA
330
1F
100
AcDbEntity
  8
0-0
  6
JWW_DASHED1
 62
   120
370
     5
100
AcDbLine
 10
-340.8193864604268
 20
-495.7610316371779
 30
0.0
 11
-90.81938646042227
 21
-245.7610316371725
 31
0.0
  0
LINE
  5
EB
330
1F
100
AcDbEntity
  8
0-0
  6
JWW_DASHED1
 62
   120
370
     5
100
AcDbLine
 10
-674.7116729809468
 20
-822.5822503458304
 30
0.0
 11
-430.8193864604233
 21
-578.6899638253078
 31
0.0
  0
LINE
  5
EC
330
1F
100
AcDbEntity
  8
0-0
  6
JWW_DASHED1
 62
   120
370
     5
100
AcDbLine
 10
-340.8193864604166
 20
-488.689963825301
 30
0.0
 11
-90.81938646042738
 21
-238.6899638253122
 31
0.0
  0
LINE
  5
ED
330
1F
100
AcDbEntity
  8
0-0
  6
JWW_DASHED1
 62
   120
370
     5
100
AcDbLine
 10
-680.8193864604194
 20
-821.6188960134359
 30
0.0
 11
-430.8193864604268
 21
-571.6188960134448
 31
0.0
  0
LINE
  5
EE
330
1F
100
AcDbEntity
  8
0-0
  6
JWW_DASHED1
 62
   120
370
     5
100
AcDbLine
 10
-340.81938646042
 20
-481.6188960134373
 30
0.0
 11
-90.81938646042738
 21
-231.618896013446
 31
0.0
  0
LINE
  5
EF
330
1F
100
AcDbEntity
  8
0-0
  6
JWW_DASHED1
 62
   120
370
     5
100
AcDbLine
 10
-680.8193864604245
 20
-814.5478282015748
 30
0.0
 11
-430.8193864604182
 21
-564.5478282015683
 31
0.0
  0
LINE
  5
F0
330
1F
100
AcDbEntity
  8
0-0
  6
JWW_DASHED1
 62
   120
370
     5
100
AcDbLine
 10
-340.8193864604251
 20
-474.5478282015766
 30
0.0
 11
-90.81938646041715
 21
-224.5478282015691
 31
0.0
  0
LINE
  5
F1
330
1F
100
AcDbEntity
  8
0-0
  6
JWW_DASHED1
 62
   120
370
     5
100
AcDbLine
 10
-680.8193864604143
 20
-807.4767603896987
 30
0.0
 11
-430.8193864604251
 21
-557.47676038971
 31
0.0
  0
LINE
  5
F2
330
1F
100
AcDbEntity
  8
0-0
  6
JWW_DASHED1
 62
   120
370
     5
100
AcDbLine
 10
-340.8193864604183
 20
-467.4767603897031
 30
0.0
 11
-90.81938646043079
 21
-217.4767603897143
 31
0.0
  0
LINE
  5
F3
330
1F
100
AcDbEntity
  8
0-0
  6
JWW_DASHED1
 62
   120
370
     5
100
AcDbLine
 10
-680.8193864604194
 20
-800.4056925778378
 30
0.0
 11
-430.8193864604285
 21
-550.4056925778465
 31
0.0
  0
LINE
  5
F4
330
1F
100
AcDbEntity
  8
0-0
  6
JWW_DASHED1
 62
   120
370
     5
100
AcDbLine
 10
-340.8193864604217
 20
-460.4056925778394
 30
0.0
 11
-90.81938646043079
 21
-210.4056925778477
 31
0.0
  0
LINE
  5
F5
330
1F
100
AcDbEntity
  8
0-0
  6
JWW_DASHED1
 62
   120
370
     5
100
AcDbLine
 10
-680.8193864604092
 20
-793.334624765961
 30
0.0
 11
-430.8193864604182
 21
-543.33462476597
 31
0.0
  0
LINE
  5
F6
330
1F
100
AcDbEntity
  8
0-0
  6
JWW_DASHED1
 62
   120
370
     5
100
AcDbLine
 10
-340.8193864604268
 20
-453.3346247659779
 30
0.0
 11
-90.81938646042056
 21
-203.3346247659708
 31
0.0
  0
LINE
  5
F7
330
1F
100
AcDbEntity
  8
0-0
  6
JWW_DASHED1
 62
   120
370
     5
100
AcDbLine
 10
-680.819386460416
 20
-786.2635569541006
 30
0.0
 11
-430.8193864604114
 21
-536.2635569540961
 31
0.0
  0
LINE
  5
F8
330
1F
100
AcDbEntity
  8
0-0
  6
JWW_DASHED1
 62
   120
370
     5
100
AcDbLine
 10
-340.8193864604217
 20
-446.2635569541052
 30
0.0
 11
-90.81938646043079
 21
-196.263556954116
 31
0.0
  0
LINE
  5
F9
330
1F
100
AcDbEntity
  8
0-0
  6
JWW_DASHED1
 62
   120
370
     5
100
AcDbLine
 10
-680.8193864604228
 20
-779.1924891422395
 30
0.0
 11
-430.8193864604302
 21
-529.1924891422482
 31
0.0
  0
LINE
  5
FA
330
1F
100
AcDbEntity
  8
0-0
  6
JWW_DASHED1
 62
   120
370
     5
100
AcDbLine
 10
-340.8193864604234
 20
-439.1924891422407
 30
0.0
 11
-90.81938646043079
 21
-189.1924891422494
 31
0.0
  0
LINE
  5
FB
330
1F
100
AcDbEntity
  8
0-0
  6
JWW_DASHED1
 62
   120
370
     5
100
AcDbLine
 10
-680.8193864604126
 20
-772.1214213303629
 30
0.0
 11
-430.8193864604216
 21
-522.1214213303715
 31
0.0
  0
LINE
  5
FC
330
1F
100
AcDbEntity
  8
0-0
  6
JWW_DASHED1
 62
   120
370
     5
100
AcDbLine
 10
-340.8193864604285
 20
-432.1214213303796
 30
0.0
 11
-90.81938646042227
 21
-182.1214213303725
 31
0.0
  0
LINE
  5
FD
330
1F
100
AcDbEntity
  8
0-0
  6
JWW_DASHED1
 62
   120
370
     5
100
AcDbLine
 10
-680.8193864604177
 20
-765.0503535185023
 30
0.0
 11
-430.8193864604131
 21
-515.0503535184978
 31
0.0
  0
LINE
  5
FE
330
1F
100
AcDbEntity
  8
0-0
  6
JWW_DASHED1
 62
   120
370
     5
100
AcDbLine
 10
-340.8193864604217
 20
-425.0503535185069
 30
0.0
 11
-90.8193864604342
 21
-175.0503535185177
 31
0.0
  0
LINE
  5
FF
330
1F
100
AcDbEntity
  8
0-0
  6
JWW_DASHED1
 62
   120
370
     5
100
AcDbLine
 10
-680.8193864604228
 20
-757.979285706641
 30
0.0
 11
-430.8193864604319
 21
-507.9792857066501
 31
0.0
  0
LINE
  5
100
330
1F
100
AcDbEntity
  8
0-0
  6
JWW_DASHED1
 62
   120
370
     5
100
AcDbLine
 10
-340.8193864604251
 20
-417.9792857066424
 30
0.0
 11
-90.8193864604342
 21
-167.9792857066511
 31
0.0
  0
LINE
  5
101
330
1F
100
AcDbEntity
  8
0-0
  6
JWW_DASHED1
 62
   120
370
     5
100
AcDbLine
 10
-680.8193864604126
 20
-750.9082178947644
 30
0.0
 11
-430.8193864604216
 21
-500.9082178947734
 31
0.0
  0
LINE
  5
102
330
1F
100
AcDbEntity
  8
0-0
  6
JWW_DASHED1
 62
   120
370
     5
100
AcDbLine
 10
-340.8193864604149
 20
-410.9082178947659
 30
0.0
 11
-90.81938646042397
 21
-160.9082178947742
 31
0.0
  0
LINE
  5
103
330
1F
100
AcDbEntity
  8
0-0
  6
JWW_DASHED1
 62
   120
370
     5
100
AcDbLine
 10
-680.8193864604194
 20
-743.8371500829043
 30
0.0
 11
-430.8193864604148
 21
-493.8371500828997
 31
0.0
  0
LINE
  5
104
330
1F
100
AcDbEntity
  8
0-0
  6
JWW_DASHED1
 62
   120
370
     5
100
AcDbLine
 10
-340.8193864604251
 20
-403.8371500829086
 30
0.0
 11
-90.81938646042056
 21
-153.8371500829041
 31
0.0
  0
LINE
  5
105
330
1F
100
AcDbEntity
  8
0-0
  6
JWW_DASHED1
 62
   120
370
     5
100
AcDbLine
 10
-680.8193864604143
 20
-736.7660822710866
 30
0.0
 11
-430.8193864604251
 21
-486.7660822710978
 31
0.0
  0
LINE
  5
106
330
1F
100
AcDbEntity
  8
0-0
  6
JWW_DASHED1
 62
   120
370
     5
100
AcDbLine
 10
-340.8193864604183
 20
-396.7660822710914
 30
0.0
 11
-90.81938646043079
 21
-146.7660822711022
 31
0.0
  0
LINE
  5
107
330
1F
100
AcDbEntity
  8
0-0
  6
JWW_DASHED1
 62
   120
370
     5
100
AcDbLine
 10
-680.8193864604194
 20
-729.695014459225
 30
0.0
 11
-430.8193864604285
 21
-479.6950144592337
 31
0.0
  0
LINE
  5
108
330
1F
100
AcDbEntity
  8
0-0
  6
JWW_DASHED1
 62
   120
370
     5
100
AcDbLine
 10
-340.8193864604217
 20
-389.6950144592265
 30
0.0
 11
-90.81938646043079
 21
-139.6950144592351
 31
0.0
  0
LINE
  5
109
330
1F
100
AcDbEntity
  8
0-0
  6
JWW_DASHED1
 62
   120
370
     5
100
AcDbLine
 10
-680.8193864604092
 20
-722.6239466473484
 30
0.0
 11
-430.8193864604182
 21
-472.6239466473572
 31
0.0
  0
LINE
  5
10A
330
1F
100
AcDbEntity
  8
0-0
  6
JWW_DASHED1
 62
   120
370
     5
100
AcDbLine
 10
-340.8193864604268
 20
-382.6239466473658
 30
0.0
 11
-90.81938646042056
 21
-132.6239466473582
 31
0.0
  0
LINE
  5
10B
330
1F
100
AcDbEntity
  8
0-0
  6
JWW_DASHED1
 62
   120
370
     5
100
AcDbLine
 10
-680.819386460416
 20
-715.5528788354885
 30
0.0
 11
-430.8193864604114
 21
-465.5528788354837
 31
0.0
  0
LINE
  5
10C
330
1F
100
AcDbEntity
  8
0-0
  6
JWW_DASHED1
 62
   120
370
     5
100
AcDbLine
 10
-340.8193864604217
 20
-375.5528788354931
 30
0.0
 11
-90.81938646043079
 21
-125.5528788355039
 31
0.0
  0
LINE
  5
10D
330
1F
100
AcDbEntity
  8
0-0
  6
JWW_DASHED1
 62
   120
370
     5
100
AcDbLine
 10
-680.8193864604211
 20
-708.4818110236267
 30
0.0
 11
-430.8193864604302
 21
-458.4818110236358
 31
0.0
  0
LINE
  5
10E
330
1F
100
AcDbEntity
  8
0-0
  6
JWW_DASHED1
 62
   120
370
     5
100
AcDbLine
 10
-340.8193864604217
 20
-368.4818110236282
 30
0.0
 11
-90.81938646043079
 21
-118.4818110236364
 31
0.0
  0
LINE
  5
10F
330
1F
100
AcDbEntity
  8
0-0
  6
JWW_DASHED1
 62
   120
370
     5
100
AcDbLine
 10
-680.8193864604109
 20
-701.4107432117501
 30
0.0
 11
-430.8193864604199
 21
-451.4107432117589
 31
0.0
  0
LINE
  5
110
330
1F
100
AcDbEntity
  8
0-0
  6
JWW_DASHED1
 62
   120
370
     5
100
AcDbLine
 10
-340.8193864604285
 20
-361.4107432117675
 30
0.0
 11
-90.81938646042056
 21
-111.4107432117599
 31
0.0
  0
LINE
  5
111
330
1F
100
AcDbEntity
  8
0-0
  6
JWW_DASHED1
 62
   120
370
     5
100
AcDbLine
 10
-680.8193864604194
 20
-694.3396753998904
 30
0.0
 11
-430.8193864604148
 21
-444.3396753998863
 31
0.0
  0
LINE
  5
112
330
1F
100
AcDbEntity
  8
0-0
  6
JWW_DASHED1
 62
   120
370
     5
100
AcDbLine
 10
-340.8193864604234
 20
-354.3396753998952
 30
0.0
 11
-90.8193864604342
 21
-104.3396753999056
 31
0.0
  0
LINE
  5
113
330
1F
100
AcDbEntity
  8
0-0
  6
JWW_DASHED1
 62
   120
370
     5
100
AcDbLine
 10
-680.8193864604228
 20
-687.2686075880287
 30
0.0
 11
-430.8193864604319
 21
-437.2686075880375
 31
0.0
  0
LINE
  5
114
330
1F
100
AcDbEntity
  8
0-0
  6
JWW_DASHED1
 62
   120
370
     5
100
AcDbLine
 10
-340.8193864604251
 20
-347.2686075880299
 30
0.0
 11
-90.8193864604325
 21
-97.26860758803852
 31
0.0
  0
LINE
  5
115
330
1F
100
AcDbEntity
  8
0-0
  6
JWW_DASHED1
 62
   120
370
     5
100
AcDbLine
 10
-680.8193864604126
 20
-680.1975397761518
 30
0.0
 11
-430.8193864604216
 21
-430.1975397761606
 31
0.0
  0
LINE
  5
116
330
1F
100
AcDbEntity
  8
0-0
  6
JWW_DASHED1
 62
   120
370
     5
100
AcDbLine
 10
-340.8193864604149
 20
-340.197539776153
 30
0.0
 11
-90.81938646042397
 21
-90.19753977616162
 31
0.0
  0
LINE
  5
117
330
1F
100
AcDbEntity
  8
0-0
  6
JWW_DASHED1
 62
   120
370
     5
100
AcDbLine
 10
-680.8193864604194
 20
-673.1264719642925
 30
0.0
 11
-430.8193864604148
 21
-423.126471964288
 31
0.0
  0
LINE
  5
118
330
1F
100
AcDbEntity
  8
0-0
  6
JWW_DASHED1
 62
   120
370
     5
100
AcDbLine
 10
-340.8193864604251
 20
-333.1264719642969
 30
0.0
 11
-90.81938646042056
 21
-83.12647196429197
 31
0.0
  0
LINE
  5
119
330
1F
100
AcDbEntity
  8
0-0
  6
JWW_DASHED1
 62
   120
370
     5
100
AcDbLine
 10
-680.8193864604245
 20
-666.0554041524301
 30
0.0
 11
-430.8193864604336
 21
-416.0554041524392
 31
0.0
  0
LINE
  5
11A
330
1F
100
AcDbEntity
  8
0-0
  6
JWW_DASHED1
 62
   120
370
     5
100
AcDbLine
 10
-340.8193864604251
 20
-326.0554041524315
 30
0.0
 11
-90.8193864604342
 21
-76.05540415244022
 31
0.0
  0
LINE
  5
11B
330
1F
100
AcDbEntity
  8
0-0
  6
JWW_DASHED1
 62
   120
370
     5
100
AcDbLine
 10
-680.819386460416
 20
-658.9843363405537
 30
0.0
 11
-430.8193864604233
 21
-408.9843363405623
 31
0.0
  0
LINE
  5
11C
330
1F
100
AcDbEntity
  8
0-0
  6
JWW_DASHED1
 62
   120
370
     5
100
AcDbLine
 10
-340.8193864604166
 20
-318.984336340555
 30
0.0
 11
-90.81938646042397
 21
-68.98433634056374
 31
0.0
  0
LINE
  5
11D
330
1F
100
AcDbEntity
  8
0-0
  6
JWW_DASHED1
 62
   120
370
     5
100
AcDbLine
 10
-680.8193864604228
 20
-651.9132685286944
 30
0.0
 11
-430.8193864604182
 21
-401.9132685286897
 31
0.0
  0
LINE
  5
11E
330
1F
100
AcDbEntity
  8
0-0
  6
JWW_DASHED1
 62
   120
370
     5
100
AcDbLine
 10
-340.8193864604268
 20
-311.9132685286991
 30
0.0
 11
-90.81938646042056
 21
-61.91326852869366
 31
0.0
  0
LINE
  5
11F
330
1F
100
AcDbEntity
  8
0-0
  6
JWW_DASHED1
 62
   120
370
     5
100
AcDbLine
 10
-680.8193864604262
 20
-644.8422007168318
 30
0.0
 11
-430.8193864604353
 21
-394.8422007168409
 31
0.0
  0
LINE
  5
120
330
1F
100
AcDbEntity
  8
0-0
  6
JWW_DASHED1
 62
   120
370
     5
100
AcDbLine
 10
-340.8193864604285
 20
-304.8422007168332
 30
0.0
 11
-90.81938646043761
 21
-54.84220071684192
 31
0.0
  0
LINE
  5
121
330
1F
100
AcDbEntity
  8
0-0
  6
JWW_DASHED1
 62
   120
370
     5
100
AcDbLine
 10
-680.819386460416
 20
-637.7711329049554
 30
0.0
 11
-430.8193864604251
 21
-387.771132904964
 31
0.0
  0
LINE
  5
122
330
1F
100
AcDbEntity
  8
0-0
  6
JWW_DASHED1
 62
   120
370
     5
100
AcDbLine
 10
-340.8193864604183
 20
-297.7711329049563
 30
0.0
 11
-90.81938646042738
 21
-47.77113290496501
 31
0.0
  0
LINE
  5
123
330
1F
100
AcDbEntity
  8
0-0
  6
JWW_DASHED1
 62
   120
370
     5
100
AcDbLine
 10
-680.8193864604245
 20
-630.7000650930961
 30
0.0
 11
-430.8193864604199
 21
-380.7000650930914
 31
0.0
  0
LINE
  5
124
330
1F
100
AcDbEntity
  8
0-0
  6
JWW_DASHED1
 62
   120
370
     5
100
AcDbLine
 10
-340.8193864604285
 20
-290.7000650931008
 30
0.0
 11
-90.81938646042397
 21
-40.70006509309579
 31
0.0
  0
LINE
  5
125
330
1F
100
AcDbEntity
  8
0-0
  6
JWW_DASHED1
 62
   120
370
     5
100
AcDbLine
 10
-680.8193864604143
 20
-623.6289972812194
 30
0.0
 11
-430.8193864604251
 21
-373.6289972812307
 31
0.0
  0
LINE
  5
126
330
1F
100
AcDbEntity
  8
0-0
  6
JWW_DASHED1
 62
   120
370
     5
100
AcDbLine
 10
-340.8193864604183
 20
-283.6289972812239
 30
0.0
 11
-90.81938646043079
 21
-33.62899728123509
 31
0.0
  0
LINE
  5
127
330
1F
100
AcDbEntity
  8
0-0
  6
JWW_DASHED1
 62
   120
370
     5
100
AcDbLine
 10
-680.8193864604177
 20
-616.5579294693568
 30
0.0
 11
-430.8193864604268
 21
-366.5579294693657
 31
0.0
  0
LINE
  5
128
330
1F
100
AcDbEntity
  8
0-0
  6
JWW_DASHED1
 62
   120
370
     5
100
AcDbLine
 10
-340.81938646042
 20
-276.557929469358
 30
0.0
 11
-90.81938646042738
 21
-26.55792946936671
 31
0.0
  0
LINE
  5
129
330
1F
100
AcDbEntity
  8
0-0
  6
JWW_DASHED1
 62
   120
370
     5
100
AcDbLine
 10
-680.8193864604245
 20
-609.4868616574961
 30
0.0
 11
-430.8193864604165
 21
-359.4868616574888
 31
0.0
  0
LINE
  5
12A
330
1F
100
AcDbEntity
  8
0-0
  6
JWW_DASHED1
 62
   120
370
     5
100
AcDbLine
 10
-340.8193864604251
 20
-269.4868616574973
 30
0.0
 11
-90.81938646041715
 21
-19.48686165749024
 31
0.0
  0
LINE
  5
12B
330
1F
100
AcDbEntity
  8
0-0
  6
JWW_DASHED1
 62
   120
370
     5
100
AcDbLine
 10
-680.819386460416
 20
-602.4157938456216
 30
0.0
 11
-430.8193864604114
 21
-352.415793845617
 31
0.0
  0
LINE
  5
12C
330
1F
100
AcDbEntity
  8
0-0
  6
JWW_DASHED1
 62
   120
370
     5
100
AcDbLine
 10
-340.8193864604217
 20
-262.4157938456264
 30
0.0
 11
-90.81938646043079
 21
-12.41579384563678
 31
0.0
  0
LINE
  5
12D
330
1F
100
AcDbEntity
  8
0-0
  6
JWW_DASHED1
 62
   120
370
     5
100
AcDbLine
 10
-680.8193864604194
 20
-595.3447260337588
 30
0.0
 11
-430.8193864604285
 21
-345.3447260337674
 31
0.0
  0
LINE
  5
12E
330
1F
100
AcDbEntity
  8
0-0
  6
JWW_DASHED1
 62
   120
370
     5
100
AcDbLine
 10
-340.8193864604217
 20
-255.3447260337602
 30
0.0
 11
-90.81938646043079
 21
-5.34472603376841
 31
0.0
  0
LINE
  5
12F
330
1F
100
AcDbEntity
  8
0-0
  6
JWW_DASHED1
 62
   120
370
     5
100
AcDbLine
 10
-680.8193864604092
 20
-588.2736582218819
 30
0.0
 11
-430.8193864604182
 21
-338.273658221891
 31
0.0
  0
LINE
  5
130
330
1F
100
AcDbEntity
  8
0-0
  6
JWW_DASHED1
 62
   120
370
     5
100
AcDbLine
 10
-340.8193864604268
 20
-248.273658221899
 30
0.0
 11
-90.81938646042056
 21
1.726341778108065
 31
0.0
  0
LINE
  5
131
330
1F
100
AcDbEntity
  8
0-0
  6
JWW_DASHED1
 62
   120
370
     5
100
AcDbLine
 10
-680.8193864604194
 20
-581.2025904100237
 30
0.0
 11
-430.8193864604131
 21
-331.2025904100187
 31
0.0
  0
LINE
  5
132
330
1F
100
AcDbEntity
  8
0-0
  6
JWW_DASHED1
 62
   120
370
     5
100
AcDbLine
 10
-340.8193864604217
 20
-241.2025904100281
 30
0.0
 11
-90.8193864604342
 21
8.797409589961092
 31
0.0
  0
LINE
  5
133
330
1F
100
AcDbEntity
  8
0-0
  6
JWW_DASHED1
 62
   120
370
     5
100
AcDbLine
 10
-680.8193864604211
 20
-574.1315225981602
 30
0.0
 11
-430.8193864604302
 21
-324.1315225981691
 31
0.0
  0
LINE
  5
134
330
1F
100
AcDbEntity
  8
0-0
  6
JWW_DASHED1
 62
   120
370
     5
100
AcDbLine
 10
-340.8193864604234
 20
-234.1315225981619
 30
0.0
 11
-90.81938646043079
 21
15.86847740182947
 31
0.0
  0
LINE
  5
135
330
1F
100
AcDbEntity
  8
0-0
  6
JWW_DASHED1
 62
   120
370
     5
100
AcDbLine
 10
-680.8193864604126
 20
-567.0604547862838
 30
0.0
 11
-430.8193864604199
 21
-317.0604547862922
 31
0.0
  0
LINE
  5
136
330
1F
100
AcDbEntity
  8
0-0
  6
JWW_DASHED1
 62
   120
370
     5
100
AcDbLine
 10
-340.8193864604285
 20
-227.0604547863012
 30
0.0
 11
-90.81938646042056
 21
22.93954521370637
 31
0.0
  0
LINE
  5
137
330
1F
100
AcDbEntity
  8
0-0
  6
JWW_DASHED1
 62
   120
370
     5
100
AcDbLine
 10
-680.8193864604194
 20
-559.9893869744254
 30
0.0
 11
-430.8193864604148
 21
-309.9893869744204
 31
0.0
  0
LINE
  5
138
330
1F
100
AcDbEntity
  8
0-0
  6
JWW_DASHED1
 62
   120
370
     5
100
AcDbLine
 10
-340.8193864604251
 20
-219.9893869744298
 30
0.0
 11
-90.81938646041885
 21
30.01061302557517
 31
0.0
  0
LINE
  5
139
330
1F
100
AcDbEntity
  8
0-0
  6
JWW_DASHED1
 62
   120
370
     5
100
AcDbLine
 10
-680.8193864604228
 20
-552.9183191625619
 30
0.0
 11
-430.8193864604319
 21
-302.9183191625708
 31
0.0
  0
LINE
  5
13A
330
1F
100
AcDbEntity
  8
0-0
  6
JWW_DASHED1
 62
   120
370
     5
100
AcDbLine
 10
-340.8193864604251
 20
-212.9183191625636
 30
0.0
 11
-90.8193864604342
 21
37.08168083742819
 31
0.0
  0
LINE
  5
13B
330
1F
100
AcDbEntity
  8
0-0
  6
JWW_DASHED1
 62
   120
370
     5
100
AcDbLine
 10
-680.8193864604126
 20
-545.8472513506853
 30
0.0
 11
-430.8193864604216
 21
-295.8472513506944
 31
0.0
  0
LINE
  5
13C
330
1F
100
AcDbEntity
  8
0-0
  6
JWW_DASHED1
 62
   120
370
     5
100
AcDbLine
 10
-340.8193864604149
 20
-205.8472513506871
 30
0.0
 11
-90.81938646042397
 21
44.15274864930467
 31
0.0
  0
LINE
  5
13D
330
1F
100
AcDbEntity
  8
0-0
  6
JWW_DASHED1
 62
   120
370
     5
100
AcDbLine
 10
-680.8193864604228
 20
-538.7761835388271
 30
0.0
 11
-430.8193864604182
 21
-288.776183538823
 31
0.0
  0
LINE
  5
13E
330
1F
100
AcDbEntity
  8
0-0
  6
JWW_DASHED1
 62
   120
370
     5
100
AcDbLine
 10
-340.8193864604268
 20
-198.7761835388319
 30
0.0
 11
-90.81938646042056
 21
51.22381646117304
 31
0.0
  0
LINE
  5
13F
330
1F
100
AcDbEntity
  8
0-0
  6
JWW_DASHED1
 62
   120
370
     5
100
AcDbLine
 10
-680.8193864604262
 20
-531.7051157269636
 30
0.0
 11
-430.8193864604336
 21
-281.7051157269725
 31
0.0
  0
LINE
  5
140
330
1F
100
AcDbEntity
  8
0-0
  6
JWW_DASHED1
 62
   120
370
     5
100
AcDbLine
 10
-340.8193864604268
 20
-191.7051157269648
 30
0.0
 11
-90.8193864604342
 21
58.2948842730265
 31
0.0
  0
LINE
  5
141
330
1F
100
AcDbEntity
  8
0-0
  6
JWW_DASHED1
 62
   120
370
     5
100
AcDbLine
 10
-680.819386460416
 20
-524.634047915087
 30
0.0
 11
-430.8193864604233
 21
-274.6340479150956
 31
0.0
  0
LINE
  5
142
330
1F
100
AcDbEntity
  8
0-0
  6
JWW_DASHED1
 62
   120
370
     5
100
AcDbLine
 10
-340.8193864604166
 20
-184.6340479150888
 30
0.0
 11
-90.81938646042397
 21
65.36595208490297
 31
0.0
  0
LINE
  5
143
330
1F
100
AcDbEntity
  8
0-0
  6
JWW_DASHED1
 62
   120
370
     5
100
AcDbLine
 10
-680.8193864604228
 20
-517.562980103229
 30
0.0
 11
-430.8193864604182
 21
-267.5629801032247
 31
0.0
  0
LINE
  5
144
330
1F
100
AcDbEntity
  8
0-0
  6
JWW_DASHED1
 62
   120
370
     5
100
AcDbLine
 10
-340.8193864604285
 20
-177.5629801032336
 30
0.0
 11
-90.81938646042397
 21
72.43701989677135
 31
0.0
  0
LINE
  5
145
330
1F
100
AcDbEntity
  8
0-0
  6
JWW_DASHED1
 62
   120
370
     5
100
AcDbLine
 10
-680.8193864604143
 20
-510.4919122913525
 30
0.0
 11
-430.8193864604251
 21
-260.491912291364
 31
0.0
  0
LINE
  5
146
330
1F
100
AcDbEntity
  8
0-0
  6
JWW_DASHED1
 62
   120
370
     5
100
AcDbLine
 10
-340.8193864604183
 20
-170.4919122913572
 30
0.0
 11
-90.81938646042909
 21
79.50808770863205
 31
0.0
  0
LINE
  5
147
330
1F
100
AcDbEntity
  8
0-0
  6
JWW_DASHED1
 62
   120
370
     5
100
AcDbLine
 10
-680.8193864604194
 20
-503.4208444795183
 30
0.0
 11
-430.8193864604285
 21
-253.4208444795271
 31
0.0
  0
LINE
  5
148
330
1F
100
AcDbEntity
  8
0-0
  6
JWW_DASHED1
 62
   120
370
     5
100
AcDbLine
 10
-340.81938646042
 20
-163.4208444795195
 30
0.0
 11
-90.81938646042909
 21
86.57915552047186
 31
0.0
  0
LINE
  5
149
330
1F
100
AcDbEntity
  8
0-0
  6
JWW_DASHED1
 62
   120
370
     5
100
AcDbLine
 10
-680.8193864604109
 20
-496.349776667671
 30
0.0
 11
-430.8193864604199
 21
-246.3497766676801
 31
0.0
  0
LINE
  5
14A
330
1F
100
AcDbEntity
  8
0-0
  6
JWW_DASHED1
 62
   120
370
     5
100
AcDbLine
 10
-340.8193864604285
 20
-156.3497766676886
 30
0.0
 11
-90.81938646042056
 21
93.65022333231892
 31
0.0
  0
LINE
  5
14B
330
1F
100
AcDbEntity
  8
0-0
  6
JWW_DASHED1
 62
   120
370
     5
100
AcDbLine
 10
-680.8193864604194
 20
-489.2787088558133
 30
0.0
 11
-430.8193864604148
 21
-239.2787088558087
 31
0.0
  0
LINE
  5
14C
330
1F
100
AcDbEntity
  8
0-0
  6
JWW_DASHED1
 62
   120
370
     5
100
AcDbLine
 10
-340.8193864604251
 20
-149.2787088558177
 30
0.0
 11
-90.81938646042056
 21
100.7212911441869
 31
0.0
  0
LINE
  5
14D
330
1F
100
AcDbEntity
  8
0-0
  6
JWW_DASHED1
 62
   120
370
     5
100
AcDbLine
 10
-680.8193864604228
 20
-482.2076410439496
 30
0.0
 11
-430.8193864604319
 21
-232.2076410439583
 31
0.0
  0
LINE
  5
14E
330
1F
100
AcDbEntity
  8
0-0
  6
JWW_DASHED1
 62
   120
370
     5
100
AcDbLine
 10
-340.8193864604251
 20
-142.207641043951
 30
0.0
 11
-90.8193864604325
 21
107.7923589560407
 31
0.0
  0
LINE
  5
14F
330
1F
100
AcDbEntity
  8
0-0
  6
JWW_DASHED1
 62
   120
370
     5
100
AcDbLine
 10
-680.8193864604126
 20
-475.1365732320727
 30
0.0
 11
-430.8193864604216
 21
-225.1365732320818
 31
0.0
  0
LINE
  5
150
330
1F
100
AcDbEntity
  8
0-0
  6
JWW_DASHED1
 62
   120
370
     5
100
AcDbLine
 10
-340.8193864604149
 20
-135.1365732320741
 30
0.0
 11
-90.81938646042227
 21
114.8634267679172
 31
0.0
  0
LINE
  5
151
330
1F
100
AcDbEntity
  8
0-0
  6
JWW_DASHED1
 62
   120
370
     5
100
AcDbLine
 10
-680.8193864604228
 20
-468.0655054202154
 30
0.0
 11
-430.8193864604182
 21
-218.0655054202109
 31
0.0
  0
LINE
  5
152
330
1F
100
AcDbEntity
  8
0-0
  6
JWW_DASHED1
 62
   120
370
     5
100
AcDbLine
 10
-340.8193864604268
 20
-128.0655054202198
 30
0.0
 11
-90.81938646042056
 21
121.9344945797852
 31
0.0
  0
LINE
  5
153
330
1F
100
AcDbEntity
  8
0-0
  6
JWW_DASHED1
 62
   120
370
     5
100
AcDbLine
 10
-680.8193864604245
 20
-460.9944376083513
 30
0.0
 11
-430.8193864604336
 21
-210.99443760836
 31
0.0
  0
LINE
  5
154
330
1F
100
AcDbEntity
  8
0-0
  6
JWW_DASHED1
 62
   120
370
     5
100
AcDbLine
 10
-340.8193864604251
 20
-120.9944376083527
 30
0.0
 11
-90.8193864604342
 21
129.005562391639
 31
0.0
  0
LINE
  5
155
330
1F
100
AcDbEntity
  8
0-0
  6
JWW_DASHED1
 62
   120
370
     5
100
AcDbLine
 10
-680.8193864604143
 20
-453.9233697964744
 30
0.0
 11
-430.8193864604233
 21
-203.9233697964835
 31
0.0
  0
LINE
  5
156
330
1F
100
AcDbEntity
  8
0-0
  6
JWW_DASHED1
 62
   120
370
     5
100
AcDbLine
 10
-340.8193864604166
 20
-113.9233697964758
 30
0.0
 11
-90.81938646042397
 21
136.0766302035155
 31
0.0
  0
LINE
  5
157
330
1F
100
AcDbEntity
  8
0-0
  6
JWW_DASHED1
 62
   120
370
     5
100
AcDbLine
 10
-680.8193864604228
 20
-446.8523019846171
 30
0.0
 11
-430.8193864604182
 21
-196.8523019846126
 31
0.0
  0
LINE
  5
158
330
1F
100
AcDbEntity
  8
0-0
  6
JWW_DASHED1
 62
   120
370
     5
100
AcDbLine
 10
-340.8193864604285
 20
-106.8523019846219
 30
0.0
 11
-90.81938646042397
 21
143.147698015383
 31
0.0
  0
LINE
  5
159
330
1F
100
AcDbEntity
  8
0-0
  6
JWW_DASHED1
 62
   120
370
     5
100
AcDbLine
 10
-680.8193864604143
 20
-439.7812341727402
 30
0.0
 11
-430.8193864604251
 21
-189.7812341727519
 31
0.0
  0
LINE
  5
15A
330
1F
100
AcDbEntity
  8
0-0
  6
JWW_DASHED1
 62
   120
370
     5
100
AcDbLine
 10
-340.8193864604183
 20
-99.78123417274503
 30
0.0
 11
-90.81938646042909
 21
150.2187658272442
 31
0.0
  0
LINE
  5
15B
330
1F
100
AcDbEntity
  8
0-0
  6
JWW_DASHED1
 62
   120
370
     5
100
AcDbLine
 10
-680.819386460416
 20
-432.7101663608761
 30
0.0
 11
-430.8193864604251
 21
-182.7101663608852
 31
0.0
  0
LINE
  5
15C
330
1F
100
AcDbEntity
  8
0-0
  6
JWW_DASHED1
 62
   120
370
     5
100
AcDbLine
 10
-340.8193864604183
 20
-92.71016636087751
 30
0.0
 11
-90.81938646042568
 21
157.2898336391138
 31
0.0
  0
LINE
  5
15D
330
1F
100
AcDbEntity
  8
0-0
  6
JWW_DASHED1
 62
   120
370
     5
100
AcDbLine
 10
-680.8193864604262
 20
-425.6390985490192
 30
0.0
 11
-430.8193864604216
 21
-175.6390985490142
 31
0.0
  0
LINE
  5
15E
330
1F
100
AcDbEntity
  8
0-0
  6
JWW_DASHED1
 62
   120
370
     5
100
AcDbLine
 10
-340.8193864604302
 20
-85.63909854902363
 30
0.0
 11
-90.81938646042568
 21
164.3609014509813
 31
0.0
  0
LINE
  5
15F
330
1F
100
AcDbEntity
  8
0-0
  6
JWW_DASHED1
 62
   120
370
     5
100
AcDbLine
 10
-680.819386460416
 20
-418.5680307371427
 30
0.0
 11
-430.8193864604268
 21
-168.5680307371535
 31
0.0
  0
LINE
  5
160
330
1F
100
AcDbEntity
  8
0-0
  6
JWW_DASHED1
 62
   120
370
     5
100
AcDbLine
 10
-340.81938646042
 20
-78.56803073714673
 30
0.0
 11
-90.81938646043079
 21
171.431969262842
 31
0.0
  0
LINE
  5
161
330
1F
100
AcDbEntity
  8
0-0
  6
JWW_DASHED1
 62
   120
370
     5
100
AcDbLine
 10
-680.8193864604177
 20
-411.4969629252778
 30
0.0
 11
-430.8193864604268
 21
-161.4969629252869
 31
0.0
  0
LINE
  5
162
330
1F
100
AcDbEntity
  8
0-0
  6
JWW_DASHED1
 62
   120
370
     5
100
AcDbLine
 10
-340.8193864604183
 20
-71.4969629252792
 30
0.0
 11
-90.81938646042738
 21
178.5030370747126
 31
0.0
  0
LINE
  5
163
330
1F
100
AcDbEntity
  8
0-0
  6
JWW_DASHED1
 62
   120
370
     5
100
AcDbLine
 10
-680.8193864604245
 20
-404.4258951134171
 30
0.0
 11
-430.8193864604165
 21
-154.4258951134104
 31
0.0
  0
LINE
  5
164
330
1F
100
AcDbEntity
  8
0-0
  6
JWW_DASHED1
 62
   120
370
     5
100
AcDbLine
 10
-340.8193864604251
 20
-64.4258951134185
 30
0.0
 11
-90.81938646041715
 21
185.5741048865886
 31
0.0
  0
LINE
  5
165
330
1F
100
AcDbEntity
  8
0-0
  6
JWW_DASHED1
 62
   120
370
     5
100
AcDbLine
 10
-680.8193864604177
 20
-397.3548273015444
 30
0.0
 11
-430.8193864604131
 21
-147.3548273015399
 31
0.0
  0
LINE
  5
166
330
1F
100
AcDbEntity
  8
0-0
  6
JWW_DASHED1
 62
   120
370
     5
100
AcDbLine
 10
-340.8193864604217
 20
-57.35482730154928
 30
0.0
 11
-90.8193864604342
 21
192.6451726984399
 31
0.0
  0
LINE
  5
167
330
1F
100
AcDbEntity
  8
0-0
  6
JWW_DASHED1
 62
   120
370
     5
100
AcDbLine
 10
-680.8193864604194
 20
-390.2837594896795
 30
0.0
 11
-430.8193864604285
 21
-140.2837594896886
 31
0.0
  0
LINE
  5
168
330
1F
100
AcDbEntity
  8
0-0
  6
JWW_DASHED1
 62
   120
370
     5
100
AcDbLine
 10
-340.8193864604217
 20
-50.2837594896809
 30
0.0
 11
-90.81938646042909
 21
199.7162405103104
 31
0.0
  0
LINE
  5
169
330
1F
100
AcDbEntity
  8
0-0
  6
JWW_DASHED1
 62
   120
370
     5
100
AcDbLine
 10
-680.8193864604092
 20
-383.2126916778026
 30
0.0
 11
-430.8193864604182
 21
-133.2126916778117
 31
0.0
  0
LINE
  5
16A
330
1F
100
AcDbEntity
  8
0-0
  6
JWW_DASHED1
 62
   120
370
     5
100
AcDbLine
 10
-340.8193864604268
 20
-43.2126916778202
 30
0.0
 11
-90.81938646042056
 21
206.7873083221869
 31
0.0
  0
LINE
  5
16B
330
1F
100
AcDbEntity
  8
0-0
  6
JWW_DASHED1
 62
   120
370
     5
100
AcDbLine
 10
-680.8193864604194
 20
-376.1416238659461
 30
0.0
 11
-430.8193864604148
 21
-126.1416238659416
 31
0.0
  0
LINE
  5
16C
330
1F
100
AcDbEntity
  8
0-0
  6
JWW_DASHED1
 62
   120
370
     5
100
AcDbLine
 10
-340.8193864604251
 20
-36.14162386595098
 30
0.0
 11
-90.8193864604342
 21
213.8583761340382
 31
0.0
  0
LINE
  5
16D
330
1F
100
AcDbEntity
  8
0-0
  6
JWW_DASHED1
 62
   120
370
     5
100
AcDbLine
 10
-680.8193864604211
 20
-369.0705560540812
 30
0.0
 11
-430.8193864604302
 21
-119.0705560540903
 31
0.0
  0
LINE
  5
16E
330
1F
100
AcDbEntity
  8
0-0
  6
JWW_DASHED1
 62
   120
370
     5
100
AcDbLine
 10
-340.8193864604234
 20
-29.0705560540826
 30
0.0
 11
-90.81938646043079
 21
220.9294439459087
 31
0.0
  0
LINE
  5
16F
330
1F
100
AcDbEntity
  8
0-0
  6
JWW_DASHED1
 62
   120
370
     5
100
AcDbLine
 10
-680.8193864604126
 20
-361.9994882422047
 30
0.0
 11
-430.8193864604216
 21
-111.9994882422138
 31
0.0
  0
LINE
  5
170
330
1F
100
AcDbEntity
  8
0-0
  6
JWW_DASHED1
 62
   120
370
     5
100
AcDbLine
 10
-340.8193864604285
 20
-21.9994882422219
 30
0.0
 11
-90.81938646042056
 21
228.0005117577852
 31
0.0
  0
LINE
  5
171
330
1F
100
AcDbEntity
  8
0-0
  6
JWW_DASHED1
 62
   120
370
     5
100
AcDbLine
 10
-680.8193864604211
 20
-354.9284204303478
 30
0.0
 11
-430.8193864604165
 21
-104.9284204303437
 31
0.0
  0
LINE
  5
172
330
1F
100
AcDbEntity
  8
0-0
  6
JWW_DASHED1
 62
   120
370
     5
100
AcDbLine
 10
-340.8193864604268
 20
-14.92842043035267
 30
0.0
 11
-90.81938646042056
 21
235.0715795696523
 31
0.0
  0
LINE
  5
173
330
1F
100
AcDbEntity
  8
0-0
  6
JWW_DASHED1
 62
   120
370
     5
100
AcDbLine
 10
-680.8193864604228
 20
-347.8573526184829
 30
0.0
 11
-430.8193864604319
 21
-97.85735261849197
 31
0.0
  0
LINE
  5
174
330
1F
100
AcDbEntity
  8
0-0
  6
JWW_DASHED1
 62
   120
370
     5
100
AcDbLine
 10
-340.8193864604251
 20
-7.857352618484299
 30
0.0
 11
-90.8193864604325
 21
242.142647381507
 31
0.0
  0
LINE
  5
175
330
1F
100
AcDbEntity
  8
0-0
  6
JWW_DASHED1
 62
   120
370
     5
100
AcDbLine
 10
-680.8193864604126
 20
-340.7862848066064
 30
0.0
 11
-430.8193864604216
 21
-90.78628480661507
 31
0.0
  0
LINE
  5
176
330
1F
100
AcDbEntity
  8
0-0
  6
JWW_DASHED1
 62
   120
370
     5
100
AcDbLine
 10
-340.8193864604149
 20
-0.7862848066078243
 30
0.0
 11
-90.81938646042397
 21
249.2137151933835
 31
0.0
  0
LINE
  5
177
330
1F
100
AcDbEntity
  8
0-0
  6
JWW_DASHED1
 62
   120
370
     5
100
AcDbLine
 10
-680.8193864604228
 20
-333.7152169947504
 30
0.0
 11
-430.8193864604182
 21
-83.71521699474542
 31
0.0
  0
LINE
  5
178
330
1F
100
AcDbEntity
  8
0-0
  6
JWW_DASHED1
 62
   120
370
     5
100
AcDbLine
 10
-340.8193864604285
 20
6.284783005245629
 30
0.0
 11
-90.81938646042397
 21
256.2847830052502
 31
0.0
  0
LINE
  5
179
330
1F
100
AcDbEntity
  8
0-0
  6
JWW_DASHED1
 62
   120
370
     5
100
AcDbLine
 10
-680.8193864604245
 20
-326.6441491828846
 30
0.0
 11
-430.8193864604336
 21
-76.64414918289367
 31
0.0
  0
LINE
  5
17A
330
1F
100
AcDbEntity
  8
0-0
  6
JWW_DASHED1
 62
   120
370
     5
100
AcDbLine
 10
-340.8193864604251
 20
13.355850817114
 30
0.0
 11
-90.8193864604342
 21
263.3558508171053
 31
0.0
  0
LINE
  5
17B
330
1F
100
AcDbEntity
  8
0-0
  6
JWW_DASHED1
 62
   120
370
     5
100
AcDbLine
 10
-680.819386460416
 20
-319.5730813710085
 30
0.0
 11
-430.8193864604233
 21
-69.57308137101677
 31
0.0
  0
LINE
  5
17C
330
1F
100
AcDbEntity
  8
0-0
  6
JWW_DASHED1
 62
   120
370
     5
100
AcDbLine
 10
-340.8193864604166
 20
20.4269186289909
 30
0.0
 11
-90.81938646042397
 21
270.4269186289818
 31
0.0
  0
LINE
  5
17D
330
1F
100
AcDbEntity
  8
0-0
  6
JWW_DASHED1
 62
   120
370
     5
100
AcDbLine
 10
-680.8193864604262
 20
-312.5020135591521
 30
0.0
 11
-430.8193864604216
 21
-62.50201355914754
 31
0.0
  0
LINE
  5
17E
330
1F
100
AcDbEntity
  8
0-0
  6
JWW_DASHED1
 62
   120
370
     5
100
AcDbLine
 10
-340.8193864604302
 20
27.4979864408435
 30
0.0
 11
-90.81938646042397
 21
277.4979864408485
 31
0.0
  0
LINE
  5
17F
330
1F
100
AcDbEntity
  8
0-0
  6
JWW_DASHED1
 62
   120
370
     5
100
AcDbLine
 10
-680.819386460416
 20
-305.4309457472756
 30
0.0
 11
-430.8193864604268
 21
-55.43094574728684
 31
0.0
  0
LINE
  5
180
330
1F
100
AcDbEntity
  8
0-0
  6
JWW_DASHED1
 62
   120
370
     5
100
AcDbLine
 10
-340.81938646042
 20
34.56905425271998
 30
0.0
 11
-90.81938646043079
 21
284.5690542527092
 31
0.0
  0
LINE
  5
181
330
1F
100
AcDbEntity
  8
0-0
  6
JWW_DASHED1
 62
   120
370
     5
100
AcDbLine
 10
-680.819386460416
 20
-298.3598779354098
 30
0.0
 11
-430.8193864604251
 21
-48.35987793541889
 31
0.0
  0
LINE
  5
182
330
1F
100
AcDbEntity
  8
0-0
  6
JWW_DASHED1
 62
   120
370
     5
100
AcDbLine
 10
-340.8193864604183
 20
41.64012206458878
 30
0.0
 11
-90.81938646042738
 21
291.6401220645801
 31
0.0
  0
LINE
  5
183
330
1F
100
AcDbEntity
  8
0-0
  6
JWW_DASHED1
 62
   120
370
     5
100
AcDbLine
 10
-680.8193864604228
 20
-291.2888101235487
 30
0.0
 11
-430.8193864604148
 21
-41.28881012354199
 31
0.0
  0
LINE
  5
184
330
1F
100
AcDbEntity
  8
0-0
  6
JWW_DASHED1
 62
   120
370
     5
100
AcDbLine
 10
-340.8193864604234
 20
48.71118987644991
 30
0.0
 11
-90.81938646041715
 21
298.711189876457
 31
0.0
  0
LINE
  5
185
330
1F
100
AcDbEntity
  8
0-0
  6
JWW_DASHED1
 62
   120
370
     5
100
AcDbLine
 10
-680.8193864604177
 20
-284.2177423116773
 30
0.0
 11
-430.8193864604285
 21
-34.21774231168854
 31
0.0
  0
LINE
  5
186
330
1F
100
AcDbEntity
  8
0-0
  6
JWW_DASHED1
 62
   120
370
     5
100
AcDbLine
 10
-340.8193864604217
 20
55.78225768831828
 30
0.0
 11
-90.8193864604342
 21
305.782257688307
 31
0.0
  0
LINE
  5
187
330
1F
100
AcDbEntity
  8
0-0
  6
JWW_DASHED1
 62
   120
370
     5
100
AcDbLine
 10
-680.8193864604194
 20
-277.1466744998115
 30
0.0
 11
-430.8193864604285
 21
-27.14667449982059
 31
0.0
  0
LINE
  5
188
330
1F
100
AcDbEntity
  8
0-0
  6
JWW_DASHED1
 62
   120
370
     5
100
AcDbLine
 10
-340.81938646042
 20
62.85332550018708
 30
0.0
 11
-90.81938646042738
 21
312.8533255001784
 31
0.0
  0
LINE
  5
189
330
1F
100
AcDbEntity
  8
0-0
  6
JWW_DASHED1
 62
   120
370
     5
100
AcDbLine
 10
-680.8193864604092
 20
-270.075606687935
 30
0.0
 11
-430.8193864604182
 21
-20.07560668794412
 31
0.0
  0
LINE
  5
18A
330
1F
100
AcDbEntity
  8
0-0
  6
JWW_DASHED1
 62
   120
370
     5
100
AcDbLine
 10
-340.8193864604251
 20
69.92439331204778
 30
0.0
 11
-90.81938646041715
 21
319.9243933120553
 31
0.0
  0
LINE
  5
18B
330
1F
100
AcDbEntity
  8
0-0
  6
JWW_DASHED1
 62
   120
370
     5
100
AcDbLine
 10
-680.8193864604194
 20
-263.0045388760794
 30
0.0
 11
-430.8193864604148
 21
-13.00453887607489
 31
0.0
  0
LINE
  5
18C
330
1F
100
AcDbEntity
  8
0-0
  6
JWW_DASHED1
 62
   120
370
     5
100
AcDbLine
 10
-340.8193864604234
 20
76.99546112391616
 30
0.0
 11
-90.8193864604342
 21
326.9954611239058
 31
0.0
  0
LINE
  5
18D
330
1F
100
AcDbEntity
  8
0-0
  6
JWW_DASHED1
 62
   120
370
     5
100
AcDbLine
 10
-680.8193864604228
 20
-255.9334710642426
 30
0.0
 11
-430.8193864604319
 21
-5.933471064251705
 31
0.0
  0
LINE
  5
18E
330
1F
100
AcDbEntity
  8
0-0
  6
JWW_DASHED1
 62
   120
370
     5
100
AcDbLine
 10
-340.8193864604234
 20
84.06652893575597
 30
0.0
 11
-90.8193864604325
 21
334.0665289357473
 31
0.0
  0
LINE
  5
18F
330
1F
100
AcDbEntity
  8
0-0
  6
JWW_DASHED1
 62
   120
370
     5
100
AcDbLine
 10
-680.8193864604143
 20
-248.8624032523956
 30
0.0
 11
-430.8193864604233
 21
1.137596747595353
 31
0.0
  0
LINE
  5
190
330
1F
100
AcDbEntity
  8
0-0
  6
JWW_DASHED1
 62
   120
370
     5
100
AcDbLine
 10
-340.8193864604149
 20
91.13759674760303
 30
0.0
 11
-90.81938646042397
 21
341.1375967475943
 31
0.0
  0
LINE
  5
191
330
1F
100
AcDbEntity
  8
0-0
  6
JWW_DASHED1
 62
   120
370
     5
100
AcDbLine
 10
-680.8193864604262
 20
-241.79133544054
 30
0.0
 11
-430.8193864604216
 21
8.20866455946458
 31
0.0
  0
LINE
  5
192
330
1F
100
AcDbEntity
  8
0-0
  6
JWW_DASHED1
 62
   120
370
     5
100
AcDbLine
 10
-340.8193864604302
 20
98.2086645594552
 30
0.0
 11
-90.81938646042568
 21
348.2086645594602
 31
0.0
  0
LINE
  5
193
330
1F
100
AcDbEntity
  8
0-0
  6
JWW_DASHED1
 62
   120
370
     5
100
AcDbLine
 10
-680.819386460416
 20
-234.7202676286635
 30
0.0
 11
-430.8193864604268
 21
15.27973237132528
 31
0.0
  0
LINE
  5
194
330
1F
100
AcDbEntity
  8
0-0
  6
JWW_DASHED1
 62
   120
370
     5
100
AcDbLine
 10
-340.81938646042
 20
105.2797323713321
 30
0.0
 11
-90.81938646043079
 21
355.2797323713213
 31
0.0
  0
LINE
  5
195
330
1F
100
AcDbEntity
  8
0-0
  6
JWW_DASHED1
 62
   120
370
     5
100
AcDbLine
 10
-680.819386460416
 20
-227.6491998167972
 30
0.0
 11
-430.8193864604251
 21
22.35080018319366
 31
0.0
  0
LINE
  5
196
330
1F
100
AcDbEntity
  8
0-0
  6
JWW_DASHED1
 62
   120
370
     5
100
AcDbLine
 10
-340.8193864604183
 20
112.3508001832013
 30
0.0
 11
-90.81938646042738
 21
362.3508001831926
 31
0.0
  0
LINE
  5
197
330
1F
100
AcDbEntity
  8
0-0
  6
JWW_DASHED1
 62
   120
370
     5
100
AcDbLine
 10
-680.8193864604228
 20
-220.5781320049365
 30
0.0
 11
-430.8193864604148
 21
29.42186799507056
 31
0.0
  0
LINE
  5
198
330
1F
100
AcDbEntity
  8
0-0
  6
JWW_DASHED1
 62
   120
370
     5
100
AcDbLine
 10
-340.8193864604234
 20
119.421867995062
 30
0.0
 11
-90.81938646041715
 21
369.4218679950695
 31
0.0
  0
LINE
  5
199
330
1F
100
AcDbEntity
  8
0-0
  6
JWW_DASHED1
 62
   120
370
     5
100
AcDbLine
 10
-680.8193864604177
 20
-213.5070641930652
 30
0.0
 11
-430.8193864604285
 21
36.49293580692358
 31
0.0
  0
LINE
  5
19A
330
1F
100
AcDbEntity
  8
0-0
  6
JWW_DASHED1
 62
   120
370
     5
100
AcDbLine
 10
-340.8193864604217
 20
126.49293580693
 30
0.0
 11
-90.8193864604342
 21
376.4929358069191
 31
0.0
  0
LINE
  5
19B
330
1F
100
AcDbEntity
  8
0-0
  6
JWW_DASHED1
 62
   120
370
     5
100
AcDbLine
 10
-680.8193864604177
 20
-206.4359963811989
 30
0.0
 11
-430.8193864604268
 21
43.56400361879196
 31
0.0
  0
LINE
  5
19C
330
1F
100
AcDbEntity
  8
0-0
  6
JWW_DASHED1
 62
   120
370
     5
100
AcDbLine
 10
-340.8193864604183
 20
133.5640036187996
 30
0.0
 11
-90.81938646042738
 21
383.5640036187914
 31
0.0
  0
LINE
  5
19D
330
1F
100
AcDbEntity
  8
0-0
  6
JWW_DASHED1
 62
   120
370
     5
100
AcDbLine
 10
-680.8193864604075
 20
-199.364928569322
 30
0.0
 11
-430.8193864604165
 21
50.63507143066886
 31
0.0
  0
LINE
  5
19E
330
1F
100
AcDbEntity
  8
0-0
  6
JWW_DASHED1
 62
   120
370
     5
100
AcDbLine
 10
-340.8193864604251
 20
140.6350714306603
 30
0.0
 11
-90.81938646041715
 21
390.6350714306678
 31
0.0
  0
LINE
  5
19F
330
1F
100
AcDbEntity
  8
0-0
  6
JWW_DASHED1
 62
   120
370
     5
100
AcDbLine
 10
-680.8193864604194
 20
-192.2938607574673
 30
0.0
 11
-430.8193864604148
 21
57.70613924253723
 31
0.0
  0
LINE
  5
1A0
330
1F
100
AcDbEntity
  8
0-0
  6
JWW_DASHED1
 62
   120
370
     5
100
AcDbLine
 10
-340.8193864604251
 20
147.7061392425283
 30
0.0
 11
-90.8193864604342
 21
397.7061392425175
 31
0.0
  0
LINE
  5
1A1
330
1F
100
AcDbEntity
  8
0-0
  6
JWW_DASHED1
 62
   120
370
     5
100
AcDbLine
 10
-680.8193864604194
 20
-185.2227929456006
 30
0.0
 11
-430.8193864604285
 21
64.77720705439026
 31
0.0
  0
LINE
  5
1A2
330
1F
100
AcDbEntity
  8
0-0
  6
JWW_DASHED1
 62
   120
370
     5
100
AcDbLine
 10
-340.8193864604217
 20
154.7772070543979
 30
0.0
 11
-90.81938646043079
 21
404.7772070543892
 31
0.0
  0
LINE
  5
1A3
330
1F
100
AcDbEntity
  8
0-0
  6
JWW_DASHED1
 62
   120
370
     5
100
AcDbLine
 10
-680.8193864604092
 20
-178.1517251337237
 30
0.0
 11
-430.8193864604182
 21
71.84827486626716
 31
0.0
  0
LINE
  5
1A4
330
1F
100
AcDbEntity
  8
0-0
  6
JWW_DASHED1
 62
   120
370
     5
100
AcDbLine
 10
-340.8193864604268
 20
161.8482748662586
 30
0.0
 11
-90.81938646041885
 21
411.8482748662661
 31
0.0
  0
LINE
  5
1A5
330
1F
100
AcDbEntity
  8
0-0
  6
JWW_DASHED1
 62
   120
370
     5
100
AcDbLine
 10
-680.8193864604211
 20
-171.080657321869
 30
0.0
 11
-430.8193864604165
 21
78.91934267813554
 31
0.0
  0
LINE
  5
1A6
330
1F
100
AcDbEntity
  8
0-0
  6
JWW_DASHED1
 62
   120
370
     5
100
AcDbLine
 10
-340.8193864604251
 20
168.9193426781262
 30
0.0
 11
-90.81938646043761
 21
418.9193426781154
 31
0.0
  0
LINE
  5
1A7
330
1F
100
AcDbEntity
  8
0-0
  6
JWW_DASHED1
 62
   120
370
     5
100
AcDbLine
 10
-680.8193864604211
 20
-164.0095895100023
 30
0.0
 11
-430.8193864604302
 21
85.99041048998856
 31
0.0
  0
LINE
  5
1A8
330
1F
100
AcDbEntity
  8
0-0
  6
JWW_DASHED1
 62
   120
370
     5
100
AcDbLine
 10
-340.8193864604217
 20
175.9904104899962
 30
0.0
 11
-90.81938646043079
 21
425.9904104899875
 31
0.0
  0
LINE
  5
1A9
330
1F
100
AcDbEntity
  8
0-0
  6
JWW_DASHED1
 62
   120
370
     5
100
AcDbLine
 10
-680.8193864604126
 20
-156.9385216981259
 30
0.0
 11
-430.8193864604199
 21
93.06147830186546
 31
0.0
  0
LINE
  5
1AA
330
1F
100
AcDbEntity
  8
0-0
  6
JWW_DASHED1
 62
   120
370
     5
100
AcDbLine
 10
-340.8193864604132
 20
183.0614783018727
 30
0.0
 11
-90.81938646042056
 21
433.0614783018644
 31
0.0
  0
LINE
  5
1AB
330
1F
100
AcDbEntity
  8
0-0
  6
JWW_DASHED1
 62
   120
370
     5
100
AcDbLine
 10
-680.8193864604228
 20
-149.8674538862707
 30
0.0
 11
-430.8193864604182
 21
100.1325461137338
 31
0.0
  0
LINE
  5
1AC
330
1F
100
AcDbEntity
  8
0-0
  6
JWW_DASHED1
 62
   120
370
     5
100
AcDbLine
 10
-340.8193864604285
 20
190.1325461137245
 30
0.0
 11
-90.81938646042397
 21
440.1325461137294
 31
0.0
  0
LINE
  5
1AD
330
1F
100
AcDbEntity
  8
0-0
  6
JWW_DASHED1
 62
   120
370
     5
100
AcDbLine
 10
-680.8193864604228
 20
-142.796386074404
 30
0.0
 11
-430.8193864604319
 21
107.2036139255869
 31
0.0
  0
LINE
  5
1AE
330
1F
100
AcDbEntity
  8
0-0
  6
JWW_DASHED1
 62
   120
370
     5
100
AcDbLine
 10
-340.8193864604251
 20
197.2036139255945
 30
0.0
 11
-90.8193864604325
 21
447.2036139255858
 31
0.0
  0
LINE
  5
1AF
330
1F
100
AcDbEntity
  8
0-0
  6
JWW_DASHED1
 62
   120
370
     5
100
AcDbLine
 10
-680.8193864604126
 20
-135.7253182625271
 30
0.0
 11
-430.8193864604216
 21
114.2746817374638
 31
0.0
  0
LINE
  5
1B0
330
1F
100
AcDbEntity
  8
0-0
  6
JWW_DASHED1
 62
   120
370
     5
100
AcDbLine
 10
-340.8193864604149
 20
204.2746817374714
 30
0.0
 11
-90.81938646042397
 21
454.2746817374623
 31
0.0
  0
LINE
  5
1B1
330
1F
100
AcDbEntity
  8
0-0
  6
JWW_DASHED1
 62
   120
370
     5
100
AcDbLine
 10
-680.8193864604262
 20
-128.6542504506733
 30
0.0
 11
-430.8193864604216
 21
121.3457495493317
 31
0.0
  0
LINE
  5
1B2
330
1F
100
AcDbEntity
  8
0-0
  6
JWW_DASHED1
 62
   120
370
     5
100
AcDbLine
 10
-340.8193864604302
 20
211.3457495493223
 30
0.0
 11
-90.81938646042397
 21
461.3457495493273
 31
0.0
  0
LINE
  5
1B3
330
1F
100
AcDbEntity
  8
0-0
  6
JWW_DASHED1
 62
   120
370
     5
100
AcDbLine
 10
-680.819386460416
 20
-121.5831826387964
 30
0.0
 11
-430.8193864604268
 21
128.4168173611928
 31
0.0
  0
LINE
  5
1B4
330
1F
100
AcDbEntity
  8
0-0
  6
JWW_DASHED1
 62
   120
370
     5
100
AcDbLine
 10
-340.81938646042
 20
218.4168173611988
 30
0.0
 11
-90.81938646043079
 21
468.416817361188
 31
0.0
  0
LINE
  5
1B5
330
1F
100
AcDbEntity
  8
0-0
  6
JWW_DASHED1
 62
   120
370
     5
100
AcDbLine
 10
-680.819386460416
 20
-114.5121148269293
 30
0.0
 11
-430.8193864604233
 21
135.4878851730621
 31
0.0
  0
LINE
  5
1B6
330
1F
100
AcDbEntity
  8
0-0
  6
JWW_DASHED1
 62
   120
370
     5
100
AcDbLine
 10
-340.8193864604166
 20
225.4878851730693
 30
0.0
 11
-90.81938646042397
 21
475.487885173061
 31
0.0
  0
LINE
  5
1B7
330
1F
100
AcDbEntity
  8
0-0
  6
JWW_DASHED1
 62
   120
370
     5
100
AcDbLine
 10
-680.8193864604262
 20
-107.441047015075
 30
0.0
 11
-430.8193864604216
 21
142.5589529849296
 31
0.0
  0
LINE
  5
1B8
330
1F
100
AcDbEntity
  8
0-0
  6
JWW_DASHED1
 62
   120
370
     5
100
AcDbLine
 10
-340.8193864604319
 20
232.5589529849206
 30
0.0
 11
-90.81938646042738
 21
482.5589529849256
 31
0.0
  0
LINE
  5
1B9
330
1F
100
AcDbEntity
  8
0-0
  6
JWW_DASHED1
 62
   120
370
     5
100
AcDbLine
 10
-680.8193864604177
 20
-100.3699792031981
 30
0.0
 11
-430.8193864604285
 21
149.6300207967903
 31
0.0
  0
LINE
  5
1BA
330
1F
100
AcDbEntity
  8
0-0
  6
JWW_DASHED1
 62
   120
370
     5
100
AcDbLine
 10
-340.8193864604217
 20
239.6300207967971
 30
0.0
 11
-90.8193864604325
 21
489.6300207967863
 31
0.0
  0
LINE
  5
1BB
330
1F
100
AcDbEntity
  8
0-0
  6
JWW_DASHED1
 62
   120
370
     5
100
AcDbLine
 10
-680.819386460416
 20
-93.29891139133053
 30
0.0
 11
-430.8193864604251
 21
156.7010886086604
 31
0.0
  0
LINE
  5
1BC
330
1F
100
AcDbEntity
  8
0-0
  6
JWW_DASHED1
 62
   120
370
     5
100
AcDbLine
 10
-340.8193864604183
 20
246.7010886086676
 30
0.0
 11
-90.81938646042738
 21
496.7010886086593
 31
0.0
  0
LINE
  5
1BD
330
1F
100
AcDbEntity
  8
0-0
  6
JWW_DASHED1
 62
   120
370
     5
100
AcDbLine
 10
-680.8193864604228
 20
-86.22784357946983
 30
0.0
 11
-430.8193864604148
 21
163.7721564205373
 31
0.0
  0
LINE
  5
1BE
330
1F
100
AcDbEntity
  8
0-0
  6
JWW_DASHED1
 62
   120
370
     5
100
AcDbLine
 10
-340.8193864604234
 20
253.7721564205287
 30
0.0
 11
-90.81938646041715
 21
503.7721564205359
 31
0.0
  0
LINE
  5
1BF
330
1F
100
AcDbEntity
  8
0-0
  6
JWW_DASHED1
 62
   120
370
     5
100
AcDbLine
 10
-680.8193864604194
 20
-79.15677576760018
 30
0.0
 11
-430.8193864604148
 21
170.8432242324048
 31
0.0
  0
LINE
  5
1C0
330
1F
100
AcDbEntity
  8
0-0
  6
JWW_DASHED1
 62
   120
370
     5
100
AcDbLine
 10
-340.8193864604234
 20
260.8432242323954
 30
0.0
 11
-90.8193864604342
 21
510.8432242323842
 31
0.0
  0
LINE
  5
1C1
330
1F
100
AcDbEntity
  8
0-0
  6
JWW_DASHED1
 62
   120
370
     5
100
AcDbLine
 10
-680.8193864604177
 20
-72.08570795573223
 30
0.0
 11
-430.8193864604268
 21
177.9142920442587
 31
0.0
  0
LINE
  5
1C2
330
1F
100
AcDbEntity
  8
0-0
  6
JWW_DASHED1
 62
   120
370
     5
100
AcDbLine
 10
-340.81938646042
 20
267.9142920442659
 30
0.0
 11
-90.81938646042738
 21
517.9142920442576
 31
0.0
  0
LINE
  5
1C3
330
1F
100
AcDbEntity
  8
0-0
  6
JWW_DASHED1
 62
   120
370
     5
100
AcDbLine
 10
-680.8193864604092
 20
-65.01464014385618
 30
0.0
 11
-430.8193864604165
 21
184.9853598561351
 31
0.0
  0
LINE
  5
1C4
330
1F
100
AcDbEntity
  8
0-0
  6
JWW_DASHED1
 62
   120
370
     5
100
AcDbLine
 10
-340.8193864604251
 20
274.985359856127
 30
0.0
 11
-90.81938646041715
 21
524.9853598561342
 31
0.0
  0
LINE
  5
1C5
330
1F
100
AcDbEntity
  8
0-0
  6
JWW_DASHED1
 62
   120
370
     5
100
AcDbLine
 10
-680.8193864604211
 20
-57.9435723320023
 30
0.0
 11
-430.8193864604165
 21
192.0564276680022
 31
0.0
  0
LINE
  5
1C6
330
1F
100
AcDbEntity
  8
0-0
  6
JWW_DASHED1
 62
   120
370
     5
100
AcDbLine
 10
-340.8193864604251
 20
282.0564276679933
 30
0.0
 11
-90.81938646043591
 21
532.0564276679825
 31
0.0
  0
LINE
  5
1C7
330
1F
100
AcDbEntity
  8
0-0
  6
JWW_DASHED1
 62
   120
370
     5
100
AcDbLine
 10
-680.8193864604194
 20
-50.87250452013393
 30
0.0
 11
-430.8193864604285
 21
199.127495479857
 31
0.0
  0
LINE
  5
1C8
330
1F
100
AcDbEntity
  8
0-0
  6
JWW_DASHED1
 62
   120
370
     5
100
AcDbLine
 10
-340.8193864604217
 20
289.1274954798643
 30
0.0
 11
-90.81938646043079
 21
539.1274954798555
 31
0.0
  0
LINE
  5
1C9
330
1F
100
AcDbEntity
  8
0-0
  6
JWW_DASHED1
 62
   120
370
     5
100
AcDbLine
 10
-680.8193864604092
 20
-43.80143670825746
 30
0.0
 11
-430.8193864604182
 21
206.1985632917334
 31
0.0
  0
LINE
  5
1CA
330
1F
100
AcDbEntity
  8
0-0
  6
JWW_DASHED1
 62
   120
370
     5
100
AcDbLine
 10
-340.8193864604268
 20
296.1985632917253
 30
0.0
 11
-90.81938646042056
 21
546.1985632917324
 31
0.0
  0
LINE
  5
1CB
330
1F
100
AcDbEntity
  8
0-0
  6
JWW_DASHED1
 62
   120
370
     5
100
AcDbLine
 10
-680.8193864604228
 20
-36.730368896404
 30
0.0
 11
-430.8193864604182
 21
213.2696311036005
 31
0.0
  0
LINE
  5
1CC
330
1F
100
AcDbEntity
  8
0-0
  6
JWW_DASHED1
 62
   120
370
     5
100
AcDbLine
 10
-340.8193864604285
 20
303.2696311035916
 30
0.0
 11
-90.81938646042227
 21
553.2696311035966
 31
0.0
  0
LINE
  5
1CD
330
1F
100
AcDbEntity
  8
0-0
  6
JWW_DASHED1
 62
   120
370
     5
100
AcDbLine
 10
-680.8193864604228
 20
-29.65930108453605
 30
0.0
 11
-430.8193864604302
 21
220.3406989154553
 31
0.0
  0
LINE
  5
1CE
330
1F
100
AcDbEntity
  8
0-0
  6
JWW_DASHED1
 62
   120
370
     5
100
AcDbLine
 10
-340.8193864604234
 20
310.3406989154626
 30
0.0
 11
-90.81938646043079
 21
560.3406989154539
 31
0.0
  0
LINE
  5
1CF
330
1F
100
AcDbEntity
  8
0-0
  6
JWW_DASHED1
 62
   120
370
     5
100
AcDbLine
 10
-680.8193864604126
 20
-22.58823327265958
 30
0.0
 11
-430.8193864604199
 21
227.4117667273322
 31
0.0
  0
LINE
  5
1D0
330
1F
100
AcDbEntity
  8
0-0
  6
JWW_DASHED1
 62
   120
370
     5
100
AcDbLine
 10
-340.8193864604132
 20
317.4117667273395
 30
0.0
 11
-90.81938646042056
 21
567.4117667273308
 31
0.0
  0
LINE
  5
1D1
330
1F
100
AcDbEntity
  8
0-0
  6
JWW_DASHED1
 62
   120
370
     5
100
AcDbLine
 10
-680.8193864604228
 20
-15.51716546085771
 30
0.0
 11
-430.8193864604148
 21
234.4828345391494
 31
0.0
  0
LINE
  5
1D2
330
1F
100
AcDbEntity
  8
0-0
  6
JWW_DASHED1
 62
   120
370
     5
100
AcDbLine
 10
-340.8193864604234
 20
324.4828345391409
 30
0.0
 11
-90.81938646041544
 21
574.4828345391484
 31
0.0
  0
LINE
  5
1D3
330
1F
100
AcDbEntity
  8
0-0
  6
JWW_DASHED1
 62
   120
370
     5
100
AcDbLine
 10
-680.8193864604194
 20
-8.446097648988484
 30
0.0
 11
-430.8193864604148
 21
241.5539023510165
 31
0.0
  0
LINE
  5
1D4
330
1F
100
AcDbEntity
  8
0-0
  6
JWW_DASHED1
 62
   120
370
     5
100
AcDbLine
 10
-340.8193864604234
 20
331.5539023510071
 30
0.0
 11
-90.8193864604342
 21
581.5539023509963
 31
0.0
  0
LINE
  5
1D5
330
1F
100
AcDbEntity
  8
0-0
  6
JWW_DASHED1
 62
   120
370
     5
100
AcDbLine
 10
-680.8193864604177
 20
-1.37502983712011
 30
0.0
 11
-430.8193864604268
 21
248.6249701628712
 31
0.0
  0
LINE
  5
1D6
330
1F
100
AcDbEntity
  8
0-0
  6
JWW_DASHED1
 62
   120
370
     5
100
AcDbLine
 10
-340.8193864604183
 20
338.6249701628785
 30
0.0
 11
-90.81938646042738
 21
588.6249701628702
 31
0.0
  0
LINE
  5
1D7
330
1F
100
AcDbEntity
  8
0-0
  6
JWW_DASHED1
 62
   120
370
     5
100
AcDbLine
 10
-680.8193864604075
 20
5.696037974756791
 30
0.0
 11
-430.8193864604165
 21
255.6960379747477
 31
0.0
  0
LINE
  5
1D8
330
1F
100
AcDbEntity
  8
0-0
  6
JWW_DASHED1
 62
   120
370
     5
100
AcDbLine
 10
-340.8193864604251
 20
345.6960379747396
 30
0.0
 11
-90.81938646041715
 21
595.6960379747467
 31
0.0
  0
LINE
  5
1D9
330
1F
100
AcDbEntity
  8
0-0
  6
JWW_DASHED1
 62
   120
370
     5
100
AcDbLine
 10
-680.8193864604211
 20
12.76710578660982
 30
0.0
 11
-430.8193864604165
 21
262.7671057866144
 31
0.0
  0
LINE
  5
1DA
330
1F
100
AcDbEntity
  8
0-0
  6
JWW_DASHED1
 62
   120
370
     5
100
AcDbLine
 10
-340.8193864604251
 20
352.7671057866054
 30
0.0
 11
-90.81938646043761
 21
602.7671057865946
 31
0.0
  0
LINE
  5
1DB
330
1F
100
AcDbEntity
  8
0-0
  6
JWW_DASHED1
 62
   120
370
     5
100
AcDbLine
 10
-680.8193864604194
 20
19.83817359847819
 30
0.0
 11
-430.8193864604285
 21
269.83817359847
 31
0.0
  0
LINE
  5
1DC
330
1F
100
AcDbEntity
  8
0-0
  6
JWW_DASHED1
 62
   120
370
     5
100
AcDbLine
 10
-340.8193864604217
 20
359.8381735984768
 30
0.0
 11
-90.81938646042909
 21
609.8381735984685
 31
0.0
  0
LINE
  5
1DD
330
1F
100
AcDbEntity
  8
0-0
  6
JWW_DASHED1
 62
   120
370
     5
100
AcDbLine
 10
-680.8193864604092
 20
26.90924141035509
 30
0.0
 11
-430.8193864604182
 21
276.909241410346
 31
0.0
  0
LINE
  5
1DE
330
1F
100
AcDbEntity
  8
0-0
  6
JWW_DASHED1
 62
   120
370
     5
100
AcDbLine
 10
-340.8193864604268
 20
366.9092414103379
 30
0.0
 11
-90.81938646041885
 21
616.909241410345
 31
0.0
  0
LINE
  5
1DF
330
1F
100
AcDbEntity
  8
0-0
  6
JWW_DASHED1
 62
   120
370
     5
100
AcDbLine
 10
-680.8193864604228
 20
33.98030922220812
 30
0.0
 11
-430.8193864604182
 21
283.9803092222127
 31
0.0
  0
LINE
  5
1E0
330
1F
100
AcDbEntity
  8
0-0
  6
JWW_DASHED1
 62
   120
370
     5
100
AcDbLine
 10
-340.8193864604285
 20
373.9803092222033
 30
0.0
 11
-90.81938646042227
 21
623.9803092222082
 31
0.0
  0
LINE
  5
1E1
330
1F
100
AcDbEntity
  8
0-0
  6
JWW_DASHED1
 62
   120
370
     5
100
AcDbLine
 10
-680.8193864604211
 20
41.05137703407649
 30
0.0
 11
-430.8193864604302
 21
291.0513770340674
 31
0.0
  0
LINE
  5
1E2
330
1F
100
AcDbEntity
  8
0-0
  6
JWW_DASHED1
 62
   120
370
     5
100
AcDbLine
 10
-340.8193864604217
 20
381.0513770340751
 30
0.0
 11
-90.81938646043079
 21
631.0513770340668
 31
0.0
  0
LINE
  5
1E3
330
1F
100
AcDbEntity
  8
0-0
  6
JWW_DASHED1
 62
   120
370
     5
100
AcDbLine
 10
-680.8193864604109
 20
48.1224448459534
 30
0.0
 11
-430.8193864604199
 21
298.1224448459443
 31
0.0
  0
LINE
  5
1E4
330
1F
100
AcDbEntity
  8
0-0
  6
JWW_DASHED1
 62
   120
370
     5
100
AcDbLine
 10
-340.8193864604132
 20
388.122444845952
 30
0.0
 11
-90.81938646042056
 21
638.1224448459433
 31
0.0
  0
LINE
  5
1E5
330
1F
100
AcDbEntity
  8
0-0
  6
JWW_DASHED1
 62
   120
370
     5
100
AcDbLine
 10
-680.8193864604262
 20
55.193512657806
 30
0.0
 11
-430.8193864604216
 21
305.1935126578105
 31
0.0
  0
LINE
  5
1E6
330
1F
100
AcDbEntity
  8
0-0
  6
JWW_DASHED1
 62
   120
370
     5
100
AcDbLine
 10
-340.8193864604302
 20
395.1935126578012
 30
0.0
 11
-90.81938646042397
 21
645.1935126578065
 31
0.0
  0
LINE
  5
1E7
330
1F
100
AcDbEntity
  8
0-0
  6
JWW_DASHED1
 62
   120
370
     5
100
AcDbLine
 10
-680.8193864604228
 20
62.2645804696748
 30
0.0
 11
-430.8193864604319
 21
312.2645804696662
 31
0.0
  0
LINE
  5
1E8
330
1F
100
AcDbEntity
  8
0-0
  6
JWW_DASHED1
 62
   120
370
     5
100
AcDbLine
 10
-340.8193864604251
 20
402.2645804696734
 30
0.0
 11
-90.8193864604325
 21
652.2645804696651
 31
0.0
  0
LINE
  5
1E9
330
1F
100
AcDbEntity
  8
0-0
  6
JWW_DASHED1
 62
   120
370
     5
100
AcDbLine
 10
-680.8193864604126
 20
69.3356482815517
 30
0.0
 11
-430.8193864604216
 21
319.3356482815426
 31
0.0
  0
LINE
  5
1EA
330
1F
100
AcDbEntity
  8
0-0
  6
JWW_DASHED1
 62
   120
370
     5
100
AcDbLine
 10
-340.8193864604149
 20
409.3356482815503
 30
0.0
 11
-90.81938646042397
 21
659.3356482815416
 31
0.0
  0
LINE
  5
1EB
330
1F
100
AcDbEntity
  8
0-0
  6
JWW_DASHED1
 62
   120
370
     5
100
AcDbLine
 10
-680.8193864604262
 20
76.4067160934043
 30
0.0
 11
-430.8193864604216
 21
326.4067160934088
 31
0.0
  0
LINE
  5
1EC
330
1F
100
AcDbEntity
  8
0-0
  6
JWW_DASHED1
 62
   120
370
     5
100
AcDbLine
 10
-340.8193864604319
 20
416.4067160933995
 30
0.0
 11
-90.81938646042738
 21
666.4067160934044
 31
0.0
  0
LINE
  5
1ED
330
1F
100
AcDbEntity
  8
0-0
  6
JWW_DASHED1
 62
   120
370
     5
100
AcDbLine
 10
-680.819386460416
 20
83.47778390528077
 30
0.0
 11
-430.8193864604285
 21
333.4777839052691
 31
0.0
  0
LINE
  5
1EE
330
1F
100
AcDbEntity
  8
0-0
  6
JWW_DASHED1
 62
   120
370
     5
100
AcDbLine
 10
-340.8193864604217
 20
423.4777839052759
 30
0.0
 11
-90.8193864604325
 21
673.4777839052651
 31
0.0
  0
LINE
  5
1EF
330
1F
100
AcDbEntity
  8
0-0
  6
JWW_DASHED1
 62
   120
370
     5
100
AcDbLine
 10
-680.8193864604143
 20
90.54885171715
 30
0.0
 11
-430.8193864604233
 21
340.5488517171409
 31
0.0
  0
LINE
  5
1F0
330
1F
100
AcDbEntity
  8
0-0
  6
JWW_DASHED1
 62
   120
370
     5
100
AcDbLine
 10
-340.8193864604149
 20
430.5488517171486
 30
0.0
 11
-90.81938646042397
 21
680.5488517171399
 31
0.0
  0
LINE
  5
1F1
330
1F
100
AcDbEntity
  8
0-0
  6
JWW_DASHED1
 62
   120
370
     5
100
AcDbLine
 10
-680.8193864604194
 20
97.6199195290107
 30
0.0
 11
-430.8193864604131
 21
347.6199195290178
 31
0.0
  0
LINE
  5
1F2
330
1F
100
AcDbEntity
  8
0-0
  6
JWW_DASHED1
 62
   120
370
     5
100
AcDbLine
 10
-340.8193864604217
 20
437.6199195290093
 30
0.0
 11
-90.81938646041374
 21
687.6199195290164
 31
0.0
  0
LINE
  5
1F3
330
1F
100
AcDbEntity
  8
0-0
  6
JWW_DASHED1
 62
   120
370
     5
100
AcDbLine
 10
-680.8193864604194
 20
104.6909873408786
 30
0.0
 11
-430.8193864604302
 21
354.6909873408674
 31
0.0
  0
LINE
  5
1F4
330
1F
100
AcDbEntity
  8
0-0
  6
JWW_DASHED1
 62
   120
370
     5
100
AcDbLine
 10
-340.8193864604234
 20
444.6909873408742
 30
0.0
 11
-90.8193864604342
 21
694.6909873408634
 31
0.0
  0
LINE
  5
1F5
330
1F
100
AcDbEntity
  8
0-0
  6
JWW_DASHED1
 62
   120
370
     5
100
AcDbLine
 10
-680.819386460416
 20
111.7620551527483
 30
0.0
 11
-430.8193864604251
 21
361.7620551527392
 31
0.0
  0
LINE
  5
1F6
330
1F
100
AcDbEntity
  8
0-0
  6
JWW_DASHED1
 62
   120
370
     5
100
AcDbLine
 10
-340.8193864604183
 20
451.7620551527469
 30
0.0
 11
-90.81938646042738
 21
701.7620551527382
 31
0.0
  0
LINE
  5
1F7
330
1F
100
AcDbEntity
  8
0-0
  6
JWW_DASHED1
 62
   120
370
     5
100
AcDbLine
 10
-680.8193864604058
 20
118.8331229646248
 30
0.0
 11
-430.8193864604148
 21
368.8331229646157
 31
0.0
  0
LINE
  5
1F8
330
1F
100
AcDbEntity
  8
0-0
  6
JWW_DASHED1
 62
   120
370
     5
100
AcDbLine
 10
-340.8193864604234
 20
458.8331229646076
 30
0.0
 11
-90.81938646041715
 21
708.8331229646146
 31
0.0
  0
LINE
  5
1F9
330
1F
100
AcDbEntity
  8
0-0
  6
JWW_DASHED1
 62
   120
370
     5
100
AcDbLine
 10
-680.8193864604211
 20
125.9041907764765
 30
0.0
 11
-430.8193864604165
 21
375.9041907764815
 31
0.0
  0
LINE
  5
1FA
330
1F
100
AcDbEntity
  8
0-0
  6
JWW_DASHED1
 62
   120
370
     5
100
AcDbLine
 10
-340.8193864604251
 20
465.9041907764725
 30
0.0
 11
-90.81938646043591
 21
715.9041907764613
 31
0.0
  0
LINE
  5
1FB
330
1F
100
AcDbEntity
  8
0-0
  6
JWW_DASHED1
 62
   120
370
     5
100
AcDbLine
 10
-680.8193864604177
 20
132.9752585883466
 30
0.0
 11
-430.8193864604268
 21
382.9752585883375
 31
0.0
  0
LINE
  5
1FC
330
1F
100
AcDbEntity
  8
0-0
  6
JWW_DASHED1
 62
   120
370
     5
100
AcDbLine
 10
-340.8193864604183
 20
472.9752585883452
 30
0.0
 11
-90.81938646042738
 21
722.9752585883365
 31
0.0
  0
LINE
  5
1FD
330
1F
100
AcDbEntity
  8
0-0
  6
JWW_DASHED1
 62
   120
370
     5
100
AcDbLine
 10
-680.8193864604075
 20
140.0463264002231
 30
0.0
 11
-430.8193864604165
 21
390.046326400214
 31
0.0
  0
LINE
  5
1FE
330
1F
100
AcDbEntity
  8
0-0
  6
JWW_DASHED1
 62
   120
370
     5
100
AcDbLine
 10
-340.8193864604251
 20
480.0463264002059
 30
0.0
 11
-90.81938646041715
 21
730.046326400213
 31
0.0
  0
LINE
  5
1FF
330
1F
100
AcDbEntity
  8
0-0
  6
JWW_DASHED1
 62
   120
370
     5
100
AcDbLine
 10
-680.8193864604228
 20
147.1173942120748
 30
0.0
 11
-430.8193864604182
 21
397.1173942120794
 31
0.0
  0
LINE
  5
200
330
1F
100
AcDbEntity
  8
0-0
  6
JWW_DASHED1
 62
   120
370
     5
100
AcDbLine
 10
-340.8193864604285
 20
487.1173942120704
 30
0.0
 11
-90.81938646043761
 21
737.1173942120596
 31
0.0
  0
LINE
  5
201
330
1F
100
AcDbEntity
  8
0-0
  6
JWW_DASHED1
 62
   120
370
     5
100
AcDbLine
 10
-680.8193864604194
 20
154.1884620239449
 30
0.0
 11
-430.8193864604285
 21
404.1884620239358
 31
0.0
  0
LINE
  5
202
330
1F
100
AcDbEntity
  8
0-0
  6
JWW_DASHED1
 62
   120
370
     5
100
AcDbLine
 10
-340.8193864604217
 20
494.1884620239435
 30
0.0
 11
-90.81938646043079
 21
744.1884620239348
 31
0.0
  0
LINE
  5
203
330
1F
100
AcDbEntity
  8
0-0
  6
JWW_DASHED1
 62
   120
370
     5
100
AcDbLine
 10
-680.8193864604092
 20
161.2595298358218
 30
0.0
 11
-430.8193864604182
 21
411.2595298358127
 31
0.0
  0
LINE
  5
204
330
1F
100
AcDbEntity
  8
0-0
  6
JWW_DASHED1
 62
   120
370
     5
100
AcDbLine
 10
-340.8193864604115
 20
501.2595298358204
 30
0.0
 11
-90.81938646042056
 21
751.2595298358112
 31
0.0
  0
LINE
  5
205
330
1F
100
AcDbEntity
  8
0-0
  6
JWW_DASHED1
 62
   120
370
     5
100
AcDbLine
 10
-680.8193864604245
 20
168.3305976476731
 30
0.0
 11
-430.8193864604199
 21
418.3305976476777
 31
0.0
  0
LINE
  5
206
330
1F
100
AcDbEntity
  8
0-0
  6
JWW_DASHED1
 62
   120
370
     5
100
AcDbLine
 10
-340.8193864604285
 20
508.3305976476683
 30
0.0
 11
-90.81938646042397
 21
758.3305976476732
 31
0.0
  0
LINE
  5
207
330
1F
100
AcDbEntity
  8
0-0
  6
JWW_DASHED1
 62
   120
370
     5
100
AcDbLine
 10
-680.8193864604211
 20
175.4016654595432
 30
0.0
 11
-430.8193864604302
 21
425.4016654595341
 31
0.0
  0
LINE
  5
208
330
1F
100
AcDbEntity
  8
0-0
  6
JWW_DASHED1
 62
   120
370
     5
100
AcDbLine
 10
-340.8193864604217
 20
515.4016654595418
 30
0.0
 11
-90.81938646043079
 21
765.4016654595331
 31
0.0
  0
LINE
  5
209
330
1F
100
AcDbEntity
  8
0-0
  6
JWW_DASHED1
 62
   120
370
     5
100
AcDbLine
 10
-680.8193864604126
 20
182.4727332714197
 30
0.0
 11
-430.8193864604199
 21
432.4727332714106
 31
0.0
  0
LINE
  5
20A
330
1F
100
AcDbEntity
  8
0-0
  6
JWW_DASHED1
 62
   120
370
     5
100
AcDbLine
 10
-340.8193864604132
 20
522.4727332714183
 30
0.0
 11
-90.81938646042056
 21
772.4727332714097
 31
0.0
  0
LINE
  5
20B
330
1F
100
AcDbEntity
  8
0-0
  6
JWW_DASHED1
 62
   120
370
     5
100
AcDbLine
 10
-680.8193864604262
 20
189.5438010832714
 30
0.0
 11
-430.8193864604216
 21
439.5438010832755
 31
0.0
  0
LINE
  5
20C
330
1F
100
AcDbEntity
  8
0-0
  6
JWW_DASHED1
 62
   120
370
     5
100
AcDbLine
 10
-340.8193864604319
 20
529.5438010832665
 30
0.0
 11
-90.81938646042568
 21
779.5438010832715
 31
0.0
  0
LINE
  5
20D
330
1F
100
AcDbEntity
  8
0-0
  6
JWW_DASHED1
 62
   120
370
     5
100
AcDbLine
 10
-680.8193864604228
 20
196.6148688951415
 30
0.0
 11
-430.8193864604319
 21
446.6148688951324
 31
0.0
  0
LINE
  5
20E
330
1F
100
AcDbEntity
  8
0-0
  6
JWW_DASHED1
 62
   120
370
     5
100
AcDbLine
 10
-340.8193864604251
 20
536.61486889514
 30
0.0
 11
-90.8193864604325
 21
786.6148688951314
 31
0.0
  0
LINE
  5
20F
330
1F
100
AcDbEntity
  8
0-0
  6
JWW_DASHED1
 62
   120
370
     5
100
AcDbLine
 10
-680.8193864604126
 20
203.6859367070184
 30
0.0
 11
-430.8193864604216
 21
453.6859367070089
 31
0.0
  0
LINE
  5
210
330
1F
100
AcDbEntity
  8
0-0
  6
JWW_DASHED1
 62
   120
370
     5
100
AcDbLine
 10
-340.8193864604149
 20
543.6859367070166
 30
0.0
 11
-90.81938646042397
 21
793.6859367070083
 31
0.0
  0
LINE
  5
211
330
1F
100
AcDbEntity
  8
0-0
  6
JWW_DASHED1
 62
   120
370
     5
100
AcDbLine
 10
-680.8193864604297
 20
210.7570045188693
 30
0.0
 11
-430.8193864604251
 21
460.7570045188738
 31
0.0
  0
LINE
  5
212
330
1F
100
AcDbEntity
  8
0-0
  6
JWW_DASHED1
 62
   120
370
     5
100
AcDbLine
 10
-340.8193864604319
 20
550.757004518865
 30
0.0
 11
-90.81938646042738
 21
800.7570045188698
 31
0.0
  0
LINE
  5
213
330
1F
100
AcDbEntity
  8
0-0
  6
JWW_DASHED1
 62
   120
370
     5
100
AcDbLine
 10
-680.8193864604194
 20
217.8280723307458
 30
0.0
 11
-430.8193864604302
 21
467.8280723307346
 31
0.0
  0
LINE
  5
214
330
1F
100
AcDbEntity
  8
0-0
  6
JWW_DASHED1
 62
   120
370
     5
100
AcDbLine
 10
-340.8193864604234
 20
557.828072330741
 30
0.0
 11
-90.8193864604342
 21
807.8280723307306
 31
0.0
  0
LINE
  5
215
330
1F
100
AcDbEntity
  8
0-0
  6
JWW_DASHED1
 62
   120
370
     5
100
AcDbLine
 10
-680.819386460416
 20
224.8991401425869
 30
0.0
 11
-430.8193864604251
 21
474.8991401425778
 31
0.0
  0
LINE
  5
216
330
1F
100
AcDbEntity
  8
0-0
  6
JWW_DASHED1
 62
   120
370
     5
100
AcDbLine
 10
-340.8193864604183
 20
564.8991401425855
 30
0.0
 11
-90.81938646042738
 21
814.8991401425768
 31
0.0
  0
LINE
  5
217
330
1F
100
AcDbEntity
  8
0-0
  6
JWW_DASHED1
 62
   120
370
     5
100
AcDbLine
 10
-680.8193864604092
 20
231.9702079544339
 30
0.0
 11
-430.8193864604182
 21
481.9702079544253
 31
0.0
  0
LINE
  5
218
330
1F
100
AcDbEntity
  8
0-0
  6
JWW_DASHED1
 62
   120
370
     5
100
AcDbLine
 10
-340.8193864604268
 20
571.9702079544168
 30
0.0
 11
-90.81938646041885
 21
821.9702079544243
 31
0.0
  0
LINE
  5
219
330
1F
100
AcDbEntity
  8
0-0
  6
JWW_DASHED1
 62
   120
370
     5
100
AcDbLine
 10
-680.8193864604245
 20
239.0412757662848
 30
0.0
 11
-430.8193864604199
 21
489.0412757662898
 31
0.0
  0
LINE
  5
21A
330
1F
100
AcDbEntity
  8
0-0
  6
JWW_DASHED1
 62
   120
370
     5
100
AcDbLine
 10
-340.8193864604285
 20
579.0412757662805
 30
0.0
 11
-90.81938646042397
 21
829.0412757662854
 31
0.0
  0
LINE
  5
21B
330
1F
100
AcDbEntity
  8
0-0
  6
JWW_DASHED1
 62
   120
370
     5
100
AcDbLine
 10
-680.8193864604211
 20
246.1123435781553
 30
0.0
 11
-430.8193864604302
 21
496.1123435781467
 31
0.0
  0
LINE
  5
21C
330
1F
100
AcDbEntity
  8
0-0
  6
JWW_DASHED1
 62
   120
370
     5
100
AcDbLine
 10
-340.8193864604217
 20
586.112343578154
 30
0.0
 11
-90.81938646043079
 21
836.1123435781457
 31
0.0
  0
LINE
  5
21D
330
1F
100
AcDbEntity
  8
0-0
  6
JWW_DASHED1
 62
   120
370
     5
100
AcDbLine
 10
-680.8193864604109
 20
253.1834113900322
 30
0.0
 11
-430.8193864604199
 21
503.1834113900236
 31
0.0
  0
LINE
  5
21E
330
1F
100
AcDbEntity
  8
0-0
  6
JWW_DASHED1
 62
   120
370
     5
100
AcDbLine
 10
-340.8193864604115
 20
593.1834113900309
 30
0.0
 11
-90.81938646042056
 21
843.1834113900221
 31
0.0
  0
LINE
  5
21F
330
1F
100
AcDbEntity
  8
0-0
  6
JWW_DASHED1
 62
   120
370
     5
100
AcDbLine
 10
-680.8193864604262
 20
260.2544792018836
 30
0.0
 11
-430.8193864604216
 21
510.2544792018876
 31
0.0
  0
LINE
  5
220
330
1F
100
AcDbEntity
  8
0-0
  6
JWW_DASHED1
 62
   120
370
     5
100
AcDbLine
 10
-340.8193864604319
 20
600.2544792018787
 30
0.0
 11
-90.81938646042738
 21
850.2544792018837
 31
0.0
  0
LINE
  5
221
330
1F
100
AcDbEntity
  8
0-0
  6
JWW_DASHED1
 62
   120
370
     5
100
AcDbLine
 10
-680.8193864604228
 20
267.3255470137541
 30
0.0
 11
-430.8193864604319
 21
517.325547013745
 31
0.0
  0
LINE
  5
222
330
1F
100
AcDbEntity
  8
0-0
  6
JWW_DASHED1
 62
   120
370
     5
100
AcDbLine
 10
-340.8193864604251
 20
607.3255470137526
 30
0.0
 11
-90.8193864604325
 21
857.325547013744
 31
0.0
  0
LINE
  5
223
330
1F
100
AcDbEntity
  8
0-0
  6
JWW_DASHED1
 62
   120
370
     5
100
AcDbLine
 10
-680.8193864604126
 20
274.3966148256305
 30
0.0
 11
-430.8193864604216
 21
524.3966148256214
 31
0.0
  0
LINE
  5
224
330
1F
100
AcDbEntity
  8
0-0
  6
JWW_DASHED1
 62
   120
370
     5
100
AcDbLine
 10
-340.8193864604149
 20
614.3966148256291
 30
0.0
 11
-90.81938646042227
 21
864.3966148256209
 31
0.0
  0
LINE
  5
225
330
1F
100
AcDbEntity
  8
0-0
  6
JWW_DASHED1
 62
   120
370
     5
100
AcDbLine
 10
-680.8193864604297
 20
281.467682637481
 30
0.0
 11
-430.8193864604251
 21
531.467682637486
 31
0.0
  0
LINE
  5
226
330
1F
100
AcDbEntity
  8
0-0
  6
JWW_DASHED1
 62
   120
370
     5
100
AcDbLine
 10
-340.8193864604319
 20
621.4676826374771
 30
0.0
 11
-90.81938646042738
 21
871.4676826374816
 31
0.0
  0
LINE
  5
227
330
1F
100
AcDbEntity
  8
0-0
  6
JWW_DASHED1
 62
   120
370
     5
100
AcDbLine
 10
-680.8193864604194
 20
288.5387504493579
 30
0.0
 11
-430.8193864604302
 21
538.5387504493463
 31
0.0
  0
LINE
  5
228
330
1F
100
AcDbEntity
  8
0-0
  6
JWW_DASHED1
 62
   120
370
     5
100
AcDbLine
 10
-680.8193864604143
 20
295.6098182612288
 30
0.0
 11
-430.8193864604233
 21
545.6098182612197
 31
0.0
  0
LINE
  5
229
330
1F
100
AcDbEntity
  8
0-0
  6
JWW_DASHED1
 62
   120
370
     5
100
AcDbLine
 10
-680.8193864604194
 20
302.6808860730895
 30
0.0
 11
-430.8193864604131
 21
552.6808860730966
 31
0.0
  0
LINE
  5
22A
330
1F
100
AcDbEntity
  8
0-0
  6
JWW_DASHED1
 62
   120
370
     5
100
AcDbLine
 10
-680.8193864604211
 20
309.7519538849558
 30
0.0
 11
-430.8193864604319
 21
559.7519538849446
 31
0.0
  0
LINE
  5
22B
330
1F
100
AcDbEntity
  8
0-0
  6
JWW_DASHED1
 62
   120
370
     5
100
AcDbLine
 10
-680.819386460416
 20
316.8230216968271
 30
0.0
 11
-430.8193864604251
 21
566.8230216968185
 31
0.0
  0
LINE
  5
22C
330
1F
100
AcDbEntity
  8
0-0
  6
JWW_DASHED1
 62
   120
370
     5
100
AcDbLine
 10
-680.8193864604058
 20
323.894089508704
 30
0.0
 11
-430.8193864604148
 21
573.894089508695
 31
0.0
  0
LINE
  5
22D
330
1F
100
AcDbEntity
  8
0-0
  6
JWW_DASHED1
 62
   120
370
     5
100
AcDbLine
 10
-680.8193864604228
 20
330.9651573205541
 30
0.0
 11
-430.8193864604182
 21
580.9651573205587
 31
0.0
  0
LINE
  5
22E
330
1F
100
AcDbEntity
  8
0-0
  6
JWW_DASHED1
 62
   120
370
     5
100
AcDbLine
 10
-680.8193864604177
 20
338.0362251324254
 30
0.0
 11
-430.8193864604268
 21
588.0362251324163
 31
0.0
  0
LINE
  5
22F
330
1F
100
AcDbEntity
  8
0-0
  6
JWW_DASHED1
 62
   120
370
     5
100
AcDbLine
 10
-680.8193864604075
 20
345.1072929443023
 30
0.0
 11
-430.8193864604165
 21
595.1072929442932
 31
0.0
  0
LINE
  5
230
330
1F
100
AcDbEntity
  8
0-0
  6
JWW_DASHED1
 62
   120
370
     5
100
AcDbLine
 10
-680.8193864604245
 20
352.178360756152
 30
0.0
 11
-430.8193864604199
 21
602.1783607561565
 31
0.0
  0
LINE
  5
231
330
1F
100
AcDbEntity
  8
0-0
  6
JWW_DASHED1
 62
   120
370
     5
100
AcDbLine
 10
-680.8193864604194
 20
359.2494285680237
 30
0.0
 11
-430.8193864604285
 21
609.2494285680151
 31
0.0
  0
LINE
  5
232
330
1F
100
AcDbEntity
  8
0-0
  6
JWW_DASHED1
 62
   120
370
     5
100
AcDbLine
 10
-680.8193864604092
 20
366.3204963799002
 30
0.0
 11
-430.8193864604182
 21
616.3204963798916
 31
0.0
  0
LINE
  5
233
330
1F
100
AcDbEntity
  8
0-0
  6
JWW_DASHED1
 62
   120
370
     5
100
AcDbLine
 10
-680.8193864604262
 20
373.3915641917503
 30
0.0
 11
-430.8193864604216
 21
623.3915641917548
 31
0.0
  0
LINE
  5
234
330
1F
100
AcDbEntity
  8
0-0
  6
JWW_DASHED1
 62
   120
370
     5
100
AcDbLine
 10
-680.8193864604211
 20
380.462632003622
 30
0.0
 11
-430.8193864604302
 21
630.4626320036134
 31
0.0
  0
LINE
  5
235
330
1F
100
AcDbEntity
  8
0-0
  6
JWW_DASHED1
 62
   120
370
     5
100
AcDbLine
 10
-680.8193864604126
 20
387.5336998154985
 30
0.0
 11
-430.8193864604199
 21
637.5336998154899
 31
0.0
  0
LINE
  5
236
330
1F
100
AcDbEntity
  8
0-0
  6
JWW_DASHED1
 62
   120
370
     5
100
AcDbLine
 10
-680.819386460428
 20
394.6047676273481
 30
0.0
 11
-430.8193864604233
 21
644.6047676273527
 31
0.0
  0
LINE
  5
237
330
1F
100
AcDbEntity
  8
0-0
  6
JWW_DASHED1
 62
   120
370
     5
100
AcDbLine
 10
-680.8193864604194
 20
401.675835439225
 30
0.0
 11
-430.8193864604285
 21
651.6758354392139
 31
0.0
  0
LINE
  5
238
330
1F
100
AcDbEntity
  8
0-0
  6
JWW_DASHED1
 62
   120
370
     5
100
AcDbLine
 10
-680.8193864604126
 20
408.7469032510973
 30
0.0
 11
-430.8193864604216
 21
658.7469032510882
 31
0.0
  0
LINE
  5
239
330
1F
100
AcDbEntity
  8
0-0
  6
JWW_DASHED1
 62
   120
370
     5
100
AcDbLine
 10
-680.8193864604297
 20
415.8179710629469
 30
0.0
 11
-430.8193864604251
 21
665.817971062951
 31
0.0
  0
LINE
  5
23A
330
1F
100
AcDbEntity
  8
0-0
  6
JWW_DASHED1
 62
   120
370
     5
100
AcDbLine
 10
-680.8193864604194
 20
422.8890388748229
 30
0.0
 11
-430.8193864604319
 21
672.8890388748121
 31
0.0
  0
LINE
  5
23B
330
1F
100
AcDbEntity
  8
0-0
  6
JWW_DASHED1
 62
   120
370
     5
100
AcDbLine
 10
-680.8193864604143
 20
429.9601066866951
 30
0.0
 11
-430.8193864604233
 21
679.9601066866865
 31
0.0
  0
LINE
  5
23C
330
1F
100
AcDbEntity
  8
0-0
  6
JWW_DASHED1
 62
   120
370
     5
100
AcDbLine
 10
-680.8193864604194
 20
437.0311744985563
 30
0.0
 11
-430.8193864604148
 21
687.0311744985629
 31
0.0
  0
LINE
  5
23D
330
1F
100
AcDbEntity
  8
0-0
  6
JWW_DASHED1
 62
   120
370
     5
100
AcDbLine
 10
-680.8193864604228
 20
444.1022423104212
 30
0.0
 11
-430.8193864604182
 21
694.1022423104257
 31
0.0
  0
LINE
  5
23E
330
1F
100
AcDbEntity
  8
0-0
  6
JWW_DASHED1
 62
   120
370
     5
100
AcDbLine
 10
-680.819386460416
 20
451.1733101222934
 30
0.0
 11
-430.8193864604251
 21
701.1733101222848
 31
0.0
  0
LINE
  5
23F
330
1F
100
AcDbEntity
  8
0-0
  6
JWW_DASHED1
 62
   120
370
     5
100
AcDbLine
 10
-680.8193864604058
 20
458.2443779341703
 30
0.0
 11
-430.8193864604148
 21
708.2443779341612
 31
0.0
  0
LINE
  5
240
330
1F
100
AcDbEntity
  8
0-0
  6
JWW_DASHED1
 62
   120
370
     5
100
AcDbLine
 10
-680.8193864604245
 20
465.3154457460191
 30
0.0
 11
-430.8193864604199
 21
715.3154457460237
 31
0.0
  0
LINE
  5
241
330
1F
100
AcDbEntity
  8
0-0
  6
JWW_DASHED1
 62
   120
370
     5
100
AcDbLine
 10
-680.8193864604194
 20
472.3865135578367
 30
0.0
 11
-430.8193864604302
 21
722.3865135578255
 31
0.0
  0
LINE
  5
242
330
1F
100
AcDbEntity
  8
0-0
  6
JWW_DASHED1
 62
   120
370
     5
100
AcDbLine
 10
-680.8193864604126
 20
479.4575813697098
 30
0.0
 11
-430.8193864604216
 21
729.4575813697007
 31
0.0
  0
LINE
  5
243
330
1F
100
AcDbEntity
  8
0-0
  6
JWW_DASHED1
 62
   120
370
     5
100
AcDbLine
 10
-680.8193864604297
 20
486.5286491815581
 30
0.0
 11
-430.8193864604251
 21
736.5286491815627
 31
0.0
  0
LINE
  5
244
330
1F
100
AcDbEntity
  8
0-0
  6
JWW_DASHED1
 62
   120
370
     5
100
AcDbLine
 10
-680.8193864604194
 20
493.599716993435
 30
0.0
 11
-430.8193864604319
 21
743.5997169934238
 31
0.0
  0
LINE
  5
245
330
1F
100
AcDbEntity
  8
0-0
  6
JWW_DASHED1
 62
   120
370
     5
100
AcDbLine
 10
-680.8193864604143
 20
500.6707848053077
 30
0.0
 11
-430.8193864604233
 21
750.670784805299
 31
0.0
  0
LINE
  5
246
330
1F
100
AcDbEntity
  8
0-0
  6
JWW_DASHED1
 62
   120
370
     5
100
AcDbLine
 10
-680.8193864604194
 20
507.7418526171688
 30
0.0
 11
-430.8193864604131
 21
757.7418526171755
 31
0.0
  0
LINE
  5
247
330
1F
100
AcDbEntity
  8
0-0
  6
JWW_DASHED1
 62
   120
370
     5
100
AcDbLine
 10
-680.8193864604228
 20
514.8129204290333
 30
0.0
 11
-430.8193864604182
 21
764.8129204290375
 31
0.0
  0
LINE
  5
248
330
1F
100
AcDbEntity
  8
0-0
  6
JWW_DASHED1
 62
   120
370
     5
100
AcDbLine
 10
-680.819386460416
 20
521.883988240906
 30
0.0
 11
-430.8193864604251
 21
771.8839882408973
 31
0.0
  0
LINE
  5
249
330
1F
100
AcDbEntity
  8
0-0
  6
JWW_DASHED1
 62
   120
370
     5
100
AcDbLine
 10
-680.8193864604058
 20
528.9550560527829
 30
0.0
 11
-430.8193864604148
 21
778.9550560527738
 31
0.0
  0
LINE
  5
24A
330
1F
100
AcDbEntity
  8
0-0
  6
JWW_DASHED1
 62
   120
370
     5
100
AcDbLine
 10
-680.8193864604245
 20
536.0261238646308
 30
0.0
 11
-430.8193864604199
 21
786.0261238646358
 31
0.0
  0
LINE
  5
24B
330
1F
100
AcDbEntity
  8
0-0
  6
JWW_DASHED1
 62
   120
370
     5
100
AcDbLine
 10
-680.8193864604177
 20
543.0971916765043
 30
0.0
 11
-430.8193864604268
 21
793.0971916764956
 31
0.0
  0
LINE
  5
24C
330
1F
100
AcDbEntity
  8
0-0
  6
JWW_DASHED1
 62
   120
370
     5
100
AcDbLine
 10
-680.8193864604075
 20
550.1682594883812
 30
0.0
 11
-430.8193864604165
 21
800.1682594883721
 31
0.0
  0
LINE
  5
24D
330
1F
100
AcDbEntity
  8
0-0
  6
JWW_DASHED1
 62
   120
370
     5
100
AcDbLine
 10
-680.8193864604262
 20
557.2393273002291
 30
0.0
 11
-430.8193864604216
 21
807.2393273002336
 31
0.0
  0
LINE
  5
24E
330
1F
100
AcDbEntity
  8
0-0
  6
JWW_DASHED1
 62
   120
370
     5
100
AcDbLine
 10
-680.8193864604194
 20
564.3103951121026
 30
0.0
 11
-430.8193864604285
 21
814.3103951120939
 31
0.0
  0
LINE
  5
24F
330
1F
100
AcDbEntity
  8
0-0
  6
JWW_DASHED1
 62
   120
370
     5
100
AcDbLine
 10
-680.8193864604092
 20
571.3814629239795
 30
0.0
 11
-430.8193864604182
 21
821.3814629239704
 31
0.0
  0
LINE
  5
250
330
1F
100
AcDbEntity
  8
0-0
  6
JWW_DASHED1
 62
   120
370
     5
100
AcDbLine
 10
-680.819386460428
 20
578.4525307358274
 30
0.0
 11
-430.8193864604233
 21
828.4525307358319
 31
0.0
  0
LINE
  5
251
330
1F
100
AcDbEntity
  8
0-0
  6
JWW_DASHED1
 62
   120
370
     5
100
AcDbLine
 10
-680.8193864604211
 20
585.5235985477009
 30
0.0
 11
-430.8193864604302
 21
835.5235985476922
 31
0.0
  0
LINE
  5
252
330
1F
100
AcDbEntity
  8
0-0
  6
JWW_DASHED1
 62
   120
370
     5
100
AcDbLine
 10
-680.8193864604109
 20
592.5946663595778
 30
0.0
 11
-430.8193864604199
 21
842.5946663595687
 31
0.0
  0
LINE
  5
253
330
1F
100
AcDbEntity
  8
0-0
  6
JWW_DASHED1
 62
   120
370
     5
100
AcDbLine
 10
-680.8193864604297
 20
599.6657341714252
 30
0.0
 11
-430.8193864604251
 21
849.6657341714298
 31
0.0
  0
LINE
  5
254
330
1F
100
AcDbEntity
  8
0-0
  6
JWW_DASHED1
 62
   120
370
     5
100
AcDbLine
 10
-680.8193864604194
 20
606.7368019833021
 30
0.0
 11
-430.8193864604319
 21
856.7368019832909
 31
0.0
  0
LINE
  5
255
330
1F
100
AcDbEntity
  8
0-0
  6
JWW_DASHED1
 62
   120
370
     5
100
AcDbLine
 10
-680.8193864604126
 20
613.8078697951761
 30
0.0
 11
-430.8193864604216
 21
863.807869795167
 31
0.0
  0
LINE
  5
256
330
1F
100
AcDbEntity
  8
0-0
  6
JWW_DASHED1
 62
   120
370
     5
100
AcDbLine
 10
-680.8193864604194
 20
620.8789376070367
 30
0.0
 11
-430.8193864604114
 21
870.8789376070439
 31
0.0
  0
LINE
  5
257
330
1F
100
AcDbEntity
  8
0-0
  6
JWW_DASHED1
 62
   120
370
     5
100
AcDbLine
 10
-680.8193864604058
 20
868.3663110223284
 30
0.0
 11
-673.7679478285596
 21
875.4177496541746
 31
0.0
  0
LINE
  5
258
330
1F
100
AcDbEntity
  8
0-0
  6
JWW_DASHED1
 62
   120
370
     5
100
AcDbLine
 10
-340.8193864604234
 20
628.5387504493531
 30
0.0
 11
-93.94038725560188
 21
875.4177496541746
 31
0.0
  0
LINE
  5
259
330
1F
100
AcDbEntity
  8
0-0
  6
JWW_DASHED1
 62
   120
370
     5
100
AcDbLine
 10
-340.8193864604149
 20
635.6098182612275
 30
0.0
 11
-101.0114550674685
 21
875.4177496541746
 31
0.0
  0
LINE
  5
25A
330
1F
100
AcDbEntity
  8
0-0
  6
JWW_DASHED1
 62
   120
370
     5
100
AcDbLine
 10
-340.8193864604217
 20
642.6808860730881
 30
0.0
 11
-108.0825228793352
 21
875.4177496541746
 31
0.0
  0
LINE
  5
25B
330
1F
100
AcDbEntity
  8
0-0
  6
JWW_DASHED1
 62
   120
370
     5
100
AcDbLine
 10
-340.8193864604251
 20
649.7519538849514
 30
0.0
 11
-115.1535906912019
 21
875.4177496541746
 31
0.0
  0
LINE
  5
25C
330
1F
100
AcDbEntity
  8
0-0
  6
JWW_DASHED1
 62
   120
370
     5
100
AcDbLine
 10
-340.8193864604183
 20
656.8230216968257
 30
0.0
 11
-122.2246585030686
 21
875.4177496541746
 31
0.0
  0
LINE
  5
25D
330
1F
100
AcDbEntity
  8
0-0
  6
JWW_DASHED1
 62
   120
370
     5
100
AcDbLine
 10
-340.8193864604234
 20
663.8940895086864
 30
0.0
 11
-129.2957263149352
 21
875.4177496541746
 31
0.0
  0
LINE
  5
25E
330
1F
100
AcDbEntity
  8
0-0
  6
JWW_DASHED1
 62
   120
370
     5
100
AcDbLine
 10
-340.8193864604268
 20
670.9651573205497
 30
0.0
 11
-136.3667941268019
 21
875.4177496541746
 31
0.0
  0
LINE
  5
25F
330
1F
100
AcDbEntity
  8
0-0
  6
JWW_DASHED1
 62
   120
370
     5
100
AcDbLine
 10
-340.8193864604183
 20
678.0362251324241
 30
0.0
 11
-143.4378619386686
 21
875.4177496541746
 31
0.0
  0
LINE
  5
260
330
1F
100
AcDbEntity
  8
0-0
  6
JWW_DASHED1
 62
   120
370
     5
100
AcDbLine
 10
-340.8193864604251
 20
685.1072929442847
 30
0.0
 11
-150.5089297505352
 21
875.4177496541746
 31
0.0
  0
LINE
  5
261
330
1F
100
AcDbEntity
  8
0-0
  6
JWW_DASHED1
 62
   120
370
     5
100
AcDbLine
 10
-340.8193864604285
 20
692.1783607561475
 30
0.0
 11
-157.5799975624019
 21
875.4177496541746
 31
0.0
  0
LINE
  5
262
330
1F
100
AcDbEntity
  8
0-0
  6
JWW_DASHED1
 62
   120
370
     5
100
AcDbLine
 10
-340.8193864604217
 20
699.2494285680223
 30
0.0
 11
-164.6510653742686
 21
875.4177496541746
 31
0.0
  0
LINE
  5
263
330
1F
100
AcDbEntity
  8
0-0
  6
JWW_DASHED1
 62
   120
370
     5
100
AcDbLine
 10
-340.8193864604115
 20
706.3204963798992
 30
0.0
 11
-171.7221331861352
 21
875.4177496541746
 31
0.0
  0
LINE
  5
264
330
1F
100
AcDbEntity
  8
0-0
  6
JWW_DASHED1
 62
   120
370
     5
100
AcDbLine
 10
-340.8193864604319
 20
713.3915641917458
 30
0.0
 11
-178.7932009980019
 21
875.4177496541746
 31
0.0
  0
LINE
  5
265
330
1F
100
AcDbEntity
  8
0-0
  6
JWW_DASHED1
 62
   120
370
     5
100
AcDbLine
 10
-340.8193864604217
 20
720.4626320036207
 30
0.0
 11
-185.8642688098686
 21
875.4177496541746
 31
0.0
  0
LINE
  5
266
330
1F
100
AcDbEntity
  8
0-0
  6
JWW_DASHED1
 62
   120
370
     5
100
AcDbLine
 10
-340.8193864604132
 20
727.5336998154971
 30
0.0
 11
-192.9353366217352
 21
875.4177496541746
 31
0.0
  0
LINE
  5
267
330
1F
100
AcDbEntity
  8
0-0
  6
JWW_DASHED1
 62
   120
370
     5
100
AcDbLine
 10
-340.8193864604319
 20
734.6047676273438
 30
0.0
 11
-200.0064044336019
 21
875.4177496541746
 31
0.0
  0
LINE
  5
268
330
1F
100
AcDbEntity
  8
0-0
  6
JWW_DASHED1
 62
   120
370
     5
100
AcDbLine
 10
-340.8193864604234
 20
741.6758354392202
 30
0.0
 11
-207.0774722454686
 21
875.4177496541746
 31
0.0
  0
LINE
  5
269
330
1F
100
AcDbEntity
  8
0-0
  6
JWW_DASHED1
 62
   120
370
     5
100
AcDbLine
 10
-340.8193864604149
 20
748.7469032510954
 30
0.0
 11
-214.1485400573353
 21
875.4177496541746
 31
0.0
  0
LINE
  5
26A
330
1F
100
AcDbEntity
  8
0-0
  6
JWW_DASHED1
 62
   120
370
     5
100
AcDbLine
 10
-340.8193864604353
 20
755.817971062942
 30
0.0
 11
-221.2196078692019
 21
875.4177496541746
 31
0.0
  0
LINE
  5
26B
330
1F
100
AcDbEntity
  8
0-0
  6
JWW_DASHED1
 62
   120
370
     5
100
AcDbLine
 10
-340.8193864604251
 20
762.8890388748185
 30
0.0
 11
-228.2906756810686
 21
875.4177496541746
 31
0.0
  0
LINE
  5
26C
330
1F
100
AcDbEntity
  8
0-0
  6
JWW_DASHED1
 62
   120
370
     5
100
AcDbLine
 10
-340.8193864604166
 20
769.9601066866937
 30
0.0
 11
-235.3617434929353
 21
875.4177496541746
 31
0.0
  0
LINE
  5
26D
330
1F
100
AcDbEntity
  8
0-0
  6
JWW_DASHED1
 62
   120
370
     5
100
AcDbLine
 10
-340.8193864604217
 20
777.0311744985548
 30
0.0
 11
-242.432811304802
 21
875.4177496541746
 31
0.0
  0
LINE
  5
26E
330
1F
100
AcDbEntity
  8
0-0
  6
JWW_DASHED1
 62
   120
370
     5
100
AcDbLine
 10
-340.8193864604268
 20
784.1022423104164
 30
0.0
 11
-249.5038791166686
 21
875.4177496541746
 31
0.0
  0
LINE
  5
26F
330
1F
100
AcDbEntity
  8
0-0
  6
JWW_DASHED1
 62
   120
370
     5
100
AcDbLine
 10
-340.8193864604183
 20
791.173310122292
 30
0.0
 11
-256.5749469285353
 21
875.4177496541746
 31
0.0
  0
LINE
  5
270
330
1F
100
AcDbEntity
  8
0-0
  6
JWW_DASHED1
 62
   120
370
     5
100
AcDbLine
 10
-340.8193864604234
 20
798.2443779341531
 30
0.0
 11
-263.6460147404019
 21
875.4177496541746
 31
0.0
  0
LINE
  5
271
330
1F
100
AcDbEntity
  8
0-0
  6
JWW_DASHED1
 62
   120
370
     5
100
AcDbLine
 10
-340.8193864604285
 20
805.3154457460147
 30
0.0
 11
-270.7170825522686
 21
875.4177496541746
 31
0.0
  0
LINE
  5
272
330
1F
100
AcDbEntity
  8
0-0
  6
JWW_DASHED1
 62
   120
370
     5
100
AcDbLine
 10
-340.8193864604234
 20
812.3865135578324
 30
0.0
 11
-277.7881503640807
 21
875.4177496541746
 31
0.0
  0
LINE
  5
273
330
1F
100
AcDbEntity
  8
0-0
  6
JWW_DASHED1
 62
   120
370
     5
100
AcDbLine
 10
-340.8193864604149
 20
819.4575813697079
 30
0.0
 11
-284.8592181759474
 21
875.4177496541746
 31
0.0
  0
LINE
  5
274
330
1F
100
AcDbEntity
  8
0-0
  6
JWW_DASHED1
 62
   120
370
     5
100
AcDbLine
 10
-340.8193864604353
 20
826.5286491815538
 30
0.0
 11
-291.930285987814
 21
875.4177496541746
 31
0.0
  0
LINE
  5
275
330
1F
100
AcDbEntity
  8
0-0
  6
JWW_DASHED1
 62
   120
370
     5
100
AcDbLine
 10
-340.8193864604251
 20
833.5997169934302
 30
0.0
 11
-299.0013537996807
 21
875.4177496541746
 31
0.0
  0
LINE
  5
276
330
1F
100
AcDbEntity
  8
0-0
  6
JWW_DASHED1
 62
   120
370
     5
100
AcDbLine
 10
-340.8193864604149
 20
840.6707848053067
 30
0.0
 11
-306.0724216115474
 21
875.4177496541746
 31
0.0
  0
LINE
  5
277
330
1F
100
AcDbEntity
  8
0-0
  6
JWW_DASHED1
 62
   120
370
     5
100
AcDbLine
 10
-340.8193864604217
 20
847.7418526171674
 30
0.0
 11
-313.1434894234141
 21
875.4177496541746
 31
0.0
  0
LINE
  5
278
330
1F
100
AcDbEntity
  8
0-0
  6
JWW_DASHED1
 62
   120
370
     5
100
AcDbLine
 10
-340.8193864604268
 20
854.8129204290285
 30
0.0
 11
-320.2145572352807
 21
875.4177496541746
 31
0.0
  0
LINE
  5
279
330
1F
100
AcDbEntity
  8
0-0
  6
JWW_DASHED1
 62
   120
370
     5
100
AcDbLine
 10
-340.8193864604183
 20
861.8839882409045
 30
0.0
 11
-327.2856250471474
 21
875.4177496541746
 31
0.0
  0
LINE
  5
27A
330
1F
100
AcDbEntity
  8
0-0
  6
JWW_DASHED1
 62
   120
370
     5
100
AcDbLine
 10
-340.8193864604234
 20
868.9550560527653
 30
0.0
 11
-334.3566928590141
 21
875.4177496541746
 31
0.0
  0
LINE
  5
27B
330
1F
100
AcDbEntity
  8
0-0
  6
JWW_DASHED1
 62
   120
370
     5
100
AcDbLine
 10
-680.8193864604228
 20
627.9500054189
 30
0.0
 11
-433.3516422251474
 21
875.4177496541746
 31
0.0
  0
LINE
  5
27C
330
1F
100
AcDbEntity
  8
0-0
  6
JWW_DASHED1
 62
   120
370
     5
100
AcDbLine
 10
-680.8193864604143
 20
635.0210732307744
 30
0.0
 11
-440.422710037014
 21
875.4177496541746
 31
0.0
  0
LINE
  5
27D
330
1F
100
AcDbEntity
  8
0-0
  6
JWW_DASHED1
 62
   120
370
     5
100
AcDbLine
 10
-680.8193864604041
 20
642.0921410426508
 30
0.0
 11
-447.4937778488807
 21
875.4177496541746
 31
0.0
  0
LINE
  5
27E
330
1F
100
AcDbEntity
  8
0-0
  6
JWW_DASHED1
 62
   120
370
     5
100
AcDbLine
 10
-680.8193864604245
 20
649.163208854498
 30
0.0
 11
-454.5648456607474
 21
875.4177496541746
 31
0.0
  0
LINE
  5
27F
330
1F
100
AcDbEntity
  8
0-0
  6
JWW_DASHED1
 62
   120
370
     5
100
AcDbLine
 10
-680.819386460416
 20
656.2342766663727
 30
0.0
 11
-461.635913472614
 21
875.4177496541746
 31
0.0
  0
LINE
  5
280
330
1F
100
AcDbEntity
  8
0-0
  6
JWW_DASHED1
 62
   120
370
     5
100
AcDbLine
 10
-680.8193864604058
 20
663.3053444782491
 30
0.0
 11
-468.7069812844807
 21
875.4177496541746
 31
0.0
  0
LINE
  5
281
330
1F
100
AcDbEntity
  8
0-0
  6
JWW_DASHED1
 62
   120
370
     5
100
AcDbLine
 10
-680.8193864604262
 20
670.3764122900966
 30
0.0
 11
-475.7780490963474
 21
875.4177496541746
 31
0.0
  0
LINE
  5
282
330
1F
100
AcDbEntity
  8
0-0
  6
JWW_DASHED1
 62
   120
370
     5
100
AcDbLine
 10
-680.8193864604177
 20
677.447480101971
 30
0.0
 11
-482.8491169082141
 21
875.4177496541746
 31
0.0
  0
LINE
  5
283
330
1F
100
AcDbEntity
  8
0-0
  6
JWW_DASHED1
 62
   120
370
     5
100
AcDbLine
 10
-680.8193864604075
 20
684.5185479138474
 30
0.0
 11
-489.9201847200808
 21
875.4177496541746
 31
0.0
  0
LINE
  5
284
330
1F
100
AcDbEntity
  8
0-0
  6
JWW_DASHED1
 62
   120
370
     5
100
AcDbLine
 10
-680.819386460428
 20
691.5896157256941
 30
0.0
 11
-496.9912525319475
 21
875.4177496541746
 31
0.0
  0
LINE
  5
285
330
1F
100
AcDbEntity
  8
0-0
  6
JWW_DASHED1
 62
   120
370
     5
100
AcDbLine
 10
-680.8193864604194
 20
698.6606835375693
 30
0.0
 11
-504.0623203438141
 21
875.4177496541746
 31
0.0
  0
LINE
  5
286
330
1F
100
AcDbEntity
  8
0-0
  6
JWW_DASHED1
 62
   120
370
     5
100
AcDbLine
 10
-680.8193864604126
 20
705.7317513494163
 30
0.0
 11
-511.1333881556535
 21
875.4177496541746
 31
0.0
  0
LINE
  5
287
330
1F
100
AcDbEntity
  8
0-0
  6
JWW_DASHED1
 62
   120
370
     5
100
AcDbLine
 10
-680.8193864604194
 20
712.8028191612476
 30
0.0
 11
-518.2044559674929
 21
875.4177496541746
 31
0.0
  0
LINE
  5
288
330
1F
100
AcDbEntity
  8
0-0
  6
JWW_DASHED1
 62
   120
370
     5
100
AcDbLine
 10
-680.8193864604245
 20
719.8738869731101
 30
0.0
 11
-525.2755237793596
 21
875.4177496541746
 31
0.0
  0
LINE
  5
289
330
1F
100
AcDbEntity
  8
0-0
  6
JWW_DASHED1
 62
   120
370
     5
100
AcDbLine
 10
-680.819386460416
 20
726.9449547849853
 30
0.0
 11
-532.3465915912262
 21
875.4177496541746
 31
0.0
  0
LINE
  5
28A
330
1F
100
AcDbEntity
  8
0-0
  6
JWW_DASHED1
 62
   120
370
     5
100
AcDbLine
 10
-680.8193864604058
 20
734.0160225968617
 30
0.0
 11
-539.4176594030929
 21
875.4177496541746
 31
0.0
  0
LINE
  5
28B
330
1F
100
AcDbEntity
  8
0-0
  6
JWW_DASHED1
 62
   120
370
     5
100
AcDbLine
 10
-680.8193864604262
 20
741.0870904087084
 30
0.0
 11
-546.4887272149596
 21
875.4177496541746
 31
0.0
  0
LINE
  5
28C
330
1F
100
AcDbEntity
  8
0-0
  6
JWW_DASHED1
 62
   120
370
     5
100
AcDbLine
 10
-680.8193864604177
 20
748.1581582205836
 30
0.0
 11
-553.5597950268262
 21
875.4177496541746
 31
0.0
  0
LINE
  5
28D
330
1F
100
AcDbEntity
  8
0-0
  6
JWW_DASHED1
 62
   120
370
     5
100
AcDbLine
 10
-680.8193864604075
 20
755.22922603246
 30
0.0
 11
-560.6308628386929
 21
875.4177496541746
 31
0.0
  0
LINE
  5
28E
330
1F
100
AcDbEntity
  8
0-0
  6
JWW_DASHED1
 62
   120
370
     5
100
AcDbLine
 10
-680.819386460428
 20
762.3002938443062
 30
0.0
 11
-567.7019306505596
 21
875.4177496541746
 31
0.0
  0
LINE
  5
28F
330
1F
100
AcDbEntity
  8
0-0
  6
JWW_DASHED1
 62
   120
370
     5
100
AcDbLine
 10
-680.8193864604194
 20
769.3713616561819
 30
0.0
 11
-574.7729984624262
 21
875.4177496541746
 31
0.0
  0
LINE
  5
290
330
1F
100
AcDbEntity
  8
0-0
  6
JWW_DASHED1
 62
   120
370
     5
100
AcDbLine
 10
-680.8193864604092
 20
776.4424294680583
 30
0.0
 11
-581.8440662742929
 21
875.4177496541746
 31
0.0
  0
LINE
  5
291
330
1F
100
AcDbEntity
  8
0-0
  6
JWW_DASHED1
 62
   120
370
     5
100
AcDbLine
 10
-680.8193864604297
 20
783.5134972799045
 30
0.0
 11
-588.9151340861596
 21
875.4177496541746
 31
0.0
  0
LINE
  5
292
330
1F
100
AcDbEntity
  8
0-0
  6
JWW_DASHED1
 62
   120
370
     5
100
AcDbLine
 10
-680.8193864604211
 20
790.5845650917802
 30
0.0
 11
-595.9862018980263
 21
875.4177496541746
 31
0.0
  0
LINE
  5
293
330
1F
100
AcDbEntity
  8
0-0
  6
JWW_DASHED1
 62
   120
370
     5
100
AcDbLine
 10
-680.8193864604109
 20
797.6556329036566
 30
0.0
 11
-603.0572697098929
 21
875.4177496541746
 31
0.0
  0
LINE
  5
294
330
1F
100
AcDbEntity
  8
0-0
  6
JWW_DASHED1
 62
   120
370
     5
100
AcDbLine
 10
-680.8193864604314
 20
804.7267007155028
 30
0.0
 11
-610.1283375217596
 21
875.4177496541746
 31
0.0
  0
LINE
  5
295
330
1F
100
AcDbEntity
  8
0-0
  6
JWW_DASHED1
 62
   120
370
     5
100
AcDbLine
 10
-680.8193864604228
 20
811.7977685273788
 30
0.0
 11
-617.1994053336263
 21
875.4177496541746
 31
0.0
  0
LINE
  5
296
330
1F
100
AcDbEntity
  8
0-0
  6
JWW_DASHED1
 62
   120
370
     5
100
AcDbLine
 10
-680.8193864604126
 20
818.8688363392549
 30
0.0
 11
-624.2704731454929
 21
875.4177496541746
 31
0.0
  0
LINE
  5
297
330
1F
100
AcDbEntity
  8
0-0
  6
JWW_DASHED1
 62
   120
370
     5
100
AcDbLine
 10
-680.8193864604194
 20
825.9399041511156
 30
0.0
 11
-631.3415409573596
 21
875.4177496541746
 31
0.0
  0
LINE
  5
298
330
1F
100
AcDbEntity
  8
0-0
  6
JWW_DASHED1
 62
   120
370
     5
100
AcDbLine
 10
-680.8193864604228
 20
833.0109719629772
 30
0.0
 11
-638.4126087692263
 21
875.4177496541746
 31
0.0
  0
LINE
  5
299
330
1F
100
AcDbEntity
  8
0-0
  6
JWW_DASHED1
 62
   120
370
     5
100
AcDbLine
 10
-680.8193864604143
 20
840.0820397748532
 30
0.0
 11
-645.4836765810929
 21
875.4177496541746
 31
0.0
  0
LINE
  5
29A
330
1F
100
AcDbEntity
  8
0-0
  6
JWW_DASHED1
 62
   120
370
     5
100
AcDbLine
 10
-680.8193864604041
 20
847.1531075867301
 30
0.0
 11
-652.5547443929596
 21
875.4177496541746
 31
0.0
  0
LINE
  5
29B
330
1F
100
AcDbEntity
  8
0-0
  6
JWW_DASHED1
 62
   120
370
     5
100
AcDbLine
 10
-680.8193864604262
 20
854.2241753985751
 30
0.0
 11
-659.6258122048263
 21
875.4177496541746
 31
0.0
  0
LINE
  5
29C
330
1F
100
AcDbEntity
  8
0-0
  6
JWW_DASHED1
 62
   120
370
     5
100
AcDbLine
 10
-680.819386460416
 20
861.2952432104515
 30
0.0
 11
-666.696880016693
 21
875.4177496541746
 31
0.0
  0
LINE
  5
29D
330
1F
100
AcDbEntity
  8
0-0
  6
JWW_DASHED1
 62
   120
370
     5
100
AcDbLine
 10
715.1158875920246
 20
-822.5822503458168
 30
0.0
 11
719.180613539576
 21
-818.5175243982668
 31
0.0
  0
LINE
  5
29E
330
1F
100
AcDbEntity
  8
0-0
  6
JWW_DASHED1
 62
   120
370
     5
100
AcDbLine
 10
708.0448197801494
 20
-822.5822503458268
 30
0.0
 11
719.1806135395846
 21
-811.4464565863901
 31
0.0
  0
LINE
  5
29F
330
1F
100
AcDbEntity
  8
0-0
  6
JWW_DASHED1
 62
   120
370
     5
100
AcDbLine
 10
700.9737519683032
 20
-822.5822503458063
 30
0.0
 11
719.1806135395624
 21
-804.3753887745452
 31
0.0
  0
LINE
  5
2A0
330
1F
100
AcDbEntity
  8
0-0
  6
JWW_DASHED1
 62
   120
370
     5
100
AcDbLine
 10
693.9026841564263
 20
-822.5822503458165
 30
0.0
 11
719.1806135395726
 21
-797.3043209626685
 31
0.0
  0
LINE
  5
2A1
330
1F
100
AcDbEntity
  8
0-0
  6
JWW_DASHED1
 62
   120
370
     5
100
AcDbLine
 10
686.8316163445511
 20
-822.5822503458246
 30
0.0
 11
719.1806135395829
 21
-790.2332531507922
 31
0.0
  0
LINE
  5
2A2
330
1F
100
AcDbEntity
  8
0-0
  6
JWW_DASHED1
 62
   120
370
     5
100
AcDbLine
 10
679.7605485327032
 20
-822.5822503458054
 30
0.0
 11
719.1806135395624
 21
-783.1621853389471
 31
0.0
  0
LINE
  5
2A3
330
1F
100
AcDbEntity
  8
0-0
  6
JWW_DASHED1
 62
   120
370
     5
100
AcDbLine
 10
672.6894807208263
 20
-822.5822503458156
 30
0.0
 11
719.1806135395726
 21
-776.0911175270702
 31
0.0
  0
LINE
  5
2A4
330
1F
100
AcDbEntity
  8
0-0
  6
JWW_DASHED1
 62
   120
370
     5
100
AcDbLine
 10
665.6184129089528
 20
-822.5822503458222
 30
0.0
 11
719.1806135395811
 21
-769.0200497151941
 31
0.0
  0
LINE
  5
2A5
330
1F
100
AcDbEntity
  8
0-0
  6
JWW_DASHED1
 62
   120
370
     5
100
AcDbLine
 10
658.5473450970878
 20
-822.5822503458202
 30
0.0
 11
719.180613539576
 21
-761.9489819033334
 31
0.0
  0
LINE
  5
2A6
330
1F
100
AcDbEntity
  8
0-0
  6
JWW_DASHED1
 62
   120
370
     5
100
AcDbLine
 10
651.4762772852263
 20
-822.5822503458148
 30
0.0
 11
719.1806135395692
 21
-754.8779140914721
 31
0.0
  0
LINE
  5
2A7
330
1F
100
AcDbEntity
  8
0-0
  6
JWW_DASHED1
 62
   120
370
     5
100
AcDbLine
 10
644.4052094733545
 20
-822.5822503458202
 30
0.0
 11
719.1806135395794
 21
-747.8068462795953
 31
0.0
  0
LINE
  5
2A8
330
1F
100
AcDbEntity
  8
0-0
  6
JWW_DASHED1
 62
   120
370
     5
100
AcDbLine
 10
637.3341416614895
 20
-822.5822503458195
 30
0.0
 11
719.1806135395726
 21
-740.7357784677354
 31
0.0
  0
LINE
  5
2A9
330
1F
100
AcDbEntity
  8
0-0
  6
JWW_DASHED1
 62
   120
370
     5
100
AcDbLine
 10
630.263073849628
 20
-822.5822503458137
 30
0.0
 11
719.1806135395692
 21
-733.6647106558736
 31
0.0
  0
LINE
  5
2AA
330
1F
100
AcDbEntity
  8
0-0
  6
JWW_DASHED1
 62
   120
370
     5
100
AcDbLine
 10
623.1920060377579
 20
-822.5822503458178
 30
0.0
 11
719.1806135395777
 21
-726.593642843997
 31
0.0
  0
LINE
  5
2AB
330
1F
100
AcDbEntity
  8
0-0
  6
JWW_DASHED1
 62
   120
370
     5
100
AcDbLine
 10
616.1209382258895
 20
-822.5822503458185
 30
0.0
 11
719.1806135395709
 21
-719.5225750321372
 31
0.0
  0
LINE
  5
2AC
330
1F
100
AcDbEntity
  8
0-0
  6
JWW_DASHED1
 62
   120
370
     5
100
AcDbLine
 10
609.0498704140297
 20
-822.5822503458131
 30
0.0
 11
719.1806135395658
 21
-712.4515072202753
 31
0.0
  0
LINE
  5
2AD
330
1F
100
AcDbEntity
  8
0-0
  6
JWW_DASHED1
 62
   120
370
     5
100
AcDbLine
 10
601.9788026021596
 20
-822.5822503458159
 30
0.0
 11
719.180613539576
 21
-705.3804394083987
 31
0.0
  0
LINE
  5
2AE
330
1F
100
AcDbEntity
  8
0-0
  6
JWW_DASHED1
 62
   120
370
     5
100
AcDbLine
 10
594.9077347902895
 20
-822.582250345818
 30
0.0
 11
719.1806135395692
 21
-698.3093715965389
 31
0.0
  0
LINE
  5
2AF
330
1F
100
AcDbEntity
  8
0-0
  6
JWW_DASHED1
 62
   120
370
     5
100
AcDbLine
 10
587.8366669784297
 20
-822.5822503458116
 30
0.0
 11
719.1806135395658
 21
-691.2383037846771
 31
0.0
  0
LINE
  5
2B0
330
1F
100
AcDbEntity
  8
0-0
  6
JWW_DASHED1
 62
   120
370
     5
100
AcDbLine
 10
580.7655991665528
 20
-822.5822503458219
 30
0.0
 11
719.180613539576
 21
-684.1672359728002
 31
0.0
  0
LINE
  5
2B1
330
1F
100
AcDbEntity
  8
0-0
  6
JWW_DASHED1
 62
   120
370
     5
100
AcDbLine
 10
573.6945313546861
 20
-822.5822503458234
 30
0.0
 11
719.1806135395829
 21
-677.0961681609251
 31
0.0
  0
LINE
  5
2B2
330
1F
100
AcDbEntity
  8
0-0
  6
JWW_DASHED1
 62
   120
370
     5
100
AcDbLine
 10
566.6234635428314
 20
-822.582250345811
 30
0.0
 11
719.1806135395624
 21
-670.0251003490789
 31
0.0
  0
LINE
  5
2B3
330
1F
100
AcDbEntity
  8
0-0
  6
JWW_DASHED1
 62
   120
370
     5
100
AcDbLine
 10
559.5523957309545
 20
-822.5822503458212
 30
0.0
 11
719.1806135395726
 21
-662.9540325372021
 31
0.0
  0
LINE
  5
2B4
330
1F
100
AcDbEntity
  8
0-0
  6
JWW_DASHED1
 62
   120
370
     5
100
AcDbLine
 10
552.4813279190878
 20
-822.582250345821
 30
0.0
 11
719.1806135395811
 21
-655.8829647253269
 31
0.0
  0
LINE
  5
2B5
330
1F
100
AcDbEntity
  8
0-0
  6
JWW_DASHED1
 62
   120
370
     5
100
AcDbLine
 10
545.410260107216
 20
-822.5822503458256
 30
0.0
 11
719.180613539576
 21
-648.8118969134665
 31
0.0
  0
LINE
  5
2B6
330
1F
100
AcDbEntity
  8
0-0
  6
JWW_DASHED1
 62
   120
370
     5
100
AcDbLine
 10
538.3391922953545
 20
-822.5822503458202
 30
0.0
 11
719.1806135395709
 21
-641.7408291016038
 31
0.0
  0
LINE
  5
2B7
330
1F
100
AcDbEntity
  8
0-0
  6
JWW_DASHED1
 62
   120
370
     5
100
AcDbLine
 10
531.2681244835475
 20
-822.5822503458146
 30
0.0
 11
719.180613539576
 21
-634.6697612897863
 31
0.0
  0
LINE
  5
2B8
330
1F
100
AcDbEntity
  8
0-0
  6
JWW_DASHED1
 62
   120
370
     5
100
AcDbLine
 10
524.1970566716757
 20
-822.582250345821
 30
0.0
 11
719.1806135395692
 21
-627.5986934779272
 31
0.0
  0
LINE
  5
2B9
330
1F
100
AcDbEntity
  8
0-0
  6
JWW_DASHED1
 62
   120
370
     5
100
AcDbLine
 10
517.1259888598141
 20
-822.5822503458154
 30
0.0
 11
719.1806135395658
 21
-620.5276256660644
 31
0.0
  0
LINE
  5
2BA
330
1F
100
AcDbEntity
  8
0-0
  6
JWW_DASHED1
 62
   120
370
     5
100
AcDbLine
 10
510.0549210479372
 20
-822.5822503458253
 30
0.0
 11
719.180613539576
 21
-613.4565578541877
 31
0.0
  0
LINE
  5
2BB
330
1F
100
AcDbEntity
  8
0-0
  6
JWW_DASHED1
 62
   120
370
     5
100
AcDbLine
 10
502.983853236074
 20
-822.5822503458219
 30
0.0
 11
719.1806135395829
 21
-606.3854900423133
 31
0.0
  0
LINE
  5
2BC
330
1F
100
AcDbEntity
  8
0-0
  6
JWW_DASHED1
 62
   120
370
     5
100
AcDbLine
 10
495.9127854242158
 20
-822.5822503458141
 30
0.0
 11
719.1806135395641
 21
-599.3144222304661
 31
0.0
  0
LINE
  5
2BD
330
1F
100
AcDbEntity
  8
0-0
  6
JWW_DASHED1
 62
   120
370
     5
100
AcDbLine
 10
488.8417176123389
 20
-822.5822503458246
 30
0.0
 11
719.1806135395726
 21
-592.2433544185897
 31
0.0
  0
LINE
  5
2BE
330
1F
100
AcDbEntity
  8
0-0
  6
JWW_DASHED1
 62
   120
370
     5
100
AcDbLine
 10
481.7706498004774
 20
-822.58225034582
 30
0.0
 11
719.1806135395811
 21
-585.172286606715
 31
0.0
  0
LINE
  5
2BF
330
1F
100
AcDbEntity
  8
0-0
  6
JWW_DASHED1
 62
   120
370
     5
100
AcDbLine
 10
474.6995819886158
 20
-822.5822503458133
 30
0.0
 11
719.1806135395624
 21
-578.1012187948678
 31
0.0
  0
LINE
  5
2C0
330
1F
100
AcDbEntity
  8
0-0
  6
JWW_DASHED1
 62
   120
370
     5
100
AcDbLine
 10
469.18061353958
 20
-821.0301509829831
 30
0.0
 11
719.1806135395726
 21
-571.0301509829911
 31
0.0
  0
LINE
  5
2C1
330
1F
100
AcDbEntity
  8
0-0
  6
JWW_DASHED1
 62
   120
370
     5
100
AcDbLine
 10
469.1806135395749
 20
-813.959083171122
 30
0.0
 11
719.1806135395794
 21
-563.959083171117
 31
0.0
  0
LINE
  5
2C2
330
1F
100
AcDbEntity
  8
0-0
  6
JWW_DASHED1
 62
   120
370
     5
100
AcDbLine
 10
469.1806135395851
 20
-806.8880153592453
 30
0.0
 11
719.1806135395726
 21
-556.8880153592563
 31
0.0
  0
LINE
  5
2C3
330
1F
100
AcDbEntity
  8
0-0
  6
JWW_DASHED1
 62
   120
370
     5
100
AcDbLine
 10
469.1806135395783
 20
-799.8169475473845
 30
0.0
 11
719.1806135395692
 21
-549.816947547393
 31
0.0
  0
LINE
  5
2C4
330
1F
100
AcDbEntity
  8
0-0
  6
JWW_DASHED1
 62
   120
370
     5
100
AcDbLine
 10
469.1806135395715
 20
-792.7458797355239
 30
0.0
 11
719.1806135395794
 21
-542.7458797355164
 31
0.0
  0
LINE
  5
2C5
330
1F
100
AcDbEntity
  8
0-0
  6
JWW_DASHED1
 62
   120
370
     5
100
AcDbLine
 10
469.1806135395817
 20
-785.6748119236474
 30
0.0
 11
719.1806135395726
 21
-535.6748119236581
 31
0.0
  0
LINE
  5
2C6
330
1F
100
AcDbEntity
  8
0-0
  6
JWW_DASHED1
 62
   120
370
     5
100
AcDbLine
 10
469.1806135395766
 20
-778.6037441117859
 30
0.0
 11
719.1806135395692
 21
-528.6037441117948
 31
0.0
  0
LINE
  5
2C7
330
1F
100
AcDbEntity
  8
0-0
  6
JWW_DASHED1
 62
   120
370
     5
100
AcDbLine
 10
469.1806135395715
 20
-771.5326762999256
 30
0.0
 11
719.1806135395794
 21
-521.532676299918
 31
0.0
  0
LINE
  5
2C8
330
1F
100
AcDbEntity
  8
0-0
  6
JWW_DASHED1
 62
   120
370
     5
100
AcDbLine
 10
469.18061353958
 20
-764.4616084880495
 30
0.0
 11
719.1806135395692
 21
-514.4616084880599
 31
0.0
  0
LINE
  5
2C9
330
1F
100
AcDbEntity
  8
0-0
  6
JWW_DASHED1
 62
   120
370
     5
100
AcDbLine
 10
469.1806135395749
 20
-757.3905406761877
 30
0.0
 11
719.1806135395658
 21
-507.3905406761964
 31
0.0
  0
LINE
  5
2CA
330
1F
100
AcDbEntity
  8
0-0
  6
JWW_DASHED1
 62
   120
370
     5
100
AcDbLine
 10
469.1806135395698
 20
-750.319472864327
 30
0.0
 11
719.180613539576
 21
-500.3194728643197
 31
0.0
  0
LINE
  5
2CB
330
1F
100
AcDbEntity
  8
0-0
  6
JWW_DASHED1
 62
   120
370
     5
100
AcDbLine
 10
469.1806135395783
 20
-743.2484050524512
 30
0.0
 11
719.1806135395829
 21
-493.248405052446
 31
0.0
  0
LINE
  5
2CC
330
1F
100
AcDbEntity
  8
0-0
  6
JWW_DASHED1
 62
   120
370
     5
100
AcDbLine
 10
469.1806135395732
 20
-736.1773372405896
 30
0.0
 11
719.1806135395658
 21
-486.1773372405983
 31
0.0
  0
LINE
  5
2CD
330
1F
100
AcDbEntity
  8
0-0
  6
JWW_DASHED1
 62
   120
370
     5
100
AcDbLine
 10
375.7046326224773
 20
-822.5822503458193
 30
0.0
 11
379.1806135395766
 21
-819.1062694287202
 31
0.0
  0
LINE
  5
2CE
330
1F
100
AcDbEntity
  8
0-0
  6
JWW_DASHED1
 62
   120
370
     5
100
AcDbLine
 10
469.1806135395834
 20
-729.1062694287127
 30
0.0
 11
719.180613539576
 21
-479.1062694287214
 31
0.0
  0
LINE
  5
2CF
330
1F
100
AcDbEntity
  8
0-0
  6
JWW_DASHED1
 62
   120
370
     5
100
AcDbLine
 10
368.6335648106004
 20
-822.5822503458287
 30
0.0
 11
379.1806135395851
 21
-812.035201616844
 31
0.0
  0
LINE
  5
2D0
330
1F
100
AcDbEntity
  8
0-0
  6
JWW_DASHED1
 62
   120
370
     5
100
AcDbLine
 10
469.1806135395766
 20
-722.0352016168529
 30
0.0
 11
719.1806135395829
 21
-472.0352016168479
 31
0.0
  0
LINE
  5
2D1
330
1F
100
AcDbEntity
  8
0-0
  6
JWW_DASHED1
 62
   120
370
     5
100
AcDbLine
 10
361.5624969987542
 20
-822.5822503458082
 30
0.0
 11
379.1806135395647
 21
-804.9641338049986
 31
0.0
  0
LINE
  5
2D2
330
1F
100
AcDbEntity
  8
0-0
  6
JWW_DASHED1
 62
   120
370
     5
100
AcDbLine
 10
469.1806135395715
 20
-714.9641338049913
 30
0.0
 11
719.1806135395624
 21
-464.964133805
 31
0.0
  0
LINE
  5
2D3
330
1F
100
AcDbEntity
  8
0-0
  6
JWW_DASHED1
 62
   120
370
     5
100
AcDbLine
 10
354.4914291868773
 20
-822.5822503458182
 30
0.0
 11
379.1806135395749
 21
-797.8930659931219
 31
0.0
  0
LINE
  5
2D4
330
1F
100
AcDbEntity
  8
0-0
  6
JWW_DASHED1
 62
   120
370
     5
100
AcDbLine
 10
469.1806135395817
 20
-707.8930659931146
 30
0.0
 11
719.1806135395726
 21
-457.8930659931231
 31
0.0
  0
LINE
  5
2D5
330
1F
100
AcDbEntity
  8
0-0
  6
JWW_DASHED1
 62
   120
370
     5
100
AcDbLine
 10
347.4203613750038
 20
-822.5822503458268
 30
0.0
 11
379.1806135395834
 21
-790.8219981812457
 31
0.0
  0
LINE
  5
2D6
330
1F
100
AcDbEntity
  8
0-0
  6
JWW_DASHED1
 62
   120
370
     5
100
AcDbLine
 10
469.1806135395749
 20
-700.8219981812548
 30
0.0
 11
719.1806135395794
 21
-450.82199818125
 31
0.0
  0
LINE
  5
2D7
330
1F
100
AcDbEntity
  8
0-0
  6
JWW_DASHED1
 62
   120
370
     5
100
AcDbLine
 10
340.3492935631406
 20
-822.5822503458229
 30
0.0
 11
379.1806135395783
 21
-783.7509303693847
 31
0.0
  0
LINE
  5
2D8
330
1F
100
AcDbEntity
  8
0-0
  6
JWW_DASHED1
 62
   120
370
     5
100
AcDbLine
 10
469.1806135395851
 20
-693.7509303693784
 30
0.0
 11
719.1806135395743
 21
-443.7509303693889
 31
0.0
  0
LINE
  5
2D9
330
1F
100
AcDbEntity
  8
0-0
  6
JWW_DASHED1
 62
   120
370
     5
100
AcDbLine
 10
333.278225751279
 20
-822.5822503458176
 30
0.0
 11
379.1806135395715
 21
-776.6798625575238
 31
0.0
  0
LINE
  5
2DA
330
1F
100
AcDbEntity
  8
0-0
  6
JWW_DASHED1
 62
   120
370
     5
100
AcDbLine
 10
469.18061353958
 20
-686.6798625575163
 30
0.0
 11
719.1806135395726
 21
-436.6798625575248
 31
0.0
  0
LINE
  5
2DB
330
1F
100
AcDbEntity
  8
0-0
  6
JWW_DASHED1
 62
   120
370
     5
100
AcDbLine
 10
326.2071579394055
 20
-822.5822503458239
 30
0.0
 11
379.1806135395817
 21
-769.6087947456474
 31
0.0
  0
LINE
  5
2DC
330
1F
100
AcDbEntity
  8
0-0
  6
JWW_DASHED1
 62
   120
370
     5
100
AcDbLine
 10
469.1806135395732
 20
-679.608794745657
 30
0.0
 11
719.1806135395777
 21
-429.6087947456522
 31
0.0
  0
LINE
  5
2DD
330
1F
100
AcDbEntity
  8
0-0
  6
JWW_DASHED1
 62
   120
370
     5
100
AcDbLine
 10
319.1360901275406
 20
-822.5822503458219
 30
0.0
 11
379.1806135395749
 21
-762.5377269337873
 31
0.0
  0
LINE
  5
2DE
330
1F
100
AcDbEntity
  8
0-0
  6
JWW_DASHED1
 62
   120
370
     5
100
AcDbLine
 10
469.1806135395817
 20
-672.5377269337803
 30
0.0
 11
719.1806135395726
 21
-422.5377269337911
 31
0.0
  0
LINE
  5
2DF
330
1F
100
AcDbEntity
  8
0-0
  6
JWW_DASHED1
 62
   120
370
     5
100
AcDbLine
 10
312.0650223156807
 20
-822.5822503458163
 30
0.0
 11
379.1806135395715
 21
-755.4666591219255
 31
0.0
  0
LINE
  5
2E0
330
1F
100
AcDbEntity
  8
0-0
  6
JWW_DASHED1
 62
   120
370
     5
100
AcDbLine
 10
469.1806135395783
 20
-665.4666591219183
 30
0.0
 11
719.1806135395692
 21
-415.4666591219265
 31
0.0
  0
LINE
  5
2E1
330
1F
100
AcDbEntity
  8
0-0
  6
JWW_DASHED1
 62
   120
370
     5
100
AcDbLine
 10
304.9939545038038
 20
-822.5822503458268
 30
0.0
 11
379.1806135395817
 21
-748.3955913100489
 31
0.0
  0
LINE
  5
2E2
330
1F
100
AcDbEntity
  8
0-0
  6
JWW_DASHED1
 62
   120
370
     5
100
AcDbLine
 10
469.1806135395715
 20
-658.3955913100572
 30
0.0
 11
719.1806135395794
 21
-408.3955913100496
 31
0.0
  0
LINE
  5
2E3
330
1F
100
AcDbEntity
  8
0-0
  6
JWW_DASHED1
 62
   120
370
     5
100
AcDbLine
 10
297.9228866919303
 20
-822.5822503458317
 30
0.0
 11
379.1806135395902
 21
-741.324523498173
 31
0.0
  0
LINE
  5
2E4
330
1F
100
AcDbEntity
  8
0-0
  6
JWW_DASHED1
 62
   120
370
     5
100
AcDbLine
 10
469.1806135395817
 20
-651.3245234981822
 30
0.0
 11
719.1806135395692
 21
-401.3245234981932
 31
0.0
  0
LINE
  5
2E5
330
1F
100
AcDbEntity
  8
0-0
  6
JWW_DASHED1
 62
   120
370
     5
100
AcDbLine
 10
290.8518188801114
 20
-822.5822503458132
 30
0.0
 11
379.1806135395664
 21
-734.2534556863568
 31
0.0
  0
LINE
  5
2E6
330
1F
100
AcDbEntity
  8
0-0
  6
JWW_DASHED1
 62
   120
370
     5
100
AcDbLine
 10
469.1806135395749
 20
-644.2534556863492
 30
0.0
 11
719.1806135395658
 21
-394.2534556863576
 31
0.0
  0
LINE
  5
2E7
330
1F
100
AcDbEntity
  8
0-0
  6
JWW_DASHED1
 62
   120
370
     5
100
AcDbLine
 10
283.7807510682618
 20
-822.5822503458219
 30
0.0
 11
379.1806135395749
 21
-727.1823878745096
 31
0.0
  0
LINE
  5
2E8
330
1F
100
AcDbEntity
  8
0-0
  6
JWW_DASHED1
 62
   120
370
     5
100
AcDbLine
 10
469.1806135395817
 20
-637.1823878745021
 30
0.0
 11
719.1806135395743
 21
-387.1823878745106
 31
0.0
  0
LINE
  5
2E9
330
1F
100
AcDbEntity
  8
0-0
  6
JWW_DASHED1
 62
   120
370
     5
100
AcDbLine
 10
276.7096832563917
 20
-822.5822503458253
 30
0.0
 11
379.1806135395834
 21
-720.1113200626339
 31
0.0
  0
LINE
  5
2EA
330
1F
100
AcDbEntity
  8
0-0
  6
JWW_DASHED1
 62
   120
370
     5
100
AcDbLine
 10
469.1806135395749
 20
-630.1113200626429
 30
0.0
 11
719.1806135395794
 21
-380.1113200626384
 31
0.0
  0
LINE
  5
2EB
330
1F
100
AcDbEntity
  8
0-0
  6
JWW_DASHED1
 62
   120
370
     5
100
AcDbLine
 10
269.638615444525
 20
-822.5822503458261
 30
0.0
 11
379.1806135395783
 21
-713.040252250773
 31
0.0
  0
LINE
  5
2EC
330
1F
100
AcDbEntity
  8
0-0
  6
JWW_DASHED1
 62
   120
370
     5
100
AcDbLine
 10
469.1806135395851
 20
-623.0402522507665
 30
0.0
 11
719.1806135395743
 21
-373.0402522507768
 31
0.0
  0
LINE
  5
2ED
330
1F
100
AcDbEntity
  8
0-0
  6
JWW_DASHED1
 62
   120
370
     5
100
AcDbLine
 10
262.5675476326635
 20
-822.5822503458205
 30
0.0
 11
379.1806135395732
 21
-705.969184438911
 31
0.0
  0
LINE
  5
2EE
330
1F
100
AcDbEntity
  8
0-0
  6
JWW_DASHED1
 62
   120
370
     5
100
AcDbLine
 10
469.18061353958
 20
-615.9691844389038
 30
0.0
 11
719.1806135395726
 21
-365.9691844389118
 31
0.0
  0
LINE
  5
2EF
330
1F
100
AcDbEntity
  8
0-0
  6
JWW_DASHED1
 62
   120
370
     5
100
AcDbLine
 10
255.4964798207951
 20
-822.5822503458227
 30
0.0
 11
379.1806135395817
 21
-698.8981166270358
 31
0.0
  0
LINE
  5
2F0
330
1F
100
AcDbEntity
  8
0-0
  6
JWW_DASHED1
 62
   120
370
     5
100
AcDbLine
 10
469.1806135395732
 20
-608.8981166270448
 30
0.0
 11
719.1806135395777
 21
-358.8981166270401
 31
0.0
  0
LINE
  5
2F1
330
1F
100
AcDbEntity
  8
0-0
  6
JWW_DASHED1
 62
   120
370
     5
100
AcDbLine
 10
248.425412008925
 20
-822.5822503458251
 30
0.0
 11
379.1806135395749
 21
-691.8270488151752
 31
0.0
  0
LINE
  5
2F2
330
1F
100
AcDbEntity
  8
0-0
  6
JWW_DASHED1
 62
   120
370
     5
100
AcDbLine
 10
469.1806135395817
 20
-601.8270488151684
 30
0.0
 11
719.1806135395726
 21
-351.8270488151794
 31
0.0
  0
LINE
  5
2F3
330
1F
100
AcDbEntity
  8
0-0
  6
JWW_DASHED1
 62
   120
370
     5
100
AcDbLine
 10
241.3543441970652
 20
-822.5822503458193
 30
0.0
 11
379.1806135395715
 21
-684.7559810033127
 31
0.0
  0
LINE
  5
2F4
330
1F
100
AcDbEntity
  8
0-0
  6
JWW_DASHED1
 62
   120
370
     5
100
AcDbLine
 10
469.1806135395783
 20
-594.7559810033055
 30
0.0
 11
719.1806135395692
 21
-344.755981003314
 31
0.0
  0
LINE
  5
2F5
330
1F
100
AcDbEntity
  8
0-0
  6
JWW_DASHED1
 62
   120
370
     5
100
AcDbLine
 10
234.2832763851968
 20
-822.582250345821
 30
0.0
 11
379.1806135395817
 21
-677.6849131914363
 31
0.0
  0
LINE
  5
2F6
330
1F
100
AcDbEntity
  8
0-0
  6
JWW_DASHED1
 62
   120
370
     5
100
AcDbLine
 10
469.1806135395732
 20
-587.6849131914448
 30
0.0
 11
719.1806135395794
 21
-337.6849131914375
 31
0.0
  0
LINE
  5
2F7
330
1F
100
AcDbEntity
  8
0-0
  6
JWW_DASHED1
 62
   120
370
     5
100
AcDbLine
 10
227.2122085733216
 20
-822.5822503458303
 30
0.0
 11
379.1806135395902
 21
-670.6138453795611
 31
0.0
  0
LINE
  5
2F8
330
1F
100
AcDbEntity
  8
0-0
  6
JWW_DASHED1
 62
   120
370
     5
100
AcDbLine
 10
469.1806135395817
 20
-580.6138453795702
 30
0.0
 11
719.1806135395692
 21
-330.6138453795811
 31
0.0
  0
LINE
  5
2F9
330
1F
100
AcDbEntity
  8
0-0
  6
JWW_DASHED1
 62
   120
370
     5
100
AcDbLine
 10
220.1411407614652
 20
-822.5822503458188
 30
0.0
 11
379.1806135395698
 21
-663.5427775677147
 31
0.0
  0
LINE
  5
2FA
330
1F
100
AcDbEntity
  8
0-0
  6
JWW_DASHED1
 62
   120
370
     5
100
AcDbLine
 10
469.1806135395766
 20
-573.5427775677072
 30
0.0
 11
719.1806135395692
 21
-323.5427775677152
 31
0.0
  0
LINE
  5
2FB
330
1F
100
AcDbEntity
  8
0-0
  6
JWW_DASHED1
 62
   120
370
     5
100
AcDbLine
 10
213.0700729495883
 20
-822.5822503458287
 30
0.0
 11
379.18061353958
 21
-656.4717097558378
 31
0.0
  0
LINE
  5
2FC
330
1F
100
AcDbEntity
  8
0-0
  6
JWW_DASHED1
 62
   120
370
     5
100
AcDbLine
 10
469.1806135395715
 20
-566.4717097558463
 30
0.0
 11
719.1806135395794
 21
-316.4717097558392
 31
0.0
  0
LINE
  5
2FD
330
1F
100
AcDbEntity
  8
0-0
  6
JWW_DASHED1
 62
   120
370
     5
100
AcDbLine
 10
205.9990051377233
 20
-822.582250345828
 30
0.0
 11
379.1806135395885
 21
-649.400641943963
 31
0.0
  0
LINE
  5
2FE
330
1F
100
AcDbEntity
  8
0-0
  6
JWW_DASHED1
 62
   120
370
     5
100
AcDbLine
 10
469.1806135395783
 20
-559.4006419439721
 30
0.0
 11
719.1806135395692
 21
-309.4006419439827
 31
0.0
  0
LINE
  5
2FF
330
1F
100
AcDbEntity
  8
0-0
  6
JWW_DASHED1
 62
   120
370
     5
100
AcDbLine
 10
198.9279373258669
 20
-822.5822503458176
 30
0.0
 11
379.1806135395681
 21
-642.3295741321164
 31
0.0
  0
LINE
  5
300
330
1F
100
AcDbEntity
  8
0-0
  6
JWW_DASHED1
 62
   120
370
     5
100
AcDbLine
 10
469.1806135395749
 20
-552.3295741321089
 30
0.0
 11
719.1806135395675
 21
-302.3295741321169
 31
0.0
  0
LINE
  5
301
330
1F
100
AcDbEntity
  8
0-0
  6
JWW_DASHED1
 62
   120
370
     5
100
AcDbLine
 10
191.85686951399
 20
-822.582250345828
 30
0.0
 11
379.1806135395783
 21
-635.2585063202397
 31
0.0
  0
LINE
  5
302
330
1F
100
AcDbEntity
  8
0-0
  6
JWW_DASHED1
 62
   120
370
     5
100
AcDbLine
 10
469.1806135395698
 20
-545.258506320248
 30
0.0
 11
719.180613539576
 21
-295.2585063202409
 31
0.0
  0
LINE
  5
303
330
1F
100
AcDbEntity
  8
0-0
  6
JWW_DASHED1
 62
   120
370
     5
100
AcDbLine
 10
184.785801702125
 20
-822.5822503458256
 30
0.0
 11
379.1806135395851
 21
-628.1874385083647
 31
0.0
  0
LINE
  5
304
330
1F
100
AcDbEntity
  8
0-0
  6
JWW_DASHED1
 62
   120
370
     5
100
AcDbLine
 10
469.1806135395766
 20
-538.1874385083738
 30
0.0
 11
719.1806135395829
 21
-288.1874385083691
 31
0.0
  0
LINE
  5
305
330
1F
100
AcDbEntity
  8
0-0
  6
JWW_DASHED1
 62
   120
370
     5
100
AcDbLine
 10
177.7147338902669
 20
-822.5822503458168
 30
0.0
 11
379.1806135395664
 21
-621.1163706965181
 31
0.0
  0
LINE
  5
306
330
1F
100
AcDbEntity
  8
0-0
  6
JWW_DASHED1
 62
   120
370
     5
100
AcDbLine
 10
469.1806135395749
 20
-531.1163706965106
 30
0.0
 11
719.1806135395658
 21
-281.1163706965191
 31
0.0
  0
LINE
  5
307
330
1F
100
AcDbEntity
  8
0-0
  6
JWW_DASHED1
 62
   120
370
     5
100
AcDbLine
 10
170.64366607839
 20
-822.582250345827
 30
0.0
 11
379.1806135395766
 21
-614.0453028846414
 31
0.0
  0
LINE
  5
308
330
1F
100
AcDbEntity
  8
0-0
  6
JWW_DASHED1
 62
   120
370
     5
100
AcDbLine
 10
469.1806135395834
 20
-524.0453028846339
 30
0.0
 11
719.180613539576
 21
-274.0453028846426
 31
0.0
  0
LINE
  5
309
330
1F
100
AcDbEntity
  8
0-0
  6
JWW_DASHED1
 62
   120
370
     5
100
AcDbLine
 10
163.5725982665267
 20
-822.5822503458236
 30
0.0
 11
379.1806135395851
 21
-606.9742350727666
 31
0.0
  0
LINE
  5
30A
330
1F
100
AcDbEntity
  8
0-0
  6
JWW_DASHED1
 62
   120
370
     5
100
AcDbLine
 10
469.1806135395749
 20
-516.974235072776
 30
0.0
 11
719.1806135395794
 21
-266.9742350727708
 31
0.0
  0
LINE
  5
30B
330
1F
100
AcDbEntity
  8
0-0
  6
JWW_DASHED1
 62
   120
370
     5
100
AcDbLine
 10
156.5015304546686
 20
-822.5822503458161
 30
0.0
 11
379.1806135395647
 21
-599.90316726092
 31
0.0
  0
LINE
  5
30C
330
1F
100
AcDbEntity
  8
0-0
  6
JWW_DASHED1
 62
   120
370
     5
100
AcDbLine
 10
469.1806135395715
 20
-509.9031672609123
 30
0.0
 11
719.1806135395624
 21
-259.9031672609212
 31
0.0
  0
LINE
  5
30D
330
1F
100
AcDbEntity
  8
0-0
  6
JWW_DASHED1
 62
   120
370
     5
100
AcDbLine
 10
149.4304626427917
 20
-822.5822503458261
 30
0.0
 11
379.1806135395749
 21
-592.8320994490433
 31
0.0
  0
LINE
  5
30E
330
1F
100
AcDbEntity
  8
0-0
  6
JWW_DASHED1
 62
   120
370
     5
100
AcDbLine
 10
469.1806135395817
 20
-502.8320994490356
 30
0.0
 11
719.1806135395726
 21
-252.8320994490443
 31
0.0
  0
LINE
  5
30F
330
1F
100
AcDbEntity
  8
0-0
  6
JWW_DASHED1
 62
   120
370
     5
100
AcDbLine
 10
142.3593948309301
 20
-822.5822503458212
 30
0.0
 11
379.1806135395817
 21
-585.7610316371686
 31
0.0
  0
LINE
  5
310
330
1F
100
AcDbEntity
  8
0-0
  6
JWW_DASHED1
 62
   120
370
     5
100
AcDbLine
 10
469.1806135395732
 20
-495.7610316371779
 30
0.0
 11
719.1806135395777
 21
-245.7610316371725
 31
0.0
  0
LINE
  5
311
330
1F
100
AcDbEntity
  8
0-0
  6
JWW_DASHED1
 62
   120
370
     5
100
AcDbLine
 10
135.2883270190532
 20
-822.5822503458304
 30
0.0
 11
379.1806135395766
 21
-578.6899638253078
 31
0.0
  0
LINE
  5
312
330
1F
100
AcDbEntity
  8
0-0
  6
JWW_DASHED1
 62
   120
370
     5
100
AcDbLine
 10
469.1806135395834
 20
-488.689963825301
 30
0.0
 11
719.1806135395726
 21
-238.6899638253122
 31
0.0
  0
LINE
  5
313
330
1F
100
AcDbEntity
  8
0-0
  6
JWW_DASHED1
 62
   120
370
     5
100
AcDbLine
 10
129.1806135395806
 20
-821.6188960134359
 30
0.0
 11
379.1806135395732
 21
-571.6188960134448
 31
0.0
  0
LINE
  5
314
330
1F
100
AcDbEntity
  8
0-0
  6
JWW_DASHED1
 62
   120
370
     5
100
AcDbLine
 10
469.18061353958
 20
-481.6188960134373
 30
0.0
 11
719.1806135395726
 21
-231.618896013446
 31
0.0
  0
LINE
  5
315
330
1F
100
AcDbEntity
  8
0-0
  6
JWW_DASHED1
 62
   120
370
     5
100
AcDbLine
 10
129.1806135395755
 20
-814.5478282015748
 30
0.0
 11
379.1806135395817
 21
-564.5478282015683
 31
0.0
  0
LINE
  5
316
330
1F
100
AcDbEntity
  8
0-0
  6
JWW_DASHED1
 62
   120
370
     5
100
AcDbLine
 10
469.1806135395749
 20
-474.5478282015766
 30
0.0
 11
719.1806135395829
 21
-224.5478282015691
 31
0.0
  0
LINE
  5
317
330
1F
100
AcDbEntity
  8
0-0
  6
JWW_DASHED1
 62
   120
370
     5
100
AcDbLine
 10
129.1806135395857
 20
-807.4767603896987
 30
0.0
 11
379.1806135395749
 21
-557.47676038971
 31
0.0
  0
LINE
  5
318
330
1F
100
AcDbEntity
  8
0-0
  6
JWW_DASHED1
 62
   120
370
     5
100
AcDbLine
 10
469.1806135395817
 20
-467.4767603897031
 30
0.0
 11
719.1806135395692
 21
-217.4767603897143
 31
0.0
  0
LINE
  5
319
330
1F
100
AcDbEntity
  8
0-0
  6
JWW_DASHED1
 62
   120
370
     5
100
AcDbLine
 10
129.1806135395806
 20
-800.4056925778378
 30
0.0
 11
379.1806135395715
 21
-550.4056925778465
 31
0.0
  0
LINE
  5
31A
330
1F
100
AcDbEntity
  8
0-0
  6
JWW_DASHED1
 62
   120
370
     5
100
AcDbLine
 10
469.1806135395783
 20
-460.4056925778394
 30
0.0
 11
719.1806135395692
 21
-210.4056925778477
 31
0.0
  0
LINE
  5
31B
330
1F
100
AcDbEntity
  8
0-0
  6
JWW_DASHED1
 62
   120
370
     5
100
AcDbLine
 10
129.1806135395908
 20
-793.334624765961
 30
0.0
 11
379.1806135395817
 21
-543.33462476597
 31
0.0
  0
LINE
  5
31C
330
1F
100
AcDbEntity
  8
0-0
  6
JWW_DASHED1
 62
   120
370
     5
100
AcDbLine
 10
469.1806135395732
 20
-453.3346247659779
 30
0.0
 11
719.1806135395794
 21
-203.3346247659708
 31
0.0
  0
LINE
  5
31D
330
1F
100
AcDbEntity
  8
0-0
  6
JWW_DASHED1
 62
   120
370
     5
100
AcDbLine
 10
129.180613539584
 20
-786.2635569541006
 30
0.0
 11
379.1806135395885
 21
-536.2635569540961
 31
0.0
  0
LINE
  5
31E
330
1F
100
AcDbEntity
  8
0-0
  6
JWW_DASHED1
 62
   120
370
     5
100
AcDbLine
 10
469.1806135395783
 20
-446.2635569541052
 30
0.0
 11
719.1806135395692
 21
-196.263556954116
 31
0.0
  0
LINE
  5
31F
330
1F
100
AcDbEntity
  8
0-0
  6
JWW_DASHED1
 62
   120
370
     5
100
AcDbLine
 10
129.1806135395772
 20
-779.1924891422395
 30
0.0
 11
379.1806135395698
 21
-529.1924891422482
 31
0.0
  0
LINE
  5
320
330
1F
100
AcDbEntity
  8
0-0
  6
JWW_DASHED1
 62
   120
370
     5
100
AcDbLine
 10
469.1806135395766
 20
-439.1924891422407
 30
0.0
 11
719.1806135395692
 21
-189.1924891422494
 31
0.0
  0
LINE
  5
321
330
1F
100
AcDbEntity
  8
0-0
  6
JWW_DASHED1
 62
   120
370
     5
100
AcDbLine
 10
129.1806135395874
 20
-772.1214213303629
 30
0.0
 11
379.1806135395783
 21
-522.1214213303715
 31
0.0
  0
LINE
  5
322
330
1F
100
AcDbEntity
  8
0-0
  6
JWW_DASHED1
 62
   120
370
     5
100
AcDbLine
 10
469.1806135395715
 20
-432.1214213303796
 30
0.0
 11
719.1806135395777
 21
-182.1214213303725
 31
0.0
  0
LINE
  5
323
330
1F
100
AcDbEntity
  8
0-0
  6
JWW_DASHED1
 62
   120
370
     5
100
AcDbLine
 10
129.1806135395823
 20
-765.0503535185023
 30
0.0
 11
379.1806135395868
 21
-515.0503535184978
 31
0.0
  0
LINE
  5
324
330
1F
100
AcDbEntity
  8
0-0
  6
JWW_DASHED1
 62
   120
370
     5
100
AcDbLine
 10
469.1806135395783
 20
-425.0503535185069
 30
0.0
 11
719.1806135395658
 21
-175.0503535185177
 31
0.0
  0
LINE
  5
325
330
1F
100
AcDbEntity
  8
0-0
  6
JWW_DASHED1
 62
   120
370
     5
100
AcDbLine
 10
129.1806135395772
 20
-757.979285706641
 30
0.0
 11
379.1806135395681
 21
-507.9792857066501
 31
0.0
  0
LINE
  5
326
330
1F
100
AcDbEntity
  8
0-0
  6
JWW_DASHED1
 62
   120
370
     5
100
AcDbLine
 10
469.1806135395749
 20
-417.9792857066424
 30
0.0
 11
719.1806135395658
 21
-167.9792857066511
 31
0.0
  0
LINE
  5
327
330
1F
100
AcDbEntity
  8
0-0
  6
JWW_DASHED1
 62
   120
370
     5
100
AcDbLine
 10
129.1806135395874
 20
-750.9082178947644
 30
0.0
 11
379.1806135395783
 21
-500.9082178947734
 31
0.0
  0
LINE
  5
328
330
1F
100
AcDbEntity
  8
0-0
  6
JWW_DASHED1
 62
   120
370
     5
100
AcDbLine
 10
469.1806135395851
 20
-410.9082178947659
 30
0.0
 11
719.180613539576
 21
-160.9082178947742
 31
0.0
  0
LINE
  5
329
330
1F
100
AcDbEntity
  8
0-0
  6
JWW_DASHED1
 62
   120
370
     5
100
AcDbLine
 10
129.1806135395806
 20
-743.8371500829043
 30
0.0
 11
379.1806135395851
 21
-493.8371500828997
 31
0.0
  0
LINE
  5
32A
330
1F
100
AcDbEntity
  8
0-0
  6
JWW_DASHED1
 62
   120
370
     5
100
AcDbLine
 10
469.1806135395749
 20
-403.8371500829086
 30
0.0
 11
719.1806135395794
 21
-153.8371500829041
 31
0.0
  0
LINE
  5
32B
330
1F
100
AcDbEntity
  8
0-0
  6
JWW_DASHED1
 62
   120
370
     5
100
AcDbLine
 10
129.1806135395857
 20
-736.7660822710866
 30
0.0
 11
379.1806135395749
 21
-486.7660822710978
 31
0.0
  0
LINE
  5
32C
330
1F
100
AcDbEntity
  8
0-0
  6
JWW_DASHED1
 62
   120
370
     5
100
AcDbLine
 10
469.1806135395817
 20
-396.7660822710914
 30
0.0
 11
719.1806135395692
 21
-146.7660822711022
 31
0.0
  0
LINE
  5
32D
330
1F
100
AcDbEntity
  8
0-0
  6
JWW_DASHED1
 62
   120
370
     5
100
AcDbLine
 10
129.1806135395806
 20
-729.695014459225
 30
0.0
 11
379.1806135395715
 21
-479.6950144592337
 31
0.0
  0
LINE
  5
32E
330
1F
100
AcDbEntity
  8
0-0
  6
JWW_DASHED1
 62
   120
370
     5
100
AcDbLine
 10
469.1806135395783
 20
-389.6950144592265
 30
0.0
 11
719.1806135395692
 21
-139.6950144592351
 31
0.0
  0
LINE
  5
32F
330
1F
100
AcDbEntity
  8
0-0
  6
JWW_DASHED1
 62
   120
370
     5
100
AcDbLine
 10
129.1806135395908
 20
-722.6239466473484
 30
0.0
 11
379.1806135395817
 21
-472.6239466473572
 31
0.0
  0
LINE
  5
330
330
1F
100
AcDbEntity
  8
0-0
  6
JWW_DASHED1
 62
   120
370
     5
100
AcDbLine
 10
469.1806135395732
 20
-382.6239466473658
 30
0.0
 11
719.1806135395794
 21
-132.6239466473582
 31
0.0
  0
LINE
  5
331
330
1F
100
AcDbEntity
  8
0-0
  6
JWW_DASHED1
 62
   120
370
     5
100
AcDbLine
 10
129.180613539584
 20
-715.5528788354885
 30
0.0
 11
379.1806135395885
 21
-465.5528788354837
 31
0.0
  0
LINE
  5
332
330
1F
100
AcDbEntity
  8
0-0
  6
JWW_DASHED1
 62
   120
370
     5
100
AcDbLine
 10
469.1806135395783
 20
-375.5528788354931
 30
0.0
 11
719.1806135395692
 21
-125.5528788355039
 31
0.0
  0
LINE
  5
333
330
1F
100
AcDbEntity
  8
0-0
  6
JWW_DASHED1
 62
   120
370
     5
100
AcDbLine
 10
129.1806135395789
 20
-708.4818110236267
 30
0.0
 11
379.1806135395698
 21
-458.4818110236358
 31
0.0
  0
LINE
  5
334
330
1F
100
AcDbEntity
  8
0-0
  6
JWW_DASHED1
 62
   120
370
     5
100
AcDbLine
 10
469.1806135395783
 20
-368.4818110236282
 30
0.0
 11
719.1806135395692
 21
-118.4818110236364
 31
0.0
  0
LINE
  5
335
330
1F
100
AcDbEntity
  8
0-0
  6
JWW_DASHED1
 62
   120
370
     5
100
AcDbLine
 10
129.1806135395891
 20
-701.4107432117501
 30
0.0
 11
379.18061353958
 21
-451.4107432117589
 31
0.0
  0
LINE
  5
336
330
1F
100
AcDbEntity
  8
0-0
  6
JWW_DASHED1
 62
   120
370
     5
100
AcDbLine
 10
469.1806135395715
 20
-361.4107432117675
 30
0.0
 11
719.1806135395794
 21
-111.4107432117599
 31
0.0
  0
LINE
  5
337
330
1F
100
AcDbEntity
  8
0-0
  6
JWW_DASHED1
 62
   120
370
     5
100
AcDbLine
 10
129.1806135395806
 20
-694.3396753998904
 30
0.0
 11
379.1806135395851
 21
-444.3396753998863
 31
0.0
  0
LINE
  5
338
330
1F
100
AcDbEntity
  8
0-0
  6
JWW_DASHED1
 62
   120
370
     5
100
AcDbLine
 10
469.1806135395766
 20
-354.3396753998952
 30
0.0
 11
719.1806135395658
 21
-104.3396753999056
 31
0.0
  0
LINE
  5
339
330
1F
100
AcDbEntity
  8
0-0
  6
JWW_DASHED1
 62
   120
370
     5
100
AcDbLine
 10
129.1806135395772
 20
-687.2686075880287
 30
0.0
 11
379.1806135395681
 21
-437.2686075880375
 31
0.0
  0
LINE
  5
33A
330
1F
100
AcDbEntity
  8
0-0
  6
JWW_DASHED1
 62
   120
370
     5
100
AcDbLine
 10
469.1806135395749
 20
-347.2686075880299
 30
0.0
 11
719.1806135395675
 21
-97.26860758803852
 31
0.0
  0
LINE
  5
33B
330
1F
100
AcDbEntity
  8
0-0
  6
JWW_DASHED1
 62
   120
370
     5
100
AcDbLine
 10
129.1806135395874
 20
-680.1975397761518
 30
0.0
 11
379.1806135395783
 21
-430.1975397761606
 31
0.0
  0
LINE
  5
33C
330
1F
100
AcDbEntity
  8
0-0
  6
JWW_DASHED1
 62
   120
370
     5
100
AcDbLine
 10
469.1806135395851
 20
-340.197539776153
 30
0.0
 11
719.180613539576
 21
-90.19753977616162
 31
0.0
  0
LINE
  5
33D
330
1F
100
AcDbEntity
  8
0-0
  6
JWW_DASHED1
 62
   120
370
     5
100
AcDbLine
 10
129.1806135395806
 20
-673.1264719642925
 30
0.0
 11
379.1806135395851
 21
-423.126471964288
 31
0.0
  0
LINE
  5
33E
330
1F
100
AcDbEntity
  8
0-0
  6
JWW_DASHED1
 62
   120
370
     5
100
AcDbLine
 10
469.1806135395749
 20
-333.1264719642969
 30
0.0
 11
719.1806135395794
 21
-83.12647196429197
 31
0.0
  0
LINE
  5
33F
330
1F
100
AcDbEntity
  8
0-0
  6
JWW_DASHED1
 62
   120
370
     5
100
AcDbLine
 10
129.1806135395755
 20
-666.0554041524301
 30
0.0
 11
379.1806135395664
 21
-416.0554041524392
 31
0.0
  0
LINE
  5
340
330
1F
100
AcDbEntity
  8
0-0
  6
JWW_DASHED1
 62
   120
370
     5
100
AcDbLine
 10
469.1806135395749
 20
-326.0554041524315
 30
0.0
 11
719.1806135395658
 21
-76.05540415244022
 31
0.0
  0
LINE
  5
341
330
1F
100
AcDbEntity
  8
0-0
  6
JWW_DASHED1
 62
   120
370
     5
100
AcDbLine
 10
129.180613539584
 20
-658.9843363405537
 30
0.0
 11
379.1806135395766
 21
-408.9843363405623
 31
0.0
  0
LINE
  5
342
330
1F
100
AcDbEntity
  8
0-0
  6
JWW_DASHED1
 62
   120
370
     5
100
AcDbLine
 10
469.1806135395834
 20
-318.984336340555
 30
0.0
 11
719.180613539576
 21
-68.98433634056374
 31
0.0
  0
LINE
  5
343
330
1F
100
AcDbEntity
  8
0-0
  6
JWW_DASHED1
 62
   120
370
     5
100
AcDbLine
 10
129.1806135395772
 20
-651.9132685286944
 30
0.0
 11
379.1806135395817
 21
-401.9132685286897
 31
0.0
  0
LINE
  5
344
330
1F
100
AcDbEntity
  8
0-0
  6
JWW_DASHED1
 62
   120
370
     5
100
AcDbLine
 10
469.1806135395732
 20
-311.9132685286991
 30
0.0
 11
719.1806135395794
 21
-61.91326852869366
 31
0.0
  0
LINE
  5
345
330
1F
100
AcDbEntity
  8
0-0
  6
JWW_DASHED1
 62
   120
370
     5
100
AcDbLine
 10
129.1806135395738
 20
-644.8422007168318
 30
0.0
 11
379.1806135395647
 21
-394.8422007168409
 31
0.0
  0
LINE
  5
346
330
1F
100
AcDbEntity
  8
0-0
  6
JWW_DASHED1
 62
   120
370
     5
100
AcDbLine
 10
469.1806135395715
 20
-304.8422007168332
 30
0.0
 11
719.1806135395624
 21
-54.84220071684192
 31
0.0
  0
LINE
  5
347
330
1F
100
AcDbEntity
  8
0-0
  6
JWW_DASHED1
 62
   120
370
     5
100
AcDbLine
 10
129.180613539584
 20
-637.7711329049554
 30
0.0
 11
379.1806135395749
 21
-387.771132904964
 31
0.0
  0
LINE
  5
348
330
1F
100
AcDbEntity
  8
0-0
  6
JWW_DASHED1
 62
   120
370
     5
100
AcDbLine
 10
469.1806135395817
 20
-297.7711329049563
 30
0.0
 11
719.1806135395726
 21
-47.77113290496501
 31
0.0
  0
LINE
  5
349
330
1F
100
AcDbEntity
  8
0-0
  6
JWW_DASHED1
 62
   120
370
     5
100
AcDbLine
 10
129.1806135395755
 20
-630.7000650930961
 30
0.0
 11
379.18061353958
 21
-380.7000650930914
 31
0.0
  0
LINE
  5
34A
330
1F
100
AcDbEntity
  8
0-0
  6
JWW_DASHED1
 62
   120
370
     5
100
AcDbLine
 10
469.1806135395715
 20
-290.7000650931008
 30
0.0
 11
719.180613539576
 21
-40.70006509309579
 31
0.0
  0
LINE
  5
34B
330
1F
100
AcDbEntity
  8
0-0
  6
JWW_DASHED1
 62
   120
370
     5
100
AcDbLine
 10
129.1806135395857
 20
-623.6289972812194
 30
0.0
 11
379.1806135395749
 21
-373.6289972812307
 31
0.0
  0
LINE
  5
34C
330
1F
100
AcDbEntity
  8
0-0
  6
JWW_DASHED1
 62
   120
370
     5
100
AcDbLine
 10
469.1806135395817
 20
-283.6289972812239
 30
0.0
 11
719.1806135395692
 21
-33.62899728123509
 31
0.0
  0
LINE
  5
34D
330
1F
100
AcDbEntity
  8
0-0
  6
JWW_DASHED1
 62
   120
370
     5
100
AcDbLine
 10
129.1806135395823
 20
-616.5579294693568
 30
0.0
 11
379.1806135395732
 21
-366.5579294693657
 31
0.0
  0
LINE
  5
34E
330
1F
100
AcDbEntity
  8
0-0
  6
JWW_DASHED1
 62
   120
370
     5
100
AcDbLine
 10
469.18061353958
 20
-276.557929469358
 30
0.0
 11
719.1806135395726
 21
-26.55792946936671
 31
0.0
  0
LINE
  5
34F
330
1F
100
AcDbEntity
  8
0-0
  6
JWW_DASHED1
 62
   120
370
     5
100
AcDbLine
 10
129.1806135395755
 20
-609.4868616574961
 30
0.0
 11
379.1806135395834
 21
-359.4868616574888
 31
0.0
  0
LINE
  5
350
330
1F
100
AcDbEntity
  8
0-0
  6
JWW_DASHED1
 62
   120
370
     5
100
AcDbLine
 10
469.1806135395749
 20
-269.4868616574973
 30
0.0
 11
719.1806135395829
 21
-19.48686165749024
 31
0.0
  0
LINE
  5
351
330
1F
100
AcDbEntity
  8
0-0
  6
JWW_DASHED1
 62
   120
370
     5
100
AcDbLine
 10
129.180613539584
 20
-602.4157938456216
 30
0.0
 11
379.1806135395885
 21
-352.415793845617
 31
0.0
  0
LINE
  5
352
330
1F
100
AcDbEntity
  8
0-0
  6
JWW_DASHED1
 62
   120
370
     5
100
AcDbLine
 10
469.1806135395783
 20
-262.4157938456264
 30
0.0
 11
719.1806135395692
 21
-12.41579384563678
 31
0.0
  0
LINE
  5
353
330
1F
100
AcDbEntity
  8
0-0
  6
JWW_DASHED1
 62
   120
370
     5
100
AcDbLine
 10
129.1806135395806
 20
-595.3447260337588
 30
0.0
 11
379.1806135395715
 21
-345.3447260337674
 31
0.0
  0
LINE
  5
354
330
1F
100
AcDbEntity
  8
0-0
  6
JWW_DASHED1
 62
   120
370
     5
100
AcDbLine
 10
469.1806135395783
 20
-255.3447260337602
 30
0.0
 11
719.1806135395692
 21
-5.34472603376841
 31
0.0
  0
LINE
  5
355
330
1F
100
AcDbEntity
  8
0-0
  6
JWW_DASHED1
 62
   120
370
     5
100
AcDbLine
 10
129.1806135395908
 20
-588.2736582218819
 30
0.0
 11
379.1806135395817
 21
-338.273658221891
 31
0.0
  0
LINE
  5
356
330
1F
100
AcDbEntity
  8
0-0
  6
JWW_DASHED1
 62
   120
370
     5
100
AcDbLine
 10
469.1806135395732
 20
-248.273658221899
 30
0.0
 11
719.1806135395794
 21
1.726341778108065
 31
0.0
  0
LINE
  5
357
330
1F
100
AcDbEntity
  8
0-0
  6
JWW_DASHED1
 62
   120
370
     5
100
AcDbLine
 10
129.1806135395806
 20
-581.2025904100237
 30
0.0
 11
379.1806135395868
 21
-331.2025904100187
 31
0.0
  0
LINE
  5
358
330
1F
100
AcDbEntity
  8
0-0
  6
JWW_DASHED1
 62
   120
370
     5
100
AcDbLine
 10
469.1806135395783
 20
-241.2025904100281
 30
0.0
 11
719.1806135395658
 21
8.797409589961092
 31
0.0
  0
LINE
  5
359
330
1F
100
AcDbEntity
  8
0-0
  6
JWW_DASHED1
 62
   120
370
     5
100
AcDbLine
 10
129.1806135395789
 20
-574.1315225981602
 30
0.0
 11
379.1806135395698
 21
-324.1315225981691
 31
0.0
  0
LINE
  5
35A
330
1F
100
AcDbEntity
  8
0-0
  6
JWW_DASHED1
 62
   120
370
     5
100
AcDbLine
 10
469.1806135395766
 20
-234.1315225981619
 30
0.0
 11
719.1806135395692
 21
15.86847740182947
 31
0.0
  0
LINE
  5
35B
330
1F
100
AcDbEntity
  8
0-0
  6
JWW_DASHED1
 62
   120
370
     5
100
AcDbLine
 10
129.1806135395874
 20
-567.0604547862838
 30
0.0
 11
379.18061353958
 21
-317.0604547862922
 31
0.0
  0
LINE
  5
35C
330
1F
100
AcDbEntity
  8
0-0
  6
JWW_DASHED1
 62
   120
370
     5
100
AcDbLine
 10
469.1806135395715
 20
-227.0604547863012
 30
0.0
 11
719.1806135395794
 21
22.93954521370637
 31
0.0
  0
LINE
  5
35D
330
1F
100
AcDbEntity
  8
0-0
  6
JWW_DASHED1
 62
   120
370
     5
100
AcDbLine
 10
129.1806135395806
 20
-559.9893869744254
 30
0.0
 11
379.1806135395851
 21
-309.9893869744204
 31
0.0
  0
LINE
  5
35E
330
1F
100
AcDbEntity
  8
0-0
  6
JWW_DASHED1
 62
   120
370
     5
100
AcDbLine
 10
469.1806135395749
 20
-219.9893869744298
 30
0.0
 11
719.1806135395811
 21
30.01061302557517
 31
0.0
  0
LINE
  5
35F
330
1F
100
AcDbEntity
  8
0-0
  6
JWW_DASHED1
 62
   120
370
     5
100
AcDbLine
 10
129.1806135395772
 20
-552.9183191625619
 30
0.0
 11
379.1806135395681
 21
-302.9183191625708
 31
0.0
  0
LINE
  5
360
330
1F
100
AcDbEntity
  8
0-0
  6
JWW_DASHED1
 62
   120
370
     5
100
AcDbLine
 10
469.1806135395749
 20
-212.9183191625636
 30
0.0
 11
719.1806135395658
 21
37.08168083742819
 31
0.0
  0
LINE
  5
361
330
1F
100
AcDbEntity
  8
0-0
  6
JWW_DASHED1
 62
   120
370
     5
100
AcDbLine
 10
129.1806135395874
 20
-545.8472513506853
 30
0.0
 11
379.1806135395783
 21
-295.8472513506944
 31
0.0
  0
LINE
  5
362
330
1F
100
AcDbEntity
  8
0-0
  6
JWW_DASHED1
 62
   120
370
     5
100
AcDbLine
 10
469.1806135395851
 20
-205.8472513506871
 30
0.0
 11
719.180613539576
 21
44.15274864930467
 31
0.0
  0
LINE
  5
363
330
1F
100
AcDbEntity
  8
0-0
  6
JWW_DASHED1
 62
   120
370
     5
100
AcDbLine
 10
129.1806135395772
 20
-538.7761835388271
 30
0.0
 11
379.1806135395817
 21
-288.776183538823
 31
0.0
  0
LINE
  5
364
330
1F
100
AcDbEntity
  8
0-0
  6
JWW_DASHED1
 62
   120
370
     5
100
AcDbLine
 10
469.1806135395732
 20
-198.7761835388319
 30
0.0
 11
719.1806135395794
 21
51.22381646117304
 31
0.0
  0
LINE
  5
365
330
1F
100
AcDbEntity
  8
0-0
  6
JWW_DASHED1
 62
   120
370
     5
100
AcDbLine
 10
129.1806135395738
 20
-531.7051157269636
 30
0.0
 11
379.1806135395664
 21
-281.7051157269725
 31
0.0
  0
LINE
  5
366
330
1F
100
AcDbEntity
  8
0-0
  6
JWW_DASHED1
 62
   120
370
     5
100
AcDbLine
 10
469.1806135395732
 20
-191.7051157269648
 30
0.0
 11
719.1806135395658
 21
58.2948842730265
 31
0.0
  0
LINE
  5
367
330
1F
100
AcDbEntity
  8
0-0
  6
JWW_DASHED1
 62
   120
370
     5
100
AcDbLine
 10
129.180613539584
 20
-524.634047915087
 30
0.0
 11
379.1806135395766
 21
-274.6340479150956
 31
0.0
  0
LINE
  5
368
330
1F
100
AcDbEntity
  8
0-0
  6
JWW_DASHED1
 62
   120
370
     5
100
AcDbLine
 10
469.1806135395834
 20
-184.6340479150888
 30
0.0
 11
719.180613539576
 21
65.36595208490297
 31
0.0
  0
LINE
  5
369
330
1F
100
AcDbEntity
  8
0-0
  6
JWW_DASHED1
 62
   120
370
     5
100
AcDbLine
 10
129.1806135395772
 20
-517.562980103229
 30
0.0
 11
379.1806135395817
 21
-267.5629801032247
 31
0.0
  0
LINE
  5
36A
330
1F
100
AcDbEntity
  8
0-0
  6
JWW_DASHED1
 62
   120
370
     5
100
AcDbLine
 10
469.1806135395715
 20
-177.5629801032336
 30
0.0
 11
719.180613539576
 21
72.43701989677135
 31
0.0
  0
LINE
  5
36B
330
1F
100
AcDbEntity
  8
0-0
  6
JWW_DASHED1
 62
   120
370
     5
100
AcDbLine
 10
129.1806135395857
 20
-510.4919122913525
 30
0.0
 11
379.1806135395749
 21
-260.491912291364
 31
0.0
  0
LINE
  5
36C
330
1F
100
AcDbEntity
  8
0-0
  6
JWW_DASHED1
 62
   120
370
     5
100
AcDbLine
 10
469.1806135395817
 20
-170.4919122913572
 30
0.0
 11
719.1806135395709
 21
79.50808770863205
 31
0.0
  0
LINE
  5
36D
330
1F
100
AcDbEntity
  8
0-0
  6
JWW_DASHED1
 62
   120
370
     5
100
AcDbLine
 10
129.1806135395806
 20
-503.4208444795183
 30
0.0
 11
379.1806135395715
 21
-253.4208444795271
 31
0.0
  0
LINE
  5
36E
330
1F
100
AcDbEntity
  8
0-0
  6
JWW_DASHED1
 62
   120
370
     5
100
AcDbLine
 10
469.18061353958
 20
-163.4208444795195
 30
0.0
 11
719.1806135395709
 21
86.57915552047186
 31
0.0
  0
LINE
  5
36F
330
1F
100
AcDbEntity
  8
0-0
  6
JWW_DASHED1
 62
   120
370
     5
100
AcDbLine
 10
129.1806135395891
 20
-496.349776667671
 30
0.0
 11
379.18061353958
 21
-246.3497766676801
 31
0.0
  0
LINE
  5
370
330
1F
100
AcDbEntity
  8
0-0
  6
JWW_DASHED1
 62
   120
370
     5
100
AcDbLine
 10
469.1806135395715
 20
-156.3497766676886
 30
0.0
 11
719.1806135395794
 21
93.65022333231892
 31
0.0
  0
LINE
  5
371
330
1F
100
AcDbEntity
  8
0-0
  6
JWW_DASHED1
 62
   120
370
     5
100
AcDbLine
 10
129.1806135395806
 20
-489.2787088558133
 30
0.0
 11
379.1806135395851
 21
-239.2787088558087
 31
0.0
  0
LINE
  5
372
330
1F
100
AcDbEntity
  8
0-0
  6
JWW_DASHED1
 62
   120
370
     5
100
AcDbLine
 10
469.1806135395749
 20
-149.2787088558177
 30
0.0
 11
719.1806135395794
 21
100.7212911441869
 31
0.0
  0
LINE
  5
373
330
1F
100
AcDbEntity
  8
0-0
  6
JWW_DASHED1
 62
   120
370
     5
100
AcDbLine
 10
129.1806135395772
 20
-482.2076410439496
 30
0.0
 11
379.1806135395681
 21
-232.2076410439583
 31
0.0
  0
LINE
  5
374
330
1F
100
AcDbEntity
  8
0-0
  6
JWW_DASHED1
 62
   120
370
     5
100
AcDbLine
 10
469.1806135395749
 20
-142.207641043951
 30
0.0
 11
719.1806135395675
 21
107.7923589560407
 31
0.0
  0
LINE
  5
375
330
1F
100
AcDbEntity
  8
0-0
  6
JWW_DASHED1
 62
   120
370
     5
100
AcDbLine
 10
129.1806135395874
 20
-475.1365732320727
 30
0.0
 11
379.1806135395783
 21
-225.1365732320818
 31
0.0
  0
LINE
  5
376
330
1F
100
AcDbEntity
  8
0-0
  6
JWW_DASHED1
 62
   120
370
     5
100
AcDbLine
 10
469.1806135395851
 20
-135.1365732320741
 30
0.0
 11
719.1806135395777
 21
114.8634267679172
 31
0.0
  0
LINE
  5
377
330
1F
100
AcDbEntity
  8
0-0
  6
JWW_DASHED1
 62
   120
370
     5
100
AcDbLine
 10
129.1806135395772
 20
-468.0655054202154
 30
0.0
 11
379.1806135395817
 21
-218.0655054202109
 31
0.0
  0
LINE
  5
378
330
1F
100
AcDbEntity
  8
0-0
  6
JWW_DASHED1
 62
   120
370
     5
100
AcDbLine
 10
469.1806135395732
 20
-128.0655054202198
 30
0.0
 11
719.1806135395794
 21
121.9344945797852
 31
0.0
  0
LINE
  5
379
330
1F
100
AcDbEntity
  8
0-0
  6
JWW_DASHED1
 62
   120
370
     5
100
AcDbLine
 10
129.1806135395755
 20
-460.9944376083513
 30
0.0
 11
379.1806135395664
 21
-210.99443760836
 31
0.0
  0
LINE
  5
37A
330
1F
100
AcDbEntity
  8
0-0
  6
JWW_DASHED1
 62
   120
370
     5
100
AcDbLine
 10
469.1806135395749
 20
-120.9944376083527
 30
0.0
 11
719.1806135395658
 21
129.005562391639
 31
0.0
  0
LINE
  5
37B
330
1F
100
AcDbEntity
  8
0-0
  6
JWW_DASHED1
 62
   120
370
     5
100
AcDbLine
 10
129.1806135395857
 20
-453.9233697964744
 30
0.0
 11
379.1806135395766
 21
-203.9233697964835
 31
0.0
  0
LINE
  5
37C
330
1F
100
AcDbEntity
  8
0-0
  6
JWW_DASHED1
 62
   120
370
     5
100
AcDbLine
 10
469.1806135395834
 20
-113.9233697964758
 30
0.0
 11
719.180613539576
 21
136.0766302035155
 31
0.0
  0
LINE
  5
37D
330
1F
100
AcDbEntity
  8
0-0
  6
JWW_DASHED1
 62
   120
370
     5
100
AcDbLine
 10
129.1806135395772
 20
-446.8523019846171
 30
0.0
 11
379.1806135395817
 21
-196.8523019846126
 31
0.0
  0
LINE
  5
37E
330
1F
100
AcDbEntity
  8
0-0
  6
JWW_DASHED1
 62
   120
370
     5
100
AcDbLine
 10
469.1806135395715
 20
-106.8523019846219
 30
0.0
 11
719.180613539576
 21
143.147698015383
 31
0.0
  0
LINE
  5
37F
330
1F
100
AcDbEntity
  8
0-0
  6
JWW_DASHED1
 62
   120
370
     5
100
AcDbLine
 10
129.1806135395857
 20
-439.7812341727402
 30
0.0
 11
379.1806135395749
 21
-189.7812341727519
 31
0.0
  0
LINE
  5
380
330
1F
100
AcDbEntity
  8
0-0
  6
JWW_DASHED1
 62
   120
370
     5
100
AcDbLine
 10
469.1806135395817
 20
-99.78123417274503
 30
0.0
 11
719.1806135395709
 21
150.2187658272442
 31
0.0
  0
LINE
  5
381
330
1F
100
AcDbEntity
  8
0-0
  6
JWW_DASHED1
 62
   120
370
     5
100
AcDbLine
 10
129.180613539584
 20
-432.7101663608761
 30
0.0
 11
379.1806135395749
 21
-182.7101663608852
 31
0.0
  0
LINE
  5
382
330
1F
100
AcDbEntity
  8
0-0
  6
JWW_DASHED1
 62
   120
370
     5
100
AcDbLine
 10
469.1806135395817
 20
-92.71016636087751
 30
0.0
 11
719.1806135395743
 21
157.2898336391138
 31
0.0
  0
LINE
  5
383
330
1F
100
AcDbEntity
  8
0-0
  6
JWW_DASHED1
 62
   120
370
     5
100
AcDbLine
 10
129.1806135395738
 20
-425.6390985490192
 30
0.0
 11
379.1806135395783
 21
-175.6390985490142
 31
0.0
  0
LINE
  5
384
330
1F
100
AcDbEntity
  8
0-0
  6
JWW_DASHED1
 62
   120
370
     5
100
AcDbLine
 10
469.1806135395698
 20
-85.63909854902363
 30
0.0
 11
719.1806135395743
 21
164.3609014509813
 31
0.0
  0
LINE
  5
385
330
1F
100
AcDbEntity
  8
0-0
  6
JWW_DASHED1
 62
   120
370
     5
100
AcDbLine
 10
129.180613539584
 20
-418.5680307371427
 30
0.0
 11
379.1806135395732
 21
-168.5680307371535
 31
0.0
  0
LINE
  5
386
330
1F
100
AcDbEntity
  8
0-0
  6
JWW_DASHED1
 62
   120
370
     5
100
AcDbLine
 10
469.18061353958
 20
-78.56803073714673
 30
0.0
 11
719.1806135395692
 21
171.431969262842
 31
0.0
  0
LINE
  5
387
330
1F
100
AcDbEntity
  8
0-0
  6
JWW_DASHED1
 62
   120
370
     5
100
AcDbLine
 10
129.1806135395823
 20
-411.4969629252778
 30
0.0
 11
379.1806135395732
 21
-161.4969629252869
 31
0.0
  0
LINE
  5
388
330
1F
100
AcDbEntity
  8
0-0
  6
JWW_DASHED1
 62
   120
370
     5
100
AcDbLine
 10
469.1806135395817
 20
-71.4969629252792
 30
0.0
 11
719.1806135395726
 21
178.5030370747126
 31
0.0
  0
LINE
  5
389
330
1F
100
AcDbEntity
  8
0-0
  6
JWW_DASHED1
 62
   120
370
     5
100
AcDbLine
 10
129.1806135395755
 20
-404.4258951134171
 30
0.0
 11
379.1806135395834
 21
-154.4258951134104
 31
0.0
  0
LINE
  5
38A
330
1F
100
AcDbEntity
  8
0-0
  6
JWW_DASHED1
 62
   120
370
     5
100
AcDbLine
 10
469.1806135395749
 20
-64.4258951134185
 30
0.0
 11
719.1806135395829
 21
185.5741048865886
 31
0.0
  0
LINE
  5
38B
330
1F
100
AcDbEntity
  8
0-0
  6
JWW_DASHED1
 62
   120
370
     5
100
AcDbLine
 10
129.1806135395823
 20
-397.3548273015444
 30
0.0
 11
379.1806135395868
 21
-147.3548273015399
 31
0.0
  0
LINE
  5
38C
330
1F
100
AcDbEntity
  8
0-0
  6
JWW_DASHED1
 62
   120
370
     5
100
AcDbLine
 10
469.1806135395783
 20
-57.35482730154928
 30
0.0
 11
719.1806135395658
 21
192.6451726984399
 31
0.0
  0
LINE
  5
38D
330
1F
100
AcDbEntity
  8
0-0
  6
JWW_DASHED1
 62
   120
370
     5
100
AcDbLine
 10
129.1806135395806
 20
-390.2837594896795
 30
0.0
 11
379.1806135395715
 21
-140.2837594896886
 31
0.0
  0
LINE
  5
38E
330
1F
100
AcDbEntity
  8
0-0
  6
JWW_DASHED1
 62
   120
370
     5
100
AcDbLine
 10
469.1806135395783
 20
-50.2837594896809
 30
0.0
 11
719.1806135395709
 21
199.7162405103104
 31
0.0
  0
LINE
  5
38F
330
1F
100
AcDbEntity
  8
0-0
  6
JWW_DASHED1
 62
   120
370
     5
100
AcDbLine
 10
129.1806135395908
 20
-383.2126916778026
 30
0.0
 11
379.1806135395817
 21
-133.2126916778117
 31
0.0
  0
LINE
  5
390
330
1F
100
AcDbEntity
  8
0-0
  6
JWW_DASHED1
 62
   120
370
     5
100
AcDbLine
 10
469.1806135395732
 20
-43.2126916778202
 30
0.0
 11
719.1806135395794
 21
206.7873083221869
 31
0.0
  0
LINE
  5
391
330
1F
100
AcDbEntity
  8
0-0
  6
JWW_DASHED1
 62
   120
370
     5
100
AcDbLine
 10
129.1806135395806
 20
-376.1416238659461
 30
0.0
 11
379.1806135395851
 21
-126.1416238659416
 31
0.0
  0
LINE
  5
392
330
1F
100
AcDbEntity
  8
0-0
  6
JWW_DASHED1
 62
   120
370
     5
100
AcDbLine
 10
469.1806135395749
 20
-36.14162386595098
 30
0.0
 11
719.1806135395658
 21
213.8583761340382
 31
0.0
  0
LINE
  5
393
330
1F
100
AcDbEntity
  8
0-0
  6
JWW_DASHED1
 62
   120
370
     5
100
AcDbLine
 10
129.1806135395789
 20
-369.0705560540812
 30
0.0
 11
379.1806135395698
 21
-119.0705560540903
 31
0.0
  0
LINE
  5
394
330
1F
100
AcDbEntity
  8
0-0
  6
JWW_DASHED1
 62
   120
370
     5
100
AcDbLine
 10
469.1806135395766
 20
-29.0705560540826
 30
0.0
 11
719.1806135395692
 21
220.9294439459087
 31
0.0
  0
LINE
  5
395
330
1F
100
AcDbEntity
  8
0-0
  6
JWW_DASHED1
 62
   120
370
     5
100
AcDbLine
 10
129.1806135395874
 20
-361.9994882422047
 30
0.0
 11
379.1806135395783
 21
-111.9994882422138
 31
0.0
  0
LINE
  5
396
330
1F
100
AcDbEntity
  8
0-0
  6
JWW_DASHED1
 62
   120
370
     5
100
AcDbLine
 10
469.1806135395715
 20
-21.9994882422219
 30
0.0
 11
719.1806135395794
 21
228.0005117577852
 31
0.0
  0
LINE
  5
397
330
1F
100
AcDbEntity
  8
0-0
  6
JWW_DASHED1
 62
   120
370
     5
100
AcDbLine
 10
129.1806135395789
 20
-354.9284204303478
 30
0.0
 11
379.1806135395834
 21
-104.9284204303437
 31
0.0
  0
LINE
  5
398
330
1F
100
AcDbEntity
  8
0-0
  6
JWW_DASHED1
 62
   120
370
     5
100
AcDbLine
 10
469.1806135395732
 20
-14.92842043035267
 30
0.0
 11
719.1806135395794
 21
235.0715795696523
 31
0.0
  0
LINE
  5
399
330
1F
100
AcDbEntity
  8
0-0
  6
JWW_DASHED1
 62
   120
370
     5
100
AcDbLine
 10
129.1806135395772
 20
-347.8573526184829
 30
0.0
 11
379.1806135395681
 21
-97.85735261849197
 31
0.0
  0
LINE
  5
39A
330
1F
100
AcDbEntity
  8
0-0
  6
JWW_DASHED1
 62
   120
370
     5
100
AcDbLine
 10
469.1806135395749
 20
-7.857352618484299
 30
0.0
 11
719.1806135395675
 21
242.142647381507
 31
0.0
  0
LINE
  5
39B
330
1F
100
AcDbEntity
  8
0-0
  6
JWW_DASHED1
 62
   120
370
     5
100
AcDbLine
 10
129.1806135395874
 20
-340.7862848066064
 30
0.0
 11
379.1806135395783
 21
-90.78628480661507
 31
0.0
  0
LINE
  5
39C
330
1F
100
AcDbEntity
  8
0-0
  6
JWW_DASHED1
 62
   120
370
     5
100
AcDbLine
 10
469.1806135395851
 20
-0.7862848066078243
 30
0.0
 11
719.180613539576
 21
249.2137151933835
 31
0.0
  0
LINE
  5
39D
330
1F
100
AcDbEntity
  8
0-0
  6
JWW_DASHED1
 62
   120
370
     5
100
AcDbLine
 10
129.1806135395772
 20
-333.7152169947504
 30
0.0
 11
379.1806135395817
 21
-83.71521699474542
 31
0.0
  0
LINE
  5
39E
330
1F
100
AcDbEntity
  8
0-0
  6
JWW_DASHED1
 62
   120
370
     5
100
AcDbLine
 10
469.1806135395715
 20
6.284783005245629
 30
0.0
 11
719.180613539576
 21
256.2847830052502
 31
0.0
  0
LINE
  5
39F
330
1F
100
AcDbEntity
  8
0-0
  6
JWW_DASHED1
 62
   120
370
     5
100
AcDbLine
 10
129.1806135395755
 20
-326.6441491828846
 30
0.0
 11
379.1806135395664
 21
-76.64414918289367
 31
0.0
  0
LINE
  5
3A0
330
1F
100
AcDbEntity
  8
0-0
  6
JWW_DASHED1
 62
   120
370
     5
100
AcDbLine
 10
469.1806135395749
 20
13.355850817114
 30
0.0
 11
719.1806135395658
 21
263.3558508171053
 31
0.0
  0
LINE
  5
3A1
330
1F
100
AcDbEntity
  8
0-0
  6
JWW_DASHED1
 62
   120
370
     5
100
AcDbLine
 10
129.180613539584
 20
-319.5730813710085
 30
0.0
 11
379.1806135395766
 21
-69.57308137101677
 31
0.0
  0
LINE
  5
3A2
330
1F
100
AcDbEntity
  8
0-0
  6
JWW_DASHED1
 62
   120
370
     5
100
AcDbLine
 10
469.1806135395834
 20
20.4269186289909
 30
0.0
 11
719.180613539576
 21
270.4269186289818
 31
0.0
  0
LINE
  5
3A3
330
1F
100
AcDbEntity
  8
0-0
  6
JWW_DASHED1
 62
   120
370
     5
100
AcDbLine
 10
129.1806135395738
 20
-312.5020135591521
 30
0.0
 11
379.1806135395783
 21
-62.50201355914754
 31
0.0
  0
LINE
  5
3A4
330
1F
100
AcDbEntity
  8
0-0
  6
JWW_DASHED1
 62
   120
370
     5
100
AcDbLine
 10
469.1806135395698
 20
27.4979864408435
 30
0.0
 11
719.180613539576
 21
277.4979864408485
 31
0.0
  0
LINE
  5
3A5
330
1F
100
AcDbEntity
  8
0-0
  6
JWW_DASHED1
 62
   120
370
     5
100
AcDbLine
 10
129.180613539584
 20
-305.4309457472756
 30
0.0
 11
379.1806135395732
 21
-55.43094574728684
 31
0.0
  0
LINE
  5
3A6
330
1F
100
AcDbEntity
  8
0-0
  6
JWW_DASHED1
 62
   120
370
     5
100
AcDbLine
 10
469.18061353958
 20
34.56905425271998
 30
0.0
 11
719.1806135395692
 21
284.5690542527092
 31
0.0
  0
LINE
  5
3A7
330
1F
100
AcDbEntity
  8
0-0
  6
JWW_DASHED1
 62
   120
370
     5
100
AcDbLine
 10
129.180613539584
 20
-298.3598779354098
 30
0.0
 11
379.1806135395749
 21
-48.35987793541889
 31
0.0
  0
LINE
  5
3A8
330
1F
100
AcDbEntity
  8
0-0
  6
JWW_DASHED1
 62
   120
370
     5
100
AcDbLine
 10
469.1806135395817
 20
41.64012206458878
 30
0.0
 11
719.1806135395726
 21
291.6401220645801
 31
0.0
  0
LINE
  5
3A9
330
1F
100
AcDbEntity
  8
0-0
  6
JWW_DASHED1
 62
   120
370
     5
100
AcDbLine
 10
129.1806135395772
 20
-291.2888101235487
 30
0.0
 11
379.1806135395851
 21
-41.28881012354199
 31
0.0
  0
LINE
  5
3AA
330
1F
100
AcDbEntity
  8
0-0
  6
JWW_DASHED1
 62
   120
370
     5
100
AcDbLine
 10
469.1806135395766
 20
48.71118987644991
 30
0.0
 11
719.1806135395829
 21
298.711189876457
 31
0.0
  0
LINE
  5
3AB
330
1F
100
AcDbEntity
  8
0-0
  6
JWW_DASHED1
 62
   120
370
     5
100
AcDbLine
 10
129.1806135395823
 20
-284.2177423116773
 30
0.0
 11
379.1806135395715
 21
-34.21774231168854
 31
0.0
  0
LINE
  5
3AC
330
1F
100
AcDbEntity
  8
0-0
  6
JWW_DASHED1
 62
   120
370
     5
100
AcDbLine
 10
469.1806135395783
 20
55.78225768831828
 30
0.0
 11
719.1806135395658
 21
305.782257688307
 31
0.0
  0
LINE
  5
3AD
330
1F
100
AcDbEntity
  8
0-0
  6
JWW_DASHED1
 62
   120
370
     5
100
AcDbLine
 10
129.1806135395806
 20
-277.1466744998115
 30
0.0
 11
379.1806135395715
 21
-27.14667449982059
 31
0.0
  0
LINE
  5
3AE
330
1F
100
AcDbEntity
  8
0-0
  6
JWW_DASHED1
 62
   120
370
     5
100
AcDbLine
 10
469.18061353958
 20
62.85332550018708
 30
0.0
 11
719.1806135395726
 21
312.8533255001784
 31
0.0
  0
LINE
  5
3AF
330
1F
100
AcDbEntity
  8
0-0
  6
JWW_DASHED1
 62
   120
370
     5
100
AcDbLine
 10
129.1806135395908
 20
-270.075606687935
 30
0.0
 11
379.1806135395817
 21
-20.07560668794412
 31
0.0
  0
LINE
  5
3B0
330
1F
100
AcDbEntity
  8
0-0
  6
JWW_DASHED1
 62
   120
370
     5
100
AcDbLine
 10
469.1806135395749
 20
69.92439331204778
 30
0.0
 11
719.1806135395829
 21
319.9243933120553
 31
0.0
  0
LINE
  5
3B1
330
1F
100
AcDbEntity
  8
0-0
  6
JWW_DASHED1
 62
   120
370
     5
100
AcDbLine
 10
129.1806135395806
 20
-263.0045388760794
 30
0.0
 11
379.1806135395851
 21
-13.00453887607489
 31
0.0
  0
LINE
  5
3B2
330
1F
100
AcDbEntity
  8
0-0
  6
JWW_DASHED1
 62
   120
370
     5
100
AcDbLine
 10
469.1806135395766
 20
76.99546112391616
 30
0.0
 11
719.1806135395658
 21
326.9954611239058
 31
0.0
  0
LINE
  5
3B3
330
1F
100
AcDbEntity
  8
0-0
  6
JWW_DASHED1
 62
   120
370
     5
100
AcDbLine
 10
129.1806135395772
 20
-255.9334710642426
 30
0.0
 11
379.1806135395681
 21
-5.933471064251705
 31
0.0
  0
LINE
  5
3B4
330
1F
100
AcDbEntity
  8
0-0
  6
JWW_DASHED1
 62
   120
370
     5
100
AcDbLine
 10
469.1806135395766
 20
84.06652893575597
 30
0.0
 11
719.1806135395675
 21
334.0665289357473
 31
0.0
  0
LINE
  5
3B5
330
1F
100
AcDbEntity
  8
0-0
  6
JWW_DASHED1
 62
   120
370
     5
100
AcDbLine
 10
129.1806135395857
 20
-248.8624032523956
 30
0.0
 11
379.1806135395766
 21
1.137596747595353
 31
0.0
  0
LINE
  5
3B6
330
1F
100
AcDbEntity
  8
0-0
  6
JWW_DASHED1
 62
   120
370
     5
100
AcDbLine
 10
469.1806135395851
 20
91.13759674760303
 30
0.0
 11
719.180613539576
 21
341.1375967475943
 31
0.0
  0
LINE
  5
3B7
330
1F
100
AcDbEntity
  8
0-0
  6
JWW_DASHED1
 62
   120
370
     5
100
AcDbLine
 10
129.1806135395738
 20
-241.79133544054
 30
0.0
 11
379.1806135395783
 21
8.20866455946458
 31
0.0
  0
LINE
  5
3B8
330
1F
100
AcDbEntity
  8
0-0
  6
JWW_DASHED1
 62
   120
370
     5
100
AcDbLine
 10
469.1806135395698
 20
98.2086645594552
 30
0.0
 11
719.1806135395743
 21
348.2086645594602
 31
0.0
  0
LINE
  5
3B9
330
1F
100
AcDbEntity
  8
0-0
  6
JWW_DASHED1
 62
   120
370
     5
100
AcDbLine
 10
129.180613539584
 20
-234.7202676286635
 30
0.0
 11
379.1806135395732
 21
15.27973237132528
 31
0.0
  0
LINE
  5
3BA
330
1F
100
AcDbEntity
  8
0-0
  6
JWW_DASHED1
 62
   120
370
     5
100
AcDbLine
 10
469.18061353958
 20
105.2797323713321
 30
0.0
 11
719.1806135395692
 21
355.2797323713213
 31
0.0
  0
LINE
  5
3BB
330
1F
100
AcDbEntity
  8
0-0
  6
JWW_DASHED1
 62
   120
370
     5
100
AcDbLine
 10
129.180613539584
 20
-227.6491998167972
 30
0.0
 11
379.1806135395749
 21
22.35080018319366
 31
0.0
  0
LINE
  5
3BC
330
1F
100
AcDbEntity
  8
0-0
  6
JWW_DASHED1
 62
   120
370
     5
100
AcDbLine
 10
469.1806135395817
 20
112.3508001832013
 30
0.0
 11
719.1806135395726
 21
362.3508001831926
 31
0.0
  0
LINE
  5
3BD
330
1F
100
AcDbEntity
  8
0-0
  6
JWW_DASHED1
 62
   120
370
     5
100
AcDbLine
 10
129.1806135395772
 20
-220.5781320049365
 30
0.0
 11
379.1806135395851
 21
29.42186799507056
 31
0.0
  0
LINE
  5
3BE
330
1F
100
AcDbEntity
  8
0-0
  6
JWW_DASHED1
 62
   120
370
     5
100
AcDbLine
 10
469.1806135395766
 20
119.421867995062
 30
0.0
 11
719.1806135395829
 21
369.4218679950695
 31
0.0
  0
LINE
  5
3BF
330
1F
100
AcDbEntity
  8
0-0
  6
JWW_DASHED1
 62
   120
370
     5
100
AcDbLine
 10
129.1806135395823
 20
-213.5070641930652
 30
0.0
 11
379.1806135395715
 21
36.49293580692358
 31
0.0
  0
LINE
  5
3C0
330
1F
100
AcDbEntity
  8
0-0
  6
JWW_DASHED1
 62
   120
370
     5
100
AcDbLine
 10
469.1806135395783
 20
126.49293580693
 30
0.0
 11
719.1806135395658
 21
376.4929358069191
 31
0.0
  0
LINE
  5
3C1
330
1F
100
AcDbEntity
  8
0-0
  6
JWW_DASHED1
 62
   120
370
     5
100
AcDbLine
 10
129.1806135395823
 20
-206.4359963811989
 30
0.0
 11
379.1806135395732
 21
43.56400361879196
 31
0.0
  0
LINE
  5
3C2
330
1F
100
AcDbEntity
  8
0-0
  6
JWW_DASHED1
 62
   120
370
     5
100
AcDbLine
 10
469.1806135395817
 20
133.5640036187996
 30
0.0
 11
719.1806135395726
 21
383.5640036187914
 31
0.0
  0
LINE
  5
3C3
330
1F
100
AcDbEntity
  8
0-0
  6
JWW_DASHED1
 62
   120
370
     5
100
AcDbLine
 10
129.1806135395925
 20
-199.364928569322
 30
0.0
 11
379.1806135395834
 21
50.63507143066886
 31
0.0
  0
LINE
  5
3C4
330
1F
100
AcDbEntity
  8
0-0
  6
JWW_DASHED1
 62
   120
370
     5
100
AcDbLine
 10
469.1806135395749
 20
140.6350714306603
 30
0.0
 11
719.1806135395829
 21
390.6350714306678
 31
0.0
  0
LINE
  5
3C5
330
1F
100
AcDbEntity
  8
0-0
  6
JWW_DASHED1
 62
   120
370
     5
100
AcDbLine
 10
129.1806135395806
 20
-192.2938607574673
 30
0.0
 11
379.1806135395851
 21
57.70613924253723
 31
0.0
  0
LINE
  5
3C6
330
1F
100
AcDbEntity
  8
0-0
  6
JWW_DASHED1
 62
   120
370
     5
100
AcDbLine
 10
469.1806135395749
 20
147.7061392425283
 30
0.0
 11
719.1806135395658
 21
397.7061392425175
 31
0.0
  0
LINE
  5
3C7
330
1F
100
AcDbEntity
  8
0-0
  6
JWW_DASHED1
 62
   120
370
     5
100
AcDbLine
 10
129.1806135395806
 20
-185.2227929456006
 30
0.0
 11
379.1806135395715
 21
64.77720705439026
 31
0.0
  0
LINE
  5
3C8
330
1F
100
AcDbEntity
  8
0-0
  6
JWW_DASHED1
 62
   120
370
     5
100
AcDbLine
 10
469.1806135395783
 20
154.7772070543979
 30
0.0
 11
719.1806135395692
 21
404.7772070543892
 31
0.0
  0
LINE
  5
3C9
330
1F
100
AcDbEntity
  8
0-0
  6
JWW_DASHED1
 62
   120
370
     5
100
AcDbLine
 10
129.1806135395908
 20
-178.1517251337237
 30
0.0
 11
379.1806135395817
 21
71.84827486626716
 31
0.0
  0
LINE
  5
3CA
330
1F
100
AcDbEntity
  8
0-0
  6
JWW_DASHED1
 62
   120
370
     5
100
AcDbLine
 10
469.1806135395732
 20
161.8482748662586
 30
0.0
 11
719.1806135395811
 21
411.8482748662661
 31
0.0
  0
LINE
  5
3CB
330
1F
100
AcDbEntity
  8
0-0
  6
JWW_DASHED1
 62
   120
370
     5
100
AcDbLine
 10
129.1806135395789
 20
-171.080657321869
 30
0.0
 11
379.1806135395834
 21
78.91934267813554
 31
0.0
  0
LINE
  5
3CC
330
1F
100
AcDbEntity
  8
0-0
  6
JWW_DASHED1
 62
   120
370
     5
100
AcDbLine
 10
469.1806135395749
 20
168.9193426781262
 30
0.0
 11
719.1806135395624
 21
418.9193426781154
 31
0.0
  0
LINE
  5
3CD
330
1F
100
AcDbEntity
  8
0-0
  6
JWW_DASHED1
 62
   120
370
     5
100
AcDbLine
 10
129.1806135395789
 20
-164.0095895100023
 30
0.0
 11
379.1806135395698
 21
85.99041048998856
 31
0.0
  0
LINE
  5
3CE
330
1F
100
AcDbEntity
  8
0-0
  6
JWW_DASHED1
 62
   120
370
     5
100
AcDbLine
 10
469.1806135395783
 20
175.9904104899962
 30
0.0
 11
719.1806135395692
 21
425.9904104899875
 31
0.0
  0
LINE
  5
3CF
330
1F
100
AcDbEntity
  8
0-0
  6
JWW_DASHED1
 62
   120
370
     5
100
AcDbLine
 10
129.1806135395874
 20
-156.9385216981259
 30
0.0
 11
379.18061353958
 21
93.06147830186546
 31
0.0
  0
LINE
  5
3D0
330
1F
100
AcDbEntity
  8
0-0
  6
JWW_DASHED1
 62
   120
370
     5
100
AcDbLine
 10
469.1806135395868
 20
183.0614783018727
 30
0.0
 11
719.1806135395794
 21
433.0614783018644
 31
0.0
  0
LINE
  5
3D1
330
1F
100
AcDbEntity
  8
0-0
  6
JWW_DASHED1
 62
   120
370
     5
100
AcDbLine
 10
129.1806135395772
 20
-149.8674538862707
 30
0.0
 11
379.1806135395817
 21
100.1325461137338
 31
0.0
  0
LINE
  5
3D2
330
1F
100
AcDbEntity
  8
0-0
  6
JWW_DASHED1
 62
   120
370
     5
100
AcDbLine
 10
469.1806135395715
 20
190.1325461137245
 30
0.0
 11
719.180613539576
 21
440.1325461137294
 31
0.0
  0
LINE
  5
3D3
330
1F
100
AcDbEntity
  8
0-0
  6
JWW_DASHED1
 62
   120
370
     5
100
AcDbLine
 10
129.1806135395772
 20
-142.796386074404
 30
0.0
 11
379.1806135395681
 21
107.2036139255869
 31
0.0
  0
LINE
  5
3D4
330
1F
100
AcDbEntity
  8
0-0
  6
JWW_DASHED1
 62
   120
370
     5
100
AcDbLine
 10
469.1806135395749
 20
197.2036139255945
 30
0.0
 11
719.1806135395675
 21
447.2036139255858
 31
0.0
  0
LINE
  5
3D5
330
1F
100
AcDbEntity
  8
0-0
  6
JWW_DASHED1
 62
   120
370
     5
100
AcDbLine
 10
129.1806135395874
 20
-135.7253182625271
 30
0.0
 11
379.1806135395783
 21
114.2746817374638
 31
0.0
  0
LINE
  5
3D6
330
1F
100
AcDbEntity
  8
0-0
  6
JWW_DASHED1
 62
   120
370
     5
100
AcDbLine
 10
469.1806135395851
 20
204.2746817374714
 30
0.0
 11
719.180613539576
 21
454.2746817374623
 31
0.0
  0
LINE
  5
3D7
330
1F
100
AcDbEntity
  8
0-0
  6
JWW_DASHED1
 62
   120
370
     5
100
AcDbLine
 10
129.1806135395738
 20
-128.6542504506733
 30
0.0
 11
379.1806135395783
 21
121.3457495493317
 31
0.0
  0
LINE
  5
3D8
330
1F
100
AcDbEntity
  8
0-0
  6
JWW_DASHED1
 62
   120
370
     5
100
AcDbLine
 10
469.1806135395698
 20
211.3457495493223
 30
0.0
 11
719.180613539576
 21
461.3457495493273
 31
0.0
  0
LINE
  5
3D9
330
1F
100
AcDbEntity
  8
0-0
  6
JWW_DASHED1
 62
   120
370
     5
100
AcDbLine
 10
129.180613539584
 20
-121.5831826387964
 30
0.0
 11
379.1806135395732
 21
128.4168173611928
 31
0.0
  0
LINE
  5
3DA
330
1F
100
AcDbEntity
  8
0-0
  6
JWW_DASHED1
 62
   120
370
     5
100
AcDbLine
 10
469.18061353958
 20
218.4168173611988
 30
0.0
 11
719.1806135395692
 21
468.416817361188
 31
0.0
  0
LINE
  5
3DB
330
1F
100
AcDbEntity
  8
0-0
  6
JWW_DASHED1
 62
   120
370
     5
100
AcDbLine
 10
129.180613539584
 20
-114.5121148269293
 30
0.0
 11
379.1806135395766
 21
135.4878851730621
 31
0.0
  0
LINE
  5
3DC
330
1F
100
AcDbEntity
  8
0-0
  6
JWW_DASHED1
 62
   120
370
     5
100
AcDbLine
 10
469.1806135395834
 20
225.4878851730693
 30
0.0
 11
719.180613539576
 21
475.487885173061
 31
0.0
  0
LINE
  5
3DD
330
1F
100
AcDbEntity
  8
0-0
  6
JWW_DASHED1
 62
   120
370
     5
100
AcDbLine
 10
129.1806135395738
 20
-107.441047015075
 30
0.0
 11
379.1806135395783
 21
142.5589529849296
 31
0.0
  0
LINE
  5
3DE
330
1F
100
AcDbEntity
  8
0-0
  6
JWW_DASHED1
 62
   120
370
     5
100
AcDbLine
 10
469.1806135395681
 20
232.5589529849206
 30
0.0
 11
719.1806135395726
 21
482.5589529849256
 31
0.0
  0
LINE
  5
3DF
330
1F
100
AcDbEntity
  8
0-0
  6
JWW_DASHED1
 62
   120
370
     5
100
AcDbLine
 10
129.1806135395823
 20
-100.3699792031981
 30
0.0
 11
379.1806135395715
 21
149.6300207967903
 31
0.0
  0
LINE
  5
3E0
330
1F
100
AcDbEntity
  8
0-0
  6
JWW_DASHED1
 62
   120
370
     5
100
AcDbLine
 10
469.1806135395783
 20
239.6300207967971
 30
0.0
 11
719.1806135395675
 21
489.6300207967863
 31
0.0
  0
LINE
  5
3E1
330
1F
100
AcDbEntity
  8
0-0
  6
JWW_DASHED1
 62
   120
370
     5
100
AcDbLine
 10
129.180613539584
 20
-93.29891139133053
 30
0.0
 11
379.1806135395749
 21
156.7010886086604
 31
0.0
  0
LINE
  5
3E2
330
1F
100
AcDbEntity
  8
0-0
  6
JWW_DASHED1
 62
   120
370
     5
100
AcDbLine
 10
469.1806135395817
 20
246.7010886086676
 30
0.0
 11
719.1806135395726
 21
496.7010886086593
 31
0.0
  0
LINE
  5
3E3
330
1F
100
AcDbEntity
  8
0-0
  6
JWW_DASHED1
 62
   120
370
     5
100
AcDbLine
 10
129.1806135395772
 20
-86.22784357946983
 30
0.0
 11
379.1806135395851
 21
163.7721564205373
 31
0.0
  0
LINE
  5
3E4
330
1F
100
AcDbEntity
  8
0-0
  6
JWW_DASHED1
 62
   120
370
     5
100
AcDbLine
 10
469.1806135395766
 20
253.7721564205287
 30
0.0
 11
719.1806135395829
 21
503.7721564205359
 31
0.0
  0
LINE
  5
3E5
330
1F
100
AcDbEntity
  8
0-0
  6
JWW_DASHED1
 62
   120
370
     5
100
AcDbLine
 10
129.1806135395806
 20
-79.15677576760018
 30
0.0
 11
379.1806135395851
 21
170.8432242324048
 31
0.0
  0
LINE
  5
3E6
330
1F
100
AcDbEntity
  8
0-0
  6
JWW_DASHED1
 62
   120
370
     5
100
AcDbLine
 10
469.1806135395766
 20
260.8432242323954
 30
0.0
 11
719.1806135395658
 21
510.8432242323842
 31
0.0
  0
LINE
  5
3E7
330
1F
100
AcDbEntity
  8
0-0
  6
JWW_DASHED1
 62
   120
370
     5
100
AcDbLine
 10
129.1806135395823
 20
-72.08570795573223
 30
0.0
 11
379.1806135395732
 21
177.9142920442587
 31
0.0
  0
LINE
  5
3E8
330
1F
100
AcDbEntity
  8
0-0
  6
JWW_DASHED1
 62
   120
370
     5
100
AcDbLine
 10
469.18061353958
 20
267.9142920442659
 30
0.0
 11
719.1806135395726
 21
517.9142920442576
 31
0.0
  0
LINE
  5
3E9
330
1F
100
AcDbEntity
  8
0-0
  6
JWW_DASHED1
 62
   120
370
     5
100
AcDbLine
 10
129.1806135395908
 20
-65.01464014385618
 30
0.0
 11
379.1806135395834
 21
184.9853598561351
 31
0.0
  0
LINE
  5
3EA
330
1F
100
AcDbEntity
  8
0-0
  6
JWW_DASHED1
 62
   120
370
     5
100
AcDbLine
 10
469.1806135395749
 20
274.985359856127
 30
0.0
 11
719.1806135395829
 21
524.9853598561342
 31
0.0
  0
LINE
  5
3EB
330
1F
100
AcDbEntity
  8
0-0
  6
JWW_DASHED1
 62
   120
370
     5
100
AcDbLine
 10
129.1806135395789
 20
-57.9435723320023
 30
0.0
 11
379.1806135395834
 21
192.0564276680022
 31
0.0
  0
LINE
  5
3EC
330
1F
100
AcDbEntity
  8
0-0
  6
JWW_DASHED1
 62
   120
370
     5
100
AcDbLine
 10
469.1806135395749
 20
282.0564276679933
 30
0.0
 11
719.1806135395641
 21
532.0564276679825
 31
0.0
  0
LINE
  5
3ED
330
1F
100
AcDbEntity
  8
0-0
  6
JWW_DASHED1
 62
   120
370
     5
100
AcDbLine
 10
129.1806135395806
 20
-50.87250452013393
 30
0.0
 11
379.1806135395715
 21
199.127495479857
 31
0.0
  0
LINE
  5
3EE
330
1F
100
AcDbEntity
  8
0-0
  6
JWW_DASHED1
 62
   120
370
     5
100
AcDbLine
 10
469.1806135395783
 20
289.1274954798643
 30
0.0
 11
719.1806135395692
 21
539.1274954798555
 31
0.0
  0
LINE
  5
3EF
330
1F
100
AcDbEntity
  8
0-0
  6
JWW_DASHED1
 62
   120
370
     5
100
AcDbLine
 10
129.1806135395908
 20
-43.80143670825746
 30
0.0
 11
379.1806135395817
 21
206.1985632917334
 31
0.0
  0
LINE
  5
3F0
330
1F
100
AcDbEntity
  8
0-0
  6
JWW_DASHED1
 62
   120
370
     5
100
AcDbLine
 10
469.1806135395732
 20
296.1985632917253
 30
0.0
 11
719.1806135395794
 21
546.1985632917324
 31
0.0
  0
LINE
  5
3F1
330
1F
100
AcDbEntity
  8
0-0
  6
JWW_DASHED1
 62
   120
370
     5
100
AcDbLine
 10
129.1806135395772
 20
-36.730368896404
 30
0.0
 11
379.1806135395817
 21
213.2696311036005
 31
0.0
  0
LINE
  5
3F2
330
1F
100
AcDbEntity
  8
0-0
  6
JWW_DASHED1
 62
   120
370
     5
100
AcDbLine
 10
469.1806135395715
 20
303.2696311035916
 30
0.0
 11
719.1806135395777
 21
553.2696311035966
 31
0.0
  0
LINE
  5
3F3
330
1F
100
AcDbEntity
  8
0-0
  6
JWW_DASHED1
 62
   120
370
     5
100
AcDbLine
 10
129.1806135395772
 20
-29.65930108453605
 30
0.0
 11
379.1806135395698
 21
220.3406989154553
 31
0.0
  0
LINE
  5
3F4
330
1F
100
AcDbEntity
  8
0-0
  6
JWW_DASHED1
 62
   120
370
     5
100
AcDbLine
 10
469.1806135395766
 20
310.3406989154626
 30
0.0
 11
719.1806135395692
 21
560.3406989154539
 31
0.0
  0
LINE
  5
3F5
330
1F
100
AcDbEntity
  8
0-0
  6
JWW_DASHED1
 62
   120
370
     5
100
AcDbLine
 10
129.1806135395874
 20
-22.58823327265958
 30
0.0
 11
379.18061353958
 21
227.4117667273322
 31
0.0
  0
LINE
  5
3F6
330
1F
100
AcDbEntity
  8
0-0
  6
JWW_DASHED1
 62
   120
370
     5
100
AcDbLine
 10
469.1806135395868
 20
317.4117667273395
 30
0.0
 11
719.1806135395794
 21
567.4117667273308
 31
0.0
  0
LINE
  5
3F7
330
1F
100
AcDbEntity
  8
0-0
  6
JWW_DASHED1
 62
   120
370
     5
100
AcDbLine
 10
129.1806135395772
 20
-15.51716546085771
 30
0.0
 11
379.1806135395851
 21
234.4828345391494
 31
0.0
  0
LINE
  5
3F8
330
1F
100
AcDbEntity
  8
0-0
  6
JWW_DASHED1
 62
   120
370
     5
100
AcDbLine
 10
469.1806135395766
 20
324.4828345391409
 30
0.0
 11
719.1806135395846
 21
574.4828345391484
 31
0.0
  0
LINE
  5
3F9
330
1F
100
AcDbEntity
  8
0-0
  6
JWW_DASHED1
 62
   120
370
     5
100
AcDbLine
 10
129.1806135395806
 20
-8.446097648988484
 30
0.0
 11
379.1806135395851
 21
241.5539023510165
 31
0.0
  0
LINE
  5
3FA
330
1F
100
AcDbEntity
  8
0-0
  6
JWW_DASHED1
 62
   120
370
     5
100
AcDbLine
 10
469.1806135395766
 20
331.5539023510071
 30
0.0
 11
719.1806135395658
 21
581.5539023509963
 31
0.0
  0
LINE
  5
3FB
330
1F
100
AcDbEntity
  8
0-0
  6
JWW_DASHED1
 62
   120
370
     5
100
AcDbLine
 10
129.1806135395823
 20
-1.37502983712011
 30
0.0
 11
379.1806135395732
 21
248.6249701628712
 31
0.0
  0
LINE
  5
3FC
330
1F
100
AcDbEntity
  8
0-0
  6
JWW_DASHED1
 62
   120
370
     5
100
AcDbLine
 10
469.1806135395817
 20
338.6249701628785
 30
0.0
 11
719.1806135395726
 21
588.6249701628702
 31
0.0
  0
LINE
  5
3FD
330
1F
100
AcDbEntity
  8
0-0
  6
JWW_DASHED1
 62
   120
370
     5
100
AcDbLine
 10
129.1806135395925
 20
5.696037974756791
 30
0.0
 11
379.1806135395834
 21
255.6960379747477
 31
0.0
  0
LINE
  5
3FE
330
1F
100
AcDbEntity
  8
0-0
  6
JWW_DASHED1
 62
   120
370
     5
100
AcDbLine
 10
469.1806135395749
 20
345.6960379747396
 30
0.0
 11
719.1806135395829
 21
595.6960379747467
 31
0.0
  0
LINE
  5
3FF
330
1F
100
AcDbEntity
  8
0-0
  6
JWW_DASHED1
 62
   120
370
     5
100
AcDbLine
 10
129.1806135395789
 20
12.76710578660982
 30
0.0
 11
379.1806135395834
 21
262.7671057866144
 31
0.0
  0
LINE
  5
400
330
1F
100
AcDbEntity
  8
0-0
  6
JWW_DASHED1
 62
   120
370
     5
100
AcDbLine
 10
469.1806135395749
 20
352.7671057866054
 30
0.0
 11
719.1806135395624
 21
602.7671057865946
 31
0.0
  0
LINE
  5
401
330
1F
100
AcDbEntity
  8
0-0
  6
JWW_DASHED1
 62
   120
370
     5
100
AcDbLine
 10
129.1806135395806
 20
19.83817359847819
 30
0.0
 11
379.1806135395715
 21
269.83817359847
 31
0.0
  0
LINE
  5
402
330
1F
100
AcDbEntity
  8
0-0
  6
JWW_DASHED1
 62
   120
370
     5
100
AcDbLine
 10
469.1806135395783
 20
359.8381735984768
 30
0.0
 11
719.1806135395709
 21
609.8381735984685
 31
0.0
  0
LINE
  5
403
330
1F
100
AcDbEntity
  8
0-0
  6
JWW_DASHED1
 62
   120
370
     5
100
AcDbLine
 10
129.1806135395908
 20
26.90924141035509
 30
0.0
 11
379.1806135395817
 21
276.909241410346
 31
0.0
  0
LINE
  5
404
330
1F
100
AcDbEntity
  8
0-0
  6
JWW_DASHED1
 62
   120
370
     5
100
AcDbLine
 10
469.1806135395732
 20
366.9092414103379
 30
0.0
 11
719.1806135395811
 21
616.909241410345
 31
0.0
  0
LINE
  5
405
330
1F
100
AcDbEntity
  8
0-0
  6
JWW_DASHED1
 62
   120
370
     5
100
AcDbLine
 10
129.1806135395772
 20
33.98030922220812
 30
0.0
 11
379.1806135395817
 21
283.9803092222127
 31
0.0
  0
LINE
  5
406
330
1F
100
AcDbEntity
  8
0-0
  6
JWW_DASHED1
 62
   120
370
     5
100
AcDbLine
 10
469.1806135395715
 20
373.9803092222033
 30
0.0
 11
719.1806135395777
 21
623.9803092222082
 31
0.0
  0
LINE
  5
407
330
1F
100
AcDbEntity
  8
0-0
  6
JWW_DASHED1
 62
   120
370
     5
100
AcDbLine
 10
129.1806135395789
 20
41.05137703407649
 30
0.0
 11
379.1806135395698
 21
291.0513770340674
 31
0.0
  0
LINE
  5
408
330
1F
100
AcDbEntity
  8
0-0
  6
JWW_DASHED1
 62
   120
370
     5
100
AcDbLine
 10
469.1806135395783
 20
381.0513770340751
 30
0.0
 11
719.1806135395692
 21
631.0513770340668
 31
0.0
  0
LINE
  5
409
330
1F
100
AcDbEntity
  8
0-0
  6
JWW_DASHED1
 62
   120
370
     5
100
AcDbLine
 10
129.1806135395891
 20
48.1224448459534
 30
0.0
 11
379.18061353958
 21
298.1224448459443
 31
0.0
  0
LINE
  5
40A
330
1F
100
AcDbEntity
  8
0-0
  6
JWW_DASHED1
 62
   120
370
     5
100
AcDbLine
 10
469.1806135395868
 20
388.122444845952
 30
0.0
 11
719.1806135395794
 21
638.1224448459433
 31
0.0
  0
LINE
  5
40B
330
1F
100
AcDbEntity
  8
0-0
  6
JWW_DASHED1
 62
   120
370
     5
100
AcDbLine
 10
129.1806135395738
 20
55.193512657806
 30
0.0
 11
379.1806135395783
 21
305.1935126578105
 31
0.0
  0
LINE
  5
40C
330
1F
100
AcDbEntity
  8
0-0
  6
JWW_DASHED1
 62
   120
370
     5
100
AcDbLine
 10
469.1806135395698
 20
395.1935126578012
 30
0.0
 11
719.180613539576
 21
645.1935126578065
 31
0.0
  0
LINE
  5
40D
330
1F
100
AcDbEntity
  8
0-0
  6
JWW_DASHED1
 62
   120
370
     5
100
AcDbLine
 10
129.1806135395772
 20
62.2645804696748
 30
0.0
 11
379.1806135395681
 21
312.2645804696662
 31
0.0
  0
LINE
  5
40E
330
1F
100
AcDbEntity
  8
0-0
  6
JWW_DASHED1
 62
   120
370
     5
100
AcDbLine
 10
469.1806135395749
 20
402.2645804696734
 30
0.0
 11
719.1806135395675
 21
652.2645804696651
 31
0.0
  0
LINE
  5
40F
330
1F
100
AcDbEntity
  8
0-0
  6
JWW_DASHED1
 62
   120
370
     5
100
AcDbLine
 10
129.1806135395874
 20
69.3356482815517
 30
0.0
 11
379.1806135395783
 21
319.3356482815426
 31
0.0
  0
LINE
  5
410
330
1F
100
AcDbEntity
  8
0-0
  6
JWW_DASHED1
 62
   120
370
     5
100
AcDbLine
 10
469.1806135395851
 20
409.3356482815503
 30
0.0
 11
719.180613539576
 21
659.3356482815416
 31
0.0
  0
LINE
  5
411
330
1F
100
AcDbEntity
  8
0-0
  6
JWW_DASHED1
 62
   120
370
     5
100
AcDbLine
 10
129.1806135395738
 20
76.4067160934043
 30
0.0
 11
379.1806135395783
 21
326.4067160934088
 31
0.0
  0
LINE
  5
412
330
1F
100
AcDbEntity
  8
0-0
  6
JWW_DASHED1
 62
   120
370
     5
100
AcDbLine
 10
469.1806135395681
 20
416.4067160933995
 30
0.0
 11
719.1806135395726
 21
666.4067160934044
 31
0.0
  0
LINE
  5
413
330
1F
100
AcDbEntity
  8
0-0
  6
JWW_DASHED1
 62
   120
370
     5
100
AcDbLine
 10
129.180613539584
 20
83.47778390528077
 30
0.0
 11
379.1806135395715
 21
333.4777839052691
 31
0.0
  0
LINE
  5
414
330
1F
100
AcDbEntity
  8
0-0
  6
JWW_DASHED1
 62
   120
370
     5
100
AcDbLine
 10
469.1806135395783
 20
423.4777839052759
 30
0.0
 11
719.1806135395675
 21
673.4777839052651
 31
0.0
  0
LINE
  5
415
330
1F
100
AcDbEntity
  8
0-0
  6
JWW_DASHED1
 62
   120
370
     5
100
AcDbLine
 10
129.1806135395857
 20
90.54885171715
 30
0.0
 11
379.1806135395766
 21
340.5488517171409
 31
0.0
  0
LINE
  5
416
330
1F
100
AcDbEntity
  8
0-0
  6
JWW_DASHED1
 62
   120
370
     5
100
AcDbLine
 10
469.1806135395851
 20
430.5488517171486
 30
0.0
 11
719.180613539576
 21
680.5488517171399
 31
0.0
  0
LINE
  5
417
330
1F
100
AcDbEntity
  8
0-0
  6
JWW_DASHED1
 62
   120
370
     5
100
AcDbLine
 10
129.1806135395806
 20
97.6199195290107
 30
0.0
 11
379.1806135395868
 21
347.6199195290178
 31
0.0
  0
LINE
  5
418
330
1F
100
AcDbEntity
  8
0-0
  6
JWW_DASHED1
 62
   120
370
     5
100
AcDbLine
 10
469.1806135395783
 20
437.6199195290093
 30
0.0
 11
719.1806135395863
 21
687.6199195290164
 31
0.0
  0
LINE
  5
419
330
1F
100
AcDbEntity
  8
0-0
  6
JWW_DASHED1
 62
   120
370
     5
100
AcDbLine
 10
129.1806135395806
 20
104.6909873408786
 30
0.0
 11
379.1806135395698
 21
354.6909873408674
 31
0.0
  0
LINE
  5
41A
330
1F
100
AcDbEntity
  8
0-0
  6
JWW_DASHED1
 62
   120
370
     5
100
AcDbLine
 10
469.1806135395766
 20
444.6909873408742
 30
0.0
 11
719.1806135395658
 21
694.6909873408634
 31
0.0
  0
LINE
  5
41B
330
1F
100
AcDbEntity
  8
0-0
  6
JWW_DASHED1
 62
   120
370
     5
100
AcDbLine
 10
129.180613539584
 20
111.7620551527483
 30
0.0
 11
379.1806135395749
 21
361.7620551527392
 31
0.0
  0
LINE
  5
41C
330
1F
100
AcDbEntity
  8
0-0
  6
JWW_DASHED1
 62
   120
370
     5
100
AcDbLine
 10
469.1806135395817
 20
451.7620551527469
 30
0.0
 11
719.1806135395726
 21
701.7620551527382
 31
0.0
  0
LINE
  5
41D
330
1F
100
AcDbEntity
  8
0-0
  6
JWW_DASHED1
 62
   120
370
     5
100
AcDbLine
 10
129.1806135395942
 20
118.8331229646248
 30
0.0
 11
379.1806135395851
 21
368.8331229646157
 31
0.0
  0
LINE
  5
41E
330
1F
100
AcDbEntity
  8
0-0
  6
JWW_DASHED1
 62
   120
370
     5
100
AcDbLine
 10
469.1806135395766
 20
458.8331229646076
 30
0.0
 11
719.1806135395829
 21
708.8331229646146
 31
0.0
  0
LINE
  5
41F
330
1F
100
AcDbEntity
  8
0-0
  6
JWW_DASHED1
 62
   120
370
     5
100
AcDbLine
 10
129.1806135395789
 20
125.9041907764765
 30
0.0
 11
379.1806135395834
 21
375.9041907764815
 31
0.0
  0
LINE
  5
420
330
1F
100
AcDbEntity
  8
0-0
  6
JWW_DASHED1
 62
   120
370
     5
100
AcDbLine
 10
469.1806135395749
 20
465.9041907764725
 30
0.0
 11
719.1806135395641
 21
715.9041907764613
 31
0.0
  0
LINE
  5
421
330
1F
100
AcDbEntity
  8
0-0
  6
JWW_DASHED1
 62
   120
370
     5
100
AcDbLine
 10
129.1806135395823
 20
132.9752585883466
 30
0.0
 11
379.1806135395732
 21
382.9752585883375
 31
0.0
  0
LINE
  5
422
330
1F
100
AcDbEntity
  8
0-0
  6
JWW_DASHED1
 62
   120
370
     5
100
AcDbLine
 10
469.1806135395817
 20
472.9752585883452
 30
0.0
 11
719.1806135395726
 21
722.9752585883365
 31
0.0
  0
LINE
  5
423
330
1F
100
AcDbEntity
  8
0-0
  6
JWW_DASHED1
 62
   120
370
     5
100
AcDbLine
 10
129.1806135395925
 20
140.0463264002231
 30
0.0
 11
379.1806135395834
 21
390.046326400214
 31
0.0
  0
LINE
  5
424
330
1F
100
AcDbEntity
  8
0-0
  6
JWW_DASHED1
 62
   120
370
     5
100
AcDbLine
 10
469.1806135395749
 20
480.0463264002059
 30
0.0
 11
719.1806135395829
 21
730.046326400213
 31
0.0
  0
LINE
  5
425
330
1F
100
AcDbEntity
  8
0-0
  6
JWW_DASHED1
 62
   120
370
     5
100
AcDbLine
 10
129.1806135395772
 20
147.1173942120748
 30
0.0
 11
379.1806135395817
 21
397.1173942120794
 31
0.0
  0
LINE
  5
426
330
1F
100
AcDbEntity
  8
0-0
  6
JWW_DASHED1
 62
   120
370
     5
100
AcDbLine
 10
469.1806135395715
 20
487.1173942120704
 30
0.0
 11
719.1806135395624
 21
737.1173942120596
 31
0.0
  0
LINE
  5
427
330
1F
100
AcDbEntity
  8
0-0
  6
JWW_DASHED1
 62
   120
370
     5
100
AcDbLine
 10
129.1806135395806
 20
154.1884620239449
 30
0.0
 11
379.1806135395715
 21
404.1884620239358
 31
0.0
  0
LINE
  5
428
330
1F
100
AcDbEntity
  8
0-0
  6
JWW_DASHED1
 62
   120
370
     5
100
AcDbLine
 10
469.1806135395783
 20
494.1884620239435
 30
0.0
 11
719.1806135395692
 21
744.1884620239348
 31
0.0
  0
LINE
  5
429
330
1F
100
AcDbEntity
  8
0-0
  6
JWW_DASHED1
 62
   120
370
     5
100
AcDbLine
 10
129.1806135395908
 20
161.2595298358218
 30
0.0
 11
379.1806135395817
 21
411.2595298358127
 31
0.0
  0
LINE
  5
42A
330
1F
100
AcDbEntity
  8
0-0
  6
JWW_DASHED1
 62
   120
370
     5
100
AcDbLine
 10
469.1806135395885
 20
501.2595298358204
 30
0.0
 11
719.1806135395794
 21
751.2595298358112
 31
0.0
  0
LINE
  5
42B
330
1F
100
AcDbEntity
  8
0-0
  6
JWW_DASHED1
 62
   120
370
     5
100
AcDbLine
 10
129.1806135395755
 20
168.3305976476731
 30
0.0
 11
379.18061353958
 21
418.3305976476777
 31
0.0
  0
LINE
  5
42C
330
1F
100
AcDbEntity
  8
0-0
  6
JWW_DASHED1
 62
   120
370
     5
100
AcDbLine
 10
469.1806135395715
 20
508.3305976476683
 30
0.0
 11
719.180613539576
 21
758.3305976476732
 31
0.0
  0
LINE
  5
42D
330
1F
100
AcDbEntity
  8
0-0
  6
JWW_DASHED1
 62
   120
370
     5
100
AcDbLine
 10
129.1806135395789
 20
175.4016654595432
 30
0.0
 11
379.1806135395698
 21
425.4016654595341
 31
0.0
  0
LINE
  5
42E
330
1F
100
AcDbEntity
  8
0-0
  6
JWW_DASHED1
 62
   120
370
     5
100
AcDbLine
 10
469.1806135395783
 20
515.4016654595418
 30
0.0
 11
719.1806135395692
 21
765.4016654595331
 31
0.0
  0
LINE
  5
42F
330
1F
100
AcDbEntity
  8
0-0
  6
JWW_DASHED1
 62
   120
370
     5
100
AcDbLine
 10
129.1806135395874
 20
182.4727332714197
 30
0.0
 11
379.18061353958
 21
432.4727332714106
 31
0.0
  0
LINE
  5
430
330
1F
100
AcDbEntity
  8
0-0
  6
JWW_DASHED1
 62
   120
370
     5
100
AcDbLine
 10
469.1806135395868
 20
522.4727332714183
 30
0.0
 11
719.1806135395794
 21
772.4727332714097
 31
0.0
  0
LINE
  5
431
330
1F
100
AcDbEntity
  8
0-0
  6
JWW_DASHED1
 62
   120
370
     5
100
AcDbLine
 10
129.1806135395738
 20
189.5438010832714
 30
0.0
 11
379.1806135395783
 21
439.5438010832755
 31
0.0
  0
LINE
  5
432
330
1F
100
AcDbEntity
  8
0-0
  6
JWW_DASHED1
 62
   120
370
     5
100
AcDbLine
 10
469.1806135395681
 20
529.5438010832665
 30
0.0
 11
719.1806135395743
 21
779.5438010832715
 31
0.0
  0
LINE
  5
433
330
1F
100
AcDbEntity
  8
0-0
  6
JWW_DASHED1
 62
   120
370
     5
100
AcDbLine
 10
129.1806135395772
 20
196.6148688951415
 30
0.0
 11
379.1806135395681
 21
446.6148688951324
 31
0.0
  0
LINE
  5
434
330
1F
100
AcDbEntity
  8
0-0
  6
JWW_DASHED1
 62
   120
370
     5
100
AcDbLine
 10
469.1806135395749
 20
536.61486889514
 30
0.0
 11
719.1806135395675
 21
786.6148688951314
 31
0.0
  0
LINE
  5
435
330
1F
100
AcDbEntity
  8
0-0
  6
JWW_DASHED1
 62
   120
370
     5
100
AcDbLine
 10
129.1806135395874
 20
203.6859367070184
 30
0.0
 11
379.1806135395783
 21
453.6859367070089
 31
0.0
  0
LINE
  5
436
330
1F
100
AcDbEntity
  8
0-0
  6
JWW_DASHED1
 62
   120
370
     5
100
AcDbLine
 10
469.1806135395851
 20
543.6859367070166
 30
0.0
 11
719.180613539576
 21
793.6859367070083
 31
0.0
  0
LINE
  5
437
330
1F
100
AcDbEntity
  8
0-0
  6
JWW_DASHED1
 62
   120
370
     5
100
AcDbLine
 10
129.1806135395703
 20
210.7570045188693
 30
0.0
 11
379.1806135395749
 21
460.7570045188738
 31
0.0
  0
LINE
  5
438
330
1F
100
AcDbEntity
  8
0-0
  6
JWW_DASHED1
 62
   120
370
     5
100
AcDbLine
 10
469.1806135395681
 20
550.757004518865
 30
0.0
 11
719.1806135395726
 21
800.7570045188698
 31
0.0
  0
LINE
  5
439
330
1F
100
AcDbEntity
  8
0-0
  6
JWW_DASHED1
 62
   120
370
     5
100
AcDbLine
 10
129.1806135395806
 20
217.8280723307458
 30
0.0
 11
379.1806135395698
 21
467.8280723307346
 31
0.0
  0
LINE
  5
43A
330
1F
100
AcDbEntity
  8
0-0
  6
JWW_DASHED1
 62
   120
370
     5
100
AcDbLine
 10
469.1806135395766
 20
557.828072330741
 30
0.0
 11
719.1806135395658
 21
807.8280723307306
 31
0.0
  0
LINE
  5
43B
330
1F
100
AcDbEntity
  8
0-0
  6
JWW_DASHED1
 62
   120
370
     5
100
AcDbLine
 10
129.180613539584
 20
224.8991401425869
 30
0.0
 11
379.1806135395749
 21
474.8991401425778
 31
0.0
  0
LINE
  5
43C
330
1F
100
AcDbEntity
  8
0-0
  6
JWW_DASHED1
 62
   120
370
     5
100
AcDbLine
 10
469.1806135395817
 20
564.8991401425855
 30
0.0
 11
719.1806135395726
 21
814.8991401425768
 31
0.0
  0
LINE
  5
43D
330
1F
100
AcDbEntity
  8
0-0
  6
JWW_DASHED1
 62
   120
370
     5
100
AcDbLine
 10
129.1806135395908
 20
231.9702079544339
 30
0.0
 11
379.1806135395817
 21
481.9702079544253
 31
0.0
  0
LINE
  5
43E
330
1F
100
AcDbEntity
  8
0-0
  6
JWW_DASHED1
 62
   120
370
     5
100
AcDbLine
 10
469.1806135395732
 20
571.9702079544168
 30
0.0
 11
719.1806135395811
 21
821.9702079544243
 31
0.0
  0
LINE
  5
43F
330
1F
100
AcDbEntity
  8
0-0
  6
JWW_DASHED1
 62
   120
370
     5
100
AcDbLine
 10
129.1806135395755
 20
239.0412757662848
 30
0.0
 11
379.18061353958
 21
489.0412757662898
 31
0.0
  0
LINE
  5
440
330
1F
100
AcDbEntity
  8
0-0
  6
JWW_DASHED1
 62
   120
370
     5
100
AcDbLine
 10
469.1806135395715
 20
579.0412757662805
 30
0.0
 11
719.180613539576
 21
829.0412757662854
 31
0.0
  0
LINE
  5
441
330
1F
100
AcDbEntity
  8
0-0
  6
JWW_DASHED1
 62
   120
370
     5
100
AcDbLine
 10
129.1806135395789
 20
246.1123435781553
 30
0.0
 11
379.1806135395698
 21
496.1123435781467
 31
0.0
  0
LINE
  5
442
330
1F
100
AcDbEntity
  8
0-0
  6
JWW_DASHED1
 62
   120
370
     5
100
AcDbLine
 10
469.1806135395783
 20
586.112343578154
 30
0.0
 11
719.1806135395692
 21
836.1123435781457
 31
0.0
  0
LINE
  5
443
330
1F
100
AcDbEntity
  8
0-0
  6
JWW_DASHED1
 62
   120
370
     5
100
AcDbLine
 10
129.1806135395891
 20
253.1834113900322
 30
0.0
 11
379.18061353958
 21
503.1834113900236
 31
0.0
  0
LINE
  5
444
330
1F
100
AcDbEntity
  8
0-0
  6
JWW_DASHED1
 62
   120
370
     5
100
AcDbLine
 10
469.1806135395885
 20
593.1834113900309
 30
0.0
 11
719.1806135395794
 21
843.1834113900221
 31
0.0
  0
LINE
  5
445
330
1F
100
AcDbEntity
  8
0-0
  6
JWW_DASHED1
 62
   120
370
     5
100
AcDbLine
 10
129.1806135395738
 20
260.2544792018836
 30
0.0
 11
379.1806135395783
 21
510.2544792018876
 31
0.0
  0
LINE
  5
446
330
1F
100
AcDbEntity
  8
0-0
  6
JWW_DASHED1
 62
   120
370
     5
100
AcDbLine
 10
469.1806135395681
 20
600.2544792018787
 30
0.0
 11
719.1806135395726
 21
850.2544792018837
 31
0.0
  0
LINE
  5
447
330
1F
100
AcDbEntity
  8
0-0
  6
JWW_DASHED1
 62
   120
370
     5
100
AcDbLine
 10
129.1806135395772
 20
267.3255470137541
 30
0.0
 11
379.1806135395681
 21
517.325547013745
 31
0.0
  0
LINE
  5
448
330
1F
100
AcDbEntity
  8
0-0
  6
JWW_DASHED1
 62
   120
370
     5
100
AcDbLine
 10
469.1806135395749
 20
607.3255470137526
 30
0.0
 11
719.1806135395675
 21
857.325547013744
 31
0.0
  0
LINE
  5
449
330
1F
100
AcDbEntity
  8
0-0
  6
JWW_DASHED1
 62
   120
370
     5
100
AcDbLine
 10
129.1806135395874
 20
274.3966148256305
 30
0.0
 11
379.1806135395783
 21
524.3966148256214
 31
0.0
  0
LINE
  5
44A
330
1F
100
AcDbEntity
  8
0-0
  6
JWW_DASHED1
 62
   120
370
     5
100
AcDbLine
 10
469.1806135395851
 20
614.3966148256291
 30
0.0
 11
719.1806135395777
 21
864.3966148256209
 31
0.0
  0
LINE
  5
44B
330
1F
100
AcDbEntity
  8
0-0
  6
JWW_DASHED1
 62
   120
370
     5
100
AcDbLine
 10
129.1806135395703
 20
281.467682637481
 30
0.0
 11
379.1806135395749
 21
531.467682637486
 31
0.0
  0
LINE
  5
44C
330
1F
100
AcDbEntity
  8
0-0
  6
JWW_DASHED1
 62
   120
370
     5
100
AcDbLine
 10
469.1806135395681
 20
621.4676826374771
 30
0.0
 11
719.1806135395726
 21
871.4676826374816
 31
0.0
  0
LINE
  5
44D
330
1F
100
AcDbEntity
  8
0-0
  6
JWW_DASHED1
 62
   120
370
     5
100
AcDbLine
 10
129.1806135395806
 20
288.5387504493579
 30
0.0
 11
379.1806135395698
 21
538.5387504493463
 31
0.0
  0
LINE
  5
44E
330
1F
100
AcDbEntity
  8
0-0
  6
JWW_DASHED1
 62
   120
370
     5
100
AcDbLine
 10
129.1806135395857
 20
295.6098182612288
 30
0.0
 11
379.1806135395766
 21
545.6098182612197
 31
0.0
  0
LINE
  5
44F
330
1F
100
AcDbEntity
  8
0-0
  6
JWW_DASHED1
 62
   120
370
     5
100
AcDbLine
 10
129.1806135395806
 20
302.6808860730895
 30
0.0
 11
379.1806135395868
 21
552.6808860730966
 31
0.0
  0
LINE
  5
450
330
1F
100
AcDbEntity
  8
0-0
  6
JWW_DASHED1
 62
   120
370
     5
100
AcDbLine
 10
129.1806135395789
 20
309.7519538849558
 30
0.0
 11
379.1806135395681
 21
559.7519538849446
 31
0.0
  0
LINE
  5
451
330
1F
100
AcDbEntity
  8
0-0
  6
JWW_DASHED1
 62
   120
370
     5
100
AcDbLine
 10
129.180613539584
 20
316.8230216968271
 30
0.0
 11
379.1806135395749
 21
566.8230216968185
 31
0.0
  0
LINE
  5
452
330
1F
100
AcDbEntity
  8
0-0
  6
JWW_DASHED1
 62
   120
370
     5
100
AcDbLine
 10
129.1806135395942
 20
323.894089508704
 30
0.0
 11
379.1806135395851
 21
573.894089508695
 31
0.0
  0
LINE
  5
453
330
1F
100
AcDbEntity
  8
0-0
  6
JWW_DASHED1
 62
   120
370
     5
100
AcDbLine
 10
129.1806135395772
 20
330.9651573205541
 30
0.0
 11
379.1806135395817
 21
580.9651573205587
 31
0.0
  0
LINE
  5
454
330
1F
100
AcDbEntity
  8
0-0
  6
JWW_DASHED1
 62
   120
370
     5
100
AcDbLine
 10
129.1806135395823
 20
338.0362251324254
 30
0.0
 11
379.1806135395732
 21
588.0362251324163
 31
0.0
  0
LINE
  5
455
330
1F
100
AcDbEntity
  8
0-0
  6
JWW_DASHED1
 62
   120
370
     5
100
AcDbLine
 10
129.1806135395925
 20
345.1072929443023
 30
0.0
 11
379.1806135395834
 21
595.1072929442932
 31
0.0
  0
LINE
  5
456
330
1F
100
AcDbEntity
  8
0-0
  6
JWW_DASHED1
 62
   120
370
     5
100
AcDbLine
 10
129.1806135395755
 20
352.178360756152
 30
0.0
 11
379.18061353958
 21
602.1783607561565
 31
0.0
  0
LINE
  5
457
330
1F
100
AcDbEntity
  8
0-0
  6
JWW_DASHED1
 62
   120
370
     5
100
AcDbLine
 10
129.1806135395806
 20
359.2494285680237
 30
0.0
 11
379.1806135395715
 21
609.2494285680151
 31
0.0
  0
LINE
  5
458
330
1F
100
AcDbEntity
  8
0-0
  6
JWW_DASHED1
 62
   120
370
     5
100
AcDbLine
 10
129.1806135395908
 20
366.3204963799002
 30
0.0
 11
379.1806135395817
 21
616.3204963798916
 31
0.0
  0
LINE
  5
459
330
1F
100
AcDbEntity
  8
0-0
  6
JWW_DASHED1
 62
   120
370
     5
100
AcDbLine
 10
129.1806135395738
 20
373.3915641917503
 30
0.0
 11
379.1806135395783
 21
623.3915641917548
 31
0.0
  0
LINE
  5
45A
330
1F
100
AcDbEntity
  8
0-0
  6
JWW_DASHED1
 62
   120
370
     5
100
AcDbLine
 10
129.1806135395789
 20
380.462632003622
 30
0.0
 11
379.1806135395698
 21
630.4626320036134
 31
0.0
  0
LINE
  5
45B
330
1F
100
AcDbEntity
  8
0-0
  6
JWW_DASHED1
 62
   120
370
     5
100
AcDbLine
 10
129.1806135395874
 20
387.5336998154985
 30
0.0
 11
379.18061353958
 21
637.5336998154899
 31
0.0
  0
LINE
  5
45C
330
1F
100
AcDbEntity
  8
0-0
  6
JWW_DASHED1
 62
   120
370
     5
100
AcDbLine
 10
129.1806135395721
 20
394.6047676273481
 30
0.0
 11
379.1806135395766
 21
644.6047676273527
 31
0.0
  0
LINE
  5
45D
330
1F
100
AcDbEntity
  8
0-0
  6
JWW_DASHED1
 62
   120
370
     5
100
AcDbLine
 10
129.1806135395806
 20
401.675835439225
 30
0.0
 11
379.1806135395715
 21
651.6758354392139
 31
0.0
  0
LINE
  5
45E
330
1F
100
AcDbEntity
  8
0-0
  6
JWW_DASHED1
 62
   120
370
     5
100
AcDbLine
 10
129.1806135395874
 20
408.7469032510973
 30
0.0
 11
379.1806135395783
 21
658.7469032510882
 31
0.0
  0
LINE
  5
45F
330
1F
100
AcDbEntity
  8
0-0
  6
JWW_DASHED1
 62
   120
370
     5
100
AcDbLine
 10
129.1806135395703
 20
415.8179710629469
 30
0.0
 11
379.1806135395749
 21
665.817971062951
 31
0.0
  0
LINE
  5
460
330
1F
100
AcDbEntity
  8
0-0
  6
JWW_DASHED1
 62
   120
370
     5
100
AcDbLine
 10
129.1806135395806
 20
422.8890388748229
 30
0.0
 11
379.1806135395681
 21
672.8890388748121
 31
0.0
  0
LINE
  5
461
330
1F
100
AcDbEntity
  8
0-0
  6
JWW_DASHED1
 62
   120
370
     5
100
AcDbLine
 10
129.1806135395857
 20
429.9601066866951
 30
0.0
 11
379.1806135395766
 21
679.9601066866865
 31
0.0
  0
LINE
  5
462
330
1F
100
AcDbEntity
  8
0-0
  6
JWW_DASHED1
 62
   120
370
     5
100
AcDbLine
 10
129.1806135395806
 20
437.0311744985563
 30
0.0
 11
379.1806135395851
 21
687.0311744985629
 31
0.0
  0
LINE
  5
463
330
1F
100
AcDbEntity
  8
0-0
  6
JWW_DASHED1
 62
   120
370
     5
100
AcDbLine
 10
129.1806135395772
 20
444.1022423104212
 30
0.0
 11
379.1806135395817
 21
694.1022423104257
 31
0.0
  0
LINE
  5
464
330
1F
100
AcDbEntity
  8
0-0
  6
JWW_DASHED1
 62
   120
370
     5
100
AcDbLine
 10
129.180613539584
 20
451.1733101222934
 30
0.0
 11
379.1806135395749
 21
701.1733101222848
 31
0.0
  0
LINE
  5
465
330
1F
100
AcDbEntity
  8
0-0
  6
JWW_DASHED1
 62
   120
370
     5
100
AcDbLine
 10
129.1806135395942
 20
458.2443779341703
 30
0.0
 11
379.1806135395851
 21
708.2443779341612
 31
0.0
  0
LINE
  5
466
330
1F
100
AcDbEntity
  8
0-0
  6
JWW_DASHED1
 62
   120
370
     5
100
AcDbLine
 10
129.1806135395755
 20
465.3154457460191
 30
0.0
 11
379.18061353958
 21
715.3154457460237
 31
0.0
  0
LINE
  5
467
330
1F
100
AcDbEntity
  8
0-0
  6
JWW_DASHED1
 62
   120
370
     5
100
AcDbLine
 10
129.1806135395806
 20
472.3865135578367
 30
0.0
 11
379.1806135395698
 21
722.3865135578255
 31
0.0
  0
LINE
  5
468
330
1F
100
AcDbEntity
  8
0-0
  6
JWW_DASHED1
 62
   120
370
     5
100
AcDbLine
 10
129.1806135395874
 20
479.4575813697098
 30
0.0
 11
379.1806135395783
 21
729.4575813697007
 31
0.0
  0
LINE
  5
469
330
1F
100
AcDbEntity
  8
0-0
  6
JWW_DASHED1
 62
   120
370
     5
100
AcDbLine
 10
129.1806135395703
 20
486.5286491815581
 30
0.0
 11
379.1806135395749
 21
736.5286491815627
 31
0.0
  0
LINE
  5
46A
330
1F
100
AcDbEntity
  8
0-0
  6
JWW_DASHED1
 62
   120
370
     5
100
AcDbLine
 10
129.1806135395806
 20
493.599716993435
 30
0.0
 11
379.1806135395681
 21
743.5997169934238
 31
0.0
  0
LINE
  5
46B
330
1F
100
AcDbEntity
  8
0-0
  6
JWW_DASHED1
 62
   120
370
     5
100
AcDbLine
 10
129.1806135395857
 20
500.6707848053077
 30
0.0
 11
379.1806135395766
 21
750.670784805299
 31
0.0
  0
LINE
  5
46C
330
1F
100
AcDbEntity
  8
0-0
  6
JWW_DASHED1
 62
   120
370
     5
100
AcDbLine
 10
129.1806135395806
 20
507.7418526171688
 30
0.0
 11
379.1806135395868
 21
757.7418526171755
 31
0.0
  0
LINE
  5
46D
330
1F
100
AcDbEntity
  8
0-0
  6
JWW_DASHED1
 62
   120
370
     5
100
AcDbLine
 10
129.1806135395772
 20
514.8129204290333
 30
0.0
 11
379.1806135395817
 21
764.8129204290375
 31
0.0
  0
LINE
  5
46E
330
1F
100
AcDbEntity
  8
0-0
  6
JWW_DASHED1
 62
   120
370
     5
100
AcDbLine
 10
129.180613539584
 20
521.883988240906
 30
0.0
 11
379.1806135395749
 21
771.8839882408973
 31
0.0
  0
LINE
  5
46F
330
1F
100
AcDbEntity
  8
0-0
  6
JWW_DASHED1
 62
   120
370
     5
100
AcDbLine
 10
129.1806135395942
 20
528.9550560527829
 30
0.0
 11
379.1806135395851
 21
778.9550560527738
 31
0.0
  0
LINE
  5
470
330
1F
100
AcDbEntity
  8
0-0
  6
JWW_DASHED1
 62
   120
370
     5
100
AcDbLine
 10
129.1806135395755
 20
536.0261238646308
 30
0.0
 11
379.18061353958
 21
786.0261238646358
 31
0.0
  0
LINE
  5
471
330
1F
100
AcDbEntity
  8
0-0
  6
JWW_DASHED1
 62
   120
370
     5
100
AcDbLine
 10
129.1806135395823
 20
543.0971916765043
 30
0.0
 11
379.1806135395732
 21
793.0971916764956
 31
0.0
  0
LINE
  5
472
330
1F
100
AcDbEntity
  8
0-0
  6
JWW_DASHED1
 62
   120
370
     5
100
AcDbLine
 10
129.1806135395925
 20
550.1682594883812
 30
0.0
 11
379.1806135395834
 21
800.1682594883721
 31
0.0
  0
LINE
  5
473
330
1F
100
AcDbEntity
  8
0-0
  6
JWW_DASHED1
 62
   120
370
     5
100
AcDbLine
 10
129.1806135395738
 20
557.2393273002291
 30
0.0
 11
379.1806135395783
 21
807.2393273002336
 31
0.0
  0
LINE
  5
474
330
1F
100
AcDbEntity
  8
0-0
  6
JWW_DASHED1
 62
   120
370
     5
100
AcDbLine
 10
129.1806135395806
 20
564.3103951121026
 30
0.0
 11
379.1806135395715
 21
814.3103951120939
 31
0.0
  0
LINE
  5
475
330
1F
100
AcDbEntity
  8
0-0
  6
JWW_DASHED1
 62
   120
370
     5
100
AcDbLine
 10
129.1806135395908
 20
571.3814629239795
 30
0.0
 11
379.1806135395817
 21
821.3814629239704
 31
0.0
  0
LINE
  5
476
330
1F
100
AcDbEntity
  8
0-0
  6
JWW_DASHED1
 62
   120
370
     5
100
AcDbLine
 10
129.1806135395721
 20
578.4525307358274
 30
0.0
 11
379.1806135395766
 21
828.4525307358319
 31
0.0
  0
LINE
  5
477
330
1F
100
AcDbEntity
  8
0-0
  6
JWW_DASHED1
 62
   120
370
     5
100
AcDbLine
 10
129.1806135395789
 20
585.5235985477009
 30
0.0
 11
379.1806135395698
 21
835.5235985476922
 31
0.0
  0
LINE
  5
478
330
1F
100
AcDbEntity
  8
0-0
  6
JWW_DASHED1
 62
   120
370
     5
100
AcDbLine
 10
129.1806135395891
 20
592.5946663595778
 30
0.0
 11
379.18061353958
 21
842.5946663595687
 31
0.0
  0
LINE
  5
479
330
1F
100
AcDbEntity
  8
0-0
  6
JWW_DASHED1
 62
   120
370
     5
100
AcDbLine
 10
129.1806135395703
 20
599.6657341714252
 30
0.0
 11
379.1806135395749
 21
849.6657341714298
 31
0.0
  0
LINE
  5
47A
330
1F
100
AcDbEntity
  8
0-0
  6
JWW_DASHED1
 62
   120
370
     5
100
AcDbLine
 10
129.1806135395806
 20
606.7368019833021
 30
0.0
 11
379.1806135395681
 21
856.7368019832909
 31
0.0
  0
LINE
  5
47B
330
1F
100
AcDbEntity
  8
0-0
  6
JWW_DASHED1
 62
   120
370
     5
100
AcDbLine
 10
129.1806135395874
 20
613.8078697951761
 30
0.0
 11
379.1806135395783
 21
863.807869795167
 31
0.0
  0
LINE
  5
47C
330
1F
100
AcDbEntity
  8
0-0
  6
JWW_DASHED1
 62
   120
370
     5
100
AcDbLine
 10
129.1806135395806
 20
620.8789376070367
 30
0.0
 11
379.1806135395885
 21
870.8789376070439
 31
0.0
  0
LINE
  5
47D
330
1F
100
AcDbEntity
  8
0-0
  6
JWW_DASHED1
 62
   120
370
     5
100
AcDbLine
 10
129.1806135395942
 20
868.3663110223284
 30
0.0
 11
136.2320521714404
 21
875.4177496541746
 31
0.0
  0
LINE
  5
47E
330
1F
100
AcDbEntity
  8
0-0
  6
JWW_DASHED1
 62
   120
370
     5
100
AcDbLine
 10
469.1806135395766
 20
628.5387504493531
 30
0.0
 11
716.0596127443981
 21
875.4177496541746
 31
0.0
  0
LINE
  5
47F
330
1F
100
AcDbEntity
  8
0-0
  6
JWW_DASHED1
 62
   120
370
     5
100
AcDbLine
 10
469.1806135395851
 20
635.6098182612275
 30
0.0
 11
708.9885449325315
 21
875.4177496541746
 31
0.0
  0
LINE
  5
480
330
1F
100
AcDbEntity
  8
0-0
  6
JWW_DASHED1
 62
   120
370
     5
100
AcDbLine
 10
469.1806135395783
 20
642.6808860730881
 30
0.0
 11
701.9174771206648
 21
875.4177496541746
 31
0.0
  0
LINE
  5
481
330
1F
100
AcDbEntity
  8
0-0
  6
JWW_DASHED1
 62
   120
370
     5
100
AcDbLine
 10
469.1806135395749
 20
649.7519538849514
 30
0.0
 11
694.8464093087981
 21
875.4177496541746
 31
0.0
  0
LINE
  5
482
330
1F
100
AcDbEntity
  8
0-0
  6
JWW_DASHED1
 62
   120
370
     5
100
AcDbLine
 10
469.1806135395817
 20
656.8230216968257
 30
0.0
 11
687.7753414969314
 21
875.4177496541746
 31
0.0
  0
LINE
  5
483
330
1F
100
AcDbEntity
  8
0-0
  6
JWW_DASHED1
 62
   120
370
     5
100
AcDbLine
 10
469.1806135395766
 20
663.8940895086864
 30
0.0
 11
680.7042736850648
 21
875.4177496541746
 31
0.0
  0
LINE
  5
484
330
1F
100
AcDbEntity
  8
0-0
  6
JWW_DASHED1
 62
   120
370
     5
100
AcDbLine
 10
469.1806135395732
 20
670.9651573205497
 30
0.0
 11
673.6332058731981
 21
875.4177496541746
 31
0.0
  0
LINE
  5
485
330
1F
100
AcDbEntity
  8
0-0
  6
JWW_DASHED1
 62
   120
370
     5
100
AcDbLine
 10
469.1806135395817
 20
678.0362251324241
 30
0.0
 11
666.5621380613314
 21
875.4177496541746
 31
0.0
  0
LINE
  5
486
330
1F
100
AcDbEntity
  8
0-0
  6
JWW_DASHED1
 62
   120
370
     5
100
AcDbLine
 10
469.1806135395749
 20
685.1072929442847
 30
0.0
 11
659.4910702494648
 21
875.4177496541746
 31
0.0
  0
LINE
  5
487
330
1F
100
AcDbEntity
  8
0-0
  6
JWW_DASHED1
 62
   120
370
     5
100
AcDbLine
 10
469.1806135395715
 20
692.1783607561475
 30
0.0
 11
652.4200024375981
 21
875.4177496541746
 31
0.0
  0
LINE
  5
488
330
1F
100
AcDbEntity
  8
0-0
  6
JWW_DASHED1
 62
   120
370
     5
100
AcDbLine
 10
469.1806135395783
 20
699.2494285680223
 30
0.0
 11
645.3489346257314
 21
875.4177496541746
 31
0.0
  0
LINE
  5
489
330
1F
100
AcDbEntity
  8
0-0
  6
JWW_DASHED1
 62
   120
370
     5
100
AcDbLine
 10
469.1806135395885
 20
706.3204963798992
 30
0.0
 11
638.2778668138648
 21
875.4177496541746
 31
0.0
  0
LINE
  5
48A
330
1F
100
AcDbEntity
  8
0-0
  6
JWW_DASHED1
 62
   120
370
     5
100
AcDbLine
 10
469.1806135395681
 20
713.3915641917458
 30
0.0
 11
631.2067990019981
 21
875.4177496541746
 31
0.0
  0
LINE
  5
48B
330
1F
100
AcDbEntity
  8
0-0
  6
JWW_DASHED1
 62
   120
370
     5
100
AcDbLine
 10
469.1806135395783
 20
720.4626320036207
 30
0.0
 11
624.1357311901314
 21
875.4177496541746
 31
0.0
  0
LINE
  5
48C
330
1F
100
AcDbEntity
  8
0-0
  6
JWW_DASHED1
 62
   120
370
     5
100
AcDbLine
 10
469.1806135395868
 20
727.5336998154971
 30
0.0
 11
617.0646633782648
 21
875.4177496541746
 31
0.0
  0
LINE
  5
48D
330
1F
100
AcDbEntity
  8
0-0
  6
JWW_DASHED1
 62
   120
370
     5
100
AcDbLine
 10
469.1806135395681
 20
734.6047676273438
 30
0.0
 11
609.9935955663981
 21
875.4177496541746
 31
0.0
  0
LINE
  5
48E
330
1F
100
AcDbEntity
  8
0-0
  6
JWW_DASHED1
 62
   120
370
     5
100
AcDbLine
 10
469.1806135395766
 20
741.6758354392202
 30
0.0
 11
602.9225277545314
 21
875.4177496541746
 31
0.0
  0
LINE
  5
48F
330
1F
100
AcDbEntity
  8
0-0
  6
JWW_DASHED1
 62
   120
370
     5
100
AcDbLine
 10
469.1806135395851
 20
748.7469032510954
 30
0.0
 11
595.8514599426647
 21
875.4177496541746
 31
0.0
  0
LINE
  5
490
330
1F
100
AcDbEntity
  8
0-0
  6
JWW_DASHED1
 62
   120
370
     5
100
AcDbLine
 10
469.1806135395647
 20
755.817971062942
 30
0.0
 11
588.7803921307981
 21
875.4177496541746
 31
0.0
  0
LINE
  5
491
330
1F
100
AcDbEntity
  8
0-0
  6
JWW_DASHED1
 62
   120
370
     5
100
AcDbLine
 10
469.1806135395749
 20
762.8890388748185
 30
0.0
 11
581.7093243189314
 21
875.4177496541746
 31
0.0
  0
LINE
  5
492
330
1F
100
AcDbEntity
  8
0-0
  6
JWW_DASHED1
 62
   120
370
     5
100
AcDbLine
 10
469.1806135395834
 20
769.9601066866937
 30
0.0
 11
574.6382565070647
 21
875.4177496541746
 31
0.0
  0
LINE
  5
493
330
1F
100
AcDbEntity
  8
0-0
  6
JWW_DASHED1
 62
   120
370
     5
100
AcDbLine
 10
469.1806135395783
 20
777.0311744985548
 30
0.0
 11
567.5671886951981
 21
875.4177496541746
 31
0.0
  0
LINE
  5
494
330
1F
100
AcDbEntity
  8
0-0
  6
JWW_DASHED1
 62
   120
370
     5
100
AcDbLine
 10
469.1806135395732
 20
784.1022423104164
 30
0.0
 11
560.4961208833314
 21
875.4177496541746
 31
0.0
  0
LINE
  5
495
330
1F
100
AcDbEntity
  8
0-0
  6
JWW_DASHED1
 62
   120
370
     5
100
AcDbLine
 10
469.1806135395817
 20
791.173310122292
 30
0.0
 11
553.4250530714647
 21
875.4177496541746
 31
0.0
  0
LINE
  5
496
330
1F
100
AcDbEntity
  8
0-0
  6
JWW_DASHED1
 62
   120
370
     5
100
AcDbLine
 10
469.1806135395766
 20
798.2443779341531
 30
0.0
 11
546.3539852595981
 21
875.4177496541746
 31
0.0
  0
LINE
  5
497
330
1F
100
AcDbEntity
  8
0-0
  6
JWW_DASHED1
 62
   120
370
     5
100
AcDbLine
 10
469.1806135395715
 20
805.3154457460147
 30
0.0
 11
539.2829174477314
 21
875.4177496541746
 31
0.0
  0
LINE
  5
498
330
1F
100
AcDbEntity
  8
0-0
  6
JWW_DASHED1
 62
   120
370
     5
100
AcDbLine
 10
469.1806135395766
 20
812.3865135578324
 30
0.0
 11
532.2118496359193
 21
875.4177496541746
 31
0.0
  0
LINE
  5
499
330
1F
100
AcDbEntity
  8
0-0
  6
JWW_DASHED1
 62
   120
370
     5
100
AcDbLine
 10
469.1806135395851
 20
819.4575813697079
 30
0.0
 11
525.1407818240526
 21
875.4177496541746
 31
0.0
  0
LINE
  5
49A
330
1F
100
AcDbEntity
  8
0-0
  6
JWW_DASHED1
 62
   120
370
     5
100
AcDbLine
 10
469.1806135395647
 20
826.5286491815538
 30
0.0
 11
518.069714012186
 21
875.4177496541746
 31
0.0
  0
LINE
  5
49B
330
1F
100
AcDbEntity
  8
0-0
  6
JWW_DASHED1
 62
   120
370
     5
100
AcDbLine
 10
469.1806135395749
 20
833.5997169934302
 30
0.0
 11
510.9986462003193
 21
875.4177496541746
 31
0.0
  0
LINE
  5
49C
330
1F
100
AcDbEntity
  8
0-0
  6
JWW_DASHED1
 62
   120
370
     5
100
AcDbLine
 10
469.1806135395851
 20
840.6707848053067
 30
0.0
 11
503.9275783884526
 21
875.4177496541746
 31
0.0
  0
LINE
  5
49D
330
1F
100
AcDbEntity
  8
0-0
  6
JWW_DASHED1
 62
   120
370
     5
100
AcDbLine
 10
469.1806135395783
 20
847.7418526171674
 30
0.0
 11
496.8565105765859
 21
875.4177496541746
 31
0.0
  0
LINE
  5
49E
330
1F
100
AcDbEntity
  8
0-0
  6
JWW_DASHED1
 62
   120
370
     5
100
AcDbLine
 10
469.1806135395732
 20
854.8129204290285
 30
0.0
 11
489.7854427647193
 21
875.4177496541746
 31
0.0
  0
LINE
  5
49F
330
1F
100
AcDbEntity
  8
0-0
  6
JWW_DASHED1
 62
   120
370
     5
100
AcDbLine
 10
469.1806135395817
 20
861.8839882409045
 30
0.0
 11
482.7143749528526
 21
875.4177496541746
 31
0.0
  0
LINE
  5
4A0
330
1F
100
AcDbEntity
  8
0-0
  6
JWW_DASHED1
 62
   120
370
     5
100
AcDbLine
 10
469.1806135395766
 20
868.9550560527653
 30
0.0
 11
475.6433071409859
 21
875.4177496541746
 31
0.0
  0
LINE
  5
4A1
330
1F
100
AcDbEntity
  8
0-0
  6
JWW_DASHED1
 62
   120
370
     5
100
AcDbLine
 10
129.1806135395772
 20
627.9500054189
 30
0.0
 11
376.6483577748526
 21
875.4177496541746
 31
0.0
  0
LINE
  5
4A2
330
1F
100
AcDbEntity
  8
0-0
  6
JWW_DASHED1
 62
   120
370
     5
100
AcDbLine
 10
129.1806135395857
 20
635.0210732307744
 30
0.0
 11
369.5772899629859
 21
875.4177496541746
 31
0.0
  0
LINE
  5
4A3
330
1F
100
AcDbEntity
  8
0-0
  6
JWW_DASHED1
 62
   120
370
     5
100
AcDbLine
 10
129.1806135395959
 20
642.0921410426508
 30
0.0
 11
362.5062221511192
 21
875.4177496541746
 31
0.0
  0
LINE
  5
4A4
330
1F
100
AcDbEntity
  8
0-0
  6
JWW_DASHED1
 62
   120
370
     5
100
AcDbLine
 10
129.1806135395755
 20
649.163208854498
 30
0.0
 11
355.4351543392526
 21
875.4177496541746
 31
0.0
  0
LINE
  5
4A5
330
1F
100
AcDbEntity
  8
0-0
  6
JWW_DASHED1
 62
   120
370
     5
100
AcDbLine
 10
129.180613539584
 20
656.2342766663727
 30
0.0
 11
348.3640865273859
 21
875.4177496541746
 31
0.0
  0
LINE
  5
4A6
330
1F
100
AcDbEntity
  8
0-0
  6
JWW_DASHED1
 62
   120
370
     5
100
AcDbLine
 10
129.1806135395942
 20
663.3053444782491
 30
0.0
 11
341.2930187155192
 21
875.4177496541746
 31
0.0
  0
LINE
  5
4A7
330
1F
100
AcDbEntity
  8
0-0
  6
JWW_DASHED1
 62
   120
370
     5
100
AcDbLine
 10
129.1806135395738
 20
670.3764122900966
 30
0.0
 11
334.2219509036526
 21
875.4177496541746
 31
0.0
  0
LINE
  5
4A8
330
1F
100
AcDbEntity
  8
0-0
  6
JWW_DASHED1
 62
   120
370
     5
100
AcDbLine
 10
129.1806135395823
 20
677.447480101971
 30
0.0
 11
327.1508830917859
 21
875.4177496541746
 31
0.0
  0
LINE
  5
4A9
330
1F
100
AcDbEntity
  8
0-0
  6
JWW_DASHED1
 62
   120
370
     5
100
AcDbLine
 10
129.1806135395925
 20
684.5185479138474
 30
0.0
 11
320.0798152799192
 21
875.4177496541746
 31
0.0
  0
LINE
  5
4AA
330
1F
100
AcDbEntity
  8
0-0
  6
JWW_DASHED1
 62
   120
370
     5
100
AcDbLine
 10
129.1806135395721
 20
691.5896157256941
 30
0.0
 11
313.0087474680525
 21
875.4177496541746
 31
0.0
  0
LINE
  5
4AB
330
1F
100
AcDbEntity
  8
0-0
  6
JWW_DASHED1
 62
   120
370
     5
100
AcDbLine
 10
129.1806135395806
 20
698.6606835375693
 30
0.0
 11
305.9376796561859
 21
875.4177496541746
 31
0.0
  0
LINE
  5
4AC
330
1F
100
AcDbEntity
  8
0-0
  6
JWW_DASHED1
 62
   120
370
     5
100
AcDbLine
 10
129.1806135395874
 20
705.7317513494163
 30
0.0
 11
298.8666118443465
 21
875.4177496541746
 31
0.0
  0
LINE
  5
4AD
330
1F
100
AcDbEntity
  8
0-0
  6
JWW_DASHED1
 62
   120
370
     5
100
AcDbLine
 10
129.1806135395806
 20
712.8028191612476
 30
0.0
 11
291.7955440325071
 21
875.4177496541746
 31
0.0
  0
LINE
  5
4AE
330
1F
100
AcDbEntity
  8
0-0
  6
JWW_DASHED1
 62
   120
370
     5
100
AcDbLine
 10
129.1806135395755
 20
719.8738869731101
 30
0.0
 11
284.7244762206404
 21
875.4177496541746
 31
0.0
  0
LINE
  5
4AF
330
1F
100
AcDbEntity
  8
0-0
  6
JWW_DASHED1
 62
   120
370
     5
100
AcDbLine
 10
129.180613539584
 20
726.9449547849853
 30
0.0
 11
277.6534084087738
 21
875.4177496541746
 31
0.0
  0
LINE
  5
4B0
330
1F
100
AcDbEntity
  8
0-0
  6
JWW_DASHED1
 62
   120
370
     5
100
AcDbLine
 10
129.1806135395942
 20
734.0160225968617
 30
0.0
 11
270.5823405969071
 21
875.4177496541746
 31
0.0
  0
LINE
  5
4B1
330
1F
100
AcDbEntity
  8
0-0
  6
JWW_DASHED1
 62
   120
370
     5
100
AcDbLine
 10
129.1806135395738
 20
741.0870904087084
 30
0.0
 11
263.5112727850404
 21
875.4177496541746
 31
0.0
  0
LINE
  5
4B2
330
1F
100
AcDbEntity
  8
0-0
  6
JWW_DASHED1
 62
   120
370
     5
100
AcDbLine
 10
129.1806135395823
 20
748.1581582205836
 30
0.0
 11
256.4402049731738
 21
875.4177496541746
 31
0.0
  0
LINE
  5
4B3
330
1F
100
AcDbEntity
  8
0-0
  6
JWW_DASHED1
 62
   120
370
     5
100
AcDbLine
 10
129.1806135395925
 20
755.22922603246
 30
0.0
 11
249.3691371613071
 21
875.4177496541746
 31
0.0
  0
LINE
  5
4B4
330
1F
100
AcDbEntity
  8
0-0
  6
JWW_DASHED1
 62
   120
370
     5
100
AcDbLine
 10
129.1806135395721
 20
762.3002938443062
 30
0.0
 11
242.2980693494404
 21
875.4177496541746
 31
0.0
  0
LINE
  5
4B5
330
1F
100
AcDbEntity
  8
0-0
  6
JWW_DASHED1
 62
   120
370
     5
100
AcDbLine
 10
129.1806135395806
 20
769.3713616561819
 30
0.0
 11
235.2270015375738
 21
875.4177496541746
 31
0.0
  0
LINE
  5
4B6
330
1F
100
AcDbEntity
  8
0-0
  6
JWW_DASHED1
 62
   120
370
     5
100
AcDbLine
 10
129.1806135395908
 20
776.4424294680583
 30
0.0
 11
228.1559337257071
 21
875.4177496541746
 31
0.0
  0
LINE
  5
4B7
330
1F
100
AcDbEntity
  8
0-0
  6
JWW_DASHED1
 62
   120
370
     5
100
AcDbLine
 10
129.1806135395703
 20
783.5134972799045
 30
0.0
 11
221.0848659138404
 21
875.4177496541746
 31
0.0
  0
LINE
  5
4B8
330
1F
100
AcDbEntity
  8
0-0
  6
JWW_DASHED1
 62
   120
370
     5
100
AcDbLine
 10
129.1806135395789
 20
790.5845650917802
 30
0.0
 11
214.0137981019737
 21
875.4177496541746
 31
0.0
  0
LINE
  5
4B9
330
1F
100
AcDbEntity
  8
0-0
  6
JWW_DASHED1
 62
   120
370
     5
100
AcDbLine
 10
129.1806135395891
 20
797.6556329036566
 30
0.0
 11
206.9427302901071
 21
875.4177496541746
 31
0.0
  0
LINE
  5
4BA
330
1F
100
AcDbEntity
  8
0-0
  6
JWW_DASHED1
 62
   120
370
     5
100
AcDbLine
 10
129.1806135395686
 20
804.7267007155028
 30
0.0
 11
199.8716624782404
 21
875.4177496541746
 31
0.0
  0
LINE
  5
4BB
330
1F
100
AcDbEntity
  8
0-0
  6
JWW_DASHED1
 62
   120
370
     5
100
AcDbLine
 10
129.1806135395772
 20
811.7977685273788
 30
0.0
 11
192.8005946663737
 21
875.4177496541746
 31
0.0
  0
LINE
  5
4BC
330
1F
100
AcDbEntity
  8
0-0
  6
JWW_DASHED1
 62
   120
370
     5
100
AcDbLine
 10
129.1806135395874
 20
818.8688363392549
 30
0.0
 11
185.7295268545071
 21
875.4177496541746
 31
0.0
  0
LINE
  5
4BD
330
1F
100
AcDbEntity
  8
0-0
  6
JWW_DASHED1
 62
   120
370
     5
100
AcDbLine
 10
129.1806135395806
 20
825.9399041511156
 30
0.0
 11
178.6584590426404
 21
875.4177496541746
 31
0.0
  0
LINE
  5
4BE
330
1F
100
AcDbEntity
  8
0-0
  6
JWW_DASHED1
 62
   120
370
     5
100
AcDbLine
 10
129.1806135395772
 20
833.0109719629772
 30
0.0
 11
171.5873912307737
 21
875.4177496541746
 31
0.0
  0
LINE
  5
4BF
330
1F
100
AcDbEntity
  8
0-0
  6
JWW_DASHED1
 62
   120
370
     5
100
AcDbLine
 10
129.1806135395857
 20
840.0820397748532
 30
0.0
 11
164.5163234189071
 21
875.4177496541746
 31
0.0
  0
LINE
  5
4C0
330
1F
100
AcDbEntity
  8
0-0
  6
JWW_DASHED1
 62
   120
370
     5
100
AcDbLine
 10
129.1806135395959
 20
847.1531075867301
 30
0.0
 11
157.4452556070404
 21
875.4177496541746
 31
0.0
  0
LINE
  5
4C1
330
1F
100
AcDbEntity
  8
0-0
  6
JWW_DASHED1
 62
   120
370
     5
100
AcDbLine
 10
129.1806135395738
 20
854.2241753985751
 30
0.0
 11
150.3741877951737
 21
875.4177496541746
 31
0.0
  0
LINE
  5
4C2
330
1F
100
AcDbEntity
  8
0-0
  6
JWW_DASHED1
 62
   120
370
     5
100
AcDbLine
 10
129.180613539584
 20
861.2952432104515
 30
0.0
 11
143.3031199833071
 21
875.4177496541746
 31
0.0
  0
LINE
  5
4C3
330
1F
100
AcDbEntity
  8
0-0
  6
Continuous
 62
    92
370
    13
100
AcDbLine
 10
-90.81938646041715
 20
-972.5822503458251
 30
0.0
 11
-90.81938646041715
 21
1010.417749654175
 31
0.0
  0
LINE
  5
4C4
330
1F
100
AcDbEntity
  8
0-0
  6
Continuous
 62
    92
370
    13
100
AcDbLine
 10
-680.8193864604194
 20
-972.5822503458251
 30
0.0
 11
-680.8193864604194
 21
1010.417749654175
 31
0.0
  0
LINE
  5
4C5
330
1F
100
AcDbEntity
  8
0-0
  6
Continuous
 62
    92
370
    13
100
AcDbLine
 10
719.1806135395829
 20
-972.5822503458251
 30
0.0
 11
719.1806135395829
 21
1010.417749654175
 31
0.0
  0
LINE
  5
4C6
330
1F
100
AcDbEntity
  8
0-0
  6
Continuous
 62
    92
370
    13
100
AcDbLine
 10
129.1806135395806
 20
-972.5822503458251
 30
0.0
 11
129.1806135395806
 21
1010.417749654175
 31
0.0
  0
LWPOLYLINE
  5
4C7
330
1F
100
AcDbEntity
  8
寸法
  6
Continuous
 62
     7
370
     9
100
AcDbPolyline
 90
        4
 70
     1
 43
3.0
 10
-2046.319386460418
 20
1054.417749654176
 42
0.4142135623731
 10
-2047.819386460417
 20
1055.917749654175
 42
0.4142135623731
 10
-2049.319386460417
 20
1054.417749654176
 42
0.4142135623731
 10
-2047.819386460417
 20
1052.917749654176
 42
0.4142135623731
  0
LINE
  5
4C8
330
1F
100
AcDbEntity
  8
寸法
  6
Continuous
 62
   120
370
     5
100
AcDbLine
 10
-2047.819386460417
 20
1054.417749654176
 30
0.0
 11
-1647.819386460418
 21
1054.417749654176
 31
0.0
  0
LINE
  5
4C9
330
1F
100
AcDbEntity
  8
寸法
  6
Continuous
 62
   120
370
     5
100
AcDbLine
 10
-2047.819386460417
 20
1054.417749654176
 30
0.0
 11
-2047.819386460417
 21
-992.582250345825
 31
0.0
  0
LINE
  5
4CA
330
1F
100
AcDbEntity
  8
寸法
  6
Continuous
 62
   120
370
     5
100
AcDbLine
 10
-2047.819386460417
 20
-992.582250345825
 30
0.0
 11
-1647.819386460418
 21
-992.582250345825
 31
0.0
  0
LINE
  5
4CB
330
1F
100
AcDbEntity
  8
寸法
  6
Continuous
 62
   120
370
     5
100
AcDbLine
 10
-1847.819386460417
 20
-972.5822503458244
 30
0.0
 11
-1647.819386460418
 21
-972.5822503458244
 31
0.0
  0
LWPOLYLINE
  5
4CC
330
1F
100
AcDbEntity
  8
寸法
  6
Continuous
 62
     7
370
     9
100
AcDbPolyline
 90
        4
 70
     1
 43
3.0
 10
-2046.319386460418
 20
-992.582250345825
 42
0.4142135623731
 10
-2047.819386460417
 20
-991.0822503458251
 42
0.4142135623731
 10
-2049.319386460417
 20
-992.582250345825
 42
0.4142135623731
 10
-2047.819386460417
 20
-994.0822503458248
 42
0.4142135623731
  0
LWPOLYLINE
  5
4CD
330
1F
100
AcDbEntity
  8
寸法
  6
Continuous
 62
     7
370
     9
100
AcDbPolyline
 90
        4
 70
     1
 43
3.0
 10
-1846.319386460417
 20
-972.5822503458244
 42
0.4142135623731
 10
-1847.819386460417
 20
-971.0822503458245
 42
0.4142135623731
 10
-1849.319386460417
 20
-972.5822503458244
 42
0.4142135623731
 10
-1847.819386460417
 20
-974.0822503458243
 42
0.4142135623731
  0
LWPOLYLINE
  5
4CE
330
1F
100
AcDbEntity
  8
寸法
  6
Continuous
 62
     7
370
     9
100
AcDbPolyline
 90
        4
 70
     1
 43
3.0
 10
-1846.319386460417
 20
1010.417749654175
 42
0.4142135623731
 10
-1847.819386460417
 20
1011.917749654174
 42
0.4142135623731
 10
-1849.319386460417
 20
1010.417749654175
 42
0.4142135623731
 10
-1847.819386460417
 20
1008.917749654175
 42
0.4142135623731
  0
LINE
  5
4CF
330
1F
100
AcDbEntity
  8
寸法
  6
Continuous
 62
   120
370
     5
100
AcDbLine
 10
-1847.819386460417
 20
1010.417749654175
 30
0.0
 11
-1847.819386460417
 21
-972.5822503458244
 31
0.0
  0
LINE
  5
4D0
330
1F
100
AcDbEntity
  8
寸法
  6
Continuous
 62
   120
370
     5
100
AcDbLine
 10
-1847.819386460417
 20
1010.417749654175
 30
0.0
 11
-1647.819386460418
 21
1010.417749654175
 31
0.0
  0
LINE
  5
4D1
330
1F
100
AcDbEntity
  8
寸法
  6
Continuous
 62
   120
370
     5
100
AcDbLine
 10
-1567.819386460417
 20
-1442.582250345825
 30
0.0
 11
-1567.819386460417
 21
-1042.582250345826
 31
0.0
  0
LINE
  5
4D2
330
1F
100
AcDbEntity
  8
寸法
  6
Continuous
 62
   120
370
     5
100
AcDbLine
 10
-1597.819386460417
 20
-1642.582250345826
 30
0.0
 11
-1597.819386460417
 21
-1042.582250345826
 31
0.0
  0
LINE
  5
4D3
330
1F
100
AcDbEntity
  8
寸法
  6
Continuous
 62
   120
370
     5
100
AcDbLine
 10
19.18061353958257
 20
-1242.582250345824
 30
0.0
 11
19.18061353958257
 21
-1042.582250345826
 31
0.0
  0
LINE
  5
4D4
330
1F
100
AcDbEntity
  8
寸法
  6
Continuous
 62
   120
370
     5
100
AcDbLine
 10
-790.8193864604175
 20
-1242.582250345824
 30
0.0
 11
-790.8193864604175
 21
-1042.582250345826
 31
0.0
  0
LINE
  5
4D5
330
1F
100
AcDbEntity
  8
寸法
  6
Continuous
 62
   120
370
     5
100
AcDbLine
 10
-790.8193864604175
 20
-1242.582250345824
 30
0.0
 11
829.1806135395825
 21
-1242.582250345824
 31
0.0
  0
LINE
  5
4D6
330
1F
100
AcDbEntity
  8
寸法
  6
Continuous
 62
   120
370
     5
100
AcDbLine
 10
-1567.819386460417
 20
-1442.582250345825
 30
0.0
 11
1606.180613539583
 21
-1442.582250345825
 31
0.0
  0
LINE
  5
4D7
330
1F
100
AcDbEntity
  8
寸法
  6
Continuous
 62
   120
370
     5
100
AcDbLine
 10
1606.180613539583
 20
-1442.582250345825
 30
0.0
 11
1606.180613539583
 21
-1042.582250345826
 31
0.0
  0
LINE
  5
4D8
330
1F
100
AcDbEntity
  8
寸法
  6
Continuous
 62
   120
370
     5
100
AcDbLine
 10
-1597.819386460417
 20
-1642.582250345826
 30
0.0
 11
1636.180613539583
 21
-1642.582250345825
 31
0.0
  0
LINE
  5
4D9
330
1F
100
AcDbEntity
  8
寸法
  6
Continuous
 62
   120
370
     5
100
AcDbLine
 10
1636.180613539583
 20
-1642.582250345825
 30
0.0
 11
1636.180613539583
 21
-1042.582250345826
 31
0.0
  0
LINE
  5
4DA
330
1F
100
AcDbEntity
  8
寸法
  6
Continuous
 62
   120
370
     5
100
AcDbLine
 10
829.1806135395825
 20
-1242.582250345824
 30
0.0
 11
829.1806135395825
 21
-1042.582250345826
 31
0.0
  0
LWPOLYLINE
  5
4DB
330
1F
100
AcDbEntity
  8
寸法
  6
Continuous
 62
     7
370
     9
100
AcDbPolyline
 90
        4
 70
     1
 43
3.0
 10
-1566.319386460418
 20
-1442.582250345825
 42
0.4142135623731
 10
-1567.819386460417
 20
-1441.082250345825
 42
0.4142135623731
 10
-1569.319386460417
 20
-1442.582250345825
 42
0.4142135623731
 10
-1567.819386460417
 20
-1444.082250345825
 42
0.4142135623731
  0
LWPOLYLINE
  5
4DC
330
1F
100
AcDbEntity
  8
寸法
  6
Continuous
 62
     7
370
     9
100
AcDbPolyline
 90
        4
 70
     1
 43
3.0
 10
-1596.319386460418
 20
-1642.582250345826
 42
0.4142135623731
 10
-1597.819386460417
 20
-1641.082250345826
 42
0.4142135623731
 10
-1599.319386460417
 20
-1642.582250345826
 42
0.4142135623731
 10
-1597.819386460417
 20
-1644.082250345826
 42
0.4142135623731
  0
LWPOLYLINE
  5
4DD
330
1F
100
AcDbEntity
  8
寸法
  6
Continuous
 62
     7
370
     9
100
AcDbPolyline
 90
        4
 70
     1
 43
3.0
 10
20.68061353958257
 20
-1242.582250345824
 42
0.4142135623731
 10
19.18061353958257
 20
-1241.082250345824
 42
0.4142135623731
 10
17.68061353958257
 20
-1242.582250345824
 42
0.4142135623731
 10
19.18061353958257
 20
-1244.082250345824
 42
0.4142135623731
  0
LWPOLYLINE
  5
4DE
330
1F
100
AcDbEntity
  8
寸法
  6
Continuous
 62
     7
370
     9
100
AcDbPolyline
 90
        4
 70
     1
 43
3.0
 10
-789.3193864604175
 20
-1242.582250345824
 42
0.4142135623731
 10
-790.8193864604175
 20
-1241.082250345824
 42
0.4142135623731
 10
-792.3193864604175
 20
-1242.582250345824
 42
0.4142135623731
 10
-790.8193864604175
 20
-1244.082250345824
 42
0.4142135623731
  0
LWPOLYLINE
  5
4DF
330
1F
100
AcDbEntity
  8
寸法
  6
Continuous
 62
     7
370
     9
100
AcDbPolyline
 90
        4
 70
     1
 43
3.0
 10
1607.680613539583
 20
-1442.582250345825
 42
0.4142135623731
 10
1606.180613539583
 20
-1441.082250345825
 42
0.4142135623731
 10
1604.680613539583
 20
-1442.582250345825
 42
0.4142135623731
 10
1606.180613539583
 20
-1444.082250345825
 42
0.4142135623731
  0
LWPOLYLINE
  5
4E0
330
1F
100
AcDbEntity
  8
寸法
  6
Continuous
 62
     7
370
     9
100
AcDbPolyline
 90
        4
 70
     1
 43
3.0
 10
1637.680613539583
 20
-1642.582250345825
 42
0.4142135623731
 10
1636.180613539583
 20
-1641.082250345825
 42
0.4142135623731
 10
1634.680613539583
 20
-1642.582250345825
 42
0.4142135623731
 10
1636.180613539583
 20
-1644.082250345825
 42
0.4142135623731
  0
LWPOLYLINE
  5
4E1
330
1F
100
AcDbEntity
  8
寸法
  6
Continuous
 62
     7
370
     9
100
AcDbPolyline
 90
        4
 70
     1
 43
3.0
 10
830.6806135395825
 20
-1242.582250345824
 42
0.4142135623731
 10
829.1806135395825
 20
-1241.082250345824
 42
0.4142135623731
 10
827.6806135395825
 20
-1242.582250345824
 42
0.4142135623731
 10
829.1806135395825
 20
-1244.082250345824
 42
0.4142135623731
  0
MTEXT
  5
4E2
330
1F
100
AcDbEntity
  8
寸法
  6
Continuous
 62
     7
370
    70
100
AcDbMText
 10
-2062.819386460418
 20
-184.2572503458247
 30
0.0
 40
57.14999999999999
 41
412.5
 46
0.0
 71
     7
 72
     1
  1
{\fＭＳ ゴシック|b0|i0|c128|p49;枠外＝2,047}
 11
6.123031769111886E-17
 21
1.0
 31
0.0
 73
     1
 44
1.0
  0
MTEXT
  5
4E3
330
1F
100
AcDbEntity
  8
寸法
  6
Continuous
 62
     7
370
    70
100
AcDbMText
 10
-1862.819386460417
 20
-190.2572503458244
 30
0.0
 40
57.14999999999999
 41
412.5
 46
0.0
 71
     7
 72
     1
  1
{\fＭＳ ゴシック|b0|i0|c128|p49;ＤＨ＝1,983}
 11
6.123031769111886E-17
 21
1.0
 31
0.0
 73
     1
 44
1.0
  0
MTEXT
  5
4E4
330
1F
100
AcDbEntity
  8
寸法
  6
Continuous
 62
     7
370
   211
100
AcDbMText
 10
-554.5693864604176
 20
-1236.507250345824
 30
0.0
 40
57.15000000000001
 41
337.5000000000001
 46
0.0
 71
     7
 72
     1
  1
{\fＭＳ ゴシック|b0|i0|c128|p49;ＤＷ＝810}
 73
     1
 44
1.0
  0
MTEXT
  5
4E5
330
1F
100
AcDbEntity
  8
寸法
  6
Continuous
 62
     7
370
   211
100
AcDbMText
 10
255.4306135395825
 20
-1236.507250345824
 30
0.0
 40
57.14999999999998
 41
337.4999999999999
 46
0.0
 71
     7
 72
     1
  1
{\fＭＳ ゴシック|b0|i0|c128|p49;ＤＷ＝810}
 73
     1
 44
1.0
  0
MTEXT
  5
4E6
330
1F
100
AcDbEntity
  8
寸法
  6
Continuous
 62
     7
370
   211
100
AcDbMText
 10
-187.0693864604183
 20
-1436.507250345825
 30
0.0
 40
57.14999999999999
 41
412.5
 46
0.0
 71
     7
 72
     1
  1
{\fＭＳ ゴシック|b0|i0|c128|p49;枠内＝3,174}
 73
     1
 44
1.0
  0
MTEXT
  5
4E7
330
1F
100
AcDbEntity
  8
寸法
  6
Continuous
 62
     7
370
   211
100
AcDbMText
 10
-187.0693864604183
 20
-1636.507250345825
 30
0.0
 40
57.14999999999999
 41
412.5
 46
0.0
 71
     7
 72
     1
  1
{\fＭＳ ゴシック|b0|i0|c128|p49;枠外＝3,234}
 73
     1
 44
1.0
  0
ENDSEC
  0
SECTION
  2
OBJECTS
  0
DICTIONARY
  5
C
330
0
100
AcDbDictionary
281
     1
  3
ACAD_GROUP
350
D
  3
ACAD_LAYOUT
350
1A
  3
ACAD_MATERIAL
350
3B
  3
ACAD_MLEADERSTYLE
350
4E9
  3
ACAD_MLINESTYLE
350
17
  3
ACAD_PLOTSETTINGS
350
19
  3
ACAD_PLOTSTYLENAME
350
E
  3
ACAD_TABLESTYLE
350
4E8
  3
ACAD_VISUALSTYLE
350
2A
  0
DICTIONARY
  5
D
102
{ACAD_REACTORS
330
C
102
}
330
C
100
AcDbDictionary
281
     1
  0
DICTIONARY
  5
1A
102
{ACAD_REACTORS
330
C
102
}
330
C
100
AcDbDictionary
281
     1
  3
Layout1
350
1E
  3
Layout2
350
26
  3
Model
350
22
  0
DICTIONARY
  5
3B
102
{ACAD_REACTORS
330
C
102
}
330
C
100
AcDbDictionary
281
     1
  3
ByBlock
350
3D
  3
ByLayer
350
3C
  3
Global
350
3E
  0
DICTIONARY
  5
4E9
102
{ACAD_REACTORS
330
C
102
}
330
C
100
AcDbDictionary
281
     1
  0
DICTIONARY
  5
17
102
{ACAD_REACTORS
330
C
102
}
330
C
100
AcDbDictionary
281
     1
  3
Standard
350
18
  0
DICTIONARY
  5
19
102
{ACAD_REACTORS
330
C
102
}
330
C
100
AcDbDictionary
281
     1
  0
ACDBDICTIONARYWDFLT
  5
E
102
{ACAD_REACTORS
330
C
102
}
330
C
100
AcDbDictionary
281
     1
  3
Normal
350
F
100
AcDbDictionaryWithDefault
340
F
  0
DICTIONARY
  5
4E8
102
{ACAD_REACTORS
330
C
102
}
330
C
100
AcDbDictionary
281
     1
  0
DICTIONARY
  5
2A
102
{ACAD_REACTORS
330
C
102
}
330
C
100
AcDbDictionary
281
     1
  3
2dWireframe
350
2F
  3
3D Hidden
350
31
  3
3dWireframe
350
30
  3
Basic
350
32
  3
Brighten
350
36
  3
ColorChange
350
3A
  3
Conceptual
350
34
  3
Dim
350
35
  3
Facepattern
350
39
  3
Flat
350
2B
  3
FlatWithEdges
350
2C
  3
Gouraud
350
2D
  3
GouraudWithEdges
350
2E
  3
Linepattern
350
38
  3
Realistic
350
33
  3
Thicken
350
37
  0
LAYOUT
  5
1E
102
{ACAD_REACTORS
330
1A
102
}
330
1A
100
AcDbPlotSettings
  1

  2
none_device
  4

  6

 40
0.0
 41
0.0
 42
0.0
 43
0.0
 44
0.0
 45
0.0
 46
0.0
 47
0.0
 48
0.0
 49
0.0
140
0.0
141
0.0
142
1.0
143
1.0
 70
   688
 72
     0
 73
     0
 74
     5
  7

 75
    16
 76
     0
 77
     5
 78
   300
147
1.0
148
0.0
149
0.0
100
AcDbLayout
  1
Layout1
 70
     1
 71
     1
 10
0.0
 20
0.0
 11
420.0
 21
297.0
 12
0.0
 22
0.0
 32
0.0
 14
1.000000000000000E+20
 24
1.000000000000000E+20
 34
1.000000000000000E+20
 15
-1.000000000000000E+20
 25
-1.000000000000000E+20
 35
-1.000000000000000E+20
146
0.0
 13
0.0
 23
0.0
 33
0.0
 16
1.0
 26
0.0
 36
0.0
 17
0.0
 27
1.0
 37
0.0
 76
     0
330
1B
  0
LAYOUT
  5
26
102
{ACAD_REACTORS
330
1A
102
}
330
1A
100
AcDbPlotSettings
  1

  2
none_device
  4

  6

 40
0.0
 41
0.0
 42
0.0
 43
0.0
 44
0.0
 45
0.0
 46
0.0
 47
0.0
 48
0.0
 49
0.0
140
0.0
141
0.0
142
1.0
143
1.0
 70
   688
 72
     0
 73
     0
 74
     5
  7

 75
    16
 76
     0
 77
     5
 78
   300
147
1.0
148
0.0
149
0.0
100
AcDbLayout
  1
Layout2
 70
     1
 71
     2
 10
0.0
 20
0.0
 11
0.0
 21
0.0
 12
0.0
 22
0.0
 32
0.0
 14
0.0
 24
0.0
 34
0.0
 15
0.0
 25
0.0
 35
0.0
146
0.0
 13
0.0
 23
0.0
 33
0.0
 16
1.0
 26
0.0
 36
0.0
 17
0.0
 27
1.0
 37
0.0
 76
     0
330
23
  0
LAYOUT
  5
22
102
{ACAD_REACTORS
330
1A
102
}
330
1A
100
AcDbPlotSettings
  1

  2
none_device
  4

  6

 40
0.0
 41
0.0
 42
0.0
 43
0.0
 44
0.0
 45
0.0
 46
0.0
 47
0.0
 48
0.0
 49
0.0
140
0.0
141
0.0
142
1.0
143
1.0
 70
  1712
 72
     0
 73
     0
 74
     0
  7

 75
     0
 76
     0
 77
     5
 78
   300
147
1.0
148
0.0
149
0.0
100
AcDbLayout
  1
Model
 70
     1
 71
     0
 10
-4455.0
 20
-3150.0
 11
4455.0
 21
3150.0
 12
0.0
 22
0.0
 32
0.0
 14
-4455.0
 24
-3150.0
 34
0.0
 15
4455.0
 25
3150.0
 35
0.0
146
0.0
 13
0.0
 23
0.0
 33
0.0
 16
1.0
 26
0.0
 36
0.0
 17
0.0
 27
1.0
 37
0.0
 76
     0
330
1F
331
29
  0
MATERIAL
  5
3D
102
{ACAD_REACTORS
330
3B
102
}
330
3B
100
AcDbMaterial
  1
ByBlock
 72
     1
 94
      127
  0
MATERIAL
  5
3C
102
{ACAD_REACTORS
330
3B
102
}
330
3B
100
AcDbMaterial
  1
ByLayer
 72
     1
 94
      127
  0
MATERIAL
  5
3E
102
{ACAD_REACTORS
330
3B
102
}
330
3B
100
AcDbMaterial
  1
Global
 72
     1
 94
      127
  0
MLINESTYLE
  5
18
102
{ACAD_REACTORS
330
17
102
}
330
17
100
AcDbMlineStyle
  2
Standard
 70
     0
  3

 62
   256
 51
90.0
 52
90.0
 71
     2
 49
0.5
 62
   256
  6
BYLAYER
 49
-0.5
 62
   256
  6
BYLAYER
  0
ACDBPLACEHOLDER
  5
F
102
{ACAD_REACTORS
330
E
102
}
330
E
  0
VISUALSTYLE
  5
2F
102
{ACAD_REACTORS
330
2A
102
}
330
2A
100
AcDbVisualStyle
  2
2dWireframe
 70
     4
177
     2
291
     0
 71
     0
176
     1
 72
     2
176
     1
 73
     0
176
     1
 90
        0
176
     1
 40
-0.6
176
     1
 41
-30.0
176
     1
 62
     5
 63
     7
421
 16777215
176
     1
 74
     1
176
     1
 91
        4
176
     1
 64
     7
176
     1
 65
   257
176
     1
 75
     1
176
     1
175
     1
176
     1
 42
1.0
176
     1
 92
        0
176
     1
 66
   257
176
     1
 43
1.0
176
     1
 76
     1
176
     1
 77
     6
176
     1
 78
     2
176
     1
 67
     7
176
     1
 79
     5
176
     1
170
     0
176
     1
171
     0
176
     1
290
     0
176
     1
 93
        1
176
     1
 44
0.0
176
     1
173
     0
176
     1
  0
VISUALSTYLE
  5
31
102
{ACAD_REACTORS
330
2A
102
}
330
2A
100
AcDbVisualStyle
  2
3D Hidden
 70
     6
177
     2
291
     0
 71
     1
176
     1
 72
     2
176
     1
 73
     2
176
     1
 90
        0
176
     1
 40
-0.6
176
     1
 41
-30.0
176
     1
 62
     5
 63
     7
421
 16777215
176
     1
 74
     2
176
     1
 91
        2
176
     1
 64
     7
176
     1
 65
   257
176
     1
 75
     2
176
     1
175
     1
176
     1
 42
40.0
176
     1
 92
        0
176
     1
 66
   257
176
     1
 43
1.0
176
     1
 76
     1
176
     1
 77
     6
176
     1
 78
     2
176
     1
 67
     7
176
     1
 79
     3
176
     1
170
     0
176
     1
171
     0
176
     1
290
     0
176
     1
 93
        1
176
     1
 44
0.0
176
     1
173
     0
176
     1
  0
VISUALSTYLE
  5
30
102
{ACAD_REACTORS
330
2A
102
}
330
2A
100
AcDbVisualStyle
  2
3dWireframe
 70
     5
177
     2
291
     0
 71
     0
176
     1
 72
     2
176
     1
 73
     0
176
     1
 90
        0
176
     1
 40
-0.6
176
     1
 41
-30.0
176
     1
 62
     5
 63
     7
421
 16777215
176
     1
 74
     1
176
     1
 91
        4
176
     1
 64
     7
176
     1
 65
   257
176
     1
 75
     1
176
     1
175
     1
176
     1
 42
1.0
176
     1
 92
        0
176
     1
 66
   257
176
     1
 43
1.0
176
     1
 76
     1
176
     1
 77
     6
176
     1
 78
     2
176
     1
 67
     7
176
     1
 79
     5
176
     1
170
     0
176
     1
171
     0
176
     1
290
     0
176
     1
 93
        1
176
     1
 44
0.0
176
     1
173
     0
176
     1
  0
VISUALSTYLE
  5
32
102
{ACAD_REACTORS
330
2A
102
}
330
2A
100
AcDbVisualStyle
  2
Basic
 70
     7
177
     2
291
     1
 71
     1
176
     1
 72
     0
176
     1
 73
     1
176
     1
 90
        0
176
     1
 40
-0.6
176
     1
 41
-30.0
176
     1
 62
     5
 63
     7
421
 16777215
176
     1
 74
     0
176
     1
 91
        4
176
     1
 64
     7
176
     1
 65
   257
176
     1
 75
     1
176
     1
175
     1
176
     1
 42
1.0
176
     1
 92
        8
176
     1
 66
     7
176
     1
 43
1.0
176
     1
 76
     1
176
     1
 77
     6
176
     1
 78
     2
176
     1
 67
     7
176
     1
 79
     5
176
     1
170
     0
176
     1
171
     0
176
     1
290
     0
176
     1
 93
        1
176
     1
 44
0.0
176
     1
173
     0
176
     1
  0
VISUALSTYLE
  5
36
102
{ACAD_REACTORS
330
2A
102
}
330
2A
100
AcDbVisualStyle
  2
Brighten
 70
    12
177
     2
291
     1
 71
     2
176
     1
 72
     2
176
     1
 73
     0
176
     1
 90
        0
176
     1
 40
-0.6
176
     1
 41
-30.0
176
     1
 62
     5
 63
     7
421
 16777215
176
     1
 74
     1
176
     1
 91
        4
176
     1
 64
     7
176
     1
 65
   257
176
     1
 75
     1
176
     1
175
     1
176
     1
 42
1.0
176
     1
 92
        8
176
     1
 66
     7
176
     1
 43
1.0
176
     1
 76
     1
176
     1
 77
     6
176
     1
 78
     2
176
     1
 67
     7
176
     1
 79
     5
176
     1
170
     0
176
     1
171
     0
176
     1
290
     0
176
     1
 93
        1
176
     1
 44
50.0
176
     1
173
     0
176
     1
  0
VISUALSTYLE
  5
3A
102
{ACAD_REACTORS
330
2A
102
}
330
2A
100
AcDbVisualStyle
  2
ColorChange
 70
    16
177
     2
291
     1
 71
     2
176
     1
 72
     2
176
     1
 73
     3
176
     1
 90
        0
176
     1
 40
-0.6
176
     1
 41
-30.0
176
     1
 62
     5
 63
     8
421
  8421504
176
     1
 74
     1
176
     1
 91
        4
176
     1
 64
     7
176
     1
 65
   257
176
     1
 75
     1
176
     1
175
     1
176
     1
 42
1.0
176
     1
 92
        8
176
     1
 66
     8
424
  8421504
176
     1
 43
1.0
176
     1
 76
     1
176
     1
 77
     6
176
     1
 78
     2
176
     1
 67
     7
176
     1
 79
     5
176
     1
170
     0
176
     1
171
     0
176
     1
290
     0
176
     1
 93
        1
176
     1
 44
0.0
176
     1
173
     0
176
     1
  0
VISUALSTYLE
  5
34
102
{ACAD_REACTORS
330
2A
102
}
330
2A
100
AcDbVisualStyle
  2
Conceptual
 70
     9
177
     2
291
     0
 71
     3
176
     1
 72
     2
176
     1
 73
     0
176
     1
 90
        0
176
     1
 40
-0.6
176
     1
 41
-30.0
176
     1
 62
     5
 63
     7
421
 16777215
176
     1
 74
     2
176
     1
 91
        2
176
     1
 64
     7
176
     1
 65
   257
176
     1
 75
     1
176
     1
175
     1
176
     1
 42
40.0
176
     1
 92
        8
176
     1
 66
     7
176
     1
 43
1.0
176
     1
 76
     1
176
     1
 77
     6
176
     1
 78
     2
176
     1
 67
     7
176
     1
 79
     3
176
     1
170
     0
176
     1
171
     0
176
     1
290
     0
176
     1
 93
        1
176
     1
 44
0.0
176
     1
173
     0
176
     1
  0
VISUALSTYLE
  5
35
102
{ACAD_REACTORS
330
2A
102
}
330
2A
100
AcDbVisualStyle
  2
Dim
 70
    11
177
     2
291
     1
 71
     2
176
     1
 72
     2
176
     1
 73
     0
176
     1
 90
        0
176
     1
 40
-0.6
176
     1
 41
-30.0
176
     1
 62
     5
 63
     7
421
 16777215
176
     1
 74
     1
176
     1
 91
        4
176
     1
 64
     7
176
     1
 65
   257
176
     1
 75
     1
176
     1
175
     1
176
     1
 42
1.0
176
     1
 92
        8
176
     1
 66
     7
176
     1
 43
1.0
176
     1
 76
     1
176
     1
 77
     6
176
     1
 78
     2
176
     1
 67
     7
176
     1
 79
     5
176
     1
170
     0
176
     1
171
     0
176
     1
290
     0
176
     1
 93
        1
176
     1
 44
-50.0
176
     1
173
     0
176
     1
  0
VISUALSTYLE
  5
39
102
{ACAD_REACTORS
330
2A
102
}
330
2A
100
AcDbVisualStyle
  2
Facepattern
 70
    15
177
     2
291
     1
 71
     2
176
     1
 72
     2
176
     1
 73
     0
176
     1
 90
        0
176
     1
 40
-0.6
176
     1
 41
-30.0
176
     1
 62
     5
 63
     7
421
 16777215
176
     1
 74
     1
176
     1
 91
        4
176
     1
 64
     7
176
     1
 65
   257
176
     1
 75
     1
176
     1
175
     1
176
     1
 42
1.0
176
     1
 92
        8
176
     1
 66
     7
176
     1
 43
1.0
176
     1
 76
     1
176
     1
 77
     6
176
     1
 78
     2
176
     1
 67
     7
176
     1
 79
     5
176
     1
170
     0
176
     1
171
     0
176
     1
290
     0
176
     1
 93
        1
176
     1
 44
0.0
176
     1
173
     0
176
     1
  0
VISUALSTYLE
  5
2B
102
{ACAD_REACTORS
330
2A
102
}
330
2A
100
AcDbVisualStyle
  2
Flat
 70
     0
177
     2
291
     1
 71
     2
176
     1
 72
     1
176
     1
 73
     1
176
     1
 90
        2
176
     1
 40
-0.6
176
     1
 41
30.0
176
     1
 62
     5
 63
     7
421
 16777215
176
     1
 74
     0
176
     1
 91
        4
176
     1
 64
     7
176
     1
 65
   257
176
     1
 75
     1
176
     1
175
     1
176
     1
 42
1.0
176
     1
 92
        8
176
     1
 66
     7
176
     1
 43
1.0
176
     1
 76
     1
176
     1
 77
     6
176
     1
 78
     2
176
     1
 67
     7
176
     1
 79
     5
176
     1
170
     0
176
     1
171
     0
176
     1
290
     0
176
     1
 93
       13
176
     1
 44
0.0
176
     1
173
     0
176
     1
  0
VISUALSTYLE
  5
2C
102
{ACAD_REACTORS
330
2A
102
}
330
2A
100
AcDbVisualStyle
  2
FlatWithEdges
 70
     1
177
     2
291
     1
 71
     2
176
     1
 72
     1
176
     1
 73
     1
176
     1
 90
        2
176
     1
 40
-0.6
176
     1
 41
30.0
176
     1
 62
     5
 63
     7
421
 16777215
176
     1
 74
     1
176
     1
 91
        4
176
     1
 64
     7
176
     1
 65
   257
176
     1
 75
     1
176
     1
175
     1
176
     1
 42
1.0
176
     1
 92
        0
176
     1
 66
   257
176
     1
 43
1.0
176
     1
 76
     1
176
     1
 77
     6
176
     1
 78
     2
176
     1
 67
     7
176
     1
 79
     5
176
     1
170
     0
176
     1
171
     0
176
     1
290
     0
176
     1
 93
       13
176
     1
 44
0.0
176
     1
173
     0
176
     1
  0
VISUALSTYLE
  5
2D
102
{ACAD_REACTORS
330
2A
102
}
330
2A
100
AcDbVisualStyle
  2
Gouraud
 70
     2
177
     2
291
     1
 71
     2
176
     1
 72
     2
176
     1
 73
     1
176
     1
 90
        2
176
     1
 40
-0.6
176
     1
 41
30.0
176
     1
 62
     5
 63
     7
421
 16777215
176
     1
 74
     0
176
     1
 91
        4
176
     1
 64
     7
176
     1
 65
   257
176
     1
 75
     1
176
     1
175
     1
176
     1
 42
1.0
176
     1
 92
        0
176
     1
 66
     7
176
     1
 43
1.0
176
     1
 76
     1
176
     1
 77
     6
176
     1
 78
     2
176
     1
 67
     7
176
     1
 79
     5
176
     1
170
     0
176
     1
171
     0
176
     1
290
     0
176
     1
 93
       13
176
     1
 44
0.0
176
     1
173
     0
176
     1
  0
VISUALSTYLE
  5
2E
102
{ACAD_REACTORS
330
2A
102
}
330
2A
100
AcDbVisualStyle
  2
GouraudWithEdges
 70
     3
177
     2
291
     1
 71
     2
176
     1
 72
     2
176
     1
 73
     1
176
     1
 90
        2
176
     1
 40
-0.6
176
     1
 41
30.0
176
     1
 62
     5
 63
     7
421
 16777215
176
     1
 74
     1
176
     1
 91
        4
176
     1
 64
     7
176
     1
 65
   257
176
     1
 75
     1
176
     1
175
     1
176
     1
 42
1.0
176
     1
 92
        0
176
     1
 66
   257
176
     1
 43
1.0
176
     1
 76
     1
176
     1
 77
     6
176
     1
 78
     2
176
     1
 67
     7
176
     1
 79
     5
176
     1
170
     0
176
     1
171
     0
176
     1
290
     0
176
     1
 93
       13
176
     1
 44
0.0
176
     1
173
     0
176
     1
  0
VISUALSTYLE
  5
38
102
{ACAD_REACTORS
330
2A
102
}
330
2A
100
AcDbVisualStyle
  2
Linepattern
 70
    14
177
     2
291
     1
 71
     2
176
     1
 72
     2
176
     1
 73
     0
176
     1
 90
        0
176
     1
 40
-0.6
176
     1
 41
-30.0
176
     1
 62
     5
 63
     7
421
 16777215
176
     1
 74
     1
176
     1
 91
        4
176
     1
 64
     7
176
     1
 65
   257
176
     1
 75
     7
176
     1
175
     7
176
     1
 42
1.0
176
     1
 92
        8
176
     1
 66
     7
176
     1
 43
1.0
176
     1
 76
     1
176
     1
 77
     6
176
     1
 78
     2
176
     1
 67
     7
176
     1
 79
     5
176
     1
170
     0
176
     1
171
     0
176
     1
290
     0
176
     1
 93
        1
176
     1
 44
0.0
176
     1
173
     0
176
     1
  0
VISUALSTYLE
  5
33
102
{ACAD_REACTORS
330
2A
102
}
330
2A
100
AcDbVisualStyle
  2
Realistic
 70
     8
177
     2
291
     0
 71
     2
176
     1
 72
     2
176
     1
 73
     0
176
     1
 90
        0
176
     1
 40
-0.6
176
     1
 41
-30.0
176
     1
 62
     5
 63
     7
421
 16777215
176
     1
 74
     1
176
     1
 91
        0
176
     1
 64
     7
176
     1
 65
   257
176
     1
 75
     1
176
     1
175
     1
176
     1
 42
1.0
176
     1
 92
        8
176
     1
 66
     8
424
  7895160
176
     1
 43
1.0
176
     1
 76
     1
176
     1
 77
     6
176
     1
 78
     2
176
     1
 67
     7
176
     1
 79
     5
176
     1
170
     0
176
     1
171
     0
176
     1
290
     0
176
     1
 93
       13
176
     1
 44
0.0
176
     1
173
     0
176
     1
  0
VISUALSTYLE
  5
37
102
{ACAD_REACTORS
330
2A
102
}
330
2A
100
AcDbVisualStyle
  2
Thicken
 70
    13
177
     2
291
     1
 71
     2
176
     1
 72
     2
176
     1
 73
     0
176
     1
 90
        0
176
     1
 40
-0.6
176
     1
 41
-30.0
176
     1
 62
     5
 63
     7
421
 16777215
176
     1
 74
     1
176
     1
 91
        4
176
     1
 64
     7
176
     1
 65
   257
176
     1
 75
     1
176
     1
175
     1
176
     1
 42
1.0
176
     1
 92
       12
176
     1
 66
     7
176
     1
 43
1.0
176
     1
 76
     1
176
     1
 77
     6
176
     1
 78
     2
176
     1
 67
     7
176
     1
 79
     5
176
     1
170
     0
176
     1
171
     0
176
     1
290
     0
176
     1
 93
        1
176
     1
 44
0.0
176
     1
173
     0
176
     1
  0
ENDSEC
  0
EOF
