  0
SECTION
  2
HEADER
  9
$ACADVER
  1
AC1024
  9
$ACADMAINTVER
 70
     6
  9
$DWGCODEPAGE
  3
ANSI_932
  9
$INSBASE
 10
0.0
 20
0.0
 30
0.0
  9
$EXTMIN
 10
-4455.0
 20
-3150.0
 30
0.0
  9
$EXTMAX
 10
4455.0
 20
3150.0
 30
0.0
  9
$LIMMIN
 10
-4455.0
 20
-3150.0
  9
$LIMMAX
 10
4455.0
 20
3150.0
  9
$ORTHOMODE
 70
     0
  9
$REGENMODE
 70
     1
  9
$FILLMODE
 70
     1
  9
$QTEXTMODE
 70
     0
  9
$MIRRTEXT
 70
     1
  9
$LTSCALE
 40
30.0
  9
$ATTMODE
 70
     1
  9
$TEXTSIZE
 40
2.5
  9
$TRACEWID
 40
1.0
  9
$TEXTSTYLE
  7
Standard
  9
$CLAYER
  8
0
  9
$CELTYPE
  6
ByLayer
  9
$CECOLOR
 62
   256
  9
$CELTSCALE
 40
1.0
  9
$DISPSILH
 70
     0
  9
$DIMSCALE
 40
1.0
  9
$DIMASZ
 40
2.5
  9
$DIMEXO
 40
0.625
  9
$DIMDLI
 40
3.75
  9
$DIMRND
 40
0.0
  9
$DIMDLE
 40
0.0
  9
$DIMEXE
 40
1.25
  9
$DIMTP
 40
0.0
  9
$DIMTM
 40
0.0
  9
$DIMTXT
 40
2.5
  9
$DIMCEN
 40
2.5
  9
$DIMTSZ
 40
0.0
  9
$DIMTOL
 70
     0
  9
$DIMLIM
 70
     0
  9
$DIMTIH
 70
     0
  9
$DIMTOH
 70
     0
  9
$DIMSE1
 70
     0
  9
$DIMSE2
 70
     0
  9
$DIMTAD
 70
     1
  9
$DIMZIN
 70
     8
  9
$DIMBLK
  1

  9
$DIMASO
 70
     1
  9
$DIMSHO
 70
     1
  9
$DIMPOST
  1

  9
$DIMAPOST
  1

  9
$DIMALT
 70
     0
  9
$DIMALTD
 70
     3
  9
$DIMALTF
 40
0.03937007874016
  9
$DIMLFAC
 40
1.0
  9
$DIMTOFL
 70
     1
  9
$DIMTVP
 40
0.0
  9
$DIMTIX
 70
     0
  9
$DIMSOXD
 70
     0
  9
$DIMSAH
 70
     0
  9
$DIMBLK1
  1

  9
$DIMBLK2
  1

  9
$DIMSTYLE
  2
ISO-25
  9
$DIMCLRD
 70
     0
  9
$DIMCLRE
 70
     0
  9
$DIMCLRT
 70
     0
  9
$DIMTFAC
 40
1.0
  9
$DIMGAP
 40
0.625
  9
$DIMJUST
 70
     0
  9
$DIMSD1
 70
     0
  9
$DIMSD2
 70
     0
  9
$DIMTOLJ
 70
     0
  9
$DIMTZIN
 70
     8
  9
$DIMALTZ
 70
     0
  9
$DIMALTTZ
 70
     0
  9
$DIMUPT
 70
     0
  9
$DIMDEC
 70
     2
  9
$DIMTDEC
 70
     2
  9
$DIMALTU
 70
     2
  9
$DIMALTTD
 70
     3
  9
$DIMTXSTY
  7
Standard
  9
$DIMAUNIT
 70
     0
  9
$DIMADEC
 70
     0
  9
$DIMALTRND
 40
0.0
  9
$DIMAZIN
 70
     0
  9
$DIMDSEP
 70
    44
  9
$DIMATFIT
 70
     3
  9
$DIMFRAC
 70
     0
  9
$DIMLDRBLK
  1

  9
$DIMLUNIT
 70
     2
  9
$DIMLWD
 70
    -2
  9
$DIMLWE
 70
    -2
  9
$DIMTMOVE
 70
     0
  9
$DIMFXL
 40
1.0
  9
$DIMFXLON
 70
     0
  9
$DIMJOGANG
 40
0.7853981633974483
  9
$DIMTFILL
 70
     0
  9
$DIMTFILLCLR
 70
     0
  9
$DIMARCSYM
 70
     0
  9
$DIMLTYPE
  6

  9
$DIMLTEX1
  6

  9
$DIMLTEX2
  6

  9
$DIMTXTDIRECTION
 70
     0
  9
$LUNITS
 70
     2
  9
$LUPREC
 70
     4
  9
$SKETCHINC
 40
1.0
  9
$FILLETRAD
 40
10.0
  9
$AUNITS
 70
     0
  9
$AUPREC
 70
     0
  9
$MENU
  1
.
  9
$ELEVATION
 40
0.0
  9
$PELEVATION
 40
0.0
  9
$THICKNESS
 40
0.0
  9
$LIMCHECK
 70
     0
  9
$CHAMFERA
 40
10.0
  9
$CHAMFERB
 40
10.0
  9
$CHAMFERC
 40
20.0
  9
$CHAMFERD
 40
0.0
  9
$SKPOLY
 70
     0
  9
$TDCREATE
 40
2457953.399812986
  9
$TDUCREATE
 40
2457953.024812986
  9
$TDUPDATE
 40
2457953.399812998
  9
$TDUUPDATE
 40
2457953.024812998
  9
$TDINDWG
 40
0.0000000116
  9
$TDUSRTIMER
 40
0.0000000116
  9
$USRTIMER
 70
     1
  9
$ANGBASE
 50
0.0
  9
$ANGDIR
 70
     0
  9
$PDMODE
 70
     0
  9
$PDSIZE
 40
0.0
  9
$PLINEWID
 40
0.0
  9
$SPLFRAME
 70
     0
  9
$SPLINETYPE
 70
     6
  9
$SPLINESEGS
 70
     8
  9
$HANDSEED
  5
3DF
  9
$SURFTAB1
 70
     6
  9
$SURFTAB2
 70
     6
  9
$SURFTYPE
 70
     6
  9
$SURFU
 70
     6
  9
$SURFV
 70
     6
  9
$UCSBASE
  2

  9
$UCSNAME
  2

  9
$UCSORG
 10
0.0
 20
0.0
 30
0.0
  9
$UCSXDIR
 10
1.0
 20
0.0
 30
0.0
  9
$UCSYDIR
 10
0.0
 20
1.0
 30
0.0
  9
$UCSORTHOREF
  2

  9
$UCSORTHOVIEW
 70
     0
  9
$UCSORGTOP
 10
0.0
 20
0.0
 30
0.0
  9
$UCSORGBOTTOM
 10
0.0
 20
0.0
 30
0.0
  9
$UCSORGLEFT
 10
0.0
 20
0.0
 30
0.0
  9
$UCSORGRIGHT
 10
0.0
 20
0.0
 30
0.0
  9
$UCSORGFRONT
 10
0.0
 20
0.0
 30
0.0
  9
$UCSORGBACK
 10
0.0
 20
0.0
 30
0.0
  9
$PUCSBASE
  2

  9
$PUCSNAME
  2

  9
$PUCSORG
 10
0.0
 20
0.0
 30
0.0
  9
$PUCSXDIR
 10
1.0
 20
0.0
 30
0.0
  9
$PUCSYDIR
 10
0.0
 20
1.0
 30
0.0
  9
$PUCSORTHOREF
  2

  9
$PUCSORTHOVIEW
 70
     0
  9
$PUCSORGTOP
 10
0.0
 20
0.0
 30
0.0
  9
$PUCSORGBOTTOM
 10
0.0
 20
0.0
 30
0.0
  9
$PUCSORGLEFT
 10
0.0
 20
0.0
 30
0.0
  9
$PUCSORGRIGHT
 10
0.0
 20
0.0
 30
0.0
  9
$PUCSORGFRONT
 10
0.0
 20
0.0
 30
0.0
  9
$PUCSORGBACK
 10
0.0
 20
0.0
 30
0.0
  9
$USERI1
 70
     0
  9
$USERI2
 70
     0
  9
$USERI3
 70
     0
  9
$USERI4
 70
     0
  9
$USERI5
 70
     0
  9
$USERR1
 40
0.0
  9
$USERR2
 40
0.0
  9
$USERR3
 40
0.0
  9
$USERR4
 40
0.0
  9
$USERR5
 40
0.0
  9
$WORLDVIEW
 70
     1
  9
$SHADEDGE
 70
     3
  9
$SHADEDIF
 70
    70
  9
$TILEMODE
 70
     1
  9
$MAXACTVP
 70
    64
  9
$PINSBASE
 10
0.0
 20
0.0
 30
0.0
  9
$PLIMCHECK
 70
     0
  9
$PEXTMIN
 10
1.000000000000000E+20
 20
1.000000000000000E+20
 30
1.000000000000000E+20
  9
$PEXTMAX
 10
-1.000000000000000E+20
 20
-1.000000000000000E+20
 30
-1.000000000000000E+20
  9
$PLIMMIN
 10
0.0
 20
0.0
  9
$PLIMMAX
 10
420.0
 20
297.0
  9
$UNITMODE
 70
     0
  9
$VISRETAIN
 70
     1
  9
$PLINEGEN
 70
     0
  9
$PSLTSCALE
 70
     1
  9
$TREEDEPTH
 70
  3020
  9
$CMLSTYLE
  2
Standard
  9
$CMLJUST
 70
     0
  9
$CMLSCALE
 40
20.0
  9
$PROXYGRAPHICS
 70
     1
  9
$MEASUREMENT
 70
     1
  9
$CELWEIGHT
370
    -1
  9
$ENDCAPS
280
     0
  9
$JOINSTYLE
280
     0
  9
$LWDISPLAY
290
     0
  9
$INSUNITS
 70
     4
  9
$HYPERLINKBASE
  1

  9
$STYLESHEET
  1

  9
$XEDIT
290
     1
  9
$CEPSNTYPE
380
     0
  9
$PSTYLEMODE
290
     1
  9
$FINGERPRINTGUID
  2
{0927440C-431B-440A-80DA-1DB50D4C8259}
  9
$VERSIONGUID
  2
{FAEB1C32-E019-11D5-929B-00C0DF256EC4}
  9
$EXTNAMES
290
     1
  9
$PSVPSCALE
 40
0.0
  9
$OLESTARTUP
290
     0
  9
$SORTENTS
280
   127
  9
$INDEXCTL
280
     0
  9
$HIDETEXT
280
     1
  9
$XCLIPFRAME
280
     2
  9
$HALOGAP
280
     0
  9
$OBSCOLOR
 70
   257
  9
$OBSLTYPE
280
     0
  9
$INTERSECTIONDISPLAY
280
     0
  9
$INTERSECTIONCOLOR
 70
   257
  9
$DIMASSOC
280
     2
  9
$PROJECTNAME
  1

  9
$CAMERADISPLAY
290
     0
  9
$LENSLENGTH
 40
50.0
  9
$CAMERAHEIGHT
 40
0.0
  9
$STEPSPERSEC
 40
2.0
  9
$STEPSIZE
 40
6.0
  9
$3DDWFPREC
 40
2.0
  9
$PSOLWIDTH
 40
5.0
  9
$PSOLHEIGHT
 40
80.0
  9
$LOFTANG1
 40
1.570796326794897
  9
$LOFTANG2
 40
1.570796326794897
  9
$LOFTMAG1
 40
0.0
  9
$LOFTMAG2
 40
0.0
  9
$LOFTPARAM
 70
     7
  9
$LOFTNORMALS
280
     1
  9
$LATITUDE
 40
37.795
  9
$LONGITUDE
 40
-122.394
  9
$NORTHDIRECTION
 40
0.0
  9
$TIMEZONE
 70
 -8000
  9
$LIGHTGLYPHDISPLAY
280
     1
  9
$TILEMODELIGHTSYNCH
280
     1
  9
$SOLIDHIST
280
     1
  9
$SHOWHIST
280
     1
  9
$DWFFRAME
280
     2
  9
$DGNFRAME
280
     2
  9
$REALWORLDSCALE
290
     1
  9
$INTERFERECOLOR
 62
   256
  9
$CSHADOW
280
     0
  9
$SHADOWPLANELOCATION
 40
0.0
  0
ENDSEC
  0
SECTION
  2
CLASSES
  0
CLASS
  1
ACDBDICTIONARYWDFLT
  2
AcDbDictionaryWithDefault
  3
ObjectDBX Classes
 90
        0
 91
        4
280
     0
281
     0
  0
CLASS
  1
VISUALSTYLE
  2
AcDbVisualStyle
  3
ObjectDBX Classes
 90
     4095
 91
        4
280
     0
281
     0
  0
CLASS
  1
MATERIAL
  2
AcDbMaterial
  3
ObjectDBX Classes
 90
     1153
 91
        4
280
     0
281
     0
  0
ENDSEC
  0
SECTION
  2
TABLES
  0
TABLE
  2
VPORT
  5
8
330
0
100
AcDbSymbolTable
 70
     1
  0
VPORT
  5
29
330
8
100
AcDbSymbolTableRecord
100
AcDbViewportTableRecord
  2
*Active
 70
     0
 10
0.0
 20
0.0
 11
1.0
 21
1.0
 12
0.0
 22
0.0
 13
0.0
 23
0.0
 14
10.0
 24
10.0
 15
10.0
 25
10.0
 16
0.0
 26
0.0
 36
1.0
 17
0.0
 27
0.0
 37
0.0
 40
6930.000000000001
 41
1.414285714285714
 42
50.0
 43
0.0
 44
0.0
 50
0.0
 51
0.0
 71
     0
 72
 10000
 73
     1
 74
     3
 75
     0
 76
     0
 77
     0
 78
     0
281
     0
 65
     1
110
0.0
120
0.0
130
0.0
111
1.0
121
0.0
131
0.0
112
0.0
122
1.0
132
0.0
 79
     0
146
0.0
 60
     3
 61
     5
292
     1
282
     1
141
0.0
142
0.0
 63
   250
  0
ENDTAB
  0
TABLE
  2
LTYPE
  5
5
330
0
100
AcDbSymbolTable
 70
     2
  0
LTYPE
  5
14
330
5
100
AcDbSymbolTableRecord
100
AcDbLinetypeTableRecord
  2
ByBlock
 70
     0
  3

 72
    65
 73
     0
 40
0.0
  0
LTYPE
  5
15
330
5
100
AcDbSymbolTableRecord
100
AcDbLinetypeTableRecord
  2
ByLayer
 70
     0
  3

 72
    65
 73
     0
 40
0.0
  0
LTYPE
  5
16
330
5
100
AcDbSymbolTableRecord
100
AcDbLinetypeTableRecord
  2
Continuous
 70
     0
  3
Solid line
 72
    65
 73
     0
 40
0.0
  0
LTYPE
  5
3F
330
5
100
AcDbSymbolTableRecord
100
AcDbLinetypeTableRecord
  2
JWW_DASHED1
 70
     0
  3
-  --  --  --  --  --  --  --  -
 72
    65
 73
     2
 40
1.693333333333333
 49
0.8466666666666667
 74
     0
 49
-0.8466666666666667
 74
     0
  0
ENDTAB
  0
TABLE
  2
LAYER
  5
2
330
0
100
AcDbSymbolTable
 70
     3
  0
LAYER
  5
10
330
2
100
AcDbSymbolTableRecord
100
AcDbLayerTableRecord
  2
0
 70
     0
 62
     7
  6
Continuous
370
    -3
390
F
347
3E
  0
LAYER
  5
40
330
2
100
AcDbSymbolTableRecord
100
AcDbLayerTableRecord
  2
寸法
 70
     0
 62
     7
  6
Continuous
370
    -3
390
F
347
3E
  0
LAYER
  5
41
330
2
100
AcDbSymbolTableRecord
100
AcDbLayerTableRecord
  2
0-0
 70
     0
 62
     7
  6
Continuous
370
    -3
390
F
347
3E
  0
ENDTAB
  0
TABLE
  2
STYLE
  5
3
330
0
100
AcDbSymbolTable
 70
     1
  0
STYLE
  5
11
330
3
100
AcDbSymbolTableRecord
100
AcDbTextStyleTableRecord
  2
Standard
 70
     0
 40
0.0
 41
1.0
 50
0.0
 71
     0
 42
2.5
  3
txt
  4

  0
ENDTAB
  0
TABLE
  2
VIEW
  5
6
330
0
100
AcDbSymbolTable
 70
     0
  0
ENDTAB
  0
TABLE
  2
UCS
  5
7
330
0
100
AcDbSymbolTable
 70
     0
  0
ENDTAB
  0
TABLE
  2
APPID
  5
9
330
0
100
AcDbSymbolTable
 70
     1
  0
APPID
  5
12
330
9
100
AcDbSymbolTableRecord
100
AcDbRegAppTableRecord
  2
ACAD
 70
     0
  0
ENDTAB
  0
TABLE
  2
DIMSTYLE
  5
A
330
0
100
AcDbSymbolTable
 70
     1
100
AcDbDimStyleTable
  0
DIMSTYLE
105
27
330
A
100
AcDbSymbolTableRecord
100
AcDbDimStyleTableRecord
  2
ISO-25
 70
     0
 41
2.5
 42
0.625
 43
3.75
 44
1.25
 73
     0
 74
     0
 77
     1
 78
     8
140
2.5
141
2.5
143
0.03937007874016
147
0.625
171
     3
172
     1
178
     0
271
     2
272
     2
274
     3
278
    44
283
     0
284
     8
340
11
  0
ENDTAB
  0
TABLE
  2
BLOCK_RECORD
  5
1
330
0
100
AcDbSymbolTable
 70
     1
  0
BLOCK_RECORD
  5
1F
330
1
100
AcDbSymbolTableRecord
100
AcDbBlockTableRecord
  2
*Model_Space
340
22
 70
     0
280
     1
281
     0
  0
BLOCK_RECORD
  5
1B
330
1
100
AcDbSymbolTableRecord
100
AcDbBlockTableRecord
  2
*Paper_Space
340
1E
 70
     0
280
     1
281
     0
  0
BLOCK_RECORD
  5
23
330
1
100
AcDbSymbolTableRecord
100
AcDbBlockTableRecord
  2
*Paper_Space0
340
26
 70
     0
280
     1
281
     0
  0
ENDTAB
  0
ENDSEC
  0
SECTION
  2
BLOCKS
  0
BLOCK
  5
20
330
1F
100
AcDbEntity
  8
0
100
AcDbBlockBegin
  2
*Model_Space
 70
     0
 10
0.0
 20
0.0
 30
0.0
  3
*Model_Space
  1

  0
ENDBLK
  5
21
330
1F
100
AcDbEntity
  8
0
100
AcDbBlockEnd
  0
BLOCK
  5
1C
330
1B
100
AcDbEntity
 67
     1
  8
0
100
AcDbBlockBegin
  2
*Paper_Space
 70
     0
 10
0.0
 20
0.0
 30
0.0
  3
*Paper_Space
  1

  0
ENDBLK
  5
1D
330
1B
100
AcDbEntity
 67
     1
  8
0
100
AcDbBlockEnd
  0
BLOCK
  5
24
330
23
100
AcDbEntity
  8
0
100
AcDbBlockBegin
  2
*Paper_Space0
 70
     0
 10
0.0
 20
0.0
 30
0.0
  3
*Paper_Space0
  1

  0
ENDBLK
  5
25
330
23
100
AcDbEntity
  8
0
100
AcDbBlockEnd
  0
ENDSEC
  0
SECTION
  2
ENTITIES
  0
LWPOLYLINE
  5
42
330
1F
100
AcDbEntity
  8
寸法
  6
Continuous
 62
     7
370
     9
100
AcDbPolyline
 90
        4
 70
     1
 43
3.0
 10
-1582.376771555931
 20
1193.804721030041
 42
0.4142135623731
 10
-1583.876771555931
 20
1195.304721030041
 42
0.4142135623731
 10
-1585.376771555931
 20
1193.804721030041
 42
0.4142135623731
 10
-1583.876771555931
 20
1192.304721030041
 42
0.4142135623731
  0
LINE
  5
43
330
1F
100
AcDbEntity
  8
寸法
  6
Continuous
 62
   120
370
     5
100
AcDbLine
 10
-1583.876771555931
 20
1193.804721030041
 30
0.0
 11
-1183.876771555931
 21
1193.804721030041
 31
0.0
  0
LINE
  5
44
330
1F
100
AcDbEntity
  8
寸法
  6
Continuous
 62
   120
370
     5
100
AcDbLine
 10
-1583.876771555931
 20
1193.804721030041
 30
0.0
 11
-1583.876771555931
 21
-853.1952789699596
 31
0.0
  0
LINE
  5
45
330
1F
100
AcDbEntity
  8
寸法
  6
Continuous
 62
   120
370
     5
100
AcDbLine
 10
-1583.876771555931
 20
-853.1952789699596
 30
0.0
 11
-1183.876771555931
 21
-853.1952789699596
 31
0.0
  0
LINE
  5
46
330
1F
100
AcDbEntity
  8
寸法
  6
Continuous
 62
   120
370
     5
100
AcDbLine
 10
-1383.87677155593
 20
-833.1952789699591
 30
0.0
 11
-1183.876771555931
 21
-833.1952789699591
 31
0.0
  0
LWPOLYLINE
  5
47
330
1F
100
AcDbEntity
  8
寸法
  6
Continuous
 62
     7
370
     9
100
AcDbPolyline
 90
        4
 70
     1
 43
3.0
 10
-1582.376771555931
 20
-853.1952789699596
 42
0.4142135623731
 10
-1583.876771555931
 20
-851.6952789699596
 42
0.4142135623731
 10
-1585.376771555931
 20
-853.1952789699596
 42
0.4142135623731
 10
-1583.876771555931
 20
-854.6952789699596
 42
0.4142135623731
  0
LWPOLYLINE
  5
48
330
1F
100
AcDbEntity
  8
寸法
  6
Continuous
 62
     7
370
     9
100
AcDbPolyline
 90
        4
 70
     1
 43
3.0
 10
-1382.37677155593
 20
-833.1952789699591
 42
0.4142135623731
 10
-1383.87677155593
 20
-831.6952789699591
 42
0.4142135623731
 10
-1385.37677155593
 20
-833.1952789699591
 42
0.4142135623731
 10
-1383.87677155593
 20
-834.6952789699591
 42
0.4142135623731
  0
LWPOLYLINE
  5
49
330
1F
100
AcDbEntity
  8
寸法
  6
Continuous
 62
     7
370
     9
100
AcDbPolyline
 90
        4
 70
     1
 43
3.0
 10
-1382.37677155593
 20
1149.80472103004
 42
0.4142135623731
 10
-1383.87677155593
 20
1151.30472103004
 42
0.4142135623731
 10
-1385.37677155593
 20
1149.80472103004
 42
0.4142135623731
 10
-1383.87677155593
 20
1148.30472103004
 42
0.4142135623731
  0
LINE
  5
4A
330
1F
100
AcDbEntity
  8
寸法
  6
Continuous
 62
   120
370
     5
100
AcDbLine
 10
-1383.87677155593
 20
1149.80472103004
 30
0.0
 11
-1383.87677155593
 21
-833.1952789699591
 31
0.0
  0
LINE
  5
4B
330
1F
100
AcDbEntity
  8
寸法
  6
Continuous
 62
   120
370
     5
100
AcDbLine
 10
-1383.87677155593
 20
1149.80472103004
 30
0.0
 11
-1183.876771555931
 21
1149.80472103004
 31
0.0
  0
LINE
  5
4C
330
1F
100
AcDbEntity
  8
寸法
  6
Continuous
 62
   120
370
     5
100
AcDbLine
 10
-1103.876771555929
 20
-1303.19527896996
 30
0.0
 11
-1103.876771555929
 21
-903.1952789699602
 31
0.0
  0
LINE
  5
4D
330
1F
100
AcDbEntity
  8
寸法
  6
Continuous
 62
   120
370
     5
100
AcDbLine
 10
-1133.876771555929
 20
-1503.19527896996
 30
0.0
 11
-1133.876771555929
 21
-903.1952789699602
 31
0.0
  0
LINE
  5
4E
330
1F
100
AcDbEntity
  8
寸法
  6
Continuous
 62
   120
370
     5
100
AcDbLine
 10
-1103.876771555929
 20
-1303.19527896996
 30
0.0
 11
1260.12322844407
 21
-1303.19527896996
 31
0.0
  0
LINE
  5
4F
330
1F
100
AcDbEntity
  8
寸法
  6
Continuous
 62
   120
370
     5
100
AcDbLine
 10
1260.12322844407
 20
-1303.19527896996
 30
0.0
 11
1260.12322844407
 21
-903.1952789699602
 31
0.0
  0
LINE
  5
50
330
1F
100
AcDbEntity
  8
寸法
  6
Continuous
 62
   120
370
     5
100
AcDbLine
 10
-1133.876771555929
 20
-1503.19527896996
 30
0.0
 11
1290.12322844407
 21
-1503.195278969959
 31
0.0
  0
LINE
  5
51
330
1F
100
AcDbEntity
  8
寸法
  6
Continuous
 62
   120
370
     5
100
AcDbLine
 10
1290.12322844407
 20
-1503.195278969959
 30
0.0
 11
1290.12322844407
 21
-903.1952789699602
 31
0.0
  0
LINE
  5
52
330
1F
100
AcDbEntity
  8
寸法
  6
Continuous
 62
   120
370
     5
100
AcDbLine
 10
453.1232284440704
 20
-1103.195278969959
 30
0.0
 11
453.1232284440704
 21
-903.1952789699602
 31
0.0
  0
LINE
  5
53
330
1F
100
AcDbEntity
  8
寸法
  6
Continuous
 62
   120
370
     5
100
AcDbLine
 10
1263.12322844407
 20
-1103.195278969959
 30
0.0
 11
1263.12322844407
 21
-903.1952789699602
 31
0.0
  0
LINE
  5
54
330
1F
100
AcDbEntity
  8
寸法
  6
Continuous
 62
   120
370
     5
100
AcDbLine
 10
1263.12322844407
 20
-1103.195278969959
 30
0.0
 11
453.1232284440704
 21
-1103.195278969959
 31
0.0
  0
LWPOLYLINE
  5
55
330
1F
100
AcDbEntity
  8
寸法
  6
Continuous
 62
     7
370
     9
100
AcDbPolyline
 90
        4
 70
     1
 43
3.0
 10
-1102.376771555929
 20
-1303.19527896996
 42
0.4142135623731
 10
-1103.876771555929
 20
-1301.69527896996
 42
0.4142135623731
 10
-1105.376771555929
 20
-1303.19527896996
 42
0.4142135623731
 10
-1103.876771555929
 20
-1304.69527896996
 42
0.4142135623731
  0
LWPOLYLINE
  5
56
330
1F
100
AcDbEntity
  8
寸法
  6
Continuous
 62
     7
370
     9
100
AcDbPolyline
 90
        4
 70
     1
 43
3.0
 10
-1132.376771555929
 20
-1503.19527896996
 42
0.4142135623731
 10
-1133.876771555929
 20
-1501.69527896996
 42
0.4142135623731
 10
-1135.376771555929
 20
-1503.19527896996
 42
0.4142135623731
 10
-1133.876771555929
 20
-1504.69527896996
 42
0.4142135623731
  0
LWPOLYLINE
  5
57
330
1F
100
AcDbEntity
  8
寸法
  6
Continuous
 62
     7
370
     9
100
AcDbPolyline
 90
        4
 70
     1
 43
3.0
 10
1261.62322844407
 20
-1303.19527896996
 42
0.4142135623731
 10
1260.12322844407
 20
-1301.69527896996
 42
0.4142135623731
 10
1258.62322844407
 20
-1303.19527896996
 42
0.4142135623731
 10
1260.12322844407
 20
-1304.69527896996
 42
0.4142135623731
  0
LWPOLYLINE
  5
58
330
1F
100
AcDbEntity
  8
寸法
  6
Continuous
 62
     7
370
     9
100
AcDbPolyline
 90
        4
 70
     1
 43
3.0
 10
1291.62322844407
 20
-1503.195278969959
 42
0.4142135623731
 10
1290.12322844407
 20
-1501.695278969959
 42
0.4142135623731
 10
1288.62322844407
 20
-1503.195278969959
 42
0.4142135623731
 10
1290.12322844407
 20
-1504.695278969959
 42
0.4142135623731
  0
LWPOLYLINE
  5
59
330
1F
100
AcDbEntity
  8
寸法
  6
Continuous
 62
     7
370
     9
100
AcDbPolyline
 90
        4
 70
     1
 43
3.0
 10
454.6232284440704
 20
-1103.195278969959
 42
0.4142135623731
 10
453.1232284440704
 20
-1101.695278969959
 42
0.4142135623731
 10
451.6232284440703
 20
-1103.195278969959
 42
0.4142135623731
 10
453.1232284440704
 20
-1104.695278969959
 42
0.4142135623731
  0
LWPOLYLINE
  5
5A
330
1F
100
AcDbEntity
  8
寸法
  6
Continuous
 62
     7
370
     9
100
AcDbPolyline
 90
        4
 70
     1
 43
3.0
 10
1264.62322844407
 20
-1103.195278969959
 42
0.4142135623731
 10
1263.12322844407
 20
-1101.695278969959
 42
0.4142135623731
 10
1261.62322844407
 20
-1103.195278969959
 42
0.4142135623731
 10
1263.12322844407
 20
-1104.695278969959
 42
0.4142135623731
  0
MTEXT
  5
5B
330
1F
100
AcDbEntity
  8
寸法
  6
Continuous
 62
     7
370
    70
100
AcDbMText
 10
-1598.876771555931
 20
-44.87027896995942
 30
0.0
 40
57.14999999999999
 41
412.5
 46
0.0
 71
     7
 72
     1
  1
{\fＭＳ ゴシック|b0|i0|c128|p49;枠外＝2,047}
 11
6.123031769111886E-17
 21
1.0
 31
0.0
 73
     1
 44
1.0
  0
MTEXT
  5
5C
330
1F
100
AcDbEntity
  8
寸法
  6
Continuous
 62
     7
370
    70
100
AcDbMText
 10
-1398.87677155593
 20
-50.87027896995908
 30
0.0
 40
57.14999999999999
 41
412.5
 46
0.0
 71
     7
 72
     1
  1
{\fＭＳ ゴシック|b0|i0|c128|p49;ＤＨ＝1,983}
 11
6.123031769111886E-17
 21
1.0
 31
0.0
 73
     1
 44
1.0
  0
MTEXT
  5
5D
330
1F
100
AcDbEntity
  8
寸法
  6
Continuous
 62
     7
370
   211
100
AcDbMText
 10
689.3732284440703
 20
-1097.120278969959
 30
0.0
 40
57.15000000000002
 41
337.5000000000001
 46
0.0
 71
     7
 72
     1
  1
{\fＭＳ ゴシック|b0|i0|c128|p49;ＤＷ＝810}
 73
     1
 44
1.0
  0
MTEXT
  5
5E
330
1F
100
AcDbEntity
  8
寸法
  6
Continuous
 62
     7
370
   211
100
AcDbMText
 10
-128.1267715559297
 20
-1297.12027896996
 30
0.0
 40
57.14999999999999
 41
412.5
 46
0.0
 71
     7
 72
     1
  1
{\fＭＳ ゴシック|b0|i0|c128|p49;枠内＝2,364}
 73
     1
 44
1.0
  0
MTEXT
  5
5F
330
1F
100
AcDbEntity
  8
寸法
  6
Continuous
 62
     7
370
   211
100
AcDbMText
 10
-128.1267715559297
 20
-1497.12027896996
 30
0.0
 40
57.14999999999999
 41
412.5
 46
0.0
 71
     7
 72
     1
  1
{\fＭＳ ゴシック|b0|i0|c128|p49;枠外＝2,424}
 73
     1
 44
1.0
  0
LINE
  5
60
330
1F
100
AcDbEntity
  8
0-0
  6
Continuous
 62
    92
370
    13
100
AcDbLine
 10
-1103.876771555929
 20
-853.1952789699596
 30
0.0
 11
-1103.876771555929
 21
1193.804721030041
 31
0.0
  0
LINE
  5
61
330
1F
100
AcDbEntity
  8
0-0
  6
Continuous
 62
    92
370
    13
100
AcDbLine
 10
-1133.876771555929
 20
1193.804721030041
 30
0.0
 11
1290.12322844407
 21
1193.804721030041
 31
0.0
  0
LINE
  5
62
330
1F
100
AcDbEntity
  8
0-0
  6
Continuous
 62
    92
370
    13
100
AcDbLine
 10
-1103.876771555929
 20
1157.804721030039
 30
0.0
 11
1260.12322844407
 21
1157.804721030039
 31
0.0
  0
LINE
  5
63
330
1F
100
AcDbEntity
  8
0-0
  6
Continuous
 62
    92
370
    13
100
AcDbLine
 10
1260.12322844407
 20
-853.1952789699596
 30
0.0
 11
1260.12322844407
 21
1193.804721030041
 31
0.0
  0
LINE
  5
64
330
1F
100
AcDbEntity
  8
0-0
  6
Continuous
 62
    92
370
    13
100
AcDbLine
 10
1290.12322844407
 20
-853.1952789699596
 30
0.0
 11
1290.12322844407
 21
1193.804721030041
 31
0.0
  0
LINE
  5
65
330
1F
100
AcDbEntity
  8
0-0
  6
Continuous
 62
    92
370
    13
100
AcDbLine
 10
-1133.876771555929
 20
-853.1952789699596
 30
0.0
 11
-1133.876771555929
 21
1193.804721030041
 31
0.0
  0
LINE
  5
66
330
1F
100
AcDbEntity
  8
0-0
  6
Continuous
 62
    92
370
    13
100
AcDbLine
 10
1290.12322844407
 20
-853.1952789699596
 30
0.0
 11
-1133.876771555929
 21
-853.1952789699596
 31
0.0
  0
LINE
  5
67
330
1F
100
AcDbEntity
  8
0-0
  6
Continuous
 62
    92
370
    13
100
AcDbLine
 10
1260.12322844407
 20
-838.1952789699596
 30
0.0
 11
-1103.876771555929
 21
-838.1952789699596
 31
0.0
  0
ARC
  5
68
330
1F
100
AcDbEntity
  8
0-0
  6
Continuous
 62
    92
370
    13
100
AcDbCircle
 10
-1075.376771555931
 20
183.8047210300411
 30
0.0
 40
1.5
100
AcDbArc
 50
90.0
 51
180.0
  0
LINE
  5
69
330
1F
100
AcDbEntity
  8
0-0
  6
Continuous
 62
    92
370
    13
100
AcDbLine
 10
-1036.376771555931
 20
185.3047210300406
 30
0.0
 11
-1075.376771555931
 21
185.3047210300406
 31
0.0
  0
ARC
  5
6A
330
1F
100
AcDbEntity
  8
0-0
  6
Continuous
 62
    92
370
    13
100
AcDbCircle
 10
-1036.376771555931
 20
183.8047210300411
 30
0.0
 40
1.5
100
AcDbArc
 50
0.0
 51
90.00000000000001
  0
LINE
  5
6B
330
1F
100
AcDbEntity
  8
0-0
  6
Continuous
 62
    92
370
    13
100
AcDbLine
 10
-1034.876771555934
 20
64.80472103004104
 30
0.0
 11
-1034.876771555934
 21
183.8047210300411
 31
0.0
  0
ARC
  5
6C
330
1F
100
AcDbEntity
  8
0-0
  6
Continuous
 62
    92
370
    13
100
AcDbCircle
 10
-1036.376771555931
 20
64.80472103004104
 30
0.0
 40
1.5
100
AcDbArc
 50
270.0
 51
0.0
  0
LINE
  5
6D
330
1F
100
AcDbEntity
  8
0-0
  6
Continuous
 62
    92
370
    13
100
AcDbLine
 10
-1075.376771555931
 20
63.30472103003899
 30
0.0
 11
-1036.376771555931
 21
63.30472103003899
 31
0.0
  0
LINE
  5
6E
330
1F
100
AcDbEntity
  8
0-0
  6
Continuous
 62
    92
370
    13
100
AcDbLine
 10
-1076.87677155593
 20
64.80472103004104
 30
0.0
 11
-1076.87677155593
 21
183.8047210300411
 31
0.0
  0
ARC
  5
6F
330
1F
100
AcDbEntity
  8
0-0
  6
Continuous
 62
    92
370
    13
100
AcDbCircle
 10
-1075.376771555931
 20
64.80472103004104
 30
0.0
 40
1.5
100
AcDbArc
 50
180.0
 51
270.0
  0
ARC
  5
70
330
1F
100
AcDbEntity
  8
0-0
  6
Continuous
 62
     7
370
     9
100
AcDbCircle
 10
-1055.876771555932
 20
94.70472103004113
 30
0.0
 40
15.0
100
AcDbArc
 50
180.0
 51
0.0
  0
ARC
  5
71
330
1F
100
AcDbEntity
  8
0-0
  6
Continuous
 62
     7
370
     9
100
AcDbCircle
 10
-1055.876771555932
 20
153.904721030041
 30
0.0
 40
15.0
100
AcDbArc
 50
0.0
 51
180.0
  0
LINE
  5
72
330
1F
100
AcDbEntity
  8
0-0
  6
Continuous
 62
     7
370
     9
100
AcDbLine
 10
-1040.876771555932
 20
94.70472103004113
 30
0.0
 11
-1040.876771555932
 21
153.904721030041
 31
0.0
  0
LINE
  5
73
330
1F
100
AcDbEntity
  8
0-0
  6
Continuous
 62
     7
370
     9
100
AcDbLine
 10
-1070.876771555932
 20
153.904721030041
 30
0.0
 11
-1070.876771555932
 21
94.70472103004113
 31
0.0
  0
ARC
  5
74
330
1F
100
AcDbEntity
  8
0-0
  6
Continuous
 62
    92
370
    13
100
AcDbCircle
 10
-295.376771555931
 20
183.8047210300411
 30
0.0
 40
1.5
100
AcDbArc
 50
90.0
 51
180.0
  0
LINE
  5
75
330
1F
100
AcDbEntity
  8
0-0
  6
Continuous
 62
    92
370
    13
100
AcDbLine
 10
-256.3767715559306
 20
185.3047210300406
 30
0.0
 11
-295.376771555931
 21
185.3047210300406
 31
0.0
  0
ARC
  5
76
330
1F
100
AcDbEntity
  8
0-0
  6
Continuous
 62
    92
370
    13
100
AcDbCircle
 10
-256.3767715559306
 20
183.8047210300411
 30
0.0
 40
1.5
100
AcDbArc
 50
0.0
 51
90.00000000000001
  0
LINE
  5
77
330
1F
100
AcDbEntity
  8
0-0
  6
Continuous
 62
    92
370
    13
100
AcDbLine
 10
-254.8767715559337
 20
64.80472103004104
 30
0.0
 11
-254.8767715559337
 21
183.8047210300411
 31
0.0
  0
ARC
  5
78
330
1F
100
AcDbEntity
  8
0-0
  6
Continuous
 62
    92
370
    13
100
AcDbCircle
 10
-256.3767715559306
 20
64.80472103004104
 30
0.0
 40
1.5
100
AcDbArc
 50
270.0
 51
0.0
  0
LINE
  5
79
330
1F
100
AcDbEntity
  8
0-0
  6
Continuous
 62
    92
370
    13
100
AcDbLine
 10
-295.376771555931
 20
63.30472103003899
 30
0.0
 11
-256.3767715559306
 21
63.30472103003899
 31
0.0
  0
LINE
  5
7A
330
1F
100
AcDbEntity
  8
0-0
  6
Continuous
 62
    92
370
    13
100
AcDbLine
 10
-296.8767715559296
 20
64.80472103004104
 30
0.0
 11
-296.8767715559296
 21
183.8047210300411
 31
0.0
  0
ARC
  5
7B
330
1F
100
AcDbEntity
  8
0-0
  6
Continuous
 62
    92
370
    13
100
AcDbCircle
 10
-295.376771555931
 20
64.80472103004104
 30
0.0
 40
1.5
100
AcDbArc
 50
180.0
 51
270.0
  0
ARC
  5
7C
330
1F
100
AcDbEntity
  8
0-0
  6
Continuous
 62
     7
370
     9
100
AcDbCircle
 10
-275.8767715559317
 20
94.70472103004113
 30
0.0
 40
15.0
100
AcDbArc
 50
180.0
 51
0.0
  0
ARC
  5
7D
330
1F
100
AcDbEntity
  8
0-0
  6
Continuous
 62
     7
370
     9
100
AcDbCircle
 10
-275.8767715559317
 20
153.904721030041
 30
0.0
 40
15.0
100
AcDbArc
 50
0.0
 51
180.0
  0
LINE
  5
7E
330
1F
100
AcDbEntity
  8
0-0
  6
Continuous
 62
     7
370
     9
100
AcDbLine
 10
-260.8767715559317
 20
94.70472103004113
 30
0.0
 11
-260.8767715559317
 21
153.904721030041
 31
0.0
  0
LINE
  5
7F
330
1F
100
AcDbEntity
  8
0-0
  6
Continuous
 62
     7
370
     9
100
AcDbLine
 10
-290.8767715559317
 20
153.904721030041
 30
0.0
 11
-290.8767715559317
 21
94.70472103004113
 31
0.0
  0
ARC
  5
80
330
1F
100
AcDbEntity
  8
0-0
  6
Continuous
 62
    92
370
    13
100
AcDbCircle
 10
1192.623228444073
 20
183.8047210300411
 30
0.0
 40
1.5
100
AcDbArc
 50
90.0
 51
180.0
  0
LINE
  5
81
330
1F
100
AcDbEntity
  8
0-0
  6
Continuous
 62
    92
370
    13
100
AcDbLine
 10
1231.623228444072
 20
185.3047210300406
 30
0.0
 11
1192.623228444073
 21
185.3047210300406
 31
0.0
  0
ARC
  5
82
330
1F
100
AcDbEntity
  8
0-0
  6
Continuous
 62
    92
370
    13
100
AcDbCircle
 10
1231.623228444072
 20
183.8047210300411
 30
0.0
 40
1.5
100
AcDbArc
 50
0.0
 51
90.00000000000001
  0
LINE
  5
83
330
1F
100
AcDbEntity
  8
0-0
  6
Continuous
 62
    92
370
    13
100
AcDbLine
 10
1233.123228444072
 20
64.80472103004104
 30
0.0
 11
1233.123228444072
 21
183.8047210300411
 31
0.0
  0
ARC
  5
84
330
1F
100
AcDbEntity
  8
0-0
  6
Continuous
 62
    92
370
    13
100
AcDbCircle
 10
1231.623228444072
 20
64.80472103004104
 30
0.0
 40
1.5
100
AcDbArc
 50
270.0
 51
0.0
  0
LINE
  5
85
330
1F
100
AcDbEntity
  8
0-0
  6
Continuous
 62
    92
370
    13
100
AcDbLine
 10
1192.623228444073
 20
63.30472103003899
 30
0.0
 11
1231.623228444072
 21
63.30472103003899
 31
0.0
  0
LINE
  5
86
330
1F
100
AcDbEntity
  8
0-0
  6
Continuous
 62
    92
370
    13
100
AcDbLine
 10
1191.123228444073
 20
64.80472103004104
 30
0.0
 11
1191.123228444073
 21
183.8047210300411
 31
0.0
  0
ARC
  5
87
330
1F
100
AcDbEntity
  8
0-0
  6
Continuous
 62
    92
370
    13
100
AcDbCircle
 10
1192.623228444073
 20
64.80472103004104
 30
0.0
 40
1.5
100
AcDbArc
 50
180.0
 51
270.0
  0
ARC
  5
88
330
1F
100
AcDbEntity
  8
0-0
  6
Continuous
 62
     7
370
     9
100
AcDbCircle
 10
1212.123228444072
 20
94.70472103004113
 30
0.0
 40
15.0
100
AcDbArc
 50
180.0
 51
0.0
  0
ARC
  5
89
330
1F
100
AcDbEntity
  8
0-0
  6
Continuous
 62
     7
370
     9
100
AcDbCircle
 10
1212.123228444072
 20
153.904721030041
 30
0.0
 40
15.0
100
AcDbArc
 50
0.0
 51
180.0
  0
LINE
  5
8A
330
1F
100
AcDbEntity
  8
0-0
  6
Continuous
 62
     7
370
     9
100
AcDbLine
 10
1227.123228444072
 20
94.70472103004113
 30
0.0
 11
1227.123228444072
 21
153.904721030041
 31
0.0
  0
LINE
  5
8B
330
1F
100
AcDbEntity
  8
0-0
  6
Continuous
 62
     7
370
     9
100
AcDbLine
 10
1197.123228444072
 20
153.904721030041
 30
0.0
 11
1197.123228444072
 21
94.70472103004113
 31
0.0
  0
LINE
  5
8C
330
1F
100
AcDbEntity
  8
0-0
  6
JWW_DASHED1
 62
   120
370
     5
100
AcDbLine
 10
-1103.876771555929
 20
-833.1952789699599
 30
0.0
 11
-1106.87677155593
 21
-833.1952789699599
 31
0.0
  0
LINE
  5
8D
330
1F
100
AcDbEntity
  8
0-0
  6
JWW_DASHED1
 62
   120
370
     5
100
AcDbLine
 10
-1106.87677155593
 20
-833.1952789699599
 30
0.0
 11
-1106.87677155593
 21
1149.80472103004
 31
0.0
  0
LINE
  5
8E
330
1F
100
AcDbEntity
  8
0-0
  6
Continuous
 62
    92
370
    13
100
AcDbLine
 10
453.1232284440704
 20
-833.1952789699599
 30
0.0
 11
453.1232284440704
 21
1149.80472103004
 31
0.0
  0
LINE
  5
8F
330
1F
100
AcDbEntity
  8
0-0
  6
JWW_DASHED1
 62
   120
370
     5
100
AcDbLine
 10
-1106.87677155593
 20
1149.80472103004
 30
0.0
 11
-1103.876771555929
 21
1149.80472103004
 31
0.0
  0
LINE
  5
90
330
1F
100
AcDbEntity
  8
0-0
  6
JWW_DASHED1
 62
   120
370
     5
100
AcDbLine
 10
-296.8767715559296
 20
-833.1952789699599
 30
0.0
 11
-296.8767715559296
 21
1149.80472103004
 31
0.0
  0
LINE
  5
91
330
1F
100
AcDbEntity
  8
0-0
  6
JWW_DASHED1
 62
   120
370
     5
100
AcDbLine
 10
483.1232284440704
 20
-833.1952789699599
 30
0.0
 11
483.1232284440704
 21
1149.80472103004
 31
0.0
  0
LINE
  5
92
330
1F
100
AcDbEntity
  8
0-0
  6
JWW_DASHED1
 62
   120
370
     5
100
AcDbLine
 10
1260.12322844407
 20
-833.1952789699599
 30
0.0
 11
1263.12322844407
 21
-833.1952789699599
 31
0.0
  0
LINE
  5
93
330
1F
100
AcDbEntity
  8
0-0
  6
JWW_DASHED1
 62
   120
370
     5
100
AcDbLine
 10
1263.12322844407
 20
-833.1952789699599
 30
0.0
 11
1263.12322844407
 21
1149.80472103004
 31
0.0
  0
LINE
  5
94
330
1F
100
AcDbEntity
  8
0-0
  6
JWW_DASHED1
 62
   120
370
     5
100
AcDbLine
 10
1263.12322844407
 20
1149.80472103004
 30
0.0
 11
1260.12322844407
 21
1149.80472103004
 31
0.0
  0
LINE
  5
95
330
1F
100
AcDbEntity
  8
0-0
  6
Continuous
 62
    92
370
    13
100
AcDbLine
 10
-1103.876771555929
 20
-833.1952789699599
 30
0.0
 11
1260.12322844407
 21
-833.1952789699599
 31
0.0
  0
LINE
  5
96
330
1F
100
AcDbEntity
  8
0-0
  6
Continuous
 62
    92
370
    13
100
AcDbLine
 10
-1103.876771555929
 20
1149.80472103004
 30
0.0
 11
1260.12322844407
 21
1149.80472103004
 31
0.0
  0
LINE
  5
97
330
1F
100
AcDbEntity
  8
0-0
  6
Continuous
 62
    92
370
    13
100
AcDbLine
 10
-326.8767715559296
 20
1149.80472103004
 30
0.0
 11
-326.8767715559296
 21
-833.1952789699599
 31
0.0
  0
LINE
  5
98
330
1F
100
AcDbEntity
  8
0-0
  6
Continuous
 62
     7
370
     9
100
AcDbLine
 10
571.6232284440708
 20
-683.1952789699599
 30
0.0
 11
556.6232284440708
 21
-698.1952789699599
 31
0.0
  0
LINE
  5
99
330
1F
100
AcDbEntity
  8
0-0
  6
Continuous
 62
     7
370
     9
100
AcDbLine
 10
556.6232284440708
 20
1029.80472103004
 30
0.0
 11
571.6232284440708
 21
1014.80472103004
 31
0.0
  0
LINE
  5
9A
330
1F
100
AcDbEntity
  8
0-0
  6
Continuous
 62
     7
370
     9
100
AcDbLine
 10
556.6232284440708
 20
-833.1952789699599
 30
0.0
 11
556.6232284440708
 21
1149.80472103004
 31
0.0
  0
LINE
  5
9B
330
1F
100
AcDbEntity
  8
0-0
  6
Continuous
 62
     7
370
     9
100
AcDbLine
 10
1144.62322844407
 20
-683.1952789699599
 30
0.0
 11
1159.62322844407
 21
-698.1952789699599
 31
0.0
  0
LINE
  5
9C
330
1F
100
AcDbEntity
  8
0-0
  6
Continuous
 62
     7
370
     9
100
AcDbLine
 10
1159.62322844407
 20
1029.80472103004
 30
0.0
 11
1144.62322844407
 21
1014.80472103004
 31
0.0
  0
LINE
  5
9D
330
1F
100
AcDbEntity
  8
0-0
  6
Continuous
 62
     7
370
     9
100
AcDbLine
 10
1159.62322844407
 20
-833.1952789699599
 30
0.0
 11
1159.62322844407
 21
1149.80472103004
 31
0.0
  0
LINE
  5
9E
330
1F
100
AcDbEntity
  8
0-0
  6
Continuous
 62
     7
370
     9
100
AcDbLine
 10
556.6232284440708
 20
1029.80472103004
 30
0.0
 11
1159.62322844407
 21
1029.80472103004
 31
0.0
  0
LINE
  5
9F
330
1F
100
AcDbEntity
  8
0-0
  6
Continuous
 62
     7
370
     9
100
AcDbLine
 10
556.6232284440708
 20
-698.1952789699599
 30
0.0
 11
1159.62322844407
 21
-698.1952789699599
 31
0.0
  0
LINE
  5
A0
330
1F
100
AcDbEntity
  8
0-0
  6
Continuous
 62
     7
370
     9
100
AcDbLine
 10
571.6232284440708
 20
-160.1952789699599
 30
0.0
 11
556.6232284440708
 21
-175.1952789699599
 31
0.0
  0
LINE
  5
A1
330
1F
100
AcDbEntity
  8
0-0
  6
Continuous
 62
     7
370
     9
100
AcDbLine
 10
556.6232284440708
 20
-250.1952789699599
 30
0.0
 11
571.6232284440708
 21
-265.1952789699599
 31
0.0
  0
LINE
  5
A2
330
1F
100
AcDbEntity
  8
0-0
  6
Continuous
 62
     7
370
     9
100
AcDbLine
 10
1144.62322844407
 20
-160.1952789699599
 30
0.0
 11
1159.62322844407
 21
-175.1952789699599
 31
0.0
  0
LINE
  5
A3
330
1F
100
AcDbEntity
  8
0-0
  6
Continuous
 62
     7
370
     9
100
AcDbLine
 10
1159.62322844407
 20
-250.1952789699599
 30
0.0
 11
1144.62322844407
 21
-265.1952789699599
 31
0.0
  0
LINE
  5
A4
330
1F
100
AcDbEntity
  8
0-0
  6
Continuous
 62
     7
370
     9
100
AcDbLine
 10
556.6232284440708
 20
-175.1952789699599
 30
0.0
 11
1159.62322844407
 21
-175.1952789699599
 31
0.0
  0
LINE
  5
A5
330
1F
100
AcDbEntity
  8
0-0
  6
Continuous
 62
     7
370
     9
100
AcDbLine
 10
556.6232284440708
 20
-250.1952789699599
 30
0.0
 11
1159.62322844407
 21
-250.1952789699599
 31
0.0
  0
LINE
  5
A6
330
1F
100
AcDbEntity
  8
0-0
  6
Continuous
 62
     7
370
     9
100
AcDbLine
 10
601.6232284440708
 20
-653.1952789699599
 30
0.0
 11
601.6232284440708
 21
-295.1952789699599
 31
0.0
  0
LINE
  5
A7
330
1F
100
AcDbEntity
  8
0-0
  6
Continuous
 62
     7
370
     9
100
AcDbLine
 10
601.6232284440708
 20
-653.1952789699599
 30
0.0
 11
586.6232284440708
 21
-668.1952789699599
 31
0.0
  0
LINE
  5
A8
330
1F
100
AcDbEntity
  8
0-0
  6
Continuous
 62
     7
370
     9
100
AcDbLine
 10
586.6232284440708
 20
-280.1952789699599
 30
0.0
 11
601.6232284440708
 21
-295.1952789699599
 31
0.0
  0
LINE
  5
A9
330
1F
100
AcDbEntity
  8
0-0
  6
Continuous
 62
     7
370
     9
100
AcDbLine
 10
1114.62322844407
 20
-653.1952789699599
 30
0.0
 11
1129.62322844407
 21
-668.1952789699599
 31
0.0
  0
LINE
  5
AA
330
1F
100
AcDbEntity
  8
0-0
  6
Continuous
 62
     7
370
     9
100
AcDbLine
 10
1129.62322844407
 20
-280.1952789699599
 30
0.0
 11
1114.62322844407
 21
-295.1952789699599
 31
0.0
  0
LINE
  5
AB
330
1F
100
AcDbEntity
  8
0-0
  6
Continuous
 62
     7
370
     9
100
AcDbLine
 10
601.6232284440708
 20
-295.1952789699599
 30
0.0
 11
1114.62322844407
 21
-295.1952789699599
 31
0.0
  0
LINE
  5
AC
330
1F
100
AcDbEntity
  8
0-0
  6
Continuous
 62
     7
370
     9
100
AcDbLine
 10
1114.62322844407
 20
-653.1952789699599
 30
0.0
 11
1114.62322844407
 21
-295.1952789699599
 31
0.0
  0
LINE
  5
AD
330
1F
100
AcDbEntity
  8
0-0
  6
Continuous
 62
     7
370
     9
100
AcDbLine
 10
601.6232284440708
 20
-653.1952789699599
 30
0.0
 11
1114.62322844407
 21
-653.1952789699599
 31
0.0
  0
LINE
  5
AE
330
1F
100
AcDbEntity
  8
0-0
  6
Continuous
 62
    92
370
    13
100
AcDbLine
 10
571.6232284440708
 20
1014.80472103004
 30
0.0
 11
1144.62322844407
 21
1014.80472103004
 31
0.0
  0
LINE
  5
AF
330
1F
100
AcDbEntity
  8
0-0
  6
Continuous
 62
    92
370
    13
100
AcDbLine
 10
571.6232284440708
 20
-683.1952789699599
 30
0.0
 11
1144.62322844407
 21
-683.1952789699599
 31
0.0
  0
LINE
  5
B0
330
1F
100
AcDbEntity
  8
0-0
  6
Continuous
 62
    92
370
    13
100
AcDbLine
 10
571.6232284440708
 20
-160.1952789699599
 30
0.0
 11
1144.62322844407
 21
-160.1952789699599
 31
0.0
  0
LINE
  5
B1
330
1F
100
AcDbEntity
  8
0-0
  6
Continuous
 62
    92
370
    13
100
AcDbLine
 10
571.6232284440708
 20
-265.1952789699599
 30
0.0
 11
1144.62322844407
 21
-265.1952789699599
 31
0.0
  0
LINE
  5
B2
330
1F
100
AcDbEntity
  8
0-0
  6
Continuous
 62
    92
370
    13
100
AcDbLine
 10
571.6232284440708
 20
-160.1952789699599
 30
0.0
 11
571.6232284440708
 21
1014.80472103004
 31
0.0
  0
LINE
  5
B3
330
1F
100
AcDbEntity
  8
0-0
  6
Continuous
 62
    92
370
    13
100
AcDbLine
 10
571.6232284440708
 20
-683.1952789699599
 30
0.0
 11
571.6232284440708
 21
-265.1952789699599
 31
0.0
  0
LINE
  5
B4
330
1F
100
AcDbEntity
  8
0-0
  6
Continuous
 62
    92
370
    13
100
AcDbLine
 10
1144.62322844407
 20
-160.1952789699599
 30
0.0
 11
1144.62322844407
 21
1014.80472103004
 31
0.0
  0
LINE
  5
B5
330
1F
100
AcDbEntity
  8
0-0
  6
Continuous
 62
    92
370
    13
100
AcDbLine
 10
1144.62322844407
 20
-683.1952789699599
 30
0.0
 11
1144.62322844407
 21
-265.1952789699599
 31
0.0
  0
LINE
  5
B6
330
1F
100
AcDbEntity
  8
0-0
  6
Continuous
 62
     7
370
     9
100
AcDbLine
 10
-208.3767715559293
 20
-683.1952789699599
 30
0.0
 11
-223.3767715559293
 21
-698.1952789699599
 31
0.0
  0
LINE
  5
B7
330
1F
100
AcDbEntity
  8
0-0
  6
Continuous
 62
     7
370
     9
100
AcDbLine
 10
-223.3767715559293
 20
1029.80472103004
 30
0.0
 11
-208.3767715559293
 21
1014.80472103004
 31
0.0
  0
LINE
  5
B8
330
1F
100
AcDbEntity
  8
0-0
  6
Continuous
 62
     7
370
     9
100
AcDbLine
 10
-223.3767715559293
 20
-833.1952789699599
 30
0.0
 11
-223.3767715559293
 21
1149.80472103004
 31
0.0
  0
LINE
  5
B9
330
1F
100
AcDbEntity
  8
0-0
  6
Continuous
 62
     7
370
     9
100
AcDbLine
 10
364.6232284440698
 20
-683.1952789699599
 30
0.0
 11
379.6232284440698
 21
-698.1952789699599
 31
0.0
  0
LINE
  5
BA
330
1F
100
AcDbEntity
  8
0-0
  6
Continuous
 62
     7
370
     9
100
AcDbLine
 10
379.6232284440698
 20
1029.80472103004
 30
0.0
 11
364.6232284440698
 21
1014.80472103004
 31
0.0
  0
LINE
  5
BB
330
1F
100
AcDbEntity
  8
0-0
  6
Continuous
 62
     7
370
     9
100
AcDbLine
 10
379.6232284440698
 20
-833.1952789699599
 30
0.0
 11
379.6232284440698
 21
1149.80472103004
 31
0.0
  0
LINE
  5
BC
330
1F
100
AcDbEntity
  8
0-0
  6
Continuous
 62
     7
370
     9
100
AcDbLine
 10
-223.3767715559293
 20
1029.80472103004
 30
0.0
 11
379.6232284440698
 21
1029.80472103004
 31
0.0
  0
LINE
  5
BD
330
1F
100
AcDbEntity
  8
0-0
  6
Continuous
 62
     7
370
     9
100
AcDbLine
 10
-223.3767715559293
 20
-698.1952789699599
 30
0.0
 11
379.6232284440698
 21
-698.1952789699599
 31
0.0
  0
LINE
  5
BE
330
1F
100
AcDbEntity
  8
0-0
  6
Continuous
 62
     7
370
     9
100
AcDbLine
 10
-208.3767715559293
 20
-160.1952789699599
 30
0.0
 11
-223.3767715559293
 21
-175.1952789699599
 31
0.0
  0
LINE
  5
BF
330
1F
100
AcDbEntity
  8
0-0
  6
Continuous
 62
     7
370
     9
100
AcDbLine
 10
-223.3767715559293
 20
-250.1952789699599
 30
0.0
 11
-208.3767715559293
 21
-265.1952789699599
 31
0.0
  0
LINE
  5
C0
330
1F
100
AcDbEntity
  8
0-0
  6
Continuous
 62
     7
370
     9
100
AcDbLine
 10
364.6232284440698
 20
-160.1952789699599
 30
0.0
 11
379.6232284440698
 21
-175.1952789699599
 31
0.0
  0
LINE
  5
C1
330
1F
100
AcDbEntity
  8
0-0
  6
Continuous
 62
     7
370
     9
100
AcDbLine
 10
379.6232284440698
 20
-250.1952789699599
 30
0.0
 11
364.6232284440698
 21
-265.1952789699599
 31
0.0
  0
LINE
  5
C2
330
1F
100
AcDbEntity
  8
0-0
  6
Continuous
 62
     7
370
     9
100
AcDbLine
 10
-223.3767715559293
 20
-175.1952789699599
 30
0.0
 11
379.6232284440698
 21
-175.1952789699599
 31
0.0
  0
LINE
  5
C3
330
1F
100
AcDbEntity
  8
0-0
  6
Continuous
 62
     7
370
     9
100
AcDbLine
 10
-223.3767715559293
 20
-250.1952789699599
 30
0.0
 11
379.6232284440698
 21
-250.1952789699599
 31
0.0
  0
LINE
  5
C4
330
1F
100
AcDbEntity
  8
0-0
  6
Continuous
 62
     7
370
     9
100
AcDbLine
 10
-178.3767715559293
 20
-653.1952789699599
 30
0.0
 11
-178.3767715559293
 21
-295.1952789699599
 31
0.0
  0
LINE
  5
C5
330
1F
100
AcDbEntity
  8
0-0
  6
Continuous
 62
     7
370
     9
100
AcDbLine
 10
-178.3767715559293
 20
-653.1952789699599
 30
0.0
 11
-193.3767715559293
 21
-668.1952789699599
 31
0.0
  0
LINE
  5
C6
330
1F
100
AcDbEntity
  8
0-0
  6
Continuous
 62
     7
370
     9
100
AcDbLine
 10
-193.3767715559293
 20
-280.1952789699599
 30
0.0
 11
-178.3767715559293
 21
-295.1952789699599
 31
0.0
  0
LINE
  5
C7
330
1F
100
AcDbEntity
  8
0-0
  6
Continuous
 62
     7
370
     9
100
AcDbLine
 10
334.6232284440698
 20
-653.1952789699599
 30
0.0
 11
349.6232284440698
 21
-668.1952789699599
 31
0.0
  0
LINE
  5
C8
330
1F
100
AcDbEntity
  8
0-0
  6
Continuous
 62
     7
370
     9
100
AcDbLine
 10
349.6232284440698
 20
-280.1952789699599
 30
0.0
 11
334.6232284440698
 21
-295.1952789699599
 31
0.0
  0
LINE
  5
C9
330
1F
100
AcDbEntity
  8
0-0
  6
Continuous
 62
     7
370
     9
100
AcDbLine
 10
-178.3767715559293
 20
-295.1952789699599
 30
0.0
 11
334.6232284440698
 21
-295.1952789699599
 31
0.0
  0
LINE
  5
CA
330
1F
100
AcDbEntity
  8
0-0
  6
Continuous
 62
     7
370
     9
100
AcDbLine
 10
334.6232284440698
 20
-653.1952789699599
 30
0.0
 11
334.6232284440698
 21
-295.1952789699599
 31
0.0
  0
LINE
  5
CB
330
1F
100
AcDbEntity
  8
0-0
  6
Continuous
 62
     7
370
     9
100
AcDbLine
 10
-178.3767715559293
 20
-653.1952789699599
 30
0.0
 11
334.6232284440698
 21
-653.1952789699599
 31
0.0
  0
LINE
  5
CC
330
1F
100
AcDbEntity
  8
0-0
  6
Continuous
 62
    92
370
    13
100
AcDbLine
 10
-208.3767715559293
 20
1014.80472103004
 30
0.0
 11
364.6232284440698
 21
1014.80472103004
 31
0.0
  0
LINE
  5
CD
330
1F
100
AcDbEntity
  8
0-0
  6
Continuous
 62
    92
370
    13
100
AcDbLine
 10
-208.3767715559293
 20
-683.1952789699599
 30
0.0
 11
364.6232284440698
 21
-683.1952789699599
 31
0.0
  0
LINE
  5
CE
330
1F
100
AcDbEntity
  8
0-0
  6
Continuous
 62
    92
370
    13
100
AcDbLine
 10
-208.3767715559293
 20
-160.1952789699599
 30
0.0
 11
364.6232284440698
 21
-160.1952789699599
 31
0.0
  0
LINE
  5
CF
330
1F
100
AcDbEntity
  8
0-0
  6
Continuous
 62
    92
370
    13
100
AcDbLine
 10
-208.3767715559293
 20
-265.1952789699599
 30
0.0
 11
364.6232284440698
 21
-265.1952789699599
 31
0.0
  0
LINE
  5
D0
330
1F
100
AcDbEntity
  8
0-0
  6
Continuous
 62
    92
370
    13
100
AcDbLine
 10
-208.3767715559293
 20
-160.1952789699599
 30
0.0
 11
-208.3767715559293
 21
1014.80472103004
 31
0.0
  0
LINE
  5
D1
330
1F
100
AcDbEntity
  8
0-0
  6
Continuous
 62
    92
370
    13
100
AcDbLine
 10
-208.3767715559293
 20
-683.1952789699599
 30
0.0
 11
-208.3767715559293
 21
-265.1952789699599
 31
0.0
  0
LINE
  5
D2
330
1F
100
AcDbEntity
  8
0-0
  6
Continuous
 62
    92
370
    13
100
AcDbLine
 10
364.6232284440698
 20
-160.1952789699599
 30
0.0
 11
364.6232284440698
 21
1014.80472103004
 31
0.0
  0
LINE
  5
D3
330
1F
100
AcDbEntity
  8
0-0
  6
Continuous
 62
    92
370
    13
100
AcDbLine
 10
364.6232284440698
 20
-683.1952789699599
 30
0.0
 11
364.6232284440698
 21
-265.1952789699599
 31
0.0
  0
LINE
  5
D4
330
1F
100
AcDbEntity
  8
0-0
  6
Continuous
 62
     7
370
     9
100
AcDbLine
 10
-988.3767715559292
 20
-683.1952789699599
 30
0.0
 11
-1003.376771555929
 21
-698.1952789699599
 31
0.0
  0
LINE
  5
D5
330
1F
100
AcDbEntity
  8
0-0
  6
Continuous
 62
     7
370
     9
100
AcDbLine
 10
-1003.376771555929
 20
1029.80472103004
 30
0.0
 11
-988.3767715559292
 21
1014.80472103004
 31
0.0
  0
LINE
  5
D6
330
1F
100
AcDbEntity
  8
0-0
  6
Continuous
 62
     7
370
     9
100
AcDbLine
 10
-1003.376771555929
 20
-833.1952789699599
 30
0.0
 11
-1003.376771555929
 21
1149.80472103004
 31
0.0
  0
LINE
  5
D7
330
1F
100
AcDbEntity
  8
0-0
  6
Continuous
 62
     7
370
     9
100
AcDbLine
 10
-415.3767715559302
 20
-683.1952789699599
 30
0.0
 11
-400.3767715559302
 21
-698.1952789699599
 31
0.0
  0
LINE
  5
D8
330
1F
100
AcDbEntity
  8
0-0
  6
Continuous
 62
     7
370
     9
100
AcDbLine
 10
-400.3767715559302
 20
1029.80472103004
 30
0.0
 11
-415.3767715559302
 21
1014.80472103004
 31
0.0
  0
LINE
  5
D9
330
1F
100
AcDbEntity
  8
0-0
  6
Continuous
 62
     7
370
     9
100
AcDbLine
 10
-400.3767715559302
 20
-833.1952789699599
 30
0.0
 11
-400.3767715559302
 21
1149.80472103004
 31
0.0
  0
LINE
  5
DA
330
1F
100
AcDbEntity
  8
0-0
  6
Continuous
 62
     7
370
     9
100
AcDbLine
 10
-1003.376771555929
 20
1029.80472103004
 30
0.0
 11
-400.3767715559302
 21
1029.80472103004
 31
0.0
  0
LINE
  5
DB
330
1F
100
AcDbEntity
  8
0-0
  6
Continuous
 62
     7
370
     9
100
AcDbLine
 10
-1003.376771555929
 20
-698.1952789699599
 30
0.0
 11
-400.3767715559302
 21
-698.1952789699599
 31
0.0
  0
LINE
  5
DC
330
1F
100
AcDbEntity
  8
0-0
  6
Continuous
 62
     7
370
     9
100
AcDbLine
 10
-988.3767715559292
 20
-160.1952789699599
 30
0.0
 11
-1003.376771555929
 21
-175.1952789699599
 31
0.0
  0
LINE
  5
DD
330
1F
100
AcDbEntity
  8
0-0
  6
Continuous
 62
     7
370
     9
100
AcDbLine
 10
-1003.376771555929
 20
-250.1952789699599
 30
0.0
 11
-988.3767715559292
 21
-265.1952789699599
 31
0.0
  0
LINE
  5
DE
330
1F
100
AcDbEntity
  8
0-0
  6
Continuous
 62
     7
370
     9
100
AcDbLine
 10
-415.3767715559302
 20
-160.1952789699599
 30
0.0
 11
-400.3767715559302
 21
-175.1952789699599
 31
0.0
  0
LINE
  5
DF
330
1F
100
AcDbEntity
  8
0-0
  6
Continuous
 62
     7
370
     9
100
AcDbLine
 10
-400.3767715559302
 20
-250.1952789699599
 30
0.0
 11
-415.3767715559302
 21
-265.1952789699599
 31
0.0
  0
LINE
  5
E0
330
1F
100
AcDbEntity
  8
0-0
  6
Continuous
 62
     7
370
     9
100
AcDbLine
 10
-1003.376771555929
 20
-175.1952789699599
 30
0.0
 11
-400.3767715559302
 21
-175.1952789699599
 31
0.0
  0
LINE
  5
E1
330
1F
100
AcDbEntity
  8
0-0
  6
Continuous
 62
     7
370
     9
100
AcDbLine
 10
-1003.376771555929
 20
-250.1952789699599
 30
0.0
 11
-400.3767715559302
 21
-250.1952789699599
 31
0.0
  0
LINE
  5
E2
330
1F
100
AcDbEntity
  8
0-0
  6
Continuous
 62
     7
370
     9
100
AcDbLine
 10
-958.3767715559292
 20
-653.1952789699599
 30
0.0
 11
-958.3767715559292
 21
-295.1952789699599
 31
0.0
  0
LINE
  5
E3
330
1F
100
AcDbEntity
  8
0-0
  6
Continuous
 62
     7
370
     9
100
AcDbLine
 10
-958.3767715559292
 20
-653.1952789699599
 30
0.0
 11
-973.3767715559292
 21
-668.1952789699599
 31
0.0
  0
LINE
  5
E4
330
1F
100
AcDbEntity
  8
0-0
  6
Continuous
 62
     7
370
     9
100
AcDbLine
 10
-973.3767715559292
 20
-280.1952789699599
 30
0.0
 11
-958.3767715559292
 21
-295.1952789699599
 31
0.0
  0
LINE
  5
E5
330
1F
100
AcDbEntity
  8
0-0
  6
Continuous
 62
     7
370
     9
100
AcDbLine
 10
-445.3767715559302
 20
-653.1952789699599
 30
0.0
 11
-430.3767715559302
 21
-668.1952789699599
 31
0.0
  0
LINE
  5
E6
330
1F
100
AcDbEntity
  8
0-0
  6
Continuous
 62
     7
370
     9
100
AcDbLine
 10
-430.3767715559302
 20
-280.1952789699599
 30
0.0
 11
-445.3767715559302
 21
-295.1952789699599
 31
0.0
  0
LINE
  5
E7
330
1F
100
AcDbEntity
  8
0-0
  6
Continuous
 62
     7
370
     9
100
AcDbLine
 10
-958.3767715559292
 20
-295.1952789699599
 30
0.0
 11
-445.3767715559302
 21
-295.1952789699599
 31
0.0
  0
LINE
  5
E8
330
1F
100
AcDbEntity
  8
0-0
  6
Continuous
 62
     7
370
     9
100
AcDbLine
 10
-445.3767715559302
 20
-653.1952789699599
 30
0.0
 11
-445.3767715559302
 21
-295.1952789699599
 31
0.0
  0
LINE
  5
E9
330
1F
100
AcDbEntity
  8
0-0
  6
Continuous
 62
     7
370
     9
100
AcDbLine
 10
-958.3767715559292
 20
-653.1952789699599
 30
0.0
 11
-445.3767715559302
 21
-653.1952789699599
 31
0.0
  0
LINE
  5
EA
330
1F
100
AcDbEntity
  8
0-0
  6
Continuous
 62
    92
370
    13
100
AcDbLine
 10
-988.3767715559292
 20
1014.80472103004
 30
0.0
 11
-415.3767715559302
 21
1014.80472103004
 31
0.0
  0
LINE
  5
EB
330
1F
100
AcDbEntity
  8
0-0
  6
Continuous
 62
    92
370
    13
100
AcDbLine
 10
-988.3767715559292
 20
-683.1952789699599
 30
0.0
 11
-415.3767715559302
 21
-683.1952789699599
 31
0.0
  0
LINE
  5
EC
330
1F
100
AcDbEntity
  8
0-0
  6
Continuous
 62
    92
370
    13
100
AcDbLine
 10
-988.3767715559292
 20
-160.1952789699599
 30
0.0
 11
-415.3767715559302
 21
-160.1952789699599
 31
0.0
  0
LINE
  5
ED
330
1F
100
AcDbEntity
  8
0-0
  6
Continuous
 62
    92
370
    13
100
AcDbLine
 10
-988.3767715559292
 20
-265.1952789699599
 30
0.0
 11
-415.3767715559302
 21
-265.1952789699599
 31
0.0
  0
LINE
  5
EE
330
1F
100
AcDbEntity
  8
0-0
  6
Continuous
 62
    92
370
    13
100
AcDbLine
 10
-988.3767715559292
 20
-160.1952789699599
 30
0.0
 11
-988.3767715559292
 21
1014.80472103004
 31
0.0
  0
LINE
  5
EF
330
1F
100
AcDbEntity
  8
0-0
  6
Continuous
 62
    92
370
    13
100
AcDbLine
 10
-988.3767715559292
 20
-683.1952789699599
 30
0.0
 11
-988.3767715559292
 21
-265.1952789699599
 31
0.0
  0
LINE
  5
F0
330
1F
100
AcDbEntity
  8
0-0
  6
Continuous
 62
    92
370
    13
100
AcDbLine
 10
-415.3767715559302
 20
-160.1952789699599
 30
0.0
 11
-415.3767715559302
 21
1014.80472103004
 31
0.0
  0
LINE
  5
F1
330
1F
100
AcDbEntity
  8
0-0
  6
Continuous
 62
    92
370
    13
100
AcDbLine
 10
-415.3767715559302
 20
-683.1952789699599
 30
0.0
 11
-415.3767715559302
 21
-265.1952789699599
 31
0.0
  0
LINE
  5
F2
330
1F
100
AcDbEntity
  8
0-0
  6
JWW_DASHED1
 62
   120
370
     5
100
AcDbLine
 10
-988.37677155593
 20
-159.1954272839034
 30
0.0
 11
-415.3767715559293
 21
-159.1954272839034
 31
0.0
  0
LINE
  5
F3
330
1F
100
AcDbEntity
  8
0-0
  6
JWW_DASHED1
 62
   120
370
     5
100
AcDbLine
 10
-988.37677155593
 20
-146.1954272828039
 30
0.0
 11
-415.3767715559293
 21
-146.1954272828039
 31
0.0
  0
LINE
  5
F4
330
1F
100
AcDbEntity
  8
0-0
  6
JWW_DASHED1
 62
   120
370
     5
100
AcDbLine
 10
-988.37677155593
 20
-145.1954272829037
 30
0.0
 11
-415.3767715559293
 21
-145.1954272829037
 31
0.0
  0
LINE
  5
F5
330
1F
100
AcDbEntity
  8
0-0
  6
JWW_DASHED1
 62
   120
370
     5
100
AcDbLine
 10
-988.37677155593
 20
-132.195427281804
 30
0.0
 11
-415.3767715559293
 21
-132.195427281804
 31
0.0
  0
LINE
  5
F6
330
1F
100
AcDbEntity
  8
0-0
  6
JWW_DASHED1
 62
   120
370
     5
100
AcDbLine
 10
-988.37677155593
 20
-131.1954272819038
 30
0.0
 11
-415.3767715559293
 21
-131.1954272819038
 31
0.0
  0
LINE
  5
F7
330
1F
100
AcDbEntity
  8
0-0
  6
JWW_DASHED1
 62
   120
370
     5
100
AcDbLine
 10
-988.37677155593
 20
-118.1954272808042
 30
0.0
 11
-415.3767715559293
 21
-118.1954272808042
 31
0.0
  0
LINE
  5
F8
330
1F
100
AcDbEntity
  8
0-0
  6
JWW_DASHED1
 62
   120
370
     5
100
AcDbLine
 10
-988.37677155593
 20
-117.195427280904
 30
0.0
 11
-415.3767715559293
 21
-117.195427280904
 31
0.0
  0
LINE
  5
F9
330
1F
100
AcDbEntity
  8
0-0
  6
JWW_DASHED1
 62
   120
370
     5
100
AcDbLine
 10
-988.37677155593
 20
-104.1954272798044
 30
0.0
 11
-415.3767715559293
 21
-104.1954272798044
 31
0.0
  0
LINE
  5
FA
330
1F
100
AcDbEntity
  8
0-0
  6
JWW_DASHED1
 62
   120
370
     5
100
AcDbLine
 10
-988.37677155593
 20
-103.1954272799042
 30
0.0
 11
-415.3767715559293
 21
-103.1954272799042
 31
0.0
  0
LINE
  5
FB
330
1F
100
AcDbEntity
  8
0-0
  6
JWW_DASHED1
 62
   120
370
     5
100
AcDbLine
 10
-988.37677155593
 20
-90.19542727880463
 30
0.0
 11
-415.3767715559293
 21
-90.19542727880463
 31
0.0
  0
LINE
  5
FC
330
1F
100
AcDbEntity
  8
0-0
  6
JWW_DASHED1
 62
   120
370
     5
100
AcDbLine
 10
-988.37677155593
 20
-89.19542727890445
 30
0.0
 11
-415.3767715559293
 21
-89.19542727890445
 31
0.0
  0
LINE
  5
FD
330
1F
100
AcDbEntity
  8
0-0
  6
JWW_DASHED1
 62
   120
370
     5
100
AcDbLine
 10
-988.37677155593
 20
-76.19542727780484
 30
0.0
 11
-415.3767715559293
 21
-76.19542727780484
 31
0.0
  0
LINE
  5
FE
330
1F
100
AcDbEntity
  8
0-0
  6
JWW_DASHED1
 62
   120
370
     5
100
AcDbLine
 10
-988.37677155593
 20
-75.19542727790466
 30
0.0
 11
-415.3767715559293
 21
-75.19542727790466
 31
0.0
  0
LINE
  5
FF
330
1F
100
AcDbEntity
  8
0-0
  6
JWW_DASHED1
 62
   120
370
     5
100
AcDbLine
 10
-988.37677155593
 20
-62.19542727680505
 30
0.0
 11
-415.3767715559293
 21
-62.19542727680505
 31
0.0
  0
LINE
  5
100
330
1F
100
AcDbEntity
  8
0-0
  6
JWW_DASHED1
 62
   120
370
     5
100
AcDbLine
 10
-988.37677155593
 20
-61.19542727690487
 30
0.0
 11
-415.3767715559293
 21
-61.19542727690487
 31
0.0
  0
LINE
  5
101
330
1F
100
AcDbEntity
  8
0-0
  6
JWW_DASHED1
 62
   120
370
     5
100
AcDbLine
 10
-988.37677155593
 20
-48.19542727580526
 30
0.0
 11
-415.3767715559293
 21
-48.19542727580526
 31
0.0
  0
LINE
  5
102
330
1F
100
AcDbEntity
  8
0-0
  6
JWW_DASHED1
 62
   120
370
     5
100
AcDbLine
 10
-988.37677155593
 20
-47.19542727590508
 30
0.0
 11
-415.3767715559293
 21
-47.19542727590508
 31
0.0
  0
LINE
  5
103
330
1F
100
AcDbEntity
  8
0-0
  6
JWW_DASHED1
 62
   120
370
     5
100
AcDbLine
 10
-988.37677155593
 20
-34.19542727480557
 30
0.0
 11
-415.3767715559293
 21
-34.19542727480557
 31
0.0
  0
LINE
  5
104
330
1F
100
AcDbEntity
  8
0-0
  6
JWW_DASHED1
 62
   120
370
     5
100
AcDbLine
 10
-988.37677155593
 20
-33.19542727490539
 30
0.0
 11
-415.3767715559293
 21
-33.19542727490539
 31
0.0
  0
LINE
  5
105
330
1F
100
AcDbEntity
  8
0-0
  6
JWW_DASHED1
 62
   120
370
     5
100
AcDbLine
 10
-988.37677155593
 20
-20.19542727380568
 30
0.0
 11
-415.3767715559293
 21
-20.19542727380568
 31
0.0
  0
LINE
  5
106
330
1F
100
AcDbEntity
  8
0-0
  6
JWW_DASHED1
 62
   120
370
     5
100
AcDbLine
 10
-988.37677155593
 20
-19.19542727390549
 30
0.0
 11
-415.3767715559293
 21
-19.19542727390549
 31
0.0
  0
LINE
  5
107
330
1F
100
AcDbEntity
  8
0-0
  6
JWW_DASHED1
 62
   120
370
     5
100
AcDbLine
 10
-988.37677155593
 20
-6.195427272805887
 30
0.0
 11
-415.3767715559293
 21
-6.195427272805887
 31
0.0
  0
LINE
  5
108
330
1F
100
AcDbEntity
  8
0-0
  6
JWW_DASHED1
 62
   120
370
     5
100
AcDbLine
 10
-988.37677155593
 20
-5.195427272905704
 30
0.0
 11
-415.3767715559293
 21
-5.195427272905704
 31
0.0
  0
LINE
  5
109
330
1F
100
AcDbEntity
  8
0-0
  6
JWW_DASHED1
 62
   120
370
     5
100
AcDbLine
 10
-988.37677155593
 20
7.804572728193904
 30
0.0
 11
-415.3767715559293
 21
7.804572728193904
 31
0.0
  0
LINE
  5
10A
330
1F
100
AcDbEntity
  8
0-0
  6
JWW_DASHED1
 62
   120
370
     5
100
AcDbLine
 10
-988.37677155593
 20
8.804572728094087
 30
0.0
 11
-415.3767715559293
 21
8.804572728094087
 31
0.0
  0
LINE
  5
10B
330
1F
100
AcDbEntity
  8
0-0
  6
JWW_DASHED1
 62
   120
370
     5
100
AcDbLine
 10
-988.37677155593
 20
21.80457272919369
 30
0.0
 11
-415.3767715559293
 21
21.80457272919369
 31
0.0
  0
LINE
  5
10C
330
1F
100
AcDbEntity
  8
0-0
  6
JWW_DASHED1
 62
   120
370
     5
100
AcDbLine
 10
-988.37677155593
 20
22.80457272909388
 30
0.0
 11
-415.3767715559293
 21
22.80457272909388
 31
0.0
  0
LINE
  5
10D
330
1F
100
AcDbEntity
  8
0-0
  6
JWW_DASHED1
 62
   120
370
     5
100
AcDbLine
 10
-988.37677155593
 20
35.80457273019348
 30
0.0
 11
-415.3767715559293
 21
35.80457273019348
 31
0.0
  0
LINE
  5
10E
330
1F
100
AcDbEntity
  8
0-0
  6
JWW_DASHED1
 62
   120
370
     5
100
AcDbLine
 10
-988.37677155593
 20
36.80457273009367
 30
0.0
 11
-415.3767715559293
 21
36.80457273009367
 31
0.0
  0
LINE
  5
10F
330
1F
100
AcDbEntity
  8
0-0
  6
JWW_DASHED1
 62
   120
370
     5
100
AcDbLine
 10
-988.37677155593
 20
49.80457273119328
 30
0.0
 11
-415.3767715559293
 21
49.80457273119328
 31
0.0
  0
LINE
  5
110
330
1F
100
AcDbEntity
  8
0-0
  6
JWW_DASHED1
 62
   120
370
     5
100
AcDbLine
 10
-988.37677155593
 20
50.80457273109346
 30
0.0
 11
-415.3767715559293
 21
50.80457273109346
 31
0.0
  0
LINE
  5
111
330
1F
100
AcDbEntity
  8
0-0
  6
JWW_DASHED1
 62
   120
370
     5
100
AcDbLine
 10
-988.37677155593
 20
63.80457273219307
 30
0.0
 11
-415.3767715559293
 21
63.80457273219307
 31
0.0
  0
LINE
  5
112
330
1F
100
AcDbEntity
  8
0-0
  6
JWW_DASHED1
 62
   120
370
     5
100
AcDbLine
 10
-988.37677155593
 20
64.80457273209325
 30
0.0
 11
-415.3767715559293
 21
64.80457273209325
 31
0.0
  0
LINE
  5
113
330
1F
100
AcDbEntity
  8
0-0
  6
JWW_DASHED1
 62
   120
370
     5
100
AcDbLine
 10
-988.37677155593
 20
77.80457273319274
 30
0.0
 11
-415.3767715559293
 21
77.80457273319274
 31
0.0
  0
LINE
  5
114
330
1F
100
AcDbEntity
  8
0-0
  6
JWW_DASHED1
 62
   120
370
     5
100
AcDbLine
 10
-988.37677155593
 20
78.80457273309293
 30
0.0
 11
-415.3767715559293
 21
78.80457273309293
 31
0.0
  0
LINE
  5
115
330
1F
100
AcDbEntity
  8
0-0
  6
JWW_DASHED1
 62
   120
370
     5
100
AcDbLine
 10
-988.37677155593
 20
91.80457273419265
 30
0.0
 11
-415.3767715559293
 21
91.80457273419265
 31
0.0
  0
LINE
  5
116
330
1F
100
AcDbEntity
  8
0-0
  6
JWW_DASHED1
 62
   120
370
     5
100
AcDbLine
 10
-988.37677155593
 20
92.80457273409283
 30
0.0
 11
-415.3767715559293
 21
92.80457273409283
 31
0.0
  0
LINE
  5
117
330
1F
100
AcDbEntity
  8
0-0
  6
JWW_DASHED1
 62
   120
370
     5
100
AcDbLine
 10
-988.37677155593
 20
105.8045727351924
 30
0.0
 11
-415.3767715559293
 21
105.8045727351924
 31
0.0
  0
LINE
  5
118
330
1F
100
AcDbEntity
  8
0-0
  6
JWW_DASHED1
 62
   120
370
     5
100
AcDbLine
 10
-988.37677155593
 20
106.8045727350926
 30
0.0
 11
-415.3767715559293
 21
106.8045727350926
 31
0.0
  0
LINE
  5
119
330
1F
100
AcDbEntity
  8
0-0
  6
JWW_DASHED1
 62
   120
370
     5
100
AcDbLine
 10
-988.37677155593
 20
119.8045727361922
 30
0.0
 11
-415.3767715559293
 21
119.8045727361922
 31
0.0
  0
LINE
  5
11A
330
1F
100
AcDbEntity
  8
0-0
  6
JWW_DASHED1
 62
   120
370
     5
100
AcDbLine
 10
-988.37677155593
 20
120.8045727360924
 30
0.0
 11
-415.3767715559293
 21
120.8045727360924
 31
0.0
  0
LINE
  5
11B
330
1F
100
AcDbEntity
  8
0-0
  6
JWW_DASHED1
 62
   120
370
     5
100
AcDbLine
 10
-988.37677155593
 20
133.804572737192
 30
0.0
 11
-415.3767715559293
 21
133.804572737192
 31
0.0
  0
LINE
  5
11C
330
1F
100
AcDbEntity
  8
0-0
  6
JWW_DASHED1
 62
   120
370
     5
100
AcDbLine
 10
-988.37677155593
 20
134.8045727370922
 30
0.0
 11
-415.3767715559293
 21
134.8045727370922
 31
0.0
  0
LINE
  5
11D
330
1F
100
AcDbEntity
  8
0-0
  6
JWW_DASHED1
 62
   120
370
     5
100
AcDbLine
 10
-988.37677155593
 20
147.8045727381918
 30
0.0
 11
-415.3767715559293
 21
147.8045727381918
 31
0.0
  0
LINE
  5
11E
330
1F
100
AcDbEntity
  8
0-0
  6
JWW_DASHED1
 62
   120
370
     5
100
AcDbLine
 10
-988.37677155593
 20
148.804572738092
 30
0.0
 11
-415.3767715559293
 21
148.804572738092
 31
0.0
  0
LINE
  5
11F
330
1F
100
AcDbEntity
  8
0-0
  6
JWW_DASHED1
 62
   120
370
     5
100
AcDbLine
 10
-988.37677155593
 20
161.8045727391916
 30
0.0
 11
-415.3767715559293
 21
161.8045727391916
 31
0.0
  0
LINE
  5
120
330
1F
100
AcDbEntity
  8
0-0
  6
JWW_DASHED1
 62
   120
370
     5
100
AcDbLine
 10
-988.37677155593
 20
162.8045727390918
 30
0.0
 11
-415.3767715559293
 21
162.8045727390918
 31
0.0
  0
LINE
  5
121
330
1F
100
AcDbEntity
  8
0-0
  6
JWW_DASHED1
 62
   120
370
     5
100
AcDbLine
 10
-988.37677155593
 20
175.8045727401914
 30
0.0
 11
-415.3767715559293
 21
175.8045727401914
 31
0.0
  0
LINE
  5
122
330
1F
100
AcDbEntity
  8
0-0
  6
JWW_DASHED1
 62
   120
370
     5
100
AcDbLine
 10
-988.37677155593
 20
176.8045727400916
 30
0.0
 11
-415.3767715559293
 21
176.8045727400916
 31
0.0
  0
LINE
  5
123
330
1F
100
AcDbEntity
  8
0-0
  6
JWW_DASHED1
 62
   120
370
     5
100
AcDbLine
 10
-988.37677155593
 20
189.8045727411912
 30
0.0
 11
-415.3767715559293
 21
189.8045727411912
 31
0.0
  0
LINE
  5
124
330
1F
100
AcDbEntity
  8
0-0
  6
JWW_DASHED1
 62
   120
370
     5
100
AcDbLine
 10
-988.37677155593
 20
190.8045727410914
 30
0.0
 11
-415.3767715559293
 21
190.8045727410914
 31
0.0
  0
LINE
  5
125
330
1F
100
AcDbEntity
  8
0-0
  6
JWW_DASHED1
 62
   120
370
     5
100
AcDbLine
 10
-988.37677155593
 20
203.804572742191
 30
0.0
 11
-415.3767715559293
 21
203.804572742191
 31
0.0
  0
LINE
  5
126
330
1F
100
AcDbEntity
  8
0-0
  6
JWW_DASHED1
 62
   120
370
     5
100
AcDbLine
 10
-988.37677155593
 20
204.8045727420912
 30
0.0
 11
-415.3767715559293
 21
204.8045727420912
 31
0.0
  0
LINE
  5
127
330
1F
100
AcDbEntity
  8
0-0
  6
JWW_DASHED1
 62
   120
370
     5
100
AcDbLine
 10
-988.37677155593
 20
217.8045727431905
 30
0.0
 11
-415.3767715559293
 21
217.8045727431905
 31
0.0
  0
LINE
  5
128
330
1F
100
AcDbEntity
  8
0-0
  6
JWW_DASHED1
 62
   120
370
     5
100
AcDbLine
 10
-988.37677155593
 20
218.8045727430909
 30
0.0
 11
-415.3767715559293
 21
218.8045727430909
 31
0.0
  0
LINE
  5
129
330
1F
100
AcDbEntity
  8
0-0
  6
JWW_DASHED1
 62
   120
370
     5
100
AcDbLine
 10
-988.37677155593
 20
231.8045727441906
 30
0.0
 11
-415.3767715559293
 21
231.8045727441906
 31
0.0
  0
LINE
  5
12A
330
1F
100
AcDbEntity
  8
0-0
  6
JWW_DASHED1
 62
   120
370
     5
100
AcDbLine
 10
-988.37677155593
 20
232.8045727440907
 30
0.0
 11
-415.3767715559293
 21
232.8045727440907
 31
0.0
  0
LINE
  5
12B
330
1F
100
AcDbEntity
  8
0-0
  6
JWW_DASHED1
 62
   120
370
     5
100
AcDbLine
 10
-988.37677155593
 20
245.8045727451903
 30
0.0
 11
-415.3767715559293
 21
245.8045727451903
 31
0.0
  0
LINE
  5
12C
330
1F
100
AcDbEntity
  8
0-0
  6
JWW_DASHED1
 62
   120
370
     5
100
AcDbLine
 10
-988.37677155593
 20
246.8045727450905
 30
0.0
 11
-415.3767715559293
 21
246.8045727450905
 31
0.0
  0
LINE
  5
12D
330
1F
100
AcDbEntity
  8
0-0
  6
JWW_DASHED1
 62
   120
370
     5
100
AcDbLine
 10
-988.37677155593
 20
259.8045727461902
 30
0.0
 11
-415.3767715559293
 21
259.8045727461902
 31
0.0
  0
LINE
  5
12E
330
1F
100
AcDbEntity
  8
0-0
  6
JWW_DASHED1
 62
   120
370
     5
100
AcDbLine
 10
-988.37677155593
 20
260.8045727460903
 30
0.0
 11
-415.3767715559293
 21
260.8045727460903
 31
0.0
  0
LINE
  5
12F
330
1F
100
AcDbEntity
  8
0-0
  6
JWW_DASHED1
 62
   120
370
     5
100
AcDbLine
 10
-988.37677155593
 20
273.8045727471899
 30
0.0
 11
-415.3767715559293
 21
273.8045727471899
 31
0.0
  0
LINE
  5
130
330
1F
100
AcDbEntity
  8
0-0
  6
JWW_DASHED1
 62
   120
370
     5
100
AcDbLine
 10
-988.37677155593
 20
274.8045727470901
 30
0.0
 11
-415.3767715559293
 21
274.8045727470901
 31
0.0
  0
LINE
  5
131
330
1F
100
AcDbEntity
  8
0-0
  6
JWW_DASHED1
 62
   120
370
     5
100
AcDbLine
 10
-988.37677155593
 20
287.8045727481897
 30
0.0
 11
-415.3767715559293
 21
287.8045727481897
 31
0.0
  0
LINE
  5
132
330
1F
100
AcDbEntity
  8
0-0
  6
JWW_DASHED1
 62
   120
370
     5
100
AcDbLine
 10
-988.37677155593
 20
288.8045727480899
 30
0.0
 11
-415.3767715559293
 21
288.8045727480899
 31
0.0
  0
LINE
  5
133
330
1F
100
AcDbEntity
  8
0-0
  6
JWW_DASHED1
 62
   120
370
     5
100
AcDbLine
 10
-988.37677155593
 20
301.8045727491895
 30
0.0
 11
-415.3767715559293
 21
301.8045727491895
 31
0.0
  0
LINE
  5
134
330
1F
100
AcDbEntity
  8
0-0
  6
JWW_DASHED1
 62
   120
370
     5
100
AcDbLine
 10
-988.37677155593
 20
302.8045727490897
 30
0.0
 11
-415.3767715559293
 21
302.8045727490897
 31
0.0
  0
LINE
  5
135
330
1F
100
AcDbEntity
  8
0-0
  6
JWW_DASHED1
 62
   120
370
     5
100
AcDbLine
 10
-988.37677155593
 20
315.8045727501893
 30
0.0
 11
-415.3767715559293
 21
315.8045727501893
 31
0.0
  0
LINE
  5
136
330
1F
100
AcDbEntity
  8
0-0
  6
JWW_DASHED1
 62
   120
370
     5
100
AcDbLine
 10
-988.37677155593
 20
316.8045727500895
 30
0.0
 11
-415.3767715559293
 21
316.8045727500895
 31
0.0
  0
LINE
  5
137
330
1F
100
AcDbEntity
  8
0-0
  6
JWW_DASHED1
 62
   120
370
     5
100
AcDbLine
 10
-988.37677155593
 20
329.8045727511891
 30
0.0
 11
-415.3767715559293
 21
329.8045727511891
 31
0.0
  0
LINE
  5
138
330
1F
100
AcDbEntity
  8
0-0
  6
JWW_DASHED1
 62
   120
370
     5
100
AcDbLine
 10
-988.37677155593
 20
330.804572751089
 30
0.0
 11
-415.3767715559293
 21
330.804572751089
 31
0.0
  0
LINE
  5
139
330
1F
100
AcDbEntity
  8
0-0
  6
JWW_DASHED1
 62
   120
370
     5
100
AcDbLine
 10
-988.37677155593
 20
343.8045727521888
 30
0.0
 11
-415.3767715559293
 21
343.8045727521888
 31
0.0
  0
LINE
  5
13A
330
1F
100
AcDbEntity
  8
0-0
  6
JWW_DASHED1
 62
   120
370
     5
100
AcDbLine
 10
-988.37677155593
 20
344.804572752089
 30
0.0
 11
-415.3767715559293
 21
344.804572752089
 31
0.0
  0
LINE
  5
13B
330
1F
100
AcDbEntity
  8
0-0
  6
JWW_DASHED1
 62
   120
370
     5
100
AcDbLine
 10
-988.37677155593
 20
357.8045727531887
 30
0.0
 11
-415.3767715559293
 21
357.8045727531887
 31
0.0
  0
LINE
  5
13C
330
1F
100
AcDbEntity
  8
0-0
  6
JWW_DASHED1
 62
   120
370
     5
100
AcDbLine
 10
-988.37677155593
 20
358.8045727530888
 30
0.0
 11
-415.3767715559293
 21
358.8045727530888
 31
0.0
  0
LINE
  5
13D
330
1F
100
AcDbEntity
  8
0-0
  6
JWW_DASHED1
 62
   120
370
     5
100
AcDbLine
 10
-988.37677155593
 20
371.8045727541885
 30
0.0
 11
-415.3767715559293
 21
371.8045727541885
 31
0.0
  0
LINE
  5
13E
330
1F
100
AcDbEntity
  8
0-0
  6
JWW_DASHED1
 62
   120
370
     5
100
AcDbLine
 10
-988.37677155593
 20
372.8045727540887
 30
0.0
 11
-415.3767715559293
 21
372.8045727540887
 31
0.0
  0
LINE
  5
13F
330
1F
100
AcDbEntity
  8
0-0
  6
JWW_DASHED1
 62
   120
370
     5
100
AcDbLine
 10
-988.37677155593
 20
385.8045727551882
 30
0.0
 11
-415.3767715559293
 21
385.8045727551882
 31
0.0
  0
LINE
  5
140
330
1F
100
AcDbEntity
  8
0-0
  6
JWW_DASHED1
 62
   120
370
     5
100
AcDbLine
 10
-988.37677155593
 20
386.8045727550884
 30
0.0
 11
-415.3767715559293
 21
386.8045727550884
 31
0.0
  0
LINE
  5
141
330
1F
100
AcDbEntity
  8
0-0
  6
JWW_DASHED1
 62
   120
370
     5
100
AcDbLine
 10
-988.37677155593
 20
399.804572756188
 30
0.0
 11
-415.3767715559293
 21
399.804572756188
 31
0.0
  0
LINE
  5
142
330
1F
100
AcDbEntity
  8
0-0
  6
JWW_DASHED1
 62
   120
370
     5
100
AcDbLine
 10
-988.37677155593
 20
400.8045727560882
 30
0.0
 11
-415.3767715559293
 21
400.8045727560882
 31
0.0
  0
LINE
  5
143
330
1F
100
AcDbEntity
  8
0-0
  6
JWW_DASHED1
 62
   120
370
     5
100
AcDbLine
 10
-988.37677155593
 20
413.8045727571878
 30
0.0
 11
-415.3767715559293
 21
413.8045727571878
 31
0.0
  0
LINE
  5
144
330
1F
100
AcDbEntity
  8
0-0
  6
JWW_DASHED1
 62
   120
370
     5
100
AcDbLine
 10
-988.37677155593
 20
414.804572757088
 30
0.0
 11
-415.3767715559293
 21
414.804572757088
 31
0.0
  0
LINE
  5
145
330
1F
100
AcDbEntity
  8
0-0
  6
JWW_DASHED1
 62
   120
370
     5
100
AcDbLine
 10
-988.37677155593
 20
427.8045727581876
 30
0.0
 11
-415.3767715559293
 21
427.8045727581876
 31
0.0
  0
LINE
  5
146
330
1F
100
AcDbEntity
  8
0-0
  6
JWW_DASHED1
 62
   120
370
     5
100
AcDbLine
 10
-988.37677155593
 20
428.8045727580878
 30
0.0
 11
-415.3767715559293
 21
428.8045727580878
 31
0.0
  0
LINE
  5
147
330
1F
100
AcDbEntity
  8
0-0
  6
JWW_DASHED1
 62
   120
370
     5
100
AcDbLine
 10
-988.37677155593
 20
441.8045727591872
 30
0.0
 11
-415.3767715559293
 21
441.8045727591872
 31
0.0
  0
LINE
  5
148
330
1F
100
AcDbEntity
  8
0-0
  6
JWW_DASHED1
 62
   120
370
     5
100
AcDbLine
 10
-988.37677155593
 20
442.8045727590876
 30
0.0
 11
-415.3767715559293
 21
442.8045727590876
 31
0.0
  0
LINE
  5
149
330
1F
100
AcDbEntity
  8
0-0
  6
JWW_DASHED1
 62
   120
370
     5
100
AcDbLine
 10
-988.37677155593
 20
455.8045727601872
 30
0.0
 11
-415.3767715559293
 21
455.8045727601872
 31
0.0
  0
LINE
  5
14A
330
1F
100
AcDbEntity
  8
0-0
  6
JWW_DASHED1
 62
   120
370
     5
100
AcDbLine
 10
-988.37677155593
 20
456.8045727600874
 30
0.0
 11
-415.3767715559293
 21
456.8045727600874
 31
0.0
  0
LINE
  5
14B
330
1F
100
AcDbEntity
  8
0-0
  6
JWW_DASHED1
 62
   120
370
     5
100
AcDbLine
 10
-988.37677155593
 20
469.804572761187
 30
0.0
 11
-415.3767715559293
 21
469.804572761187
 31
0.0
  0
LINE
  5
14C
330
1F
100
AcDbEntity
  8
0-0
  6
JWW_DASHED1
 62
   120
370
     5
100
AcDbLine
 10
-988.37677155593
 20
470.8045727610872
 30
0.0
 11
-415.3767715559293
 21
470.8045727610872
 31
0.0
  0
LINE
  5
14D
330
1F
100
AcDbEntity
  8
0-0
  6
JWW_DASHED1
 62
   120
370
     5
100
AcDbLine
 10
-988.37677155593
 20
483.8045727621868
 30
0.0
 11
-415.3767715559293
 21
483.8045727621868
 31
0.0
  0
LINE
  5
14E
330
1F
100
AcDbEntity
  8
0-0
  6
JWW_DASHED1
 62
   120
370
     5
100
AcDbLine
 10
-988.37677155593
 20
484.804572762087
 30
0.0
 11
-415.3767715559293
 21
484.804572762087
 31
0.0
  0
LINE
  5
14F
330
1F
100
AcDbEntity
  8
0-0
  6
JWW_DASHED1
 62
   120
370
     5
100
AcDbLine
 10
-988.37677155593
 20
497.8045727631866
 30
0.0
 11
-415.3767715559293
 21
497.8045727631866
 31
0.0
  0
LINE
  5
150
330
1F
100
AcDbEntity
  8
0-0
  6
JWW_DASHED1
 62
   120
370
     5
100
AcDbLine
 10
-988.37677155593
 20
498.8045727630868
 30
0.0
 11
-415.3767715559293
 21
498.8045727630868
 31
0.0
  0
LINE
  5
151
330
1F
100
AcDbEntity
  8
0-0
  6
JWW_DASHED1
 62
   120
370
     5
100
AcDbLine
 10
-988.37677155593
 20
511.8045727641863
 30
0.0
 11
-415.3767715559293
 21
511.8045727641863
 31
0.0
  0
LINE
  5
152
330
1F
100
AcDbEntity
  8
0-0
  6
JWW_DASHED1
 62
   120
370
     5
100
AcDbLine
 10
-988.37677155593
 20
512.8045727640865
 30
0.0
 11
-415.3767715559293
 21
512.8045727640865
 31
0.0
  0
LINE
  5
153
330
1F
100
AcDbEntity
  8
0-0
  6
JWW_DASHED1
 62
   120
370
     5
100
AcDbLine
 10
-988.37677155593
 20
525.8045727651861
 30
0.0
 11
-415.3767715559293
 21
525.8045727651861
 31
0.0
  0
LINE
  5
154
330
1F
100
AcDbEntity
  8
0-0
  6
JWW_DASHED1
 62
   120
370
     5
100
AcDbLine
 10
-988.37677155593
 20
526.8045727650863
 30
0.0
 11
-415.3767715559293
 21
526.8045727650863
 31
0.0
  0
LINE
  5
155
330
1F
100
AcDbEntity
  8
0-0
  6
JWW_DASHED1
 62
   120
370
     5
100
AcDbLine
 10
-988.37677155593
 20
539.804572766186
 30
0.0
 11
-415.3767715559293
 21
539.804572766186
 31
0.0
  0
LINE
  5
156
330
1F
100
AcDbEntity
  8
0-0
  6
JWW_DASHED1
 62
   120
370
     5
100
AcDbLine
 10
-988.37677155593
 20
540.8045727660862
 30
0.0
 11
-415.3767715559293
 21
540.8045727660862
 31
0.0
  0
LINE
  5
157
330
1F
100
AcDbEntity
  8
0-0
  6
JWW_DASHED1
 62
   120
370
     5
100
AcDbLine
 10
-988.37677155593
 20
553.8045727671857
 30
0.0
 11
-415.3767715559293
 21
553.8045727671857
 31
0.0
  0
LINE
  5
158
330
1F
100
AcDbEntity
  8
0-0
  6
JWW_DASHED1
 62
   120
370
     5
100
AcDbLine
 10
-988.37677155593
 20
554.8045727670857
 30
0.0
 11
-415.3767715559293
 21
554.8045727670857
 31
0.0
  0
LINE
  5
159
330
1F
100
AcDbEntity
  8
0-0
  6
JWW_DASHED1
 62
   120
370
     5
100
AcDbLine
 10
-988.37677155593
 20
567.8045727681855
 30
0.0
 11
-415.3767715559293
 21
567.8045727681855
 31
0.0
  0
LINE
  5
15A
330
1F
100
AcDbEntity
  8
0-0
  6
JWW_DASHED1
 62
   120
370
     5
100
AcDbLine
 10
-988.37677155593
 20
568.8045727680857
 30
0.0
 11
-415.3767715559293
 21
568.8045727680857
 31
0.0
  0
LINE
  5
15B
330
1F
100
AcDbEntity
  8
0-0
  6
JWW_DASHED1
 62
   120
370
     5
100
AcDbLine
 10
-988.37677155593
 20
581.8045727691854
 30
0.0
 11
-415.3767715559293
 21
581.8045727691854
 31
0.0
  0
LINE
  5
15C
330
1F
100
AcDbEntity
  8
0-0
  6
JWW_DASHED1
 62
   120
370
     5
100
AcDbLine
 10
-988.37677155593
 20
582.8045727690856
 30
0.0
 11
-415.3767715559293
 21
582.8045727690856
 31
0.0
  0
LINE
  5
15D
330
1F
100
AcDbEntity
  8
0-0
  6
JWW_DASHED1
 62
   120
370
     5
100
AcDbLine
 10
-988.37677155593
 20
595.8045727701851
 30
0.0
 11
-415.3767715559293
 21
595.8045727701851
 31
0.0
  0
LINE
  5
15E
330
1F
100
AcDbEntity
  8
0-0
  6
JWW_DASHED1
 62
   120
370
     5
100
AcDbLine
 10
-988.37677155593
 20
596.8045727700853
 30
0.0
 11
-415.3767715559293
 21
596.8045727700853
 31
0.0
  0
LINE
  5
15F
330
1F
100
AcDbEntity
  8
0-0
  6
JWW_DASHED1
 62
   120
370
     5
100
AcDbLine
 10
-988.37677155593
 20
609.8045727711849
 30
0.0
 11
-415.3767715559293
 21
609.8045727711849
 31
0.0
  0
LINE
  5
160
330
1F
100
AcDbEntity
  8
0-0
  6
JWW_DASHED1
 62
   120
370
     5
100
AcDbLine
 10
-988.37677155593
 20
610.8045727710851
 30
0.0
 11
-415.3767715559293
 21
610.8045727710851
 31
0.0
  0
LINE
  5
161
330
1F
100
AcDbEntity
  8
0-0
  6
JWW_DASHED1
 62
   120
370
     5
100
AcDbLine
 10
-988.37677155593
 20
623.8045727721847
 30
0.0
 11
-415.3767715559293
 21
623.8045727721847
 31
0.0
  0
LINE
  5
162
330
1F
100
AcDbEntity
  8
0-0
  6
JWW_DASHED1
 62
   120
370
     5
100
AcDbLine
 10
-988.37677155593
 20
624.8045727720848
 30
0.0
 11
-415.3767715559293
 21
624.8045727720848
 31
0.0
  0
LINE
  5
163
330
1F
100
AcDbEntity
  8
0-0
  6
JWW_DASHED1
 62
   120
370
     5
100
AcDbLine
 10
-988.37677155593
 20
637.8045727731844
 30
0.0
 11
-415.3767715559293
 21
637.8045727731844
 31
0.0
  0
LINE
  5
164
330
1F
100
AcDbEntity
  8
0-0
  6
JWW_DASHED1
 62
   120
370
     5
100
AcDbLine
 10
-988.37677155593
 20
638.8045727730846
 30
0.0
 11
-415.3767715559293
 21
638.8045727730846
 31
0.0
  0
LINE
  5
165
330
1F
100
AcDbEntity
  8
0-0
  6
JWW_DASHED1
 62
   120
370
     5
100
AcDbLine
 10
-988.37677155593
 20
651.8045727741843
 30
0.0
 11
-415.3767715559293
 21
651.8045727741843
 31
0.0
  0
LINE
  5
166
330
1F
100
AcDbEntity
  8
0-0
  6
JWW_DASHED1
 62
   120
370
     5
100
AcDbLine
 10
-988.37677155593
 20
652.8045727740845
 30
0.0
 11
-415.3767715559293
 21
652.8045727740845
 31
0.0
  0
LINE
  5
167
330
1F
100
AcDbEntity
  8
0-0
  6
JWW_DASHED1
 62
   120
370
     5
100
AcDbLine
 10
-988.37677155593
 20
665.8045727751838
 30
0.0
 11
-415.3767715559293
 21
665.8045727751838
 31
0.0
  0
LINE
  5
168
330
1F
100
AcDbEntity
  8
0-0
  6
JWW_DASHED1
 62
   120
370
     5
100
AcDbLine
 10
-988.37677155593
 20
666.8045727750842
 30
0.0
 11
-415.3767715559293
 21
666.8045727750842
 31
0.0
  0
LINE
  5
169
330
1F
100
AcDbEntity
  8
0-0
  6
JWW_DASHED1
 62
   120
370
     5
100
AcDbLine
 10
-988.37677155593
 20
679.8045727761838
 30
0.0
 11
-415.3767715559293
 21
679.8045727761838
 31
0.0
  0
LINE
  5
16A
330
1F
100
AcDbEntity
  8
0-0
  6
JWW_DASHED1
 62
   120
370
     5
100
AcDbLine
 10
-988.37677155593
 20
680.804572776084
 30
0.0
 11
-415.3767715559293
 21
680.804572776084
 31
0.0
  0
LINE
  5
16B
330
1F
100
AcDbEntity
  8
0-0
  6
JWW_DASHED1
 62
   120
370
     5
100
AcDbLine
 10
-988.37677155593
 20
693.8045727771837
 30
0.0
 11
-415.3767715559293
 21
693.8045727771837
 31
0.0
  0
LINE
  5
16C
330
1F
100
AcDbEntity
  8
0-0
  6
JWW_DASHED1
 62
   120
370
     5
100
AcDbLine
 10
-988.37677155593
 20
694.8045727770839
 30
0.0
 11
-415.3767715559293
 21
694.8045727770839
 31
0.0
  0
LINE
  5
16D
330
1F
100
AcDbEntity
  8
0-0
  6
JWW_DASHED1
 62
   120
370
     5
100
AcDbLine
 10
-988.37677155593
 20
707.8045727781835
 30
0.0
 11
-415.3767715559293
 21
707.8045727781835
 31
0.0
  0
LINE
  5
16E
330
1F
100
AcDbEntity
  8
0-0
  6
JWW_DASHED1
 62
   120
370
     5
100
AcDbLine
 10
-988.37677155593
 20
708.8045727780836
 30
0.0
 11
-415.3767715559293
 21
708.8045727780836
 31
0.0
  0
LINE
  5
16F
330
1F
100
AcDbEntity
  8
0-0
  6
JWW_DASHED1
 62
   120
370
     5
100
AcDbLine
 10
-988.37677155593
 20
721.8045727791832
 30
0.0
 11
-415.3767715559293
 21
721.8045727791832
 31
0.0
  0
LINE
  5
170
330
1F
100
AcDbEntity
  8
0-0
  6
JWW_DASHED1
 62
   120
370
     5
100
AcDbLine
 10
-988.37677155593
 20
722.8045727790834
 30
0.0
 11
-415.3767715559293
 21
722.8045727790834
 31
0.0
  0
LINE
  5
171
330
1F
100
AcDbEntity
  8
0-0
  6
JWW_DASHED1
 62
   120
370
     5
100
AcDbLine
 10
-988.37677155593
 20
735.804572780183
 30
0.0
 11
-415.3767715559293
 21
735.804572780183
 31
0.0
  0
LINE
  5
172
330
1F
100
AcDbEntity
  8
0-0
  6
JWW_DASHED1
 62
   120
370
     5
100
AcDbLine
 10
-988.37677155593
 20
736.8045727800832
 30
0.0
 11
-415.3767715559293
 21
736.8045727800832
 31
0.0
  0
LINE
  5
173
330
1F
100
AcDbEntity
  8
0-0
  6
JWW_DASHED1
 62
   120
370
     5
100
AcDbLine
 10
-988.37677155593
 20
749.8045727811827
 30
0.0
 11
-415.3767715559293
 21
749.8045727811827
 31
0.0
  0
LINE
  5
174
330
1F
100
AcDbEntity
  8
0-0
  6
JWW_DASHED1
 62
   120
370
     5
100
AcDbLine
 10
-988.37677155593
 20
750.8045727810829
 30
0.0
 11
-415.3767715559293
 21
750.8045727810829
 31
0.0
  0
LINE
  5
175
330
1F
100
AcDbEntity
  8
0-0
  6
JWW_DASHED1
 62
   120
370
     5
100
AcDbLine
 10
-988.37677155593
 20
763.8045727821824
 30
0.0
 11
-415.3767715559293
 21
763.8045727821824
 31
0.0
  0
LINE
  5
176
330
1F
100
AcDbEntity
  8
0-0
  6
JWW_DASHED1
 62
   120
370
     5
100
AcDbLine
 10
-988.37677155593
 20
764.8045727820826
 30
0.0
 11
-415.3767715559293
 21
764.8045727820826
 31
0.0
  0
LINE
  5
177
330
1F
100
AcDbEntity
  8
0-0
  6
JWW_DASHED1
 62
   120
370
     5
100
AcDbLine
 10
-988.37677155593
 20
777.8045727831824
 30
0.0
 11
-415.3767715559293
 21
777.8045727831824
 31
0.0
  0
LINE
  5
178
330
1F
100
AcDbEntity
  8
0-0
  6
JWW_DASHED1
 62
   120
370
     5
100
AcDbLine
 10
-988.37677155593
 20
778.8045727830823
 30
0.0
 11
-415.3767715559293
 21
778.8045727830823
 31
0.0
  0
LINE
  5
179
330
1F
100
AcDbEntity
  8
0-0
  6
JWW_DASHED1
 62
   120
370
     5
100
AcDbLine
 10
-988.37677155593
 20
791.8045727841821
 30
0.0
 11
-415.3767715559293
 21
791.8045727841821
 31
0.0
  0
LINE
  5
17A
330
1F
100
AcDbEntity
  8
0-0
  6
JWW_DASHED1
 62
   120
370
     5
100
AcDbLine
 10
-988.37677155593
 20
792.8045727840823
 30
0.0
 11
-415.3767715559293
 21
792.8045727840823
 31
0.0
  0
LINE
  5
17B
330
1F
100
AcDbEntity
  8
0-0
  6
JWW_DASHED1
 62
   120
370
     5
100
AcDbLine
 10
-988.37677155593
 20
805.804572785182
 30
0.0
 11
-415.3767715559293
 21
805.804572785182
 31
0.0
  0
LINE
  5
17C
330
1F
100
AcDbEntity
  8
0-0
  6
JWW_DASHED1
 62
   120
370
     5
100
AcDbLine
 10
-988.37677155593
 20
806.8045727850822
 30
0.0
 11
-415.3767715559293
 21
806.8045727850822
 31
0.0
  0
LINE
  5
17D
330
1F
100
AcDbEntity
  8
0-0
  6
JWW_DASHED1
 62
   120
370
     5
100
AcDbLine
 10
-988.37677155593
 20
819.8045727861818
 30
0.0
 11
-415.3767715559293
 21
819.8045727861818
 31
0.0
  0
LINE
  5
17E
330
1F
100
AcDbEntity
  8
0-0
  6
JWW_DASHED1
 62
   120
370
     5
100
AcDbLine
 10
-988.37677155593
 20
820.804572786082
 30
0.0
 11
-415.3767715559293
 21
820.804572786082
 31
0.0
  0
LINE
  5
17F
330
1F
100
AcDbEntity
  8
0-0
  6
JWW_DASHED1
 62
   120
370
     5
100
AcDbLine
 10
-988.37677155593
 20
833.8045727871815
 30
0.0
 11
-415.3767715559293
 21
833.8045727871815
 31
0.0
  0
LINE
  5
180
330
1F
100
AcDbEntity
  8
0-0
  6
JWW_DASHED1
 62
   120
370
     5
100
AcDbLine
 10
-988.37677155593
 20
834.8045727870817
 30
0.0
 11
-415.3767715559293
 21
834.8045727870817
 31
0.0
  0
LINE
  5
181
330
1F
100
AcDbEntity
  8
0-0
  6
JWW_DASHED1
 62
   120
370
     5
100
AcDbLine
 10
-988.37677155593
 20
847.8045727881813
 30
0.0
 11
-415.3767715559293
 21
847.8045727881813
 31
0.0
  0
LINE
  5
182
330
1F
100
AcDbEntity
  8
0-0
  6
JWW_DASHED1
 62
   120
370
     5
100
AcDbLine
 10
-988.37677155593
 20
848.8045727880815
 30
0.0
 11
-415.3767715559293
 21
848.8045727880815
 31
0.0
  0
LINE
  5
183
330
1F
100
AcDbEntity
  8
0-0
  6
JWW_DASHED1
 62
   120
370
     5
100
AcDbLine
 10
-988.37677155593
 20
861.8045727891811
 30
0.0
 11
-415.3767715559293
 21
861.8045727891811
 31
0.0
  0
LINE
  5
184
330
1F
100
AcDbEntity
  8
0-0
  6
JWW_DASHED1
 62
   120
370
     5
100
AcDbLine
 10
-988.37677155593
 20
862.8045727890812
 30
0.0
 11
-415.3767715559293
 21
862.8045727890812
 31
0.0
  0
LINE
  5
185
330
1F
100
AcDbEntity
  8
0-0
  6
JWW_DASHED1
 62
   120
370
     5
100
AcDbLine
 10
-988.37677155593
 20
875.8045727901807
 30
0.0
 11
-415.3767715559293
 21
875.8045727901807
 31
0.0
  0
LINE
  5
186
330
1F
100
AcDbEntity
  8
0-0
  6
JWW_DASHED1
 62
   120
370
     5
100
AcDbLine
 10
-988.37677155593
 20
876.8045727900809
 30
0.0
 11
-415.3767715559293
 21
876.8045727900809
 31
0.0
  0
LINE
  5
187
330
1F
100
AcDbEntity
  8
0-0
  6
JWW_DASHED1
 62
   120
370
     5
100
AcDbLine
 10
-988.37677155593
 20
889.8045727911805
 30
0.0
 11
-415.3767715559293
 21
889.8045727911805
 31
0.0
  0
LINE
  5
188
330
1F
100
AcDbEntity
  8
0-0
  6
JWW_DASHED1
 62
   120
370
     5
100
AcDbLine
 10
-988.37677155593
 20
890.8045727910809
 30
0.0
 11
-415.3767715559293
 21
890.8045727910809
 31
0.0
  0
LINE
  5
189
330
1F
100
AcDbEntity
  8
0-0
  6
JWW_DASHED1
 62
   120
370
     5
100
AcDbLine
 10
-988.37677155593
 20
903.8045727921805
 30
0.0
 11
-415.3767715559293
 21
903.8045727921805
 31
0.0
  0
LINE
  5
18A
330
1F
100
AcDbEntity
  8
0-0
  6
JWW_DASHED1
 62
   120
370
     5
100
AcDbLine
 10
-988.37677155593
 20
904.8045727920806
 30
0.0
 11
-415.3767715559293
 21
904.8045727920806
 31
0.0
  0
LINE
  5
18B
330
1F
100
AcDbEntity
  8
0-0
  6
JWW_DASHED1
 62
   120
370
     5
100
AcDbLine
 10
-988.37677155593
 20
917.8045727931803
 30
0.0
 11
-415.3767715559293
 21
917.8045727931803
 31
0.0
  0
LINE
  5
18C
330
1F
100
AcDbEntity
  8
0-0
  6
JWW_DASHED1
 62
   120
370
     5
100
AcDbLine
 10
-988.37677155593
 20
918.8045727930805
 30
0.0
 11
-415.3767715559293
 21
918.8045727930805
 31
0.0
  0
LINE
  5
18D
330
1F
100
AcDbEntity
  8
0-0
  6
JWW_DASHED1
 62
   120
370
     5
100
AcDbLine
 10
-988.37677155593
 20
931.8045727941801
 30
0.0
 11
-415.3767715559293
 21
931.8045727941801
 31
0.0
  0
LINE
  5
18E
330
1F
100
AcDbEntity
  8
0-0
  6
JWW_DASHED1
 62
   120
370
     5
100
AcDbLine
 10
-988.37677155593
 20
932.8045727940803
 30
0.0
 11
-415.3767715559293
 21
932.8045727940803
 31
0.0
  0
LINE
  5
18F
330
1F
100
AcDbEntity
  8
0-0
  6
JWW_DASHED1
 62
   120
370
     5
100
AcDbLine
 10
-988.37677155593
 20
945.8045727951799
 30
0.0
 11
-415.3767715559293
 21
945.8045727951799
 31
0.0
  0
LINE
  5
190
330
1F
100
AcDbEntity
  8
0-0
  6
JWW_DASHED1
 62
   120
370
     5
100
AcDbLine
 10
-988.37677155593
 20
946.80457279508
 30
0.0
 11
-415.3767715559293
 21
946.80457279508
 31
0.0
  0
LINE
  5
191
330
1F
100
AcDbEntity
  8
0-0
  6
JWW_DASHED1
 62
   120
370
     5
100
AcDbLine
 10
-982.3767530978982
 20
-160.1952789699599
 30
0.0
 11
-982.3767530978982
 21
1014.80472103004
 31
0.0
  0
LINE
  5
192
330
1F
100
AcDbEntity
  8
0-0
  6
JWW_DASHED1
 62
   120
370
     5
100
AcDbLine
 10
-449.3767530599974
 20
-160.1952789699599
 30
0.0
 11
-449.3767530599974
 21
1014.80472103004
 31
0.0
  0
LINE
  5
193
330
1F
100
AcDbEntity
  8
0-0
  6
JWW_DASHED1
 62
   120
370
     5
100
AcDbLine
 10
-450.3767530598976
 20
-160.1952789699599
 30
0.0
 11
-450.3767530598976
 21
1014.80472103004
 31
0.0
  0
LINE
  5
194
330
1F
100
AcDbEntity
  8
0-0
  6
JWW_DASHED1
 62
   120
370
     5
100
AcDbLine
 10
-463.3767530609977
 20
-160.1952789699599
 30
0.0
 11
-463.3767530609977
 21
1014.80472103004
 31
0.0
  0
LINE
  5
195
330
1F
100
AcDbEntity
  8
0-0
  6
JWW_DASHED1
 62
   120
370
     5
100
AcDbLine
 10
-464.3767530608978
 20
-160.1952789699599
 30
0.0
 11
-464.3767530608978
 21
1014.80472103004
 31
0.0
  0
LINE
  5
196
330
1F
100
AcDbEntity
  8
0-0
  6
JWW_DASHED1
 62
   120
370
     5
100
AcDbLine
 10
-477.3767530619979
 20
-160.1952789699599
 30
0.0
 11
-477.3767530619979
 21
1014.80472103004
 31
0.0
  0
LINE
  5
197
330
1F
100
AcDbEntity
  8
0-0
  6
JWW_DASHED1
 62
   120
370
     5
100
AcDbLine
 10
-478.3767530618981
 20
-160.1952789699599
 30
0.0
 11
-478.3767530618981
 21
1014.80472103004
 31
0.0
  0
LINE
  5
198
330
1F
100
AcDbEntity
  8
0-0
  6
JWW_DASHED1
 62
   120
370
     5
100
AcDbLine
 10
-491.3767530629981
 20
-160.1952789699599
 30
0.0
 11
-491.3767530629981
 21
1014.80472103004
 31
0.0
  0
LINE
  5
199
330
1F
100
AcDbEntity
  8
0-0
  6
JWW_DASHED1
 62
   120
370
     5
100
AcDbLine
 10
-492.3767530628983
 20
-160.1952789699599
 30
0.0
 11
-492.3767530628983
 21
1014.80472103004
 31
0.0
  0
LINE
  5
19A
330
1F
100
AcDbEntity
  8
0-0
  6
JWW_DASHED1
 62
   120
370
     5
100
AcDbLine
 10
-505.3767530639983
 20
-160.1952789699599
 30
0.0
 11
-505.3767530639983
 21
1014.80472103004
 31
0.0
  0
LINE
  5
19B
330
1F
100
AcDbEntity
  8
0-0
  6
JWW_DASHED1
 62
   120
370
     5
100
AcDbLine
 10
-506.3767530638985
 20
-160.1952789699599
 30
0.0
 11
-506.3767530638977
 21
1014.80472103004
 31
0.0
  0
LINE
  5
19C
330
1F
100
AcDbEntity
  8
0-0
  6
JWW_DASHED1
 62
   120
370
     5
100
AcDbLine
 10
-519.3767530649985
 20
-160.1952789699599
 30
0.0
 11
-519.3767530649977
 21
1014.80472103004
 31
0.0
  0
LINE
  5
19D
330
1F
100
AcDbEntity
  8
0-0
  6
JWW_DASHED1
 62
   120
370
     5
100
AcDbLine
 10
-520.3767530648979
 20
-160.1952789699599
 30
0.0
 11
-520.3767530648979
 21
1014.80472103004
 31
0.0
  0
LINE
  5
19E
330
1F
100
AcDbEntity
  8
0-0
  6
JWW_DASHED1
 62
   120
370
     5
100
AcDbLine
 10
-533.376753065998
 20
-160.1952789699599
 30
0.0
 11
-533.376753065998
 21
1014.80472103004
 31
0.0
  0
LINE
  5
19F
330
1F
100
AcDbEntity
  8
0-0
  6
JWW_DASHED1
 62
   120
370
     5
100
AcDbLine
 10
-534.3767530658981
 20
-160.1952789699599
 30
0.0
 11
-534.3767530658981
 21
1014.80472103004
 31
0.0
  0
LINE
  5
1A0
330
1F
100
AcDbEntity
  8
0-0
  6
JWW_DASHED1
 62
   120
370
     5
100
AcDbLine
 10
-547.3767530669973
 20
-160.1952789699599
 30
0.0
 11
-547.3767530669973
 21
1014.80472103004
 31
0.0
  0
LINE
  5
1A1
330
1F
100
AcDbEntity
  8
0-0
  6
JWW_DASHED1
 62
   120
370
     5
100
AcDbLine
 10
-548.3767530668974
 20
-160.1952789699599
 30
0.0
 11
-548.3767530668974
 21
1014.80472103004
 31
0.0
  0
LINE
  5
1A2
330
1F
100
AcDbEntity
  8
0-0
  6
JWW_DASHED1
 62
   120
370
     5
100
AcDbLine
 10
-561.3767530679975
 20
-160.1952789699599
 30
0.0
 11
-561.3767530679975
 21
1014.80472103004
 31
0.0
  0
LINE
  5
1A3
330
1F
100
AcDbEntity
  8
0-0
  6
JWW_DASHED1
 62
   120
370
     5
100
AcDbLine
 10
-562.3767530678977
 20
-160.1952789699599
 30
0.0
 11
-562.3767530678977
 21
1014.80472103004
 31
0.0
  0
LINE
  5
1A4
330
1F
100
AcDbEntity
  8
0-0
  6
JWW_DASHED1
 62
   120
370
     5
100
AcDbLine
 10
-575.3767530689977
 20
-160.1952789699599
 30
0.0
 11
-575.3767530689977
 21
1014.80472103004
 31
0.0
  0
LINE
  5
1A5
330
1F
100
AcDbEntity
  8
0-0
  6
JWW_DASHED1
 62
   120
370
     5
100
AcDbLine
 10
-576.3767530688979
 20
-160.1952789699599
 30
0.0
 11
-576.3767530688979
 21
1014.80472103004
 31
0.0
  0
LINE
  5
1A6
330
1F
100
AcDbEntity
  8
0-0
  6
JWW_DASHED1
 62
   120
370
     5
100
AcDbLine
 10
-589.3767530699979
 20
-160.1952789699599
 30
0.0
 11
-589.3767530699979
 21
1014.80472103004
 31
0.0
  0
LINE
  5
1A7
330
1F
100
AcDbEntity
  8
0-0
  6
JWW_DASHED1
 62
   120
370
     5
100
AcDbLine
 10
-590.3767530698981
 20
-160.1952789699599
 30
0.0
 11
-590.3767530698981
 21
1014.80472103004
 31
0.0
  0
LINE
  5
1A8
330
1F
100
AcDbEntity
  8
0-0
  6
JWW_DASHED1
 62
   120
370
     5
100
AcDbLine
 10
-603.3767530709981
 20
-160.1952789699599
 30
0.0
 11
-603.3767530709981
 21
1014.80472103004
 31
0.0
  0
LINE
  5
1A9
330
1F
100
AcDbEntity
  8
0-0
  6
JWW_DASHED1
 62
   120
370
     5
100
AcDbLine
 10
-604.3767530708983
 20
-160.1952789699599
 30
0.0
 11
-604.3767530708983
 21
1014.80472103004
 31
0.0
  0
LINE
  5
1AA
330
1F
100
AcDbEntity
  8
0-0
  6
JWW_DASHED1
 62
   120
370
     5
100
AcDbLine
 10
-617.3767530719977
 20
-160.1952789699599
 30
0.0
 11
-617.3767530719977
 21
1014.80472103004
 31
0.0
  0
LINE
  5
1AB
330
1F
100
AcDbEntity
  8
0-0
  6
JWW_DASHED1
 62
   120
370
     5
100
AcDbLine
 10
-618.3767530718978
 20
-160.1952789699599
 30
0.0
 11
-618.3767530718978
 21
1014.80472103004
 31
0.0
  0
LINE
  5
1AC
330
1F
100
AcDbEntity
  8
0-0
  6
JWW_DASHED1
 62
   120
370
     5
100
AcDbLine
 10
-631.3767530729978
 20
-160.1952789699599
 30
0.0
 11
-631.3767530729978
 21
1014.80472103004
 31
0.0
  0
LINE
  5
1AD
330
1F
100
AcDbEntity
  8
0-0
  6
JWW_DASHED1
 62
   120
370
     5
100
AcDbLine
 10
-632.3767530728979
 20
-160.1952789699599
 30
0.0
 11
-632.3767530728979
 21
1014.80472103004
 31
0.0
  0
LINE
  5
1AE
330
1F
100
AcDbEntity
  8
0-0
  6
JWW_DASHED1
 62
   120
370
     5
100
AcDbLine
 10
-645.376753073998
 20
-160.1952789699599
 30
0.0
 11
-645.376753073998
 21
1014.80472103004
 31
0.0
  0
LINE
  5
1AF
330
1F
100
AcDbEntity
  8
0-0
  6
JWW_DASHED1
 62
   120
370
     5
100
AcDbLine
 10
-646.3767530738982
 20
-160.1952789699599
 30
0.0
 11
-646.3767530738982
 21
1014.80472103004
 31
0.0
  0
LINE
  5
1B0
330
1F
100
AcDbEntity
  8
0-0
  6
JWW_DASHED1
 62
   120
370
     5
100
AcDbLine
 10
-659.3767530749973
 20
-160.1952789699599
 30
0.0
 11
-659.3767530749973
 21
1014.80472103004
 31
0.0
  0
LINE
  5
1B1
330
1F
100
AcDbEntity
  8
0-0
  6
JWW_DASHED1
 62
   120
370
     5
100
AcDbLine
 10
-660.3767530748975
 20
-160.1952789699599
 30
0.0
 11
-660.3767530748975
 21
1014.80472103004
 31
0.0
  0
LINE
  5
1B2
330
1F
100
AcDbEntity
  8
0-0
  6
JWW_DASHED1
 62
   120
370
     5
100
AcDbLine
 10
-673.3767530759975
 20
-160.1952789699599
 30
0.0
 11
-673.3767530759975
 21
1014.80472103004
 31
0.0
  0
LINE
  5
1B3
330
1F
100
AcDbEntity
  8
0-0
  6
JWW_DASHED1
 62
   120
370
     5
100
AcDbLine
 10
-674.3767530758977
 20
-160.1952789699599
 30
0.0
 11
-674.3767530758977
 21
1014.80472103004
 31
0.0
  0
LINE
  5
1B4
330
1F
100
AcDbEntity
  8
0-0
  6
JWW_DASHED1
 62
   120
370
     5
100
AcDbLine
 10
-687.3767530769977
 20
-160.1952789699599
 30
0.0
 11
-687.3767530769977
 21
1014.80472103004
 31
0.0
  0
LINE
  5
1B5
330
1F
100
AcDbEntity
  8
0-0
  6
JWW_DASHED1
 62
   120
370
     5
100
AcDbLine
 10
-688.3767530768979
 20
-160.1952789699599
 30
0.0
 11
-688.3767530768979
 21
1014.80472103004
 31
0.0
  0
LINE
  5
1B6
330
1F
100
AcDbEntity
  8
0-0
  6
JWW_DASHED1
 62
   120
370
     5
100
AcDbLine
 10
-701.3767530779979
 20
-160.1952789699599
 30
0.0
 11
-701.3767530779979
 21
1014.80472103004
 31
0.0
  0
LINE
  5
1B7
330
1F
100
AcDbEntity
  8
0-0
  6
JWW_DASHED1
 62
   120
370
     5
100
AcDbLine
 10
-702.3767530778981
 20
-160.1952789699599
 30
0.0
 11
-702.3767530778981
 21
1014.80472103004
 31
0.0
  0
LINE
  5
1B8
330
1F
100
AcDbEntity
  8
0-0
  6
JWW_DASHED1
 62
   120
370
     5
100
AcDbLine
 10
-715.3767530789981
 20
-160.1952789699599
 30
0.0
 11
-715.3767530789981
 21
1014.80472103004
 31
0.0
  0
LINE
  5
1B9
330
1F
100
AcDbEntity
  8
0-0
  6
JWW_DASHED1
 62
   120
370
     5
100
AcDbLine
 10
-716.3767530788983
 20
-160.1952789699599
 30
0.0
 11
-716.3767530788983
 21
1014.80472103004
 31
0.0
  0
LINE
  5
1BA
330
1F
100
AcDbEntity
  8
0-0
  6
JWW_DASHED1
 62
   120
370
     5
100
AcDbLine
 10
-729.3767530799976
 20
-160.1952789699599
 30
0.0
 11
-729.3767530799976
 21
1014.80472103004
 31
0.0
  0
LINE
  5
1BB
330
1F
100
AcDbEntity
  8
0-0
  6
JWW_DASHED1
 62
   120
370
     5
100
AcDbLine
 10
-730.3767530798978
 20
-160.1952789699599
 30
0.0
 11
-730.3767530798978
 21
1014.80472103004
 31
0.0
  0
LINE
  5
1BC
330
1F
100
AcDbEntity
  8
0-0
  6
JWW_DASHED1
 62
   120
370
     5
100
AcDbLine
 10
-743.3767530809978
 20
-160.1952789699599
 30
0.0
 11
-743.3767530809978
 21
1014.80472103004
 31
0.0
  0
LINE
  5
1BD
330
1F
100
AcDbEntity
  8
0-0
  6
JWW_DASHED1
 62
   120
370
     5
100
AcDbLine
 10
-744.376753080898
 20
-160.1952789699599
 30
0.0
 11
-744.376753080898
 21
1014.80472103004
 31
0.0
  0
LINE
  5
1BE
330
1F
100
AcDbEntity
  8
0-0
  6
JWW_DASHED1
 62
   120
370
     5
100
AcDbLine
 10
-757.376753081998
 20
-160.1952789699599
 30
0.0
 11
-757.376753081998
 21
1014.80472103004
 31
0.0
  0
LINE
  5
1BF
330
1F
100
AcDbEntity
  8
0-0
  6
JWW_DASHED1
 62
   120
370
     5
100
AcDbLine
 10
-758.3767530818982
 20
-160.1952789699599
 30
0.0
 11
-758.3767530818982
 21
1014.80472103004
 31
0.0
  0
LINE
  5
1C0
330
1F
100
AcDbEntity
  8
0-0
  6
JWW_DASHED1
 62
   120
370
     5
100
AcDbLine
 10
-771.3767530829973
 20
-160.1952789699599
 30
0.0
 11
-771.3767530829973
 21
1014.80472103004
 31
0.0
  0
LINE
  5
1C1
330
1F
100
AcDbEntity
  8
0-0
  6
JWW_DASHED1
 62
   120
370
     5
100
AcDbLine
 10
-772.3767530828975
 20
-160.1952789699599
 30
0.0
 11
-772.3767530828975
 21
1014.80472103004
 31
0.0
  0
LINE
  5
1C2
330
1F
100
AcDbEntity
  8
0-0
  6
JWW_DASHED1
 62
   120
370
     5
100
AcDbLine
 10
-785.3767530839975
 20
-160.1952789699599
 30
0.0
 11
-785.3767530839975
 21
1014.80472103004
 31
0.0
  0
LINE
  5
1C3
330
1F
100
AcDbEntity
  8
0-0
  6
JWW_DASHED1
 62
   120
370
     5
100
AcDbLine
 10
-786.3767530838977
 20
-160.1952789699599
 30
0.0
 11
-786.3767530838977
 21
1014.80472103004
 31
0.0
  0
LINE
  5
1C4
330
1F
100
AcDbEntity
  8
0-0
  6
JWW_DASHED1
 62
   120
370
     5
100
AcDbLine
 10
-799.3767530849977
 20
-160.1952789699599
 30
0.0
 11
-799.3767530849977
 21
1014.80472103004
 31
0.0
  0
LINE
  5
1C5
330
1F
100
AcDbEntity
  8
0-0
  6
JWW_DASHED1
 62
   120
370
     5
100
AcDbLine
 10
-800.3767530848979
 20
-160.1952789699599
 30
0.0
 11
-800.3767530848979
 21
1014.80472103004
 31
0.0
  0
LINE
  5
1C6
330
1F
100
AcDbEntity
  8
0-0
  6
JWW_DASHED1
 62
   120
370
     5
100
AcDbLine
 10
-813.376753085998
 20
-160.1952789699599
 30
0.0
 11
-813.376753085998
 21
1014.80472103004
 31
0.0
  0
LINE
  5
1C7
330
1F
100
AcDbEntity
  8
0-0
  6
JWW_DASHED1
 62
   120
370
     5
100
AcDbLine
 10
-814.3767530858981
 20
-160.1952789699599
 30
0.0
 11
-814.3767530858981
 21
1014.80472103004
 31
0.0
  0
LINE
  5
1C8
330
1F
100
AcDbEntity
  8
0-0
  6
JWW_DASHED1
 62
   120
370
     5
100
AcDbLine
 10
-827.3767530869982
 20
-160.1952789699599
 30
0.0
 11
-827.3767530869982
 21
1014.80472103004
 31
0.0
  0
LINE
  5
1C9
330
1F
100
AcDbEntity
  8
0-0
  6
JWW_DASHED1
 62
   120
370
     5
100
AcDbLine
 10
-828.3767530868984
 20
-160.1952789699599
 30
0.0
 11
-828.3767530868984
 21
1014.80472103004
 31
0.0
  0
LINE
  5
1CA
330
1F
100
AcDbEntity
  8
0-0
  6
JWW_DASHED1
 62
   120
370
     5
100
AcDbLine
 10
-841.3767530879976
 20
-160.1952789699599
 30
0.0
 11
-841.3767530879976
 21
1014.80472103004
 31
0.0
  0
LINE
  5
1CB
330
1F
100
AcDbEntity
  8
0-0
  6
JWW_DASHED1
 62
   120
370
     5
100
AcDbLine
 10
-842.3767530878978
 20
-160.1952789699599
 30
0.0
 11
-842.3767530878978
 21
1014.80472103004
 31
0.0
  0
LINE
  5
1CC
330
1F
100
AcDbEntity
  8
0-0
  6
JWW_DASHED1
 62
   120
370
     5
100
AcDbLine
 10
-855.3767530889978
 20
-160.1952789699599
 30
0.0
 11
-855.3767530889978
 21
1014.80472103004
 31
0.0
  0
LINE
  5
1CD
330
1F
100
AcDbEntity
  8
0-0
  6
JWW_DASHED1
 62
   120
370
     5
100
AcDbLine
 10
-856.376753088898
 20
-160.1952789699599
 30
0.0
 11
-856.376753088898
 21
1014.80472103004
 31
0.0
  0
LINE
  5
1CE
330
1F
100
AcDbEntity
  8
0-0
  6
JWW_DASHED1
 62
   120
370
     5
100
AcDbLine
 10
-869.376753089998
 20
-160.1952789699599
 30
0.0
 11
-869.376753089998
 21
1014.80472103004
 31
0.0
  0
LINE
  5
1CF
330
1F
100
AcDbEntity
  8
0-0
  6
JWW_DASHED1
 62
   120
370
     5
100
AcDbLine
 10
-870.3767530898982
 20
-160.1952789699599
 30
0.0
 11
-870.3767530898982
 21
1014.80472103004
 31
0.0
  0
LINE
  5
1D0
330
1F
100
AcDbEntity
  8
0-0
  6
JWW_DASHED1
 62
   120
370
     5
100
AcDbLine
 10
-883.3767530909973
 20
-160.1952789699599
 30
0.0
 11
-883.3767530909973
 21
1014.80472103004
 31
0.0
  0
LINE
  5
1D1
330
1F
100
AcDbEntity
  8
0-0
  6
JWW_DASHED1
 62
   120
370
     5
100
AcDbLine
 10
-884.3767530908975
 20
-160.1952789699599
 30
0.0
 11
-884.3767530908975
 21
1014.80472103004
 31
0.0
  0
LINE
  5
1D2
330
1F
100
AcDbEntity
  8
0-0
  6
JWW_DASHED1
 62
   120
370
     5
100
AcDbLine
 10
-897.3767530919976
 20
-160.1952789699599
 30
0.0
 11
-897.3767530919976
 21
1014.80472103004
 31
0.0
  0
LINE
  5
1D3
330
1F
100
AcDbEntity
  8
0-0
  6
JWW_DASHED1
 62
   120
370
     5
100
AcDbLine
 10
-898.3767530918977
 20
-160.1952789699599
 30
0.0
 11
-898.3767530918977
 21
1014.80472103004
 31
0.0
  0
LINE
  5
1D4
330
1F
100
AcDbEntity
  8
0-0
  6
JWW_DASHED1
 62
   120
370
     5
100
AcDbLine
 10
-911.3767530929978
 20
-160.1952789699599
 30
0.0
 11
-911.3767530929978
 21
1014.80472103004
 31
0.0
  0
LINE
  5
1D5
330
1F
100
AcDbEntity
  8
0-0
  6
JWW_DASHED1
 62
   120
370
     5
100
AcDbLine
 10
-912.376753092898
 20
-160.1952789699599
 30
0.0
 11
-912.376753092898
 21
1014.80472103004
 31
0.0
  0
LINE
  5
1D6
330
1F
100
AcDbEntity
  8
0-0
  6
JWW_DASHED1
 62
   120
370
     5
100
AcDbLine
 10
-925.376753093998
 20
-160.1952789699599
 30
0.0
 11
-925.376753093998
 21
1014.80472103004
 31
0.0
  0
LINE
  5
1D7
330
1F
100
AcDbEntity
  8
0-0
  6
JWW_DASHED1
 62
   120
370
     5
100
AcDbLine
 10
-926.3767530938982
 20
-160.1952789699599
 30
0.0
 11
-926.3767530938982
 21
1014.80472103004
 31
0.0
  0
LINE
  5
1D8
330
1F
100
AcDbEntity
  8
0-0
  6
JWW_DASHED1
 62
   120
370
     5
100
AcDbLine
 10
-939.3767530949982
 20
-160.1952789699599
 30
0.0
 11
-939.3767530949982
 21
1014.80472103004
 31
0.0
  0
LINE
  5
1D9
330
1F
100
AcDbEntity
  8
0-0
  6
JWW_DASHED1
 62
   120
370
     5
100
AcDbLine
 10
-940.3767530948984
 20
-160.1952789699599
 30
0.0
 11
-940.3767530948984
 21
1014.80472103004
 31
0.0
  0
LINE
  5
1DA
330
1F
100
AcDbEntity
  8
0-0
  6
JWW_DASHED1
 62
   120
370
     5
100
AcDbLine
 10
-953.3767530959976
 20
-160.1952789699599
 30
0.0
 11
-953.3767530959976
 21
1014.80472103004
 31
0.0
  0
LINE
  5
1DB
330
1F
100
AcDbEntity
  8
0-0
  6
JWW_DASHED1
 62
   120
370
     5
100
AcDbLine
 10
-954.3767530958978
 20
-160.1952789699599
 30
0.0
 11
-954.3767530958978
 21
1014.80472103004
 31
0.0
  0
LINE
  5
1DC
330
1F
100
AcDbEntity
  8
0-0
  6
JWW_DASHED1
 62
   120
370
     5
100
AcDbLine
 10
-967.3767530969978
 20
-160.1952789699599
 30
0.0
 11
-967.3767530969978
 21
1014.80472103004
 31
0.0
  0
LINE
  5
1DD
330
1F
100
AcDbEntity
  8
0-0
  6
JWW_DASHED1
 62
   120
370
     5
100
AcDbLine
 10
-968.376753096898
 20
-160.1952789699599
 30
0.0
 11
-968.376753096898
 21
1014.80472103004
 31
0.0
  0
LINE
  5
1DE
330
1F
100
AcDbEntity
  8
0-0
  6
JWW_DASHED1
 62
   120
370
     5
100
AcDbLine
 10
-981.3767530979981
 20
-160.1952789699599
 30
0.0
 11
-981.3767530979981
 21
1014.80472103004
 31
0.0
  0
LINE
  5
1DF
330
1F
100
AcDbEntity
  8
0-0
  6
JWW_DASHED1
 62
   120
370
     5
100
AcDbLine
 10
-421.376753057998
 20
-160.1952789699599
 30
0.0
 11
-421.376753057998
 21
1014.80472103004
 31
0.0
  0
LINE
  5
1E0
330
1F
100
AcDbEntity
  8
0-0
  6
JWW_DASHED1
 62
   120
370
     5
100
AcDbLine
 10
-436.3767530588984
 20
-160.1952789699599
 30
0.0
 11
-436.3767530588984
 21
1014.80472103004
 31
0.0
  0
LINE
  5
1E1
330
1F
100
AcDbEntity
  8
0-0
  6
JWW_DASHED1
 62
   120
370
     5
100
AcDbLine
 10
-422.3767530578982
 20
-160.1952789699599
 30
0.0
 11
-422.3767530578982
 21
1014.80472103004
 31
0.0
  0
LINE
  5
1E2
330
1F
100
AcDbEntity
  8
0-0
  6
JWW_DASHED1
 62
   120
370
     5
100
AcDbLine
 10
-435.3767530589982
 20
-160.1952789699599
 30
0.0
 11
-435.3767530589982
 21
1014.80472103004
 31
0.0
  0
LINE
  5
1E3
330
1F
100
AcDbEntity
  8
0-0
  6
JWW_DASHED1
 62
   120
370
     5
100
AcDbLine
 10
-988.3767715559292
 20
1002.804572799079
 30
0.0
 11
-415.3767715559302
 21
1002.804572799079
 31
0.0
  0
LINE
  5
1E4
330
1F
100
AcDbEntity
  8
0-0
  6
JWW_DASHED1
 62
   120
370
     5
100
AcDbLine
 10
-988.3767715559292
 20
959.8045727961796
 30
0.0
 11
-415.3767715559302
 21
959.8045727961796
 31
0.0
  0
LINE
  5
1E5
330
1F
100
AcDbEntity
  8
0-0
  6
JWW_DASHED1
 62
   120
370
     5
100
AcDbLine
 10
-988.3767715559292
 20
960.8045727960798
 30
0.0
 11
-415.3767715559302
 21
960.8045727960798
 31
0.0
  0
LINE
  5
1E6
330
1F
100
AcDbEntity
  8
0-0
  6
JWW_DASHED1
 62
   120
370
     5
100
AcDbLine
 10
-988.3767715559292
 20
973.8045727971794
 30
0.0
 11
-415.3767715559302
 21
973.8045727971794
 31
0.0
  0
LINE
  5
1E7
330
1F
100
AcDbEntity
  8
0-0
  6
JWW_DASHED1
 62
   120
370
     5
100
AcDbLine
 10
-988.3767715559292
 20
974.8045727970796
 30
0.0
 11
-415.3767715559302
 21
974.8045727970796
 31
0.0
  0
LINE
  5
1E8
330
1F
100
AcDbEntity
  8
0-0
  6
JWW_DASHED1
 62
   120
370
     5
100
AcDbLine
 10
-988.3767715559292
 20
987.804572798179
 30
0.0
 11
-415.3767715559302
 21
987.804572798179
 31
0.0
  0
LINE
  5
1E9
330
1F
100
AcDbEntity
  8
0-0
  6
JWW_DASHED1
 62
   120
370
     5
100
AcDbLine
 10
-988.3767715559292
 20
988.8045727980792
 30
0.0
 11
-415.3767715559302
 21
988.8045727980792
 31
0.0
  0
LINE
  5
1EA
330
1F
100
AcDbEntity
  8
0-0
  6
JWW_DASHED1
 62
   120
370
     5
100
AcDbLine
 10
-988.3767715559292
 20
1001.804572799179
 30
0.0
 11
-415.3767715559302
 21
1001.804572799179
 31
0.0
  0
LINE
  5
1EB
330
1F
100
AcDbEntity
  8
0-0
  6
JWW_DASHED1
 62
   120
370
     5
100
AcDbLine
 10
-208.37677155593
 20
-159.1954272839034
 30
0.0
 11
364.6232284440705
 21
-159.1954272839034
 31
0.0
  0
LINE
  5
1EC
330
1F
100
AcDbEntity
  8
0-0
  6
JWW_DASHED1
 62
   120
370
     5
100
AcDbLine
 10
-208.37677155593
 20
-146.1954272828039
 30
0.0
 11
364.6232284440705
 21
-146.1954272828039
 31
0.0
  0
LINE
  5
1ED
330
1F
100
AcDbEntity
  8
0-0
  6
JWW_DASHED1
 62
   120
370
     5
100
AcDbLine
 10
-208.37677155593
 20
-145.1954272829037
 30
0.0
 11
364.6232284440705
 21
-145.1954272829037
 31
0.0
  0
LINE
  5
1EE
330
1F
100
AcDbEntity
  8
0-0
  6
JWW_DASHED1
 62
   120
370
     5
100
AcDbLine
 10
-208.37677155593
 20
-132.195427281804
 30
0.0
 11
364.6232284440705
 21
-132.195427281804
 31
0.0
  0
LINE
  5
1EF
330
1F
100
AcDbEntity
  8
0-0
  6
JWW_DASHED1
 62
   120
370
     5
100
AcDbLine
 10
-208.37677155593
 20
-131.1954272819038
 30
0.0
 11
364.6232284440705
 21
-131.1954272819038
 31
0.0
  0
LINE
  5
1F0
330
1F
100
AcDbEntity
  8
0-0
  6
JWW_DASHED1
 62
   120
370
     5
100
AcDbLine
 10
-208.37677155593
 20
-118.1954272808042
 30
0.0
 11
364.6232284440705
 21
-118.1954272808042
 31
0.0
  0
LINE
  5
1F1
330
1F
100
AcDbEntity
  8
0-0
  6
JWW_DASHED1
 62
   120
370
     5
100
AcDbLine
 10
-208.37677155593
 20
-117.195427280904
 30
0.0
 11
364.6232284440705
 21
-117.195427280904
 31
0.0
  0
LINE
  5
1F2
330
1F
100
AcDbEntity
  8
0-0
  6
JWW_DASHED1
 62
   120
370
     5
100
AcDbLine
 10
-208.37677155593
 20
-104.1954272798044
 30
0.0
 11
364.6232284440705
 21
-104.1954272798044
 31
0.0
  0
LINE
  5
1F3
330
1F
100
AcDbEntity
  8
0-0
  6
JWW_DASHED1
 62
   120
370
     5
100
AcDbLine
 10
-208.37677155593
 20
-103.1954272799042
 30
0.0
 11
364.6232284440705
 21
-103.1954272799042
 31
0.0
  0
LINE
  5
1F4
330
1F
100
AcDbEntity
  8
0-0
  6
JWW_DASHED1
 62
   120
370
     5
100
AcDbLine
 10
-208.37677155593
 20
-90.19542727880463
 30
0.0
 11
364.6232284440705
 21
-90.19542727880463
 31
0.0
  0
LINE
  5
1F5
330
1F
100
AcDbEntity
  8
0-0
  6
JWW_DASHED1
 62
   120
370
     5
100
AcDbLine
 10
-208.37677155593
 20
-89.19542727890445
 30
0.0
 11
364.6232284440705
 21
-89.19542727890445
 31
0.0
  0
LINE
  5
1F6
330
1F
100
AcDbEntity
  8
0-0
  6
JWW_DASHED1
 62
   120
370
     5
100
AcDbLine
 10
-208.37677155593
 20
-76.19542727780484
 30
0.0
 11
364.6232284440705
 21
-76.19542727780484
 31
0.0
  0
LINE
  5
1F7
330
1F
100
AcDbEntity
  8
0-0
  6
JWW_DASHED1
 62
   120
370
     5
100
AcDbLine
 10
-208.37677155593
 20
-75.19542727790466
 30
0.0
 11
364.6232284440705
 21
-75.19542727790466
 31
0.0
  0
LINE
  5
1F8
330
1F
100
AcDbEntity
  8
0-0
  6
JWW_DASHED1
 62
   120
370
     5
100
AcDbLine
 10
-208.37677155593
 20
-62.19542727680505
 30
0.0
 11
364.6232284440705
 21
-62.19542727680505
 31
0.0
  0
LINE
  5
1F9
330
1F
100
AcDbEntity
  8
0-0
  6
JWW_DASHED1
 62
   120
370
     5
100
AcDbLine
 10
-208.37677155593
 20
-61.19542727690487
 30
0.0
 11
364.6232284440705
 21
-61.19542727690487
 31
0.0
  0
LINE
  5
1FA
330
1F
100
AcDbEntity
  8
0-0
  6
JWW_DASHED1
 62
   120
370
     5
100
AcDbLine
 10
-208.37677155593
 20
-48.19542727580526
 30
0.0
 11
364.6232284440705
 21
-48.19542727580526
 31
0.0
  0
LINE
  5
1FB
330
1F
100
AcDbEntity
  8
0-0
  6
JWW_DASHED1
 62
   120
370
     5
100
AcDbLine
 10
-208.37677155593
 20
-47.19542727590508
 30
0.0
 11
364.6232284440705
 21
-47.19542727590508
 31
0.0
  0
LINE
  5
1FC
330
1F
100
AcDbEntity
  8
0-0
  6
JWW_DASHED1
 62
   120
370
     5
100
AcDbLine
 10
-208.37677155593
 20
-34.19542727480557
 30
0.0
 11
364.6232284440705
 21
-34.19542727480557
 31
0.0
  0
LINE
  5
1FD
330
1F
100
AcDbEntity
  8
0-0
  6
JWW_DASHED1
 62
   120
370
     5
100
AcDbLine
 10
-208.37677155593
 20
-33.19542727490539
 30
0.0
 11
364.6232284440705
 21
-33.19542727490539
 31
0.0
  0
LINE
  5
1FE
330
1F
100
AcDbEntity
  8
0-0
  6
JWW_DASHED1
 62
   120
370
     5
100
AcDbLine
 10
-208.37677155593
 20
-20.19542727380568
 30
0.0
 11
364.6232284440705
 21
-20.19542727380568
 31
0.0
  0
LINE
  5
1FF
330
1F
100
AcDbEntity
  8
0-0
  6
JWW_DASHED1
 62
   120
370
     5
100
AcDbLine
 10
-208.37677155593
 20
-19.19542727390549
 30
0.0
 11
364.6232284440705
 21
-19.19542727390549
 31
0.0
  0
LINE
  5
200
330
1F
100
AcDbEntity
  8
0-0
  6
JWW_DASHED1
 62
   120
370
     5
100
AcDbLine
 10
-208.37677155593
 20
-6.195427272805887
 30
0.0
 11
364.6232284440705
 21
-6.195427272805887
 31
0.0
  0
LINE
  5
201
330
1F
100
AcDbEntity
  8
0-0
  6
JWW_DASHED1
 62
   120
370
     5
100
AcDbLine
 10
-208.37677155593
 20
-5.195427272905704
 30
0.0
 11
364.6232284440705
 21
-5.195427272905704
 31
0.0
  0
LINE
  5
202
330
1F
100
AcDbEntity
  8
0-0
  6
JWW_DASHED1
 62
   120
370
     5
100
AcDbLine
 10
-208.37677155593
 20
7.804572728193904
 30
0.0
 11
364.6232284440705
 21
7.804572728193904
 31
0.0
  0
LINE
  5
203
330
1F
100
AcDbEntity
  8
0-0
  6
JWW_DASHED1
 62
   120
370
     5
100
AcDbLine
 10
-208.37677155593
 20
8.804572728094087
 30
0.0
 11
364.6232284440705
 21
8.804572728094087
 31
0.0
  0
LINE
  5
204
330
1F
100
AcDbEntity
  8
0-0
  6
JWW_DASHED1
 62
   120
370
     5
100
AcDbLine
 10
-208.37677155593
 20
21.80457272919369
 30
0.0
 11
364.6232284440705
 21
21.80457272919369
 31
0.0
  0
LINE
  5
205
330
1F
100
AcDbEntity
  8
0-0
  6
JWW_DASHED1
 62
   120
370
     5
100
AcDbLine
 10
-208.37677155593
 20
22.80457272909388
 30
0.0
 11
364.6232284440705
 21
22.80457272909388
 31
0.0
  0
LINE
  5
206
330
1F
100
AcDbEntity
  8
0-0
  6
JWW_DASHED1
 62
   120
370
     5
100
AcDbLine
 10
-208.37677155593
 20
35.80457273019348
 30
0.0
 11
364.6232284440705
 21
35.80457273019348
 31
0.0
  0
LINE
  5
207
330
1F
100
AcDbEntity
  8
0-0
  6
JWW_DASHED1
 62
   120
370
     5
100
AcDbLine
 10
-208.37677155593
 20
36.80457273009367
 30
0.0
 11
364.6232284440705
 21
36.80457273009367
 31
0.0
  0
LINE
  5
208
330
1F
100
AcDbEntity
  8
0-0
  6
JWW_DASHED1
 62
   120
370
     5
100
AcDbLine
 10
-208.37677155593
 20
49.80457273119328
 30
0.0
 11
364.6232284440705
 21
49.80457273119328
 31
0.0
  0
LINE
  5
209
330
1F
100
AcDbEntity
  8
0-0
  6
JWW_DASHED1
 62
   120
370
     5
100
AcDbLine
 10
-208.37677155593
 20
50.80457273109346
 30
0.0
 11
364.6232284440705
 21
50.80457273109346
 31
0.0
  0
LINE
  5
20A
330
1F
100
AcDbEntity
  8
0-0
  6
JWW_DASHED1
 62
   120
370
     5
100
AcDbLine
 10
-208.37677155593
 20
63.80457273219307
 30
0.0
 11
364.6232284440705
 21
63.80457273219307
 31
0.0
  0
LINE
  5
20B
330
1F
100
AcDbEntity
  8
0-0
  6
JWW_DASHED1
 62
   120
370
     5
100
AcDbLine
 10
-208.37677155593
 20
64.80457273209325
 30
0.0
 11
364.6232284440705
 21
64.80457273209325
 31
0.0
  0
LINE
  5
20C
330
1F
100
AcDbEntity
  8
0-0
  6
JWW_DASHED1
 62
   120
370
     5
100
AcDbLine
 10
-208.37677155593
 20
77.80457273319274
 30
0.0
 11
364.6232284440705
 21
77.80457273319274
 31
0.0
  0
LINE
  5
20D
330
1F
100
AcDbEntity
  8
0-0
  6
JWW_DASHED1
 62
   120
370
     5
100
AcDbLine
 10
-208.37677155593
 20
78.80457273309293
 30
0.0
 11
364.6232284440705
 21
78.80457273309293
 31
0.0
  0
LINE
  5
20E
330
1F
100
AcDbEntity
  8
0-0
  6
JWW_DASHED1
 62
   120
370
     5
100
AcDbLine
 10
-208.37677155593
 20
91.80457273419265
 30
0.0
 11
364.6232284440705
 21
91.80457273419265
 31
0.0
  0
LINE
  5
20F
330
1F
100
AcDbEntity
  8
0-0
  6
JWW_DASHED1
 62
   120
370
     5
100
AcDbLine
 10
-208.37677155593
 20
92.80457273409283
 30
0.0
 11
364.6232284440705
 21
92.80457273409283
 31
0.0
  0
LINE
  5
210
330
1F
100
AcDbEntity
  8
0-0
  6
JWW_DASHED1
 62
   120
370
     5
100
AcDbLine
 10
-208.37677155593
 20
105.8045727351924
 30
0.0
 11
364.6232284440705
 21
105.8045727351924
 31
0.0
  0
LINE
  5
211
330
1F
100
AcDbEntity
  8
0-0
  6
JWW_DASHED1
 62
   120
370
     5
100
AcDbLine
 10
-208.37677155593
 20
106.8045727350926
 30
0.0
 11
364.6232284440705
 21
106.8045727350926
 31
0.0
  0
LINE
  5
212
330
1F
100
AcDbEntity
  8
0-0
  6
JWW_DASHED1
 62
   120
370
     5
100
AcDbLine
 10
-208.37677155593
 20
119.8045727361922
 30
0.0
 11
364.6232284440705
 21
119.8045727361922
 31
0.0
  0
LINE
  5
213
330
1F
100
AcDbEntity
  8
0-0
  6
JWW_DASHED1
 62
   120
370
     5
100
AcDbLine
 10
-208.37677155593
 20
120.8045727360924
 30
0.0
 11
364.6232284440705
 21
120.8045727360924
 31
0.0
  0
LINE
  5
214
330
1F
100
AcDbEntity
  8
0-0
  6
JWW_DASHED1
 62
   120
370
     5
100
AcDbLine
 10
-208.37677155593
 20
133.804572737192
 30
0.0
 11
364.6232284440705
 21
133.804572737192
 31
0.0
  0
LINE
  5
215
330
1F
100
AcDbEntity
  8
0-0
  6
JWW_DASHED1
 62
   120
370
     5
100
AcDbLine
 10
-208.37677155593
 20
134.8045727370922
 30
0.0
 11
364.6232284440705
 21
134.8045727370922
 31
0.0
  0
LINE
  5
216
330
1F
100
AcDbEntity
  8
0-0
  6
JWW_DASHED1
 62
   120
370
     5
100
AcDbLine
 10
-208.37677155593
 20
147.8045727381918
 30
0.0
 11
364.6232284440705
 21
147.8045727381918
 31
0.0
  0
LINE
  5
217
330
1F
100
AcDbEntity
  8
0-0
  6
JWW_DASHED1
 62
   120
370
     5
100
AcDbLine
 10
-208.37677155593
 20
148.804572738092
 30
0.0
 11
364.6232284440705
 21
148.804572738092
 31
0.0
  0
LINE
  5
218
330
1F
100
AcDbEntity
  8
0-0
  6
JWW_DASHED1
 62
   120
370
     5
100
AcDbLine
 10
-208.37677155593
 20
161.8045727391916
 30
0.0
 11
364.6232284440705
 21
161.8045727391916
 31
0.0
  0
LINE
  5
219
330
1F
100
AcDbEntity
  8
0-0
  6
JWW_DASHED1
 62
   120
370
     5
100
AcDbLine
 10
-208.37677155593
 20
162.8045727390918
 30
0.0
 11
364.6232284440705
 21
162.8045727390918
 31
0.0
  0
LINE
  5
21A
330
1F
100
AcDbEntity
  8
0-0
  6
JWW_DASHED1
 62
   120
370
     5
100
AcDbLine
 10
-208.37677155593
 20
175.8045727401914
 30
0.0
 11
364.6232284440705
 21
175.8045727401914
 31
0.0
  0
LINE
  5
21B
330
1F
100
AcDbEntity
  8
0-0
  6
JWW_DASHED1
 62
   120
370
     5
100
AcDbLine
 10
-208.37677155593
 20
176.8045727400916
 30
0.0
 11
364.6232284440705
 21
176.8045727400916
 31
0.0
  0
LINE
  5
21C
330
1F
100
AcDbEntity
  8
0-0
  6
JWW_DASHED1
 62
   120
370
     5
100
AcDbLine
 10
-208.37677155593
 20
189.8045727411912
 30
0.0
 11
364.6232284440705
 21
189.8045727411912
 31
0.0
  0
LINE
  5
21D
330
1F
100
AcDbEntity
  8
0-0
  6
JWW_DASHED1
 62
   120
370
     5
100
AcDbLine
 10
-208.37677155593
 20
190.8045727410914
 30
0.0
 11
364.6232284440705
 21
190.8045727410914
 31
0.0
  0
LINE
  5
21E
330
1F
100
AcDbEntity
  8
0-0
  6
JWW_DASHED1
 62
   120
370
     5
100
AcDbLine
 10
-208.37677155593
 20
203.804572742191
 30
0.0
 11
364.6232284440705
 21
203.804572742191
 31
0.0
  0
LINE
  5
21F
330
1F
100
AcDbEntity
  8
0-0
  6
JWW_DASHED1
 62
   120
370
     5
100
AcDbLine
 10
-208.37677155593
 20
204.8045727420912
 30
0.0
 11
364.6232284440705
 21
204.8045727420912
 31
0.0
  0
LINE
  5
220
330
1F
100
AcDbEntity
  8
0-0
  6
JWW_DASHED1
 62
   120
370
     5
100
AcDbLine
 10
-208.37677155593
 20
217.8045727431905
 30
0.0
 11
364.6232284440705
 21
217.8045727431905
 31
0.0
  0
LINE
  5
221
330
1F
100
AcDbEntity
  8
0-0
  6
JWW_DASHED1
 62
   120
370
     5
100
AcDbLine
 10
-208.37677155593
 20
218.8045727430909
 30
0.0
 11
364.6232284440705
 21
218.8045727430909
 31
0.0
  0
LINE
  5
222
330
1F
100
AcDbEntity
  8
0-0
  6
JWW_DASHED1
 62
   120
370
     5
100
AcDbLine
 10
-208.37677155593
 20
231.8045727441906
 30
0.0
 11
364.6232284440705
 21
231.8045727441906
 31
0.0
  0
LINE
  5
223
330
1F
100
AcDbEntity
  8
0-0
  6
JWW_DASHED1
 62
   120
370
     5
100
AcDbLine
 10
-208.37677155593
 20
232.8045727440907
 30
0.0
 11
364.6232284440705
 21
232.8045727440907
 31
0.0
  0
LINE
  5
224
330
1F
100
AcDbEntity
  8
0-0
  6
JWW_DASHED1
 62
   120
370
     5
100
AcDbLine
 10
-208.37677155593
 20
245.8045727451903
 30
0.0
 11
364.6232284440705
 21
245.8045727451903
 31
0.0
  0
LINE
  5
225
330
1F
100
AcDbEntity
  8
0-0
  6
JWW_DASHED1
 62
   120
370
     5
100
AcDbLine
 10
-208.37677155593
 20
246.8045727450905
 30
0.0
 11
364.6232284440705
 21
246.8045727450905
 31
0.0
  0
LINE
  5
226
330
1F
100
AcDbEntity
  8
0-0
  6
JWW_DASHED1
 62
   120
370
     5
100
AcDbLine
 10
-208.37677155593
 20
259.8045727461902
 30
0.0
 11
364.6232284440705
 21
259.8045727461902
 31
0.0
  0
LINE
  5
227
330
1F
100
AcDbEntity
  8
0-0
  6
JWW_DASHED1
 62
   120
370
     5
100
AcDbLine
 10
-208.37677155593
 20
260.8045727460903
 30
0.0
 11
364.6232284440705
 21
260.8045727460903
 31
0.0
  0
LINE
  5
228
330
1F
100
AcDbEntity
  8
0-0
  6
JWW_DASHED1
 62
   120
370
     5
100
AcDbLine
 10
-208.37677155593
 20
273.8045727471899
 30
0.0
 11
364.6232284440705
 21
273.8045727471899
 31
0.0
  0
LINE
  5
229
330
1F
100
AcDbEntity
  8
0-0
  6
JWW_DASHED1
 62
   120
370
     5
100
AcDbLine
 10
-208.37677155593
 20
274.8045727470901
 30
0.0
 11
364.6232284440705
 21
274.8045727470901
 31
0.0
  0
LINE
  5
22A
330
1F
100
AcDbEntity
  8
0-0
  6
JWW_DASHED1
 62
   120
370
     5
100
AcDbLine
 10
-208.37677155593
 20
287.8045727481897
 30
0.0
 11
364.6232284440705
 21
287.8045727481897
 31
0.0
  0
LINE
  5
22B
330
1F
100
AcDbEntity
  8
0-0
  6
JWW_DASHED1
 62
   120
370
     5
100
AcDbLine
 10
-208.37677155593
 20
288.8045727480899
 30
0.0
 11
364.6232284440705
 21
288.8045727480899
 31
0.0
  0
LINE
  5
22C
330
1F
100
AcDbEntity
  8
0-0
  6
JWW_DASHED1
 62
   120
370
     5
100
AcDbLine
 10
-208.37677155593
 20
301.8045727491895
 30
0.0
 11
364.6232284440705
 21
301.8045727491895
 31
0.0
  0
LINE
  5
22D
330
1F
100
AcDbEntity
  8
0-0
  6
JWW_DASHED1
 62
   120
370
     5
100
AcDbLine
 10
-208.37677155593
 20
302.8045727490897
 30
0.0
 11
364.6232284440705
 21
302.8045727490897
 31
0.0
  0
LINE
  5
22E
330
1F
100
AcDbEntity
  8
0-0
  6
JWW_DASHED1
 62
   120
370
     5
100
AcDbLine
 10
-208.37677155593
 20
315.8045727501893
 30
0.0
 11
364.6232284440705
 21
315.8045727501893
 31
0.0
  0
LINE
  5
22F
330
1F
100
AcDbEntity
  8
0-0
  6
JWW_DASHED1
 62
   120
370
     5
100
AcDbLine
 10
-208.37677155593
 20
316.8045727500895
 30
0.0
 11
364.6232284440705
 21
316.8045727500895
 31
0.0
  0
LINE
  5
230
330
1F
100
AcDbEntity
  8
0-0
  6
JWW_DASHED1
 62
   120
370
     5
100
AcDbLine
 10
-208.37677155593
 20
329.8045727511891
 30
0.0
 11
364.6232284440705
 21
329.8045727511891
 31
0.0
  0
LINE
  5
231
330
1F
100
AcDbEntity
  8
0-0
  6
JWW_DASHED1
 62
   120
370
     5
100
AcDbLine
 10
-208.37677155593
 20
330.804572751089
 30
0.0
 11
364.6232284440705
 21
330.804572751089
 31
0.0
  0
LINE
  5
232
330
1F
100
AcDbEntity
  8
0-0
  6
JWW_DASHED1
 62
   120
370
     5
100
AcDbLine
 10
-208.37677155593
 20
343.8045727521888
 30
0.0
 11
364.6232284440705
 21
343.8045727521888
 31
0.0
  0
LINE
  5
233
330
1F
100
AcDbEntity
  8
0-0
  6
JWW_DASHED1
 62
   120
370
     5
100
AcDbLine
 10
-208.37677155593
 20
344.804572752089
 30
0.0
 11
364.6232284440705
 21
344.804572752089
 31
0.0
  0
LINE
  5
234
330
1F
100
AcDbEntity
  8
0-0
  6
JWW_DASHED1
 62
   120
370
     5
100
AcDbLine
 10
-208.37677155593
 20
357.8045727531887
 30
0.0
 11
364.6232284440705
 21
357.8045727531887
 31
0.0
  0
LINE
  5
235
330
1F
100
AcDbEntity
  8
0-0
  6
JWW_DASHED1
 62
   120
370
     5
100
AcDbLine
 10
-208.37677155593
 20
358.8045727530888
 30
0.0
 11
364.6232284440705
 21
358.8045727530888
 31
0.0
  0
LINE
  5
236
330
1F
100
AcDbEntity
  8
0-0
  6
JWW_DASHED1
 62
   120
370
     5
100
AcDbLine
 10
-208.37677155593
 20
371.8045727541885
 30
0.0
 11
364.6232284440705
 21
371.8045727541885
 31
0.0
  0
LINE
  5
237
330
1F
100
AcDbEntity
  8
0-0
  6
JWW_DASHED1
 62
   120
370
     5
100
AcDbLine
 10
-208.37677155593
 20
372.8045727540887
 30
0.0
 11
364.6232284440705
 21
372.8045727540887
 31
0.0
  0
LINE
  5
238
330
1F
100
AcDbEntity
  8
0-0
  6
JWW_DASHED1
 62
   120
370
     5
100
AcDbLine
 10
-208.37677155593
 20
385.8045727551882
 30
0.0
 11
364.6232284440705
 21
385.8045727551882
 31
0.0
  0
LINE
  5
239
330
1F
100
AcDbEntity
  8
0-0
  6
JWW_DASHED1
 62
   120
370
     5
100
AcDbLine
 10
-208.37677155593
 20
386.8045727550884
 30
0.0
 11
364.6232284440705
 21
386.8045727550884
 31
0.0
  0
LINE
  5
23A
330
1F
100
AcDbEntity
  8
0-0
  6
JWW_DASHED1
 62
   120
370
     5
100
AcDbLine
 10
-208.37677155593
 20
399.804572756188
 30
0.0
 11
364.6232284440705
 21
399.804572756188
 31
0.0
  0
LINE
  5
23B
330
1F
100
AcDbEntity
  8
0-0
  6
JWW_DASHED1
 62
   120
370
     5
100
AcDbLine
 10
-208.37677155593
 20
400.8045727560882
 30
0.0
 11
364.6232284440705
 21
400.8045727560882
 31
0.0
  0
LINE
  5
23C
330
1F
100
AcDbEntity
  8
0-0
  6
JWW_DASHED1
 62
   120
370
     5
100
AcDbLine
 10
-208.37677155593
 20
413.8045727571878
 30
0.0
 11
364.6232284440705
 21
413.8045727571878
 31
0.0
  0
LINE
  5
23D
330
1F
100
AcDbEntity
  8
0-0
  6
JWW_DASHED1
 62
   120
370
     5
100
AcDbLine
 10
-208.37677155593
 20
414.804572757088
 30
0.0
 11
364.6232284440705
 21
414.804572757088
 31
0.0
  0
LINE
  5
23E
330
1F
100
AcDbEntity
  8
0-0
  6
JWW_DASHED1
 62
   120
370
     5
100
AcDbLine
 10
-208.37677155593
 20
427.8045727581876
 30
0.0
 11
364.6232284440705
 21
427.8045727581876
 31
0.0
  0
LINE
  5
23F
330
1F
100
AcDbEntity
  8
0-0
  6
JWW_DASHED1
 62
   120
370
     5
100
AcDbLine
 10
-208.37677155593
 20
428.8045727580878
 30
0.0
 11
364.6232284440705
 21
428.8045727580878
 31
0.0
  0
LINE
  5
240
330
1F
100
AcDbEntity
  8
0-0
  6
JWW_DASHED1
 62
   120
370
     5
100
AcDbLine
 10
-208.37677155593
 20
441.8045727591872
 30
0.0
 11
364.6232284440705
 21
441.8045727591872
 31
0.0
  0
LINE
  5
241
330
1F
100
AcDbEntity
  8
0-0
  6
JWW_DASHED1
 62
   120
370
     5
100
AcDbLine
 10
-208.37677155593
 20
442.8045727590876
 30
0.0
 11
364.6232284440705
 21
442.8045727590876
 31
0.0
  0
LINE
  5
242
330
1F
100
AcDbEntity
  8
0-0
  6
JWW_DASHED1
 62
   120
370
     5
100
AcDbLine
 10
-208.37677155593
 20
455.8045727601872
 30
0.0
 11
364.6232284440705
 21
455.8045727601872
 31
0.0
  0
LINE
  5
243
330
1F
100
AcDbEntity
  8
0-0
  6
JWW_DASHED1
 62
   120
370
     5
100
AcDbLine
 10
-208.37677155593
 20
456.8045727600874
 30
0.0
 11
364.6232284440705
 21
456.8045727600874
 31
0.0
  0
LINE
  5
244
330
1F
100
AcDbEntity
  8
0-0
  6
JWW_DASHED1
 62
   120
370
     5
100
AcDbLine
 10
-208.37677155593
 20
469.804572761187
 30
0.0
 11
364.6232284440705
 21
469.804572761187
 31
0.0
  0
LINE
  5
245
330
1F
100
AcDbEntity
  8
0-0
  6
JWW_DASHED1
 62
   120
370
     5
100
AcDbLine
 10
-208.37677155593
 20
470.8045727610872
 30
0.0
 11
364.6232284440705
 21
470.8045727610872
 31
0.0
  0
LINE
  5
246
330
1F
100
AcDbEntity
  8
0-0
  6
JWW_DASHED1
 62
   120
370
     5
100
AcDbLine
 10
-208.37677155593
 20
483.8045727621868
 30
0.0
 11
364.6232284440705
 21
483.8045727621868
 31
0.0
  0
LINE
  5
247
330
1F
100
AcDbEntity
  8
0-0
  6
JWW_DASHED1
 62
   120
370
     5
100
AcDbLine
 10
-208.37677155593
 20
484.804572762087
 30
0.0
 11
364.6232284440705
 21
484.804572762087
 31
0.0
  0
LINE
  5
248
330
1F
100
AcDbEntity
  8
0-0
  6
JWW_DASHED1
 62
   120
370
     5
100
AcDbLine
 10
-208.37677155593
 20
497.8045727631866
 30
0.0
 11
364.6232284440705
 21
497.8045727631866
 31
0.0
  0
LINE
  5
249
330
1F
100
AcDbEntity
  8
0-0
  6
JWW_DASHED1
 62
   120
370
     5
100
AcDbLine
 10
-208.37677155593
 20
498.8045727630868
 30
0.0
 11
364.6232284440705
 21
498.8045727630868
 31
0.0
  0
LINE
  5
24A
330
1F
100
AcDbEntity
  8
0-0
  6
JWW_DASHED1
 62
   120
370
     5
100
AcDbLine
 10
-208.37677155593
 20
511.8045727641863
 30
0.0
 11
364.6232284440705
 21
511.8045727641863
 31
0.0
  0
LINE
  5
24B
330
1F
100
AcDbEntity
  8
0-0
  6
JWW_DASHED1
 62
   120
370
     5
100
AcDbLine
 10
-208.37677155593
 20
512.8045727640865
 30
0.0
 11
364.6232284440705
 21
512.8045727640865
 31
0.0
  0
LINE
  5
24C
330
1F
100
AcDbEntity
  8
0-0
  6
JWW_DASHED1
 62
   120
370
     5
100
AcDbLine
 10
-208.37677155593
 20
525.8045727651861
 30
0.0
 11
364.6232284440705
 21
525.8045727651861
 31
0.0
  0
LINE
  5
24D
330
1F
100
AcDbEntity
  8
0-0
  6
JWW_DASHED1
 62
   120
370
     5
100
AcDbLine
 10
-208.37677155593
 20
526.8045727650863
 30
0.0
 11
364.6232284440705
 21
526.8045727650863
 31
0.0
  0
LINE
  5
24E
330
1F
100
AcDbEntity
  8
0-0
  6
JWW_DASHED1
 62
   120
370
     5
100
AcDbLine
 10
-208.37677155593
 20
539.804572766186
 30
0.0
 11
364.6232284440705
 21
539.804572766186
 31
0.0
  0
LINE
  5
24F
330
1F
100
AcDbEntity
  8
0-0
  6
JWW_DASHED1
 62
   120
370
     5
100
AcDbLine
 10
-208.37677155593
 20
540.8045727660862
 30
0.0
 11
364.6232284440705
 21
540.8045727660862
 31
0.0
  0
LINE
  5
250
330
1F
100
AcDbEntity
  8
0-0
  6
JWW_DASHED1
 62
   120
370
     5
100
AcDbLine
 10
-208.37677155593
 20
553.8045727671857
 30
0.0
 11
364.6232284440705
 21
553.8045727671857
 31
0.0
  0
LINE
  5
251
330
1F
100
AcDbEntity
  8
0-0
  6
JWW_DASHED1
 62
   120
370
     5
100
AcDbLine
 10
-208.37677155593
 20
554.8045727670857
 30
0.0
 11
364.6232284440705
 21
554.8045727670857
 31
0.0
  0
LINE
  5
252
330
1F
100
AcDbEntity
  8
0-0
  6
JWW_DASHED1
 62
   120
370
     5
100
AcDbLine
 10
-208.37677155593
 20
567.8045727681855
 30
0.0
 11
364.6232284440705
 21
567.8045727681855
 31
0.0
  0
LINE
  5
253
330
1F
100
AcDbEntity
  8
0-0
  6
JWW_DASHED1
 62
   120
370
     5
100
AcDbLine
 10
-208.37677155593
 20
568.8045727680857
 30
0.0
 11
364.6232284440705
 21
568.8045727680857
 31
0.0
  0
LINE
  5
254
330
1F
100
AcDbEntity
  8
0-0
  6
JWW_DASHED1
 62
   120
370
     5
100
AcDbLine
 10
-208.37677155593
 20
581.8045727691854
 30
0.0
 11
364.6232284440705
 21
581.8045727691854
 31
0.0
  0
LINE
  5
255
330
1F
100
AcDbEntity
  8
0-0
  6
JWW_DASHED1
 62
   120
370
     5
100
AcDbLine
 10
-208.37677155593
 20
582.8045727690856
 30
0.0
 11
364.6232284440705
 21
582.8045727690856
 31
0.0
  0
LINE
  5
256
330
1F
100
AcDbEntity
  8
0-0
  6
JWW_DASHED1
 62
   120
370
     5
100
AcDbLine
 10
-208.37677155593
 20
595.8045727701851
 30
0.0
 11
364.6232284440705
 21
595.8045727701851
 31
0.0
  0
LINE
  5
257
330
1F
100
AcDbEntity
  8
0-0
  6
JWW_DASHED1
 62
   120
370
     5
100
AcDbLine
 10
-208.37677155593
 20
596.8045727700853
 30
0.0
 11
364.6232284440705
 21
596.8045727700853
 31
0.0
  0
LINE
  5
258
330
1F
100
AcDbEntity
  8
0-0
  6
JWW_DASHED1
 62
   120
370
     5
100
AcDbLine
 10
-208.37677155593
 20
609.8045727711849
 30
0.0
 11
364.6232284440705
 21
609.8045727711849
 31
0.0
  0
LINE
  5
259
330
1F
100
AcDbEntity
  8
0-0
  6
JWW_DASHED1
 62
   120
370
     5
100
AcDbLine
 10
-208.37677155593
 20
610.8045727710851
 30
0.0
 11
364.6232284440705
 21
610.8045727710851
 31
0.0
  0
LINE
  5
25A
330
1F
100
AcDbEntity
  8
0-0
  6
JWW_DASHED1
 62
   120
370
     5
100
AcDbLine
 10
-208.37677155593
 20
623.8045727721847
 30
0.0
 11
364.6232284440705
 21
623.8045727721847
 31
0.0
  0
LINE
  5
25B
330
1F
100
AcDbEntity
  8
0-0
  6
JWW_DASHED1
 62
   120
370
     5
100
AcDbLine
 10
-208.37677155593
 20
624.8045727720848
 30
0.0
 11
364.6232284440705
 21
624.8045727720848
 31
0.0
  0
LINE
  5
25C
330
1F
100
AcDbEntity
  8
0-0
  6
JWW_DASHED1
 62
   120
370
     5
100
AcDbLine
 10
-208.37677155593
 20
637.8045727731844
 30
0.0
 11
364.6232284440705
 21
637.8045727731844
 31
0.0
  0
LINE
  5
25D
330
1F
100
AcDbEntity
  8
0-0
  6
JWW_DASHED1
 62
   120
370
     5
100
AcDbLine
 10
-208.37677155593
 20
638.8045727730846
 30
0.0
 11
364.6232284440705
 21
638.8045727730846
 31
0.0
  0
LINE
  5
25E
330
1F
100
AcDbEntity
  8
0-0
  6
JWW_DASHED1
 62
   120
370
     5
100
AcDbLine
 10
-208.37677155593
 20
651.8045727741843
 30
0.0
 11
364.6232284440705
 21
651.8045727741843
 31
0.0
  0
LINE
  5
25F
330
1F
100
AcDbEntity
  8
0-0
  6
JWW_DASHED1
 62
   120
370
     5
100
AcDbLine
 10
-208.37677155593
 20
652.8045727740845
 30
0.0
 11
364.6232284440705
 21
652.8045727740845
 31
0.0
  0
LINE
  5
260
330
1F
100
AcDbEntity
  8
0-0
  6
JWW_DASHED1
 62
   120
370
     5
100
AcDbLine
 10
-208.37677155593
 20
665.8045727751838
 30
0.0
 11
364.6232284440705
 21
665.8045727751838
 31
0.0
  0
LINE
  5
261
330
1F
100
AcDbEntity
  8
0-0
  6
JWW_DASHED1
 62
   120
370
     5
100
AcDbLine
 10
-208.37677155593
 20
666.8045727750842
 30
0.0
 11
364.6232284440705
 21
666.8045727750842
 31
0.0
  0
LINE
  5
262
330
1F
100
AcDbEntity
  8
0-0
  6
JWW_DASHED1
 62
   120
370
     5
100
AcDbLine
 10
-208.37677155593
 20
679.8045727761838
 30
0.0
 11
364.6232284440705
 21
679.8045727761838
 31
0.0
  0
LINE
  5
263
330
1F
100
AcDbEntity
  8
0-0
  6
JWW_DASHED1
 62
   120
370
     5
100
AcDbLine
 10
-208.37677155593
 20
680.804572776084
 30
0.0
 11
364.6232284440705
 21
680.804572776084
 31
0.0
  0
LINE
  5
264
330
1F
100
AcDbEntity
  8
0-0
  6
JWW_DASHED1
 62
   120
370
     5
100
AcDbLine
 10
-208.37677155593
 20
693.8045727771837
 30
0.0
 11
364.6232284440705
 21
693.8045727771837
 31
0.0
  0
LINE
  5
265
330
1F
100
AcDbEntity
  8
0-0
  6
JWW_DASHED1
 62
   120
370
     5
100
AcDbLine
 10
-208.37677155593
 20
694.8045727770839
 30
0.0
 11
364.6232284440705
 21
694.8045727770839
 31
0.0
  0
LINE
  5
266
330
1F
100
AcDbEntity
  8
0-0
  6
JWW_DASHED1
 62
   120
370
     5
100
AcDbLine
 10
-208.37677155593
 20
707.8045727781835
 30
0.0
 11
364.6232284440705
 21
707.8045727781835
 31
0.0
  0
LINE
  5
267
330
1F
100
AcDbEntity
  8
0-0
  6
JWW_DASHED1
 62
   120
370
     5
100
AcDbLine
 10
-208.37677155593
 20
708.8045727780836
 30
0.0
 11
364.6232284440705
 21
708.8045727780836
 31
0.0
  0
LINE
  5
268
330
1F
100
AcDbEntity
  8
0-0
  6
JWW_DASHED1
 62
   120
370
     5
100
AcDbLine
 10
-208.37677155593
 20
721.8045727791832
 30
0.0
 11
364.6232284440705
 21
721.8045727791832
 31
0.0
  0
LINE
  5
269
330
1F
100
AcDbEntity
  8
0-0
  6
JWW_DASHED1
 62
   120
370
     5
100
AcDbLine
 10
-208.37677155593
 20
722.8045727790834
 30
0.0
 11
364.6232284440705
 21
722.8045727790834
 31
0.0
  0
LINE
  5
26A
330
1F
100
AcDbEntity
  8
0-0
  6
JWW_DASHED1
 62
   120
370
     5
100
AcDbLine
 10
-208.37677155593
 20
735.804572780183
 30
0.0
 11
364.6232284440705
 21
735.804572780183
 31
0.0
  0
LINE
  5
26B
330
1F
100
AcDbEntity
  8
0-0
  6
JWW_DASHED1
 62
   120
370
     5
100
AcDbLine
 10
-208.37677155593
 20
736.8045727800832
 30
0.0
 11
364.6232284440705
 21
736.8045727800832
 31
0.0
  0
LINE
  5
26C
330
1F
100
AcDbEntity
  8
0-0
  6
JWW_DASHED1
 62
   120
370
     5
100
AcDbLine
 10
-208.37677155593
 20
749.8045727811827
 30
0.0
 11
364.6232284440705
 21
749.8045727811827
 31
0.0
  0
LINE
  5
26D
330
1F
100
AcDbEntity
  8
0-0
  6
JWW_DASHED1
 62
   120
370
     5
100
AcDbLine
 10
-208.37677155593
 20
750.8045727810829
 30
0.0
 11
364.6232284440705
 21
750.8045727810829
 31
0.0
  0
LINE
  5
26E
330
1F
100
AcDbEntity
  8
0-0
  6
JWW_DASHED1
 62
   120
370
     5
100
AcDbLine
 10
-208.37677155593
 20
763.8045727821824
 30
0.0
 11
364.6232284440705
 21
763.8045727821824
 31
0.0
  0
LINE
  5
26F
330
1F
100
AcDbEntity
  8
0-0
  6
JWW_DASHED1
 62
   120
370
     5
100
AcDbLine
 10
-208.37677155593
 20
764.8045727820826
 30
0.0
 11
364.6232284440705
 21
764.8045727820826
 31
0.0
  0
LINE
  5
270
330
1F
100
AcDbEntity
  8
0-0
  6
JWW_DASHED1
 62
   120
370
     5
100
AcDbLine
 10
-208.37677155593
 20
777.8045727831824
 30
0.0
 11
364.6232284440705
 21
777.8045727831824
 31
0.0
  0
LINE
  5
271
330
1F
100
AcDbEntity
  8
0-0
  6
JWW_DASHED1
 62
   120
370
     5
100
AcDbLine
 10
-208.37677155593
 20
778.8045727830823
 30
0.0
 11
364.6232284440705
 21
778.8045727830823
 31
0.0
  0
LINE
  5
272
330
1F
100
AcDbEntity
  8
0-0
  6
JWW_DASHED1
 62
   120
370
     5
100
AcDbLine
 10
-208.37677155593
 20
791.8045727841821
 30
0.0
 11
364.6232284440705
 21
791.8045727841821
 31
0.0
  0
LINE
  5
273
330
1F
100
AcDbEntity
  8
0-0
  6
JWW_DASHED1
 62
   120
370
     5
100
AcDbLine
 10
-208.37677155593
 20
792.8045727840823
 30
0.0
 11
364.6232284440705
 21
792.8045727840823
 31
0.0
  0
LINE
  5
274
330
1F
100
AcDbEntity
  8
0-0
  6
JWW_DASHED1
 62
   120
370
     5
100
AcDbLine
 10
-208.37677155593
 20
805.804572785182
 30
0.0
 11
364.6232284440705
 21
805.804572785182
 31
0.0
  0
LINE
  5
275
330
1F
100
AcDbEntity
  8
0-0
  6
JWW_DASHED1
 62
   120
370
     5
100
AcDbLine
 10
-208.37677155593
 20
806.8045727850822
 30
0.0
 11
364.6232284440705
 21
806.8045727850822
 31
0.0
  0
LINE
  5
276
330
1F
100
AcDbEntity
  8
0-0
  6
JWW_DASHED1
 62
   120
370
     5
100
AcDbLine
 10
-208.37677155593
 20
819.8045727861818
 30
0.0
 11
364.6232284440705
 21
819.8045727861818
 31
0.0
  0
LINE
  5
277
330
1F
100
AcDbEntity
  8
0-0
  6
JWW_DASHED1
 62
   120
370
     5
100
AcDbLine
 10
-208.37677155593
 20
820.804572786082
 30
0.0
 11
364.6232284440705
 21
820.804572786082
 31
0.0
  0
LINE
  5
278
330
1F
100
AcDbEntity
  8
0-0
  6
JWW_DASHED1
 62
   120
370
     5
100
AcDbLine
 10
-208.37677155593
 20
833.8045727871815
 30
0.0
 11
364.6232284440705
 21
833.8045727871815
 31
0.0
  0
LINE
  5
279
330
1F
100
AcDbEntity
  8
0-0
  6
JWW_DASHED1
 62
   120
370
     5
100
AcDbLine
 10
-208.37677155593
 20
834.8045727870817
 30
0.0
 11
364.6232284440705
 21
834.8045727870817
 31
0.0
  0
LINE
  5
27A
330
1F
100
AcDbEntity
  8
0-0
  6
JWW_DASHED1
 62
   120
370
     5
100
AcDbLine
 10
-208.37677155593
 20
847.8045727881813
 30
0.0
 11
364.6232284440705
 21
847.8045727881813
 31
0.0
  0
LINE
  5
27B
330
1F
100
AcDbEntity
  8
0-0
  6
JWW_DASHED1
 62
   120
370
     5
100
AcDbLine
 10
-208.37677155593
 20
848.8045727880815
 30
0.0
 11
364.6232284440705
 21
848.8045727880815
 31
0.0
  0
LINE
  5
27C
330
1F
100
AcDbEntity
  8
0-0
  6
JWW_DASHED1
 62
   120
370
     5
100
AcDbLine
 10
-208.37677155593
 20
861.8045727891811
 30
0.0
 11
364.6232284440705
 21
861.8045727891811
 31
0.0
  0
LINE
  5
27D
330
1F
100
AcDbEntity
  8
0-0
  6
JWW_DASHED1
 62
   120
370
     5
100
AcDbLine
 10
-208.37677155593
 20
862.8045727890812
 30
0.0
 11
364.6232284440705
 21
862.8045727890812
 31
0.0
  0
LINE
  5
27E
330
1F
100
AcDbEntity
  8
0-0
  6
JWW_DASHED1
 62
   120
370
     5
100
AcDbLine
 10
-208.37677155593
 20
875.8045727901807
 30
0.0
 11
364.6232284440705
 21
875.8045727901807
 31
0.0
  0
LINE
  5
27F
330
1F
100
AcDbEntity
  8
0-0
  6
JWW_DASHED1
 62
   120
370
     5
100
AcDbLine
 10
-208.37677155593
 20
876.8045727900809
 30
0.0
 11
364.6232284440705
 21
876.8045727900809
 31
0.0
  0
LINE
  5
280
330
1F
100
AcDbEntity
  8
0-0
  6
JWW_DASHED1
 62
   120
370
     5
100
AcDbLine
 10
-208.37677155593
 20
889.8045727911805
 30
0.0
 11
364.6232284440705
 21
889.8045727911805
 31
0.0
  0
LINE
  5
281
330
1F
100
AcDbEntity
  8
0-0
  6
JWW_DASHED1
 62
   120
370
     5
100
AcDbLine
 10
-208.37677155593
 20
890.8045727910809
 30
0.0
 11
364.6232284440705
 21
890.8045727910809
 31
0.0
  0
LINE
  5
282
330
1F
100
AcDbEntity
  8
0-0
  6
JWW_DASHED1
 62
   120
370
     5
100
AcDbLine
 10
-208.37677155593
 20
903.8045727921805
 30
0.0
 11
364.6232284440705
 21
903.8045727921805
 31
0.0
  0
LINE
  5
283
330
1F
100
AcDbEntity
  8
0-0
  6
JWW_DASHED1
 62
   120
370
     5
100
AcDbLine
 10
-208.37677155593
 20
904.8045727920806
 30
0.0
 11
364.6232284440705
 21
904.8045727920806
 31
0.0
  0
LINE
  5
284
330
1F
100
AcDbEntity
  8
0-0
  6
JWW_DASHED1
 62
   120
370
     5
100
AcDbLine
 10
-208.37677155593
 20
917.8045727931803
 30
0.0
 11
364.6232284440705
 21
917.8045727931803
 31
0.0
  0
LINE
  5
285
330
1F
100
AcDbEntity
  8
0-0
  6
JWW_DASHED1
 62
   120
370
     5
100
AcDbLine
 10
-208.37677155593
 20
918.8045727930805
 30
0.0
 11
364.6232284440705
 21
918.8045727930805
 31
0.0
  0
LINE
  5
286
330
1F
100
AcDbEntity
  8
0-0
  6
JWW_DASHED1
 62
   120
370
     5
100
AcDbLine
 10
-208.37677155593
 20
931.8045727941801
 30
0.0
 11
364.6232284440705
 21
931.8045727941801
 31
0.0
  0
LINE
  5
287
330
1F
100
AcDbEntity
  8
0-0
  6
JWW_DASHED1
 62
   120
370
     5
100
AcDbLine
 10
-208.37677155593
 20
932.8045727940803
 30
0.0
 11
364.6232284440705
 21
932.8045727940803
 31
0.0
  0
LINE
  5
288
330
1F
100
AcDbEntity
  8
0-0
  6
JWW_DASHED1
 62
   120
370
     5
100
AcDbLine
 10
-208.37677155593
 20
945.8045727951799
 30
0.0
 11
364.6232284440705
 21
945.8045727951799
 31
0.0
  0
LINE
  5
289
330
1F
100
AcDbEntity
  8
0-0
  6
JWW_DASHED1
 62
   120
370
     5
100
AcDbLine
 10
-208.37677155593
 20
946.80457279508
 30
0.0
 11
364.6232284440705
 21
946.80457279508
 31
0.0
  0
LINE
  5
28A
330
1F
100
AcDbEntity
  8
0-0
  6
JWW_DASHED1
 62
   120
370
     5
100
AcDbLine
 10
-202.3767530978982
 20
-160.1952789699599
 30
0.0
 11
-202.3767530978982
 21
1014.80472103004
 31
0.0
  0
LINE
  5
28B
330
1F
100
AcDbEntity
  8
0-0
  6
JWW_DASHED1
 62
   120
370
     5
100
AcDbLine
 10
330.6232469400021
 20
-160.1952789699599
 30
0.0
 11
330.6232469400021
 21
1014.80472103004
 31
0.0
  0
LINE
  5
28C
330
1F
100
AcDbEntity
  8
0-0
  6
JWW_DASHED1
 62
   120
370
     5
100
AcDbLine
 10
329.6232469401019
 20
-160.1952789699599
 30
0.0
 11
329.6232469401024
 21
1014.80472103004
 31
0.0
  0
LINE
  5
28D
330
1F
100
AcDbEntity
  8
0-0
  6
JWW_DASHED1
 62
   120
370
     5
100
AcDbLine
 10
316.6232469390019
 20
-160.1952789699599
 30
0.0
 11
316.6232469390023
 21
1014.80472103004
 31
0.0
  0
LINE
  5
28E
330
1F
100
AcDbEntity
  8
0-0
  6
JWW_DASHED1
 62
   120
370
     5
100
AcDbLine
 10
315.6232469391022
 20
-160.1952789699599
 30
0.0
 11
315.6232469391022
 21
1014.80472103004
 31
0.0
  0
LINE
  5
28F
330
1F
100
AcDbEntity
  8
0-0
  6
JWW_DASHED1
 62
   120
370
     5
100
AcDbLine
 10
302.6232469380017
 20
-160.1952789699599
 30
0.0
 11
302.6232469380017
 21
1014.80472103004
 31
0.0
  0
LINE
  5
290
330
1F
100
AcDbEntity
  8
0-0
  6
JWW_DASHED1
 62
   120
370
     5
100
AcDbLine
 10
301.6232469381019
 20
-160.1952789699599
 30
0.0
 11
301.6232469381019
 21
1014.80472103004
 31
0.0
  0
LINE
  5
291
330
1F
100
AcDbEntity
  8
0-0
  6
JWW_DASHED1
 62
   120
370
     5
100
AcDbLine
 10
288.6232469370019
 20
-160.1952789699599
 30
0.0
 11
288.6232469370019
 21
1014.80472103004
 31
0.0
  0
LINE
  5
292
330
1F
100
AcDbEntity
  8
0-0
  6
JWW_DASHED1
 62
   120
370
     5
100
AcDbLine
 10
287.6232469371017
 20
-160.1952789699599
 30
0.0
 11
287.6232469371017
 21
1014.80472103004
 31
0.0
  0
LINE
  5
293
330
1F
100
AcDbEntity
  8
0-0
  6
JWW_DASHED1
 62
   120
370
     5
100
AcDbLine
 10
274.6232469360017
 20
-160.1952789699599
 30
0.0
 11
274.6232469360017
 21
1014.80472103004
 31
0.0
  0
LINE
  5
294
330
1F
100
AcDbEntity
  8
0-0
  6
JWW_DASHED1
 62
   120
370
     5
100
AcDbLine
 10
273.6232469361019
 20
-160.1952789699599
 30
0.0
 11
273.6232469361023
 21
1014.80472103004
 31
0.0
  0
LINE
  5
295
330
1F
100
AcDbEntity
  8
0-0
  6
JWW_DASHED1
 62
   120
370
     5
100
AcDbLine
 10
260.6232469350019
 20
-160.1952789699599
 30
0.0
 11
260.6232469350023
 21
1014.80472103004
 31
0.0
  0
LINE
  5
296
330
1F
100
AcDbEntity
  8
0-0
  6
JWW_DASHED1
 62
   120
370
     5
100
AcDbLine
 10
259.6232469351021
 20
-160.1952789699599
 30
0.0
 11
259.6232469351021
 21
1014.80472103004
 31
0.0
  0
LINE
  5
297
330
1F
100
AcDbEntity
  8
0-0
  6
JWW_DASHED1
 62
   120
370
     5
100
AcDbLine
 10
246.6232469340021
 20
-160.1952789699599
 30
0.0
 11
246.6232469340021
 21
1014.80472103004
 31
0.0
  0
LINE
  5
298
330
1F
100
AcDbEntity
  8
0-0
  6
JWW_DASHED1
 62
   120
370
     5
100
AcDbLine
 10
245.6232469341019
 20
-160.1952789699599
 30
0.0
 11
245.6232469341019
 21
1014.80472103004
 31
0.0
  0
LINE
  5
299
330
1F
100
AcDbEntity
  8
0-0
  6
JWW_DASHED1
 62
   120
370
     5
100
AcDbLine
 10
232.6232469330023
 20
-160.1952789699599
 30
0.0
 11
232.6232469330023
 21
1014.80472103004
 31
0.0
  0
LINE
  5
29A
330
1F
100
AcDbEntity
  8
0-0
  6
JWW_DASHED1
 62
   120
370
     5
100
AcDbLine
 10
231.6232469331021
 20
-160.1952789699599
 30
0.0
 11
231.6232469331021
 21
1014.80472103004
 31
0.0
  0
LINE
  5
29B
330
1F
100
AcDbEntity
  8
0-0
  6
JWW_DASHED1
 62
   120
370
     5
100
AcDbLine
 10
218.6232469320023
 20
-160.1952789699599
 30
0.0
 11
218.6232469320023
 21
1014.80472103004
 31
0.0
  0
LINE
  5
29C
330
1F
100
AcDbEntity
  8
0-0
  6
JWW_DASHED1
 62
   120
370
     5
100
AcDbLine
 10
217.6232469321023
 20
-160.1952789699599
 30
0.0
 11
217.6232469321023
 21
1014.80472103004
 31
0.0
  0
LINE
  5
29D
330
1F
100
AcDbEntity
  8
0-0
  6
JWW_DASHED1
 62
   120
370
     5
100
AcDbLine
 10
204.6232469310023
 20
-160.1952789699599
 30
0.0
 11
204.6232469310023
 21
1014.80472103004
 31
0.0
  0
LINE
  5
29E
330
1F
100
AcDbEntity
  8
0-0
  6
JWW_DASHED1
 62
   120
370
     5
100
AcDbLine
 10
203.6232469311019
 20
-160.1952789699599
 30
0.0
 11
203.6232469311019
 21
1014.80472103004
 31
0.0
  0
LINE
  5
29F
330
1F
100
AcDbEntity
  8
0-0
  6
JWW_DASHED1
 62
   120
370
     5
100
AcDbLine
 10
190.6232469300019
 20
-160.1952789699599
 30
0.0
 11
190.6232469300019
 21
1014.80472103004
 31
0.0
  0
LINE
  5
2A0
330
1F
100
AcDbEntity
  8
0-0
  6
JWW_DASHED1
 62
   120
370
     5
100
AcDbLine
 10
189.6232469301019
 20
-160.1952789699599
 30
0.0
 11
189.6232469301019
 21
1014.80472103004
 31
0.0
  0
LINE
  5
2A1
330
1F
100
AcDbEntity
  8
0-0
  6
JWW_DASHED1
 62
   120
370
     5
100
AcDbLine
 10
176.6232469290023
 20
-160.1952789699599
 30
0.0
 11
176.6232469290023
 21
1014.80472103004
 31
0.0
  0
LINE
  5
2A2
330
1F
100
AcDbEntity
  8
0-0
  6
JWW_DASHED1
 62
   120
370
     5
100
AcDbLine
 10
175.6232469291021
 20
-160.1952789699599
 30
0.0
 11
175.6232469291021
 21
1014.80472103004
 31
0.0
  0
LINE
  5
2A3
330
1F
100
AcDbEntity
  8
0-0
  6
JWW_DASHED1
 62
   120
370
     5
100
AcDbLine
 10
162.6232469280025
 20
-160.1952789699599
 30
0.0
 11
162.6232469280025
 21
1014.80472103004
 31
0.0
  0
LINE
  5
2A4
330
1F
100
AcDbEntity
  8
0-0
  6
JWW_DASHED1
 62
   120
370
     5
100
AcDbLine
 10
161.6232469281023
 20
-160.1952789699599
 30
0.0
 11
161.6232469281023
 21
1014.80472103004
 31
0.0
  0
LINE
  5
2A5
330
1F
100
AcDbEntity
  8
0-0
  6
JWW_DASHED1
 62
   120
370
     5
100
AcDbLine
 10
148.6232469270023
 20
-160.1952789699599
 30
0.0
 11
148.6232469270023
 21
1014.80472103004
 31
0.0
  0
LINE
  5
2A6
330
1F
100
AcDbEntity
  8
0-0
  6
JWW_DASHED1
 62
   120
370
     5
100
AcDbLine
 10
147.6232469271021
 20
-160.1952789699599
 30
0.0
 11
147.6232469271021
 21
1014.80472103004
 31
0.0
  0
LINE
  5
2A7
330
1F
100
AcDbEntity
  8
0-0
  6
JWW_DASHED1
 62
   120
370
     5
100
AcDbLine
 10
134.6232469260021
 20
-160.1952789699599
 30
0.0
 11
134.6232469260021
 21
1014.80472103004
 31
0.0
  0
LINE
  5
2A8
330
1F
100
AcDbEntity
  8
0-0
  6
JWW_DASHED1
 62
   120
370
     5
100
AcDbLine
 10
133.6232469261019
 20
-160.1952789699599
 30
0.0
 11
133.6232469261019
 21
1014.80472103004
 31
0.0
  0
LINE
  5
2A9
330
1F
100
AcDbEntity
  8
0-0
  6
JWW_DASHED1
 62
   120
370
     5
100
AcDbLine
 10
120.6232469250023
 20
-160.1952789699599
 30
0.0
 11
120.6232469250023
 21
1014.80472103004
 31
0.0
  0
LINE
  5
2AA
330
1F
100
AcDbEntity
  8
0-0
  6
JWW_DASHED1
 62
   120
370
     5
100
AcDbLine
 10
119.6232469251021
 20
-160.1952789699599
 30
0.0
 11
119.6232469251021
 21
1014.80472103004
 31
0.0
  0
LINE
  5
2AB
330
1F
100
AcDbEntity
  8
0-0
  6
JWW_DASHED1
 62
   120
370
     5
100
AcDbLine
 10
106.6232469240025
 20
-160.1952789699599
 30
0.0
 11
106.6232469240025
 21
1014.80472103004
 31
0.0
  0
LINE
  5
2AC
330
1F
100
AcDbEntity
  8
0-0
  6
JWW_DASHED1
 62
   120
370
     5
100
AcDbLine
 10
105.6232469241019
 20
-160.1952789699599
 30
0.0
 11
105.6232469241019
 21
1014.80472103004
 31
0.0
  0
LINE
  5
2AD
330
1F
100
AcDbEntity
  8
0-0
  6
JWW_DASHED1
 62
   120
370
     5
100
AcDbLine
 10
92.62324692300226
 20
-160.1952789699599
 30
0.0
 11
92.62324692300226
 21
1014.80472103004
 31
0.0
  0
LINE
  5
2AE
330
1F
100
AcDbEntity
  8
0-0
  6
JWW_DASHED1
 62
   120
370
     5
100
AcDbLine
 10
91.62324692310207
 20
-160.1952789699599
 30
0.0
 11
91.62324692310207
 21
1014.80472103004
 31
0.0
  0
LINE
  5
2AF
330
1F
100
AcDbEntity
  8
0-0
  6
JWW_DASHED1
 62
   120
370
     5
100
AcDbLine
 10
78.62324692200204
 20
-160.1952789699599
 30
0.0
 11
78.62324692200204
 21
1014.80472103004
 31
0.0
  0
LINE
  5
2B0
330
1F
100
AcDbEntity
  8
0-0
  6
JWW_DASHED1
 62
   120
370
     5
100
AcDbLine
 10
77.62324692210186
 20
-160.1952789699599
 30
0.0
 11
77.62324692210186
 21
1014.80472103004
 31
0.0
  0
LINE
  5
2B1
330
1F
100
AcDbEntity
  8
0-0
  6
JWW_DASHED1
 62
   120
370
     5
100
AcDbLine
 10
64.62324692100182
 20
-160.1952789699599
 30
0.0
 11
64.62324692100182
 21
1014.80472103004
 31
0.0
  0
LINE
  5
2B2
330
1F
100
AcDbEntity
  8
0-0
  6
JWW_DASHED1
 62
   120
370
     5
100
AcDbLine
 10
63.62324692110207
 20
-160.1952789699599
 30
0.0
 11
63.62324692110207
 21
1014.80472103004
 31
0.0
  0
LINE
  5
2B3
330
1F
100
AcDbEntity
  8
0-0
  6
JWW_DASHED1
 62
   120
370
     5
100
AcDbLine
 10
50.62324692000246
 20
-160.1952789699599
 30
0.0
 11
50.62324692000246
 21
1014.80472103004
 31
0.0
  0
LINE
  5
2B4
330
1F
100
AcDbEntity
  8
0-0
  6
JWW_DASHED1
 62
   120
370
     5
100
AcDbLine
 10
49.62324692010228
 20
-160.1952789699599
 30
0.0
 11
49.62324692010228
 21
1014.80472103004
 31
0.0
  0
LINE
  5
2B5
330
1F
100
AcDbEntity
  8
0-0
  6
JWW_DASHED1
 62
   120
370
     5
100
AcDbLine
 10
36.62324691900224
 20
-160.1952789699599
 30
0.0
 11
36.62324691900224
 21
1014.80472103004
 31
0.0
  0
LINE
  5
2B6
330
1F
100
AcDbEntity
  8
0-0
  6
JWW_DASHED1
 62
   120
370
     5
100
AcDbLine
 10
35.62324691910206
 20
-160.1952789699599
 30
0.0
 11
35.62324691910206
 21
1014.80472103004
 31
0.0
  0
LINE
  5
2B7
330
1F
100
AcDbEntity
  8
0-0
  6
JWW_DASHED1
 62
   120
370
     5
100
AcDbLine
 10
22.62324691800202
 20
-160.1952789699599
 30
0.0
 11
22.62324691800202
 21
1014.80472103004
 31
0.0
  0
LINE
  5
2B8
330
1F
100
AcDbEntity
  8
0-0
  6
JWW_DASHED1
 62
   120
370
     5
100
AcDbLine
 10
21.62324691810184
 20
-160.1952789699599
 30
0.0
 11
21.62324691810184
 21
1014.80472103004
 31
0.0
  0
LINE
  5
2B9
330
1F
100
AcDbEntity
  8
0-0
  6
JWW_DASHED1
 62
   120
370
     5
100
AcDbLine
 10
8.623246917002234
 20
-160.1952789699599
 30
0.0
 11
8.623246917002234
 21
1014.80472103004
 31
0.0
  0
LINE
  5
2BA
330
1F
100
AcDbEntity
  8
0-0
  6
JWW_DASHED1
 62
   120
370
     5
100
AcDbLine
 10
7.623246917102051
 20
-160.1952789699599
 30
0.0
 11
7.623246917102051
 21
1014.80472103004
 31
0.0
  0
LINE
  5
2BB
330
1F
100
AcDbEntity
  8
0-0
  6
JWW_DASHED1
 62
   120
370
     5
100
AcDbLine
 10
-5.376753083997556
 20
-160.1952789699599
 30
0.0
 11
-5.376753083997556
 21
1014.80472103004
 31
0.0
  0
LINE
  5
2BC
330
1F
100
AcDbEntity
  8
0-0
  6
JWW_DASHED1
 62
   120
370
     5
100
AcDbLine
 10
-6.376753083897952
 20
-160.1952789699599
 30
0.0
 11
-6.376753083897952
 21
1014.80472103004
 31
0.0
  0
LINE
  5
2BD
330
1F
100
AcDbEntity
  8
0-0
  6
JWW_DASHED1
 62
   120
370
     5
100
AcDbLine
 10
-19.37675308499799
 20
-160.1952789699599
 30
0.0
 11
-19.37675308499799
 21
1014.80472103004
 31
0.0
  0
LINE
  5
2BE
330
1F
100
AcDbEntity
  8
0-0
  6
JWW_DASHED1
 62
   120
370
     5
100
AcDbLine
 10
-20.37675308489796
 20
-160.1952789699599
 30
0.0
 11
-20.37675308489796
 21
1014.80472103004
 31
0.0
  0
LINE
  5
2BF
330
1F
100
AcDbEntity
  8
0-0
  6
JWW_DASHED1
 62
   120
370
     5
100
AcDbLine
 10
-33.37675308599799
 20
-160.1952789699599
 30
0.0
 11
-33.37675308599799
 21
1014.80472103004
 31
0.0
  0
LINE
  5
2C0
330
1F
100
AcDbEntity
  8
0-0
  6
JWW_DASHED1
 62
   120
370
     5
100
AcDbLine
 10
-34.37675308589839
 20
-160.1952789699599
 30
0.0
 11
-34.37675308589839
 21
1014.80472103004
 31
0.0
  0
LINE
  5
2C1
330
1F
100
AcDbEntity
  8
0-0
  6
JWW_DASHED1
 62
   120
370
     5
100
AcDbLine
 10
-47.37675308699778
 20
-160.1952789699599
 30
0.0
 11
-47.37675308699778
 21
1014.80472103004
 31
0.0
  0
LINE
  5
2C2
330
1F
100
AcDbEntity
  8
0-0
  6
JWW_DASHED1
 62
   120
370
     5
100
AcDbLine
 10
-48.37675308689796
 20
-160.1952789699599
 30
0.0
 11
-48.37675308689796
 21
1014.80472103004
 31
0.0
  0
LINE
  5
2C3
330
1F
100
AcDbEntity
  8
0-0
  6
JWW_DASHED1
 62
   120
370
     5
100
AcDbLine
 10
-61.37675308799757
 20
-160.1952789699599
 30
0.0
 11
-61.37675308799757
 21
1014.80472103004
 31
0.0
  0
LINE
  5
2C4
330
1F
100
AcDbEntity
  8
0-0
  6
JWW_DASHED1
 62
   120
370
     5
100
AcDbLine
 10
-62.37675308789775
 20
-160.1952789699599
 30
0.0
 11
-62.37675308789775
 21
1014.80472103004
 31
0.0
  0
LINE
  5
2C5
330
1F
100
AcDbEntity
  8
0-0
  6
JWW_DASHED1
 62
   120
370
     5
100
AcDbLine
 10
-75.37675308899779
 20
-160.1952789699599
 30
0.0
 11
-75.37675308899779
 21
1014.80472103004
 31
0.0
  0
LINE
  5
2C6
330
1F
100
AcDbEntity
  8
0-0
  6
JWW_DASHED1
 62
   120
370
     5
100
AcDbLine
 10
-76.37675308889797
 20
-160.1952789699599
 30
0.0
 11
-76.37675308889797
 21
1014.80472103004
 31
0.0
  0
LINE
  5
2C7
330
1F
100
AcDbEntity
  8
0-0
  6
JWW_DASHED1
 62
   120
370
     5
100
AcDbLine
 10
-89.376753089998
 20
-160.1952789699599
 30
0.0
 11
-89.376753089998
 21
1014.80472103004
 31
0.0
  0
LINE
  5
2C8
330
1F
100
AcDbEntity
  8
0-0
  6
JWW_DASHED1
 62
   120
370
     5
100
AcDbLine
 10
-90.37675308989819
 20
-160.1952789699599
 30
0.0
 11
-90.37675308989819
 21
1014.80472103004
 31
0.0
  0
LINE
  5
2C9
330
1F
100
AcDbEntity
  8
0-0
  6
JWW_DASHED1
 62
   120
370
     5
100
AcDbLine
 10
-103.3767530909974
 20
-160.1952789699599
 30
0.0
 11
-103.3767530909974
 21
1014.80472103004
 31
0.0
  0
LINE
  5
2CA
330
1F
100
AcDbEntity
  8
0-0
  6
JWW_DASHED1
 62
   120
370
     5
100
AcDbLine
 10
-104.3767530908976
 20
-160.1952789699599
 30
0.0
 11
-104.3767530908976
 21
1014.80472103004
 31
0.0
  0
LINE
  5
2CB
330
1F
100
AcDbEntity
  8
0-0
  6
JWW_DASHED1
 62
   120
370
     5
100
AcDbLine
 10
-117.3767530919976
 20
-160.1952789699599
 30
0.0
 11
-117.3767530919976
 21
1014.80472103004
 31
0.0
  0
LINE
  5
2CC
330
1F
100
AcDbEntity
  8
0-0
  6
JWW_DASHED1
 62
   120
370
     5
100
AcDbLine
 10
-118.3767530918978
 20
-160.1952789699599
 30
0.0
 11
-118.3767530918978
 21
1014.80472103004
 31
0.0
  0
LINE
  5
2CD
330
1F
100
AcDbEntity
  8
0-0
  6
JWW_DASHED1
 62
   120
370
     5
100
AcDbLine
 10
-131.3767530929978
 20
-160.1952789699599
 30
0.0
 11
-131.3767530929978
 21
1014.80472103004
 31
0.0
  0
LINE
  5
2CE
330
1F
100
AcDbEntity
  8
0-0
  6
JWW_DASHED1
 62
   120
370
     5
100
AcDbLine
 10
-132.376753092898
 20
-160.1952789699599
 30
0.0
 11
-132.376753092898
 21
1014.80472103004
 31
0.0
  0
LINE
  5
2CF
330
1F
100
AcDbEntity
  8
0-0
  6
JWW_DASHED1
 62
   120
370
     5
100
AcDbLine
 10
-145.376753093998
 20
-160.1952789699599
 30
0.0
 11
-145.376753093998
 21
1014.80472103004
 31
0.0
  0
LINE
  5
2D0
330
1F
100
AcDbEntity
  8
0-0
  6
JWW_DASHED1
 62
   120
370
     5
100
AcDbLine
 10
-146.3767530938982
 20
-160.1952789699599
 30
0.0
 11
-146.3767530938982
 21
1014.80472103004
 31
0.0
  0
LINE
  5
2D1
330
1F
100
AcDbEntity
  8
0-0
  6
JWW_DASHED1
 62
   120
370
     5
100
AcDbLine
 10
-159.3767530949982
 20
-160.1952789699599
 30
0.0
 11
-159.3767530949982
 21
1014.80472103004
 31
0.0
  0
LINE
  5
2D2
330
1F
100
AcDbEntity
  8
0-0
  6
JWW_DASHED1
 62
   120
370
     5
100
AcDbLine
 10
-160.3767530948984
 20
-160.1952789699599
 30
0.0
 11
-160.3767530948984
 21
1014.80472103004
 31
0.0
  0
LINE
  5
2D3
330
1F
100
AcDbEntity
  8
0-0
  6
JWW_DASHED1
 62
   120
370
     5
100
AcDbLine
 10
-173.3767530959976
 20
-160.1952789699599
 30
0.0
 11
-173.3767530959976
 21
1014.80472103004
 31
0.0
  0
LINE
  5
2D4
330
1F
100
AcDbEntity
  8
0-0
  6
JWW_DASHED1
 62
   120
370
     5
100
AcDbLine
 10
-174.3767530958978
 20
-160.1952789699599
 30
0.0
 11
-174.3767530958978
 21
1014.80472103004
 31
0.0
  0
LINE
  5
2D5
330
1F
100
AcDbEntity
  8
0-0
  6
JWW_DASHED1
 62
   120
370
     5
100
AcDbLine
 10
-187.3767530969978
 20
-160.1952789699599
 30
0.0
 11
-187.3767530969978
 21
1014.80472103004
 31
0.0
  0
LINE
  5
2D6
330
1F
100
AcDbEntity
  8
0-0
  6
JWW_DASHED1
 62
   120
370
     5
100
AcDbLine
 10
-188.376753096898
 20
-160.1952789699599
 30
0.0
 11
-188.376753096898
 21
1014.80472103004
 31
0.0
  0
LINE
  5
2D7
330
1F
100
AcDbEntity
  8
0-0
  6
JWW_DASHED1
 62
   120
370
     5
100
AcDbLine
 10
-201.376753097998
 20
-160.1952789699599
 30
0.0
 11
-201.376753097998
 21
1014.80472103004
 31
0.0
  0
LINE
  5
2D8
330
1F
100
AcDbEntity
  8
0-0
  6
JWW_DASHED1
 62
   120
370
     5
100
AcDbLine
 10
358.6232469420021
 20
-160.1952789699599
 30
0.0
 11
358.6232469420021
 21
1014.80472103004
 31
0.0
  0
LINE
  5
2D9
330
1F
100
AcDbEntity
  8
0-0
  6
JWW_DASHED1
 62
   120
370
     5
100
AcDbLine
 10
343.6232469411021
 20
-160.1952789699599
 30
0.0
 11
343.6232469411021
 21
1014.80472103004
 31
0.0
  0
LINE
  5
2DA
330
1F
100
AcDbEntity
  8
0-0
  6
JWW_DASHED1
 62
   120
370
     5
100
AcDbLine
 10
357.6232469421019
 20
-160.1952789699599
 30
0.0
 11
357.6232469421019
 21
1014.80472103004
 31
0.0
  0
LINE
  5
2DB
330
1F
100
AcDbEntity
  8
0-0
  6
JWW_DASHED1
 62
   120
370
     5
100
AcDbLine
 10
344.6232469410019
 20
-160.1952789699599
 30
0.0
 11
344.6232469410019
 21
1014.80472103004
 31
0.0
  0
LINE
  5
2DC
330
1F
100
AcDbEntity
  8
0-0
  6
JWW_DASHED1
 62
   120
370
     5
100
AcDbLine
 10
-208.3767715559293
 20
1002.804572799079
 30
0.0
 11
364.6232284440698
 21
1002.804572799079
 31
0.0
  0
LINE
  5
2DD
330
1F
100
AcDbEntity
  8
0-0
  6
JWW_DASHED1
 62
   120
370
     5
100
AcDbLine
 10
-208.3767715559293
 20
959.8045727961796
 30
0.0
 11
364.6232284440698
 21
959.8045727961796
 31
0.0
  0
LINE
  5
2DE
330
1F
100
AcDbEntity
  8
0-0
  6
JWW_DASHED1
 62
   120
370
     5
100
AcDbLine
 10
-208.3767715559293
 20
960.8045727960798
 30
0.0
 11
364.6232284440698
 21
960.8045727960798
 31
0.0
  0
LINE
  5
2DF
330
1F
100
AcDbEntity
  8
0-0
  6
JWW_DASHED1
 62
   120
370
     5
100
AcDbLine
 10
-208.3767715559293
 20
973.8045727971794
 30
0.0
 11
364.6232284440698
 21
973.8045727971794
 31
0.0
  0
LINE
  5
2E0
330
1F
100
AcDbEntity
  8
0-0
  6
JWW_DASHED1
 62
   120
370
     5
100
AcDbLine
 10
-208.3767715559293
 20
974.8045727970796
 30
0.0
 11
364.6232284440698
 21
974.8045727970796
 31
0.0
  0
LINE
  5
2E1
330
1F
100
AcDbEntity
  8
0-0
  6
JWW_DASHED1
 62
   120
370
     5
100
AcDbLine
 10
-208.3767715559293
 20
987.804572798179
 30
0.0
 11
364.6232284440698
 21
987.804572798179
 31
0.0
  0
LINE
  5
2E2
330
1F
100
AcDbEntity
  8
0-0
  6
JWW_DASHED1
 62
   120
370
     5
100
AcDbLine
 10
-208.3767715559293
 20
988.8045727980792
 30
0.0
 11
364.6232284440698
 21
988.8045727980792
 31
0.0
  0
LINE
  5
2E3
330
1F
100
AcDbEntity
  8
0-0
  6
JWW_DASHED1
 62
   120
370
     5
100
AcDbLine
 10
-208.3767715559293
 20
1001.804572799179
 30
0.0
 11
364.6232284440698
 21
1001.804572799179
 31
0.0
  0
LINE
  5
2E4
330
1F
100
AcDbEntity
  8
0-0
  6
JWW_DASHED1
 62
   120
370
     5
100
AcDbLine
 10
571.62322844407
 20
-159.1954272839034
 30
0.0
 11
1144.623228444071
 21
-159.1954272839034
 31
0.0
  0
LINE
  5
2E5
330
1F
100
AcDbEntity
  8
0-0
  6
JWW_DASHED1
 62
   120
370
     5
100
AcDbLine
 10
571.62322844407
 20
-146.1954272828039
 30
0.0
 11
1144.623228444071
 21
-146.1954272828039
 31
0.0
  0
LINE
  5
2E6
330
1F
100
AcDbEntity
  8
0-0
  6
JWW_DASHED1
 62
   120
370
     5
100
AcDbLine
 10
571.62322844407
 20
-145.1954272829037
 30
0.0
 11
1144.623228444071
 21
-145.1954272829037
 31
0.0
  0
LINE
  5
2E7
330
1F
100
AcDbEntity
  8
0-0
  6
JWW_DASHED1
 62
   120
370
     5
100
AcDbLine
 10
571.62322844407
 20
-132.195427281804
 30
0.0
 11
1144.623228444071
 21
-132.195427281804
 31
0.0
  0
LINE
  5
2E8
330
1F
100
AcDbEntity
  8
0-0
  6
JWW_DASHED1
 62
   120
370
     5
100
AcDbLine
 10
571.62322844407
 20
-131.1954272819038
 30
0.0
 11
1144.623228444071
 21
-131.1954272819038
 31
0.0
  0
LINE
  5
2E9
330
1F
100
AcDbEntity
  8
0-0
  6
JWW_DASHED1
 62
   120
370
     5
100
AcDbLine
 10
571.62322844407
 20
-118.1954272808042
 30
0.0
 11
1144.623228444071
 21
-118.1954272808042
 31
0.0
  0
LINE
  5
2EA
330
1F
100
AcDbEntity
  8
0-0
  6
JWW_DASHED1
 62
   120
370
     5
100
AcDbLine
 10
571.62322844407
 20
-117.195427280904
 30
0.0
 11
1144.623228444071
 21
-117.195427280904
 31
0.0
  0
LINE
  5
2EB
330
1F
100
AcDbEntity
  8
0-0
  6
JWW_DASHED1
 62
   120
370
     5
100
AcDbLine
 10
571.62322844407
 20
-104.1954272798044
 30
0.0
 11
1144.623228444071
 21
-104.1954272798044
 31
0.0
  0
LINE
  5
2EC
330
1F
100
AcDbEntity
  8
0-0
  6
JWW_DASHED1
 62
   120
370
     5
100
AcDbLine
 10
571.62322844407
 20
-103.1954272799042
 30
0.0
 11
1144.623228444071
 21
-103.1954272799042
 31
0.0
  0
LINE
  5
2ED
330
1F
100
AcDbEntity
  8
0-0
  6
JWW_DASHED1
 62
   120
370
     5
100
AcDbLine
 10
571.62322844407
 20
-90.19542727880463
 30
0.0
 11
1144.623228444071
 21
-90.19542727880463
 31
0.0
  0
LINE
  5
2EE
330
1F
100
AcDbEntity
  8
0-0
  6
JWW_DASHED1
 62
   120
370
     5
100
AcDbLine
 10
571.62322844407
 20
-89.19542727890445
 30
0.0
 11
1144.623228444071
 21
-89.19542727890445
 31
0.0
  0
LINE
  5
2EF
330
1F
100
AcDbEntity
  8
0-0
  6
JWW_DASHED1
 62
   120
370
     5
100
AcDbLine
 10
571.62322844407
 20
-76.19542727780484
 30
0.0
 11
1144.623228444071
 21
-76.19542727780484
 31
0.0
  0
LINE
  5
2F0
330
1F
100
AcDbEntity
  8
0-0
  6
JWW_DASHED1
 62
   120
370
     5
100
AcDbLine
 10
571.62322844407
 20
-75.19542727790466
 30
0.0
 11
1144.623228444071
 21
-75.19542727790466
 31
0.0
  0
LINE
  5
2F1
330
1F
100
AcDbEntity
  8
0-0
  6
JWW_DASHED1
 62
   120
370
     5
100
AcDbLine
 10
571.62322844407
 20
-62.19542727680505
 30
0.0
 11
1144.623228444071
 21
-62.19542727680505
 31
0.0
  0
LINE
  5
2F2
330
1F
100
AcDbEntity
  8
0-0
  6
JWW_DASHED1
 62
   120
370
     5
100
AcDbLine
 10
571.62322844407
 20
-61.19542727690487
 30
0.0
 11
1144.623228444071
 21
-61.19542727690487
 31
0.0
  0
LINE
  5
2F3
330
1F
100
AcDbEntity
  8
0-0
  6
JWW_DASHED1
 62
   120
370
     5
100
AcDbLine
 10
571.62322844407
 20
-48.19542727580526
 30
0.0
 11
1144.623228444071
 21
-48.19542727580526
 31
0.0
  0
LINE
  5
2F4
330
1F
100
AcDbEntity
  8
0-0
  6
JWW_DASHED1
 62
   120
370
     5
100
AcDbLine
 10
571.62322844407
 20
-47.19542727590508
 30
0.0
 11
1144.623228444071
 21
-47.19542727590508
 31
0.0
  0
LINE
  5
2F5
330
1F
100
AcDbEntity
  8
0-0
  6
JWW_DASHED1
 62
   120
370
     5
100
AcDbLine
 10
571.62322844407
 20
-34.19542727480557
 30
0.0
 11
1144.623228444071
 21
-34.19542727480557
 31
0.0
  0
LINE
  5
2F6
330
1F
100
AcDbEntity
  8
0-0
  6
JWW_DASHED1
 62
   120
370
     5
100
AcDbLine
 10
571.62322844407
 20
-33.19542727490539
 30
0.0
 11
1144.623228444071
 21
-33.19542727490539
 31
0.0
  0
LINE
  5
2F7
330
1F
100
AcDbEntity
  8
0-0
  6
JWW_DASHED1
 62
   120
370
     5
100
AcDbLine
 10
571.62322844407
 20
-20.19542727380568
 30
0.0
 11
1144.623228444071
 21
-20.19542727380568
 31
0.0
  0
LINE
  5
2F8
330
1F
100
AcDbEntity
  8
0-0
  6
JWW_DASHED1
 62
   120
370
     5
100
AcDbLine
 10
571.62322844407
 20
-19.19542727390549
 30
0.0
 11
1144.623228444071
 21
-19.19542727390549
 31
0.0
  0
LINE
  5
2F9
330
1F
100
AcDbEntity
  8
0-0
  6
JWW_DASHED1
 62
   120
370
     5
100
AcDbLine
 10
571.62322844407
 20
-6.195427272805887
 30
0.0
 11
1144.623228444071
 21
-6.195427272805887
 31
0.0
  0
LINE
  5
2FA
330
1F
100
AcDbEntity
  8
0-0
  6
JWW_DASHED1
 62
   120
370
     5
100
AcDbLine
 10
571.62322844407
 20
-5.195427272905704
 30
0.0
 11
1144.623228444071
 21
-5.195427272905704
 31
0.0
  0
LINE
  5
2FB
330
1F
100
AcDbEntity
  8
0-0
  6
JWW_DASHED1
 62
   120
370
     5
100
AcDbLine
 10
571.62322844407
 20
7.804572728193904
 30
0.0
 11
1144.623228444071
 21
7.804572728193904
 31
0.0
  0
LINE
  5
2FC
330
1F
100
AcDbEntity
  8
0-0
  6
JWW_DASHED1
 62
   120
370
     5
100
AcDbLine
 10
571.62322844407
 20
8.804572728094087
 30
0.0
 11
1144.623228444071
 21
8.804572728094087
 31
0.0
  0
LINE
  5
2FD
330
1F
100
AcDbEntity
  8
0-0
  6
JWW_DASHED1
 62
   120
370
     5
100
AcDbLine
 10
571.62322844407
 20
21.80457272919369
 30
0.0
 11
1144.623228444071
 21
21.80457272919369
 31
0.0
  0
LINE
  5
2FE
330
1F
100
AcDbEntity
  8
0-0
  6
JWW_DASHED1
 62
   120
370
     5
100
AcDbLine
 10
571.62322844407
 20
22.80457272909388
 30
0.0
 11
1144.623228444071
 21
22.80457272909388
 31
0.0
  0
LINE
  5
2FF
330
1F
100
AcDbEntity
  8
0-0
  6
JWW_DASHED1
 62
   120
370
     5
100
AcDbLine
 10
571.62322844407
 20
35.80457273019348
 30
0.0
 11
1144.623228444071
 21
35.80457273019348
 31
0.0
  0
LINE
  5
300
330
1F
100
AcDbEntity
  8
0-0
  6
JWW_DASHED1
 62
   120
370
     5
100
AcDbLine
 10
571.62322844407
 20
36.80457273009367
 30
0.0
 11
1144.623228444071
 21
36.80457273009367
 31
0.0
  0
LINE
  5
301
330
1F
100
AcDbEntity
  8
0-0
  6
JWW_DASHED1
 62
   120
370
     5
100
AcDbLine
 10
571.62322844407
 20
49.80457273119328
 30
0.0
 11
1144.623228444071
 21
49.80457273119328
 31
0.0
  0
LINE
  5
302
330
1F
100
AcDbEntity
  8
0-0
  6
JWW_DASHED1
 62
   120
370
     5
100
AcDbLine
 10
571.62322844407
 20
50.80457273109346
 30
0.0
 11
1144.623228444071
 21
50.80457273109346
 31
0.0
  0
LINE
  5
303
330
1F
100
AcDbEntity
  8
0-0
  6
JWW_DASHED1
 62
   120
370
     5
100
AcDbLine
 10
571.62322844407
 20
63.80457273219307
 30
0.0
 11
1144.623228444071
 21
63.80457273219307
 31
0.0
  0
LINE
  5
304
330
1F
100
AcDbEntity
  8
0-0
  6
JWW_DASHED1
 62
   120
370
     5
100
AcDbLine
 10
571.62322844407
 20
64.80457273209325
 30
0.0
 11
1144.623228444071
 21
64.80457273209325
 31
0.0
  0
LINE
  5
305
330
1F
100
AcDbEntity
  8
0-0
  6
JWW_DASHED1
 62
   120
370
     5
100
AcDbLine
 10
571.62322844407
 20
77.80457273319274
 30
0.0
 11
1144.623228444071
 21
77.80457273319274
 31
0.0
  0
LINE
  5
306
330
1F
100
AcDbEntity
  8
0-0
  6
JWW_DASHED1
 62
   120
370
     5
100
AcDbLine
 10
571.62322844407
 20
78.80457273309293
 30
0.0
 11
1144.623228444071
 21
78.80457273309293
 31
0.0
  0
LINE
  5
307
330
1F
100
AcDbEntity
  8
0-0
  6
JWW_DASHED1
 62
   120
370
     5
100
AcDbLine
 10
571.62322844407
 20
91.80457273419265
 30
0.0
 11
1144.623228444071
 21
91.80457273419265
 31
0.0
  0
LINE
  5
308
330
1F
100
AcDbEntity
  8
0-0
  6
JWW_DASHED1
 62
   120
370
     5
100
AcDbLine
 10
571.62322844407
 20
92.80457273409283
 30
0.0
 11
1144.623228444071
 21
92.80457273409283
 31
0.0
  0
LINE
  5
309
330
1F
100
AcDbEntity
  8
0-0
  6
JWW_DASHED1
 62
   120
370
     5
100
AcDbLine
 10
571.62322844407
 20
105.8045727351924
 30
0.0
 11
1144.623228444071
 21
105.8045727351924
 31
0.0
  0
LINE
  5
30A
330
1F
100
AcDbEntity
  8
0-0
  6
JWW_DASHED1
 62
   120
370
     5
100
AcDbLine
 10
571.62322844407
 20
106.8045727350926
 30
0.0
 11
1144.623228444071
 21
106.8045727350926
 31
0.0
  0
LINE
  5
30B
330
1F
100
AcDbEntity
  8
0-0
  6
JWW_DASHED1
 62
   120
370
     5
100
AcDbLine
 10
571.62322844407
 20
119.8045727361922
 30
0.0
 11
1144.623228444071
 21
119.8045727361922
 31
0.0
  0
LINE
  5
30C
330
1F
100
AcDbEntity
  8
0-0
  6
JWW_DASHED1
 62
   120
370
     5
100
AcDbLine
 10
571.62322844407
 20
120.8045727360924
 30
0.0
 11
1144.623228444071
 21
120.8045727360924
 31
0.0
  0
LINE
  5
30D
330
1F
100
AcDbEntity
  8
0-0
  6
JWW_DASHED1
 62
   120
370
     5
100
AcDbLine
 10
571.62322844407
 20
133.804572737192
 30
0.0
 11
1144.623228444071
 21
133.804572737192
 31
0.0
  0
LINE
  5
30E
330
1F
100
AcDbEntity
  8
0-0
  6
JWW_DASHED1
 62
   120
370
     5
100
AcDbLine
 10
571.62322844407
 20
134.8045727370922
 30
0.0
 11
1144.623228444071
 21
134.8045727370922
 31
0.0
  0
LINE
  5
30F
330
1F
100
AcDbEntity
  8
0-0
  6
JWW_DASHED1
 62
   120
370
     5
100
AcDbLine
 10
571.62322844407
 20
147.8045727381918
 30
0.0
 11
1144.623228444071
 21
147.8045727381918
 31
0.0
  0
LINE
  5
310
330
1F
100
AcDbEntity
  8
0-0
  6
JWW_DASHED1
 62
   120
370
     5
100
AcDbLine
 10
571.62322844407
 20
148.804572738092
 30
0.0
 11
1144.623228444071
 21
148.804572738092
 31
0.0
  0
LINE
  5
311
330
1F
100
AcDbEntity
  8
0-0
  6
JWW_DASHED1
 62
   120
370
     5
100
AcDbLine
 10
571.62322844407
 20
161.8045727391916
 30
0.0
 11
1144.623228444071
 21
161.8045727391916
 31
0.0
  0
LINE
  5
312
330
1F
100
AcDbEntity
  8
0-0
  6
JWW_DASHED1
 62
   120
370
     5
100
AcDbLine
 10
571.62322844407
 20
162.8045727390918
 30
0.0
 11
1144.623228444071
 21
162.8045727390918
 31
0.0
  0
LINE
  5
313
330
1F
100
AcDbEntity
  8
0-0
  6
JWW_DASHED1
 62
   120
370
     5
100
AcDbLine
 10
571.62322844407
 20
175.8045727401914
 30
0.0
 11
1144.623228444071
 21
175.8045727401914
 31
0.0
  0
LINE
  5
314
330
1F
100
AcDbEntity
  8
0-0
  6
JWW_DASHED1
 62
   120
370
     5
100
AcDbLine
 10
571.62322844407
 20
176.8045727400916
 30
0.0
 11
1144.623228444071
 21
176.8045727400916
 31
0.0
  0
LINE
  5
315
330
1F
100
AcDbEntity
  8
0-0
  6
JWW_DASHED1
 62
   120
370
     5
100
AcDbLine
 10
571.62322844407
 20
189.8045727411912
 30
0.0
 11
1144.623228444071
 21
189.8045727411912
 31
0.0
  0
LINE
  5
316
330
1F
100
AcDbEntity
  8
0-0
  6
JWW_DASHED1
 62
   120
370
     5
100
AcDbLine
 10
571.62322844407
 20
190.8045727410914
 30
0.0
 11
1144.623228444071
 21
190.8045727410914
 31
0.0
  0
LINE
  5
317
330
1F
100
AcDbEntity
  8
0-0
  6
JWW_DASHED1
 62
   120
370
     5
100
AcDbLine
 10
571.62322844407
 20
203.804572742191
 30
0.0
 11
1144.623228444071
 21
203.804572742191
 31
0.0
  0
LINE
  5
318
330
1F
100
AcDbEntity
  8
0-0
  6
JWW_DASHED1
 62
   120
370
     5
100
AcDbLine
 10
571.62322844407
 20
204.8045727420912
 30
0.0
 11
1144.623228444071
 21
204.8045727420912
 31
0.0
  0
LINE
  5
319
330
1F
100
AcDbEntity
  8
0-0
  6
JWW_DASHED1
 62
   120
370
     5
100
AcDbLine
 10
571.62322844407
 20
217.8045727431905
 30
0.0
 11
1144.623228444071
 21
217.8045727431905
 31
0.0
  0
LINE
  5
31A
330
1F
100
AcDbEntity
  8
0-0
  6
JWW_DASHED1
 62
   120
370
     5
100
AcDbLine
 10
571.62322844407
 20
218.8045727430909
 30
0.0
 11
1144.623228444071
 21
218.8045727430909
 31
0.0
  0
LINE
  5
31B
330
1F
100
AcDbEntity
  8
0-0
  6
JWW_DASHED1
 62
   120
370
     5
100
AcDbLine
 10
571.62322844407
 20
231.8045727441906
 30
0.0
 11
1144.623228444071
 21
231.8045727441906
 31
0.0
  0
LINE
  5
31C
330
1F
100
AcDbEntity
  8
0-0
  6
JWW_DASHED1
 62
   120
370
     5
100
AcDbLine
 10
571.62322844407
 20
232.8045727440907
 30
0.0
 11
1144.623228444071
 21
232.8045727440907
 31
0.0
  0
LINE
  5
31D
330
1F
100
AcDbEntity
  8
0-0
  6
JWW_DASHED1
 62
   120
370
     5
100
AcDbLine
 10
571.62322844407
 20
245.8045727451903
 30
0.0
 11
1144.623228444071
 21
245.8045727451903
 31
0.0
  0
LINE
  5
31E
330
1F
100
AcDbEntity
  8
0-0
  6
JWW_DASHED1
 62
   120
370
     5
100
AcDbLine
 10
571.62322844407
 20
246.8045727450905
 30
0.0
 11
1144.623228444071
 21
246.8045727450905
 31
0.0
  0
LINE
  5
31F
330
1F
100
AcDbEntity
  8
0-0
  6
JWW_DASHED1
 62
   120
370
     5
100
AcDbLine
 10
571.62322844407
 20
259.8045727461902
 30
0.0
 11
1144.623228444071
 21
259.8045727461902
 31
0.0
  0
LINE
  5
320
330
1F
100
AcDbEntity
  8
0-0
  6
JWW_DASHED1
 62
   120
370
     5
100
AcDbLine
 10
571.62322844407
 20
260.8045727460903
 30
0.0
 11
1144.623228444071
 21
260.8045727460903
 31
0.0
  0
LINE
  5
321
330
1F
100
AcDbEntity
  8
0-0
  6
JWW_DASHED1
 62
   120
370
     5
100
AcDbLine
 10
571.62322844407
 20
273.8045727471899
 30
0.0
 11
1144.623228444071
 21
273.8045727471899
 31
0.0
  0
LINE
  5
322
330
1F
100
AcDbEntity
  8
0-0
  6
JWW_DASHED1
 62
   120
370
     5
100
AcDbLine
 10
571.62322844407
 20
274.8045727470901
 30
0.0
 11
1144.623228444071
 21
274.8045727470901
 31
0.0
  0
LINE
  5
323
330
1F
100
AcDbEntity
  8
0-0
  6
JWW_DASHED1
 62
   120
370
     5
100
AcDbLine
 10
571.62322844407
 20
287.8045727481897
 30
0.0
 11
1144.623228444071
 21
287.8045727481897
 31
0.0
  0
LINE
  5
324
330
1F
100
AcDbEntity
  8
0-0
  6
JWW_DASHED1
 62
   120
370
     5
100
AcDbLine
 10
571.62322844407
 20
288.8045727480899
 30
0.0
 11
1144.623228444071
 21
288.8045727480899
 31
0.0
  0
LINE
  5
325
330
1F
100
AcDbEntity
  8
0-0
  6
JWW_DASHED1
 62
   120
370
     5
100
AcDbLine
 10
571.62322844407
 20
301.8045727491895
 30
0.0
 11
1144.623228444071
 21
301.8045727491895
 31
0.0
  0
LINE
  5
326
330
1F
100
AcDbEntity
  8
0-0
  6
JWW_DASHED1
 62
   120
370
     5
100
AcDbLine
 10
571.62322844407
 20
302.8045727490897
 30
0.0
 11
1144.623228444071
 21
302.8045727490897
 31
0.0
  0
LINE
  5
327
330
1F
100
AcDbEntity
  8
0-0
  6
JWW_DASHED1
 62
   120
370
     5
100
AcDbLine
 10
571.62322844407
 20
315.8045727501893
 30
0.0
 11
1144.623228444071
 21
315.8045727501893
 31
0.0
  0
LINE
  5
328
330
1F
100
AcDbEntity
  8
0-0
  6
JWW_DASHED1
 62
   120
370
     5
100
AcDbLine
 10
571.62322844407
 20
316.8045727500895
 30
0.0
 11
1144.623228444071
 21
316.8045727500895
 31
0.0
  0
LINE
  5
329
330
1F
100
AcDbEntity
  8
0-0
  6
JWW_DASHED1
 62
   120
370
     5
100
AcDbLine
 10
571.62322844407
 20
329.8045727511891
 30
0.0
 11
1144.623228444071
 21
329.8045727511891
 31
0.0
  0
LINE
  5
32A
330
1F
100
AcDbEntity
  8
0-0
  6
JWW_DASHED1
 62
   120
370
     5
100
AcDbLine
 10
571.62322844407
 20
330.804572751089
 30
0.0
 11
1144.623228444071
 21
330.804572751089
 31
0.0
  0
LINE
  5
32B
330
1F
100
AcDbEntity
  8
0-0
  6
JWW_DASHED1
 62
   120
370
     5
100
AcDbLine
 10
571.62322844407
 20
343.8045727521888
 30
0.0
 11
1144.623228444071
 21
343.8045727521888
 31
0.0
  0
LINE
  5
32C
330
1F
100
AcDbEntity
  8
0-0
  6
JWW_DASHED1
 62
   120
370
     5
100
AcDbLine
 10
571.62322844407
 20
344.804572752089
 30
0.0
 11
1144.623228444071
 21
344.804572752089
 31
0.0
  0
LINE
  5
32D
330
1F
100
AcDbEntity
  8
0-0
  6
JWW_DASHED1
 62
   120
370
     5
100
AcDbLine
 10
571.62322844407
 20
357.8045727531887
 30
0.0
 11
1144.623228444071
 21
357.8045727531887
 31
0.0
  0
LINE
  5
32E
330
1F
100
AcDbEntity
  8
0-0
  6
JWW_DASHED1
 62
   120
370
     5
100
AcDbLine
 10
571.62322844407
 20
358.8045727530888
 30
0.0
 11
1144.623228444071
 21
358.8045727530888
 31
0.0
  0
LINE
  5
32F
330
1F
100
AcDbEntity
  8
0-0
  6
JWW_DASHED1
 62
   120
370
     5
100
AcDbLine
 10
571.62322844407
 20
371.8045727541885
 30
0.0
 11
1144.623228444071
 21
371.8045727541885
 31
0.0
  0
LINE
  5
330
330
1F
100
AcDbEntity
  8
0-0
  6
JWW_DASHED1
 62
   120
370
     5
100
AcDbLine
 10
571.62322844407
 20
372.8045727540887
 30
0.0
 11
1144.623228444071
 21
372.8045727540887
 31
0.0
  0
LINE
  5
331
330
1F
100
AcDbEntity
  8
0-0
  6
JWW_DASHED1
 62
   120
370
     5
100
AcDbLine
 10
571.62322844407
 20
385.8045727551882
 30
0.0
 11
1144.623228444071
 21
385.8045727551882
 31
0.0
  0
LINE
  5
332
330
1F
100
AcDbEntity
  8
0-0
  6
JWW_DASHED1
 62
   120
370
     5
100
AcDbLine
 10
571.62322844407
 20
386.8045727550884
 30
0.0
 11
1144.623228444071
 21
386.8045727550884
 31
0.0
  0
LINE
  5
333
330
1F
100
AcDbEntity
  8
0-0
  6
JWW_DASHED1
 62
   120
370
     5
100
AcDbLine
 10
571.62322844407
 20
399.804572756188
 30
0.0
 11
1144.623228444071
 21
399.804572756188
 31
0.0
  0
LINE
  5
334
330
1F
100
AcDbEntity
  8
0-0
  6
JWW_DASHED1
 62
   120
370
     5
100
AcDbLine
 10
571.62322844407
 20
400.8045727560882
 30
0.0
 11
1144.623228444071
 21
400.8045727560882
 31
0.0
  0
LINE
  5
335
330
1F
100
AcDbEntity
  8
0-0
  6
JWW_DASHED1
 62
   120
370
     5
100
AcDbLine
 10
571.62322844407
 20
413.8045727571878
 30
0.0
 11
1144.623228444071
 21
413.8045727571878
 31
0.0
  0
LINE
  5
336
330
1F
100
AcDbEntity
  8
0-0
  6
JWW_DASHED1
 62
   120
370
     5
100
AcDbLine
 10
571.62322844407
 20
414.804572757088
 30
0.0
 11
1144.623228444071
 21
414.804572757088
 31
0.0
  0
LINE
  5
337
330
1F
100
AcDbEntity
  8
0-0
  6
JWW_DASHED1
 62
   120
370
     5
100
AcDbLine
 10
571.62322844407
 20
427.8045727581876
 30
0.0
 11
1144.623228444071
 21
427.8045727581876
 31
0.0
  0
LINE
  5
338
330
1F
100
AcDbEntity
  8
0-0
  6
JWW_DASHED1
 62
   120
370
     5
100
AcDbLine
 10
571.62322844407
 20
428.8045727580878
 30
0.0
 11
1144.623228444071
 21
428.8045727580878
 31
0.0
  0
LINE
  5
339
330
1F
100
AcDbEntity
  8
0-0
  6
JWW_DASHED1
 62
   120
370
     5
100
AcDbLine
 10
571.62322844407
 20
441.8045727591872
 30
0.0
 11
1144.623228444071
 21
441.8045727591872
 31
0.0
  0
LINE
  5
33A
330
1F
100
AcDbEntity
  8
0-0
  6
JWW_DASHED1
 62
   120
370
     5
100
AcDbLine
 10
571.62322844407
 20
442.8045727590876
 30
0.0
 11
1144.623228444071
 21
442.8045727590876
 31
0.0
  0
LINE
  5
33B
330
1F
100
AcDbEntity
  8
0-0
  6
JWW_DASHED1
 62
   120
370
     5
100
AcDbLine
 10
571.62322844407
 20
455.8045727601872
 30
0.0
 11
1144.623228444071
 21
455.8045727601872
 31
0.0
  0
LINE
  5
33C
330
1F
100
AcDbEntity
  8
0-0
  6
JWW_DASHED1
 62
   120
370
     5
100
AcDbLine
 10
571.62322844407
 20
456.8045727600874
 30
0.0
 11
1144.623228444071
 21
456.8045727600874
 31
0.0
  0
LINE
  5
33D
330
1F
100
AcDbEntity
  8
0-0
  6
JWW_DASHED1
 62
   120
370
     5
100
AcDbLine
 10
571.62322844407
 20
469.804572761187
 30
0.0
 11
1144.623228444071
 21
469.804572761187
 31
0.0
  0
LINE
  5
33E
330
1F
100
AcDbEntity
  8
0-0
  6
JWW_DASHED1
 62
   120
370
     5
100
AcDbLine
 10
571.62322844407
 20
470.8045727610872
 30
0.0
 11
1144.623228444071
 21
470.8045727610872
 31
0.0
  0
LINE
  5
33F
330
1F
100
AcDbEntity
  8
0-0
  6
JWW_DASHED1
 62
   120
370
     5
100
AcDbLine
 10
571.62322844407
 20
483.8045727621868
 30
0.0
 11
1144.623228444071
 21
483.8045727621868
 31
0.0
  0
LINE
  5
340
330
1F
100
AcDbEntity
  8
0-0
  6
JWW_DASHED1
 62
   120
370
     5
100
AcDbLine
 10
571.62322844407
 20
484.804572762087
 30
0.0
 11
1144.623228444071
 21
484.804572762087
 31
0.0
  0
LINE
  5
341
330
1F
100
AcDbEntity
  8
0-0
  6
JWW_DASHED1
 62
   120
370
     5
100
AcDbLine
 10
571.62322844407
 20
497.8045727631866
 30
0.0
 11
1144.623228444071
 21
497.8045727631866
 31
0.0
  0
LINE
  5
342
330
1F
100
AcDbEntity
  8
0-0
  6
JWW_DASHED1
 62
   120
370
     5
100
AcDbLine
 10
571.62322844407
 20
498.8045727630868
 30
0.0
 11
1144.623228444071
 21
498.8045727630868
 31
0.0
  0
LINE
  5
343
330
1F
100
AcDbEntity
  8
0-0
  6
JWW_DASHED1
 62
   120
370
     5
100
AcDbLine
 10
571.62322844407
 20
511.8045727641863
 30
0.0
 11
1144.623228444071
 21
511.8045727641863
 31
0.0
  0
LINE
  5
344
330
1F
100
AcDbEntity
  8
0-0
  6
JWW_DASHED1
 62
   120
370
     5
100
AcDbLine
 10
571.62322844407
 20
512.8045727640865
 30
0.0
 11
1144.623228444071
 21
512.8045727640865
 31
0.0
  0
LINE
  5
345
330
1F
100
AcDbEntity
  8
0-0
  6
JWW_DASHED1
 62
   120
370
     5
100
AcDbLine
 10
571.62322844407
 20
525.8045727651861
 30
0.0
 11
1144.623228444071
 21
525.8045727651861
 31
0.0
  0
LINE
  5
346
330
1F
100
AcDbEntity
  8
0-0
  6
JWW_DASHED1
 62
   120
370
     5
100
AcDbLine
 10
571.62322844407
 20
526.8045727650863
 30
0.0
 11
1144.623228444071
 21
526.8045727650863
 31
0.0
  0
LINE
  5
347
330
1F
100
AcDbEntity
  8
0-0
  6
JWW_DASHED1
 62
   120
370
     5
100
AcDbLine
 10
571.62322844407
 20
539.804572766186
 30
0.0
 11
1144.623228444071
 21
539.804572766186
 31
0.0
  0
LINE
  5
348
330
1F
100
AcDbEntity
  8
0-0
  6
JWW_DASHED1
 62
   120
370
     5
100
AcDbLine
 10
571.62322844407
 20
540.8045727660862
 30
0.0
 11
1144.623228444071
 21
540.8045727660862
 31
0.0
  0
LINE
  5
349
330
1F
100
AcDbEntity
  8
0-0
  6
JWW_DASHED1
 62
   120
370
     5
100
AcDbLine
 10
571.62322844407
 20
553.8045727671857
 30
0.0
 11
1144.623228444071
 21
553.8045727671857
 31
0.0
  0
LINE
  5
34A
330
1F
100
AcDbEntity
  8
0-0
  6
JWW_DASHED1
 62
   120
370
     5
100
AcDbLine
 10
571.62322844407
 20
554.8045727670857
 30
0.0
 11
1144.623228444071
 21
554.8045727670857
 31
0.0
  0
LINE
  5
34B
330
1F
100
AcDbEntity
  8
0-0
  6
JWW_DASHED1
 62
   120
370
     5
100
AcDbLine
 10
571.62322844407
 20
567.8045727681855
 30
0.0
 11
1144.623228444071
 21
567.8045727681855
 31
0.0
  0
LINE
  5
34C
330
1F
100
AcDbEntity
  8
0-0
  6
JWW_DASHED1
 62
   120
370
     5
100
AcDbLine
 10
571.62322844407
 20
568.8045727680857
 30
0.0
 11
1144.623228444071
 21
568.8045727680857
 31
0.0
  0
LINE
  5
34D
330
1F
100
AcDbEntity
  8
0-0
  6
JWW_DASHED1
 62
   120
370
     5
100
AcDbLine
 10
571.62322844407
 20
581.8045727691854
 30
0.0
 11
1144.623228444071
 21
581.8045727691854
 31
0.0
  0
LINE
  5
34E
330
1F
100
AcDbEntity
  8
0-0
  6
JWW_DASHED1
 62
   120
370
     5
100
AcDbLine
 10
571.62322844407
 20
582.8045727690856
 30
0.0
 11
1144.623228444071
 21
582.8045727690856
 31
0.0
  0
LINE
  5
34F
330
1F
100
AcDbEntity
  8
0-0
  6
JWW_DASHED1
 62
   120
370
     5
100
AcDbLine
 10
571.62322844407
 20
595.8045727701851
 30
0.0
 11
1144.623228444071
 21
595.8045727701851
 31
0.0
  0
LINE
  5
350
330
1F
100
AcDbEntity
  8
0-0
  6
JWW_DASHED1
 62
   120
370
     5
100
AcDbLine
 10
571.62322844407
 20
596.8045727700853
 30
0.0
 11
1144.623228444071
 21
596.8045727700853
 31
0.0
  0
LINE
  5
351
330
1F
100
AcDbEntity
  8
0-0
  6
JWW_DASHED1
 62
   120
370
     5
100
AcDbLine
 10
571.62322844407
 20
609.8045727711849
 30
0.0
 11
1144.623228444071
 21
609.8045727711849
 31
0.0
  0
LINE
  5
352
330
1F
100
AcDbEntity
  8
0-0
  6
JWW_DASHED1
 62
   120
370
     5
100
AcDbLine
 10
571.62322844407
 20
610.8045727710851
 30
0.0
 11
1144.623228444071
 21
610.8045727710851
 31
0.0
  0
LINE
  5
353
330
1F
100
AcDbEntity
  8
0-0
  6
JWW_DASHED1
 62
   120
370
     5
100
AcDbLine
 10
571.62322844407
 20
623.8045727721847
 30
0.0
 11
1144.623228444071
 21
623.8045727721847
 31
0.0
  0
LINE
  5
354
330
1F
100
AcDbEntity
  8
0-0
  6
JWW_DASHED1
 62
   120
370
     5
100
AcDbLine
 10
571.62322844407
 20
624.8045727720848
 30
0.0
 11
1144.623228444071
 21
624.8045727720848
 31
0.0
  0
LINE
  5
355
330
1F
100
AcDbEntity
  8
0-0
  6
JWW_DASHED1
 62
   120
370
     5
100
AcDbLine
 10
571.62322844407
 20
637.8045727731844
 30
0.0
 11
1144.623228444071
 21
637.8045727731844
 31
0.0
  0
LINE
  5
356
330
1F
100
AcDbEntity
  8
0-0
  6
JWW_DASHED1
 62
   120
370
     5
100
AcDbLine
 10
571.62322844407
 20
638.8045727730846
 30
0.0
 11
1144.623228444071
 21
638.8045727730846
 31
0.0
  0
LINE
  5
357
330
1F
100
AcDbEntity
  8
0-0
  6
JWW_DASHED1
 62
   120
370
     5
100
AcDbLine
 10
571.62322844407
 20
651.8045727741843
 30
0.0
 11
1144.623228444071
 21
651.8045727741843
 31
0.0
  0
LINE
  5
358
330
1F
100
AcDbEntity
  8
0-0
  6
JWW_DASHED1
 62
   120
370
     5
100
AcDbLine
 10
571.62322844407
 20
652.8045727740845
 30
0.0
 11
1144.623228444071
 21
652.8045727740845
 31
0.0
  0
LINE
  5
359
330
1F
100
AcDbEntity
  8
0-0
  6
JWW_DASHED1
 62
   120
370
     5
100
AcDbLine
 10
571.62322844407
 20
665.8045727751838
 30
0.0
 11
1144.623228444071
 21
665.8045727751838
 31
0.0
  0
LINE
  5
35A
330
1F
100
AcDbEntity
  8
0-0
  6
JWW_DASHED1
 62
   120
370
     5
100
AcDbLine
 10
571.62322844407
 20
666.8045727750842
 30
0.0
 11
1144.623228444071
 21
666.8045727750842
 31
0.0
  0
LINE
  5
35B
330
1F
100
AcDbEntity
  8
0-0
  6
JWW_DASHED1
 62
   120
370
     5
100
AcDbLine
 10
571.62322844407
 20
679.8045727761838
 30
0.0
 11
1144.623228444071
 21
679.8045727761838
 31
0.0
  0
LINE
  5
35C
330
1F
100
AcDbEntity
  8
0-0
  6
JWW_DASHED1
 62
   120
370
     5
100
AcDbLine
 10
571.62322844407
 20
680.804572776084
 30
0.0
 11
1144.623228444071
 21
680.804572776084
 31
0.0
  0
LINE
  5
35D
330
1F
100
AcDbEntity
  8
0-0
  6
JWW_DASHED1
 62
   120
370
     5
100
AcDbLine
 10
571.62322844407
 20
693.8045727771837
 30
0.0
 11
1144.623228444071
 21
693.8045727771837
 31
0.0
  0
LINE
  5
35E
330
1F
100
AcDbEntity
  8
0-0
  6
JWW_DASHED1
 62
   120
370
     5
100
AcDbLine
 10
571.62322844407
 20
694.8045727770839
 30
0.0
 11
1144.623228444071
 21
694.8045727770839
 31
0.0
  0
LINE
  5
35F
330
1F
100
AcDbEntity
  8
0-0
  6
JWW_DASHED1
 62
   120
370
     5
100
AcDbLine
 10
571.62322844407
 20
707.8045727781835
 30
0.0
 11
1144.623228444071
 21
707.8045727781835
 31
0.0
  0
LINE
  5
360
330
1F
100
AcDbEntity
  8
0-0
  6
JWW_DASHED1
 62
   120
370
     5
100
AcDbLine
 10
571.62322844407
 20
708.8045727780836
 30
0.0
 11
1144.623228444071
 21
708.8045727780836
 31
0.0
  0
LINE
  5
361
330
1F
100
AcDbEntity
  8
0-0
  6
JWW_DASHED1
 62
   120
370
     5
100
AcDbLine
 10
571.62322844407
 20
721.8045727791832
 30
0.0
 11
1144.623228444071
 21
721.8045727791832
 31
0.0
  0
LINE
  5
362
330
1F
100
AcDbEntity
  8
0-0
  6
JWW_DASHED1
 62
   120
370
     5
100
AcDbLine
 10
571.62322844407
 20
722.8045727790834
 30
0.0
 11
1144.623228444071
 21
722.8045727790834
 31
0.0
  0
LINE
  5
363
330
1F
100
AcDbEntity
  8
0-0
  6
JWW_DASHED1
 62
   120
370
     5
100
AcDbLine
 10
571.62322844407
 20
735.804572780183
 30
0.0
 11
1144.623228444071
 21
735.804572780183
 31
0.0
  0
LINE
  5
364
330
1F
100
AcDbEntity
  8
0-0
  6
JWW_DASHED1
 62
   120
370
     5
100
AcDbLine
 10
571.62322844407
 20
736.8045727800832
 30
0.0
 11
1144.623228444071
 21
736.8045727800832
 31
0.0
  0
LINE
  5
365
330
1F
100
AcDbEntity
  8
0-0
  6
JWW_DASHED1
 62
   120
370
     5
100
AcDbLine
 10
571.62322844407
 20
749.8045727811827
 30
0.0
 11
1144.623228444071
 21
749.8045727811827
 31
0.0
  0
LINE
  5
366
330
1F
100
AcDbEntity
  8
0-0
  6
JWW_DASHED1
 62
   120
370
     5
100
AcDbLine
 10
571.62322844407
 20
750.8045727810829
 30
0.0
 11
1144.623228444071
 21
750.8045727810829
 31
0.0
  0
LINE
  5
367
330
1F
100
AcDbEntity
  8
0-0
  6
JWW_DASHED1
 62
   120
370
     5
100
AcDbLine
 10
571.62322844407
 20
763.8045727821824
 30
0.0
 11
1144.623228444071
 21
763.8045727821824
 31
0.0
  0
LINE
  5
368
330
1F
100
AcDbEntity
  8
0-0
  6
JWW_DASHED1
 62
   120
370
     5
100
AcDbLine
 10
571.62322844407
 20
764.8045727820826
 30
0.0
 11
1144.623228444071
 21
764.8045727820826
 31
0.0
  0
LINE
  5
369
330
1F
100
AcDbEntity
  8
0-0
  6
JWW_DASHED1
 62
   120
370
     5
100
AcDbLine
 10
571.62322844407
 20
777.8045727831824
 30
0.0
 11
1144.623228444071
 21
777.8045727831824
 31
0.0
  0
LINE
  5
36A
330
1F
100
AcDbEntity
  8
0-0
  6
JWW_DASHED1
 62
   120
370
     5
100
AcDbLine
 10
571.62322844407
 20
778.8045727830823
 30
0.0
 11
1144.623228444071
 21
778.8045727830823
 31
0.0
  0
LINE
  5
36B
330
1F
100
AcDbEntity
  8
0-0
  6
JWW_DASHED1
 62
   120
370
     5
100
AcDbLine
 10
571.62322844407
 20
791.8045727841821
 30
0.0
 11
1144.623228444071
 21
791.8045727841821
 31
0.0
  0
LINE
  5
36C
330
1F
100
AcDbEntity
  8
0-0
  6
JWW_DASHED1
 62
   120
370
     5
100
AcDbLine
 10
571.62322844407
 20
792.8045727840823
 30
0.0
 11
1144.623228444071
 21
792.8045727840823
 31
0.0
  0
LINE
  5
36D
330
1F
100
AcDbEntity
  8
0-0
  6
JWW_DASHED1
 62
   120
370
     5
100
AcDbLine
 10
571.62322844407
 20
805.804572785182
 30
0.0
 11
1144.623228444071
 21
805.804572785182
 31
0.0
  0
LINE
  5
36E
330
1F
100
AcDbEntity
  8
0-0
  6
JWW_DASHED1
 62
   120
370
     5
100
AcDbLine
 10
571.62322844407
 20
806.8045727850822
 30
0.0
 11
1144.623228444071
 21
806.8045727850822
 31
0.0
  0
LINE
  5
36F
330
1F
100
AcDbEntity
  8
0-0
  6
JWW_DASHED1
 62
   120
370
     5
100
AcDbLine
 10
571.62322844407
 20
819.8045727861818
 30
0.0
 11
1144.623228444071
 21
819.8045727861818
 31
0.0
  0
LINE
  5
370
330
1F
100
AcDbEntity
  8
0-0
  6
JWW_DASHED1
 62
   120
370
     5
100
AcDbLine
 10
571.62322844407
 20
820.804572786082
 30
0.0
 11
1144.623228444071
 21
820.804572786082
 31
0.0
  0
LINE
  5
371
330
1F
100
AcDbEntity
  8
0-0
  6
JWW_DASHED1
 62
   120
370
     5
100
AcDbLine
 10
571.62322844407
 20
833.8045727871815
 30
0.0
 11
1144.623228444071
 21
833.8045727871815
 31
0.0
  0
LINE
  5
372
330
1F
100
AcDbEntity
  8
0-0
  6
JWW_DASHED1
 62
   120
370
     5
100
AcDbLine
 10
571.62322844407
 20
834.8045727870817
 30
0.0
 11
1144.623228444071
 21
834.8045727870817
 31
0.0
  0
LINE
  5
373
330
1F
100
AcDbEntity
  8
0-0
  6
JWW_DASHED1
 62
   120
370
     5
100
AcDbLine
 10
571.62322844407
 20
847.8045727881813
 30
0.0
 11
1144.623228444071
 21
847.8045727881813
 31
0.0
  0
LINE
  5
374
330
1F
100
AcDbEntity
  8
0-0
  6
JWW_DASHED1
 62
   120
370
     5
100
AcDbLine
 10
571.62322844407
 20
848.8045727880815
 30
0.0
 11
1144.623228444071
 21
848.8045727880815
 31
0.0
  0
LINE
  5
375
330
1F
100
AcDbEntity
  8
0-0
  6
JWW_DASHED1
 62
   120
370
     5
100
AcDbLine
 10
571.62322844407
 20
861.8045727891811
 30
0.0
 11
1144.623228444071
 21
861.8045727891811
 31
0.0
  0
LINE
  5
376
330
1F
100
AcDbEntity
  8
0-0
  6
JWW_DASHED1
 62
   120
370
     5
100
AcDbLine
 10
571.62322844407
 20
862.8045727890812
 30
0.0
 11
1144.623228444071
 21
862.8045727890812
 31
0.0
  0
LINE
  5
377
330
1F
100
AcDbEntity
  8
0-0
  6
JWW_DASHED1
 62
   120
370
     5
100
AcDbLine
 10
571.62322844407
 20
875.8045727901807
 30
0.0
 11
1144.623228444071
 21
875.8045727901807
 31
0.0
  0
LINE
  5
378
330
1F
100
AcDbEntity
  8
0-0
  6
JWW_DASHED1
 62
   120
370
     5
100
AcDbLine
 10
571.62322844407
 20
876.8045727900809
 30
0.0
 11
1144.623228444071
 21
876.8045727900809
 31
0.0
  0
LINE
  5
379
330
1F
100
AcDbEntity
  8
0-0
  6
JWW_DASHED1
 62
   120
370
     5
100
AcDbLine
 10
571.62322844407
 20
889.8045727911805
 30
0.0
 11
1144.623228444071
 21
889.8045727911805
 31
0.0
  0
LINE
  5
37A
330
1F
100
AcDbEntity
  8
0-0
  6
JWW_DASHED1
 62
   120
370
     5
100
AcDbLine
 10
571.62322844407
 20
890.8045727910809
 30
0.0
 11
1144.623228444071
 21
890.8045727910809
 31
0.0
  0
LINE
  5
37B
330
1F
100
AcDbEntity
  8
0-0
  6
JWW_DASHED1
 62
   120
370
     5
100
AcDbLine
 10
571.62322844407
 20
903.8045727921805
 30
0.0
 11
1144.623228444071
 21
903.8045727921805
 31
0.0
  0
LINE
  5
37C
330
1F
100
AcDbEntity
  8
0-0
  6
JWW_DASHED1
 62
   120
370
     5
100
AcDbLine
 10
571.62322844407
 20
904.8045727920806
 30
0.0
 11
1144.623228444071
 21
904.8045727920806
 31
0.0
  0
LINE
  5
37D
330
1F
100
AcDbEntity
  8
0-0
  6
JWW_DASHED1
 62
   120
370
     5
100
AcDbLine
 10
571.62322844407
 20
917.8045727931803
 30
0.0
 11
1144.623228444071
 21
917.8045727931803
 31
0.0
  0
LINE
  5
37E
330
1F
100
AcDbEntity
  8
0-0
  6
JWW_DASHED1
 62
   120
370
     5
100
AcDbLine
 10
571.62322844407
 20
918.8045727930805
 30
0.0
 11
1144.623228444071
 21
918.8045727930805
 31
0.0
  0
LINE
  5
37F
330
1F
100
AcDbEntity
  8
0-0
  6
JWW_DASHED1
 62
   120
370
     5
100
AcDbLine
 10
571.62322844407
 20
931.8045727941801
 30
0.0
 11
1144.623228444071
 21
931.8045727941801
 31
0.0
  0
LINE
  5
380
330
1F
100
AcDbEntity
  8
0-0
  6
JWW_DASHED1
 62
   120
370
     5
100
AcDbLine
 10
571.62322844407
 20
932.8045727940803
 30
0.0
 11
1144.623228444071
 21
932.8045727940803
 31
0.0
  0
LINE
  5
381
330
1F
100
AcDbEntity
  8
0-0
  6
JWW_DASHED1
 62
   120
370
     5
100
AcDbLine
 10
571.62322844407
 20
945.8045727951799
 30
0.0
 11
1144.623228444071
 21
945.8045727951799
 31
0.0
  0
LINE
  5
382
330
1F
100
AcDbEntity
  8
0-0
  6
JWW_DASHED1
 62
   120
370
     5
100
AcDbLine
 10
571.62322844407
 20
946.80457279508
 30
0.0
 11
1144.623228444071
 21
946.80457279508
 31
0.0
  0
LINE
  5
383
330
1F
100
AcDbEntity
  8
0-0
  6
JWW_DASHED1
 62
   120
370
     5
100
AcDbLine
 10
577.6232469021018
 20
-160.1952789699599
 30
0.0
 11
577.6232469021018
 21
1014.80472103004
 31
0.0
  0
LINE
  5
384
330
1F
100
AcDbEntity
  8
0-0
  6
JWW_DASHED1
 62
   120
370
     5
100
AcDbLine
 10
1110.623246940002
 20
-160.1952789699599
 30
0.0
 11
1110.623246940002
 21
1014.80472103004
 31
0.0
  0
LINE
  5
385
330
1F
100
AcDbEntity
  8
0-0
  6
JWW_DASHED1
 62
   120
370
     5
100
AcDbLine
 10
1109.623246940102
 20
-160.1952789699599
 30
0.0
 11
1109.623246940102
 21
1014.80472103004
 31
0.0
  0
LINE
  5
386
330
1F
100
AcDbEntity
  8
0-0
  6
JWW_DASHED1
 62
   120
370
     5
100
AcDbLine
 10
1096.623246939002
 20
-160.1952789699599
 30
0.0
 11
1096.623246939002
 21
1014.80472103004
 31
0.0
  0
LINE
  5
387
330
1F
100
AcDbEntity
  8
0-0
  6
JWW_DASHED1
 62
   120
370
     5
100
AcDbLine
 10
1095.623246939102
 20
-160.1952789699599
 30
0.0
 11
1095.623246939102
 21
1014.80472103004
 31
0.0
  0
LINE
  5
388
330
1F
100
AcDbEntity
  8
0-0
  6
JWW_DASHED1
 62
   120
370
     5
100
AcDbLine
 10
1082.623246938002
 20
-160.1952789699599
 30
0.0
 11
1082.623246938002
 21
1014.80472103004
 31
0.0
  0
LINE
  5
389
330
1F
100
AcDbEntity
  8
0-0
  6
JWW_DASHED1
 62
   120
370
     5
100
AcDbLine
 10
1081.623246938102
 20
-160.1952789699599
 30
0.0
 11
1081.623246938102
 21
1014.80472103004
 31
0.0
  0
LINE
  5
38A
330
1F
100
AcDbEntity
  8
0-0
  6
JWW_DASHED1
 62
   120
370
     5
100
AcDbLine
 10
1068.623246937002
 20
-160.1952789699599
 30
0.0
 11
1068.623246937002
 21
1014.80472103004
 31
0.0
  0
LINE
  5
38B
330
1F
100
AcDbEntity
  8
0-0
  6
JWW_DASHED1
 62
   120
370
     5
100
AcDbLine
 10
1067.623246937101
 20
-160.1952789699599
 30
0.0
 11
1067.623246937101
 21
1014.80472103004
 31
0.0
  0
LINE
  5
38C
330
1F
100
AcDbEntity
  8
0-0
  6
JWW_DASHED1
 62
   120
370
     5
100
AcDbLine
 10
1054.623246936002
 20
-160.1952789699599
 30
0.0
 11
1054.623246936002
 21
1014.80472103004
 31
0.0
  0
LINE
  5
38D
330
1F
100
AcDbEntity
  8
0-0
  6
JWW_DASHED1
 62
   120
370
     5
100
AcDbLine
 10
1053.623246936102
 20
-160.1952789699599
 30
0.0
 11
1053.623246936102
 21
1014.80472103004
 31
0.0
  0
LINE
  5
38E
330
1F
100
AcDbEntity
  8
0-0
  6
JWW_DASHED1
 62
   120
370
     5
100
AcDbLine
 10
1040.623246935002
 20
-160.1952789699599
 30
0.0
 11
1040.623246935002
 21
1014.80472103004
 31
0.0
  0
LINE
  5
38F
330
1F
100
AcDbEntity
  8
0-0
  6
JWW_DASHED1
 62
   120
370
     5
100
AcDbLine
 10
1039.623246935102
 20
-160.1952789699599
 30
0.0
 11
1039.623246935102
 21
1014.80472103004
 31
0.0
  0
LINE
  5
390
330
1F
100
AcDbEntity
  8
0-0
  6
JWW_DASHED1
 62
   120
370
     5
100
AcDbLine
 10
1026.623246934002
 20
-160.1952789699599
 30
0.0
 11
1026.623246934002
 21
1014.80472103004
 31
0.0
  0
LINE
  5
391
330
1F
100
AcDbEntity
  8
0-0
  6
JWW_DASHED1
 62
   120
370
     5
100
AcDbLine
 10
1025.623246934102
 20
-160.1952789699599
 30
0.0
 11
1025.623246934102
 21
1014.80472103004
 31
0.0
  0
LINE
  5
392
330
1F
100
AcDbEntity
  8
0-0
  6
JWW_DASHED1
 62
   120
370
     5
100
AcDbLine
 10
1012.623246933002
 20
-160.1952789699599
 30
0.0
 11
1012.623246933002
 21
1014.80472103004
 31
0.0
  0
LINE
  5
393
330
1F
100
AcDbEntity
  8
0-0
  6
JWW_DASHED1
 62
   120
370
     5
100
AcDbLine
 10
1011.623246933102
 20
-160.1952789699599
 30
0.0
 11
1011.623246933102
 21
1014.80472103004
 31
0.0
  0
LINE
  5
394
330
1F
100
AcDbEntity
  8
0-0
  6
JWW_DASHED1
 62
   120
370
     5
100
AcDbLine
 10
998.6232469320025
 20
-160.1952789699599
 30
0.0
 11
998.6232469320025
 21
1014.80472103004
 31
0.0
  0
LINE
  5
395
330
1F
100
AcDbEntity
  8
0-0
  6
JWW_DASHED1
 62
   120
370
     5
100
AcDbLine
 10
997.6232469321023
 20
-160.1952789699599
 30
0.0
 11
997.6232469321023
 21
1014.80472103004
 31
0.0
  0
LINE
  5
396
330
1F
100
AcDbEntity
  8
0-0
  6
JWW_DASHED1
 62
   120
370
     5
100
AcDbLine
 10
984.6232469310023
 20
-160.1952789699599
 30
0.0
 11
984.6232469310023
 21
1014.80472103004
 31
0.0
  0
LINE
  5
397
330
1F
100
AcDbEntity
  8
0-0
  6
JWW_DASHED1
 62
   120
370
     5
100
AcDbLine
 10
983.6232469311021
 20
-160.1952789699599
 30
0.0
 11
983.6232469311021
 21
1014.80472103004
 31
0.0
  0
LINE
  5
398
330
1F
100
AcDbEntity
  8
0-0
  6
JWW_DASHED1
 62
   120
370
     5
100
AcDbLine
 10
970.6232469300021
 20
-160.1952789699599
 30
0.0
 11
970.6232469300021
 21
1014.80472103004
 31
0.0
  0
LINE
  5
399
330
1F
100
AcDbEntity
  8
0-0
  6
JWW_DASHED1
 62
   120
370
     5
100
AcDbLine
 10
969.6232469301019
 20
-160.1952789699599
 30
0.0
 11
969.6232469301019
 21
1014.80472103004
 31
0.0
  0
LINE
  5
39A
330
1F
100
AcDbEntity
  8
0-0
  6
JWW_DASHED1
 62
   120
370
     5
100
AcDbLine
 10
956.6232469290023
 20
-160.1952789699599
 30
0.0
 11
956.6232469290023
 21
1014.80472103004
 31
0.0
  0
LINE
  5
39B
330
1F
100
AcDbEntity
  8
0-0
  6
JWW_DASHED1
 62
   120
370
     5
100
AcDbLine
 10
955.6232469291022
 20
-160.1952789699599
 30
0.0
 11
955.6232469291022
 21
1014.80472103004
 31
0.0
  0
LINE
  5
39C
330
1F
100
AcDbEntity
  8
0-0
  6
JWW_DASHED1
 62
   120
370
     5
100
AcDbLine
 10
942.6232469280025
 20
-160.1952789699599
 30
0.0
 11
942.6232469280025
 21
1014.80472103004
 31
0.0
  0
LINE
  5
39D
330
1F
100
AcDbEntity
  8
0-0
  6
JWW_DASHED1
 62
   120
370
     5
100
AcDbLine
 10
941.6232469281023
 20
-160.1952789699599
 30
0.0
 11
941.6232469281023
 21
1014.80472103004
 31
0.0
  0
LINE
  5
39E
330
1F
100
AcDbEntity
  8
0-0
  6
JWW_DASHED1
 62
   120
370
     5
100
AcDbLine
 10
928.6232469270022
 20
-160.1952789699599
 30
0.0
 11
928.6232469270022
 21
1014.80472103004
 31
0.0
  0
LINE
  5
39F
330
1F
100
AcDbEntity
  8
0-0
  6
JWW_DASHED1
 62
   120
370
     5
100
AcDbLine
 10
927.6232469271021
 20
-160.1952789699599
 30
0.0
 11
927.6232469271021
 21
1014.80472103004
 31
0.0
  0
LINE
  5
3A0
330
1F
100
AcDbEntity
  8
0-0
  6
JWW_DASHED1
 62
   120
370
     5
100
AcDbLine
 10
914.623246926002
 20
-160.1952789699599
 30
0.0
 11
914.623246926002
 21
1014.80472103004
 31
0.0
  0
LINE
  5
3A1
330
1F
100
AcDbEntity
  8
0-0
  6
JWW_DASHED1
 62
   120
370
     5
100
AcDbLine
 10
913.6232469261018
 20
-160.1952789699599
 30
0.0
 11
913.6232469261018
 21
1014.80472103004
 31
0.0
  0
LINE
  5
3A2
330
1F
100
AcDbEntity
  8
0-0
  6
JWW_DASHED1
 62
   120
370
     5
100
AcDbLine
 10
900.6232469250023
 20
-160.1952789699599
 30
0.0
 11
900.6232469250023
 21
1014.80472103004
 31
0.0
  0
LINE
  5
3A3
330
1F
100
AcDbEntity
  8
0-0
  6
JWW_DASHED1
 62
   120
370
     5
100
AcDbLine
 10
899.6232469251021
 20
-160.1952789699599
 30
0.0
 11
899.6232469251021
 21
1014.80472103004
 31
0.0
  0
LINE
  5
3A4
330
1F
100
AcDbEntity
  8
0-0
  6
JWW_DASHED1
 62
   120
370
     5
100
AcDbLine
 10
886.6232469240025
 20
-160.1952789699599
 30
0.0
 11
886.6232469240025
 21
1014.80472103004
 31
0.0
  0
LINE
  5
3A5
330
1F
100
AcDbEntity
  8
0-0
  6
JWW_DASHED1
 62
   120
370
     5
100
AcDbLine
 10
885.6232469241019
 20
-160.1952789699599
 30
0.0
 11
885.6232469241019
 21
1014.80472103004
 31
0.0
  0
LINE
  5
3A6
330
1F
100
AcDbEntity
  8
0-0
  6
JWW_DASHED1
 62
   120
370
     5
100
AcDbLine
 10
872.6232469230023
 20
-160.1952789699599
 30
0.0
 11
872.6232469230023
 21
1014.80472103004
 31
0.0
  0
LINE
  5
3A7
330
1F
100
AcDbEntity
  8
0-0
  6
JWW_DASHED1
 62
   120
370
     5
100
AcDbLine
 10
871.6232469231021
 20
-160.1952789699599
 30
0.0
 11
871.6232469231021
 21
1014.80472103004
 31
0.0
  0
LINE
  5
3A8
330
1F
100
AcDbEntity
  8
0-0
  6
JWW_DASHED1
 62
   120
370
     5
100
AcDbLine
 10
858.6232469220021
 20
-160.1952789699599
 30
0.0
 11
858.6232469220021
 21
1014.80472103004
 31
0.0
  0
LINE
  5
3A9
330
1F
100
AcDbEntity
  8
0-0
  6
JWW_DASHED1
 62
   120
370
     5
100
AcDbLine
 10
857.6232469221019
 20
-160.1952789699599
 30
0.0
 11
857.6232469221019
 21
1014.80472103004
 31
0.0
  0
LINE
  5
3AA
330
1F
100
AcDbEntity
  8
0-0
  6
JWW_DASHED1
 62
   120
370
     5
100
AcDbLine
 10
844.6232469210019
 20
-160.1952789699599
 30
0.0
 11
844.6232469210019
 21
1014.80472103004
 31
0.0
  0
LINE
  5
3AB
330
1F
100
AcDbEntity
  8
0-0
  6
JWW_DASHED1
 62
   120
370
     5
100
AcDbLine
 10
843.623246921102
 20
-160.1952789699599
 30
0.0
 11
843.623246921102
 21
1014.80472103004
 31
0.0
  0
LINE
  5
3AC
330
1F
100
AcDbEntity
  8
0-0
  6
JWW_DASHED1
 62
   120
370
     5
100
AcDbLine
 10
830.6232469200024
 20
-160.1952789699599
 30
0.0
 11
830.6232469200024
 21
1014.80472103004
 31
0.0
  0
LINE
  5
3AD
330
1F
100
AcDbEntity
  8
0-0
  6
JWW_DASHED1
 62
   120
370
     5
100
AcDbLine
 10
829.6232469201022
 20
-160.1952789699599
 30
0.0
 11
829.6232469201022
 21
1014.80472103004
 31
0.0
  0
LINE
  5
3AE
330
1F
100
AcDbEntity
  8
0-0
  6
JWW_DASHED1
 62
   120
370
     5
100
AcDbLine
 10
816.6232469190022
 20
-160.1952789699599
 30
0.0
 11
816.6232469190022
 21
1014.80472103004
 31
0.0
  0
LINE
  5
3AF
330
1F
100
AcDbEntity
  8
0-0
  6
JWW_DASHED1
 62
   120
370
     5
100
AcDbLine
 10
815.623246919102
 20
-160.1952789699599
 30
0.0
 11
815.623246919102
 21
1014.80472103004
 31
0.0
  0
LINE
  5
3B0
330
1F
100
AcDbEntity
  8
0-0
  6
JWW_DASHED1
 62
   120
370
     5
100
AcDbLine
 10
802.623246918002
 20
-160.1952789699599
 30
0.0
 11
802.623246918002
 21
1014.80472103004
 31
0.0
  0
LINE
  5
3B1
330
1F
100
AcDbEntity
  8
0-0
  6
JWW_DASHED1
 62
   120
370
     5
100
AcDbLine
 10
801.6232469181018
 20
-160.1952789699599
 30
0.0
 11
801.6232469181018
 21
1014.80472103004
 31
0.0
  0
LINE
  5
3B2
330
1F
100
AcDbEntity
  8
0-0
  6
JWW_DASHED1
 62
   120
370
     5
100
AcDbLine
 10
788.6232469170022
 20
-160.1952789699599
 30
0.0
 11
788.6232469170022
 21
1014.80472103004
 31
0.0
  0
LINE
  5
3B3
330
1F
100
AcDbEntity
  8
0-0
  6
JWW_DASHED1
 62
   120
370
     5
100
AcDbLine
 10
787.623246917102
 20
-160.1952789699599
 30
0.0
 11
787.623246917102
 21
1014.80472103004
 31
0.0
  0
LINE
  5
3B4
330
1F
100
AcDbEntity
  8
0-0
  6
JWW_DASHED1
 62
   120
370
     5
100
AcDbLine
 10
774.6232469160025
 20
-160.1952789699599
 30
0.0
 11
774.6232469160025
 21
1014.80472103004
 31
0.0
  0
LINE
  5
3B5
330
1F
100
AcDbEntity
  8
0-0
  6
JWW_DASHED1
 62
   120
370
     5
100
AcDbLine
 10
773.6232469161021
 20
-160.1952789699599
 30
0.0
 11
773.6232469161021
 21
1014.80472103004
 31
0.0
  0
LINE
  5
3B6
330
1F
100
AcDbEntity
  8
0-0
  6
JWW_DASHED1
 62
   120
370
     5
100
AcDbLine
 10
760.623246915002
 20
-160.1952789699599
 30
0.0
 11
760.623246915002
 21
1014.80472103004
 31
0.0
  0
LINE
  5
3B7
330
1F
100
AcDbEntity
  8
0-0
  6
JWW_DASHED1
 62
   120
370
     5
100
AcDbLine
 10
759.6232469151021
 20
-160.1952789699599
 30
0.0
 11
759.6232469151021
 21
1014.80472103004
 31
0.0
  0
LINE
  5
3B8
330
1F
100
AcDbEntity
  8
0-0
  6
JWW_DASHED1
 62
   120
370
     5
100
AcDbLine
 10
746.623246914002
 20
-160.1952789699599
 30
0.0
 11
746.623246914002
 21
1014.80472103004
 31
0.0
  0
LINE
  5
3B9
330
1F
100
AcDbEntity
  8
0-0
  6
JWW_DASHED1
 62
   120
370
     5
100
AcDbLine
 10
745.6232469141016
 20
-160.1952789699599
 30
0.0
 11
745.6232469141016
 21
1014.80472103004
 31
0.0
  0
LINE
  5
3BA
330
1F
100
AcDbEntity
  8
0-0
  6
JWW_DASHED1
 62
   120
370
     5
100
AcDbLine
 10
732.623246913002
 20
-160.1952789699599
 30
0.0
 11
732.623246913002
 21
1014.80472103004
 31
0.0
  0
LINE
  5
3BB
330
1F
100
AcDbEntity
  8
0-0
  6
JWW_DASHED1
 62
   120
370
     5
100
AcDbLine
 10
731.6232469131019
 20
-160.1952789699599
 30
0.0
 11
731.6232469131019
 21
1014.80472103004
 31
0.0
  0
LINE
  5
3BC
330
1F
100
AcDbEntity
  8
0-0
  6
JWW_DASHED1
 62
   120
370
     5
100
AcDbLine
 10
718.6232469120024
 20
-160.1952789699599
 30
0.0
 11
718.6232469120024
 21
1014.80472103004
 31
0.0
  0
LINE
  5
3BD
330
1F
100
AcDbEntity
  8
0-0
  6
JWW_DASHED1
 62
   120
370
     5
100
AcDbLine
 10
717.6232469121022
 20
-160.1952789699599
 30
0.0
 11
717.6232469121022
 21
1014.80472103004
 31
0.0
  0
LINE
  5
3BE
330
1F
100
AcDbEntity
  8
0-0
  6
JWW_DASHED1
 62
   120
370
     5
100
AcDbLine
 10
704.6232469110022
 20
-160.1952789699599
 30
0.0
 11
704.6232469110022
 21
1014.80472103004
 31
0.0
  0
LINE
  5
3BF
330
1F
100
AcDbEntity
  8
0-0
  6
JWW_DASHED1
 62
   120
370
     5
100
AcDbLine
 10
703.623246911102
 20
-160.1952789699599
 30
0.0
 11
703.623246911102
 21
1014.80472103004
 31
0.0
  0
LINE
  5
3C0
330
1F
100
AcDbEntity
  8
0-0
  6
JWW_DASHED1
 62
   120
370
     5
100
AcDbLine
 10
690.623246910002
 20
-160.1952789699599
 30
0.0
 11
690.623246910002
 21
1014.80472103004
 31
0.0
  0
LINE
  5
3C1
330
1F
100
AcDbEntity
  8
0-0
  6
JWW_DASHED1
 62
   120
370
     5
100
AcDbLine
 10
689.6232469101018
 20
-160.1952789699599
 30
0.0
 11
689.6232469101018
 21
1014.80472103004
 31
0.0
  0
LINE
  5
3C2
330
1F
100
AcDbEntity
  8
0-0
  6
JWW_DASHED1
 62
   120
370
     5
100
AcDbLine
 10
676.6232469090022
 20
-160.1952789699599
 30
0.0
 11
676.6232469090022
 21
1014.80472103004
 31
0.0
  0
LINE
  5
3C3
330
1F
100
AcDbEntity
  8
0-0
  6
JWW_DASHED1
 62
   120
370
     5
100
AcDbLine
 10
675.623246909102
 20
-160.1952789699599
 30
0.0
 11
675.623246909102
 21
1014.80472103004
 31
0.0
  0
LINE
  5
3C4
330
1F
100
AcDbEntity
  8
0-0
  6
JWW_DASHED1
 62
   120
370
     5
100
AcDbLine
 10
662.623246908002
 20
-160.1952789699599
 30
0.0
 11
662.623246908002
 21
1014.80472103004
 31
0.0
  0
LINE
  5
3C5
330
1F
100
AcDbEntity
  8
0-0
  6
JWW_DASHED1
 62
   120
370
     5
100
AcDbLine
 10
661.6232469081023
 20
-160.1952789699599
 30
0.0
 11
661.6232469081023
 21
1014.80472103004
 31
0.0
  0
LINE
  5
3C6
330
1F
100
AcDbEntity
  8
0-0
  6
JWW_DASHED1
 62
   120
370
     5
100
AcDbLine
 10
648.6232469070022
 20
-160.1952789699599
 30
0.0
 11
648.6232469070022
 21
1014.80472103004
 31
0.0
  0
LINE
  5
3C7
330
1F
100
AcDbEntity
  8
0-0
  6
JWW_DASHED1
 62
   120
370
     5
100
AcDbLine
 10
647.6232469071016
 20
-160.1952789699599
 30
0.0
 11
647.6232469071016
 21
1014.80472103004
 31
0.0
  0
LINE
  5
3C8
330
1F
100
AcDbEntity
  8
0-0
  6
JWW_DASHED1
 62
   120
370
     5
100
AcDbLine
 10
634.623246906002
 20
-160.1952789699599
 30
0.0
 11
634.623246906002
 21
1014.80472103004
 31
0.0
  0
LINE
  5
3C9
330
1F
100
AcDbEntity
  8
0-0
  6
JWW_DASHED1
 62
   120
370
     5
100
AcDbLine
 10
633.6232469061018
 20
-160.1952789699599
 30
0.0
 11
633.6232469061018
 21
1014.80472103004
 31
0.0
  0
LINE
  5
3CA
330
1F
100
AcDbEntity
  8
0-0
  6
JWW_DASHED1
 62
   120
370
     5
100
AcDbLine
 10
620.6232469050021
 20
-160.1952789699599
 30
0.0
 11
620.6232469050021
 21
1014.80472103004
 31
0.0
  0
LINE
  5
3CB
330
1F
100
AcDbEntity
  8
0-0
  6
JWW_DASHED1
 62
   120
370
     5
100
AcDbLine
 10
619.6232469051016
 20
-160.1952789699599
 30
0.0
 11
619.6232469051016
 21
1014.80472103004
 31
0.0
  0
LINE
  5
3CC
330
1F
100
AcDbEntity
  8
0-0
  6
JWW_DASHED1
 62
   120
370
     5
100
AcDbLine
 10
606.6232469040024
 20
-160.1952789699599
 30
0.0
 11
606.6232469040024
 21
1014.80472103004
 31
0.0
  0
LINE
  5
3CD
330
1F
100
AcDbEntity
  8
0-0
  6
JWW_DASHED1
 62
   120
370
     5
100
AcDbLine
 10
605.6232469041022
 20
-160.1952789699599
 30
0.0
 11
605.6232469041022
 21
1014.80472103004
 31
0.0
  0
LINE
  5
3CE
330
1F
100
AcDbEntity
  8
0-0
  6
JWW_DASHED1
 62
   120
370
     5
100
AcDbLine
 10
592.6232469030022
 20
-160.1952789699599
 30
0.0
 11
592.6232469030022
 21
1014.80472103004
 31
0.0
  0
LINE
  5
3CF
330
1F
100
AcDbEntity
  8
0-0
  6
JWW_DASHED1
 62
   120
370
     5
100
AcDbLine
 10
591.623246903102
 20
-160.1952789699599
 30
0.0
 11
591.623246903102
 21
1014.80472103004
 31
0.0
  0
LINE
  5
3D0
330
1F
100
AcDbEntity
  8
0-0
  6
JWW_DASHED1
 62
   120
370
     5
100
AcDbLine
 10
578.6232469020019
 20
-160.1952789699599
 30
0.0
 11
578.6232469020019
 21
1014.80472103004
 31
0.0
  0
LINE
  5
3D1
330
1F
100
AcDbEntity
  8
0-0
  6
JWW_DASHED1
 62
   120
370
     5
100
AcDbLine
 10
1138.623246942002
 20
-160.1952789699599
 30
0.0
 11
1138.623246942002
 21
1014.80472103004
 31
0.0
  0
LINE
  5
3D2
330
1F
100
AcDbEntity
  8
0-0
  6
JWW_DASHED1
 62
   120
370
     5
100
AcDbLine
 10
1123.623246941102
 20
-160.1952789699599
 30
0.0
 11
1123.623246941102
 21
1014.80472103004
 31
0.0
  0
LINE
  5
3D3
330
1F
100
AcDbEntity
  8
0-0
  6
JWW_DASHED1
 62
   120
370
     5
100
AcDbLine
 10
1137.623246942102
 20
-160.1952789699599
 30
0.0
 11
1137.623246942102
 21
1014.80472103004
 31
0.0
  0
LINE
  5
3D4
330
1F
100
AcDbEntity
  8
0-0
  6
JWW_DASHED1
 62
   120
370
     5
100
AcDbLine
 10
1124.623246941002
 20
-160.1952789699599
 30
0.0
 11
1124.623246941002
 21
1014.80472103004
 31
0.0
  0
LINE
  5
3D5
330
1F
100
AcDbEntity
  8
0-0
  6
JWW_DASHED1
 62
   120
370
     5
100
AcDbLine
 10
571.6232284440708
 20
1002.804572799079
 30
0.0
 11
1144.62322844407
 21
1002.804572799079
 31
0.0
  0
LINE
  5
3D6
330
1F
100
AcDbEntity
  8
0-0
  6
JWW_DASHED1
 62
   120
370
     5
100
AcDbLine
 10
571.6232284440708
 20
959.8045727961796
 30
0.0
 11
1144.62322844407
 21
959.8045727961796
 31
0.0
  0
LINE
  5
3D7
330
1F
100
AcDbEntity
  8
0-0
  6
JWW_DASHED1
 62
   120
370
     5
100
AcDbLine
 10
571.6232284440708
 20
960.8045727960798
 30
0.0
 11
1144.62322844407
 21
960.8045727960798
 31
0.0
  0
LINE
  5
3D8
330
1F
100
AcDbEntity
  8
0-0
  6
JWW_DASHED1
 62
   120
370
     5
100
AcDbLine
 10
571.6232284440708
 20
973.8045727971794
 30
0.0
 11
1144.62322844407
 21
973.8045727971794
 31
0.0
  0
LINE
  5
3D9
330
1F
100
AcDbEntity
  8
0-0
  6
JWW_DASHED1
 62
   120
370
     5
100
AcDbLine
 10
571.6232284440708
 20
974.8045727970796
 30
0.0
 11
1144.62322844407
 21
974.8045727970796
 31
0.0
  0
LINE
  5
3DA
330
1F
100
AcDbEntity
  8
0-0
  6
JWW_DASHED1
 62
   120
370
     5
100
AcDbLine
 10
571.6232284440708
 20
987.804572798179
 30
0.0
 11
1144.62322844407
 21
987.804572798179
 31
0.0
  0
LINE
  5
3DB
330
1F
100
AcDbEntity
  8
0-0
  6
JWW_DASHED1
 62
   120
370
     5
100
AcDbLine
 10
571.6232284440708
 20
988.8045727980792
 30
0.0
 11
1144.62322844407
 21
988.8045727980792
 31
0.0
  0
LINE
  5
3DC
330
1F
100
AcDbEntity
  8
0-0
  6
JWW_DASHED1
 62
   120
370
     5
100
AcDbLine
 10
571.6232284440708
 20
1001.804572799179
 30
0.0
 11
1144.62322844407
 21
1001.804572799179
 31
0.0
  0
ENDSEC
  0
SECTION
  2
OBJECTS
  0
DICTIONARY
  5
C
330
0
100
AcDbDictionary
281
     1
  3
ACAD_GROUP
350
D
  3
ACAD_LAYOUT
350
1A
  3
ACAD_MATERIAL
350
3B
  3
ACAD_MLEADERSTYLE
350
3DE
  3
ACAD_MLINESTYLE
350
17
  3
ACAD_PLOTSETTINGS
350
19
  3
ACAD_PLOTSTYLENAME
350
E
  3
ACAD_TABLESTYLE
350
3DD
  3
ACAD_VISUALSTYLE
350
2A
  0
DICTIONARY
  5
D
102
{ACAD_REACTORS
330
C
102
}
330
C
100
AcDbDictionary
281
     1
  0
DICTIONARY
  5
1A
102
{ACAD_REACTORS
330
C
102
}
330
C
100
AcDbDictionary
281
     1
  3
Layout1
350
1E
  3
Layout2
350
26
  3
Model
350
22
  0
DICTIONARY
  5
3B
102
{ACAD_REACTORS
330
C
102
}
330
C
100
AcDbDictionary
281
     1
  3
ByBlock
350
3D
  3
ByLayer
350
3C
  3
Global
350
3E
  0
DICTIONARY
  5
3DE
102
{ACAD_REACTORS
330
C
102
}
330
C
100
AcDbDictionary
281
     1
  0
DICTIONARY
  5
17
102
{ACAD_REACTORS
330
C
102
}
330
C
100
AcDbDictionary
281
     1
  3
Standard
350
18
  0
DICTIONARY
  5
19
102
{ACAD_REACTORS
330
C
102
}
330
C
100
AcDbDictionary
281
     1
  0
ACDBDICTIONARYWDFLT
  5
E
102
{ACAD_REACTORS
330
C
102
}
330
C
100
AcDbDictionary
281
     1
  3
Normal
350
F
100
AcDbDictionaryWithDefault
340
F
  0
DICTIONARY
  5
3DD
102
{ACAD_REACTORS
330
C
102
}
330
C
100
AcDbDictionary
281
     1
  0
DICTIONARY
  5
2A
102
{ACAD_REACTORS
330
C
102
}
330
C
100
AcDbDictionary
281
     1
  3
2dWireframe
350
2F
  3
3D Hidden
350
31
  3
3dWireframe
350
30
  3
Basic
350
32
  3
Brighten
350
36
  3
ColorChange
350
3A
  3
Conceptual
350
34
  3
Dim
350
35
  3
Facepattern
350
39
  3
Flat
350
2B
  3
FlatWithEdges
350
2C
  3
Gouraud
350
2D
  3
GouraudWithEdges
350
2E
  3
Linepattern
350
38
  3
Realistic
350
33
  3
Thicken
350
37
  0
LAYOUT
  5
1E
102
{ACAD_REACTORS
330
1A
102
}
330
1A
100
AcDbPlotSettings
  1

  2
none_device
  4

  6

 40
0.0
 41
0.0
 42
0.0
 43
0.0
 44
0.0
 45
0.0
 46
0.0
 47
0.0
 48
0.0
 49
0.0
140
0.0
141
0.0
142
1.0
143
1.0
 70
   688
 72
     0
 73
     0
 74
     5
  7

 75
    16
 76
     0
 77
     5
 78
   300
147
1.0
148
0.0
149
0.0
100
AcDbLayout
  1
Layout1
 70
     1
 71
     1
 10
0.0
 20
0.0
 11
420.0
 21
297.0
 12
0.0
 22
0.0
 32
0.0
 14
1.000000000000000E+20
 24
1.000000000000000E+20
 34
1.000000000000000E+20
 15
-1.000000000000000E+20
 25
-1.000000000000000E+20
 35
-1.000000000000000E+20
146
0.0
 13
0.0
 23
0.0
 33
0.0
 16
1.0
 26
0.0
 36
0.0
 17
0.0
 27
1.0
 37
0.0
 76
     0
330
1B
  0
LAYOUT
  5
26
102
{ACAD_REACTORS
330
1A
102
}
330
1A
100
AcDbPlotSettings
  1

  2
none_device
  4

  6

 40
0.0
 41
0.0
 42
0.0
 43
0.0
 44
0.0
 45
0.0
 46
0.0
 47
0.0
 48
0.0
 49
0.0
140
0.0
141
0.0
142
1.0
143
1.0
 70
   688
 72
     0
 73
     0
 74
     5
  7

 75
    16
 76
     0
 77
     5
 78
   300
147
1.0
148
0.0
149
0.0
100
AcDbLayout
  1
Layout2
 70
     1
 71
     2
 10
0.0
 20
0.0
 11
0.0
 21
0.0
 12
0.0
 22
0.0
 32
0.0
 14
0.0
 24
0.0
 34
0.0
 15
0.0
 25
0.0
 35
0.0
146
0.0
 13
0.0
 23
0.0
 33
0.0
 16
1.0
 26
0.0
 36
0.0
 17
0.0
 27
1.0
 37
0.0
 76
     0
330
23
  0
LAYOUT
  5
22
102
{ACAD_REACTORS
330
1A
102
}
330
1A
100
AcDbPlotSettings
  1

  2
none_device
  4

  6

 40
0.0
 41
0.0
 42
0.0
 43
0.0
 44
0.0
 45
0.0
 46
0.0
 47
0.0
 48
0.0
 49
0.0
140
0.0
141
0.0
142
1.0
143
1.0
 70
  1712
 72
     0
 73
     0
 74
     0
  7

 75
     0
 76
     0
 77
     5
 78
   300
147
1.0
148
0.0
149
0.0
100
AcDbLayout
  1
Model
 70
     1
 71
     0
 10
-4455.0
 20
-3150.0
 11
4455.0
 21
3150.0
 12
0.0
 22
0.0
 32
0.0
 14
-4455.0
 24
-3150.0
 34
0.0
 15
4455.0
 25
3150.0
 35
0.0
146
0.0
 13
0.0
 23
0.0
 33
0.0
 16
1.0
 26
0.0
 36
0.0
 17
0.0
 27
1.0
 37
0.0
 76
     0
330
1F
331
29
  0
MATERIAL
  5
3D
102
{ACAD_REACTORS
330
3B
102
}
330
3B
100
AcDbMaterial
  1
ByBlock
 72
     1
 94
      127
  0
MATERIAL
  5
3C
102
{ACAD_REACTORS
330
3B
102
}
330
3B
100
AcDbMaterial
  1
ByLayer
 72
     1
 94
      127
  0
MATERIAL
  5
3E
102
{ACAD_REACTORS
330
3B
102
}
330
3B
100
AcDbMaterial
  1
Global
 72
     1
 94
      127
  0
MLINESTYLE
  5
18
102
{ACAD_REACTORS
330
17
102
}
330
17
100
AcDbMlineStyle
  2
Standard
 70
     0
  3

 62
   256
 51
90.0
 52
90.0
 71
     2
 49
0.5
 62
   256
  6
BYLAYER
 49
-0.5
 62
   256
  6
BYLAYER
  0
ACDBPLACEHOLDER
  5
F
102
{ACAD_REACTORS
330
E
102
}
330
E
  0
VISUALSTYLE
  5
2F
102
{ACAD_REACTORS
330
2A
102
}
330
2A
100
AcDbVisualStyle
  2
2dWireframe
 70
     4
177
     2
291
     0
 71
     0
176
     1
 72
     2
176
     1
 73
     0
176
     1
 90
        0
176
     1
 40
-0.6
176
     1
 41
-30.0
176
     1
 62
     5
 63
     7
421
 16777215
176
     1
 74
     1
176
     1
 91
        4
176
     1
 64
     7
176
     1
 65
   257
176
     1
 75
     1
176
     1
175
     1
176
     1
 42
1.0
176
     1
 92
        0
176
     1
 66
   257
176
     1
 43
1.0
176
     1
 76
     1
176
     1
 77
     6
176
     1
 78
     2
176
     1
 67
     7
176
     1
 79
     5
176
     1
170
     0
176
     1
171
     0
176
     1
290
     0
176
     1
 93
        1
176
     1
 44
0.0
176
     1
173
     0
176
     1
  0
VISUALSTYLE
  5
31
102
{ACAD_REACTORS
330
2A
102
}
330
2A
100
AcDbVisualStyle
  2
3D Hidden
 70
     6
177
     2
291
     0
 71
     1
176
     1
 72
     2
176
     1
 73
     2
176
     1
 90
        0
176
     1
 40
-0.6
176
     1
 41
-30.0
176
     1
 62
     5
 63
     7
421
 16777215
176
     1
 74
     2
176
     1
 91
        2
176
     1
 64
     7
176
     1
 65
   257
176
     1
 75
     2
176
     1
175
     1
176
     1
 42
40.0
176
     1
 92
        0
176
     1
 66
   257
176
     1
 43
1.0
176
     1
 76
     1
176
     1
 77
     6
176
     1
 78
     2
176
     1
 67
     7
176
     1
 79
     3
176
     1
170
     0
176
     1
171
     0
176
     1
290
     0
176
     1
 93
        1
176
     1
 44
0.0
176
     1
173
     0
176
     1
  0
VISUALSTYLE
  5
30
102
{ACAD_REACTORS
330
2A
102
}
330
2A
100
AcDbVisualStyle
  2
3dWireframe
 70
     5
177
     2
291
     0
 71
     0
176
     1
 72
     2
176
     1
 73
     0
176
     1
 90
        0
176
     1
 40
-0.6
176
     1
 41
-30.0
176
     1
 62
     5
 63
     7
421
 16777215
176
     1
 74
     1
176
     1
 91
        4
176
     1
 64
     7
176
     1
 65
   257
176
     1
 75
     1
176
     1
175
     1
176
     1
 42
1.0
176
     1
 92
        0
176
     1
 66
   257
176
     1
 43
1.0
176
     1
 76
     1
176
     1
 77
     6
176
     1
 78
     2
176
     1
 67
     7
176
     1
 79
     5
176
     1
170
     0
176
     1
171
     0
176
     1
290
     0
176
     1
 93
        1
176
     1
 44
0.0
176
     1
173
     0
176
     1
  0
VISUALSTYLE
  5
32
102
{ACAD_REACTORS
330
2A
102
}
330
2A
100
AcDbVisualStyle
  2
Basic
 70
     7
177
     2
291
     1
 71
     1
176
     1
 72
     0
176
     1
 73
     1
176
     1
 90
        0
176
     1
 40
-0.6
176
     1
 41
-30.0
176
     1
 62
     5
 63
     7
421
 16777215
176
     1
 74
     0
176
     1
 91
        4
176
     1
 64
     7
176
     1
 65
   257
176
     1
 75
     1
176
     1
175
     1
176
     1
 42
1.0
176
     1
 92
        8
176
     1
 66
     7
176
     1
 43
1.0
176
     1
 76
     1
176
     1
 77
     6
176
     1
 78
     2
176
     1
 67
     7
176
     1
 79
     5
176
     1
170
     0
176
     1
171
     0
176
     1
290
     0
176
     1
 93
        1
176
     1
 44
0.0
176
     1
173
     0
176
     1
  0
VISUALSTYLE
  5
36
102
{ACAD_REACTORS
330
2A
102
}
330
2A
100
AcDbVisualStyle
  2
Brighten
 70
    12
177
     2
291
     1
 71
     2
176
     1
 72
     2
176
     1
 73
     0
176
     1
 90
        0
176
     1
 40
-0.6
176
     1
 41
-30.0
176
     1
 62
     5
 63
     7
421
 16777215
176
     1
 74
     1
176
     1
 91
        4
176
     1
 64
     7
176
     1
 65
   257
176
     1
 75
     1
176
     1
175
     1
176
     1
 42
1.0
176
     1
 92
        8
176
     1
 66
     7
176
     1
 43
1.0
176
     1
 76
     1
176
     1
 77
     6
176
     1
 78
     2
176
     1
 67
     7
176
     1
 79
     5
176
     1
170
     0
176
     1
171
     0
176
     1
290
     0
176
     1
 93
        1
176
     1
 44
50.0
176
     1
173
     0
176
     1
  0
VISUALSTYLE
  5
3A
102
{ACAD_REACTORS
330
2A
102
}
330
2A
100
AcDbVisualStyle
  2
ColorChange
 70
    16
177
     2
291
     1
 71
     2
176
     1
 72
     2
176
     1
 73
     3
176
     1
 90
        0
176
     1
 40
-0.6
176
     1
 41
-30.0
176
     1
 62
     5
 63
     8
421
  8421504
176
     1
 74
     1
176
     1
 91
        4
176
     1
 64
     7
176
     1
 65
   257
176
     1
 75
     1
176
     1
175
     1
176
     1
 42
1.0
176
     1
 92
        8
176
     1
 66
     8
424
  8421504
176
     1
 43
1.0
176
     1
 76
     1
176
     1
 77
     6
176
     1
 78
     2
176
     1
 67
     7
176
     1
 79
     5
176
     1
170
     0
176
     1
171
     0
176
     1
290
     0
176
     1
 93
        1
176
     1
 44
0.0
176
     1
173
     0
176
     1
  0
VISUALSTYLE
  5
34
102
{ACAD_REACTORS
330
2A
102
}
330
2A
100
AcDbVisualStyle
  2
Conceptual
 70
     9
177
     2
291
     0
 71
     3
176
     1
 72
     2
176
     1
 73
     0
176
     1
 90
        0
176
     1
 40
-0.6
176
     1
 41
-30.0
176
     1
 62
     5
 63
     7
421
 16777215
176
     1
 74
     2
176
     1
 91
        2
176
     1
 64
     7
176
     1
 65
   257
176
     1
 75
     1
176
     1
175
     1
176
     1
 42
40.0
176
     1
 92
        8
176
     1
 66
     7
176
     1
 43
1.0
176
     1
 76
     1
176
     1
 77
     6
176
     1
 78
     2
176
     1
 67
     7
176
     1
 79
     3
176
     1
170
     0
176
     1
171
     0
176
     1
290
     0
176
     1
 93
        1
176
     1
 44
0.0
176
     1
173
     0
176
     1
  0
VISUALSTYLE
  5
35
102
{ACAD_REACTORS
330
2A
102
}
330
2A
100
AcDbVisualStyle
  2
Dim
 70
    11
177
     2
291
     1
 71
     2
176
     1
 72
     2
176
     1
 73
     0
176
     1
 90
        0
176
     1
 40
-0.6
176
     1
 41
-30.0
176
     1
 62
     5
 63
     7
421
 16777215
176
     1
 74
     1
176
     1
 91
        4
176
     1
 64
     7
176
     1
 65
   257
176
     1
 75
     1
176
     1
175
     1
176
     1
 42
1.0
176
     1
 92
        8
176
     1
 66
     7
176
     1
 43
1.0
176
     1
 76
     1
176
     1
 77
     6
176
     1
 78
     2
176
     1
 67
     7
176
     1
 79
     5
176
     1
170
     0
176
     1
171
     0
176
     1
290
     0
176
     1
 93
        1
176
     1
 44
-50.0
176
     1
173
     0
176
     1
  0
VISUALSTYLE
  5
39
102
{ACAD_REACTORS
330
2A
102
}
330
2A
100
AcDbVisualStyle
  2
Facepattern
 70
    15
177
     2
291
     1
 71
     2
176
     1
 72
     2
176
     1
 73
     0
176
     1
 90
        0
176
     1
 40
-0.6
176
     1
 41
-30.0
176
     1
 62
     5
 63
     7
421
 16777215
176
     1
 74
     1
176
     1
 91
        4
176
     1
 64
     7
176
     1
 65
   257
176
     1
 75
     1
176
     1
175
     1
176
     1
 42
1.0
176
     1
 92
        8
176
     1
 66
     7
176
     1
 43
1.0
176
     1
 76
     1
176
     1
 77
     6
176
     1
 78
     2
176
     1
 67
     7
176
     1
 79
     5
176
     1
170
     0
176
     1
171
     0
176
     1
290
     0
176
     1
 93
        1
176
     1
 44
0.0
176
     1
173
     0
176
     1
  0
VISUALSTYLE
  5
2B
102
{ACAD_REACTORS
330
2A
102
}
330
2A
100
AcDbVisualStyle
  2
Flat
 70
     0
177
     2
291
     1
 71
     2
176
     1
 72
     1
176
     1
 73
     1
176
     1
 90
        2
176
     1
 40
-0.6
176
     1
 41
30.0
176
     1
 62
     5
 63
     7
421
 16777215
176
     1
 74
     0
176
     1
 91
        4
176
     1
 64
     7
176
     1
 65
   257
176
     1
 75
     1
176
     1
175
     1
176
     1
 42
1.0
176
     1
 92
        8
176
     1
 66
     7
176
     1
 43
1.0
176
     1
 76
     1
176
     1
 77
     6
176
     1
 78
     2
176
     1
 67
     7
176
     1
 79
     5
176
     1
170
     0
176
     1
171
     0
176
     1
290
     0
176
     1
 93
       13
176
     1
 44
0.0
176
     1
173
     0
176
     1
  0
VISUALSTYLE
  5
2C
102
{ACAD_REACTORS
330
2A
102
}
330
2A
100
AcDbVisualStyle
  2
FlatWithEdges
 70
     1
177
     2
291
     1
 71
     2
176
     1
 72
     1
176
     1
 73
     1
176
     1
 90
        2
176
     1
 40
-0.6
176
     1
 41
30.0
176
     1
 62
     5
 63
     7
421
 16777215
176
     1
 74
     1
176
     1
 91
        4
176
     1
 64
     7
176
     1
 65
   257
176
     1
 75
     1
176
     1
175
     1
176
     1
 42
1.0
176
     1
 92
        0
176
     1
 66
   257
176
     1
 43
1.0
176
     1
 76
     1
176
     1
 77
     6
176
     1
 78
     2
176
     1
 67
     7
176
     1
 79
     5
176
     1
170
     0
176
     1
171
     0
176
     1
290
     0
176
     1
 93
       13
176
     1
 44
0.0
176
     1
173
     0
176
     1
  0
VISUALSTYLE
  5
2D
102
{ACAD_REACTORS
330
2A
102
}
330
2A
100
AcDbVisualStyle
  2
Gouraud
 70
     2
177
     2
291
     1
 71
     2
176
     1
 72
     2
176
     1
 73
     1
176
     1
 90
        2
176
     1
 40
-0.6
176
     1
 41
30.0
176
     1
 62
     5
 63
     7
421
 16777215
176
     1
 74
     0
176
     1
 91
        4
176
     1
 64
     7
176
     1
 65
   257
176
     1
 75
     1
176
     1
175
     1
176
     1
 42
1.0
176
     1
 92
        0
176
     1
 66
     7
176
     1
 43
1.0
176
     1
 76
     1
176
     1
 77
     6
176
     1
 78
     2
176
     1
 67
     7
176
     1
 79
     5
176
     1
170
     0
176
     1
171
     0
176
     1
290
     0
176
     1
 93
       13
176
     1
 44
0.0
176
     1
173
     0
176
     1
  0
VISUALSTYLE
  5
2E
102
{ACAD_REACTORS
330
2A
102
}
330
2A
100
AcDbVisualStyle
  2
GouraudWithEdges
 70
     3
177
     2
291
     1
 71
     2
176
     1
 72
     2
176
     1
 73
     1
176
     1
 90
        2
176
     1
 40
-0.6
176
     1
 41
30.0
176
     1
 62
     5
 63
     7
421
 16777215
176
     1
 74
     1
176
     1
 91
        4
176
     1
 64
     7
176
     1
 65
   257
176
     1
 75
     1
176
     1
175
     1
176
     1
 42
1.0
176
     1
 92
        0
176
     1
 66
   257
176
     1
 43
1.0
176
     1
 76
     1
176
     1
 77
     6
176
     1
 78
     2
176
     1
 67
     7
176
     1
 79
     5
176
     1
170
     0
176
     1
171
     0
176
     1
290
     0
176
     1
 93
       13
176
     1
 44
0.0
176
     1
173
     0
176
     1
  0
VISUALSTYLE
  5
38
102
{ACAD_REACTORS
330
2A
102
}
330
2A
100
AcDbVisualStyle
  2
Linepattern
 70
    14
177
     2
291
     1
 71
     2
176
     1
 72
     2
176
     1
 73
     0
176
     1
 90
        0
176
     1
 40
-0.6
176
     1
 41
-30.0
176
     1
 62
     5
 63
     7
421
 16777215
176
     1
 74
     1
176
     1
 91
        4
176
     1
 64
     7
176
     1
 65
   257
176
     1
 75
     7
176
     1
175
     7
176
     1
 42
1.0
176
     1
 92
        8
176
     1
 66
     7
176
     1
 43
1.0
176
     1
 76
     1
176
     1
 77
     6
176
     1
 78
     2
176
     1
 67
     7
176
     1
 79
     5
176
     1
170
     0
176
     1
171
     0
176
     1
290
     0
176
     1
 93
        1
176
     1
 44
0.0
176
     1
173
     0
176
     1
  0
VISUALSTYLE
  5
33
102
{ACAD_REACTORS
330
2A
102
}
330
2A
100
AcDbVisualStyle
  2
Realistic
 70
     8
177
     2
291
     0
 71
     2
176
     1
 72
     2
176
     1
 73
     0
176
     1
 90
        0
176
     1
 40
-0.6
176
     1
 41
-30.0
176
     1
 62
     5
 63
     7
421
 16777215
176
     1
 74
     1
176
     1
 91
        0
176
     1
 64
     7
176
     1
 65
   257
176
     1
 75
     1
176
     1
175
     1
176
     1
 42
1.0
176
     1
 92
        8
176
     1
 66
     8
424
  7895160
176
     1
 43
1.0
176
     1
 76
     1
176
     1
 77
     6
176
     1
 78
     2
176
     1
 67
     7
176
     1
 79
     5
176
     1
170
     0
176
     1
171
     0
176
     1
290
     0
176
     1
 93
       13
176
     1
 44
0.0
176
     1
173
     0
176
     1
  0
VISUALSTYLE
  5
37
102
{ACAD_REACTORS
330
2A
102
}
330
2A
100
AcDbVisualStyle
  2
Thicken
 70
    13
177
     2
291
     1
 71
     2
176
     1
 72
     2
176
     1
 73
     0
176
     1
 90
        0
176
     1
 40
-0.6
176
     1
 41
-30.0
176
     1
 62
     5
 63
     7
421
 16777215
176
     1
 74
     1
176
     1
 91
        4
176
     1
 64
     7
176
     1
 65
   257
176
     1
 75
     1
176
     1
175
     1
176
     1
 42
1.0
176
     1
 92
       12
176
     1
 66
     7
176
     1
 43
1.0
176
     1
 76
     1
176
     1
 77
     6
176
     1
 78
     2
176
     1
 67
     7
176
     1
 79
     5
176
     1
170
     0
176
     1
171
     0
176
     1
290
     0
176
     1
 93
        1
176
     1
 44
0.0
176
     1
173
     0
176
     1
  0
ENDSEC
  0
EOF
