  0
SECTION
  2
HEADER
  9
$ACADVER
  1
AC1024
  9
$ACADMAINTVER
 70
     6
  9
$DWGCODEPAGE
  3
ANSI_932
  9
$INSBASE
 10
0.0
 20
0.0
 30
0.0
  9
$EXTMIN
 10
-4455.0
 20
-3150.0
 30
0.0
  9
$EXTMAX
 10
4455.0
 20
3150.0
 30
0.0
  9
$LIMMIN
 10
-4455.0
 20
-3150.0
  9
$LIMMAX
 10
4455.0
 20
3150.0
  9
$ORTHOMODE
 70
     0
  9
$REGENMODE
 70
     1
  9
$FILLMODE
 70
     1
  9
$QTEXTMODE
 70
     0
  9
$MIRRTEXT
 70
     1
  9
$LTSCALE
 40
30.0
  9
$ATTMODE
 70
     1
  9
$TEXTSIZE
 40
2.5
  9
$TRACEWID
 40
1.0
  9
$TEXTSTYLE
  7
Standard
  9
$CLAYER
  8
0
  9
$CELTYPE
  6
ByLayer
  9
$CECOLOR
 62
   256
  9
$CELTSCALE
 40
1.0
  9
$DISPSILH
 70
     0
  9
$DIMSCALE
 40
1.0
  9
$DIMASZ
 40
2.5
  9
$DIMEXO
 40
0.625
  9
$DIMDLI
 40
3.75
  9
$DIMRND
 40
0.0
  9
$DIMDLE
 40
0.0
  9
$DIMEXE
 40
1.25
  9
$DIMTP
 40
0.0
  9
$DIMTM
 40
0.0
  9
$DIMTXT
 40
2.5
  9
$DIMCEN
 40
2.5
  9
$DIMTSZ
 40
0.0
  9
$DIMTOL
 70
     0
  9
$DIMLIM
 70
     0
  9
$DIMTIH
 70
     0
  9
$DIMTOH
 70
     0
  9
$DIMSE1
 70
     0
  9
$DIMSE2
 70
     0
  9
$DIMTAD
 70
     1
  9
$DIMZIN
 70
     8
  9
$DIMBLK
  1

  9
$DIMASO
 70
     1
  9
$DIMSHO
 70
     1
  9
$DIMPOST
  1

  9
$DIMAPOST
  1

  9
$DIMALT
 70
     0
  9
$DIMALTD
 70
     3
  9
$DIMALTF
 40
0.03937007874016
  9
$DIMLFAC
 40
1.0
  9
$DIMTOFL
 70
     1
  9
$DIMTVP
 40
0.0
  9
$DIMTIX
 70
     0
  9
$DIMSOXD
 70
     0
  9
$DIMSAH
 70
     0
  9
$DIMBLK1
  1

  9
$DIMBLK2
  1

  9
$DIMSTYLE
  2
ISO-25
  9
$DIMCLRD
 70
     0
  9
$DIMCLRE
 70
     0
  9
$DIMCLRT
 70
     0
  9
$DIMTFAC
 40
1.0
  9
$DIMGAP
 40
0.625
  9
$DIMJUST
 70
     0
  9
$DIMSD1
 70
     0
  9
$DIMSD2
 70
     0
  9
$DIMTOLJ
 70
     0
  9
$DIMTZIN
 70
     8
  9
$DIMALTZ
 70
     0
  9
$DIMALTTZ
 70
     0
  9
$DIMUPT
 70
     0
  9
$DIMDEC
 70
     2
  9
$DIMTDEC
 70
     2
  9
$DIMALTU
 70
     2
  9
$DIMALTTD
 70
     3
  9
$DIMTXSTY
  7
Standard
  9
$DIMAUNIT
 70
     0
  9
$DIMADEC
 70
     0
  9
$DIMALTRND
 40
0.0
  9
$DIMAZIN
 70
     0
  9
$DIMDSEP
 70
    44
  9
$DIMATFIT
 70
     3
  9
$DIMFRAC
 70
     0
  9
$DIMLDRBLK
  1

  9
$DIMLUNIT
 70
     2
  9
$DIMLWD
 70
    -2
  9
$DIMLWE
 70
    -2
  9
$DIMTMOVE
 70
     0
  9
$DIMFXL
 40
1.0
  9
$DIMFXLON
 70
     0
  9
$DIMJOGANG
 40
0.7853981633974483
  9
$DIMTFILL
 70
     0
  9
$DIMTFILLCLR
 70
     0
  9
$DIMARCSYM
 70
     0
  9
$DIMLTYPE
  6

  9
$DIMLTEX1
  6

  9
$DIMLTEX2
  6

  9
$DIMTXTDIRECTION
 70
     0
  9
$LUNITS
 70
     2
  9
$LUPREC
 70
     4
  9
$SKETCHINC
 40
1.0
  9
$FILLETRAD
 40
10.0
  9
$AUNITS
 70
     0
  9
$AUPREC
 70
     0
  9
$MENU
  1
.
  9
$ELEVATION
 40
0.0
  9
$PELEVATION
 40
0.0
  9
$THICKNESS
 40
0.0
  9
$LIMCHECK
 70
     0
  9
$CHAMFERA
 40
10.0
  9
$CHAMFERB
 40
10.0
  9
$CHAMFERC
 40
20.0
  9
$CHAMFERD
 40
0.0
  9
$SKPOLY
 70
     0
  9
$TDCREATE
 40
2457953.399787859
  9
$TDUCREATE
 40
2457953.024787859
  9
$TDUPDATE
 40
2457953.39978787
  9
$TDUUPDATE
 40
2457953.02478787
  9
$TDINDWG
 40
0.0000000116
  9
$TDUSRTIMER
 40
0.0000000116
  9
$USRTIMER
 70
     1
  9
$ANGBASE
 50
0.0
  9
$ANGDIR
 70
     0
  9
$PDMODE
 70
     0
  9
$PDSIZE
 40
0.0
  9
$PLINEWID
 40
0.0
  9
$SPLFRAME
 70
     0
  9
$SPLINETYPE
 70
     6
  9
$SPLINESEGS
 70
     8
  9
$HANDSEED
  5
277
  9
$SURFTAB1
 70
     6
  9
$SURFTAB2
 70
     6
  9
$SURFTYPE
 70
     6
  9
$SURFU
 70
     6
  9
$SURFV
 70
     6
  9
$UCSBASE
  2

  9
$UCSNAME
  2

  9
$UCSORG
 10
0.0
 20
0.0
 30
0.0
  9
$UCSXDIR
 10
1.0
 20
0.0
 30
0.0
  9
$UCSYDIR
 10
0.0
 20
1.0
 30
0.0
  9
$UCSORTHOREF
  2

  9
$UCSORTHOVIEW
 70
     0
  9
$UCSORGTOP
 10
0.0
 20
0.0
 30
0.0
  9
$UCSORGBOTTOM
 10
0.0
 20
0.0
 30
0.0
  9
$UCSORGLEFT
 10
0.0
 20
0.0
 30
0.0
  9
$UCSORGRIGHT
 10
0.0
 20
0.0
 30
0.0
  9
$UCSORGFRONT
 10
0.0
 20
0.0
 30
0.0
  9
$UCSORGBACK
 10
0.0
 20
0.0
 30
0.0
  9
$PUCSBASE
  2

  9
$PUCSNAME
  2

  9
$PUCSORG
 10
0.0
 20
0.0
 30
0.0
  9
$PUCSXDIR
 10
1.0
 20
0.0
 30
0.0
  9
$PUCSYDIR
 10
0.0
 20
1.0
 30
0.0
  9
$PUCSORTHOREF
  2

  9
$PUCSORTHOVIEW
 70
     0
  9
$PUCSORGTOP
 10
0.0
 20
0.0
 30
0.0
  9
$PUCSORGBOTTOM
 10
0.0
 20
0.0
 30
0.0
  9
$PUCSORGLEFT
 10
0.0
 20
0.0
 30
0.0
  9
$PUCSORGRIGHT
 10
0.0
 20
0.0
 30
0.0
  9
$PUCSORGFRONT
 10
0.0
 20
0.0
 30
0.0
  9
$PUCSORGBACK
 10
0.0
 20
0.0
 30
0.0
  9
$USERI1
 70
     0
  9
$USERI2
 70
     0
  9
$USERI3
 70
     0
  9
$USERI4
 70
     0
  9
$USERI5
 70
     0
  9
$USERR1
 40
0.0
  9
$USERR2
 40
0.0
  9
$USERR3
 40
0.0
  9
$USERR4
 40
0.0
  9
$USERR5
 40
0.0
  9
$WORLDVIEW
 70
     1
  9
$SHADEDGE
 70
     3
  9
$SHADEDIF
 70
    70
  9
$TILEMODE
 70
     1
  9
$MAXACTVP
 70
    64
  9
$PINSBASE
 10
0.0
 20
0.0
 30
0.0
  9
$PLIMCHECK
 70
     0
  9
$PEXTMIN
 10
1.000000000000000E+20
 20
1.000000000000000E+20
 30
1.000000000000000E+20
  9
$PEXTMAX
 10
-1.000000000000000E+20
 20
-1.000000000000000E+20
 30
-1.000000000000000E+20
  9
$PLIMMIN
 10
0.0
 20
0.0
  9
$PLIMMAX
 10
420.0
 20
297.0
  9
$UNITMODE
 70
     0
  9
$VISRETAIN
 70
     1
  9
$PLINEGEN
 70
     0
  9
$PSLTSCALE
 70
     1
  9
$TREEDEPTH
 70
  3020
  9
$CMLSTYLE
  2
Standard
  9
$CMLJUST
 70
     0
  9
$CMLSCALE
 40
20.0
  9
$PROXYGRAPHICS
 70
     1
  9
$MEASUREMENT
 70
     1
  9
$CELWEIGHT
370
    -1
  9
$ENDCAPS
280
     0
  9
$JOINSTYLE
280
     0
  9
$LWDISPLAY
290
     0
  9
$INSUNITS
 70
     4
  9
$HYPERLINKBASE
  1

  9
$STYLESHEET
  1

  9
$XEDIT
290
     1
  9
$CEPSNTYPE
380
     0
  9
$PSTYLEMODE
290
     1
  9
$FINGERPRINTGUID
  2
{9AFFD05B-2FAC-449D-B5EC-2BB52FA4A52C}
  9
$VERSIONGUID
  2
{FAEB1C32-E019-11D5-929B-00C0DF256EC4}
  9
$EXTNAMES
290
     1
  9
$PSVPSCALE
 40
0.0
  9
$OLESTARTUP
290
     0
  9
$SORTENTS
280
   127
  9
$INDEXCTL
280
     0
  9
$HIDETEXT
280
     1
  9
$XCLIPFRAME
280
     2
  9
$HALOGAP
280
     0
  9
$OBSCOLOR
 70
   257
  9
$OBSLTYPE
280
     0
  9
$INTERSECTIONDISPLAY
280
     0
  9
$INTERSECTIONCOLOR
 70
   257
  9
$DIMASSOC
280
     2
  9
$PROJECTNAME
  1

  9
$CAMERADISPLAY
290
     0
  9
$LENSLENGTH
 40
50.0
  9
$CAMERAHEIGHT
 40
0.0
  9
$STEPSPERSEC
 40
2.0
  9
$STEPSIZE
 40
6.0
  9
$3DDWFPREC
 40
2.0
  9
$PSOLWIDTH
 40
5.0
  9
$PSOLHEIGHT
 40
80.0
  9
$LOFTANG1
 40
1.570796326794897
  9
$LOFTANG2
 40
1.570796326794897
  9
$LOFTMAG1
 40
0.0
  9
$LOFTMAG2
 40
0.0
  9
$LOFTPARAM
 70
     7
  9
$LOFTNORMALS
280
     1
  9
$LATITUDE
 40
37.795
  9
$LONGITUDE
 40
-122.394
  9
$NORTHDIRECTION
 40
0.0
  9
$TIMEZONE
 70
 -8000
  9
$LIGHTGLYPHDISPLAY
280
     1
  9
$TILEMODELIGHTSYNCH
280
     1
  9
$SOLIDHIST
280
     1
  9
$SHOWHIST
280
     1
  9
$DWFFRAME
280
     2
  9
$DGNFRAME
280
     2
  9
$REALWORLDSCALE
290
     1
  9
$INTERFERECOLOR
 62
   256
  9
$CSHADOW
280
     0
  9
$SHADOWPLANELOCATION
 40
0.0
  0
ENDSEC
  0
SECTION
  2
CLASSES
  0
CLASS
  1
ACDBDICTIONARYWDFLT
  2
AcDbDictionaryWithDefault
  3
ObjectDBX Classes
 90
        0
 91
        4
280
     0
281
     0
  0
CLASS
  1
VISUALSTYLE
  2
AcDbVisualStyle
  3
ObjectDBX Classes
 90
     4095
 91
        4
280
     0
281
     0
  0
CLASS
  1
MATERIAL
  2
AcDbMaterial
  3
ObjectDBX Classes
 90
     1153
 91
        4
280
     0
281
     0
  0
ENDSEC
  0
SECTION
  2
TABLES
  0
TABLE
  2
VPORT
  5
8
330
0
100
AcDbSymbolTable
 70
     1
  0
VPORT
  5
29
330
8
100
AcDbSymbolTableRecord
100
AcDbViewportTableRecord
  2
*Active
 70
     0
 10
0.0
 20
0.0
 11
1.0
 21
1.0
 12
0.0
 22
0.0
 13
0.0
 23
0.0
 14
10.0
 24
10.0
 15
10.0
 25
10.0
 16
0.0
 26
0.0
 36
1.0
 17
0.0
 27
0.0
 37
0.0
 40
6930.000000000001
 41
1.414285714285714
 42
50.0
 43
0.0
 44
0.0
 50
0.0
 51
0.0
 71
     0
 72
 10000
 73
     1
 74
     3
 75
     0
 76
     0
 77
     0
 78
     0
281
     0
 65
     1
110
0.0
120
0.0
130
0.0
111
1.0
121
0.0
131
0.0
112
0.0
122
1.0
132
0.0
 79
     0
146
0.0
 60
     3
 61
     5
292
     1
282
     1
141
0.0
142
0.0
 63
   250
  0
ENDTAB
  0
TABLE
  2
LTYPE
  5
5
330
0
100
AcDbSymbolTable
 70
     2
  0
LTYPE
  5
14
330
5
100
AcDbSymbolTableRecord
100
AcDbLinetypeTableRecord
  2
ByBlock
 70
     0
  3

 72
    65
 73
     0
 40
0.0
  0
LTYPE
  5
15
330
5
100
AcDbSymbolTableRecord
100
AcDbLinetypeTableRecord
  2
ByLayer
 70
     0
  3

 72
    65
 73
     0
 40
0.0
  0
LTYPE
  5
16
330
5
100
AcDbSymbolTableRecord
100
AcDbLinetypeTableRecord
  2
Continuous
 70
     0
  3
Solid line
 72
    65
 73
     0
 40
0.0
  0
LTYPE
  5
3F
330
5
100
AcDbSymbolTableRecord
100
AcDbLinetypeTableRecord
  2
JWW_DASHED1
 70
     0
  3
-  --  --  --  --  --  --  --  -
 72
    65
 73
     2
 40
1.693333333333333
 49
0.8466666666666667
 74
     0
 49
-0.8466666666666667
 74
     0
  0
ENDTAB
  0
TABLE
  2
LAYER
  5
2
330
0
100
AcDbSymbolTable
 70
     3
  0
LAYER
  5
10
330
2
100
AcDbSymbolTableRecord
100
AcDbLayerTableRecord
  2
0
 70
     0
 62
     7
  6
Continuous
370
    -3
390
F
347
3E
  0
LAYER
  5
40
330
2
100
AcDbSymbolTableRecord
100
AcDbLayerTableRecord
  2
0-0
 70
     0
 62
     7
  6
Continuous
370
    -3
390
F
347
3E
  0
LAYER
  5
41
330
2
100
AcDbSymbolTableRecord
100
AcDbLayerTableRecord
  2
寸法
 70
     0
 62
     7
  6
Continuous
370
    -3
390
F
347
3E
  0
ENDTAB
  0
TABLE
  2
STYLE
  5
3
330
0
100
AcDbSymbolTable
 70
     1
  0
STYLE
  5
11
330
3
100
AcDbSymbolTableRecord
100
AcDbTextStyleTableRecord
  2
Standard
 70
     0
 40
0.0
 41
1.0
 50
0.0
 71
     0
 42
2.5
  3
txt
  4

  0
ENDTAB
  0
TABLE
  2
VIEW
  5
6
330
0
100
AcDbSymbolTable
 70
     0
  0
ENDTAB
  0
TABLE
  2
UCS
  5
7
330
0
100
AcDbSymbolTable
 70
     0
  0
ENDTAB
  0
TABLE
  2
APPID
  5
9
330
0
100
AcDbSymbolTable
 70
     1
  0
APPID
  5
12
330
9
100
AcDbSymbolTableRecord
100
AcDbRegAppTableRecord
  2
ACAD
 70
     0
  0
ENDTAB
  0
TABLE
  2
DIMSTYLE
  5
A
330
0
100
AcDbSymbolTable
 70
     1
100
AcDbDimStyleTable
  0
DIMSTYLE
105
27
330
A
100
AcDbSymbolTableRecord
100
AcDbDimStyleTableRecord
  2
ISO-25
 70
     0
 41
2.5
 42
0.625
 43
3.75
 44
1.25
 73
     0
 74
     0
 77
     1
 78
     8
140
2.5
141
2.5
143
0.03937007874016
147
0.625
171
     3
172
     1
178
     0
271
     2
272
     2
274
     3
278
    44
283
     0
284
     8
340
11
  0
ENDTAB
  0
TABLE
  2
BLOCK_RECORD
  5
1
330
0
100
AcDbSymbolTable
 70
     1
  0
BLOCK_RECORD
  5
1F
330
1
100
AcDbSymbolTableRecord
100
AcDbBlockTableRecord
  2
*Model_Space
340
22
 70
     0
280
     1
281
     0
  0
BLOCK_RECORD
  5
1B
330
1
100
AcDbSymbolTableRecord
100
AcDbBlockTableRecord
  2
*Paper_Space
340
1E
 70
     0
280
     1
281
     0
  0
BLOCK_RECORD
  5
23
330
1
100
AcDbSymbolTableRecord
100
AcDbBlockTableRecord
  2
*Paper_Space0
340
26
 70
     0
280
     1
281
     0
  0
ENDTAB
  0
ENDSEC
  0
SECTION
  2
BLOCKS
  0
BLOCK
  5
20
330
1F
100
AcDbEntity
  8
0
100
AcDbBlockBegin
  2
*Model_Space
 70
     0
 10
0.0
 20
0.0
 30
0.0
  3
*Model_Space
  1

  0
ENDBLK
  5
21
330
1F
100
AcDbEntity
  8
0
100
AcDbBlockEnd
  0
BLOCK
  5
1C
330
1B
100
AcDbEntity
 67
     1
  8
0
100
AcDbBlockBegin
  2
*Paper_Space
 70
     0
 10
0.0
 20
0.0
 30
0.0
  3
*Paper_Space
  1

  0
ENDBLK
  5
1D
330
1B
100
AcDbEntity
 67
     1
  8
0
100
AcDbBlockEnd
  0
BLOCK
  5
24
330
23
100
AcDbEntity
  8
0
100
AcDbBlockBegin
  2
*Paper_Space0
 70
     0
 10
0.0
 20
0.0
 30
0.0
  3
*Paper_Space0
  1

  0
ENDBLK
  5
25
330
23
100
AcDbEntity
  8
0
100
AcDbBlockEnd
  0
ENDSEC
  0
SECTION
  2
ENTITIES
  0
LINE
  5
42
330
1F
100
AcDbEntity
  8
0-0
  6
Continuous
 62
    92
370
    13
100
AcDbLine
 10
-373.7448094835604
 20
1040.159919599914
 30
0.0
 11
-373.7448094835604
 21
-942.8400804000863
 31
0.0
  0
LINE
  5
43
330
1F
100
AcDbEntity
  8
0-0
  6
Continuous
 62
    92
370
    13
100
AcDbLine
 10
-1150.74480948356
 20
1040.159919599914
 30
0.0
 11
1213.255190516439
 21
1040.159919599914
 31
0.0
  0
LINE
  5
44
330
1F
100
AcDbEntity
  8
0-0
  6
Continuous
 62
    92
370
    13
100
AcDbLine
 10
-1150.74480948356
 20
-942.8400804000863
 30
0.0
 11
1213.255190516439
 21
-942.8400804000863
 31
0.0
  0
LINE
  5
45
330
1F
100
AcDbEntity
  8
0-0
  6
JWW_DASHED1
 62
   120
370
     5
100
AcDbLine
 10
1216.25519051644
 20
1040.159919599914
 30
0.0
 11
1213.255190516439
 21
1040.159919599914
 31
0.0
  0
LINE
  5
46
330
1F
100
AcDbEntity
  8
0-0
  6
JWW_DASHED1
 62
   120
370
     5
100
AcDbLine
 10
1216.25519051644
 20
-942.8400804000863
 30
0.0
 11
1216.25519051644
 21
1040.159919599914
 31
0.0
  0
LINE
  5
47
330
1F
100
AcDbEntity
  8
0-0
  6
JWW_DASHED1
 62
   120
370
     5
100
AcDbLine
 10
1213.255190516439
 20
-942.8400804000863
 30
0.0
 11
1216.25519051644
 21
-942.8400804000863
 31
0.0
  0
LINE
  5
48
330
1F
100
AcDbEntity
  8
0-0
  6
JWW_DASHED1
 62
   120
370
     5
100
AcDbLine
 10
436.2551905164396
 20
-942.8400804000863
 30
0.0
 11
436.2551905164396
 21
1040.159919599914
 31
0.0
  0
LINE
  5
49
330
1F
100
AcDbEntity
  8
0-0
  6
JWW_DASHED1
 62
   120
370
     5
100
AcDbLine
 10
-343.7448094835604
 20
-942.8400804000863
 30
0.0
 11
-343.7448094835604
 21
1040.159919599914
 31
0.0
  0
LINE
  5
4A
330
1F
100
AcDbEntity
  8
0-0
  6
JWW_DASHED1
 62
   120
370
     5
100
AcDbLine
 10
-1153.74480948356
 20
1040.159919599914
 30
0.0
 11
-1150.74480948356
 21
1040.159919599914
 31
0.0
  0
LINE
  5
4B
330
1F
100
AcDbEntity
  8
0-0
  6
Continuous
 62
    92
370
    13
100
AcDbLine
 10
406.2551905164396
 20
-942.8400804000863
 30
0.0
 11
406.2551905164396
 21
1040.159919599914
 31
0.0
  0
LINE
  5
4C
330
1F
100
AcDbEntity
  8
0-0
  6
JWW_DASHED1
 62
   120
370
     5
100
AcDbLine
 10
-1153.74480948356
 20
-942.8400804000863
 30
0.0
 11
-1153.74480948356
 21
1040.159919599914
 31
0.0
  0
LINE
  5
4D
330
1F
100
AcDbEntity
  8
0-0
  6
JWW_DASHED1
 62
   120
370
     5
100
AcDbLine
 10
-1150.74480948356
 20
-942.8400804000863
 30
0.0
 11
-1153.74480948356
 21
-942.8400804000863
 31
0.0
  0
LINE
  5
4E
330
1F
100
AcDbEntity
  8
0-0
  6
Continuous
 62
     7
370
     9
100
AcDbLine
 10
1150.255190516442
 20
44.25991959991464
 30
0.0
 11
1150.255190516442
 21
-14.94008040008524
 31
0.0
  0
LINE
  5
4F
330
1F
100
AcDbEntity
  8
0-0
  6
Continuous
 62
     7
370
     9
100
AcDbLine
 10
1180.255190516442
 20
-14.94008040008524
 30
0.0
 11
1180.255190516442
 21
44.25991959991464
 31
0.0
  0
ARC
  5
50
330
1F
100
AcDbEntity
  8
0-0
  6
Continuous
 62
     7
370
     9
100
AcDbCircle
 10
1165.255190516442
 20
44.25991959991464
 30
0.0
 40
15.0
100
AcDbArc
 50
0.0
 51
180.0
  0
ARC
  5
51
330
1F
100
AcDbEntity
  8
0-0
  6
Continuous
 62
     7
370
     9
100
AcDbCircle
 10
1165.255190516442
 20
-14.94008040008524
 30
0.0
 40
15.0
100
AcDbArc
 50
180.0
 51
0.0
  0
ARC
  5
52
330
1F
100
AcDbEntity
  8
0-0
  6
Continuous
 62
    92
370
    13
100
AcDbCircle
 10
1145.755190516442
 20
-44.84008040008533
 30
0.0
 40
1.5
100
AcDbArc
 50
180.0
 51
270.0
  0
LINE
  5
53
330
1F
100
AcDbEntity
  8
0-0
  6
Continuous
 62
    92
370
    13
100
AcDbLine
 10
1144.255190516442
 20
-44.84008040008533
 30
0.0
 11
1144.255190516442
 21
74.15991959991473
 31
0.0
  0
LINE
  5
54
330
1F
100
AcDbEntity
  8
0-0
  6
Continuous
 62
    92
370
    13
100
AcDbLine
 10
1145.755190516442
 20
-46.34008040008737
 30
0.0
 11
1184.755190516441
 21
-46.34008040008737
 31
0.0
  0
ARC
  5
55
330
1F
100
AcDbEntity
  8
0-0
  6
Continuous
 62
    92
370
    13
100
AcDbCircle
 10
1184.755190516441
 20
-44.84008040008533
 30
0.0
 40
1.5
100
AcDbArc
 50
270.0
 51
0.0
  0
LINE
  5
56
330
1F
100
AcDbEntity
  8
0-0
  6
Continuous
 62
    92
370
    13
100
AcDbLine
 10
1186.255190516441
 20
-44.84008040008533
 30
0.0
 11
1186.255190516441
 21
74.15991959991473
 31
0.0
  0
ARC
  5
57
330
1F
100
AcDbEntity
  8
0-0
  6
Continuous
 62
    92
370
    13
100
AcDbCircle
 10
1184.755190516441
 20
74.15991959991473
 30
0.0
 40
1.5
100
AcDbArc
 50
0.0
 51
90.00000000000001
  0
LINE
  5
58
330
1F
100
AcDbEntity
  8
0-0
  6
Continuous
 62
    92
370
    13
100
AcDbLine
 10
1184.755190516441
 20
75.65991959991422
 30
0.0
 11
1145.755190516442
 21
75.65991959991422
 31
0.0
  0
ARC
  5
59
330
1F
100
AcDbEntity
  8
0-0
  6
Continuous
 62
    92
370
    13
100
AcDbCircle
 10
1145.755190516442
 20
74.15991959991473
 30
0.0
 40
1.5
100
AcDbArc
 50
90.0
 51
180.0
  0
LINE
  5
5A
330
1F
100
AcDbEntity
  8
0-0
  6
Continuous
 62
     7
370
     9
100
AcDbLine
 10
-337.7448094835624
 20
44.25991959991464
 30
0.0
 11
-337.7448094835624
 21
-14.94008040008524
 31
0.0
  0
LINE
  5
5B
330
1F
100
AcDbEntity
  8
0-0
  6
Continuous
 62
     7
370
     9
100
AcDbLine
 10
-307.7448094835624
 20
-14.94008040008524
 30
0.0
 11
-307.7448094835624
 21
44.25991959991464
 31
0.0
  0
ARC
  5
5C
330
1F
100
AcDbEntity
  8
0-0
  6
Continuous
 62
     7
370
     9
100
AcDbCircle
 10
-322.7448094835624
 20
44.25991959991464
 30
0.0
 40
15.0
100
AcDbArc
 50
0.0
 51
180.0
  0
ARC
  5
5D
330
1F
100
AcDbEntity
  8
0-0
  6
Continuous
 62
     7
370
     9
100
AcDbCircle
 10
-322.7448094835624
 20
-14.94008040008524
 30
0.0
 40
15.0
100
AcDbArc
 50
180.0
 51
0.0
  0
ARC
  5
5E
330
1F
100
AcDbEntity
  8
0-0
  6
Continuous
 62
    92
370
    13
100
AcDbCircle
 10
-342.2448094835618
 20
-44.84008040008533
 30
0.0
 40
1.5
100
AcDbArc
 50
180.0
 51
270.0
  0
LINE
  5
5F
330
1F
100
AcDbEntity
  8
0-0
  6
Continuous
 62
    92
370
    13
100
AcDbLine
 10
-343.7448094835604
 20
-44.84008040008533
 30
0.0
 11
-343.7448094835604
 21
74.15991959991473
 31
0.0
  0
LINE
  5
60
330
1F
100
AcDbEntity
  8
0-0
  6
Continuous
 62
    92
370
    13
100
AcDbLine
 10
-342.2448094835618
 20
-46.34008040008737
 30
0.0
 11
-303.2448094835614
 21
-46.34008040008737
 31
0.0
  0
ARC
  5
61
330
1F
100
AcDbEntity
  8
0-0
  6
Continuous
 62
    92
370
    13
100
AcDbCircle
 10
-303.2448094835614
 20
-44.84008040008533
 30
0.0
 40
1.5
100
AcDbArc
 50
270.0
 51
0.0
  0
LINE
  5
62
330
1F
100
AcDbEntity
  8
0-0
  6
Continuous
 62
    92
370
    13
100
AcDbLine
 10
-301.7448094835645
 20
-44.84008040008533
 30
0.0
 11
-301.7448094835645
 21
74.15991959991473
 31
0.0
  0
ARC
  5
63
330
1F
100
AcDbEntity
  8
0-0
  6
Continuous
 62
    92
370
    13
100
AcDbCircle
 10
-303.2448094835614
 20
74.15991959991473
 30
0.0
 40
1.5
100
AcDbArc
 50
0.0
 51
90.00000000000001
  0
LINE
  5
64
330
1F
100
AcDbEntity
  8
0-0
  6
Continuous
 62
    92
370
    13
100
AcDbLine
 10
-303.2448094835614
 20
75.65991959991422
 30
0.0
 11
-342.2448094835618
 21
75.65991959991422
 31
0.0
  0
ARC
  5
65
330
1F
100
AcDbEntity
  8
0-0
  6
Continuous
 62
    92
370
    13
100
AcDbCircle
 10
-342.2448094835618
 20
74.15991959991473
 30
0.0
 40
1.5
100
AcDbArc
 50
90.0
 51
180.0
  0
LINE
  5
66
330
1F
100
AcDbEntity
  8
0-0
  6
Continuous
 62
     7
370
     9
100
AcDbLine
 10
-1117.744809483562
 20
44.25991959991464
 30
0.0
 11
-1117.744809483562
 21
-14.94008040008524
 31
0.0
  0
LINE
  5
67
330
1F
100
AcDbEntity
  8
0-0
  6
Continuous
 62
     7
370
     9
100
AcDbLine
 10
-1087.744809483562
 20
-14.94008040008524
 30
0.0
 11
-1087.744809483562
 21
44.25991959991464
 31
0.0
  0
ARC
  5
68
330
1F
100
AcDbEntity
  8
0-0
  6
Continuous
 62
     7
370
     9
100
AcDbCircle
 10
-1102.744809483562
 20
44.25991959991464
 30
0.0
 40
15.0
100
AcDbArc
 50
0.0
 51
180.0
  0
ARC
  5
69
330
1F
100
AcDbEntity
  8
0-0
  6
Continuous
 62
     7
370
     9
100
AcDbCircle
 10
-1102.744809483562
 20
-14.94008040008524
 30
0.0
 40
15.0
100
AcDbArc
 50
180.0
 51
0.0
  0
ARC
  5
6A
330
1F
100
AcDbEntity
  8
0-0
  6
Continuous
 62
    92
370
    13
100
AcDbCircle
 10
-1122.244809483562
 20
-44.84008040008533
 30
0.0
 40
1.5
100
AcDbArc
 50
180.0
 51
270.0
  0
LINE
  5
6B
330
1F
100
AcDbEntity
  8
0-0
  6
Continuous
 62
    92
370
    13
100
AcDbLine
 10
-1123.74480948356
 20
-44.84008040008533
 30
0.0
 11
-1123.74480948356
 21
74.15991959991473
 31
0.0
  0
LINE
  5
6C
330
1F
100
AcDbEntity
  8
0-0
  6
Continuous
 62
    92
370
    13
100
AcDbLine
 10
-1122.244809483562
 20
-46.34008040008737
 30
0.0
 11
-1083.244809483561
 21
-46.34008040008737
 31
0.0
  0
ARC
  5
6D
330
1F
100
AcDbEntity
  8
0-0
  6
Continuous
 62
    92
370
    13
100
AcDbCircle
 10
-1083.244809483561
 20
-44.84008040008533
 30
0.0
 40
1.5
100
AcDbArc
 50
270.0
 51
0.0
  0
LINE
  5
6E
330
1F
100
AcDbEntity
  8
0-0
  6
Continuous
 62
    92
370
    13
100
AcDbLine
 10
-1081.744809483564
 20
-44.84008040008533
 30
0.0
 11
-1081.744809483564
 21
74.15991959991473
 31
0.0
  0
ARC
  5
6F
330
1F
100
AcDbEntity
  8
0-0
  6
Continuous
 62
    92
370
    13
100
AcDbCircle
 10
-1083.244809483561
 20
74.15991959991473
 30
0.0
 40
1.5
100
AcDbArc
 50
0.0
 51
90.00000000000001
  0
LINE
  5
70
330
1F
100
AcDbEntity
  8
0-0
  6
Continuous
 62
    92
370
    13
100
AcDbLine
 10
-1083.244809483561
 20
75.65991959991422
 30
0.0
 11
-1122.244809483562
 21
75.65991959991422
 31
0.0
  0
ARC
  5
71
330
1F
100
AcDbEntity
  8
0-0
  6
Continuous
 62
    92
370
    13
100
AcDbCircle
 10
-1122.244809483562
 20
74.15991959991473
 30
0.0
 40
1.5
100
AcDbArc
 50
90.0
 51
180.0
  0
LINE
  5
72
330
1F
100
AcDbEntity
  8
0-0
  6
Continuous
 62
    92
370
    13
100
AcDbLine
 10
1213.255190516439
 20
-947.840080400086
 30
0.0
 11
-1150.74480948356
 21
-947.840080400086
 31
0.0
  0
LINE
  5
73
330
1F
100
AcDbEntity
  8
0-0
  6
Continuous
 62
    92
370
    13
100
AcDbLine
 10
1243.255190516439
 20
-962.840080400086
 30
0.0
 11
-1180.74480948356
 21
-962.840080400086
 31
0.0
  0
LINE
  5
74
330
1F
100
AcDbEntity
  8
0-0
  6
Continuous
 62
    92
370
    13
100
AcDbLine
 10
-1180.74480948356
 20
-962.840080400086
 30
0.0
 11
-1180.74480948356
 21
1084.159919599914
 31
0.0
  0
LINE
  5
75
330
1F
100
AcDbEntity
  8
0-0
  6
Continuous
 62
    92
370
    13
100
AcDbLine
 10
1243.255190516439
 20
-962.840080400086
 30
0.0
 11
1243.255190516439
 21
1084.159919599914
 31
0.0
  0
LINE
  5
76
330
1F
100
AcDbEntity
  8
0-0
  6
Continuous
 62
    92
370
    13
100
AcDbLine
 10
1213.255190516439
 20
-962.840080400086
 30
0.0
 11
1213.255190516439
 21
1084.159919599914
 31
0.0
  0
LINE
  5
77
330
1F
100
AcDbEntity
  8
0-0
  6
Continuous
 62
    92
370
    13
100
AcDbLine
 10
-1150.74480948356
 20
1048.159919599913
 30
0.0
 11
1213.255190516439
 21
1048.159919599913
 31
0.0
  0
LINE
  5
78
330
1F
100
AcDbEntity
  8
0-0
  6
Continuous
 62
    92
370
    13
100
AcDbLine
 10
-1180.74480948356
 20
1084.159919599914
 30
0.0
 11
1243.255190516439
 21
1084.159919599914
 31
0.0
  0
LINE
  5
79
330
1F
100
AcDbEntity
  8
0-0
  6
Continuous
 62
    92
370
    13
100
AcDbLine
 10
-1150.74480948356
 20
-962.840080400086
 30
0.0
 11
-1150.74480948356
 21
1084.159919599914
 31
0.0
  0
LINE
  5
7A
330
1F
100
AcDbEntity
  8
0-0
  6
Continuous
 62
    92
370
    13
100
AcDbLine
 10
925.2551905164382
 20
1040.159919599914
 30
0.0
 11
925.2551905164382
 21
-942.8400804000861
 31
0.0
  0
LINE
  5
7B
330
1F
100
AcDbEntity
  8
0-0
  6
Continuous
 62
    92
370
    13
100
AcDbLine
 10
145.2551905164383
 20
1040.159919599914
 30
0.0
 11
145.2551905164383
 21
-942.8400804000859
 31
0.0
  0
LINE
  5
7C
330
1F
100
AcDbEntity
  8
0-0
  6
Continuous
 62
    92
370
    13
100
AcDbLine
 10
-634.7448094835618
 20
1040.159919599914
 30
0.0
 11
-634.7448094835618
 21
-942.8400804000859
 31
0.0
  0
LINE
  5
7D
330
1F
100
AcDbEntity
  8
0-0
  6
Continuous
 62
    92
370
    13
100
AcDbLine
 10
697.255190516441
 20
1040.159919599914
 30
0.0
 11
697.255190516441
 21
-942.8400804000861
 31
0.0
  0
LINE
  5
7E
330
1F
100
AcDbEntity
  8
0-0
  6
Continuous
 62
    92
370
    13
100
AcDbLine
 10
-82.74480948355901
 20
1040.159919599914
 30
0.0
 11
-82.74480948355901
 21
-942.8400804000859
 31
0.0
  0
LINE
  5
7F
330
1F
100
AcDbEntity
  8
0-0
  6
Continuous
 62
    92
370
    13
100
AcDbLine
 10
-862.744809483559
 20
1040.159919599914
 30
0.0
 11
-862.744809483559
 21
-942.8400804000859
 31
0.0
  0
LINE
  5
80
330
1F
100
AcDbEntity
  8
0-0
  6
JWW_DASHED1
 62
   120
370
     5
100
AcDbLine
 10
697.255190516441
 20
1020.576701392812
 30
0.0
 11
708.8384087235415
 21
1032.159919599914
 31
0.0
  0
LINE
  5
81
330
1F
100
AcDbEntity
  8
0-0
  6
JWW_DASHED1
 62
   120
370
     5
100
AcDbLine
 10
697.2551905164341
 20
1006.434565769074
 30
0.0
 11
722.9805443472749
 21
1032.159919599914
 31
0.0
  0
LINE
  5
82
330
1F
100
AcDbEntity
  8
0-0
  6
JWW_DASHED1
 62
   120
370
     5
100
AcDbLine
 10
697.2551905164307
 20
992.2924301453365
 30
0.0
 11
737.1226799710082
 21
1032.159919599914
 31
0.0
  0
LINE
  5
83
330
1F
100
AcDbEntity
  8
0-0
  6
JWW_DASHED1
 62
   120
370
     5
100
AcDbLine
 10
697.2551905164273
 20
978.1502945215998
 30
0.0
 11
751.2648155947415
 21
1032.159919599914
 31
0.0
  0
LINE
  5
84
330
1F
100
AcDbEntity
  8
0-0
  6
JWW_DASHED1
 62
   120
370
     5
100
AcDbLine
 10
697.255190516441
 20
964.0081588978784
 30
0.0
 11
765.4069512184749
 21
1032.159919599914
 31
0.0
  0
LINE
  5
85
330
1F
100
AcDbEntity
  8
0-0
  6
JWW_DASHED1
 62
   120
370
     5
100
AcDbLine
 10
697.2551905164341
 20
949.8660232741395
 30
0.0
 11
779.5490868422082
 21
1032.159919599914
 31
0.0
  0
LINE
  5
86
330
1F
100
AcDbEntity
  8
0-0
  6
JWW_DASHED1
 62
   120
370
     5
100
AcDbLine
 10
697.2551905164307
 20
935.7238876504027
 30
0.0
 11
793.6912224659416
 21
1032.159919599914
 31
0.0
  0
LINE
  5
87
330
1F
100
AcDbEntity
  8
0-0
  6
JWW_DASHED1
 62
   120
370
     5
100
AcDbLine
 10
697.2551905164273
 20
921.5817520266655
 30
0.0
 11
807.8333580896749
 21
1032.159919599914
 31
0.0
  0
LINE
  5
88
330
1F
100
AcDbEntity
  8
0-0
  6
JWW_DASHED1
 62
   120
370
     5
100
AcDbLine
 10
697.2551905164376
 20
907.4396164029429
 30
0.0
 11
821.9754937134082
 21
1032.159919599914
 31
0.0
  0
LINE
  5
89
330
1F
100
AcDbEntity
  8
0-0
  6
JWW_DASHED1
 62
   120
370
     5
100
AcDbLine
 10
697.2551905164341
 20
893.2974807792074
 30
0.0
 11
836.1176293371416
 21
1032.159919599914
 31
0.0
  0
LINE
  5
8A
330
1F
100
AcDbEntity
  8
0-0
  6
JWW_DASHED1
 62
   120
370
     5
100
AcDbLine
 10
697.2551905164307
 20
879.1553451554694
 30
0.0
 11
850.2597649608749
 21
1032.159919599914
 31
0.0
  0
LINE
  5
8B
330
1F
100
AcDbEntity
  8
0-0
  6
JWW_DASHED1
 62
   120
370
     5
100
AcDbLine
 10
697.255190516441
 20
865.0132095317463
 30
0.0
 11
864.4019005846083
 21
1032.159919599914
 31
0.0
  0
LINE
  5
8C
330
1F
100
AcDbEntity
  8
0-0
  6
JWW_DASHED1
 62
   120
370
     5
100
AcDbLine
 10
697.255190516441
 20
850.8710739080108
 30
0.0
 11
878.5440362083416
 21
1032.159919599914
 31
0.0
  0
LINE
  5
8D
330
1F
100
AcDbEntity
  8
0-0
  6
JWW_DASHED1
 62
   120
370
     5
100
AcDbLine
 10
697.2551905164341
 20
836.7289382843013
 30
0.0
 11
892.6861718320476
 21
1032.159919599914
 31
0.0
  0
LINE
  5
8E
330
1F
100
AcDbEntity
  8
0-0
  6
JWW_DASHED1
 62
   120
370
     5
100
AcDbLine
 10
697.2551905164341
 20
822.5868026605953
 30
0.0
 11
906.8283074557537
 21
1032.159919599914
 31
0.0
  0
LINE
  5
8F
330
1F
100
AcDbEntity
  8
0-0
  6
JWW_DASHED1
 62
   120
370
     5
100
AcDbLine
 10
697.2551905164307
 20
808.4446670368577
 30
0.0
 11
920.970443079487
 21
1032.159919599914
 31
0.0
  0
LINE
  5
90
330
1F
100
AcDbEntity
  8
0-0
  6
JWW_DASHED1
 62
   120
370
     5
100
AcDbLine
 10
-82.74480948355901
 20
1020.576701392812
 30
0.0
 11
-71.16159127645844
 21
1032.159919599914
 31
0.0
  0
LINE
  5
91
330
1F
100
AcDbEntity
  8
0-0
  6
JWW_DASHED1
 62
   120
370
     5
100
AcDbLine
 10
-82.74480948356583
 20
1006.434565769074
 30
0.0
 11
-57.0194556527251
 21
1032.159919599914
 31
0.0
  0
LINE
  5
92
330
1F
100
AcDbEntity
  8
0-0
  6
JWW_DASHED1
 62
   120
370
     5
100
AcDbLine
 10
-82.74480948356924
 20
992.292430145337
 30
0.0
 11
-42.87732002899176
 21
1032.159919599914
 31
0.0
  0
LINE
  5
93
330
1F
100
AcDbEntity
  8
0-0
  6
JWW_DASHED1
 62
   120
370
     5
100
AcDbLine
 10
-82.74480948357265
 20
978.1502945215998
 30
0.0
 11
-28.73518440525842
 21
1032.159919599914
 31
0.0
  0
LINE
  5
94
330
1F
100
AcDbEntity
  8
0-0
  6
JWW_DASHED1
 62
   120
370
     5
100
AcDbLine
 10
-82.74480948355901
 20
964.0081588978784
 30
0.0
 11
-14.59304878152508
 21
1032.159919599914
 31
0.0
  0
LINE
  5
95
330
1F
100
AcDbEntity
  8
0-0
  6
JWW_DASHED1
 62
   120
370
     5
100
AcDbLine
 10
-82.74480948356583
 20
949.8660232741399
 30
0.0
 11
-0.4509131577917458
 21
1032.159919599914
 31
0.0
  0
LINE
  5
96
330
1F
100
AcDbEntity
  8
0-0
  6
JWW_DASHED1
 62
   120
370
     5
100
AcDbLine
 10
-82.74480948356924
 20
935.7238876504032
 30
0.0
 11
13.69122246594159
 21
1032.159919599914
 31
0.0
  0
LINE
  5
97
330
1F
100
AcDbEntity
  8
0-0
  6
JWW_DASHED1
 62
   120
370
     5
100
AcDbLine
 10
-82.74480948357265
 20
921.5817520266655
 30
0.0
 11
27.83335808967493
 21
1032.159919599914
 31
0.0
  0
LINE
  5
98
330
1F
100
AcDbEntity
  8
0-0
  6
JWW_DASHED1
 62
   120
370
     5
100
AcDbLine
 10
-82.74480948356242
 20
907.4396164029433
 30
0.0
 11
41.97549371340827
 21
1032.159919599914
 31
0.0
  0
LINE
  5
99
330
1F
100
AcDbEntity
  8
0-0
  6
JWW_DASHED1
 62
   120
370
     5
100
AcDbLine
 10
-82.74480948356583
 20
893.2974807792074
 30
0.0
 11
56.11762933714161
 21
1032.159919599914
 31
0.0
  0
LINE
  5
9A
330
1F
100
AcDbEntity
  8
0-0
  6
JWW_DASHED1
 62
   120
370
     5
100
AcDbLine
 10
-82.74480948356924
 20
879.1553451554698
 30
0.0
 11
70.25976496087495
 21
1032.159919599914
 31
0.0
  0
LINE
  5
9B
330
1F
100
AcDbEntity
  8
0-0
  6
JWW_DASHED1
 62
   120
370
     5
100
AcDbLine
 10
-82.74480948355901
 20
865.0132095317467
 30
0.0
 11
84.40190058460828
 21
1032.159919599914
 31
0.0
  0
LINE
  5
9C
330
1F
100
AcDbEntity
  8
0-0
  6
JWW_DASHED1
 62
   120
370
     5
100
AcDbLine
 10
-82.74480948355901
 20
850.8710739080108
 30
0.0
 11
98.54403620834162
 21
1032.159919599914
 31
0.0
  0
LINE
  5
9D
330
1F
100
AcDbEntity
  8
0-0
  6
JWW_DASHED1
 62
   120
370
     5
100
AcDbLine
 10
-82.74480948356583
 20
836.7289382843018
 30
0.0
 11
112.6861718320477
 21
1032.159919599914
 31
0.0
  0
LINE
  5
9E
330
1F
100
AcDbEntity
  8
0-0
  6
JWW_DASHED1
 62
   120
370
     5
100
AcDbLine
 10
-82.74480948356583
 20
822.5868026605953
 30
0.0
 11
126.8283074557537
 21
1032.159919599914
 31
0.0
  0
LINE
  5
9F
330
1F
100
AcDbEntity
  8
0-0
  6
JWW_DASHED1
 62
   120
370
     5
100
AcDbLine
 10
-82.74480948356924
 20
808.4446670368582
 30
0.0
 11
140.9704430794871
 21
1032.159919599914
 31
0.0
  0
LINE
  5
A0
330
1F
100
AcDbEntity
  8
0-0
  6
JWW_DASHED1
 62
   120
370
     5
100
AcDbLine
 10
-862.7448094835659
 20
1006.434565769074
 30
0.0
 11
-837.0194556527251
 21
1032.159919599914
 31
0.0
  0
LINE
  5
A1
330
1F
100
AcDbEntity
  8
0-0
  6
JWW_DASHED1
 62
   120
370
     5
100
AcDbLine
 10
-862.7448094835693
 20
992.292430145337
 30
0.0
 11
-822.8773200289918
 21
1032.159919599914
 31
0.0
  0
LINE
  5
A2
330
1F
100
AcDbEntity
  8
0-0
  6
JWW_DASHED1
 62
   120
370
     5
100
AcDbLine
 10
-862.7448094835727
 20
978.1502945215998
 30
0.0
 11
-808.7351844052585
 21
1032.159919599914
 31
0.0
  0
LINE
  5
A3
330
1F
100
AcDbEntity
  8
0-0
  6
JWW_DASHED1
 62
   120
370
     5
100
AcDbLine
 10
-862.744809483559
 20
964.0081588978784
 30
0.0
 11
-794.5930487815251
 21
1032.159919599914
 31
0.0
  0
LINE
  5
A4
330
1F
100
AcDbEntity
  8
0-0
  6
JWW_DASHED1
 62
   120
370
     5
100
AcDbLine
 10
-862.7448094835659
 20
949.8660232741399
 30
0.0
 11
-780.4509131577918
 21
1032.159919599914
 31
0.0
  0
LINE
  5
A5
330
1F
100
AcDbEntity
  8
0-0
  6
JWW_DASHED1
 62
   120
370
     5
100
AcDbLine
 10
-862.7448094835693
 20
935.7238876504032
 30
0.0
 11
-766.3087775340584
 21
1032.159919599914
 31
0.0
  0
LINE
  5
A6
330
1F
100
AcDbEntity
  8
0-0
  6
JWW_DASHED1
 62
   120
370
     5
100
AcDbLine
 10
-862.7448094835727
 20
921.5817520266655
 30
0.0
 11
-752.1666419103251
 21
1032.159919599914
 31
0.0
  0
LINE
  5
A7
330
1F
100
AcDbEntity
  8
0-0
  6
JWW_DASHED1
 62
   120
370
     5
100
AcDbLine
 10
-862.7448094835624
 20
907.4396164029433
 30
0.0
 11
-738.0245062865918
 21
1032.159919599914
 31
0.0
  0
LINE
  5
A8
330
1F
100
AcDbEntity
  8
0-0
  6
JWW_DASHED1
 62
   120
370
     5
100
AcDbLine
 10
-862.7448094835659
 20
893.2974807792074
 30
0.0
 11
-723.8823706628584
 21
1032.159919599914
 31
0.0
  0
LINE
  5
A9
330
1F
100
AcDbEntity
  8
0-0
  6
JWW_DASHED1
 62
   120
370
     5
100
AcDbLine
 10
-862.7448094835693
 20
879.1553451554698
 30
0.0
 11
-709.7402350391251
 21
1032.159919599914
 31
0.0
  0
LINE
  5
AA
330
1F
100
AcDbEntity
  8
0-0
  6
JWW_DASHED1
 62
   120
370
     5
100
AcDbLine
 10
-862.744809483559
 20
865.0132095317467
 30
0.0
 11
-695.5980994153917
 21
1032.159919599914
 31
0.0
  0
LINE
  5
AB
330
1F
100
AcDbEntity
  8
0-0
  6
JWW_DASHED1
 62
   120
370
     5
100
AcDbLine
 10
-862.744809483559
 20
850.8710739080108
 30
0.0
 11
-681.4559637916584
 21
1032.159919599914
 31
0.0
  0
LINE
  5
AC
330
1F
100
AcDbEntity
  8
0-0
  6
JWW_DASHED1
 62
   120
370
     5
100
AcDbLine
 10
-862.7448094835659
 20
836.7289382843018
 30
0.0
 11
-667.3138281679524
 21
1032.159919599914
 31
0.0
  0
LINE
  5
AD
330
1F
100
AcDbEntity
  8
0-0
  6
JWW_DASHED1
 62
   120
370
     5
100
AcDbLine
 10
-862.7448094835659
 20
822.5868026605953
 30
0.0
 11
-653.1716925442463
 21
1032.159919599914
 31
0.0
  0
LINE
  5
AE
330
1F
100
AcDbEntity
  8
0-0
  6
JWW_DASHED1
 62
   120
370
     5
100
AcDbLine
 10
-862.7448094835693
 20
808.4446670368582
 30
0.0
 11
-639.029556920513
 21
1032.159919599914
 31
0.0
  0
LINE
  5
AF
330
1F
100
AcDbEntity
  8
0-0
  6
JWW_DASHED1
 62
   120
370
     5
100
AcDbLine
 10
-862.744809483559
 20
1020.576701392812
 30
0.0
 11
-851.1615912764585
 21
1032.159919599914
 31
0.0
  0
LINE
  5
B0
330
1F
100
AcDbEntity
  8
0-0
  6
Continuous
 62
     7
370
     9
100
AcDbLine
 10
697.255190516441
 20
1032.159919599914
 30
0.0
 11
925.2551905164382
 21
1032.159919599914
 31
0.0
  0
LINE
  5
B1
330
1F
100
AcDbEntity
  8
0-0
  6
Continuous
 62
     7
370
     9
100
AcDbLine
 10
-82.74480948355901
 20
1032.159919599914
 30
0.0
 11
145.2551905164383
 21
1032.159919599914
 31
0.0
  0
LINE
  5
B2
330
1F
100
AcDbEntity
  8
0-0
  6
Continuous
 62
     7
370
     9
100
AcDbLine
 10
-862.744809483559
 20
1032.159919599914
 30
0.0
 11
-634.7448094835618
 21
1032.159919599914
 31
0.0
  0
LINE
  5
B3
330
1F
100
AcDbEntity
  8
0-0
  6
JWW_DASHED1
 62
   120
370
     5
100
AcDbLine
 10
697.255190516441
 20
794.3025314131341
 30
0.0
 11
925.2551905164382
 21
1022.302531413133
 31
0.0
  0
LINE
  5
B4
330
1F
100
AcDbEntity
  8
0-0
  6
JWW_DASHED1
 62
   120
370
     5
100
AcDbLine
 10
697.255190516441
 20
780.1603957893986
 30
0.0
 11
925.2551905164382
 21
1008.160395789396
 31
0.0
  0
LINE
  5
B5
330
1F
100
AcDbEntity
  8
0-0
  6
JWW_DASHED1
 62
   120
370
     5
100
AcDbLine
 10
697.2551905164341
 20
766.0182601656619
 30
0.0
 11
925.2551905164485
 21
994.0182601656745
 31
0.0
  0
LINE
  5
B6
330
1F
100
AcDbEntity
  8
0-0
  6
JWW_DASHED1
 62
   120
370
     5
100
AcDbLine
 10
697.2551905164307
 20
751.8761245419239
 30
0.0
 11
925.255190516428
 21
979.8761245419207
 31
0.0
  0
LINE
  5
B7
330
1F
100
AcDbEntity
  8
0-0
  6
JWW_DASHED1
 62
   120
370
     5
100
AcDbLine
 10
697.2551905164444
 20
737.733988918203
 30
0.0
 11
925.2551905164382
 21
965.7339889181993
 31
0.0
  0
LINE
  5
B8
330
1F
100
AcDbEntity
  8
0-0
  6
JWW_DASHED1
 62
   120
370
     5
100
AcDbLine
 10
697.2551905164376
 20
723.5918532944628
 30
0.0
 11
925.2551905164519
 21
951.5918532944771
 31
0.0
  0
LINE
  5
B9
330
1F
100
AcDbEntity
  8
0-0
  6
JWW_DASHED1
 62
   120
370
     5
100
AcDbLine
 10
697.2551905164341
 20
709.4497176707278
 30
0.0
 11
925.2551905164314
 21
937.4497176707246
 31
0.0
  0
LINE
  5
BA
330
1F
100
AcDbEntity
  8
0-0
  6
JWW_DASHED1
 62
   120
370
     5
100
AcDbLine
 10
697.2551905164307
 20
695.3075820469905
 30
0.0
 11
925.255190516445
 21
923.3075820470036
 31
0.0
  0
LINE
  5
BB
330
1F
100
AcDbEntity
  8
0-0
  6
JWW_DASHED1
 62
   120
370
     5
100
AcDbLine
 10
697.255190516441
 20
681.1654464232662
 30
0.0
 11
925.2551905164553
 21
909.1654464232805
 31
0.0
  0
LINE
  5
BC
330
1F
100
AcDbEntity
  8
0-0
  6
JWW_DASHED1
 62
   120
370
     5
100
AcDbLine
 10
697.255190516441
 20
667.0233107995319
 30
0.0
 11
925.2551905164382
 21
895.0233107995284
 31
0.0
  0
LINE
  5
BD
330
1F
100
AcDbEntity
  8
0-0
  6
JWW_DASHED1
 62
   120
370
     5
100
AcDbLine
 10
697.2551905164341
 20
652.8811751757944
 30
0.0
 11
925.2551905164485
 21
880.881175175807
 31
0.0
  0
LINE
  5
BE
330
1F
100
AcDbEntity
  8
0-0
  6
JWW_DASHED1
 62
   120
370
     5
100
AcDbLine
 10
697.2551905164307
 20
638.7390395520572
 30
0.0
 11
925.255190516428
 21
866.739039552054
 31
0.0
  0
LINE
  5
BF
330
1F
100
AcDbEntity
  8
0-0
  6
JWW_DASHED1
 62
   120
370
     5
100
AcDbLine
 10
697.255190516441
 20
624.5969039283353
 30
0.0
 11
925.2551905164382
 21
852.5969039283326
 31
0.0
  0
LINE
  5
C0
330
1F
100
AcDbEntity
  8
0-0
  6
JWW_DASHED1
 62
   120
370
     5
100
AcDbLine
 10
697.2551905164341
 20
610.4547683045952
 30
0.0
 11
925.2551905164519
 21
838.4547683046095
 31
0.0
  0
LINE
  5
C1
330
1F
100
AcDbEntity
  8
0-0
  6
JWW_DASHED1
 62
   120
370
     5
100
AcDbLine
 10
697.2551905164341
 20
596.312632680861
 30
0.0
 11
925.2551905164314
 21
824.3126326808574
 31
0.0
  0
LINE
  5
C2
330
1F
100
AcDbEntity
  8
0-0
  6
JWW_DASHED1
 62
   120
370
     5
100
AcDbLine
 10
697.2551905164307
 20
582.1704970571234
 30
0.0
 11
925.255190516445
 21
810.170497057136
 31
0.0
  0
LINE
  5
C3
330
1F
100
AcDbEntity
  8
0-0
  6
JWW_DASHED1
 62
   120
370
     5
100
AcDbLine
 10
697.255190516441
 20
568.0283614333986
 30
0.0
 11
925.2551905164519
 21
796.0283614334129
 31
0.0
  0
LINE
  5
C4
330
1F
100
AcDbEntity
  8
0-0
  6
JWW_DASHED1
 62
   120
370
     5
100
AcDbLine
 10
697.255190516441
 20
553.8862258096652
 30
0.0
 11
925.2551905164348
 21
781.8862258096613
 31
0.0
  0
LINE
  5
C5
330
1F
100
AcDbEntity
  8
0-0
  6
JWW_DASHED1
 62
   120
370
     5
100
AcDbLine
 10
697.2551905164341
 20
539.7440901859277
 30
0.0
 11
925.2551905164485
 21
767.7440901859403
 31
0.0
  0
LINE
  5
C6
330
1F
100
AcDbEntity
  8
0-0
  6
JWW_DASHED1
 62
   120
370
     5
100
AcDbLine
 10
697.2551905164307
 20
525.60195456219
 30
0.0
 11
925.255190516428
 21
753.6019545621873
 31
0.0
  0
LINE
  5
C7
330
1F
100
AcDbEntity
  8
0-0
  6
JWW_DASHED1
 62
   120
370
     5
100
AcDbLine
 10
697.255190516441
 20
511.4598189384686
 30
0.0
 11
925.2551905164382
 21
739.4598189384651
 31
0.0
  0
LINE
  5
C8
330
1F
100
AcDbEntity
  8
0-0
  6
JWW_DASHED1
 62
   120
370
     5
100
AcDbLine
 10
697.2551905164341
 20
497.3176833147268
 30
0.0
 11
925.2551905164485
 21
725.3176833147411
 31
0.0
  0
LINE
  5
C9
330
1F
100
AcDbEntity
  8
0-0
  6
JWW_DASHED1
 62
   120
370
     5
100
AcDbLine
 10
697.2551905164341
 20
483.1755476909943
 30
0.0
 11
925.2551905164314
 21
711.1755476909907
 31
0.0
  0
LINE
  5
CA
330
1F
100
AcDbEntity
  8
0-0
  6
JWW_DASHED1
 62
   120
370
     5
100
AcDbLine
 10
697.2551905164307
 20
469.0334120672567
 30
0.0
 11
925.255190516445
 21
697.0334120672693
 31
0.0
  0
LINE
  5
CB
330
1F
100
AcDbEntity
  8
0-0
  6
JWW_DASHED1
 62
   120
370
     5
100
AcDbLine
 10
697.2551905164273
 20
454.8912764435489
 30
0.0
 11
925.2551905164416
 21
682.8912764435615
 31
0.0
  0
LINE
  5
CC
330
1F
100
AcDbEntity
  8
0-0
  6
JWW_DASHED1
 62
   120
370
     5
100
AcDbLine
 10
697.2551905164444
 20
440.7491408198565
 30
0.0
 11
925.2551905164382
 21
668.7491408198538
 31
0.0
  0
LINE
  5
CD
330
1F
100
AcDbEntity
  8
0-0
  6
JWW_DASHED1
 62
   120
370
     5
100
AcDbLine
 10
697.2551905164341
 20
426.6070051961146
 30
0.0
 11
925.2551905164485
 21
654.607005196129
 31
0.0
  0
LINE
  5
CE
330
1F
100
AcDbEntity
  8
0-0
  6
JWW_DASHED1
 62
   120
370
     5
100
AcDbLine
 10
697.2551905164341
 20
412.4648695723822
 30
0.0
 11
925.2551905164314
 21
640.4648695723786
 31
0.0
  0
LINE
  5
CF
330
1F
100
AcDbEntity
  8
0-0
  6
JWW_DASHED1
 62
   120
370
     5
100
AcDbLine
 10
697.2551905164307
 20
398.3227339486446
 30
0.0
 11
925.255190516445
 21
626.3227339486572
 31
0.0
  0
LINE
  5
D0
330
1F
100
AcDbEntity
  8
0-0
  6
JWW_DASHED1
 62
   120
370
     5
100
AcDbLine
 10
697.2551905164376
 20
384.180598324918
 30
0.0
 11
925.2551905164519
 21
612.1805983249324
 31
0.0
  0
LINE
  5
D1
330
1F
100
AcDbEntity
  8
0-0
  6
JWW_DASHED1
 62
   120
370
     5
100
AcDbLine
 10
697.2551905164376
 20
370.0384627011856
 30
0.0
 11
925.2551905164348
 21
598.0384627011824
 31
0.0
  0
LINE
  5
D2
330
1F
100
AcDbEntity
  8
0-0
  6
JWW_DASHED1
 62
   120
370
     5
100
AcDbLine
 10
697.2551905164341
 20
355.8963270774489
 30
0.0
 11
925.2551905164485
 21
583.8963270774615
 31
0.0
  0
LINE
  5
D3
330
1F
100
AcDbEntity
  8
0-0
  6
JWW_DASHED1
 62
   120
370
     5
100
AcDbLine
 10
697.2551905164307
 20
341.7541914537112
 30
0.0
 11
925.255190516428
 21
569.7541914537077
 31
0.0
  0
LINE
  5
D4
330
1F
100
AcDbEntity
  8
0-0
  6
JWW_DASHED1
 62
   120
370
     5
100
AcDbLine
 10
697.255190516441
 20
327.6120558299898
 30
0.0
 11
925.2551905164382
 21
555.6120558299863
 31
0.0
  0
LINE
  5
D5
330
1F
100
AcDbEntity
  8
0-0
  6
JWW_DASHED1
 62
   120
370
     5
100
AcDbLine
 10
697.2551905164341
 20
313.4699202062462
 30
0.0
 11
925.2551905164485
 21
541.4699202062606
 31
0.0
  0
LINE
  5
D6
330
1F
100
AcDbEntity
  8
0-0
  6
JWW_DASHED1
 62
   120
370
     5
100
AcDbLine
 10
697.2551905164341
 20
299.3277845825155
 30
0.0
 11
925.2551905164314
 21
527.3277845825119
 31
0.0
  0
LINE
  5
D7
330
1F
100
AcDbEntity
  8
0-0
  6
JWW_DASHED1
 62
   120
370
     5
100
AcDbLine
 10
697.2551905164478
 20
285.1856489587932
 30
0.0
 11
925.255190516445
 21
513.1856489587905
 31
0.0
  0
LINE
  5
D8
330
1F
100
AcDbEntity
  8
0-0
  6
JWW_DASHED1
 62
   120
370
     5
100
AcDbLine
 10
697.2551905164341
 20
271.0435133350496
 30
0.0
 11
925.2551905164519
 21
499.0435133350639
 31
0.0
  0
LINE
  5
D9
330
1F
100
AcDbEntity
  8
0-0
  6
JWW_DASHED1
 62
   120
370
     5
100
AcDbLine
 10
697.2551905164376
 20
256.9013777113189
 30
0.0
 11
925.2551905164348
 21
484.9013777113153
 31
0.0
  0
LINE
  5
DA
330
1F
100
AcDbEntity
  8
0-0
  6
JWW_DASHED1
 62
   120
370
     5
100
AcDbLine
 10
697.2551905164341
 20
242.7592420875813
 30
0.0
 11
925.255190516445
 21
470.7592420875939
 31
0.0
  0
LINE
  5
DB
330
1F
100
AcDbEntity
  8
0-0
  6
JWW_DASHED1
 62
   120
370
     5
100
AcDbLine
 10
697.255190516441
 20
228.6171064638539
 30
0.0
 11
925.2551905164382
 21
456.617106463852
 31
0.0
  0
LINE
  5
DC
330
1F
100
AcDbEntity
  8
0-0
  6
JWW_DASHED1
 62
   120
370
     5
100
AcDbLine
 10
697.255190516441
 20
214.4749708401223
 30
0.0
 11
925.2551905164382
 21
442.4749708401196
 31
0.0
  0
LINE
  5
DD
330
1F
100
AcDbEntity
  8
0-0
  6
JWW_DASHED1
 62
   120
370
     5
100
AcDbLine
 10
697.2551905164376
 20
200.3328352163855
 30
0.0
 11
925.2551905164519
 21
428.3328352163982
 31
0.0
  0
LINE
  5
DE
330
1F
100
AcDbEntity
  8
0-0
  6
JWW_DASHED1
 62
   120
370
     5
100
AcDbLine
 10
697.2551905164341
 20
186.1906995926479
 30
0.0
 11
925.2551905164314
 21
414.1906995926444
 31
0.0
  0
LINE
  5
DF
330
1F
100
AcDbEntity
  8
0-0
  6
JWW_DASHED1
 62
   120
370
     5
100
AcDbLine
 10
697.2551905164478
 20
172.0485639689265
 30
0.0
 11
925.2551905164416
 21
400.048563968923
 31
0.0
  0
LINE
  5
E0
330
1F
100
AcDbEntity
  8
0-0
  6
JWW_DASHED1
 62
   120
370
     5
100
AcDbLine
 10
697.2551905164341
 20
157.9064283451821
 30
0.0
 11
925.2551905164485
 21
385.9064283451964
 31
0.0
  0
LINE
  5
E1
330
1F
100
AcDbEntity
  8
0-0
  6
JWW_DASHED1
 62
   120
370
     5
100
AcDbLine
 10
697.2551905164376
 20
143.7642927214522
 30
0.0
 11
925.2551905164348
 21
371.7642927214486
 31
0.0
  0
LINE
  5
E2
330
1F
100
AcDbEntity
  8
0-0
  6
JWW_DASHED1
 62
   120
370
     5
100
AcDbLine
 10
697.2551905164341
 20
129.6221570977146
 30
0.0
 11
925.255190516445
 21
357.6221570977272
 31
0.0
  0
LINE
  5
E3
330
1F
100
AcDbEntity
  8
0-0
  6
JWW_DASHED1
 62
   120
370
     5
100
AcDbLine
 10
697.2551905164376
 20
115.4800214739855
 30
0.0
 11
925.2551905164519
 21
343.4800214739998
 31
0.0
  0
LINE
  5
E4
330
1F
100
AcDbEntity
  8
0-0
  6
JWW_DASHED1
 62
   120
370
     5
100
AcDbLine
 10
697.255190516441
 20
101.3378858502556
 30
0.0
 11
925.2551905164382
 21
329.337885850252
 31
0.0
  0
LINE
  5
E5
330
1F
100
AcDbEntity
  8
0-0
  6
JWW_DASHED1
 62
   120
370
     5
100
AcDbLine
 10
697.2551905164376
 20
87.19575022651796
 30
0.0
 11
925.2551905164519
 21
315.1957502265305
 31
0.0
  0
LINE
  5
E6
330
1F
100
AcDbEntity
  8
0-0
  6
JWW_DASHED1
 62
   120
370
     5
100
AcDbLine
 10
697.2551905164341
 20
73.05361460278121
 30
0.0
 11
925.2551905164314
 21
301.0536146027777
 31
0.0
  0
LINE
  5
E7
330
1F
100
AcDbEntity
  8
0-0
  6
JWW_DASHED1
 62
   120
370
     5
100
AcDbLine
 10
697.2551905164341
 20
58.91147897910244
 30
0.0
 11
925.255190516445
 21
286.911478979115
 31
0.0
  0
LINE
  5
E8
330
1F
100
AcDbEntity
  8
0-0
  6
JWW_DASHED1
 62
   120
370
     5
100
AcDbLine
 10
697.2551905164376
 20
44.76934335537337
 30
0.0
 11
925.2551905164519
 21
272.7693433553877
 31
0.0
  0
LINE
  5
E9
330
1F
100
AcDbEntity
  8
0-0
  6
JWW_DASHED1
 62
   120
370
     5
100
AcDbLine
 10
697.255190516441
 20
30.62720773164344
 30
0.0
 11
925.2551905164382
 21
258.6272077316407
 31
0.0
  0
LINE
  5
EA
330
1F
100
AcDbEntity
  8
0-0
  6
JWW_DASHED1
 62
   120
370
     5
100
AcDbLine
 10
697.2551905164376
 20
16.48507210790669
 30
0.0
 11
925.2551905164519
 21
244.4850721079185
 31
0.0
  0
LINE
  5
EB
330
1F
100
AcDbEntity
  8
0-0
  6
JWW_DASHED1
 62
   120
370
     5
100
AcDbLine
 10
697.2551905164341
 20
2.342936484169087
 30
0.0
 11
925.2551905164314
 21
230.3429364841655
 31
0.0
  0
LINE
  5
EC
330
1F
100
AcDbEntity
  8
0-0
  6
JWW_DASHED1
 62
   120
370
     5
100
AcDbLine
 10
697.2551905164478
 20
-11.79919913955231
 30
0.0
 11
925.2551905164416
 21
216.2008008604441
 31
0.0
  0
LINE
  5
ED
330
1F
100
AcDbEntity
  8
0-0
  6
JWW_DASHED1
 62
   120
370
     5
100
AcDbLine
 10
697.2551905164341
 20
-25.94133476329844
 30
0.0
 11
925.2551905164485
 21
202.0586652367159
 31
0.0
  0
LINE
  5
EE
330
1F
100
AcDbEntity
  8
0-0
  6
JWW_DASHED1
 62
   120
370
     5
100
AcDbLine
 10
697.2551905164376
 20
-40.08347038702752
 30
0.0
 11
925.2551905164348
 21
187.9165296129698
 31
0.0
  0
LINE
  5
EF
330
1F
100
AcDbEntity
  8
0-0
  6
JWW_DASHED1
 62
   120
370
     5
100
AcDbLine
 10
697.2551905164341
 20
-54.22560601076427
 30
0.0
 11
925.255190516445
 21
173.7743939892484
 31
0.0
  0
LINE
  5
F0
330
1F
100
AcDbEntity
  8
0-0
  6
JWW_DASHED1
 62
   120
370
     5
100
AcDbLine
 10
697.2551905164376
 20
-68.36774163449505
 30
0.0
 11
925.2551905164519
 21
159.6322583655193
 31
0.0
  0
LINE
  5
F1
330
1F
100
AcDbEntity
  8
0-0
  6
JWW_DASHED1
 62
   120
370
     5
100
AcDbLine
 10
697.255190516441
 20
-82.50987725822327
 30
0.0
 11
925.2551905164382
 21
145.4901227417731
 31
0.0
  0
LINE
  5
F2
330
1F
100
AcDbEntity
  8
0-0
  6
JWW_DASHED1
 62
   120
370
     5
100
AcDbLine
 10
697.2551905164376
 20
-96.65201288196087
 30
0.0
 11
925.2551905164519
 21
131.3479871180517
 31
0.0
  0
LINE
  5
F3
330
1F
100
AcDbEntity
  8
0-0
  6
JWW_DASHED1
 62
   120
370
     5
100
AcDbLine
 10
697.2551905164341
 20
-110.7941485056976
 30
0.0
 11
925.2551905164314
 21
117.2058514942988
 31
0.0
  0
LINE
  5
F4
330
1F
100
AcDbEntity
  8
0-0
  6
JWW_DASHED1
 62
   120
370
     5
100
AcDbLine
 10
697.2551905164444
 20
-124.9362841294199
 30
0.0
 11
925.2551905164416
 21
103.0637158705774
 31
0.0
  0
LINE
  5
F5
330
1F
100
AcDbEntity
  8
0-0
  6
JWW_DASHED1
 62
   120
370
     5
100
AcDbLine
 10
697.2551905164307
 20
-139.078419753166
 30
0.0
 11
925.255190516445
 21
88.92158024684832
 31
0.0
  0
LINE
  5
F6
330
1F
100
AcDbEntity
  8
0-0
  6
JWW_DASHED1
 62
   120
370
     5
100
AcDbLine
 10
697.2551905164376
 20
-153.2205553768942
 30
0.0
 11
925.2551905164348
 21
74.77944462310305
 31
0.0
  0
LINE
  5
F7
330
1F
100
AcDbEntity
  8
0-0
  6
JWW_DASHED1
 62
   120
370
     5
100
AcDbLine
 10
697.2551905164478
 20
-167.3626910006156
 30
0.0
 11
925.255190516445
 21
60.63730899938079
 31
0.0
  0
LINE
  5
F8
330
1F
100
AcDbEntity
  8
0-0
  6
JWW_DASHED1
 62
   120
370
     5
100
AcDbLine
 10
697.2551905164341
 20
-181.5048266243626
 30
0.0
 11
925.2551905164519
 21
46.49517337565172
 31
0.0
  0
LINE
  5
F9
330
1F
100
AcDbEntity
  8
0-0
  6
JWW_DASHED1
 62
   120
370
     5
100
AcDbLine
 10
697.255190516441
 20
-195.64696224809
 30
0.0
 11
925.2551905164382
 21
32.35303775190644
 31
0.0
  0
LINE
  5
FA
330
1F
100
AcDbEntity
  8
0-0
  6
JWW_DASHED1
 62
   120
370
     5
100
AcDbLine
 10
697.2551905164376
 20
-209.7890978718276
 30
0.0
 11
925.2551905164519
 21
18.21090212818504
 31
0.0
  0
LINE
  5
FB
330
1F
100
AcDbEntity
  8
0-0
  6
JWW_DASHED1
 62
   120
370
     5
100
AcDbLine
 10
697.255190516441
 20
-223.9312334955592
 30
0.0
 11
925.2551905164382
 21
4.068766504438912
 31
0.0
  0
LINE
  5
FC
330
1F
100
AcDbEntity
  8
0-0
  6
JWW_DASHED1
 62
   120
370
     5
100
AcDbLine
 10
697.2551905164444
 20
-238.0733691192866
 30
0.0
 11
925.2551905164416
 21
-10.07336911929016
 31
0.0
  0
LINE
  5
FD
330
1F
100
AcDbEntity
  8
0-0
  6
JWW_DASHED1
 62
   120
370
     5
100
AcDbLine
 10
697.255190516441
 20
-252.2155047430233
 30
0.0
 11
925.2551905164519
 21
-24.21550474301156
 31
0.0
  0
LINE
  5
FE
330
1F
100
AcDbEntity
  8
0-0
  6
JWW_DASHED1
 62
   120
370
     5
100
AcDbLine
 10
697.2551905164376
 20
-266.357640366761
 30
0.0
 11
925.2551905164348
 21
-38.35764036676451
 31
0.0
  0
LINE
  5
FF
330
1F
100
AcDbEntity
  8
0-0
  6
JWW_DASHED1
 62
   120
370
     5
100
AcDbLine
 10
697.2551905164478
 20
-280.4997759904832
 30
0.0
 11
925.255190516445
 21
-52.49977599048592
 31
0.0
  0
LINE
  5
100
330
1F
100
AcDbEntity
  8
0-0
  6
JWW_DASHED1
 62
   120
370
     5
100
AcDbLine
 10
697.2551905164341
 20
-294.6419116142301
 30
0.0
 11
925.2551905164485
 21
-66.6419116142167
 31
0.0
  0
LINE
  5
101
330
1F
100
AcDbEntity
  8
0-0
  6
JWW_DASHED1
 62
   120
370
     5
100
AcDbLine
 10
697.255190516441
 20
-308.7840472379576
 30
0.0
 11
925.2551905164382
 21
-80.78404723796027
 31
0.0
  0
LINE
  5
102
330
1F
100
AcDbEntity
  8
0-0
  6
JWW_DASHED1
 62
   120
370
     5
100
AcDbLine
 10
697.255190516441
 20
-322.9261828616653
 30
0.0
 11
925.2551905164519
 21
-94.92618286165268
 31
0.0
  0
LINE
  5
103
330
1F
100
AcDbEntity
  8
0-0
  6
JWW_DASHED1
 62
   120
370
     5
100
AcDbLine
 10
697.2551905164376
 20
-337.0683184853731
 30
0.0
 11
925.2551905164348
 21
-109.0683184853766
 31
0.0
  0
LINE
  5
104
330
1F
100
AcDbEntity
  8
0-0
  6
JWW_DASHED1
 62
   120
370
     5
100
AcDbLine
 10
697.2551905164478
 20
-351.2104541090945
 30
0.0
 11
925.255190516445
 21
-123.210454109098
 31
0.0
  0
LINE
  5
105
330
1F
100
AcDbEntity
  8
0-0
  6
JWW_DASHED1
 62
   120
370
     5
100
AcDbLine
 10
697.2551905164341
 20
-365.3525897328432
 30
0.0
 11
925.2551905164485
 21
-137.3525897328288
 31
0.0
  0
LINE
  5
106
330
1F
100
AcDbEntity
  8
0-0
  6
JWW_DASHED1
 62
   120
370
     5
100
AcDbLine
 10
697.255190516441
 20
-379.4947253565697
 30
0.0
 11
925.2551905164382
 21
-151.4947253565724
 31
0.0
  0
LINE
  5
107
330
1F
100
AcDbEntity
  8
0-0
  6
JWW_DASHED1
 62
   120
370
     5
100
AcDbLine
 10
697.2551905164376
 20
-393.6368609803064
 30
0.0
 11
925.2551905164485
 21
-165.6368609802946
 31
0.0
  0
LINE
  5
108
330
1F
100
AcDbEntity
  8
0-0
  6
JWW_DASHED1
 62
   120
370
     5
100
AcDbLine
 10
697.2551905164376
 20
-407.7789966040398
 30
0.0
 11
925.2551905164519
 21
-179.7789966040254
 31
0.0
  0
LINE
  5
109
330
1F
100
AcDbEntity
  8
0-0
  6
JWW_DASHED1
 62
   120
370
     5
100
AcDbLine
 10
697.2551905164444
 20
-421.9211322277654
 30
0.0
 11
925.2551905164416
 21
-193.921132227769
 31
0.0
  0
LINE
  5
10A
330
1F
100
AcDbEntity
  8
0-0
  6
JWW_DASHED1
 62
   120
370
     5
100
AcDbLine
 10
697.255190516441
 20
-436.063267851503
 30
0.0
 11
925.2551905164519
 21
-208.0632678514904
 31
0.0
  0
LINE
  5
10B
330
1F
100
AcDbEntity
  8
0-0
  6
JWW_DASHED1
 62
   120
370
     5
100
AcDbLine
 10
697.2551905164376
 20
-450.2054034752406
 30
0.0
 11
925.2551905164348
 21
-222.2054034752433
 31
0.0
  0
LINE
  5
10C
330
1F
100
AcDbEntity
  8
0-0
  6
JWW_DASHED1
 62
   120
370
     5
100
AcDbLine
 10
697.2551905164478
 20
-464.3475390989614
 30
0.0
 11
925.255190516445
 21
-236.3475390989647
 31
0.0
  0
LINE
  5
10D
330
1F
100
AcDbEntity
  8
0-0
  6
JWW_DASHED1
 62
   120
370
     5
100
AcDbLine
 10
697.2551905164341
 20
-478.4896747227111
 30
0.0
 11
925.2551905164485
 21
-250.4896747226964
 31
0.0
  0
LINE
  5
10E
330
1F
100
AcDbEntity
  8
0-0
  6
JWW_DASHED1
 62
   120
370
     5
100
AcDbLine
 10
697.255190516441
 20
-492.6318103464364
 30
0.0
 11
925.2551905164382
 21
-264.6318103464399
 31
0.0
  0
LINE
  5
10F
330
1F
100
AcDbEntity
  8
0-0
  6
JWW_DASHED1
 62
   120
370
     5
100
AcDbLine
 10
697.2551905164376
 20
-506.7739459701738
 30
0.0
 11
925.2551905164485
 21
-278.7739459701613
 31
0.0
  0
LINE
  5
110
330
1F
100
AcDbEntity
  8
0-0
  6
JWW_DASHED1
 62
   120
370
     5
100
AcDbLine
 10
697.2551905164376
 20
-520.9160815939077
 30
0.0
 11
925.2551905164519
 21
-292.9160815938939
 31
0.0
  0
LINE
  5
111
330
1F
100
AcDbEntity
  8
0-0
  6
JWW_DASHED1
 62
   120
370
     5
100
AcDbLine
 10
697.2551905164444
 20
-535.0582172176323
 30
0.0
 11
925.2551905164416
 21
-307.0582172176357
 31
0.0
  0
LINE
  5
112
330
1F
100
AcDbEntity
  8
0-0
  6
JWW_DASHED1
 62
   120
370
     5
100
AcDbLine
 10
697.255190516441
 20
-549.20035284137
 30
0.0
 11
925.2551905164519
 21
-321.2003528413571
 31
0.0
  0
LINE
  5
113
330
1F
100
AcDbEntity
  8
0-0
  6
JWW_DASHED1
 62
   120
370
     5
100
AcDbLine
 10
697.2551905164376
 20
-563.3424884651073
 30
0.0
 11
925.2551905164348
 21
-335.34248846511
 31
0.0
  0
LINE
  5
114
330
1F
100
AcDbEntity
  8
0-0
  6
JWW_DASHED1
 62
   120
370
     5
100
AcDbLine
 10
697.2551905164478
 20
-577.4846240888289
 30
0.0
 11
925.255190516445
 21
-349.4846240888323
 31
0.0
  0
LINE
  5
115
330
1F
100
AcDbEntity
  8
0-0
  6
JWW_DASHED1
 62
   120
370
     5
100
AcDbLine
 10
697.2551905164307
 20
-591.6267597125793
 30
0.0
 11
925.255190516445
 21
-363.6267597125648
 31
0.0
  0
LINE
  5
116
330
1F
100
AcDbEntity
  8
0-0
  6
JWW_DASHED1
 62
   120
370
     5
100
AcDbLine
 10
697.255190516441
 20
-605.7688953363036
 30
0.0
 11
925.2551905164382
 21
-377.7688953363066
 31
0.0
  0
LINE
  5
117
330
1F
100
AcDbEntity
  8
0-0
  6
JWW_DASHED1
 62
   120
370
     5
100
AcDbLine
 10
697.2551905164376
 20
-619.9110309600409
 30
0.0
 11
925.2551905164485
 21
-391.911030960028
 31
0.0
  0
LINE
  5
118
330
1F
100
AcDbEntity
  8
0-0
  6
JWW_DASHED1
 62
   120
370
     5
100
AcDbLine
 10
697.2551905164341
 20
-634.0531665837757
 30
0.0
 11
925.2551905164485
 21
-406.0531665837614
 31
0.0
  0
LINE
  5
119
330
1F
100
AcDbEntity
  8
0-0
  6
JWW_DASHED1
 62
   120
370
     5
100
AcDbLine
 10
697.2551905164444
 20
-648.1953022074997
 30
0.0
 11
925.2551905164416
 21
-420.1953022075024
 31
0.0
  0
LINE
  5
11A
330
1F
100
AcDbEntity
  8
0-0
  6
JWW_DASHED1
 62
   120
370
     5
100
AcDbLine
 10
697.255190516441
 20
-662.337437831237
 30
0.0
 11
925.2551905164519
 21
-434.3374378312238
 31
0.0
  0
LINE
  5
11B
330
1F
100
AcDbEntity
  8
0-0
  6
JWW_DASHED1
 62
   120
370
     5
100
AcDbLine
 10
697.2551905164376
 20
-676.4795734549723
 30
0.0
 11
925.2551905164382
 21
-448.4795734549733
 31
0.0
  0
LINE
  5
11C
330
1F
100
AcDbEntity
  8
0-0
  6
JWW_DASHED1
 62
   120
370
     5
100
AcDbLine
 10
697.2551905164478
 20
-690.6217090786956
 30
0.0
 11
925.255190516445
 21
-462.6217090786992
 31
0.0
  0
LINE
  5
11D
330
1F
100
AcDbEntity
  8
0-0
  6
JWW_DASHED1
 62
   120
370
     5
100
AcDbLine
 10
697.2551905164444
 20
-704.7638447024331
 30
0.0
 11
925.2551905164587
 21
-476.7638447024206
 31
0.0
  0
LINE
  5
11E
330
1F
100
AcDbEntity
  8
0-0
  6
JWW_DASHED1
 62
   120
370
     5
100
AcDbLine
 10
697.2551905164444
 20
-718.9059803261118
 30
0.0
 11
925.2551905164416
 21
-490.905980326115
 31
0.0
  0
LINE
  5
11F
330
1F
100
AcDbEntity
  8
0-0
  6
JWW_DASHED1
 62
   120
370
     5
100
AcDbLine
 10
697.255190516441
 20
-733.048115949849
 30
0.0
 11
925.2551905164519
 21
-505.0481159498364
 31
0.0
  0
LINE
  5
120
330
1F
100
AcDbEntity
  8
0-0
  6
JWW_DASHED1
 62
   120
370
     5
100
AcDbLine
 10
697.2551905164376
 20
-747.1902515735849
 30
0.0
 11
925.2551905164382
 21
-519.1902515735864
 31
0.0
  0
LINE
  5
121
330
1F
100
AcDbEntity
  8
0-0
  6
JWW_DASHED1
 62
   120
370
     5
100
AcDbLine
 10
697.2551905164478
 20
-761.3323871973075
 30
0.0
 11
925.255190516445
 21
-533.3323871973112
 31
0.0
  0
LINE
  5
122
330
1F
100
AcDbEntity
  8
0-0
  6
JWW_DASHED1
 62
   120
370
     5
100
AcDbLine
 10
697.2551905164444
 20
-775.474522821045
 30
0.0
 11
925.2551905164587
 21
-547.4745228210326
 31
0.0
  0
LINE
  5
123
330
1F
100
AcDbEntity
  8
0-0
  6
JWW_DASHED1
 62
   120
370
     5
100
AcDbLine
 10
697.255190516441
 20
-789.6166584447824
 30
0.0
 11
925.2551905164382
 21
-561.6166584447857
 31
0.0
  0
LINE
  5
124
330
1F
100
AcDbEntity
  8
0-0
  6
JWW_DASHED1
 62
   120
370
     5
100
AcDbLine
 10
697.2551905164512
 20
-803.7587940685038
 30
0.0
 11
925.2551905164485
 21
-575.7587940685071
 31
0.0
  0
LINE
  5
125
330
1F
100
AcDbEntity
  8
0-0
  6
JWW_DASHED1
 62
   120
370
     5
100
AcDbLine
 10
697.2551905164341
 20
-817.9009296922562
 30
0.0
 11
925.2551905164485
 21
-589.9009296922417
 31
0.0
  0
LINE
  5
126
330
1F
100
AcDbEntity
  8
0-0
  6
JWW_DASHED1
 62
   120
370
     5
100
AcDbLine
 10
697.2551905164444
 20
-832.0430653159783
 30
0.0
 11
925.2551905164416
 21
-604.0430653159818
 31
0.0
  0
LINE
  5
127
330
1F
100
AcDbEntity
  8
0-0
  6
JWW_DASHED1
 62
   120
370
     5
100
AcDbLine
 10
697.255190516441
 20
-846.1852009397161
 30
0.0
 11
925.2551905164519
 21
-618.1852009397032
 31
0.0
  0
LINE
  5
128
330
1F
100
AcDbEntity
  8
0-0
  6
JWW_DASHED1
 62
   120
370
     5
100
AcDbLine
 10
697.2551905164376
 20
-860.3273365634525
 30
0.0
 11
925.2551905164519
 21
-632.3273365634383
 31
0.0
  0
LINE
  5
129
330
1F
100
AcDbEntity
  8
0-0
  6
JWW_DASHED1
 62
   120
370
     5
100
AcDbLine
 10
697.2551905164478
 20
-874.4694721871747
 30
0.0
 11
925.255190516445
 21
-646.4694721871781
 31
0.0
  0
LINE
  5
12A
330
1F
100
AcDbEntity
  8
0-0
  6
JWW_DASHED1
 62
   120
370
     5
100
AcDbLine
 10
697.2551905164444
 20
-888.6116078109123
 30
0.0
 11
925.2551905164553
 21
-660.6116078108996
 31
0.0
  0
LINE
  5
12B
330
1F
100
AcDbEntity
  8
0-0
  6
JWW_DASHED1
 62
   120
370
     5
100
AcDbLine
 10
697.255190516441
 20
-902.7537434346494
 30
0.0
 11
925.2551905164382
 21
-674.7537434346528
 31
0.0
  0
LINE
  5
12C
330
1F
100
AcDbEntity
  8
0-0
  6
JWW_DASHED1
 62
   120
370
     5
100
AcDbLine
 10
697.2551905164512
 20
-916.8958790583708
 30
0.0
 11
925.2551905164485
 21
-688.8958790583745
 31
0.0
  0
LINE
  5
12D
330
1F
100
AcDbEntity
  8
0-0
  6
JWW_DASHED1
 62
   120
370
     5
100
AcDbLine
 10
697.2551905164341
 20
-931.0380146821241
 30
0.0
 11
925.255190516445
 21
-703.0380146821097
 31
0.0
  0
LINE
  5
12E
330
1F
100
AcDbEntity
  8
0-0
  6
JWW_DASHED1
 62
   120
370
     5
100
AcDbLine
 10
707.5952604222011
 20
-934.8400804000897
 30
0.0
 11
925.2551905164416
 21
-717.1801503058488
 31
0.0
  0
LINE
  5
12F
330
1F
100
AcDbEntity
  8
0-0
  6
JWW_DASHED1
 62
   120
370
     5
100
AcDbLine
 10
721.7373960459345
 20
-934.8400804000871
 30
0.0
 11
925.2551905164519
 21
-731.3222859295704
 31
0.0
  0
LINE
  5
130
330
1F
100
AcDbEntity
  8
0-0
  6
JWW_DASHED1
 62
   120
370
     5
100
AcDbLine
 10
735.8795316696712
 20
-934.8400804000838
 30
0.0
 11
925.2551905164519
 21
-745.4644215533064
 31
0.0
  0
LINE
  5
131
330
1F
100
AcDbEntity
  8
0-0
  6
JWW_DASHED1
 62
   120
370
     5
100
AcDbLine
 10
750.0216672933977
 20
-934.8400804000927
 30
0.0
 11
925.255190516445
 21
-759.6065571770451
 31
0.0
  0
LINE
  5
132
330
1F
100
AcDbEntity
  8
0-0
  6
JWW_DASHED1
 62
   120
370
     5
100
AcDbLine
 10
764.1638029171277
 20
-934.8400804000938
 30
0.0
 11
925.2551905164553
 21
-773.7486928007664
 31
0.0
  0
LINE
  5
133
330
1F
100
AcDbEntity
  8
0-0
  6
JWW_DASHED1
 62
   120
370
     5
100
AcDbLine
 10
778.3059385408712
 20
-934.8400804000848
 30
0.0
 11
925.2551905164382
 21
-787.8908284245198
 31
0.0
  0
LINE
  5
134
330
1F
100
AcDbEntity
  8
0-0
  6
JWW_DASHED1
 62
   120
370
     5
100
AcDbLine
 10
792.4480741645943
 20
-934.8400804000963
 30
0.0
 11
925.2551905164485
 21
-802.0329640482414
 31
0.0
  0
LINE
  5
135
330
1F
100
AcDbEntity
  8
0-0
  6
JWW_DASHED1
 62
   120
370
     5
100
AcDbLine
 10
806.5902097883379
 20
-934.8400804000838
 30
0.0
 11
925.255190516445
 21
-816.1750996719777
 31
0.0
  0
LINE
  5
136
330
1F
100
AcDbEntity
  8
0-0
  6
JWW_DASHED1
 62
   120
370
     5
100
AcDbLine
 10
820.7323454120678
 20
-934.8400804000878
 30
0.0
 11
925.2551905164416
 21
-830.3172352957159
 31
0.0
  0
LINE
  5
137
330
1F
100
AcDbEntity
  8
0-0
  6
JWW_DASHED1
 62
   120
370
     5
100
AcDbLine
 10
834.8744810357944
 20
-934.8400804000934
 30
0.0
 11
925.2551905164519
 21
-844.4593709194376
 31
0.0
  0
LINE
  5
138
330
1F
100
AcDbEntity
  8
0-0
  6
JWW_DASHED1
 62
   120
370
     5
100
AcDbLine
 10
849.0166166595345
 20
-934.8400804000902
 30
0.0
 11
925.2551905164485
 21
-858.6015065431741
 31
0.0
  0
LINE
  5
139
330
1F
100
AcDbEntity
  8
0-0
  6
JWW_DASHED1
 62
   120
370
     5
100
AcDbLine
 10
863.1587522832338
 20
-934.8400804000934
 30
0.0
 11
925.255190516445
 21
-872.7436421668828
 31
0.0
  0
LINE
  5
13A
330
1F
100
AcDbEntity
  8
0-0
  6
JWW_DASHED1
 62
   120
370
     5
100
AcDbLine
 10
877.3008879069466
 20
-934.8400804000883
 30
0.0
 11
925.255190516445
 21
-886.8857777905903
 31
0.0
  0
LINE
  5
13B
330
1F
100
AcDbEntity
  8
0-0
  6
JWW_DASHED1
 62
   120
370
     5
100
AcDbLine
 10
891.44302353068
 20
-934.8400804000872
 30
0.0
 11
925.2551905164416
 21
-901.0279134143278
 31
0.0
  0
LINE
  5
13C
330
1F
100
AcDbEntity
  8
0-0
  6
JWW_DASHED1
 62
   120
370
     5
100
AcDbLine
 10
905.5851591544031
 20
-934.8400804000975
 30
0.0
 11
925.2551905164519
 21
-915.1700490380495
 31
0.0
  0
LINE
  5
13D
330
1F
100
AcDbEntity
  8
0-0
  6
JWW_DASHED1
 62
   120
370
     5
100
AcDbLine
 10
919.7272947781398
 20
-934.840080400094
 30
0.0
 11
925.2551905164485
 21
-929.3121846617867
 31
0.0
  0
LINE
  5
13E
330
1F
100
AcDbEntity
  8
0-0
  6
Continuous
 62
     7
370
     9
100
AcDbLine
 10
697.255190516441
 20
-934.8400804000863
 30
0.0
 11
925.2551905164382
 21
-934.8400804000863
 31
0.0
  0
LINE
  5
13F
330
1F
100
AcDbEntity
  8
0-0
  6
JWW_DASHED1
 62
   120
370
     5
100
AcDbLine
 10
-82.74480948355901
 20
794.3025314131346
 30
0.0
 11
145.2551905164383
 21
1022.302531413133
 31
0.0
  0
LINE
  5
140
330
1F
100
AcDbEntity
  8
0-0
  6
JWW_DASHED1
 62
   120
370
     5
100
AcDbLine
 10
-82.74480948355901
 20
780.1603957893991
 30
0.0
 11
145.2551905164383
 21
1008.160395789396
 31
0.0
  0
LINE
  5
141
330
1F
100
AcDbEntity
  8
0-0
  6
JWW_DASHED1
 62
   120
370
     5
100
AcDbLine
 10
-82.74480948356583
 20
766.0182601656619
 30
0.0
 11
145.2551905164485
 21
994.0182601656745
 31
0.0
  0
LINE
  5
142
330
1F
100
AcDbEntity
  8
0-0
  6
JWW_DASHED1
 62
   120
370
     5
100
AcDbLine
 10
-82.74480948356924
 20
751.8761245419244
 30
0.0
 11
145.255190516428
 21
979.8761245419212
 31
0.0
  0
LINE
  5
143
330
1F
100
AcDbEntity
  8
0-0
  6
JWW_DASHED1
 62
   120
370
     5
100
AcDbLine
 10
-82.7448094835556
 20
737.733988918203
 30
0.0
 11
145.2551905164383
 21
965.7339889181998
 31
0.0
  0
LINE
  5
144
330
1F
100
AcDbEntity
  8
0-0
  6
JWW_DASHED1
 62
   120
370
     5
100
AcDbLine
 10
-82.74480948356242
 20
723.5918532944631
 30
0.0
 11
145.2551905164519
 21
951.5918532944771
 31
0.0
  0
LINE
  5
145
330
1F
100
AcDbEntity
  8
0-0
  6
JWW_DASHED1
 62
   120
370
     5
100
AcDbLine
 10
-82.74480948356583
 20
709.4497176707282
 30
0.0
 11
145.2551905164314
 21
937.449717670725
 31
0.0
  0
LINE
  5
146
330
1F
100
AcDbEntity
  8
0-0
  6
JWW_DASHED1
 62
   120
370
     5
100
AcDbLine
 10
-82.74480948356924
 20
695.307582046991
 30
0.0
 11
145.2551905164451
 21
923.3075820470036
 31
0.0
  0
LINE
  5
147
330
1F
100
AcDbEntity
  8
0-0
  6
JWW_DASHED1
 62
   120
370
     5
100
AcDbLine
 10
-82.74480948355901
 20
681.1654464232662
 30
0.0
 11
145.2551905164553
 21
909.1654464232809
 31
0.0
  0
LINE
  5
148
330
1F
100
AcDbEntity
  8
0-0
  6
JWW_DASHED1
 62
   120
370
     5
100
AcDbLine
 10
-82.74480948355901
 20
667.0233107995319
 30
0.0
 11
145.2551905164383
 21
895.0233107995289
 31
0.0
  0
LINE
  5
149
330
1F
100
AcDbEntity
  8
0-0
  6
JWW_DASHED1
 62
   120
370
     5
100
AcDbLine
 10
-82.74480948356583
 20
652.8811751757949
 30
0.0
 11
145.2551905164485
 21
880.8811751758074
 31
0.0
  0
LINE
  5
14A
330
1F
100
AcDbEntity
  8
0-0
  6
JWW_DASHED1
 62
   120
370
     5
100
AcDbLine
 10
-82.74480948356924
 20
638.7390395520576
 30
0.0
 11
145.255190516428
 21
866.739039552054
 31
0.0
  0
LINE
  5
14B
330
1F
100
AcDbEntity
  8
0-0
  6
JWW_DASHED1
 62
   120
370
     5
100
AcDbLine
 10
-82.74480948355901
 20
624.5969039283358
 30
0.0
 11
145.2551905164383
 21
852.5969039283326
 31
0.0
  0
LINE
  5
14C
330
1F
100
AcDbEntity
  8
0-0
  6
JWW_DASHED1
 62
   120
370
     5
100
AcDbLine
 10
-82.74480948356583
 20
610.4547683045952
 30
0.0
 11
145.2551905164519
 21
838.4547683046095
 31
0.0
  0
LINE
  5
14D
330
1F
100
AcDbEntity
  8
0-0
  6
JWW_DASHED1
 62
   120
370
     5
100
AcDbLine
 10
-82.74480948356583
 20
596.3126326808615
 30
0.0
 11
145.2551905164314
 21
824.3126326808574
 31
0.0
  0
LINE
  5
14E
330
1F
100
AcDbEntity
  8
0-0
  6
JWW_DASHED1
 62
   120
370
     5
100
AcDbLine
 10
-82.74480948356924
 20
582.1704970571238
 30
0.0
 11
145.2551905164451
 21
810.1704970571365
 31
0.0
  0
LINE
  5
14F
330
1F
100
AcDbEntity
  8
0-0
  6
JWW_DASHED1
 62
   120
370
     5
100
AcDbLine
 10
-82.74480948355901
 20
568.0283614333986
 30
0.0
 11
145.2551905164519
 21
796.0283614334129
 31
0.0
  0
LINE
  5
150
330
1F
100
AcDbEntity
  8
0-0
  6
JWW_DASHED1
 62
   120
370
     5
100
AcDbLine
 10
-82.74480948355901
 20
553.8862258096652
 30
0.0
 11
145.2551905164349
 21
781.8862258096617
 31
0.0
  0
LINE
  5
151
330
1F
100
AcDbEntity
  8
0-0
  6
JWW_DASHED1
 62
   120
370
     5
100
AcDbLine
 10
-82.74480948356583
 20
539.7440901859277
 30
0.0
 11
145.2551905164485
 21
767.7440901859403
 31
0.0
  0
LINE
  5
152
330
1F
100
AcDbEntity
  8
0-0
  6
JWW_DASHED1
 62
   120
370
     5
100
AcDbLine
 10
-82.74480948356924
 20
525.6019545621905
 30
0.0
 11
145.255190516428
 21
753.6019545621873
 31
0.0
  0
LINE
  5
153
330
1F
100
AcDbEntity
  8
0-0
  6
JWW_DASHED1
 62
   120
370
     5
100
AcDbLine
 10
-82.74480948355901
 20
511.4598189384686
 30
0.0
 11
145.2551905164383
 21
739.4598189384656
 31
0.0
  0
LINE
  5
154
330
1F
100
AcDbEntity
  8
0-0
  6
JWW_DASHED1
 62
   120
370
     5
100
AcDbLine
 10
-82.74480948356583
 20
497.3176833147268
 30
0.0
 11
145.2551905164485
 21
725.3176833147415
 31
0.0
  0
LINE
  5
155
330
1F
100
AcDbEntity
  8
0-0
  6
JWW_DASHED1
 62
   120
370
     5
100
AcDbLine
 10
-82.74480948356583
 20
483.1755476909943
 30
0.0
 11
145.2551905164314
 21
711.1755476909907
 31
0.0
  0
LINE
  5
156
330
1F
100
AcDbEntity
  8
0-0
  6
JWW_DASHED1
 62
   120
370
     5
100
AcDbLine
 10
-82.74480948356924
 20
469.0334120672567
 30
0.0
 11
145.2551905164451
 21
697.0334120672693
 31
0.0
  0
LINE
  5
157
330
1F
100
AcDbEntity
  8
0-0
  6
JWW_DASHED1
 62
   120
370
     5
100
AcDbLine
 10
-82.74480948357265
 20
454.8912764435489
 30
0.0
 11
145.2551905164417
 21
682.8912764435615
 31
0.0
  0
LINE
  5
158
330
1F
100
AcDbEntity
  8
0-0
  6
JWW_DASHED1
 62
   120
370
     5
100
AcDbLine
 10
-82.7448094835556
 20
440.749140819857
 30
0.0
 11
145.2551905164383
 21
668.7491408198538
 31
0.0
  0
LINE
  5
159
330
1F
100
AcDbEntity
  8
0-0
  6
JWW_DASHED1
 62
   120
370
     5
100
AcDbLine
 10
-82.74480948356583
 20
426.6070051961146
 30
0.0
 11
145.2551905164485
 21
654.607005196129
 31
0.0
  0
LINE
  5
15A
330
1F
100
AcDbEntity
  8
0-0
  6
JWW_DASHED1
 62
   120
370
     5
100
AcDbLine
 10
-82.74480948356583
 20
412.4648695723822
 30
0.0
 11
145.2551905164314
 21
640.4648695723786
 31
0.0
  0
LINE
  5
15B
330
1F
100
AcDbEntity
  8
0-0
  6
JWW_DASHED1
 62
   120
370
     5
100
AcDbLine
 10
-82.74480948356924
 20
398.322733948645
 30
0.0
 11
145.2551905164451
 21
626.3227339486576
 31
0.0
  0
LINE
  5
15C
330
1F
100
AcDbEntity
  8
0-0
  6
JWW_DASHED1
 62
   120
370
     5
100
AcDbLine
 10
-82.74480948356242
 20
384.180598324918
 30
0.0
 11
145.2551905164519
 21
612.1805983249324
 31
0.0
  0
LINE
  5
15D
330
1F
100
AcDbEntity
  8
0-0
  6
JWW_DASHED1
 62
   120
370
     5
100
AcDbLine
 10
-82.74480948356242
 20
370.038462701186
 30
0.0
 11
145.2551905164349
 21
598.0384627011829
 31
0.0
  0
LINE
  5
15E
330
1F
100
AcDbEntity
  8
0-0
  6
JWW_DASHED1
 62
   120
370
     5
100
AcDbLine
 10
-82.74480948356583
 20
355.8963270774489
 30
0.0
 11
145.2551905164485
 21
583.8963270774615
 31
0.0
  0
LINE
  5
15F
330
1F
100
AcDbEntity
  8
0-0
  6
JWW_DASHED1
 62
   120
370
     5
100
AcDbLine
 10
-82.74480948356924
 20
341.7541914537112
 30
0.0
 11
145.255190516428
 21
569.754191453708
 31
0.0
  0
LINE
  5
160
330
1F
100
AcDbEntity
  8
0-0
  6
JWW_DASHED1
 62
   120
370
     5
100
AcDbLine
 10
-82.74480948355901
 20
327.6120558299898
 30
0.0
 11
145.2551905164383
 21
555.6120558299867
 31
0.0
  0
LINE
  5
161
330
1F
100
AcDbEntity
  8
0-0
  6
JWW_DASHED1
 62
   120
370
     5
100
AcDbLine
 10
-82.74480948356583
 20
313.4699202062467
 30
0.0
 11
145.2551905164485
 21
541.469920206261
 31
0.0
  0
LINE
  5
162
330
1F
100
AcDbEntity
  8
0-0
  6
JWW_DASHED1
 62
   120
370
     5
100
AcDbLine
 10
-82.74480948356583
 20
299.3277845825155
 30
0.0
 11
145.2551905164314
 21
527.3277845825119
 31
0.0
  0
LINE
  5
163
330
1F
100
AcDbEntity
  8
0-0
  6
JWW_DASHED1
 62
   120
370
     5
100
AcDbLine
 10
-82.74480948355219
 20
285.1856489587936
 30
0.0
 11
145.2551905164451
 21
513.1856489587905
 31
0.0
  0
LINE
  5
164
330
1F
100
AcDbEntity
  8
0-0
  6
JWW_DASHED1
 62
   120
370
     5
100
AcDbLine
 10
-82.74480948356583
 20
271.0435133350501
 30
0.0
 11
145.2551905164519
 21
499.0435133350644
 31
0.0
  0
LINE
  5
165
330
1F
100
AcDbEntity
  8
0-0
  6
JWW_DASHED1
 62
   120
370
     5
100
AcDbLine
 10
-82.74480948356242
 20
256.9013777113189
 30
0.0
 11
145.2551905164349
 21
484.9013777113157
 31
0.0
  0
LINE
  5
166
330
1F
100
AcDbEntity
  8
0-0
  6
JWW_DASHED1
 62
   120
370
     5
100
AcDbLine
 10
-82.74480948356583
 20
242.7592420875813
 30
0.0
 11
145.2551905164451
 21
470.7592420875939
 31
0.0
  0
LINE
  5
167
330
1F
100
AcDbEntity
  8
0-0
  6
JWW_DASHED1
 62
   120
370
     5
100
AcDbLine
 10
-82.74480948355901
 20
228.6171064638539
 30
0.0
 11
145.2551905164383
 21
456.617106463852
 31
0.0
  0
LINE
  5
168
330
1F
100
AcDbEntity
  8
0-0
  6
JWW_DASHED1
 62
   120
370
     5
100
AcDbLine
 10
-82.74480948355901
 20
214.4749708401227
 30
0.0
 11
145.2551905164383
 21
442.4749708401196
 31
0.0
  0
LINE
  5
169
330
1F
100
AcDbEntity
  8
0-0
  6
JWW_DASHED1
 62
   120
370
     5
100
AcDbLine
 10
-82.74480948356242
 20
200.3328352163855
 30
0.0
 11
145.2551905164519
 21
428.3328352163982
 31
0.0
  0
LINE
  5
16A
330
1F
100
AcDbEntity
  8
0-0
  6
JWW_DASHED1
 62
   120
370
     5
100
AcDbLine
 10
-82.74480948356583
 20
186.1906995926479
 30
0.0
 11
145.2551905164314
 21
414.1906995926448
 31
0.0
  0
LINE
  5
16B
330
1F
100
AcDbEntity
  8
0-0
  6
JWW_DASHED1
 62
   120
370
     5
100
AcDbLine
 10
-82.74480948355219
 20
172.0485639689265
 30
0.0
 11
145.2551905164417
 21
400.0485639689234
 31
0.0
  0
LINE
  5
16C
330
1F
100
AcDbEntity
  8
0-0
  6
JWW_DASHED1
 62
   120
370
     5
100
AcDbLine
 10
-82.74480948356583
 20
157.9064283451821
 30
0.0
 11
145.2551905164485
 21
385.9064283451968
 31
0.0
  0
LINE
  5
16D
330
1F
100
AcDbEntity
  8
0-0
  6
JWW_DASHED1
 62
   120
370
     5
100
AcDbLine
 10
-82.74480948356242
 20
143.7642927214522
 30
0.0
 11
145.2551905164349
 21
371.7642927214486
 31
0.0
  0
LINE
  5
16E
330
1F
100
AcDbEntity
  8
0-0
  6
JWW_DASHED1
 62
   120
370
     5
100
AcDbLine
 10
-82.74480948356583
 20
129.6221570977146
 30
0.0
 11
145.2551905164451
 21
357.6221570977272
 31
0.0
  0
LINE
  5
16F
330
1F
100
AcDbEntity
  8
0-0
  6
JWW_DASHED1
 62
   120
370
     5
100
AcDbLine
 10
-82.74480948356242
 20
115.4800214739855
 30
0.0
 11
145.2551905164519
 21
343.4800214739998
 31
0.0
  0
LINE
  5
170
330
1F
100
AcDbEntity
  8
0-0
  6
JWW_DASHED1
 62
   120
370
     5
100
AcDbLine
 10
-82.74480948355901
 20
101.3378858502556
 30
0.0
 11
145.2551905164383
 21
329.337885850252
 31
0.0
  0
LINE
  5
171
330
1F
100
AcDbEntity
  8
0-0
  6
JWW_DASHED1
 62
   120
370
     5
100
AcDbLine
 10
-82.74480948356242
 20
87.19575022651838
 30
0.0
 11
145.2551905164519
 21
315.195750226531
 31
0.0
  0
LINE
  5
172
330
1F
100
AcDbEntity
  8
0-0
  6
JWW_DASHED1
 62
   120
370
     5
100
AcDbLine
 10
-82.74480948356583
 20
73.05361460278121
 30
0.0
 11
145.2551905164314
 21
301.0536146027781
 31
0.0
  0
LINE
  5
173
330
1F
100
AcDbEntity
  8
0-0
  6
JWW_DASHED1
 62
   120
370
     5
100
AcDbLine
 10
-82.74480948356583
 20
58.91147897910287
 30
0.0
 11
145.2551905164451
 21
286.911478979115
 31
0.0
  0
LINE
  5
174
330
1F
100
AcDbEntity
  8
0-0
  6
JWW_DASHED1
 62
   120
370
     5
100
AcDbLine
 10
-82.74480948356242
 20
44.76934335537337
 30
0.0
 11
145.2551905164519
 21
272.7693433553877
 31
0.0
  0
LINE
  5
175
330
1F
100
AcDbEntity
  8
0-0
  6
JWW_DASHED1
 62
   120
370
     5
100
AcDbLine
 10
-82.74480948355901
 20
30.62720773164386
 30
0.0
 11
145.2551905164383
 21
258.6272077316407
 31
0.0
  0
LINE
  5
176
330
1F
100
AcDbEntity
  8
0-0
  6
JWW_DASHED1
 62
   120
370
     5
100
AcDbLine
 10
-82.74480948356242
 20
16.48507210790669
 30
0.0
 11
145.2551905164519
 21
244.4850721079189
 31
0.0
  0
LINE
  5
177
330
1F
100
AcDbEntity
  8
0-0
  6
JWW_DASHED1
 62
   120
370
     5
100
AcDbLine
 10
-82.74480948356583
 20
2.342936484169087
 30
0.0
 11
145.2551905164314
 21
230.3429364841659
 31
0.0
  0
LINE
  5
178
330
1F
100
AcDbEntity
  8
0-0
  6
JWW_DASHED1
 62
   120
370
     5
100
AcDbLine
 10
-82.74480948355219
 20
-11.79919913955231
 30
0.0
 11
145.2551905164417
 21
216.2008008604441
 31
0.0
  0
LINE
  5
179
330
1F
100
AcDbEntity
  8
0-0
  6
JWW_DASHED1
 62
   120
370
     5
100
AcDbLine
 10
-82.74480948356583
 20
-25.94133476329844
 30
0.0
 11
145.2551905164485
 21
202.0586652367163
 31
0.0
  0
LINE
  5
17A
330
1F
100
AcDbEntity
  8
0-0
  6
JWW_DASHED1
 62
   120
370
     5
100
AcDbLine
 10
-82.74480948356242
 20
-40.08347038702709
 30
0.0
 11
145.2551905164349
 21
187.9165296129698
 31
0.0
  0
LINE
  5
17B
330
1F
100
AcDbEntity
  8
0-0
  6
JWW_DASHED1
 62
   120
370
     5
100
AcDbLine
 10
-82.74480948356583
 20
-54.22560601076427
 30
0.0
 11
145.2551905164451
 21
173.7743939892484
 31
0.0
  0
LINE
  5
17C
330
1F
100
AcDbEntity
  8
0-0
  6
JWW_DASHED1
 62
   120
370
     5
100
AcDbLine
 10
-82.74480948356242
 20
-68.36774163449505
 30
0.0
 11
145.2551905164519
 21
159.6322583655193
 31
0.0
  0
LINE
  5
17D
330
1F
100
AcDbEntity
  8
0-0
  6
JWW_DASHED1
 62
   120
370
     5
100
AcDbLine
 10
-82.74480948355901
 20
-82.50987725822327
 30
0.0
 11
145.2551905164383
 21
145.4901227417731
 31
0.0
  0
LINE
  5
17E
330
1F
100
AcDbEntity
  8
0-0
  6
JWW_DASHED1
 62
   120
370
     5
100
AcDbLine
 10
-82.74480948356242
 20
-96.65201288196045
 30
0.0
 11
145.2551905164519
 21
131.3479871180522
 31
0.0
  0
LINE
  5
17F
330
1F
100
AcDbEntity
  8
0-0
  6
JWW_DASHED1
 62
   120
370
     5
100
AcDbLine
 10
-82.74480948356583
 20
-110.7941485056976
 30
0.0
 11
145.2551905164314
 21
117.2058514942988
 31
0.0
  0
LINE
  5
180
330
1F
100
AcDbEntity
  8
0-0
  6
JWW_DASHED1
 62
   120
370
     5
100
AcDbLine
 10
-82.7448094835556
 20
-124.9362841294194
 30
0.0
 11
145.2551905164417
 21
103.0637158705774
 31
0.0
  0
LINE
  5
181
330
1F
100
AcDbEntity
  8
0-0
  6
JWW_DASHED1
 62
   120
370
     5
100
AcDbLine
 10
-82.74480948356924
 20
-139.078419753166
 30
0.0
 11
145.2551905164451
 21
88.92158024684832
 31
0.0
  0
LINE
  5
182
330
1F
100
AcDbEntity
  8
0-0
  6
JWW_DASHED1
 62
   120
370
     5
100
AcDbLine
 10
-82.74480948356242
 20
-153.2205553768942
 30
0.0
 11
145.2551905164349
 21
74.77944462310305
 31
0.0
  0
LINE
  5
183
330
1F
100
AcDbEntity
  8
0-0
  6
JWW_DASHED1
 62
   120
370
     5
100
AcDbLine
 10
-82.74480948355219
 20
-167.3626910006156
 30
0.0
 11
145.2551905164451
 21
60.63730899938122
 31
0.0
  0
LINE
  5
184
330
1F
100
AcDbEntity
  8
0-0
  6
JWW_DASHED1
 62
   120
370
     5
100
AcDbLine
 10
-82.74480948356583
 20
-181.5048266243626
 30
0.0
 11
145.2551905164519
 21
46.49517337565172
 31
0.0
  0
LINE
  5
185
330
1F
100
AcDbEntity
  8
0-0
  6
JWW_DASHED1
 62
   120
370
     5
100
AcDbLine
 10
-82.74480948355901
 20
-195.64696224809
 30
0.0
 11
145.2551905164383
 21
32.35303775190644
 31
0.0
  0
LINE
  5
186
330
1F
100
AcDbEntity
  8
0-0
  6
JWW_DASHED1
 62
   120
370
     5
100
AcDbLine
 10
-82.74480948356242
 20
-209.7890978718276
 30
0.0
 11
145.2551905164519
 21
18.21090212818504
 31
0.0
  0
LINE
  5
187
330
1F
100
AcDbEntity
  8
0-0
  6
JWW_DASHED1
 62
   120
370
     5
100
AcDbLine
 10
-82.74480948355901
 20
-223.9312334955592
 30
0.0
 11
145.2551905164383
 21
4.068766504439338
 31
0.0
  0
LINE
  5
188
330
1F
100
AcDbEntity
  8
0-0
  6
JWW_DASHED1
 62
   120
370
     5
100
AcDbLine
 10
-82.7448094835556
 20
-238.0733691192866
 30
0.0
 11
145.2551905164417
 21
-10.07336911928974
 31
0.0
  0
LINE
  5
189
330
1F
100
AcDbEntity
  8
0-0
  6
JWW_DASHED1
 62
   120
370
     5
100
AcDbLine
 10
-82.74480948355901
 20
-252.2155047430233
 30
0.0
 11
145.2551905164519
 21
-24.21550474301114
 31
0.0
  0
LINE
  5
18A
330
1F
100
AcDbEntity
  8
0-0
  6
JWW_DASHED1
 62
   120
370
     5
100
AcDbLine
 10
-82.74480948356242
 20
-266.357640366761
 30
0.0
 11
145.2551905164349
 21
-38.35764036676451
 31
0.0
  0
LINE
  5
18B
330
1F
100
AcDbEntity
  8
0-0
  6
JWW_DASHED1
 62
   120
370
     5
100
AcDbLine
 10
-82.74480948355219
 20
-280.4997759904828
 30
0.0
 11
145.2551905164451
 21
-52.49977599048592
 31
0.0
  0
LINE
  5
18C
330
1F
100
AcDbEntity
  8
0-0
  6
JWW_DASHED1
 62
   120
370
     5
100
AcDbLine
 10
-82.74480948356583
 20
-294.6419116142301
 30
0.0
 11
145.2551905164485
 21
-66.64191161421627
 31
0.0
  0
LINE
  5
18D
330
1F
100
AcDbEntity
  8
0-0
  6
JWW_DASHED1
 62
   120
370
     5
100
AcDbLine
 10
-82.74480948355901
 20
-308.7840472379571
 30
0.0
 11
145.2551905164383
 21
-80.78404723796027
 31
0.0
  0
LINE
  5
18E
330
1F
100
AcDbEntity
  8
0-0
  6
JWW_DASHED1
 62
   120
370
     5
100
AcDbLine
 10
-82.74480948355901
 20
-322.9261828616653
 30
0.0
 11
145.2551905164519
 21
-94.92618286165268
 31
0.0
  0
LINE
  5
18F
330
1F
100
AcDbEntity
  8
0-0
  6
JWW_DASHED1
 62
   120
370
     5
100
AcDbLine
 10
-82.74480948356242
 20
-337.0683184853731
 30
0.0
 11
145.2551905164349
 21
-109.0683184853762
 31
0.0
  0
LINE
  5
190
330
1F
100
AcDbEntity
  8
0-0
  6
JWW_DASHED1
 62
   120
370
     5
100
AcDbLine
 10
-82.74480948355219
 20
-351.2104541090945
 30
0.0
 11
145.2551905164451
 21
-123.2104541090976
 31
0.0
  0
LINE
  5
191
330
1F
100
AcDbEntity
  8
0-0
  6
JWW_DASHED1
 62
   120
370
     5
100
AcDbLine
 10
-82.74480948356583
 20
-365.3525897328432
 30
0.0
 11
145.2551905164485
 21
-137.3525897328288
 31
0.0
  0
LINE
  5
192
330
1F
100
AcDbEntity
  8
0-0
  6
JWW_DASHED1
 62
   120
370
     5
100
AcDbLine
 10
-82.74480948355901
 20
-379.4947253565692
 30
0.0
 11
145.2551905164383
 21
-151.4947253565724
 31
0.0
  0
LINE
  5
193
330
1F
100
AcDbEntity
  8
0-0
  6
JWW_DASHED1
 62
   120
370
     5
100
AcDbLine
 10
-82.74480948356242
 20
-393.6368609803064
 30
0.0
 11
145.2551905164485
 21
-165.6368609802942
 31
0.0
  0
LINE
  5
194
330
1F
100
AcDbEntity
  8
0-0
  6
JWW_DASHED1
 62
   120
370
     5
100
AcDbLine
 10
-82.74480948356242
 20
-407.7789966040398
 30
0.0
 11
145.2551905164519
 21
-179.7789966040254
 31
0.0
  0
LINE
  5
195
330
1F
100
AcDbEntity
  8
0-0
  6
JWW_DASHED1
 62
   120
370
     5
100
AcDbLine
 10
-82.7448094835556
 20
-421.9211322277654
 30
0.0
 11
145.2551905164417
 21
-193.921132227769
 31
0.0
  0
LINE
  5
196
330
1F
100
AcDbEntity
  8
0-0
  6
JWW_DASHED1
 62
   120
370
     5
100
AcDbLine
 10
-82.74480948355901
 20
-436.063267851503
 30
0.0
 11
145.2551905164519
 21
-208.0632678514904
 31
0.0
  0
LINE
  5
197
330
1F
100
AcDbEntity
  8
0-0
  6
JWW_DASHED1
 62
   120
370
     5
100
AcDbLine
 10
-82.74480948356242
 20
-450.2054034752402
 30
0.0
 11
145.2551905164349
 21
-222.2054034752433
 31
0.0
  0
LINE
  5
198
330
1F
100
AcDbEntity
  8
0-0
  6
JWW_DASHED1
 62
   120
370
     5
100
AcDbLine
 10
-82.74480948355219
 20
-464.3475390989612
 30
0.0
 11
145.2551905164451
 21
-236.3475390989647
 31
0.0
  0
LINE
  5
199
330
1F
100
AcDbEntity
  8
0-0
  6
JWW_DASHED1
 62
   120
370
     5
100
AcDbLine
 10
-82.74480948356583
 20
-478.4896747227109
 30
0.0
 11
145.2551905164485
 21
-250.4896747226964
 31
0.0
  0
LINE
  5
19A
330
1F
100
AcDbEntity
  8
0-0
  6
JWW_DASHED1
 62
   120
370
     5
100
AcDbLine
 10
-82.74480948355901
 20
-492.6318103464362
 30
0.0
 11
145.2551905164383
 21
-264.6318103464395
 31
0.0
  0
LINE
  5
19B
330
1F
100
AcDbEntity
  8
0-0
  6
JWW_DASHED1
 62
   120
370
     5
100
AcDbLine
 10
-82.74480948356242
 20
-506.7739459701735
 30
0.0
 11
145.2551905164485
 21
-278.7739459701613
 31
0.0
  0
LINE
  5
19C
330
1F
100
AcDbEntity
  8
0-0
  6
JWW_DASHED1
 62
   120
370
     5
100
AcDbLine
 10
-82.74480948356242
 20
-520.9160815939075
 30
0.0
 11
145.2551905164519
 21
-292.9160815938934
 31
0.0
  0
LINE
  5
19D
330
1F
100
AcDbEntity
  8
0-0
  6
JWW_DASHED1
 62
   120
370
     5
100
AcDbLine
 10
-82.7448094835556
 20
-535.0582172176321
 30
0.0
 11
145.2551905164417
 21
-307.0582172176357
 31
0.0
  0
LINE
  5
19E
330
1F
100
AcDbEntity
  8
0-0
  6
JWW_DASHED1
 62
   120
370
     5
100
AcDbLine
 10
-82.74480948355901
 20
-549.2003528413697
 30
0.0
 11
145.2551905164519
 21
-321.2003528413571
 31
0.0
  0
LINE
  5
19F
330
1F
100
AcDbEntity
  8
0-0
  6
JWW_DASHED1
 62
   120
370
     5
100
AcDbLine
 10
-82.74480948356242
 20
-563.3424884651071
 30
0.0
 11
145.2551905164349
 21
-335.34248846511
 31
0.0
  0
LINE
  5
1A0
330
1F
100
AcDbEntity
  8
0-0
  6
JWW_DASHED1
 62
   120
370
     5
100
AcDbLine
 10
-82.74480948355219
 20
-577.4846240888287
 30
0.0
 11
145.2551905164451
 21
-349.4846240888319
 31
0.0
  0
LINE
  5
1A1
330
1F
100
AcDbEntity
  8
0-0
  6
JWW_DASHED1
 62
   120
370
     5
100
AcDbLine
 10
-82.74480948356924
 20
-591.6267597125791
 30
0.0
 11
145.2551905164451
 21
-363.6267597125648
 31
0.0
  0
LINE
  5
1A2
330
1F
100
AcDbEntity
  8
0-0
  6
JWW_DASHED1
 62
   120
370
     5
100
AcDbLine
 10
-82.74480948355901
 20
-605.7688953363033
 30
0.0
 11
145.2551905164383
 21
-377.7688953363066
 31
0.0
  0
LINE
  5
1A3
330
1F
100
AcDbEntity
  8
0-0
  6
JWW_DASHED1
 62
   120
370
     5
100
AcDbLine
 10
-82.74480948356242
 20
-619.9110309600406
 30
0.0
 11
145.2551905164485
 21
-391.911030960028
 31
0.0
  0
LINE
  5
1A4
330
1F
100
AcDbEntity
  8
0-0
  6
JWW_DASHED1
 62
   120
370
     5
100
AcDbLine
 10
-82.74480948356583
 20
-634.0531665837755
 30
0.0
 11
145.2551905164485
 21
-406.0531665837614
 31
0.0
  0
LINE
  5
1A5
330
1F
100
AcDbEntity
  8
0-0
  6
JWW_DASHED1
 62
   120
370
     5
100
AcDbLine
 10
-82.7448094835556
 20
-648.1953022074995
 30
0.0
 11
145.2551905164417
 21
-420.1953022075024
 31
0.0
  0
LINE
  5
1A6
330
1F
100
AcDbEntity
  8
0-0
  6
JWW_DASHED1
 62
   120
370
     5
100
AcDbLine
 10
-82.74480948355901
 20
-662.3374378312369
 30
0.0
 11
145.2551905164519
 21
-434.3374378312238
 31
0.0
  0
LINE
  5
1A7
330
1F
100
AcDbEntity
  8
0-0
  6
JWW_DASHED1
 62
   120
370
     5
100
AcDbLine
 10
-82.74480948356242
 20
-676.4795734549721
 30
0.0
 11
145.2551905164383
 21
-448.4795734549733
 31
0.0
  0
LINE
  5
1A8
330
1F
100
AcDbEntity
  8
0-0
  6
JWW_DASHED1
 62
   120
370
     5
100
AcDbLine
 10
-82.74480948355219
 20
-690.6217090786954
 30
0.0
 11
145.2551905164451
 21
-462.621709078699
 31
0.0
  0
LINE
  5
1A9
330
1F
100
AcDbEntity
  8
0-0
  6
JWW_DASHED1
 62
   120
370
     5
100
AcDbLine
 10
-82.7448094835556
 20
-704.7638447024328
 30
0.0
 11
145.2551905164587
 21
-476.7638447024204
 31
0.0
  0
LINE
  5
1AA
330
1F
100
AcDbEntity
  8
0-0
  6
JWW_DASHED1
 62
   120
370
     5
100
AcDbLine
 10
-82.7448094835556
 20
-718.9059803261116
 30
0.0
 11
145.2551905164417
 21
-490.9059803261147
 31
0.0
  0
LINE
  5
1AB
330
1F
100
AcDbEntity
  8
0-0
  6
JWW_DASHED1
 62
   120
370
     5
100
AcDbLine
 10
-82.74480948355901
 20
-733.0481159498488
 30
0.0
 11
145.2551905164519
 21
-505.0481159498361
 31
0.0
  0
LINE
  5
1AC
330
1F
100
AcDbEntity
  8
0-0
  6
JWW_DASHED1
 62
   120
370
     5
100
AcDbLine
 10
-82.74480948356242
 20
-747.1902515735846
 30
0.0
 11
145.2551905164383
 21
-519.1902515735861
 31
0.0
  0
LINE
  5
1AD
330
1F
100
AcDbEntity
  8
0-0
  6
JWW_DASHED1
 62
   120
370
     5
100
AcDbLine
 10
-82.74480948355219
 20
-761.3323871973073
 30
0.0
 11
145.2551905164451
 21
-533.3323871973109
 31
0.0
  0
LINE
  5
1AE
330
1F
100
AcDbEntity
  8
0-0
  6
JWW_DASHED1
 62
   120
370
     5
100
AcDbLine
 10
-82.7448094835556
 20
-775.4745228210447
 30
0.0
 11
145.2551905164587
 21
-547.4745228210323
 31
0.0
  0
LINE
  5
1AF
330
1F
100
AcDbEntity
  8
0-0
  6
JWW_DASHED1
 62
   120
370
     5
100
AcDbLine
 10
-82.74480948355901
 20
-789.6166584447824
 30
0.0
 11
145.2551905164383
 21
-561.6166584447855
 31
0.0
  0
LINE
  5
1B0
330
1F
100
AcDbEntity
  8
0-0
  6
JWW_DASHED1
 62
   120
370
     5
100
AcDbLine
 10
-82.74480948354878
 20
-803.7587940685037
 30
0.0
 11
145.2551905164485
 21
-575.7587940685069
 31
0.0
  0
LINE
  5
1B1
330
1F
100
AcDbEntity
  8
0-0
  6
JWW_DASHED1
 62
   120
370
     5
100
AcDbLine
 10
-82.74480948356583
 20
-817.9009296922559
 30
0.0
 11
145.2551905164485
 21
-589.9009296922416
 31
0.0
  0
LINE
  5
1B2
330
1F
100
AcDbEntity
  8
0-0
  6
JWW_DASHED1
 62
   120
370
     5
100
AcDbLine
 10
-82.7448094835556
 20
-832.0430653159781
 30
0.0
 11
145.2551905164417
 21
-604.0430653159817
 31
0.0
  0
LINE
  5
1B3
330
1F
100
AcDbEntity
  8
0-0
  6
JWW_DASHED1
 62
   120
370
     5
100
AcDbLine
 10
-82.74480948355901
 20
-846.1852009397157
 30
0.0
 11
145.2551905164519
 21
-618.185200939703
 31
0.0
  0
LINE
  5
1B4
330
1F
100
AcDbEntity
  8
0-0
  6
JWW_DASHED1
 62
   120
370
     5
100
AcDbLine
 10
-82.74480948356242
 20
-860.3273365634525
 30
0.0
 11
145.2551905164519
 21
-632.3273365634382
 31
0.0
  0
LINE
  5
1B5
330
1F
100
AcDbEntity
  8
0-0
  6
JWW_DASHED1
 62
   120
370
     5
100
AcDbLine
 10
-82.74480948355219
 20
-874.4694721871745
 30
0.0
 11
145.2551905164451
 21
-646.4694721871779
 31
0.0
  0
LINE
  5
1B6
330
1F
100
AcDbEntity
  8
0-0
  6
JWW_DASHED1
 62
   120
370
     5
100
AcDbLine
 10
-82.7448094835556
 20
-888.6116078109121
 30
0.0
 11
145.2551905164553
 21
-660.6116078108995
 31
0.0
  0
LINE
  5
1B7
330
1F
100
AcDbEntity
  8
0-0
  6
JWW_DASHED1
 62
   120
370
     5
100
AcDbLine
 10
-82.74480948355901
 20
-902.7537434346491
 30
0.0
 11
145.2551905164383
 21
-674.7537434346526
 31
0.0
  0
LINE
  5
1B8
330
1F
100
AcDbEntity
  8
0-0
  6
JWW_DASHED1
 62
   120
370
     5
100
AcDbLine
 10
-82.74480948354878
 20
-916.8958790583705
 30
0.0
 11
145.2551905164485
 21
-688.8958790583742
 31
0.0
  0
LINE
  5
1B9
330
1F
100
AcDbEntity
  8
0-0
  6
JWW_DASHED1
 62
   120
370
     5
100
AcDbLine
 10
-82.74480948356583
 20
-931.0380146821238
 30
0.0
 11
145.2551905164451
 21
-703.0380146821095
 31
0.0
  0
LINE
  5
1BA
330
1F
100
AcDbEntity
  8
0-0
  6
JWW_DASHED1
 62
   120
370
     5
100
AcDbLine
 10
-72.40473957779884
 20
-934.8400804000895
 30
0.0
 11
145.2551905164417
 21
-717.1801503058485
 31
0.0
  0
LINE
  5
1BB
330
1F
100
AcDbEntity
  8
0-0
  6
JWW_DASHED1
 62
   120
370
     5
100
AcDbLine
 10
-58.2626039540655
 20
-934.840080400087
 30
0.0
 11
145.2551905164519
 21
-731.3222859295702
 31
0.0
  0
LINE
  5
1BC
330
1F
100
AcDbEntity
  8
0-0
  6
JWW_DASHED1
 62
   120
370
     5
100
AcDbLine
 10
-44.12046833032875
 20
-934.8400804000837
 30
0.0
 11
145.2551905164519
 21
-745.4644215533061
 31
0.0
  0
LINE
  5
1BD
330
1F
100
AcDbEntity
  8
0-0
  6
JWW_DASHED1
 62
   120
370
     5
100
AcDbLine
 10
-29.97833270660223
 20
-934.8400804000923
 30
0.0
 11
145.2551905164451
 21
-759.606557177045
 31
0.0
  0
LINE
  5
1BE
330
1F
100
AcDbEntity
  8
0-0
  6
JWW_DASHED1
 62
   120
370
     5
100
AcDbLine
 10
-15.8361970828723
 20
-934.8400804000936
 30
0.0
 11
145.2551905164553
 21
-773.7486928007663
 31
0.0
  0
LINE
  5
1BF
330
1F
100
AcDbEntity
  8
0-0
  6
JWW_DASHED1
 62
   120
370
     5
100
AcDbLine
 10
-1.694061459128733
 20
-934.8400804000846
 30
0.0
 11
145.2551905164383
 21
-787.8908284245196
 31
0.0
  0
LINE
  5
1C0
330
1F
100
AcDbEntity
  8
0-0
  6
JWW_DASHED1
 62
   120
370
     5
100
AcDbLine
 10
12.44807416459437
 20
-934.8400804000961
 30
0.0
 11
145.2551905164485
 21
-802.0329640482412
 31
0.0
  0
LINE
  5
1C1
330
1F
100
AcDbEntity
  8
0-0
  6
JWW_DASHED1
 62
   120
370
     5
100
AcDbLine
 10
26.59020978833794
 20
-934.8400804000837
 30
0.0
 11
145.2551905164451
 21
-816.1750996719775
 31
0.0
  0
LINE
  5
1C2
330
1F
100
AcDbEntity
  8
0-0
  6
JWW_DASHED1
 62
   120
370
     5
100
AcDbLine
 10
40.73234541206787
 20
-934.8400804000876
 30
0.0
 11
145.2551905164417
 21
-830.3172352957157
 31
0.0
  0
LINE
  5
1C3
330
1F
100
AcDbEntity
  8
0-0
  6
JWW_DASHED1
 62
   120
370
     5
100
AcDbLine
 10
54.87448103579439
 20
-934.8400804000931
 30
0.0
 11
145.2551905164519
 21
-844.4593709194373
 31
0.0
  0
LINE
  5
1C4
330
1F
100
AcDbEntity
  8
0-0
  6
JWW_DASHED1
 62
   120
370
     5
100
AcDbLine
 10
69.01661665953455
 20
-934.84008040009
 30
0.0
 11
145.2551905164485
 21
-858.6015065431739
 31
0.0
  0
LINE
  5
1C5
330
1F
100
AcDbEntity
  8
0-0
  6
JWW_DASHED1
 62
   120
370
     5
100
AcDbLine
 10
83.15875228323378
 20
-934.8400804000931
 30
0.0
 11
145.2551905164451
 21
-872.7436421668826
 31
0.0
  0
LINE
  5
1C6
330
1F
100
AcDbEntity
  8
0-0
  6
JWW_DASHED1
 62
   120
370
     5
100
AcDbLine
 10
97.30088790694666
 20
-934.840080400088
 30
0.0
 11
145.2551905164451
 21
-886.88577779059
 31
0.0
  0
LINE
  5
1C7
330
1F
100
AcDbEntity
  8
0-0
  6
JWW_DASHED1
 62
   120
370
     5
100
AcDbLine
 10
111.44302353068
 20
-934.8400804000871
 30
0.0
 11
145.2551905164417
 21
-901.0279134143276
 31
0.0
  0
LINE
  5
1C8
330
1F
100
AcDbEntity
  8
0-0
  6
JWW_DASHED1
 62
   120
370
     5
100
AcDbLine
 10
125.5851591544031
 20
-934.8400804000973
 30
0.0
 11
145.2551905164519
 21
-915.1700490380492
 31
0.0
  0
LINE
  5
1C9
330
1F
100
AcDbEntity
  8
0-0
  6
JWW_DASHED1
 62
   120
370
     5
100
AcDbLine
 10
139.7272947781398
 20
-934.8400804000939
 30
0.0
 11
145.2551905164485
 21
-929.3121846617864
 31
0.0
  0
LINE
  5
1CA
330
1F
100
AcDbEntity
  8
0-0
  6
Continuous
 62
     7
370
     9
100
AcDbLine
 10
-82.74480948355901
 20
-934.8400804000861
 30
0.0
 11
145.2551905164383
 21
-934.8400804000861
 31
0.0
  0
LINE
  5
1CB
330
1F
100
AcDbEntity
  8
0-0
  6
JWW_DASHED1
 62
   120
370
     5
100
AcDbLine
 10
-862.744809483559
 20
794.3025314131346
 30
0.0
 11
-634.7448094835618
 21
1022.302531413133
 31
0.0
  0
LINE
  5
1CC
330
1F
100
AcDbEntity
  8
0-0
  6
JWW_DASHED1
 62
   120
370
     5
100
AcDbLine
 10
-862.744809483559
 20
780.1603957893991
 30
0.0
 11
-634.7448094835618
 21
1008.160395789396
 31
0.0
  0
LINE
  5
1CD
330
1F
100
AcDbEntity
  8
0-0
  6
JWW_DASHED1
 62
   120
370
     5
100
AcDbLine
 10
-862.7448094835659
 20
766.0182601656619
 30
0.0
 11
-634.7448094835515
 21
994.0182601656745
 31
0.0
  0
LINE
  5
1CE
330
1F
100
AcDbEntity
  8
0-0
  6
JWW_DASHED1
 62
   120
370
     5
100
AcDbLine
 10
-862.7448094835693
 20
751.8761245419244
 30
0.0
 11
-634.744809483572
 21
979.8761245419212
 31
0.0
  0
LINE
  5
1CF
330
1F
100
AcDbEntity
  8
0-0
  6
JWW_DASHED1
 62
   120
370
     5
100
AcDbLine
 10
-862.7448094835556
 20
737.733988918203
 30
0.0
 11
-634.7448094835618
 21
965.7339889181998
 31
0.0
  0
LINE
  5
1D0
330
1F
100
AcDbEntity
  8
0-0
  6
JWW_DASHED1
 62
   120
370
     5
100
AcDbLine
 10
-862.7448094835624
 20
723.5918532944631
 30
0.0
 11
-634.7448094835481
 21
951.5918532944771
 31
0.0
  0
LINE
  5
1D1
330
1F
100
AcDbEntity
  8
0-0
  6
JWW_DASHED1
 62
   120
370
     5
100
AcDbLine
 10
-862.7448094835659
 20
709.4497176707282
 30
0.0
 11
-634.7448094835686
 21
937.449717670725
 31
0.0
  0
LINE
  5
1D2
330
1F
100
AcDbEntity
  8
0-0
  6
JWW_DASHED1
 62
   120
370
     5
100
AcDbLine
 10
-862.7448094835693
 20
695.307582046991
 30
0.0
 11
-634.744809483555
 21
923.3075820470036
 31
0.0
  0
LINE
  5
1D3
330
1F
100
AcDbEntity
  8
0-0
  6
JWW_DASHED1
 62
   120
370
     5
100
AcDbLine
 10
-862.744809483559
 20
681.1654464232662
 30
0.0
 11
-634.7448094835447
 21
909.1654464232809
 31
0.0
  0
LINE
  5
1D4
330
1F
100
AcDbEntity
  8
0-0
  6
JWW_DASHED1
 62
   120
370
     5
100
AcDbLine
 10
-862.744809483559
 20
667.0233107995319
 30
0.0
 11
-634.7448094835618
 21
895.0233107995289
 31
0.0
  0
LINE
  5
1D5
330
1F
100
AcDbEntity
  8
0-0
  6
JWW_DASHED1
 62
   120
370
     5
100
AcDbLine
 10
-862.7448094835659
 20
652.8811751757949
 30
0.0
 11
-634.7448094835515
 21
880.8811751758074
 31
0.0
  0
LINE
  5
1D6
330
1F
100
AcDbEntity
  8
0-0
  6
JWW_DASHED1
 62
   120
370
     5
100
AcDbLine
 10
-862.7448094835693
 20
638.7390395520576
 30
0.0
 11
-634.744809483572
 21
866.739039552054
 31
0.0
  0
LINE
  5
1D7
330
1F
100
AcDbEntity
  8
0-0
  6
JWW_DASHED1
 62
   120
370
     5
100
AcDbLine
 10
-862.744809483559
 20
624.5969039283358
 30
0.0
 11
-634.7448094835618
 21
852.5969039283326
 31
0.0
  0
LINE
  5
1D8
330
1F
100
AcDbEntity
  8
0-0
  6
JWW_DASHED1
 62
   120
370
     5
100
AcDbLine
 10
-862.7448094835659
 20
610.4547683045952
 30
0.0
 11
-634.7448094835481
 21
838.4547683046095
 31
0.0
  0
LINE
  5
1D9
330
1F
100
AcDbEntity
  8
0-0
  6
JWW_DASHED1
 62
   120
370
     5
100
AcDbLine
 10
-862.7448094835659
 20
596.3126326808615
 30
0.0
 11
-634.7448094835686
 21
824.3126326808574
 31
0.0
  0
LINE
  5
1DA
330
1F
100
AcDbEntity
  8
0-0
  6
JWW_DASHED1
 62
   120
370
     5
100
AcDbLine
 10
-862.7448094835693
 20
582.1704970571238
 30
0.0
 11
-634.744809483555
 21
810.1704970571365
 31
0.0
  0
LINE
  5
1DB
330
1F
100
AcDbEntity
  8
0-0
  6
JWW_DASHED1
 62
   120
370
     5
100
AcDbLine
 10
-862.744809483559
 20
568.0283614333986
 30
0.0
 11
-634.7448094835481
 21
796.0283614334129
 31
0.0
  0
LINE
  5
1DC
330
1F
100
AcDbEntity
  8
0-0
  6
JWW_DASHED1
 62
   120
370
     5
100
AcDbLine
 10
-862.744809483559
 20
553.8862258096652
 30
0.0
 11
-634.7448094835652
 21
781.8862258096617
 31
0.0
  0
LINE
  5
1DD
330
1F
100
AcDbEntity
  8
0-0
  6
JWW_DASHED1
 62
   120
370
     5
100
AcDbLine
 10
-862.7448094835659
 20
539.7440901859277
 30
0.0
 11
-634.7448094835515
 21
767.7440901859403
 31
0.0
  0
LINE
  5
1DE
330
1F
100
AcDbEntity
  8
0-0
  6
JWW_DASHED1
 62
   120
370
     5
100
AcDbLine
 10
-862.7448094835693
 20
525.6019545621905
 30
0.0
 11
-634.744809483572
 21
753.6019545621873
 31
0.0
  0
LINE
  5
1DF
330
1F
100
AcDbEntity
  8
0-0
  6
JWW_DASHED1
 62
   120
370
     5
100
AcDbLine
 10
-862.744809483559
 20
511.4598189384686
 30
0.0
 11
-634.7448094835618
 21
739.4598189384656
 31
0.0
  0
LINE
  5
1E0
330
1F
100
AcDbEntity
  8
0-0
  6
JWW_DASHED1
 62
   120
370
     5
100
AcDbLine
 10
-862.7448094835659
 20
497.3176833147268
 30
0.0
 11
-634.7448094835515
 21
725.3176833147415
 31
0.0
  0
LINE
  5
1E1
330
1F
100
AcDbEntity
  8
0-0
  6
JWW_DASHED1
 62
   120
370
     5
100
AcDbLine
 10
-862.7448094835659
 20
483.1755476909943
 30
0.0
 11
-634.7448094835686
 21
711.1755476909907
 31
0.0
  0
LINE
  5
1E2
330
1F
100
AcDbEntity
  8
0-0
  6
JWW_DASHED1
 62
   120
370
     5
100
AcDbLine
 10
-862.7448094835693
 20
469.0334120672567
 30
0.0
 11
-634.744809483555
 21
697.0334120672693
 31
0.0
  0
LINE
  5
1E3
330
1F
100
AcDbEntity
  8
0-0
  6
JWW_DASHED1
 62
   120
370
     5
100
AcDbLine
 10
-862.7448094835727
 20
454.8912764435489
 30
0.0
 11
-634.7448094835584
 21
682.8912764435615
 31
0.0
  0
LINE
  5
1E4
330
1F
100
AcDbEntity
  8
0-0
  6
JWW_DASHED1
 62
   120
370
     5
100
AcDbLine
 10
-862.7448094835556
 20
440.749140819857
 30
0.0
 11
-634.7448094835618
 21
668.7491408198538
 31
0.0
  0
LINE
  5
1E5
330
1F
100
AcDbEntity
  8
0-0
  6
JWW_DASHED1
 62
   120
370
     5
100
AcDbLine
 10
-862.7448094835659
 20
426.6070051961146
 30
0.0
 11
-634.7448094835515
 21
654.607005196129
 31
0.0
  0
LINE
  5
1E6
330
1F
100
AcDbEntity
  8
0-0
  6
JWW_DASHED1
 62
   120
370
     5
100
AcDbLine
 10
-862.7448094835659
 20
412.4648695723822
 30
0.0
 11
-634.7448094835686
 21
640.4648695723786
 31
0.0
  0
LINE
  5
1E7
330
1F
100
AcDbEntity
  8
0-0
  6
JWW_DASHED1
 62
   120
370
     5
100
AcDbLine
 10
-862.7448094835693
 20
398.322733948645
 30
0.0
 11
-634.744809483555
 21
626.3227339486576
 31
0.0
  0
LINE
  5
1E8
330
1F
100
AcDbEntity
  8
0-0
  6
JWW_DASHED1
 62
   120
370
     5
100
AcDbLine
 10
-862.7448094835624
 20
384.180598324918
 30
0.0
 11
-634.7448094835481
 21
612.1805983249324
 31
0.0
  0
LINE
  5
1E9
330
1F
100
AcDbEntity
  8
0-0
  6
JWW_DASHED1
 62
   120
370
     5
100
AcDbLine
 10
-862.7448094835624
 20
370.038462701186
 30
0.0
 11
-634.7448094835652
 21
598.0384627011829
 31
0.0
  0
LINE
  5
1EA
330
1F
100
AcDbEntity
  8
0-0
  6
JWW_DASHED1
 62
   120
370
     5
100
AcDbLine
 10
-862.7448094835659
 20
355.8963270774489
 30
0.0
 11
-634.7448094835515
 21
583.8963270774615
 31
0.0
  0
LINE
  5
1EB
330
1F
100
AcDbEntity
  8
0-0
  6
JWW_DASHED1
 62
   120
370
     5
100
AcDbLine
 10
-862.7448094835693
 20
341.7541914537112
 30
0.0
 11
-634.744809483572
 21
569.754191453708
 31
0.0
  0
LINE
  5
1EC
330
1F
100
AcDbEntity
  8
0-0
  6
JWW_DASHED1
 62
   120
370
     5
100
AcDbLine
 10
-862.744809483559
 20
327.6120558299898
 30
0.0
 11
-634.7448094835618
 21
555.6120558299867
 31
0.0
  0
LINE
  5
1ED
330
1F
100
AcDbEntity
  8
0-0
  6
JWW_DASHED1
 62
   120
370
     5
100
AcDbLine
 10
-862.7448094835659
 20
313.4699202062467
 30
0.0
 11
-634.7448094835515
 21
541.469920206261
 31
0.0
  0
LINE
  5
1EE
330
1F
100
AcDbEntity
  8
0-0
  6
JWW_DASHED1
 62
   120
370
     5
100
AcDbLine
 10
-862.7448094835659
 20
299.3277845825155
 30
0.0
 11
-634.7448094835686
 21
527.3277845825119
 31
0.0
  0
LINE
  5
1EF
330
1F
100
AcDbEntity
  8
0-0
  6
JWW_DASHED1
 62
   120
370
     5
100
AcDbLine
 10
-862.7448094835522
 20
285.1856489587936
 30
0.0
 11
-634.744809483555
 21
513.1856489587905
 31
0.0
  0
LINE
  5
1F0
330
1F
100
AcDbEntity
  8
0-0
  6
JWW_DASHED1
 62
   120
370
     5
100
AcDbLine
 10
-862.7448094835659
 20
271.0435133350501
 30
0.0
 11
-634.7448094835481
 21
499.0435133350644
 31
0.0
  0
LINE
  5
1F1
330
1F
100
AcDbEntity
  8
0-0
  6
JWW_DASHED1
 62
   120
370
     5
100
AcDbLine
 10
-862.7448094835624
 20
256.9013777113189
 30
0.0
 11
-634.7448094835652
 21
484.9013777113157
 31
0.0
  0
LINE
  5
1F2
330
1F
100
AcDbEntity
  8
0-0
  6
JWW_DASHED1
 62
   120
370
     5
100
AcDbLine
 10
-862.7448094835659
 20
242.7592420875813
 30
0.0
 11
-634.744809483555
 21
470.7592420875939
 31
0.0
  0
LINE
  5
1F3
330
1F
100
AcDbEntity
  8
0-0
  6
JWW_DASHED1
 62
   120
370
     5
100
AcDbLine
 10
-862.744809483559
 20
228.6171064638539
 30
0.0
 11
-634.7448094835618
 21
456.617106463852
 31
0.0
  0
LINE
  5
1F4
330
1F
100
AcDbEntity
  8
0-0
  6
JWW_DASHED1
 62
   120
370
     5
100
AcDbLine
 10
-862.744809483559
 20
214.4749708401227
 30
0.0
 11
-634.7448094835618
 21
442.4749708401196
 31
0.0
  0
LINE
  5
1F5
330
1F
100
AcDbEntity
  8
0-0
  6
JWW_DASHED1
 62
   120
370
     5
100
AcDbLine
 10
-862.7448094835624
 20
200.3328352163855
 30
0.0
 11
-634.7448094835481
 21
428.3328352163982
 31
0.0
  0
LINE
  5
1F6
330
1F
100
AcDbEntity
  8
0-0
  6
JWW_DASHED1
 62
   120
370
     5
100
AcDbLine
 10
-862.7448094835659
 20
186.1906995926479
 30
0.0
 11
-634.7448094835686
 21
414.1906995926448
 31
0.0
  0
LINE
  5
1F7
330
1F
100
AcDbEntity
  8
0-0
  6
JWW_DASHED1
 62
   120
370
     5
100
AcDbLine
 10
-862.7448094835522
 20
172.0485639689265
 30
0.0
 11
-634.7448094835584
 21
400.0485639689234
 31
0.0
  0
LINE
  5
1F8
330
1F
100
AcDbEntity
  8
0-0
  6
JWW_DASHED1
 62
   120
370
     5
100
AcDbLine
 10
-862.7448094835659
 20
157.9064283451821
 30
0.0
 11
-634.7448094835515
 21
385.9064283451968
 31
0.0
  0
LINE
  5
1F9
330
1F
100
AcDbEntity
  8
0-0
  6
JWW_DASHED1
 62
   120
370
     5
100
AcDbLine
 10
-862.7448094835624
 20
143.7642927214522
 30
0.0
 11
-634.7448094835652
 21
371.7642927214486
 31
0.0
  0
LINE
  5
1FA
330
1F
100
AcDbEntity
  8
0-0
  6
JWW_DASHED1
 62
   120
370
     5
100
AcDbLine
 10
-862.7448094835659
 20
129.6221570977146
 30
0.0
 11
-634.744809483555
 21
357.6221570977272
 31
0.0
  0
LINE
  5
1FB
330
1F
100
AcDbEntity
  8
0-0
  6
JWW_DASHED1
 62
   120
370
     5
100
AcDbLine
 10
-862.7448094835624
 20
115.4800214739855
 30
0.0
 11
-634.7448094835481
 21
343.4800214739998
 31
0.0
  0
LINE
  5
1FC
330
1F
100
AcDbEntity
  8
0-0
  6
JWW_DASHED1
 62
   120
370
     5
100
AcDbLine
 10
-862.744809483559
 20
101.3378858502556
 30
0.0
 11
-634.7448094835618
 21
329.337885850252
 31
0.0
  0
LINE
  5
1FD
330
1F
100
AcDbEntity
  8
0-0
  6
JWW_DASHED1
 62
   120
370
     5
100
AcDbLine
 10
-862.7448094835624
 20
87.19575022651838
 30
0.0
 11
-634.7448094835481
 21
315.195750226531
 31
0.0
  0
LINE
  5
1FE
330
1F
100
AcDbEntity
  8
0-0
  6
JWW_DASHED1
 62
   120
370
     5
100
AcDbLine
 10
-862.7448094835659
 20
73.05361460278121
 30
0.0
 11
-634.7448094835686
 21
301.0536146027781
 31
0.0
  0
LINE
  5
1FF
330
1F
100
AcDbEntity
  8
0-0
  6
JWW_DASHED1
 62
   120
370
     5
100
AcDbLine
 10
-862.7448094835659
 20
58.91147897910287
 30
0.0
 11
-634.744809483555
 21
286.911478979115
 31
0.0
  0
LINE
  5
200
330
1F
100
AcDbEntity
  8
0-0
  6
JWW_DASHED1
 62
   120
370
     5
100
AcDbLine
 10
-862.7448094835624
 20
44.76934335537337
 30
0.0
 11
-634.7448094835481
 21
272.7693433553877
 31
0.0
  0
LINE
  5
201
330
1F
100
AcDbEntity
  8
0-0
  6
JWW_DASHED1
 62
   120
370
     5
100
AcDbLine
 10
-862.744809483559
 20
30.62720773164386
 30
0.0
 11
-634.7448094835618
 21
258.6272077316407
 31
0.0
  0
LINE
  5
202
330
1F
100
AcDbEntity
  8
0-0
  6
JWW_DASHED1
 62
   120
370
     5
100
AcDbLine
 10
-862.7448094835624
 20
16.48507210790669
 30
0.0
 11
-634.7448094835481
 21
244.4850721079189
 31
0.0
  0
LINE
  5
203
330
1F
100
AcDbEntity
  8
0-0
  6
JWW_DASHED1
 62
   120
370
     5
100
AcDbLine
 10
-862.7448094835659
 20
2.342936484169087
 30
0.0
 11
-634.7448094835686
 21
230.3429364841659
 31
0.0
  0
LINE
  5
204
330
1F
100
AcDbEntity
  8
0-0
  6
JWW_DASHED1
 62
   120
370
     5
100
AcDbLine
 10
-862.7448094835522
 20
-11.79919913955231
 30
0.0
 11
-634.7448094835584
 21
216.2008008604441
 31
0.0
  0
LINE
  5
205
330
1F
100
AcDbEntity
  8
0-0
  6
JWW_DASHED1
 62
   120
370
     5
100
AcDbLine
 10
-862.7448094835659
 20
-25.94133476329844
 30
0.0
 11
-634.7448094835515
 21
202.0586652367163
 31
0.0
  0
LINE
  5
206
330
1F
100
AcDbEntity
  8
0-0
  6
JWW_DASHED1
 62
   120
370
     5
100
AcDbLine
 10
-862.7448094835624
 20
-40.08347038702709
 30
0.0
 11
-634.7448094835652
 21
187.9165296129698
 31
0.0
  0
LINE
  5
207
330
1F
100
AcDbEntity
  8
0-0
  6
JWW_DASHED1
 62
   120
370
     5
100
AcDbLine
 10
-862.7448094835659
 20
-54.22560601076427
 30
0.0
 11
-634.744809483555
 21
173.7743939892484
 31
0.0
  0
LINE
  5
208
330
1F
100
AcDbEntity
  8
0-0
  6
JWW_DASHED1
 62
   120
370
     5
100
AcDbLine
 10
-862.7448094835624
 20
-68.36774163449505
 30
0.0
 11
-634.7448094835481
 21
159.6322583655193
 31
0.0
  0
LINE
  5
209
330
1F
100
AcDbEntity
  8
0-0
  6
JWW_DASHED1
 62
   120
370
     5
100
AcDbLine
 10
-862.744809483559
 20
-82.50987725822327
 30
0.0
 11
-634.7448094835618
 21
145.4901227417731
 31
0.0
  0
LINE
  5
20A
330
1F
100
AcDbEntity
  8
0-0
  6
JWW_DASHED1
 62
   120
370
     5
100
AcDbLine
 10
-862.7448094835624
 20
-96.65201288196045
 30
0.0
 11
-634.7448094835481
 21
131.3479871180522
 31
0.0
  0
LINE
  5
20B
330
1F
100
AcDbEntity
  8
0-0
  6
JWW_DASHED1
 62
   120
370
     5
100
AcDbLine
 10
-862.7448094835659
 20
-110.7941485056976
 30
0.0
 11
-634.7448094835686
 21
117.2058514942988
 31
0.0
  0
LINE
  5
20C
330
1F
100
AcDbEntity
  8
0-0
  6
JWW_DASHED1
 62
   120
370
     5
100
AcDbLine
 10
-862.7448094835556
 20
-124.9362841294194
 30
0.0
 11
-634.7448094835584
 21
103.0637158705774
 31
0.0
  0
LINE
  5
20D
330
1F
100
AcDbEntity
  8
0-0
  6
JWW_DASHED1
 62
   120
370
     5
100
AcDbLine
 10
-862.7448094835693
 20
-139.078419753166
 30
0.0
 11
-634.744809483555
 21
88.92158024684832
 31
0.0
  0
LINE
  5
20E
330
1F
100
AcDbEntity
  8
0-0
  6
JWW_DASHED1
 62
   120
370
     5
100
AcDbLine
 10
-862.7448094835624
 20
-153.2205553768942
 30
0.0
 11
-634.7448094835652
 21
74.77944462310305
 31
0.0
  0
LINE
  5
20F
330
1F
100
AcDbEntity
  8
0-0
  6
JWW_DASHED1
 62
   120
370
     5
100
AcDbLine
 10
-862.7448094835522
 20
-167.3626910006156
 30
0.0
 11
-634.744809483555
 21
60.63730899938122
 31
0.0
  0
LINE
  5
210
330
1F
100
AcDbEntity
  8
0-0
  6
JWW_DASHED1
 62
   120
370
     5
100
AcDbLine
 10
-862.7448094835659
 20
-181.5048266243626
 30
0.0
 11
-634.7448094835481
 21
46.49517337565172
 31
0.0
  0
LINE
  5
211
330
1F
100
AcDbEntity
  8
0-0
  6
JWW_DASHED1
 62
   120
370
     5
100
AcDbLine
 10
-862.744809483559
 20
-195.64696224809
 30
0.0
 11
-634.7448094835618
 21
32.35303775190644
 31
0.0
  0
LINE
  5
212
330
1F
100
AcDbEntity
  8
0-0
  6
JWW_DASHED1
 62
   120
370
     5
100
AcDbLine
 10
-862.7448094835624
 20
-209.7890978718276
 30
0.0
 11
-634.7448094835481
 21
18.21090212818504
 31
0.0
  0
LINE
  5
213
330
1F
100
AcDbEntity
  8
0-0
  6
JWW_DASHED1
 62
   120
370
     5
100
AcDbLine
 10
-862.744809483559
 20
-223.9312334955592
 30
0.0
 11
-634.7448094835618
 21
4.068766504439338
 31
0.0
  0
LINE
  5
214
330
1F
100
AcDbEntity
  8
0-0
  6
JWW_DASHED1
 62
   120
370
     5
100
AcDbLine
 10
-862.7448094835556
 20
-238.0733691192866
 30
0.0
 11
-634.7448094835584
 21
-10.07336911928974
 31
0.0
  0
LINE
  5
215
330
1F
100
AcDbEntity
  8
0-0
  6
JWW_DASHED1
 62
   120
370
     5
100
AcDbLine
 10
-862.744809483559
 20
-252.2155047430233
 30
0.0
 11
-634.7448094835481
 21
-24.21550474301114
 31
0.0
  0
LINE
  5
216
330
1F
100
AcDbEntity
  8
0-0
  6
JWW_DASHED1
 62
   120
370
     5
100
AcDbLine
 10
-862.7448094835624
 20
-266.357640366761
 30
0.0
 11
-634.7448094835652
 21
-38.35764036676451
 31
0.0
  0
LINE
  5
217
330
1F
100
AcDbEntity
  8
0-0
  6
JWW_DASHED1
 62
   120
370
     5
100
AcDbLine
 10
-862.7448094835522
 20
-280.4997759904828
 30
0.0
 11
-634.744809483555
 21
-52.49977599048592
 31
0.0
  0
LINE
  5
218
330
1F
100
AcDbEntity
  8
0-0
  6
JWW_DASHED1
 62
   120
370
     5
100
AcDbLine
 10
-862.7448094835659
 20
-294.6419116142301
 30
0.0
 11
-634.7448094835515
 21
-66.64191161421627
 31
0.0
  0
LINE
  5
219
330
1F
100
AcDbEntity
  8
0-0
  6
JWW_DASHED1
 62
   120
370
     5
100
AcDbLine
 10
-862.744809483559
 20
-308.7840472379571
 30
0.0
 11
-634.7448094835618
 21
-80.78404723796027
 31
0.0
  0
LINE
  5
21A
330
1F
100
AcDbEntity
  8
0-0
  6
JWW_DASHED1
 62
   120
370
     5
100
AcDbLine
 10
-862.744809483559
 20
-322.9261828616653
 30
0.0
 11
-634.7448094835481
 21
-94.92618286165268
 31
0.0
  0
LINE
  5
21B
330
1F
100
AcDbEntity
  8
0-0
  6
JWW_DASHED1
 62
   120
370
     5
100
AcDbLine
 10
-862.7448094835624
 20
-337.0683184853731
 30
0.0
 11
-634.7448094835652
 21
-109.0683184853762
 31
0.0
  0
LINE
  5
21C
330
1F
100
AcDbEntity
  8
0-0
  6
JWW_DASHED1
 62
   120
370
     5
100
AcDbLine
 10
-862.7448094835522
 20
-351.2104541090945
 30
0.0
 11
-634.744809483555
 21
-123.2104541090976
 31
0.0
  0
LINE
  5
21D
330
1F
100
AcDbEntity
  8
0-0
  6
JWW_DASHED1
 62
   120
370
     5
100
AcDbLine
 10
-862.7448094835659
 20
-365.3525897328432
 30
0.0
 11
-634.7448094835515
 21
-137.3525897328288
 31
0.0
  0
LINE
  5
21E
330
1F
100
AcDbEntity
  8
0-0
  6
JWW_DASHED1
 62
   120
370
     5
100
AcDbLine
 10
-862.744809483559
 20
-379.4947253565692
 30
0.0
 11
-634.7448094835618
 21
-151.4947253565724
 31
0.0
  0
LINE
  5
21F
330
1F
100
AcDbEntity
  8
0-0
  6
JWW_DASHED1
 62
   120
370
     5
100
AcDbLine
 10
-862.7448094835624
 20
-393.6368609803064
 30
0.0
 11
-634.7448094835515
 21
-165.6368609802942
 31
0.0
  0
LINE
  5
220
330
1F
100
AcDbEntity
  8
0-0
  6
JWW_DASHED1
 62
   120
370
     5
100
AcDbLine
 10
-862.7448094835624
 20
-407.7789966040398
 30
0.0
 11
-634.7448094835481
 21
-179.7789966040254
 31
0.0
  0
LINE
  5
221
330
1F
100
AcDbEntity
  8
0-0
  6
JWW_DASHED1
 62
   120
370
     5
100
AcDbLine
 10
-862.7448094835556
 20
-421.9211322277654
 30
0.0
 11
-634.7448094835584
 21
-193.921132227769
 31
0.0
  0
LINE
  5
222
330
1F
100
AcDbEntity
  8
0-0
  6
JWW_DASHED1
 62
   120
370
     5
100
AcDbLine
 10
-862.744809483559
 20
-436.063267851503
 30
0.0
 11
-634.7448094835481
 21
-208.0632678514904
 31
0.0
  0
LINE
  5
223
330
1F
100
AcDbEntity
  8
0-0
  6
JWW_DASHED1
 62
   120
370
     5
100
AcDbLine
 10
-862.7448094835624
 20
-450.2054034752402
 30
0.0
 11
-634.7448094835652
 21
-222.2054034752433
 31
0.0
  0
LINE
  5
224
330
1F
100
AcDbEntity
  8
0-0
  6
JWW_DASHED1
 62
   120
370
     5
100
AcDbLine
 10
-862.7448094835522
 20
-464.3475390989612
 30
0.0
 11
-634.744809483555
 21
-236.3475390989647
 31
0.0
  0
LINE
  5
225
330
1F
100
AcDbEntity
  8
0-0
  6
JWW_DASHED1
 62
   120
370
     5
100
AcDbLine
 10
-862.7448094835659
 20
-478.4896747227109
 30
0.0
 11
-634.7448094835515
 21
-250.4896747226964
 31
0.0
  0
LINE
  5
226
330
1F
100
AcDbEntity
  8
0-0
  6
JWW_DASHED1
 62
   120
370
     5
100
AcDbLine
 10
-862.744809483559
 20
-492.6318103464362
 30
0.0
 11
-634.7448094835618
 21
-264.6318103464395
 31
0.0
  0
LINE
  5
227
330
1F
100
AcDbEntity
  8
0-0
  6
JWW_DASHED1
 62
   120
370
     5
100
AcDbLine
 10
-862.7448094835624
 20
-506.7739459701735
 30
0.0
 11
-634.7448094835515
 21
-278.7739459701613
 31
0.0
  0
LINE
  5
228
330
1F
100
AcDbEntity
  8
0-0
  6
JWW_DASHED1
 62
   120
370
     5
100
AcDbLine
 10
-862.7448094835624
 20
-520.9160815939075
 30
0.0
 11
-634.7448094835481
 21
-292.9160815938934
 31
0.0
  0
LINE
  5
229
330
1F
100
AcDbEntity
  8
0-0
  6
JWW_DASHED1
 62
   120
370
     5
100
AcDbLine
 10
-862.7448094835556
 20
-535.0582172176321
 30
0.0
 11
-634.7448094835584
 21
-307.0582172176357
 31
0.0
  0
LINE
  5
22A
330
1F
100
AcDbEntity
  8
0-0
  6
JWW_DASHED1
 62
   120
370
     5
100
AcDbLine
 10
-862.744809483559
 20
-549.2003528413697
 30
0.0
 11
-634.7448094835481
 21
-321.2003528413571
 31
0.0
  0
LINE
  5
22B
330
1F
100
AcDbEntity
  8
0-0
  6
JWW_DASHED1
 62
   120
370
     5
100
AcDbLine
 10
-862.7448094835624
 20
-563.3424884651071
 30
0.0
 11
-634.7448094835652
 21
-335.34248846511
 31
0.0
  0
LINE
  5
22C
330
1F
100
AcDbEntity
  8
0-0
  6
JWW_DASHED1
 62
   120
370
     5
100
AcDbLine
 10
-862.7448094835522
 20
-577.4846240888287
 30
0.0
 11
-634.744809483555
 21
-349.4846240888319
 31
0.0
  0
LINE
  5
22D
330
1F
100
AcDbEntity
  8
0-0
  6
JWW_DASHED1
 62
   120
370
     5
100
AcDbLine
 10
-862.7448094835693
 20
-591.6267597125791
 30
0.0
 11
-634.744809483555
 21
-363.6267597125648
 31
0.0
  0
LINE
  5
22E
330
1F
100
AcDbEntity
  8
0-0
  6
JWW_DASHED1
 62
   120
370
     5
100
AcDbLine
 10
-862.744809483559
 20
-605.7688953363033
 30
0.0
 11
-634.7448094835618
 21
-377.7688953363066
 31
0.0
  0
LINE
  5
22F
330
1F
100
AcDbEntity
  8
0-0
  6
JWW_DASHED1
 62
   120
370
     5
100
AcDbLine
 10
-862.7448094835624
 20
-619.9110309600406
 30
0.0
 11
-634.7448094835515
 21
-391.911030960028
 31
0.0
  0
LINE
  5
230
330
1F
100
AcDbEntity
  8
0-0
  6
JWW_DASHED1
 62
   120
370
     5
100
AcDbLine
 10
-862.7448094835659
 20
-634.0531665837755
 30
0.0
 11
-634.7448094835515
 21
-406.0531665837614
 31
0.0
  0
LINE
  5
231
330
1F
100
AcDbEntity
  8
0-0
  6
JWW_DASHED1
 62
   120
370
     5
100
AcDbLine
 10
-862.7448094835556
 20
-648.1953022074995
 30
0.0
 11
-634.7448094835584
 21
-420.1953022075024
 31
0.0
  0
LINE
  5
232
330
1F
100
AcDbEntity
  8
0-0
  6
JWW_DASHED1
 62
   120
370
     5
100
AcDbLine
 10
-862.744809483559
 20
-662.3374378312369
 30
0.0
 11
-634.7448094835481
 21
-434.3374378312238
 31
0.0
  0
LINE
  5
233
330
1F
100
AcDbEntity
  8
0-0
  6
JWW_DASHED1
 62
   120
370
     5
100
AcDbLine
 10
-862.7448094835624
 20
-676.4795734549721
 30
0.0
 11
-634.7448094835618
 21
-448.4795734549733
 31
0.0
  0
LINE
  5
234
330
1F
100
AcDbEntity
  8
0-0
  6
JWW_DASHED1
 62
   120
370
     5
100
AcDbLine
 10
-862.7448094835522
 20
-690.6217090786954
 30
0.0
 11
-634.744809483555
 21
-462.621709078699
 31
0.0
  0
LINE
  5
235
330
1F
100
AcDbEntity
  8
0-0
  6
JWW_DASHED1
 62
   120
370
     5
100
AcDbLine
 10
-862.7448094835556
 20
-704.7638447024328
 30
0.0
 11
-634.7448094835413
 21
-476.7638447024204
 31
0.0
  0
LINE
  5
236
330
1F
100
AcDbEntity
  8
0-0
  6
JWW_DASHED1
 62
   120
370
     5
100
AcDbLine
 10
-862.7448094835556
 20
-718.9059803261116
 30
0.0
 11
-634.7448094835584
 21
-490.9059803261147
 31
0.0
  0
LINE
  5
237
330
1F
100
AcDbEntity
  8
0-0
  6
JWW_DASHED1
 62
   120
370
     5
100
AcDbLine
 10
-862.744809483559
 20
-733.0481159498488
 30
0.0
 11
-634.7448094835481
 21
-505.0481159498361
 31
0.0
  0
LINE
  5
238
330
1F
100
AcDbEntity
  8
0-0
  6
JWW_DASHED1
 62
   120
370
     5
100
AcDbLine
 10
-862.7448094835624
 20
-747.1902515735846
 30
0.0
 11
-634.7448094835618
 21
-519.1902515735861
 31
0.0
  0
LINE
  5
239
330
1F
100
AcDbEntity
  8
0-0
  6
JWW_DASHED1
 62
   120
370
     5
100
AcDbLine
 10
-862.7448094835522
 20
-761.3323871973073
 30
0.0
 11
-634.744809483555
 21
-533.3323871973109
 31
0.0
  0
LINE
  5
23A
330
1F
100
AcDbEntity
  8
0-0
  6
JWW_DASHED1
 62
   120
370
     5
100
AcDbLine
 10
-862.7448094835556
 20
-775.4745228210447
 30
0.0
 11
-634.7448094835413
 21
-547.4745228210323
 31
0.0
  0
LINE
  5
23B
330
1F
100
AcDbEntity
  8
0-0
  6
JWW_DASHED1
 62
   120
370
     5
100
AcDbLine
 10
-862.744809483559
 20
-789.6166584447824
 30
0.0
 11
-634.7448094835618
 21
-561.6166584447855
 31
0.0
  0
LINE
  5
23C
330
1F
100
AcDbEntity
  8
0-0
  6
JWW_DASHED1
 62
   120
370
     5
100
AcDbLine
 10
-862.7448094835488
 20
-803.7587940685037
 30
0.0
 11
-634.7448094835515
 21
-575.7587940685069
 31
0.0
  0
LINE
  5
23D
330
1F
100
AcDbEntity
  8
0-0
  6
JWW_DASHED1
 62
   120
370
     5
100
AcDbLine
 10
-862.7448094835659
 20
-817.9009296922559
 30
0.0
 11
-634.7448094835515
 21
-589.9009296922416
 31
0.0
  0
LINE
  5
23E
330
1F
100
AcDbEntity
  8
0-0
  6
JWW_DASHED1
 62
   120
370
     5
100
AcDbLine
 10
-862.7448094835556
 20
-832.0430653159781
 30
0.0
 11
-634.7448094835584
 21
-604.0430653159817
 31
0.0
  0
LINE
  5
23F
330
1F
100
AcDbEntity
  8
0-0
  6
JWW_DASHED1
 62
   120
370
     5
100
AcDbLine
 10
-862.744809483559
 20
-846.1852009397157
 30
0.0
 11
-634.7448094835481
 21
-618.185200939703
 31
0.0
  0
LINE
  5
240
330
1F
100
AcDbEntity
  8
0-0
  6
JWW_DASHED1
 62
   120
370
     5
100
AcDbLine
 10
-862.7448094835624
 20
-860.3273365634525
 30
0.0
 11
-634.7448094835481
 21
-632.3273365634382
 31
0.0
  0
LINE
  5
241
330
1F
100
AcDbEntity
  8
0-0
  6
JWW_DASHED1
 62
   120
370
     5
100
AcDbLine
 10
-862.7448094835522
 20
-874.4694721871745
 30
0.0
 11
-634.744809483555
 21
-646.4694721871779
 31
0.0
  0
LINE
  5
242
330
1F
100
AcDbEntity
  8
0-0
  6
JWW_DASHED1
 62
   120
370
     5
100
AcDbLine
 10
-862.7448094835556
 20
-888.6116078109121
 30
0.0
 11
-634.7448094835447
 21
-660.6116078108995
 31
0.0
  0
LINE
  5
243
330
1F
100
AcDbEntity
  8
0-0
  6
JWW_DASHED1
 62
   120
370
     5
100
AcDbLine
 10
-862.744809483559
 20
-902.7537434346491
 30
0.0
 11
-634.7448094835618
 21
-674.7537434346526
 31
0.0
  0
LINE
  5
244
330
1F
100
AcDbEntity
  8
0-0
  6
JWW_DASHED1
 62
   120
370
     5
100
AcDbLine
 10
-862.7448094835488
 20
-916.8958790583705
 30
0.0
 11
-634.7448094835515
 21
-688.8958790583742
 31
0.0
  0
LINE
  5
245
330
1F
100
AcDbEntity
  8
0-0
  6
JWW_DASHED1
 62
   120
370
     5
100
AcDbLine
 10
-862.7448094835659
 20
-931.0380146821238
 30
0.0
 11
-634.744809483555
 21
-703.0380146821095
 31
0.0
  0
LINE
  5
246
330
1F
100
AcDbEntity
  8
0-0
  6
JWW_DASHED1
 62
   120
370
     5
100
AcDbLine
 10
-852.4047395777989
 20
-934.8400804000895
 30
0.0
 11
-634.7448094835584
 21
-717.1801503058485
 31
0.0
  0
LINE
  5
247
330
1F
100
AcDbEntity
  8
0-0
  6
JWW_DASHED1
 62
   120
370
     5
100
AcDbLine
 10
-838.2626039540655
 20
-934.840080400087
 30
0.0
 11
-634.7448094835481
 21
-731.3222859295702
 31
0.0
  0
LINE
  5
248
330
1F
100
AcDbEntity
  8
0-0
  6
JWW_DASHED1
 62
   120
370
     5
100
AcDbLine
 10
-824.1204683303288
 20
-934.8400804000837
 30
0.0
 11
-634.7448094835481
 21
-745.4644215533061
 31
0.0
  0
LINE
  5
249
330
1F
100
AcDbEntity
  8
0-0
  6
JWW_DASHED1
 62
   120
370
     5
100
AcDbLine
 10
-809.9783327066023
 20
-934.8400804000923
 30
0.0
 11
-634.744809483555
 21
-759.606557177045
 31
0.0
  0
LINE
  5
24A
330
1F
100
AcDbEntity
  8
0-0
  6
JWW_DASHED1
 62
   120
370
     5
100
AcDbLine
 10
-795.8361970828723
 20
-934.8400804000936
 30
0.0
 11
-634.7448094835447
 21
-773.7486928007663
 31
0.0
  0
LINE
  5
24B
330
1F
100
AcDbEntity
  8
0-0
  6
JWW_DASHED1
 62
   120
370
     5
100
AcDbLine
 10
-781.6940614591288
 20
-934.8400804000846
 30
0.0
 11
-634.7448094835618
 21
-787.8908284245196
 31
0.0
  0
LINE
  5
24C
330
1F
100
AcDbEntity
  8
0-0
  6
JWW_DASHED1
 62
   120
370
     5
100
AcDbLine
 10
-767.5519258354057
 20
-934.8400804000961
 30
0.0
 11
-634.7448094835515
 21
-802.0329640482412
 31
0.0
  0
LINE
  5
24D
330
1F
100
AcDbEntity
  8
0-0
  6
JWW_DASHED1
 62
   120
370
     5
100
AcDbLine
 10
-753.4097902116621
 20
-934.8400804000837
 30
0.0
 11
-634.744809483555
 21
-816.1750996719775
 31
0.0
  0
LINE
  5
24E
330
1F
100
AcDbEntity
  8
0-0
  6
JWW_DASHED1
 62
   120
370
     5
100
AcDbLine
 10
-739.2676545879322
 20
-934.8400804000876
 30
0.0
 11
-634.7448094835584
 21
-830.3172352957157
 31
0.0
  0
LINE
  5
24F
330
1F
100
AcDbEntity
  8
0-0
  6
JWW_DASHED1
 62
   120
370
     5
100
AcDbLine
 10
-725.1255189642056
 20
-934.8400804000931
 30
0.0
 11
-634.7448094835481
 21
-844.4593709194373
 31
0.0
  0
LINE
  5
250
330
1F
100
AcDbEntity
  8
0-0
  6
JWW_DASHED1
 62
   120
370
     5
100
AcDbLine
 10
-710.9833833404655
 20
-934.84008040009
 30
0.0
 11
-634.7448094835515
 21
-858.6015065431739
 31
0.0
  0
LINE
  5
251
330
1F
100
AcDbEntity
  8
0-0
  6
JWW_DASHED1
 62
   120
370
     5
100
AcDbLine
 10
-696.8412477167662
 20
-934.8400804000931
 30
0.0
 11
-634.744809483555
 21
-872.7436421668826
 31
0.0
  0
LINE
  5
252
330
1F
100
AcDbEntity
  8
0-0
  6
JWW_DASHED1
 62
   120
370
     5
100
AcDbLine
 10
-682.6991120930534
 20
-934.840080400088
 30
0.0
 11
-634.744809483555
 21
-886.88577779059
 31
0.0
  0
LINE
  5
253
330
1F
100
AcDbEntity
  8
0-0
  6
JWW_DASHED1
 62
   120
370
     5
100
AcDbLine
 10
-668.55697646932
 20
-934.8400804000871
 30
0.0
 11
-634.7448094835584
 21
-901.0279134143276
 31
0.0
  0
LINE
  5
254
330
1F
100
AcDbEntity
  8
0-0
  6
JWW_DASHED1
 62
   120
370
     5
100
AcDbLine
 10
-654.4148408455969
 20
-934.8400804000973
 30
0.0
 11
-634.7448094835481
 21
-915.1700490380492
 31
0.0
  0
LINE
  5
255
330
1F
100
AcDbEntity
  8
0-0
  6
JWW_DASHED1
 62
   120
370
     5
100
AcDbLine
 10
-640.2727052218602
 20
-934.8400804000939
 30
0.0
 11
-634.7448094835515
 21
-929.3121846617864
 31
0.0
  0
LINE
  5
256
330
1F
100
AcDbEntity
  8
0-0
  6
Continuous
 62
     7
370
     9
100
AcDbLine
 10
-862.744809483559
 20
-934.8400804000861
 30
0.0
 11
-634.7448094835618
 21
-934.8400804000861
 31
0.0
  0
LWPOLYLINE
  5
257
330
1F
100
AcDbEntity
  8
寸法
  6
Continuous
 62
     7
370
     9
100
AcDbPolyline
 90
        4
 70
     1
 43
3.0
 10
1217.75519051644
 20
-1212.840080400086
 42
0.4142135623731
 10
1216.25519051644
 20
-1211.340080400086
 42
0.4142135623731
 10
1214.75519051644
 20
-1212.840080400086
 42
0.4142135623731
 10
1216.25519051644
 20
-1214.340080400085
 42
0.4142135623731
  0
LWPOLYLINE
  5
258
330
1F
100
AcDbEntity
  8
寸法
  6
Continuous
 62
     7
370
     9
100
AcDbPolyline
 90
        4
 70
     1
 43
3.0
 10
407.7551905164396
 20
-1212.840080400086
 42
0.4142135623731
 10
406.2551905164396
 20
-1211.340080400086
 42
0.4142135623731
 10
404.7551905164395
 20
-1212.840080400086
 42
0.4142135623731
 10
406.2551905164396
 20
-1214.340080400085
 42
0.4142135623731
  0
LWPOLYLINE
  5
259
330
1F
100
AcDbEntity
  8
寸法
  6
Continuous
 62
     7
370
     9
100
AcDbPolyline
 90
        4
 70
     1
 43
3.0
 10
1244.755190516439
 20
-1612.840080400086
 42
0.4142135623731
 10
1243.255190516439
 20
-1611.340080400086
 42
0.4142135623731
 10
1241.755190516439
 20
-1612.840080400086
 42
0.4142135623731
 10
1243.255190516439
 20
-1614.340080400086
 42
0.4142135623731
  0
LWPOLYLINE
  5
25A
330
1F
100
AcDbEntity
  8
寸法
  6
Continuous
 62
     7
370
     9
100
AcDbPolyline
 90
        4
 70
     1
 43
3.0
 10
1214.755190516439
 20
-1412.840080400086
 42
0.4142135623731
 10
1213.255190516439
 20
-1411.340080400086
 42
0.4142135623731
 10
1211.755190516439
 20
-1412.840080400086
 42
0.4142135623731
 10
1213.255190516439
 20
-1414.340080400086
 42
0.4142135623731
  0
LWPOLYLINE
  5
25B
330
1F
100
AcDbEntity
  8
寸法
  6
Continuous
 62
     7
370
     9
100
AcDbPolyline
 90
        4
 70
     1
 43
3.0
 10
-1179.24480948356
 20
-1612.840080400087
 42
0.4142135623731
 10
-1180.74480948356
 20
-1611.340080400087
 42
0.4142135623731
 10
-1182.244809483559
 20
-1612.840080400087
 42
0.4142135623731
 10
-1180.74480948356
 20
-1614.340080400086
 42
0.4142135623731
  0
LWPOLYLINE
  5
25C
330
1F
100
AcDbEntity
  8
寸法
  6
Continuous
 62
     7
370
     9
100
AcDbPolyline
 90
        4
 70
     1
 43
3.0
 10
-1149.24480948356
 20
-1412.840080400086
 42
0.4142135623731
 10
-1150.74480948356
 20
-1411.340080400086
 42
0.4142135623731
 10
-1152.244809483559
 20
-1412.840080400086
 42
0.4142135623731
 10
-1150.74480948356
 20
-1414.340080400086
 42
0.4142135623731
  0
LINE
  5
25D
330
1F
100
AcDbEntity
  8
寸法
  6
Continuous
 62
   120
370
     5
100
AcDbLine
 10
1216.25519051644
 20
-1212.840080400086
 30
0.0
 11
406.2551905164396
 21
-1212.840080400086
 31
0.0
  0
LINE
  5
25E
330
1F
100
AcDbEntity
  8
寸法
  6
Continuous
 62
   120
370
     5
100
AcDbLine
 10
1216.25519051644
 20
-1212.840080400086
 30
0.0
 11
1216.25519051644
 21
-1012.840080400087
 31
0.0
  0
LINE
  5
25F
330
1F
100
AcDbEntity
  8
寸法
  6
Continuous
 62
   120
370
     5
100
AcDbLine
 10
406.2551905164396
 20
-1212.840080400086
 30
0.0
 11
406.2551905164396
 21
-1012.840080400087
 31
0.0
  0
LINE
  5
260
330
1F
100
AcDbEntity
  8
寸法
  6
Continuous
 62
   120
370
     5
100
AcDbLine
 10
1243.255190516439
 20
-1612.840080400086
 30
0.0
 11
1243.255190516439
 21
-1012.840080400087
 31
0.0
  0
LINE
  5
261
330
1F
100
AcDbEntity
  8
寸法
  6
Continuous
 62
   120
370
     5
100
AcDbLine
 10
-1180.74480948356
 20
-1612.840080400087
 30
0.0
 11
1243.255190516439
 21
-1612.840080400086
 31
0.0
  0
LINE
  5
262
330
1F
100
AcDbEntity
  8
寸法
  6
Continuous
 62
   120
370
     5
100
AcDbLine
 10
1213.255190516439
 20
-1412.840080400086
 30
0.0
 11
1213.255190516439
 21
-1012.840080400087
 31
0.0
  0
LINE
  5
263
330
1F
100
AcDbEntity
  8
寸法
  6
Continuous
 62
   120
370
     5
100
AcDbLine
 10
-1150.74480948356
 20
-1412.840080400086
 30
0.0
 11
1213.255190516439
 21
-1412.840080400086
 31
0.0
  0
LINE
  5
264
330
1F
100
AcDbEntity
  8
寸法
  6
Continuous
 62
   120
370
     5
100
AcDbLine
 10
-1180.74480948356
 20
-1612.840080400087
 30
0.0
 11
-1180.74480948356
 21
-1012.840080400087
 31
0.0
  0
LINE
  5
265
330
1F
100
AcDbEntity
  8
寸法
  6
Continuous
 62
   120
370
     5
100
AcDbLine
 10
-1150.74480948356
 20
-1412.840080400086
 30
0.0
 11
-1150.74480948356
 21
-1012.840080400087
 31
0.0
  0
LINE
  5
266
330
1F
100
AcDbEntity
  8
寸法
  6
Continuous
 62
   120
370
     5
100
AcDbLine
 10
-1430.744809483561
 20
1040.159919599914
 30
0.0
 11
-1230.744809483562
 21
1040.159919599914
 31
0.0
  0
LINE
  5
267
330
1F
100
AcDbEntity
  8
寸法
  6
Continuous
 62
   120
370
     5
100
AcDbLine
 10
-1430.744809483561
 20
1040.159919599914
 30
0.0
 11
-1430.744809483561
 21
-942.8400804000854
 31
0.0
  0
LWPOLYLINE
  5
268
330
1F
100
AcDbEntity
  8
寸法
  6
Continuous
 62
     7
370
     9
100
AcDbPolyline
 90
        4
 70
     1
 43
3.0
 10
-1429.244809483561
 20
1040.159919599914
 42
0.4142135623731
 10
-1430.744809483561
 20
1041.659919599913
 42
0.4142135623731
 10
-1432.244809483561
 20
1040.159919599914
 42
0.4142135623731
 10
-1430.744809483561
 20
1038.659919599914
 42
0.4142135623731
  0
LWPOLYLINE
  5
269
330
1F
100
AcDbEntity
  8
寸法
  6
Continuous
 62
     7
370
     9
100
AcDbPolyline
 90
        4
 70
     1
 43
3.0
 10
-1429.244809483561
 20
-942.8400804000854
 42
0.4142135623731
 10
-1430.744809483561
 20
-941.3400804000854
 42
0.4142135623731
 10
-1432.244809483561
 20
-942.8400804000854
 42
0.4142135623731
 10
-1430.744809483561
 20
-944.3400804000854
 42
0.4142135623731
  0
LWPOLYLINE
  5
26A
330
1F
100
AcDbEntity
  8
寸法
  6
Continuous
 62
     7
370
     9
100
AcDbPolyline
 90
        4
 70
     1
 43
3.0
 10
-1629.244809483561
 20
-962.840080400086
 42
0.4142135623731
 10
-1630.744809483561
 20
-961.3400804000861
 42
0.4142135623731
 10
-1632.244809483561
 20
-962.840080400086
 42
0.4142135623731
 10
-1630.744809483561
 20
-964.340080400086
 42
0.4142135623731
  0
LINE
  5
26B
330
1F
100
AcDbEntity
  8
寸法
  6
Continuous
 62
   120
370
     5
100
AcDbLine
 10
-1430.744809483561
 20
-942.8400804000854
 30
0.0
 11
-1230.744809483562
 21
-942.8400804000854
 31
0.0
  0
LINE
  5
26C
330
1F
100
AcDbEntity
  8
寸法
  6
Continuous
 62
   120
370
     5
100
AcDbLine
 10
-1630.744809483561
 20
-962.840080400086
 30
0.0
 11
-1230.744809483562
 21
-962.840080400086
 31
0.0
  0
LINE
  5
26D
330
1F
100
AcDbEntity
  8
寸法
  6
Continuous
 62
   120
370
     5
100
AcDbLine
 10
-1630.744809483561
 20
1084.159919599914
 30
0.0
 11
-1630.744809483561
 21
-962.840080400086
 31
0.0
  0
LINE
  5
26E
330
1F
100
AcDbEntity
  8
寸法
  6
Continuous
 62
   120
370
     5
100
AcDbLine
 10
-1630.744809483561
 20
1084.159919599914
 30
0.0
 11
-1230.744809483562
 21
1084.159919599914
 31
0.0
  0
LWPOLYLINE
  5
26F
330
1F
100
AcDbEntity
  8
寸法
  6
Continuous
 62
     7
370
     9
100
AcDbPolyline
 90
        4
 70
     1
 43
3.0
 10
-1629.244809483561
 20
1084.159919599914
 42
0.4142135623731
 10
-1630.744809483561
 20
1085.659919599914
 42
0.4142135623731
 10
-1632.244809483561
 20
1084.159919599914
 42
0.4142135623731
 10
-1630.744809483561
 20
1082.659919599914
 42
0.4142135623731
  0
MTEXT
  5
270
330
1F
100
AcDbEntity
  8
寸法
  6
Continuous
 62
     7
370
    70
100
AcDbMText
 10
-1645.744809483561
 20
-154.5150804000858
 30
0.0
 40
57.14999999999999
 41
412.5
 46
0.0
 71
     7
 72
     1
  1
{\fＭＳ ゴシック|b0|i0|c128|p49;枠外＝2,047}
 11
6.123031769111886E-17
 21
1.0
 31
0.0
 73
     1
 44
1.0
  0
MTEXT
  5
271
330
1F
100
AcDbEntity
  8
寸法
  6
Continuous
 62
     7
370
    70
100
AcDbMText
 10
-1445.744809483561
 20
-160.5150804000855
 30
0.0
 40
57.14999999999999
 41
412.5
 46
0.0
 71
     7
 72
     1
  1
{\fＭＳ ゴシック|b0|i0|c128|p49;ＤＨ＝1,983}
 11
6.123031769111886E-17
 21
1.0
 31
0.0
 73
     1
 44
1.0
  0
MTEXT
  5
272
330
1F
100
AcDbEntity
  8
寸法
  6
Continuous
 62
     7
370
   211
100
AcDbMText
 10
642.5051905164396
 20
-1206.765080400085
 30
0.0
 40
57.15
 41
337.5
 46
0.0
 71
     7
 72
     1
  1
{\fＭＳ ゴシック|b0|i0|c128|p49;ＤＷ＝810}
 73
     1
 44
1.0
  0
MTEXT
  5
273
330
1F
100
AcDbEntity
  8
寸法
  6
Continuous
 62
     7
370
   211
100
AcDbMText
 10
-174.9948094835604
 20
-1406.765080400086
 30
0.0
 40
57.14999999999999
 41
412.5
 46
0.0
 71
     7
 72
     1
  1
{\fＭＳ ゴシック|b0|i0|c128|p49;枠内＝2,364}
 73
     1
 44
1.0
  0
MTEXT
  5
274
330
1F
100
AcDbEntity
  8
寸法
  6
Continuous
 62
     7
370
   211
100
AcDbMText
 10
-174.9948094835604
 20
-1606.765080400087
 30
0.0
 40
57.14999999999999
 41
412.5
 46
0.0
 71
     7
 72
     1
  1
{\fＭＳ ゴシック|b0|i0|c128|p49;枠外＝2,424}
 73
     1
 44
1.0
  0
ENDSEC
  0
SECTION
  2
OBJECTS
  0
DICTIONARY
  5
C
330
0
100
AcDbDictionary
281
     1
  3
ACAD_GROUP
350
D
  3
ACAD_LAYOUT
350
1A
  3
ACAD_MATERIAL
350
3B
  3
ACAD_MLEADERSTYLE
350
276
  3
ACAD_MLINESTYLE
350
17
  3
ACAD_PLOTSETTINGS
350
19
  3
ACAD_PLOTSTYLENAME
350
E
  3
ACAD_TABLESTYLE
350
275
  3
ACAD_VISUALSTYLE
350
2A
  0
DICTIONARY
  5
D
102
{ACAD_REACTORS
330
C
102
}
330
C
100
AcDbDictionary
281
     1
  0
DICTIONARY
  5
1A
102
{ACAD_REACTORS
330
C
102
}
330
C
100
AcDbDictionary
281
     1
  3
Layout1
350
1E
  3
Layout2
350
26
  3
Model
350
22
  0
DICTIONARY
  5
3B
102
{ACAD_REACTORS
330
C
102
}
330
C
100
AcDbDictionary
281
     1
  3
ByBlock
350
3D
  3
ByLayer
350
3C
  3
Global
350
3E
  0
DICTIONARY
  5
276
102
{ACAD_REACTORS
330
C
102
}
330
C
100
AcDbDictionary
281
     1
  0
DICTIONARY
  5
17
102
{ACAD_REACTORS
330
C
102
}
330
C
100
AcDbDictionary
281
     1
  3
Standard
350
18
  0
DICTIONARY
  5
19
102
{ACAD_REACTORS
330
C
102
}
330
C
100
AcDbDictionary
281
     1
  0
ACDBDICTIONARYWDFLT
  5
E
102
{ACAD_REACTORS
330
C
102
}
330
C
100
AcDbDictionary
281
     1
  3
Normal
350
F
100
AcDbDictionaryWithDefault
340
F
  0
DICTIONARY
  5
275
102
{ACAD_REACTORS
330
C
102
}
330
C
100
AcDbDictionary
281
     1
  0
DICTIONARY
  5
2A
102
{ACAD_REACTORS
330
C
102
}
330
C
100
AcDbDictionary
281
     1
  3
2dWireframe
350
2F
  3
3D Hidden
350
31
  3
3dWireframe
350
30
  3
Basic
350
32
  3
Brighten
350
36
  3
ColorChange
350
3A
  3
Conceptual
350
34
  3
Dim
350
35
  3
Facepattern
350
39
  3
Flat
350
2B
  3
FlatWithEdges
350
2C
  3
Gouraud
350
2D
  3
GouraudWithEdges
350
2E
  3
Linepattern
350
38
  3
Realistic
350
33
  3
Thicken
350
37
  0
LAYOUT
  5
1E
102
{ACAD_REACTORS
330
1A
102
}
330
1A
100
AcDbPlotSettings
  1

  2
none_device
  4

  6

 40
0.0
 41
0.0
 42
0.0
 43
0.0
 44
0.0
 45
0.0
 46
0.0
 47
0.0
 48
0.0
 49
0.0
140
0.0
141
0.0
142
1.0
143
1.0
 70
   688
 72
     0
 73
     0
 74
     5
  7

 75
    16
 76
     0
 77
     5
 78
   300
147
1.0
148
0.0
149
0.0
100
AcDbLayout
  1
Layout1
 70
     1
 71
     1
 10
0.0
 20
0.0
 11
420.0
 21
297.0
 12
0.0
 22
0.0
 32
0.0
 14
1.000000000000000E+20
 24
1.000000000000000E+20
 34
1.000000000000000E+20
 15
-1.000000000000000E+20
 25
-1.000000000000000E+20
 35
-1.000000000000000E+20
146
0.0
 13
0.0
 23
0.0
 33
0.0
 16
1.0
 26
0.0
 36
0.0
 17
0.0
 27
1.0
 37
0.0
 76
     0
330
1B
  0
LAYOUT
  5
26
102
{ACAD_REACTORS
330
1A
102
}
330
1A
100
AcDbPlotSettings
  1

  2
none_device
  4

  6

 40
0.0
 41
0.0
 42
0.0
 43
0.0
 44
0.0
 45
0.0
 46
0.0
 47
0.0
 48
0.0
 49
0.0
140
0.0
141
0.0
142
1.0
143
1.0
 70
   688
 72
     0
 73
     0
 74
     5
  7

 75
    16
 76
     0
 77
     5
 78
   300
147
1.0
148
0.0
149
0.0
100
AcDbLayout
  1
Layout2
 70
     1
 71
     2
 10
0.0
 20
0.0
 11
0.0
 21
0.0
 12
0.0
 22
0.0
 32
0.0
 14
0.0
 24
0.0
 34
0.0
 15
0.0
 25
0.0
 35
0.0
146
0.0
 13
0.0
 23
0.0
 33
0.0
 16
1.0
 26
0.0
 36
0.0
 17
0.0
 27
1.0
 37
0.0
 76
     0
330
23
  0
LAYOUT
  5
22
102
{ACAD_REACTORS
330
1A
102
}
330
1A
100
AcDbPlotSettings
  1

  2
none_device
  4

  6

 40
0.0
 41
0.0
 42
0.0
 43
0.0
 44
0.0
 45
0.0
 46
0.0
 47
0.0
 48
0.0
 49
0.0
140
0.0
141
0.0
142
1.0
143
1.0
 70
  1712
 72
     0
 73
     0
 74
     0
  7

 75
     0
 76
     0
 77
     5
 78
   300
147
1.0
148
0.0
149
0.0
100
AcDbLayout
  1
Model
 70
     1
 71
     0
 10
-4455.0
 20
-3150.0
 11
4455.0
 21
3150.0
 12
0.0
 22
0.0
 32
0.0
 14
-4455.0
 24
-3150.0
 34
0.0
 15
4455.0
 25
3150.0
 35
0.0
146
0.0
 13
0.0
 23
0.0
 33
0.0
 16
1.0
 26
0.0
 36
0.0
 17
0.0
 27
1.0
 37
0.0
 76
     0
330
1F
331
29
  0
MATERIAL
  5
3D
102
{ACAD_REACTORS
330
3B
102
}
330
3B
100
AcDbMaterial
  1
ByBlock
 72
     1
 94
      127
  0
MATERIAL
  5
3C
102
{ACAD_REACTORS
330
3B
102
}
330
3B
100
AcDbMaterial
  1
ByLayer
 72
     1
 94
      127
  0
MATERIAL
  5
3E
102
{ACAD_REACTORS
330
3B
102
}
330
3B
100
AcDbMaterial
  1
Global
 72
     1
 94
      127
  0
MLINESTYLE
  5
18
102
{ACAD_REACTORS
330
17
102
}
330
17
100
AcDbMlineStyle
  2
Standard
 70
     0
  3

 62
   256
 51
90.0
 52
90.0
 71
     2
 49
0.5
 62
   256
  6
BYLAYER
 49
-0.5
 62
   256
  6
BYLAYER
  0
ACDBPLACEHOLDER
  5
F
102
{ACAD_REACTORS
330
E
102
}
330
E
  0
VISUALSTYLE
  5
2F
102
{ACAD_REACTORS
330
2A
102
}
330
2A
100
AcDbVisualStyle
  2
2dWireframe
 70
     4
177
     2
291
     0
 71
     0
176
     1
 72
     2
176
     1
 73
     0
176
     1
 90
        0
176
     1
 40
-0.6
176
     1
 41
-30.0
176
     1
 62
     5
 63
     7
421
 16777215
176
     1
 74
     1
176
     1
 91
        4
176
     1
 64
     7
176
     1
 65
   257
176
     1
 75
     1
176
     1
175
     1
176
     1
 42
1.0
176
     1
 92
        0
176
     1
 66
   257
176
     1
 43
1.0
176
     1
 76
     1
176
     1
 77
     6
176
     1
 78
     2
176
     1
 67
     7
176
     1
 79
     5
176
     1
170
     0
176
     1
171
     0
176
     1
290
     0
176
     1
 93
        1
176
     1
 44
0.0
176
     1
173
     0
176
     1
  0
VISUALSTYLE
  5
31
102
{ACAD_REACTORS
330
2A
102
}
330
2A
100
AcDbVisualStyle
  2
3D Hidden
 70
     6
177
     2
291
     0
 71
     1
176
     1
 72
     2
176
     1
 73
     2
176
     1
 90
        0
176
     1
 40
-0.6
176
     1
 41
-30.0
176
     1
 62
     5
 63
     7
421
 16777215
176
     1
 74
     2
176
     1
 91
        2
176
     1
 64
     7
176
     1
 65
   257
176
     1
 75
     2
176
     1
175
     1
176
     1
 42
40.0
176
     1
 92
        0
176
     1
 66
   257
176
     1
 43
1.0
176
     1
 76
     1
176
     1
 77
     6
176
     1
 78
     2
176
     1
 67
     7
176
     1
 79
     3
176
     1
170
     0
176
     1
171
     0
176
     1
290
     0
176
     1
 93
        1
176
     1
 44
0.0
176
     1
173
     0
176
     1
  0
VISUALSTYLE
  5
30
102
{ACAD_REACTORS
330
2A
102
}
330
2A
100
AcDbVisualStyle
  2
3dWireframe
 70
     5
177
     2
291
     0
 71
     0
176
     1
 72
     2
176
     1
 73
     0
176
     1
 90
        0
176
     1
 40
-0.6
176
     1
 41
-30.0
176
     1
 62
     5
 63
     7
421
 16777215
176
     1
 74
     1
176
     1
 91
        4
176
     1
 64
     7
176
     1
 65
   257
176
     1
 75
     1
176
     1
175
     1
176
     1
 42
1.0
176
     1
 92
        0
176
     1
 66
   257
176
     1
 43
1.0
176
     1
 76
     1
176
     1
 77
     6
176
     1
 78
     2
176
     1
 67
     7
176
     1
 79
     5
176
     1
170
     0
176
     1
171
     0
176
     1
290
     0
176
     1
 93
        1
176
     1
 44
0.0
176
     1
173
     0
176
     1
  0
VISUALSTYLE
  5
32
102
{ACAD_REACTORS
330
2A
102
}
330
2A
100
AcDbVisualStyle
  2
Basic
 70
     7
177
     2
291
     1
 71
     1
176
     1
 72
     0
176
     1
 73
     1
176
     1
 90
        0
176
     1
 40
-0.6
176
     1
 41
-30.0
176
     1
 62
     5
 63
     7
421
 16777215
176
     1
 74
     0
176
     1
 91
        4
176
     1
 64
     7
176
     1
 65
   257
176
     1
 75
     1
176
     1
175
     1
176
     1
 42
1.0
176
     1
 92
        8
176
     1
 66
     7
176
     1
 43
1.0
176
     1
 76
     1
176
     1
 77
     6
176
     1
 78
     2
176
     1
 67
     7
176
     1
 79
     5
176
     1
170
     0
176
     1
171
     0
176
     1
290
     0
176
     1
 93
        1
176
     1
 44
0.0
176
     1
173
     0
176
     1
  0
VISUALSTYLE
  5
36
102
{ACAD_REACTORS
330
2A
102
}
330
2A
100
AcDbVisualStyle
  2
Brighten
 70
    12
177
     2
291
     1
 71
     2
176
     1
 72
     2
176
     1
 73
     0
176
     1
 90
        0
176
     1
 40
-0.6
176
     1
 41
-30.0
176
     1
 62
     5
 63
     7
421
 16777215
176
     1
 74
     1
176
     1
 91
        4
176
     1
 64
     7
176
     1
 65
   257
176
     1
 75
     1
176
     1
175
     1
176
     1
 42
1.0
176
     1
 92
        8
176
     1
 66
     7
176
     1
 43
1.0
176
     1
 76
     1
176
     1
 77
     6
176
     1
 78
     2
176
     1
 67
     7
176
     1
 79
     5
176
     1
170
     0
176
     1
171
     0
176
     1
290
     0
176
     1
 93
        1
176
     1
 44
50.0
176
     1
173
     0
176
     1
  0
VISUALSTYLE
  5
3A
102
{ACAD_REACTORS
330
2A
102
}
330
2A
100
AcDbVisualStyle
  2
ColorChange
 70
    16
177
     2
291
     1
 71
     2
176
     1
 72
     2
176
     1
 73
     3
176
     1
 90
        0
176
     1
 40
-0.6
176
     1
 41
-30.0
176
     1
 62
     5
 63
     8
421
  8421504
176
     1
 74
     1
176
     1
 91
        4
176
     1
 64
     7
176
     1
 65
   257
176
     1
 75
     1
176
     1
175
     1
176
     1
 42
1.0
176
     1
 92
        8
176
     1
 66
     8
424
  8421504
176
     1
 43
1.0
176
     1
 76
     1
176
     1
 77
     6
176
     1
 78
     2
176
     1
 67
     7
176
     1
 79
     5
176
     1
170
     0
176
     1
171
     0
176
     1
290
     0
176
     1
 93
        1
176
     1
 44
0.0
176
     1
173
     0
176
     1
  0
VISUALSTYLE
  5
34
102
{ACAD_REACTORS
330
2A
102
}
330
2A
100
AcDbVisualStyle
  2
Conceptual
 70
     9
177
     2
291
     0
 71
     3
176
     1
 72
     2
176
     1
 73
     0
176
     1
 90
        0
176
     1
 40
-0.6
176
     1
 41
-30.0
176
     1
 62
     5
 63
     7
421
 16777215
176
     1
 74
     2
176
     1
 91
        2
176
     1
 64
     7
176
     1
 65
   257
176
     1
 75
     1
176
     1
175
     1
176
     1
 42
40.0
176
     1
 92
        8
176
     1
 66
     7
176
     1
 43
1.0
176
     1
 76
     1
176
     1
 77
     6
176
     1
 78
     2
176
     1
 67
     7
176
     1
 79
     3
176
     1
170
     0
176
     1
171
     0
176
     1
290
     0
176
     1
 93
        1
176
     1
 44
0.0
176
     1
173
     0
176
     1
  0
VISUALSTYLE
  5
35
102
{ACAD_REACTORS
330
2A
102
}
330
2A
100
AcDbVisualStyle
  2
Dim
 70
    11
177
     2
291
     1
 71
     2
176
     1
 72
     2
176
     1
 73
     0
176
     1
 90
        0
176
     1
 40
-0.6
176
     1
 41
-30.0
176
     1
 62
     5
 63
     7
421
 16777215
176
     1
 74
     1
176
     1
 91
        4
176
     1
 64
     7
176
     1
 65
   257
176
     1
 75
     1
176
     1
175
     1
176
     1
 42
1.0
176
     1
 92
        8
176
     1
 66
     7
176
     1
 43
1.0
176
     1
 76
     1
176
     1
 77
     6
176
     1
 78
     2
176
     1
 67
     7
176
     1
 79
     5
176
     1
170
     0
176
     1
171
     0
176
     1
290
     0
176
     1
 93
        1
176
     1
 44
-50.0
176
     1
173
     0
176
     1
  0
VISUALSTYLE
  5
39
102
{ACAD_REACTORS
330
2A
102
}
330
2A
100
AcDbVisualStyle
  2
Facepattern
 70
    15
177
     2
291
     1
 71
     2
176
     1
 72
     2
176
     1
 73
     0
176
     1
 90
        0
176
     1
 40
-0.6
176
     1
 41
-30.0
176
     1
 62
     5
 63
     7
421
 16777215
176
     1
 74
     1
176
     1
 91
        4
176
     1
 64
     7
176
     1
 65
   257
176
     1
 75
     1
176
     1
175
     1
176
     1
 42
1.0
176
     1
 92
        8
176
     1
 66
     7
176
     1
 43
1.0
176
     1
 76
     1
176
     1
 77
     6
176
     1
 78
     2
176
     1
 67
     7
176
     1
 79
     5
176
     1
170
     0
176
     1
171
     0
176
     1
290
     0
176
     1
 93
        1
176
     1
 44
0.0
176
     1
173
     0
176
     1
  0
VISUALSTYLE
  5
2B
102
{ACAD_REACTORS
330
2A
102
}
330
2A
100
AcDbVisualStyle
  2
Flat
 70
     0
177
     2
291
     1
 71
     2
176
     1
 72
     1
176
     1
 73
     1
176
     1
 90
        2
176
     1
 40
-0.6
176
     1
 41
30.0
176
     1
 62
     5
 63
     7
421
 16777215
176
     1
 74
     0
176
     1
 91
        4
176
     1
 64
     7
176
     1
 65
   257
176
     1
 75
     1
176
     1
175
     1
176
     1
 42
1.0
176
     1
 92
        8
176
     1
 66
     7
176
     1
 43
1.0
176
     1
 76
     1
176
     1
 77
     6
176
     1
 78
     2
176
     1
 67
     7
176
     1
 79
     5
176
     1
170
     0
176
     1
171
     0
176
     1
290
     0
176
     1
 93
       13
176
     1
 44
0.0
176
     1
173
     0
176
     1
  0
VISUALSTYLE
  5
2C
102
{ACAD_REACTORS
330
2A
102
}
330
2A
100
AcDbVisualStyle
  2
FlatWithEdges
 70
     1
177
     2
291
     1
 71
     2
176
     1
 72
     1
176
     1
 73
     1
176
     1
 90
        2
176
     1
 40
-0.6
176
     1
 41
30.0
176
     1
 62
     5
 63
     7
421
 16777215
176
     1
 74
     1
176
     1
 91
        4
176
     1
 64
     7
176
     1
 65
   257
176
     1
 75
     1
176
     1
175
     1
176
     1
 42
1.0
176
     1
 92
        0
176
     1
 66
   257
176
     1
 43
1.0
176
     1
 76
     1
176
     1
 77
     6
176
     1
 78
     2
176
     1
 67
     7
176
     1
 79
     5
176
     1
170
     0
176
     1
171
     0
176
     1
290
     0
176
     1
 93
       13
176
     1
 44
0.0
176
     1
173
     0
176
     1
  0
VISUALSTYLE
  5
2D
102
{ACAD_REACTORS
330
2A
102
}
330
2A
100
AcDbVisualStyle
  2
Gouraud
 70
     2
177
     2
291
     1
 71
     2
176
     1
 72
     2
176
     1
 73
     1
176
     1
 90
        2
176
     1
 40
-0.6
176
     1
 41
30.0
176
     1
 62
     5
 63
     7
421
 16777215
176
     1
 74
     0
176
     1
 91
        4
176
     1
 64
     7
176
     1
 65
   257
176
     1
 75
     1
176
     1
175
     1
176
     1
 42
1.0
176
     1
 92
        0
176
     1
 66
     7
176
     1
 43
1.0
176
     1
 76
     1
176
     1
 77
     6
176
     1
 78
     2
176
     1
 67
     7
176
     1
 79
     5
176
     1
170
     0
176
     1
171
     0
176
     1
290
     0
176
     1
 93
       13
176
     1
 44
0.0
176
     1
173
     0
176
     1
  0
VISUALSTYLE
  5
2E
102
{ACAD_REACTORS
330
2A
102
}
330
2A
100
AcDbVisualStyle
  2
GouraudWithEdges
 70
     3
177
     2
291
     1
 71
     2
176
     1
 72
     2
176
     1
 73
     1
176
     1
 90
        2
176
     1
 40
-0.6
176
     1
 41
30.0
176
     1
 62
     5
 63
     7
421
 16777215
176
     1
 74
     1
176
     1
 91
        4
176
     1
 64
     7
176
     1
 65
   257
176
     1
 75
     1
176
     1
175
     1
176
     1
 42
1.0
176
     1
 92
        0
176
     1
 66
   257
176
     1
 43
1.0
176
     1
 76
     1
176
     1
 77
     6
176
     1
 78
     2
176
     1
 67
     7
176
     1
 79
     5
176
     1
170
     0
176
     1
171
     0
176
     1
290
     0
176
     1
 93
       13
176
     1
 44
0.0
176
     1
173
     0
176
     1
  0
VISUALSTYLE
  5
38
102
{ACAD_REACTORS
330
2A
102
}
330
2A
100
AcDbVisualStyle
  2
Linepattern
 70
    14
177
     2
291
     1
 71
     2
176
     1
 72
     2
176
     1
 73
     0
176
     1
 90
        0
176
     1
 40
-0.6
176
     1
 41
-30.0
176
     1
 62
     5
 63
     7
421
 16777215
176
     1
 74
     1
176
     1
 91
        4
176
     1
 64
     7
176
     1
 65
   257
176
     1
 75
     7
176
     1
175
     7
176
     1
 42
1.0
176
     1
 92
        8
176
     1
 66
     7
176
     1
 43
1.0
176
     1
 76
     1
176
     1
 77
     6
176
     1
 78
     2
176
     1
 67
     7
176
     1
 79
     5
176
     1
170
     0
176
     1
171
     0
176
     1
290
     0
176
     1
 93
        1
176
     1
 44
0.0
176
     1
173
     0
176
     1
  0
VISUALSTYLE
  5
33
102
{ACAD_REACTORS
330
2A
102
}
330
2A
100
AcDbVisualStyle
  2
Realistic
 70
     8
177
     2
291
     0
 71
     2
176
     1
 72
     2
176
     1
 73
     0
176
     1
 90
        0
176
     1
 40
-0.6
176
     1
 41
-30.0
176
     1
 62
     5
 63
     7
421
 16777215
176
     1
 74
     1
176
     1
 91
        0
176
     1
 64
     7
176
     1
 65
   257
176
     1
 75
     1
176
     1
175
     1
176
     1
 42
1.0
176
     1
 92
        8
176
     1
 66
     8
424
  7895160
176
     1
 43
1.0
176
     1
 76
     1
176
     1
 77
     6
176
     1
 78
     2
176
     1
 67
     7
176
     1
 79
     5
176
     1
170
     0
176
     1
171
     0
176
     1
290
     0
176
     1
 93
       13
176
     1
 44
0.0
176
     1
173
     0
176
     1
  0
VISUALSTYLE
  5
37
102
{ACAD_REACTORS
330
2A
102
}
330
2A
100
AcDbVisualStyle
  2
Thicken
 70
    13
177
     2
291
     1
 71
     2
176
     1
 72
     2
176
     1
 73
     0
176
     1
 90
        0
176
     1
 40
-0.6
176
     1
 41
-30.0
176
     1
 62
     5
 63
     7
421
 16777215
176
     1
 74
     1
176
     1
 91
        4
176
     1
 64
     7
176
     1
 65
   257
176
     1
 75
     1
176
     1
175
     1
176
     1
 42
1.0
176
     1
 92
       12
176
     1
 66
     7
176
     1
 43
1.0
176
     1
 76
     1
176
     1
 77
     6
176
     1
 78
     2
176
     1
 67
     7
176
     1
 79
     5
176
     1
170
     0
176
     1
171
     0
176
     1
290
     0
176
     1
 93
        1
176
     1
 44
0.0
176
     1
173
     0
176
     1
  0
ENDSEC
  0
EOF
