  0
SECTION
  2
HEADER
  9
$ACADVER
  1
AC1024
  9
$ACADMAINTVER
 70
     6
  9
$DWGCODEPAGE
  3
ANSI_932
  9
$INSBASE
 10
0.0
 20
0.0
 30
0.0
  9
$EXTMIN
 10
-4455.0
 20
-3150.0
 30
0.0
  9
$EXTMAX
 10
4455.0
 20
3150.0
 30
0.0
  9
$LIMMIN
 10
-4455.0
 20
-3150.0
  9
$LIMMAX
 10
4455.0
 20
3150.0
  9
$ORTHOMODE
 70
     0
  9
$REGENMODE
 70
     1
  9
$FILLMODE
 70
     1
  9
$QTEXTMODE
 70
     0
  9
$MIRRTEXT
 70
     1
  9
$LTSCALE
 40
30.0
  9
$ATTMODE
 70
     1
  9
$TEXTSIZE
 40
2.5
  9
$TRACEWID
 40
1.0
  9
$TEXTSTYLE
  7
Standard
  9
$CLAYER
  8
0
  9
$CELTYPE
  6
ByLayer
  9
$CECOLOR
 62
   256
  9
$CELTSCALE
 40
1.0
  9
$DISPSILH
 70
     0
  9
$DIMSCALE
 40
1.0
  9
$DIMASZ
 40
2.5
  9
$DIMEXO
 40
0.625
  9
$DIMDLI
 40
3.75
  9
$DIMRND
 40
0.0
  9
$DIMDLE
 40
0.0
  9
$DIMEXE
 40
1.25
  9
$DIMTP
 40
0.0
  9
$DIMTM
 40
0.0
  9
$DIMTXT
 40
2.5
  9
$DIMCEN
 40
2.5
  9
$DIMTSZ
 40
0.0
  9
$DIMTOL
 70
     0
  9
$DIMLIM
 70
     0
  9
$DIMTIH
 70
     0
  9
$DIMTOH
 70
     0
  9
$DIMSE1
 70
     0
  9
$DIMSE2
 70
     0
  9
$DIMTAD
 70
     1
  9
$DIMZIN
 70
     8
  9
$DIMBLK
  1

  9
$DIMASO
 70
     1
  9
$DIMSHO
 70
     1
  9
$DIMPOST
  1

  9
$DIMAPOST
  1

  9
$DIMALT
 70
     0
  9
$DIMALTD
 70
     3
  9
$DIMALTF
 40
0.03937007874016
  9
$DIMLFAC
 40
1.0
  9
$DIMTOFL
 70
     1
  9
$DIMTVP
 40
0.0
  9
$DIMTIX
 70
     0
  9
$DIMSOXD
 70
     0
  9
$DIMSAH
 70
     0
  9
$DIMBLK1
  1

  9
$DIMBLK2
  1

  9
$DIMSTYLE
  2
ISO-25
  9
$DIMCLRD
 70
     0
  9
$DIMCLRE
 70
     0
  9
$DIMCLRT
 70
     0
  9
$DIMTFAC
 40
1.0
  9
$DIMGAP
 40
0.625
  9
$DIMJUST
 70
     0
  9
$DIMSD1
 70
     0
  9
$DIMSD2
 70
     0
  9
$DIMTOLJ
 70
     0
  9
$DIMTZIN
 70
     8
  9
$DIMALTZ
 70
     0
  9
$DIMALTTZ
 70
     0
  9
$DIMUPT
 70
     0
  9
$DIMDEC
 70
     2
  9
$DIMTDEC
 70
     2
  9
$DIMALTU
 70
     2
  9
$DIMALTTD
 70
     3
  9
$DIMTXSTY
  7
Standard
  9
$DIMAUNIT
 70
     0
  9
$DIMADEC
 70
     0
  9
$DIMALTRND
 40
0.0
  9
$DIMAZIN
 70
     0
  9
$DIMDSEP
 70
    44
  9
$DIMATFIT
 70
     3
  9
$DIMFRAC
 70
     0
  9
$DIMLDRBLK
  1

  9
$DIMLUNIT
 70
     2
  9
$DIMLWD
 70
    -2
  9
$DIMLWE
 70
    -2
  9
$DIMTMOVE
 70
     0
  9
$DIMFXL
 40
1.0
  9
$DIMFXLON
 70
     0
  9
$DIMJOGANG
 40
0.7853981633974483
  9
$DIMTFILL
 70
     0
  9
$DIMTFILLCLR
 70
     0
  9
$DIMARCSYM
 70
     0
  9
$DIMLTYPE
  6

  9
$DIMLTEX1
  6

  9
$DIMLTEX2
  6

  9
$DIMTXTDIRECTION
 70
     0
  9
$LUNITS
 70
     2
  9
$LUPREC
 70
     4
  9
$SKETCHINC
 40
1.0
  9
$FILLETRAD
 40
10.0
  9
$AUNITS
 70
     0
  9
$AUPREC
 70
     0
  9
$MENU
  1
.
  9
$ELEVATION
 40
0.0
  9
$PELEVATION
 40
0.0
  9
$THICKNESS
 40
0.0
  9
$LIMCHECK
 70
     0
  9
$CHAMFERA
 40
10.0
  9
$CHAMFERB
 40
10.0
  9
$CHAMFERC
 40
20.0
  9
$CHAMFERD
 40
0.0
  9
$SKPOLY
 70
     0
  9
$TDCREATE
 40
2457953.399782246
  9
$TDUCREATE
 40
2457953.024782246
  9
$TDUPDATE
 40
2457953.399782257
  9
$TDUUPDATE
 40
2457953.024782257
  9
$TDINDWG
 40
0.0000000116
  9
$TDUSRTIMER
 40
0.0000000116
  9
$USRTIMER
 70
     1
  9
$ANGBASE
 50
0.0
  9
$ANGDIR
 70
     0
  9
$PDMODE
 70
     0
  9
$PDSIZE
 40
0.0
  9
$PLINEWID
 40
0.0
  9
$SPLFRAME
 70
     0
  9
$SPLINETYPE
 70
     6
  9
$SPLINESEGS
 70
     8
  9
$HANDSEED
  5
304
  9
$SURFTAB1
 70
     6
  9
$SURFTAB2
 70
     6
  9
$SURFTYPE
 70
     6
  9
$SURFU
 70
     6
  9
$SURFV
 70
     6
  9
$UCSBASE
  2

  9
$UCSNAME
  2

  9
$UCSORG
 10
0.0
 20
0.0
 30
0.0
  9
$UCSXDIR
 10
1.0
 20
0.0
 30
0.0
  9
$UCSYDIR
 10
0.0
 20
1.0
 30
0.0
  9
$UCSORTHOREF
  2

  9
$UCSORTHOVIEW
 70
     0
  9
$UCSORGTOP
 10
0.0
 20
0.0
 30
0.0
  9
$UCSORGBOTTOM
 10
0.0
 20
0.0
 30
0.0
  9
$UCSORGLEFT
 10
0.0
 20
0.0
 30
0.0
  9
$UCSORGRIGHT
 10
0.0
 20
0.0
 30
0.0
  9
$UCSORGFRONT
 10
0.0
 20
0.0
 30
0.0
  9
$UCSORGBACK
 10
0.0
 20
0.0
 30
0.0
  9
$PUCSBASE
  2

  9
$PUCSNAME
  2

  9
$PUCSORG
 10
0.0
 20
0.0
 30
0.0
  9
$PUCSXDIR
 10
1.0
 20
0.0
 30
0.0
  9
$PUCSYDIR
 10
0.0
 20
1.0
 30
0.0
  9
$PUCSORTHOREF
  2

  9
$PUCSORTHOVIEW
 70
     0
  9
$PUCSORGTOP
 10
0.0
 20
0.0
 30
0.0
  9
$PUCSORGBOTTOM
 10
0.0
 20
0.0
 30
0.0
  9
$PUCSORGLEFT
 10
0.0
 20
0.0
 30
0.0
  9
$PUCSORGRIGHT
 10
0.0
 20
0.0
 30
0.0
  9
$PUCSORGFRONT
 10
0.0
 20
0.0
 30
0.0
  9
$PUCSORGBACK
 10
0.0
 20
0.0
 30
0.0
  9
$USERI1
 70
     0
  9
$USERI2
 70
     0
  9
$USERI3
 70
     0
  9
$USERI4
 70
     0
  9
$USERI5
 70
     0
  9
$USERR1
 40
0.0
  9
$USERR2
 40
0.0
  9
$USERR3
 40
0.0
  9
$USERR4
 40
0.0
  9
$USERR5
 40
0.0
  9
$WORLDVIEW
 70
     1
  9
$SHADEDGE
 70
     3
  9
$SHADEDIF
 70
    70
  9
$TILEMODE
 70
     1
  9
$MAXACTVP
 70
    64
  9
$PINSBASE
 10
0.0
 20
0.0
 30
0.0
  9
$PLIMCHECK
 70
     0
  9
$PEXTMIN
 10
1.000000000000000E+20
 20
1.000000000000000E+20
 30
1.000000000000000E+20
  9
$PEXTMAX
 10
-1.000000000000000E+20
 20
-1.000000000000000E+20
 30
-1.000000000000000E+20
  9
$PLIMMIN
 10
0.0
 20
0.0
  9
$PLIMMAX
 10
420.0
 20
297.0
  9
$UNITMODE
 70
     0
  9
$VISRETAIN
 70
     1
  9
$PLINEGEN
 70
     0
  9
$PSLTSCALE
 70
     1
  9
$TREEDEPTH
 70
  3020
  9
$CMLSTYLE
  2
Standard
  9
$CMLJUST
 70
     0
  9
$CMLSCALE
 40
20.0
  9
$PROXYGRAPHICS
 70
     1
  9
$MEASUREMENT
 70
     1
  9
$CELWEIGHT
370
    -1
  9
$ENDCAPS
280
     0
  9
$JOINSTYLE
280
     0
  9
$LWDISPLAY
290
     0
  9
$INSUNITS
 70
     4
  9
$HYPERLINKBASE
  1

  9
$STYLESHEET
  1

  9
$XEDIT
290
     1
  9
$CEPSNTYPE
380
     0
  9
$PSTYLEMODE
290
     1
  9
$FINGERPRINTGUID
  2
{98F0CE02-9C76-44CB-8F1C-42DF3D7ED371}
  9
$VERSIONGUID
  2
{FAEB1C32-E019-11D5-929B-00C0DF256EC4}
  9
$EXTNAMES
290
     1
  9
$PSVPSCALE
 40
0.0
  9
$OLESTARTUP
290
     0
  9
$SORTENTS
280
   127
  9
$INDEXCTL
280
     0
  9
$HIDETEXT
280
     1
  9
$XCLIPFRAME
280
     2
  9
$HALOGAP
280
     0
  9
$OBSCOLOR
 70
   257
  9
$OBSLTYPE
280
     0
  9
$INTERSECTIONDISPLAY
280
     0
  9
$INTERSECTIONCOLOR
 70
   257
  9
$DIMASSOC
280
     2
  9
$PROJECTNAME
  1

  9
$CAMERADISPLAY
290
     0
  9
$LENSLENGTH
 40
50.0
  9
$CAMERAHEIGHT
 40
0.0
  9
$STEPSPERSEC
 40
2.0
  9
$STEPSIZE
 40
6.0
  9
$3DDWFPREC
 40
2.0
  9
$PSOLWIDTH
 40
5.0
  9
$PSOLHEIGHT
 40
80.0
  9
$LOFTANG1
 40
1.570796326794897
  9
$LOFTANG2
 40
1.570796326794897
  9
$LOFTMAG1
 40
0.0
  9
$LOFTMAG2
 40
0.0
  9
$LOFTPARAM
 70
     7
  9
$LOFTNORMALS
280
     1
  9
$LATITUDE
 40
37.795
  9
$LONGITUDE
 40
-122.394
  9
$NORTHDIRECTION
 40
0.0
  9
$TIMEZONE
 70
 -8000
  9
$LIGHTGLYPHDISPLAY
280
     1
  9
$TILEMODELIGHTSYNCH
280
     1
  9
$SOLIDHIST
280
     1
  9
$SHOWHIST
280
     1
  9
$DWFFRAME
280
     2
  9
$DGNFRAME
280
     2
  9
$REALWORLDSCALE
290
     1
  9
$INTERFERECOLOR
 62
   256
  9
$CSHADOW
280
     0
  9
$SHADOWPLANELOCATION
 40
0.0
  0
ENDSEC
  0
SECTION
  2
CLASSES
  0
CLASS
  1
ACDBDICTIONARYWDFLT
  2
AcDbDictionaryWithDefault
  3
ObjectDBX Classes
 90
        0
 91
        4
280
     0
281
     0
  0
CLASS
  1
VISUALSTYLE
  2
AcDbVisualStyle
  3
ObjectDBX Classes
 90
     4095
 91
        4
280
     0
281
     0
  0
CLASS
  1
MATERIAL
  2
AcDbMaterial
  3
ObjectDBX Classes
 90
     1153
 91
        4
280
     0
281
     0
  0
ENDSEC
  0
SECTION
  2
TABLES
  0
TABLE
  2
VPORT
  5
8
330
0
100
AcDbSymbolTable
 70
     1
  0
VPORT
  5
29
330
8
100
AcDbSymbolTableRecord
100
AcDbViewportTableRecord
  2
*Active
 70
     0
 10
0.0
 20
0.0
 11
1.0
 21
1.0
 12
0.0
 22
0.0
 13
0.0
 23
0.0
 14
10.0
 24
10.0
 15
10.0
 25
10.0
 16
0.0
 26
0.0
 36
1.0
 17
0.0
 27
0.0
 37
0.0
 40
6930.000000000001
 41
1.414285714285714
 42
50.0
 43
0.0
 44
0.0
 50
0.0
 51
0.0
 71
     0
 72
 10000
 73
     1
 74
     3
 75
     0
 76
     0
 77
     0
 78
     0
281
     0
 65
     1
110
0.0
120
0.0
130
0.0
111
1.0
121
0.0
131
0.0
112
0.0
122
1.0
132
0.0
 79
     0
146
0.0
 60
     3
 61
     5
292
     1
282
     1
141
0.0
142
0.0
 63
   250
  0
ENDTAB
  0
TABLE
  2
LTYPE
  5
5
330
0
100
AcDbSymbolTable
 70
     2
  0
LTYPE
  5
14
330
5
100
AcDbSymbolTableRecord
100
AcDbLinetypeTableRecord
  2
ByBlock
 70
     0
  3

 72
    65
 73
     0
 40
0.0
  0
LTYPE
  5
15
330
5
100
AcDbSymbolTableRecord
100
AcDbLinetypeTableRecord
  2
ByLayer
 70
     0
  3

 72
    65
 73
     0
 40
0.0
  0
LTYPE
  5
16
330
5
100
AcDbSymbolTableRecord
100
AcDbLinetypeTableRecord
  2
Continuous
 70
     0
  3
Solid line
 72
    65
 73
     0
 40
0.0
  0
LTYPE
  5
3F
330
5
100
AcDbSymbolTableRecord
100
AcDbLinetypeTableRecord
  2
JWW_DASHED1
 70
     0
  3
-  --  --  --  --  --  --  --  -
 72
    65
 73
     2
 40
1.693333333333333
 49
0.8466666666666667
 74
     0
 49
-0.8466666666666667
 74
     0
  0
ENDTAB
  0
TABLE
  2
LAYER
  5
2
330
0
100
AcDbSymbolTable
 70
     3
  0
LAYER
  5
10
330
2
100
AcDbSymbolTableRecord
100
AcDbLayerTableRecord
  2
0
 70
     0
 62
     7
  6
Continuous
370
    -3
390
F
347
3E
  0
LAYER
  5
40
330
2
100
AcDbSymbolTableRecord
100
AcDbLayerTableRecord
  2
0-0
 70
     0
 62
     7
  6
Continuous
370
    -3
390
F
347
3E
  0
LAYER
  5
41
330
2
100
AcDbSymbolTableRecord
100
AcDbLayerTableRecord
  2
寸法
 70
     0
 62
     7
  6
Continuous
370
    -3
390
F
347
3E
  0
ENDTAB
  0
TABLE
  2
STYLE
  5
3
330
0
100
AcDbSymbolTable
 70
     1
  0
STYLE
  5
11
330
3
100
AcDbSymbolTableRecord
100
AcDbTextStyleTableRecord
  2
Standard
 70
     0
 40
0.0
 41
1.0
 50
0.0
 71
     0
 42
2.5
  3
txt
  4

  0
ENDTAB
  0
TABLE
  2
VIEW
  5
6
330
0
100
AcDbSymbolTable
 70
     0
  0
ENDTAB
  0
TABLE
  2
UCS
  5
7
330
0
100
AcDbSymbolTable
 70
     0
  0
ENDTAB
  0
TABLE
  2
APPID
  5
9
330
0
100
AcDbSymbolTable
 70
     1
  0
APPID
  5
12
330
9
100
AcDbSymbolTableRecord
100
AcDbRegAppTableRecord
  2
ACAD
 70
     0
  0
ENDTAB
  0
TABLE
  2
DIMSTYLE
  5
A
330
0
100
AcDbSymbolTable
 70
     1
100
AcDbDimStyleTable
  0
DIMSTYLE
105
27
330
A
100
AcDbSymbolTableRecord
100
AcDbDimStyleTableRecord
  2
ISO-25
 70
     0
 41
2.5
 42
0.625
 43
3.75
 44
1.25
 73
     0
 74
     0
 77
     1
 78
     8
140
2.5
141
2.5
143
0.03937007874016
147
0.625
171
     3
172
     1
178
     0
271
     2
272
     2
274
     3
278
    44
283
     0
284
     8
340
11
  0
ENDTAB
  0
TABLE
  2
BLOCK_RECORD
  5
1
330
0
100
AcDbSymbolTable
 70
     1
  0
BLOCK_RECORD
  5
1F
330
1
100
AcDbSymbolTableRecord
100
AcDbBlockTableRecord
  2
*Model_Space
340
22
 70
     0
280
     1
281
     0
  0
BLOCK_RECORD
  5
1B
330
1
100
AcDbSymbolTableRecord
100
AcDbBlockTableRecord
  2
*Paper_Space
340
1E
 70
     0
280
     1
281
     0
  0
BLOCK_RECORD
  5
23
330
1
100
AcDbSymbolTableRecord
100
AcDbBlockTableRecord
  2
*Paper_Space0
340
26
 70
     0
280
     1
281
     0
  0
ENDTAB
  0
ENDSEC
  0
SECTION
  2
BLOCKS
  0
BLOCK
  5
20
330
1F
100
AcDbEntity
  8
0
100
AcDbBlockBegin
  2
*Model_Space
 70
     0
 10
0.0
 20
0.0
 30
0.0
  3
*Model_Space
  1

  0
ENDBLK
  5
21
330
1F
100
AcDbEntity
  8
0
100
AcDbBlockEnd
  0
BLOCK
  5
1C
330
1B
100
AcDbEntity
 67
     1
  8
0
100
AcDbBlockBegin
  2
*Paper_Space
 70
     0
 10
0.0
 20
0.0
 30
0.0
  3
*Paper_Space
  1

  0
ENDBLK
  5
1D
330
1B
100
AcDbEntity
 67
     1
  8
0
100
AcDbBlockEnd
  0
BLOCK
  5
24
330
23
100
AcDbEntity
  8
0
100
AcDbBlockBegin
  2
*Paper_Space0
 70
     0
 10
0.0
 20
0.0
 30
0.0
  3
*Paper_Space0
  1

  0
ENDBLK
  5
25
330
23
100
AcDbEntity
  8
0
100
AcDbBlockEnd
  0
ENDSEC
  0
SECTION
  2
ENTITIES
  0
LINE
  5
42
330
1F
100
AcDbEntity
  8
0-0
  6
Continuous
 62
    92
370
    13
100
AcDbLine
 10
-1156.831108438173
 20
-972.6044689708822
 30
0.0
 11
-1156.831108438173
 21
1074.395531029118
 31
0.0
  0
LINE
  5
43
330
1F
100
AcDbEntity
  8
0-0
  6
Continuous
 62
    92
370
    13
100
AcDbLine
 10
-1186.831108438173
 20
1074.395531029118
 30
0.0
 11
1237.168891561825
 21
1074.395531029118
 31
0.0
  0
LINE
  5
44
330
1F
100
AcDbEntity
  8
0-0
  6
Continuous
 62
    92
370
    13
100
AcDbLine
 10
-1156.831108438173
 20
1038.395531029117
 30
0.0
 11
1207.168891561825
 21
1038.395531029117
 31
0.0
  0
LINE
  5
45
330
1F
100
AcDbEntity
  8
0-0
  6
Continuous
 62
    92
370
    13
100
AcDbLine
 10
1207.168891561825
 20
-972.6044689708822
 30
0.0
 11
1207.168891561825
 21
1074.395531029118
 31
0.0
  0
LINE
  5
46
330
1F
100
AcDbEntity
  8
0-0
  6
Continuous
 62
    92
370
    13
100
AcDbLine
 10
1237.168891561825
 20
-972.6044689708822
 30
0.0
 11
1237.168891561825
 21
1074.395531029118
 31
0.0
  0
LINE
  5
47
330
1F
100
AcDbEntity
  8
0-0
  6
Continuous
 62
    92
370
    13
100
AcDbLine
 10
-1186.831108438173
 20
-972.6044689708822
 30
0.0
 11
-1186.831108438173
 21
1074.395531029118
 31
0.0
  0
LINE
  5
48
330
1F
100
AcDbEntity
  8
0-0
  6
Continuous
 62
    92
370
    13
100
AcDbLine
 10
1237.168891561825
 20
-972.6044689708822
 30
0.0
 11
-1186.831108438173
 21
-972.6044689708822
 31
0.0
  0
LINE
  5
49
330
1F
100
AcDbEntity
  8
0-0
  6
Continuous
 62
    92
370
    13
100
AcDbLine
 10
1207.168891561825
 20
-957.6044689708822
 30
0.0
 11
-1156.831108438173
 21
-957.6044689708822
 31
0.0
  0
ARC
  5
4A
330
1F
100
AcDbEntity
  8
0-0
  6
Continuous
 62
    92
370
    13
100
AcDbCircle
 10
-1128.331108438176
 20
64.39553102911859
 30
0.0
 40
1.5
100
AcDbArc
 50
90.0
 51
180.0
  0
LINE
  5
4B
330
1F
100
AcDbEntity
  8
0-0
  6
Continuous
 62
    92
370
    13
100
AcDbLine
 10
-1089.331108438175
 20
65.89553102911808
 30
0.0
 11
-1128.331108438176
 21
65.89553102911808
 31
0.0
  0
ARC
  5
4C
330
1F
100
AcDbEntity
  8
0-0
  6
Continuous
 62
    92
370
    13
100
AcDbCircle
 10
-1089.331108438175
 20
64.39553102911859
 30
0.0
 40
1.5
100
AcDbArc
 50
0.0
 51
90.00000000000001
  0
LINE
  5
4D
330
1F
100
AcDbEntity
  8
0-0
  6
Continuous
 62
    92
370
    13
100
AcDbLine
 10
-1087.831108438178
 20
-54.60446897088147
 30
0.0
 11
-1087.831108438178
 21
64.39553102911859
 31
0.0
  0
ARC
  5
4E
330
1F
100
AcDbEntity
  8
0-0
  6
Continuous
 62
    92
370
    13
100
AcDbCircle
 10
-1089.331108438175
 20
-54.60446897088147
 30
0.0
 40
1.5
100
AcDbArc
 50
270.0
 51
0.0
  0
LINE
  5
4F
330
1F
100
AcDbEntity
  8
0-0
  6
Continuous
 62
    92
370
    13
100
AcDbLine
 10
-1128.331108438176
 20
-56.10446897088352
 30
0.0
 11
-1089.331108438175
 21
-56.10446897088352
 31
0.0
  0
LINE
  5
50
330
1F
100
AcDbEntity
  8
0-0
  6
Continuous
 62
    92
370
    13
100
AcDbLine
 10
-1129.831108438174
 20
-54.60446897088147
 30
0.0
 11
-1129.831108438174
 21
64.39553102911859
 31
0.0
  0
ARC
  5
51
330
1F
100
AcDbEntity
  8
0-0
  6
Continuous
 62
    92
370
    13
100
AcDbCircle
 10
-1128.331108438176
 20
-54.60446897088147
 30
0.0
 40
1.5
100
AcDbArc
 50
180.0
 51
270.0
  0
ARC
  5
52
330
1F
100
AcDbEntity
  8
0-0
  6
Continuous
 62
     7
370
     9
100
AcDbCircle
 10
-1108.831108438176
 20
-24.70446897088138
 30
0.0
 40
15.0
100
AcDbArc
 50
180.0
 51
0.0
  0
ARC
  5
53
330
1F
100
AcDbEntity
  8
0-0
  6
Continuous
 62
     7
370
     9
100
AcDbCircle
 10
-1108.831108438176
 20
34.4955310291185
 30
0.0
 40
15.0
100
AcDbArc
 50
0.0
 51
180.0
  0
LINE
  5
54
330
1F
100
AcDbEntity
  8
0-0
  6
Continuous
 62
     7
370
     9
100
AcDbLine
 10
-1093.831108438176
 20
-24.70446897088138
 30
0.0
 11
-1093.831108438176
 21
34.4955310291185
 31
0.0
  0
LINE
  5
55
330
1F
100
AcDbEntity
  8
0-0
  6
Continuous
 62
     7
370
     9
100
AcDbLine
 10
-1123.831108438176
 20
34.4955310291185
 30
0.0
 11
-1123.831108438176
 21
-24.70446897088138
 31
0.0
  0
ARC
  5
56
330
1F
100
AcDbEntity
  8
0-0
  6
Continuous
 62
    92
370
    13
100
AcDbCircle
 10
-348.3311084381755
 20
64.39553102911859
 30
0.0
 40
1.5
100
AcDbArc
 50
90.0
 51
180.0
  0
LINE
  5
57
330
1F
100
AcDbEntity
  8
0-0
  6
Continuous
 62
    92
370
    13
100
AcDbLine
 10
-309.3311084381752
 20
65.89553102911808
 30
0.0
 11
-348.3311084381755
 21
65.89553102911808
 31
0.0
  0
ARC
  5
58
330
1F
100
AcDbEntity
  8
0-0
  6
Continuous
 62
    92
370
    13
100
AcDbCircle
 10
-309.3311084381752
 20
64.39553102911859
 30
0.0
 40
1.5
100
AcDbArc
 50
0.0
 51
90.00000000000001
  0
LINE
  5
59
330
1F
100
AcDbEntity
  8
0-0
  6
Continuous
 62
    92
370
    13
100
AcDbLine
 10
-307.8311084381783
 20
-54.60446897088147
 30
0.0
 11
-307.8311084381783
 21
64.39553102911859
 31
0.0
  0
ARC
  5
5A
330
1F
100
AcDbEntity
  8
0-0
  6
Continuous
 62
    92
370
    13
100
AcDbCircle
 10
-309.3311084381752
 20
-54.60446897088147
 30
0.0
 40
1.5
100
AcDbArc
 50
270.0
 51
0.0
  0
LINE
  5
5B
330
1F
100
AcDbEntity
  8
0-0
  6
Continuous
 62
    92
370
    13
100
AcDbLine
 10
-348.3311084381755
 20
-56.10446897088352
 30
0.0
 11
-309.3311084381752
 21
-56.10446897088352
 31
0.0
  0
LINE
  5
5C
330
1F
100
AcDbEntity
  8
0-0
  6
Continuous
 62
    92
370
    13
100
AcDbLine
 10
-349.8311084381742
 20
-54.60446897088147
 30
0.0
 11
-349.8311084381742
 21
64.39553102911859
 31
0.0
  0
ARC
  5
5D
330
1F
100
AcDbEntity
  8
0-0
  6
Continuous
 62
    92
370
    13
100
AcDbCircle
 10
-348.3311084381755
 20
-54.60446897088147
 30
0.0
 40
1.5
100
AcDbArc
 50
180.0
 51
270.0
  0
ARC
  5
5E
330
1F
100
AcDbEntity
  8
0-0
  6
Continuous
 62
     7
370
     9
100
AcDbCircle
 10
-328.8311084381762
 20
-24.70446897088138
 30
0.0
 40
15.0
100
AcDbArc
 50
180.0
 51
0.0
  0
ARC
  5
5F
330
1F
100
AcDbEntity
  8
0-0
  6
Continuous
 62
     7
370
     9
100
AcDbCircle
 10
-328.8311084381762
 20
34.4955310291185
 30
0.0
 40
15.0
100
AcDbArc
 50
0.0
 51
180.0
  0
LINE
  5
60
330
1F
100
AcDbEntity
  8
0-0
  6
Continuous
 62
     7
370
     9
100
AcDbLine
 10
-313.8311084381762
 20
-24.70446897088138
 30
0.0
 11
-313.8311084381762
 21
34.4955310291185
 31
0.0
  0
LINE
  5
61
330
1F
100
AcDbEntity
  8
0-0
  6
Continuous
 62
     7
370
     9
100
AcDbLine
 10
-343.8311084381762
 20
34.4955310291185
 30
0.0
 11
-343.8311084381762
 21
-24.70446897088138
 31
0.0
  0
ARC
  5
62
330
1F
100
AcDbEntity
  8
0-0
  6
Continuous
 62
    92
370
    13
100
AcDbCircle
 10
1139.668891561829
 20
64.39553102911859
 30
0.0
 40
1.5
100
AcDbArc
 50
90.0
 51
180.0
  0
LINE
  5
63
330
1F
100
AcDbEntity
  8
0-0
  6
Continuous
 62
    92
370
    13
100
AcDbLine
 10
1178.668891561827
 20
65.89553102911808
 30
0.0
 11
1139.668891561829
 21
65.89553102911808
 31
0.0
  0
ARC
  5
64
330
1F
100
AcDbEntity
  8
0-0
  6
Continuous
 62
    92
370
    13
100
AcDbCircle
 10
1178.668891561827
 20
64.39553102911859
 30
0.0
 40
1.5
100
AcDbArc
 50
0.0
 51
90.00000000000001
  0
LINE
  5
65
330
1F
100
AcDbEntity
  8
0-0
  6
Continuous
 62
    92
370
    13
100
AcDbLine
 10
1180.168891561828
 20
-54.60446897088147
 30
0.0
 11
1180.168891561828
 21
64.39553102911859
 31
0.0
  0
ARC
  5
66
330
1F
100
AcDbEntity
  8
0-0
  6
Continuous
 62
    92
370
    13
100
AcDbCircle
 10
1178.668891561827
 20
-54.60446897088147
 30
0.0
 40
1.5
100
AcDbArc
 50
270.0
 51
0.0
  0
LINE
  5
67
330
1F
100
AcDbEntity
  8
0-0
  6
Continuous
 62
    92
370
    13
100
AcDbLine
 10
1139.668891561829
 20
-56.10446897088352
 30
0.0
 11
1178.668891561827
 21
-56.10446897088352
 31
0.0
  0
LINE
  5
68
330
1F
100
AcDbEntity
  8
0-0
  6
Continuous
 62
    92
370
    13
100
AcDbLine
 10
1138.168891561828
 20
-54.60446897088147
 30
0.0
 11
1138.168891561828
 21
64.39553102911859
 31
0.0
  0
ARC
  5
69
330
1F
100
AcDbEntity
  8
0-0
  6
Continuous
 62
    92
370
    13
100
AcDbCircle
 10
1139.668891561829
 20
-54.60446897088147
 30
0.0
 40
1.5
100
AcDbArc
 50
180.0
 51
270.0
  0
ARC
  5
6A
330
1F
100
AcDbEntity
  8
0-0
  6
Continuous
 62
     7
370
     9
100
AcDbCircle
 10
1159.168891561828
 20
-24.70446897088138
 30
0.0
 40
15.0
100
AcDbArc
 50
180.0
 51
0.0
  0
ARC
  5
6B
330
1F
100
AcDbEntity
  8
0-0
  6
Continuous
 62
     7
370
     9
100
AcDbCircle
 10
1159.168891561828
 20
34.4955310291185
 30
0.0
 40
15.0
100
AcDbArc
 50
0.0
 51
180.0
  0
LINE
  5
6C
330
1F
100
AcDbEntity
  8
0-0
  6
Continuous
 62
     7
370
     9
100
AcDbLine
 10
1174.168891561828
 20
-24.70446897088138
 30
0.0
 11
1174.168891561828
 21
34.4955310291185
 31
0.0
  0
LINE
  5
6D
330
1F
100
AcDbEntity
  8
0-0
  6
Continuous
 62
     7
370
     9
100
AcDbLine
 10
1144.168891561828
 20
34.4955310291185
 30
0.0
 11
1144.168891561828
 21
-24.70446897088138
 31
0.0
  0
LINE
  5
6E
330
1F
100
AcDbEntity
  8
0-0
  6
JWW_DASHED1
 62
   120
370
     5
100
AcDbLine
 10
-1156.831108438173
 20
-952.6044689708824
 30
0.0
 11
-1159.831108438174
 21
-952.6044689708824
 31
0.0
  0
LINE
  5
6F
330
1F
100
AcDbEntity
  8
0-0
  6
JWW_DASHED1
 62
   120
370
     5
100
AcDbLine
 10
-1159.831108438174
 20
-952.6044689708824
 30
0.0
 11
-1159.831108438174
 21
1030.395531029117
 31
0.0
  0
LINE
  5
70
330
1F
100
AcDbEntity
  8
0-0
  6
Continuous
 62
    92
370
    13
100
AcDbLine
 10
400.1688915618258
 20
-952.6044689708824
 30
0.0
 11
400.1688915618258
 21
1030.395531029117
 31
0.0
  0
LINE
  5
71
330
1F
100
AcDbEntity
  8
0-0
  6
JWW_DASHED1
 62
   120
370
     5
100
AcDbLine
 10
-1159.831108438174
 20
1030.395531029117
 30
0.0
 11
-1156.831108438173
 21
1030.395531029117
 31
0.0
  0
LINE
  5
72
330
1F
100
AcDbEntity
  8
0-0
  6
JWW_DASHED1
 62
   120
370
     5
100
AcDbLine
 10
-349.8311084381742
 20
-952.6044689708824
 30
0.0
 11
-349.8311084381742
 21
1030.395531029117
 31
0.0
  0
LINE
  5
73
330
1F
100
AcDbEntity
  8
0-0
  6
JWW_DASHED1
 62
   120
370
     5
100
AcDbLine
 10
430.1688915618258
 20
-952.6044689708824
 30
0.0
 11
430.1688915618258
 21
1030.395531029117
 31
0.0
  0
LINE
  5
74
330
1F
100
AcDbEntity
  8
0-0
  6
JWW_DASHED1
 62
   120
370
     5
100
AcDbLine
 10
1207.168891561825
 20
-952.6044689708824
 30
0.0
 11
1210.168891561826
 21
-952.6044689708824
 31
0.0
  0
LINE
  5
75
330
1F
100
AcDbEntity
  8
0-0
  6
JWW_DASHED1
 62
   120
370
     5
100
AcDbLine
 10
1210.168891561826
 20
-952.6044689708824
 30
0.0
 11
1210.168891561826
 21
1030.395531029117
 31
0.0
  0
LINE
  5
76
330
1F
100
AcDbEntity
  8
0-0
  6
JWW_DASHED1
 62
   120
370
     5
100
AcDbLine
 10
1210.168891561826
 20
1030.395531029117
 30
0.0
 11
1207.168891561825
 21
1030.395531029117
 31
0.0
  0
LINE
  5
77
330
1F
100
AcDbEntity
  8
0-0
  6
Continuous
 62
    92
370
    13
100
AcDbLine
 10
-1156.831108438173
 20
-952.6044689708824
 30
0.0
 11
1207.168891561825
 21
-952.6044689708824
 31
0.0
  0
LINE
  5
78
330
1F
100
AcDbEntity
  8
0-0
  6
Continuous
 62
    92
370
    13
100
AcDbLine
 10
-1156.831108438173
 20
1030.395531029117
 30
0.0
 11
1207.168891561825
 21
1030.395531029117
 31
0.0
  0
LINE
  5
79
330
1F
100
AcDbEntity
  8
0-0
  6
Continuous
 62
    92
370
    13
100
AcDbLine
 10
-379.8311084381742
 20
1030.395531029117
 30
0.0
 11
-379.8311084381742
 21
-952.6044689708824
 31
0.0
  0
LINE
  5
7A
330
1F
100
AcDbEntity
  8
0-0
  6
Continuous
 62
     7
370
     9
100
AcDbLine
 10
-773.8311084381747
 20
-944.6044689708824
 30
0.0
 11
-735.8311084381744
 21
-944.6044689708824
 31
0.0
  0
LINE
  5
7B
330
1F
100
AcDbEntity
  8
0-0
  6
Continuous
 62
    92
370
    13
100
AcDbLine
 10
-773.8311084381747
 20
1030.395531029116
 30
0.0
 11
-773.8311084381747
 21
-952.6044689708821
 31
0.0
  0
LINE
  5
7C
330
1F
100
AcDbEntity
  8
0-0
  6
Continuous
 62
    92
370
    13
100
AcDbLine
 10
-735.8311084381744
 20
1030.395531029116
 30
0.0
 11
-735.8311084381744
 21
-952.6044689708824
 31
0.0
  0
LINE
  5
7D
330
1F
100
AcDbEntity
  8
0-0
  6
Continuous
 62
     7
370
     9
100
AcDbLine
 10
-773.8311084381747
 20
1022.395531029118
 30
0.0
 11
-735.8311084381744
 21
1022.395531029118
 31
0.0
  0
LINE
  5
7E
330
1F
100
AcDbEntity
  8
0-0
  6
JWW_DASHED1
 62
   120
370
     5
100
AcDbLine
 10
-773.8311084381747
 20
-907.8071698094693
 30
0.0
 11
-735.8311084381778
 21
-869.8071698094693
 31
0.0
  0
LINE
  5
7F
330
1F
100
AcDbEntity
  8
0-0
  6
JWW_DASHED1
 62
   120
370
     5
100
AcDbLine
 10
-773.8311084381747
 20
-897.9076748743075
 30
0.0
 11
-735.8311084381744
 21
-859.9076748743046
 31
0.0
  0
LINE
  5
80
330
1F
100
AcDbEntity
  8
0-0
  6
JWW_DASHED1
 62
   120
370
     5
100
AcDbLine
 10
-773.8311084381747
 20
-888.008179939089
 30
0.0
 11
-735.8311084381676
 21
-850.0081799390805
 31
0.0
  0
LINE
  5
81
330
1F
100
AcDbEntity
  8
0-0
  6
JWW_DASHED1
 62
   120
370
     5
100
AcDbLine
 10
-773.8311084381747
 20
-878.1086850038766
 30
0.0
 11
-735.8311084381744
 21
-840.1086850038721
 31
0.0
  0
LINE
  5
82
330
1F
100
AcDbEntity
  8
0-0
  6
JWW_DASHED1
 62
   120
370
     5
100
AcDbLine
 10
-773.8311084381747
 20
-868.209190068708
 30
0.0
 11
-735.831108438171
 21
-830.2091900687075
 31
0.0
  0
LINE
  5
83
330
1F
100
AcDbEntity
  8
0-0
  6
JWW_DASHED1
 62
   120
370
     5
100
AcDbLine
 10
-773.8311084381747
 20
-858.3096951334941
 30
0.0
 11
-735.8311084381812
 21
-820.3096951334991
 31
0.0
  0
LINE
  5
84
330
1F
100
AcDbEntity
  8
0-0
  6
JWW_DASHED1
 62
   120
370
     5
100
AcDbLine
 10
-773.8311084381747
 20
-848.4102001982754
 30
0.0
 11
-735.831108438171
 21
-810.4102001982754
 31
0.0
  0
LINE
  5
85
330
1F
100
AcDbEntity
  8
0-0
  6
JWW_DASHED1
 62
   120
370
     5
100
AcDbLine
 10
-773.8311084381747
 20
-838.5107052631145
 30
0.0
 11
-735.8311084381676
 21
-800.5107052631105
 31
0.0
  0
LINE
  5
86
330
1F
100
AcDbEntity
  8
0-0
  6
JWW_DASHED1
 62
   120
370
     5
100
AcDbLine
 10
-773.8311084381747
 20
-828.6112103279006
 30
0.0
 11
-735.8311084381778
 21
-790.6112103279024
 31
0.0
  0
LINE
  5
87
330
1F
100
AcDbEntity
  8
0-0
  6
JWW_DASHED1
 62
   120
370
     5
100
AcDbLine
 10
-773.8311084381747
 20
-818.7117153926832
 30
0.0
 11
-735.8311084381676
 21
-780.7117153926783
 31
0.0
  0
LINE
  5
88
330
1F
100
AcDbEntity
  8
0-0
  6
JWW_DASHED1
 62
   120
370
     5
100
AcDbLine
 10
-773.8311084381747
 20
-808.8122204575207
 30
0.0
 11
-735.8311084381812
 21
-770.8122204575294
 31
0.0
  0
LINE
  5
89
330
1F
100
AcDbEntity
  8
0-0
  6
JWW_DASHED1
 62
   120
370
     5
100
AcDbLine
 10
-773.8311084381747
 20
-798.912725522307
 30
0.0
 11
-735.8311084381744
 21
-760.9127255223058
 31
0.0
  0
LINE
  5
8A
330
1F
100
AcDbEntity
  8
0-0
  6
JWW_DASHED1
 62
   120
370
     5
100
AcDbLine
 10
-773.8311084381747
 20
-789.0132305870931
 30
0.0
 11
-735.8311084381676
 21
-751.0132305870818
 31
0.0
  0
LINE
  5
8B
330
1F
100
AcDbEntity
  8
0-0
  6
JWW_DASHED1
 62
   120
370
     5
100
AcDbLine
 10
-773.8311084381747
 20
-779.1137356519298
 30
0.0
 11
-735.8311084381812
 21
-741.1137356519325
 31
0.0
  0
LINE
  5
8C
330
1F
100
AcDbEntity
  8
0-0
  6
JWW_DASHED1
 62
   120
370
     5
100
AcDbLine
 10
-773.8311084381747
 20
-769.2142407167174
 30
0.0
 11
-735.8311084381744
 21
-731.2142407167086
 31
0.0
  0
LINE
  5
8D
330
1F
100
AcDbEntity
  8
0-0
  6
JWW_DASHED1
 62
   120
370
     5
100
AcDbLine
 10
-773.8311084381747
 20
-759.3147457815444
 30
0.0
 11
-735.8311084381676
 21
-721.3147457815439
 31
0.0
  0
LINE
  5
8E
330
1F
100
AcDbEntity
  8
0-0
  6
JWW_DASHED1
 62
   120
370
     5
100
AcDbLine
 10
-773.8311084381747
 20
-749.4152508463293
 30
0.0
 11
-735.8311084381778
 21
-711.4152508463355
 31
0.0
  0
LINE
  5
8F
330
1F
100
AcDbEntity
  8
0-0
  6
JWW_DASHED1
 62
   120
370
     5
100
AcDbLine
 10
-773.8311084381747
 20
-739.515755911117
 30
0.0
 11
-735.831108438171
 21
-701.5157559111119
 31
0.0
  0
LINE
  5
90
330
1F
100
AcDbEntity
  8
0-0
  6
JWW_DASHED1
 62
   120
370
     5
100
AcDbLine
 10
-773.8311084381747
 20
-729.6162609759552
 30
0.0
 11
-735.8311084381676
 21
-691.6162609759467
 31
0.0
  0
LINE
  5
91
330
1F
100
AcDbEntity
  8
0-0
  6
JWW_DASHED1
 62
   120
370
     5
100
AcDbLine
 10
-773.8311084381747
 20
-719.7167660407353
 30
0.0
 11
-735.8311084381744
 21
-681.7167660407389
 31
0.0
  0
LINE
  5
92
330
1F
100
AcDbEntity
  8
0-0
  6
JWW_DASHED1
 62
   120
370
     5
100
AcDbLine
 10
-773.8311084381747
 20
-709.8172711055238
 30
0.0
 11
-735.8311084381676
 21
-671.8172711055148
 31
0.0
  0
LINE
  5
93
330
1F
100
AcDbEntity
  8
0-0
  6
JWW_DASHED1
 62
   120
370
     5
100
AcDbLine
 10
-773.8311084381747
 20
-699.9177761703605
 30
0.0
 11
-735.8311084381812
 21
-661.9177761703656
 31
0.0
  0
LINE
  5
94
330
1F
100
AcDbEntity
  8
0-0
  6
JWW_DASHED1
 62
   120
370
     5
100
AcDbLine
 10
-773.8311084381747
 20
-690.0182812351463
 30
0.0
 11
-735.8311084381744
 21
-652.0182812351418
 31
0.0
  0
LINE
  5
95
330
1F
100
AcDbEntity
  8
0-0
  6
JWW_DASHED1
 62
   120
370
     5
100
AcDbLine
 10
-773.8311084381747
 20
-680.118786299931
 30
0.0
 11
-735.8311084381812
 21
-642.1187862999338
 31
0.0
  0
LINE
  5
96
330
1F
100
AcDbEntity
  8
0-0
  6
JWW_DASHED1
 62
   120
370
     5
100
AcDbLine
 10
-773.8311084381747
 20
-670.2192913647671
 30
0.0
 11
-735.8311084381778
 21
-632.2192913647688
 31
0.0
  0
LINE
  5
97
330
1F
100
AcDbEntity
  8
0-0
  6
JWW_DASHED1
 62
   120
370
     5
100
AcDbLine
 10
-773.8311084381747
 20
-660.3197964295524
 30
0.0
 11
-735.831108438171
 21
-622.319796429545
 31
0.0
  0
LINE
  5
98
330
1F
100
AcDbEntity
  8
0-0
  6
JWW_DASHED1
 62
   120
370
     5
100
AcDbLine
 10
-773.8311084381747
 20
-650.4203014943355
 30
0.0
 11
-735.8311084381778
 21
-612.4203014943367
 31
0.0
  0
LINE
  5
99
330
1F
100
AcDbEntity
  8
0-0
  6
JWW_DASHED1
 62
   120
370
     5
100
AcDbLine
 10
-773.8311084381747
 20
-640.520806559166
 30
0.0
 11
-735.8311084381744
 21
-602.520806559172
 31
0.0
  0
LINE
  5
9A
330
1F
100
AcDbEntity
  8
0-0
  6
JWW_DASHED1
 62
   120
370
     5
100
AcDbLine
 10
-773.8311084381747
 20
-630.6213116239592
 30
0.0
 11
-735.8311084381676
 21
-592.6213116239479
 31
0.0
  0
LINE
  5
9B
330
1F
100
AcDbEntity
  8
0-0
  6
JWW_DASHED1
 62
   120
370
     5
100
AcDbLine
 10
-773.8311084381747
 20
-620.7218166887345
 30
0.0
 11
-735.8311084381744
 21
-582.7218166887399
 31
0.0
  0
LINE
  5
9C
330
1F
100
AcDbEntity
  8
0-0
  6
JWW_DASHED1
 62
   120
370
     5
100
AcDbLine
 10
-773.8311084381747
 20
-610.8223217535766
 30
0.0
 11
-735.8311084381744
 21
-572.8223217535749
 31
0.0
  0
LINE
  5
9D
330
1F
100
AcDbEntity
  8
0-0
  6
JWW_DASHED1
 62
   120
370
     5
100
AcDbLine
 10
-773.8311084381747
 20
-600.9228268183624
 30
0.0
 11
-735.8311084381676
 21
-562.9228268183512
 31
0.0
  0
LINE
  5
9E
330
1F
100
AcDbEntity
  8
0-0
  6
JWW_DASHED1
 62
   120
370
     5
100
AcDbLine
 10
-773.8311084381747
 20
-591.0233318831446
 30
0.0
 11
-735.8311084381744
 21
-553.0233318831429
 31
0.0
  0
LINE
  5
9F
330
1F
100
AcDbEntity
  8
0-0
  6
JWW_DASHED1
 62
   120
370
     5
100
AcDbLine
 10
-773.8311084381747
 20
-581.1238369479831
 30
0.0
 11
-735.831108438171
 21
-543.1238369479781
 31
0.0
  0
LINE
  5
A0
330
1F
100
AcDbEntity
  8
0-0
  6
JWW_DASHED1
 62
   120
370
     5
100
AcDbLine
 10
-773.8311084381747
 20
-571.2243420127638
 30
0.0
 11
-735.8311084381778
 21
-533.2243420127701
 31
0.0
  0
LINE
  5
A1
330
1F
100
AcDbEntity
  8
0-0
  6
JWW_DASHED1
 62
   120
370
     5
100
AcDbLine
 10
-773.8311084381747
 20
-561.3248470775511
 30
0.0
 11
-735.831108438171
 21
-523.324847077546
 31
0.0
  0
LINE
  5
A2
330
1F
100
AcDbEntity
  8
0-0
  6
JWW_DASHED1
 62
   120
370
     5
100
AcDbLine
 10
-773.8311084381747
 20
-551.4253521423896
 30
0.0
 11
-735.8311084381676
 21
-513.425352142381
 31
0.0
  0
LINE
  5
A3
330
1F
100
AcDbEntity
  8
0-0
  6
JWW_DASHED1
 62
   120
370
     5
100
AcDbLine
 10
-773.8311084381747
 20
-541.5258572071702
 30
0.0
 11
-735.8311084381744
 21
-503.525857207173
 31
0.0
  0
LINE
  5
A4
330
1F
100
AcDbEntity
  8
0-0
  6
JWW_DASHED1
 62
   120
370
     5
100
AcDbLine
 10
-773.8311084381747
 20
-531.6263622719503
 30
0.0
 11
-735.8311084381676
 21
-493.6263622719494
 31
0.0
  0
LINE
  5
A5
330
1F
100
AcDbEntity
  8
0-0
  6
JWW_DASHED1
 62
   120
370
     5
100
AcDbLine
 10
-773.8311084381747
 20
-521.7268673367976
 30
0.0
 11
-735.8311084381812
 21
-483.7268673368
 31
0.0
  0
LINE
  5
A6
330
1F
100
AcDbEntity
  8
0-0
  6
JWW_DASHED1
 62
   120
370
     5
100
AcDbLine
 10
-773.8311084381747
 20
-511.8273724015806
 30
0.0
 11
-735.8311084381744
 21
-473.8273724015762
 31
0.0
  0
LINE
  5
A7
330
1F
100
AcDbEntity
  8
0-0
  6
JWW_DASHED1
 62
   120
370
     5
100
AcDbLine
 10
-773.8311084381747
 20
-501.9278774663609
 30
0.0
 11
-735.8311084381676
 21
-463.9278774663519
 31
0.0
  0
LINE
  5
A8
330
1F
100
AcDbEntity
  8
0-0
  6
JWW_DASHED1
 62
   120
370
     5
100
AcDbLine
 10
-773.8311084381747
 20
-492.0283825312006
 30
0.0
 11
-735.8311084381812
 21
-454.028382531203
 31
0.0
  0
LINE
  5
A9
330
1F
100
AcDbEntity
  8
0-0
  6
JWW_DASHED1
 62
   120
370
     5
100
AcDbLine
 10
-773.8311084381747
 20
-482.128887595981
 30
0.0
 11
-735.831108438171
 21
-444.1288875959789
 31
0.0
  0
LINE
  5
AA
330
1F
100
AcDbEntity
  8
0-0
  6
JWW_DASHED1
 62
   120
370
     5
100
AcDbLine
 10
-773.8311084381747
 20
-472.2293926607664
 30
0.0
 11
-735.8311084381812
 21
-434.2293926607711
 31
0.0
  0
LINE
  5
AB
330
1F
100
AcDbEntity
  8
0-0
  6
JWW_DASHED1
 62
   120
370
     5
100
AcDbLine
 10
-773.8311084381747
 20
-462.3298977256007
 30
0.0
 11
-735.8311084381744
 21
-424.3298977256059
 31
0.0
  0
LINE
  5
AC
330
1F
100
AcDbEntity
  8
0-0
  6
JWW_DASHED1
 62
   120
370
     5
100
AcDbLine
 10
-773.8311084381747
 20
-452.4304027903866
 30
0.0
 11
-735.8311084381676
 21
-414.4304027903827
 31
0.0
  0
LINE
  5
AD
330
1F
100
AcDbEntity
  8
0-0
  6
JWW_DASHED1
 62
   120
370
     5
100
AcDbLine
 10
-773.8311084381747
 20
-442.5309078551723
 30
0.0
 11
-735.8311084381778
 21
-404.5309078551745
 31
0.0
  0
LINE
  5
AE
330
1F
100
AcDbEntity
  8
0-0
  6
JWW_DASHED1
 62
   120
370
     5
100
AcDbLine
 10
-773.8311084381747
 20
-432.6314129200105
 30
0.0
 11
-735.8311084381744
 21
-394.6314129200093
 31
0.0
  0
LINE
  5
AF
330
1F
100
AcDbEntity
  8
0-0
  6
JWW_DASHED1
 62
   120
370
     5
100
AcDbLine
 10
-773.8311084381747
 20
-422.7319179847912
 30
0.0
 11
-735.8311084381812
 21
-384.731917984801
 31
0.0
  0
LINE
  5
B0
330
1F
100
AcDbEntity
  8
0-0
  6
JWW_DASHED1
 62
   120
370
     5
100
AcDbLine
 10
-773.8311084381747
 20
-412.8324230495787
 30
0.0
 11
-735.8311084381744
 21
-374.8324230495774
 31
0.0
  0
LINE
  5
B1
330
1F
100
AcDbEntity
  8
0-0
  6
JWW_DASHED1
 62
   120
370
     5
100
AcDbLine
 10
-773.8311084381747
 20
-402.9329281144164
 30
0.0
 11
-735.831108438171
 21
-364.9329281144127
 31
0.0
  0
LINE
  5
B2
330
1F
100
AcDbEntity
  8
0-0
  6
JWW_DASHED1
 62
   120
370
     5
100
AcDbLine
 10
-773.8311084381747
 20
-393.0334331792031
 30
0.0
 11
-735.8311084381812
 21
-355.0334331792039
 31
0.0
  0
LINE
  5
B3
330
1F
100
AcDbEntity
  8
0-0
  6
JWW_DASHED1
 62
   120
370
     5
100
AcDbLine
 10
-773.8311084381747
 20
-383.1339382439825
 30
0.0
 11
-735.8311084381744
 21
-345.1339382439804
 31
0.0
  0
LINE
  5
B4
330
1F
100
AcDbEntity
  8
0-0
  6
JWW_DASHED1
 62
   120
370
     5
100
AcDbLine
 10
-773.8311084381747
 20
-373.2344433088164
 30
0.0
 11
-735.8311084381676
 21
-335.2344433088156
 31
0.0
  0
LINE
  5
B5
330
1F
100
AcDbEntity
  8
0-0
  6
JWW_DASHED1
 62
   120
370
     5
100
AcDbLine
 10
-773.8311084381747
 20
-363.3349483736014
 30
0.0
 11
-735.8311084381778
 21
-325.3349483736077
 31
0.0
  0
LINE
  5
B6
330
1F
100
AcDbEntity
  8
0-0
  6
JWW_DASHED1
 62
   120
370
     5
100
AcDbLine
 10
-773.8311084381747
 20
-353.4354534383884
 30
0.0
 11
-735.831108438171
 21
-315.4354534383838
 31
0.0
  0
LINE
  5
B7
330
1F
100
AcDbEntity
  8
0-0
  6
JWW_DASHED1
 62
   120
370
     5
100
AcDbLine
 10
-773.8311084381747
 20
-343.5359585032274
 30
0.0
 11
-735.8311084381676
 21
-305.5359585032186
 31
0.0
  0
LINE
  5
B8
330
1F
100
AcDbEntity
  8
0-0
  6
JWW_DASHED1
 62
   120
370
     5
100
AcDbLine
 10
-773.8311084381747
 20
-333.6364635680077
 30
0.0
 11
-735.8311084381744
 21
-295.6364635680108
 31
0.0
  0
LINE
  5
B9
330
1F
100
AcDbEntity
  8
0-0
  6
JWW_DASHED1
 62
   120
370
     5
100
AcDbLine
 10
-773.8311084381747
 20
-323.7369686327957
 30
0.0
 11
-735.8311084381676
 21
-285.7369686327867
 31
0.0
  0
LINE
  5
BA
330
1F
100
AcDbEntity
  8
0-0
  6
JWW_DASHED1
 62
   120
370
     5
100
AcDbLine
 10
-773.8311084381747
 20
-313.8374736976278
 30
0.0
 11
-735.8311084381744
 21
-275.8374736976322
 31
0.0
  0
LINE
  5
BB
330
1F
100
AcDbEntity
  8
0-0
  6
JWW_DASHED1
 62
   120
370
     5
100
AcDbLine
 10
-773.8311084381747
 20
-303.9379787624175
 30
0.0
 11
-735.8311084381744
 21
-265.9379787624136
 31
0.0
  0
LINE
  5
BC
330
1F
100
AcDbEntity
  8
0-0
  6
JWW_DASHED1
 62
   120
370
     5
100
AcDbLine
 10
-773.8311084381747
 20
-294.0384838272037
 30
0.0
 11
-735.8311084381812
 21
-256.0384838272054
 31
0.0
  0
LINE
  5
BD
330
1F
100
AcDbEntity
  8
0-0
  6
JWW_DASHED1
 62
   120
370
     5
100
AcDbLine
 10
-773.8311084381747
 20
-284.1389888920394
 30
0.0
 11
-735.8311084381778
 21
-246.1389888920407
 31
0.0
  0
LINE
  5
BE
330
1F
100
AcDbEntity
  8
0-0
  6
JWW_DASHED1
 62
   120
370
     5
100
AcDbLine
 10
-773.8311084381747
 20
-274.239493956817
 30
0.0
 11
-735.831108438171
 21
-236.2394939568166
 31
0.0
  0
LINE
  5
BF
330
1F
100
AcDbEntity
  8
0-0
  6
JWW_DASHED1
 62
   120
370
     5
100
AcDbLine
 10
-773.8311084381747
 20
-264.3399990216024
 30
0.0
 11
-735.8311084381778
 21
-226.3399990216088
 31
0.0
  0
LINE
  5
C0
330
1F
100
AcDbEntity
  8
0-0
  6
JWW_DASHED1
 62
   120
370
     5
100
AcDbLine
 10
-773.8311084381747
 20
-254.4405040864385
 30
0.0
 11
-735.8311084381744
 21
-216.4405040864436
 31
0.0
  0
LINE
  5
C1
330
1F
100
AcDbEntity
  8
0-0
  6
JWW_DASHED1
 62
   120
370
     5
100
AcDbLine
 10
-773.8311084381747
 20
-244.5410091512302
 30
0.0
 11
-735.8311084381676
 21
-206.5410091512196
 31
0.0
  0
LINE
  5
C2
330
1F
100
AcDbEntity
  8
0-0
  6
JWW_DASHED1
 62
   120
370
     5
100
AcDbLine
 10
-773.8311084381747
 20
-234.6415142160066
 30
0.0
 11
-735.8311084381744
 21
-196.6415142160118
 31
0.0
  0
LINE
  5
C3
330
1F
100
AcDbEntity
  8
0-0
  6
JWW_DASHED1
 62
   120
370
     5
100
AcDbLine
 10
-773.8311084381747
 20
-224.7420192808487
 30
0.0
 11
-735.8311084381744
 21
-186.7420192808466
 31
0.0
  0
LINE
  5
C4
330
1F
100
AcDbEntity
  8
0-0
  6
JWW_DASHED1
 62
   120
370
     5
100
AcDbLine
 10
-773.8311084381747
 20
-214.8425243456353
 30
0.0
 11
-735.8311084381676
 21
-176.8425243456225
 31
0.0
  0
LINE
  5
C5
330
1F
100
AcDbEntity
  8
0-0
  6
JWW_DASHED1
 62
   120
370
     5
100
AcDbLine
 10
-773.8311084381747
 20
-204.9430294104168
 30
0.0
 11
-735.8311084381744
 21
-166.9430294104147
 31
0.0
  0
LINE
  5
C6
330
1F
100
AcDbEntity
  8
0-0
  6
JWW_DASHED1
 62
   120
370
     5
100
AcDbLine
 10
-773.8311084381747
 20
-195.043534475255
 30
0.0
 11
-735.831108438171
 21
-157.0435344752495
 31
0.0
  0
LINE
  5
C7
330
1F
100
AcDbEntity
  8
0-0
  6
JWW_DASHED1
 62
   120
370
     5
100
AcDbLine
 10
-773.8311084381747
 20
-185.1440395400353
 30
0.0
 11
-735.8311084381778
 21
-147.1440395400417
 31
0.0
  0
LINE
  5
C8
330
1F
100
AcDbEntity
  8
0-0
  6
JWW_DASHED1
 62
   120
370
     5
100
AcDbLine
 10
-773.8311084381747
 20
-175.2445446048513
 30
0.0
 11
-735.8311084381744
 21
-137.2445446048475
 31
0.0
  0
LINE
  5
C9
330
1F
100
AcDbEntity
  8
0-0
  6
JWW_DASHED1
 62
   120
370
     5
100
AcDbLine
 10
-773.8311084381747
 20
-165.3450496696537
 30
0.0
 11
-735.8311084381676
 21
-127.3450496696529
 31
0.0
  0
LINE
  5
CA
330
1F
100
AcDbEntity
  8
0-0
  6
JWW_DASHED1
 62
   120
370
     5
100
AcDbLine
 10
-773.8311084381747
 20
-155.4455547344408
 30
0.0
 11
-735.8311084381744
 21
-117.4455547344451
 31
0.0
  0
LINE
  5
CB
330
1F
100
AcDbEntity
  8
0-0
  6
JWW_DASHED1
 62
   120
370
     5
100
AcDbLine
 10
-773.8311084381747
 20
-145.5460597992509
 30
0.0
 11
-735.831108438171
 21
-107.5460597992505
 31
0.0
  0
LINE
  5
CC
330
1F
100
AcDbEntity
  8
0-0
  6
JWW_DASHED1
 62
   120
370
     5
100
AcDbLine
 10
-773.8311084381747
 20
-135.6465648640686
 30
0.0
 11
-735.8311084381812
 21
-97.64656486407162
 31
0.0
  0
LINE
  5
CD
330
1F
100
AcDbEntity
  8
0-0
  6
JWW_DASHED1
 62
   120
370
     5
100
AcDbLine
 10
-773.8311084381747
 20
-125.7470699288535
 30
0.0
 11
-735.8311084381744
 21
-87.7470699288476
 31
0.0
  0
LINE
  5
CE
330
1F
100
AcDbEntity
  8
0-0
  6
JWW_DASHED1
 62
   120
370
     5
100
AcDbLine
 10
-773.8311084381747
 20
-115.8475749936837
 30
0.0
 11
-735.831108438171
 21
-77.84757499368325
 31
0.0
  0
LINE
  5
CF
330
1F
100
AcDbEntity
  8
0-0
  6
JWW_DASHED1
 62
   120
370
     5
100
AcDbLine
 10
-773.8311084381747
 20
-105.9480800584737
 30
0.0
 11
-735.8311084381812
 21
-67.94808005847457
 31
0.0
  0
LINE
  5
D0
330
1F
100
AcDbEntity
  8
0-0
  6
JWW_DASHED1
 62
   120
370
     5
100
AcDbLine
 10
-773.8311084381747
 20
-96.0485851232518
 30
0.0
 11
-735.831108438171
 21
-58.0485851232514
 31
0.0
  0
LINE
  5
D1
330
1F
100
AcDbEntity
  8
0-0
  6
JWW_DASHED1
 62
   120
370
     5
100
AcDbLine
 10
-773.8311084381747
 20
-86.14909018809001
 30
0.0
 11
-735.8311084381676
 21
-48.14909018808621
 31
0.0
  0
LINE
  5
D2
330
1F
100
AcDbEntity
  8
0-0
  6
JWW_DASHED1
 62
   120
370
     5
100
AcDbLine
 10
-773.8311084381747
 20
-76.24959525287537
 30
0.0
 11
-735.8311084381778
 21
-38.24959525287838
 31
0.0
  0
LINE
  5
D3
330
1F
100
AcDbEntity
  8
0-0
  6
JWW_DASHED1
 62
   120
370
     5
100
AcDbLine
 10
-773.8311084381747
 20
-66.35010031765816
 30
0.0
 11
-735.8311084381676
 21
-28.35010031765435
 31
0.0
  0
LINE
  5
D4
330
1F
100
AcDbEntity
  8
0-0
  6
JWW_DASHED1
 62
   120
370
     5
100
AcDbLine
 10
-773.8311084381747
 20
-56.45060538249979
 30
0.0
 11
-735.8311084381676
 21
-18.45060538248916
 31
0.0
  0
LINE
  5
D5
330
1F
100
AcDbEntity
  8
0-0
  6
JWW_DASHED1
 62
   120
370
     5
100
AcDbLine
 10
-773.8311084381747
 20
-46.55111044728173
 30
0.0
 11
-735.8311084381744
 21
-8.551110447281332
 31
0.0
  0
LINE
  5
D6
330
1F
100
AcDbEntity
  8
0-0
  6
JWW_DASHED1
 62
   120
370
     5
100
AcDbLine
 10
-773.8311084381747
 20
-36.65161551206793
 30
0.0
 11
-735.8311084381676
 21
1.348384487942695
 31
0.0
  0
LINE
  5
D7
330
1F
100
AcDbEntity
  8
0-0
  6
JWW_DASHED1
 62
   120
370
     5
100
AcDbLine
 10
-773.8311084381747
 20
-26.75212057690104
 30
0.0
 11
-735.831108438171
 21
11.24787942309936
 31
0.0
  0
LINE
  5
D8
330
1F
100
AcDbEntity
  8
0-0
  6
JWW_DASHED1
 62
   120
370
     5
100
AcDbLine
 10
-773.8311084381747
 20
-16.8526256416898
 30
0.0
 11
-735.831108438171
 21
21.14737435831572
 31
0.0
  0
LINE
  5
D9
330
1F
100
AcDbEntity
  8
0-0
  6
JWW_DASHED1
 62
   120
370
     5
100
AcDbLine
 10
-773.8311084381747
 20
-6.953130706473445
 30
0.0
 11
-735.8311084381812
 21
31.04686929352354
 31
0.0
  0
LINE
  5
DA
330
1F
100
AcDbEntity
  8
0-0
  6
JWW_DASHED1
 62
   120
370
     5
100
AcDbLine
 10
-773.8311084381747
 20
2.94636422869516
 30
0.0
 11
-735.8311084381778
 21
40.94636422868874
 31
0.0
  0
LINE
  5
DB
330
1F
100
AcDbEntity
  8
0-0
  6
JWW_DASHED1
 62
   120
370
     5
100
AcDbLine
 10
-773.8311084381747
 20
12.84585916391109
 30
0.0
 11
-735.8311084381676
 21
50.84585916391276
 31
0.0
  0
LINE
  5
DC
330
1F
100
AcDbEntity
  8
0-0
  6
JWW_DASHED1
 62
   120
370
     5
100
AcDbLine
 10
-773.8311084381747
 20
22.74535409912701
 30
0.0
 11
-735.8311084381778
 21
60.74535409912059
 31
0.0
  0
LINE
  5
DD
330
1F
100
AcDbEntity
  8
0-0
  6
JWW_DASHED1
 62
   120
370
     5
100
AcDbLine
 10
-773.8311084381747
 20
32.6448490342807
 30
0.0
 11
-735.8311084381744
 21
70.64484903428578
 31
0.0
  0
LINE
  5
DE
330
1F
100
AcDbEntity
  8
0-0
  6
JWW_DASHED1
 62
   120
370
     5
100
AcDbLine
 10
-773.8311084381747
 20
42.54434396950131
 30
0.0
 11
-735.8311084381676
 21
80.54434396950938
 31
0.0
  0
LINE
  5
DF
330
1F
100
AcDbEntity
  8
0-0
  6
JWW_DASHED1
 62
   120
370
     5
100
AcDbLine
 10
-773.8311084381747
 20
52.44383890472065
 30
0.0
 11
-735.8311084381744
 21
90.44383890471764
 31
0.0
  0
LINE
  5
E0
330
1F
100
AcDbEntity
  8
0-0
  6
JWW_DASHED1
 62
   120
370
     5
100
AcDbLine
 10
-773.8311084381747
 20
62.3433338398786
 30
0.0
 11
-735.8311084381744
 21
100.3433338398824
 31
0.0
  0
LINE
  5
E1
330
1F
100
AcDbEntity
  8
0-0
  6
JWW_DASHED1
 62
   120
370
     5
100
AcDbLine
 10
-773.8311084381747
 20
72.24282877509495
 30
0.0
 11
-735.8311084381642
 21
110.2428287751064
 31
0.0
  0
LINE
  5
E2
330
1F
100
AcDbEntity
  8
0-0
  6
JWW_DASHED1
 62
   120
370
     5
100
AcDbLine
 10
-773.8311084381747
 20
82.14232371031088
 30
0.0
 11
-735.8311084381744
 21
120.1423237103147
 31
0.0
  0
LINE
  5
E3
330
1F
100
AcDbEntity
  8
0-0
  6
JWW_DASHED1
 62
   120
370
     5
100
AcDbLine
 10
-773.8311084381747
 20
92.04181864547223
 30
0.0
 11
-735.831108438171
 21
130.0418186454795
 31
0.0
  0
LINE
  5
E4
330
1F
100
AcDbEntity
  8
0-0
  6
JWW_DASHED1
 62
   120
370
     5
100
AcDbLine
 10
-773.8311084381747
 20
101.941313580689
 30
0.0
 11
-735.8311084381778
 21
139.9413135806877
 31
0.0
  0
LINE
  5
E5
330
1F
100
AcDbEntity
  8
0-0
  6
JWW_DASHED1
 62
   120
370
     5
100
AcDbLine
 10
-773.8311084381747
 20
111.8408085159109
 30
0.0
 11
-735.831108438171
 21
149.8408085159113
 31
0.0
  0
LINE
  5
E6
330
1F
100
AcDbEntity
  8
0-0
  6
JWW_DASHED1
 62
   120
370
     5
100
AcDbLine
 10
-773.8311084381747
 20
121.7403034510646
 30
0.0
 11
-735.8311084381676
 21
159.7403034510765
 31
0.0
  0
LINE
  5
E7
330
1F
100
AcDbEntity
  8
0-0
  6
JWW_DASHED1
 62
   120
370
     5
100
AcDbLine
 10
-773.8311084381747
 20
131.6397983862903
 30
0.0
 11
-735.8311084381744
 21
169.6397983862843
 31
0.0
  0
LINE
  5
E8
330
1F
100
AcDbEntity
  8
0-0
  6
JWW_DASHED1
 62
   120
370
     5
100
AcDbLine
 10
-773.8311084381747
 20
141.5392933215037
 30
0.0
 11
-735.8311084381676
 21
179.5392933215084
 31
0.0
  0
LINE
  5
E9
330
1F
100
AcDbEntity
  8
0-0
  6
JWW_DASHED1
 62
   120
370
     5
100
AcDbLine
 10
-773.8311084381747
 20
151.4387882566595
 30
0.0
 11
-735.8311084381812
 21
189.4387882566578
 31
0.0
  0
LINE
  5
EA
330
1F
100
AcDbEntity
  8
0-0
  6
JWW_DASHED1
 62
   120
370
     5
100
AcDbLine
 10
-773.8311084381747
 20
161.3382831918801
 30
0.0
 11
-735.8311084381744
 21
199.3382831918814
 31
0.0
  0
LINE
  5
EB
330
1F
100
AcDbEntity
  8
0-0
  6
JWW_DASHED1
 62
   120
370
     5
100
AcDbLine
 10
-773.8311084381747
 20
171.2377781270943
 30
0.0
 11
-735.8311084381676
 21
209.237778127105
 31
0.0
  0
LINE
  5
EC
330
1F
100
AcDbEntity
  8
0-0
  6
JWW_DASHED1
 62
   120
370
     5
100
AcDbLine
 10
-773.8311084381747
 20
181.1372730622604
 30
0.0
 11
-735.8311084381778
 21
219.1372730622548
 31
0.0
  0
LINE
  5
ED
330
1F
100
AcDbEntity
  8
0-0
  6
JWW_DASHED1
 62
   120
370
     5
100
AcDbLine
 10
-773.8311084381747
 20
191.0367679974729
 30
0.0
 11
-735.831108438171
 21
229.0367679974784
 31
0.0
  0
LINE
  5
EE
330
1F
100
AcDbEntity
  8
0-0
  6
JWW_DASHED1
 62
   120
370
     5
100
AcDbLine
 10
-773.8311084381747
 20
200.9362629326914
 30
0.0
 11
-735.8311084381676
 21
238.9362629326961
 31
0.0
  0
LINE
  5
EF
330
1F
100
AcDbEntity
  8
0-0
  6
JWW_DASHED1
 62
   120
370
     5
100
AcDbLine
 10
-773.8311084381747
 20
210.8357578678536
 30
0.0
 11
-735.8311084381744
 21
248.8357578678514
 31
0.0
  0
LINE
  5
F0
330
1F
100
AcDbEntity
  8
0-0
  6
JWW_DASHED1
 62
   120
370
     5
100
AcDbLine
 10
-773.8311084381747
 20
220.7352528030742
 30
0.0
 11
-735.8311084381676
 21
258.735252803075
 31
0.0
  0
LINE
  5
F1
330
1F
100
AcDbEntity
  8
0-0
  6
JWW_DASHED1
 62
   120
370
     5
100
AcDbLine
 10
-773.8311084381747
 20
230.6347477382816
 30
0.0
 11
-735.8311084381778
 21
268.6347477382833
 31
0.0
  0
LINE
  5
F2
330
1F
100
AcDbEntity
  8
0-0
  6
JWW_DASHED1
 62
   120
370
     5
100
AcDbLine
 10
-773.8311084381747
 20
240.5342426734443
 30
0.0
 11
-735.8311084381744
 21
278.534242673448
 31
0.0
  0
LINE
  5
F3
330
1F
100
AcDbEntity
  8
0-0
  6
JWW_DASHED1
 62
   120
370
     5
100
AcDbLine
 10
-773.8311084381747
 20
250.4337376086661
 30
0.0
 11
-735.8311084381812
 21
288.4337376086563
 31
0.0
  0
LINE
  5
F4
330
1F
100
AcDbEntity
  8
0-0
  6
JWW_DASHED1
 62
   120
370
     5
100
AcDbLine
 10
-773.8311084381747
 20
260.3332325438761
 30
0.0
 11
-735.8311084381744
 21
298.3332325438799
 31
0.0
  0
LINE
  5
F5
330
1F
100
AcDbEntity
  8
0-0
  6
JWW_DASHED1
 62
   120
370
     5
100
AcDbLine
 10
-773.8311084381747
 20
270.2327274790447
 30
0.0
 11
-735.831108438171
 21
308.2327274790451
 31
0.0
  0
LINE
  5
F6
330
1F
100
AcDbEntity
  8
0-0
  6
JWW_DASHED1
 62
   120
370
     5
100
AcDbLine
 10
-773.8311084381747
 20
280.1322224142559
 30
0.0
 11
-735.8311084381812
 21
318.132222414253
 31
0.0
  0
LINE
  5
F7
330
1F
100
AcDbEntity
  8
0-0
  6
JWW_DASHED1
 62
   120
370
     5
100
AcDbLine
 10
-773.8311084381747
 20
290.0317173494766
 30
0.0
 11
-735.831108438171
 21
328.0317173494769
 31
0.0
  0
LINE
  5
F8
330
1F
100
AcDbEntity
  8
0-0
  6
JWW_DASHED1
 62
   120
370
     5
100
AcDbLine
 10
-773.8311084381747
 20
299.9312122846375
 30
0.0
 11
-735.8311084381676
 21
337.9312122846421
 31
0.0
  0
LINE
  5
F9
330
1F
100
AcDbEntity
  8
0-0
  6
JWW_DASHED1
 62
   120
370
     5
100
AcDbLine
 10
-773.8311084381747
 20
309.8307072198521
 30
0.0
 11
-735.8311084381778
 21
347.83070721985
 31
0.0
  0
LINE
  5
FA
330
1F
100
AcDbEntity
  8
0-0
  6
JWW_DASHED1
 62
   120
370
     5
100
AcDbLine
 10
-773.8311084381747
 20
319.7302021550702
 30
0.0
 11
-735.8311084381676
 21
357.730202155074
 31
0.0
  0
LINE
  5
FB
330
1F
100
AcDbEntity
  8
0-0
  6
JWW_DASHED1
 62
   120
370
     5
100
AcDbLine
 10
-773.8311084381747
 20
329.6296970902273
 30
0.0
 11
-735.8311084381676
 21
367.6296970902392
 31
0.0
  0
LINE
  5
FC
330
1F
100
AcDbEntity
  8
0-0
  6
JWW_DASHED1
 62
   120
370
     5
100
AcDbLine
 10
-773.8311084381747
 20
339.5291920254449
 30
0.0
 11
-735.8311084381744
 21
377.5291920254471
 31
0.0
  0
LINE
  5
FD
330
1F
100
AcDbEntity
  8
0-0
  6
JWW_DASHED1
 62
   120
370
     5
100
AcDbLine
 10
-773.8311084381747
 20
349.4286869606591
 30
0.0
 11
-735.8311084381676
 21
387.428686960671
 31
0.0
  0
LINE
  5
FE
330
1F
100
AcDbEntity
  8
0-0
  6
JWW_DASHED1
 62
   120
370
     5
100
AcDbLine
 10
-773.8311084381747
 20
359.3281818958286
 30
0.0
 11
-735.8311084381642
 21
397.3281818958358
 31
0.0
  0
LINE
  5
FF
330
1F
100
AcDbEntity
  8
0-0
  6
JWW_DASHED1
 62
   120
370
     5
100
AcDbLine
 10
-773.8311084381747
 20
369.2276768310386
 30
0.0
 11
-735.831108438171
 21
407.2276768310441
 31
0.0
  0
LINE
  5
100
330
1F
100
AcDbEntity
  8
0-0
  6
JWW_DASHED1
 62
   120
370
     5
100
AcDbLine
 10
-773.8311084381747
 20
379.1271717662549
 30
0.0
 11
-735.8311084381812
 21
417.1271717662519
 31
0.0
  0
LINE
  5
101
330
1F
100
AcDbEntity
  8
0-0
  6
JWW_DASHED1
 62
   120
370
     5
100
AcDbLine
 10
-773.8311084381747
 20
389.0266667014167
 30
0.0
 11
-735.8311084381778
 21
427.0266667014171
 31
0.0
  0
LINE
  5
102
330
1F
100
AcDbEntity
  8
0-0
  6
JWW_DASHED1
 62
   120
370
     5
100
AcDbLine
 10
-773.8311084381747
 20
398.9261616366399
 30
0.0
 11
-735.8311084381676
 21
436.9261616366407
 31
0.0
  0
LINE
  5
103
330
1F
100
AcDbEntity
  8
0-0
  6
JWW_DASHED1
 62
   120
370
     5
100
AcDbLine
 10
-773.8311084381747
 20
408.8256565718553
 30
0.0
 11
-735.8311084381778
 21
446.825656571849
 31
0.0
  0
LINE
  5
104
330
1F
100
AcDbEntity
  8
0-0
  6
JWW_DASHED1
 62
   120
370
     5
100
AcDbLine
 10
-773.8311084381747
 20
418.7251515070108
 30
0.0
 11
-735.8311084381744
 21
456.7251515070137
 31
0.0
  0
LINE
  5
105
330
1F
100
AcDbEntity
  8
0-0
  6
JWW_DASHED1
 62
   120
370
     5
100
AcDbLine
 10
-773.8311084381747
 20
428.6246464422297
 30
0.0
 11
-735.8311084381676
 21
466.6246464422377
 31
0.0
  0
LINE
  5
106
330
1F
100
AcDbEntity
  8
0-0
  6
JWW_DASHED1
 62
   120
370
     5
100
AcDbLine
 10
-773.8311084381747
 20
438.5241413774226
 30
0.0
 11
-735.8311084381778
 21
476.5241413774162
 31
0.0
  0
LINE
  5
107
330
1F
100
AcDbEntity
  8
0-0
  6
JWW_DASHED1
 62
   120
370
     5
100
AcDbLine
 10
-773.8311084381747
 20
448.423636312607
 30
0.0
 11
-735.8311084381744
 21
486.4236363126108
 31
0.0
  0
LINE
  5
108
330
1F
100
AcDbEntity
  8
0-0
  6
JWW_DASHED1
 62
   120
370
     5
100
AcDbLine
 10
-773.8311084381747
 20
458.3231312478225
 30
0.0
 11
-735.8311084381642
 21
496.3231312478348
 31
0.0
  0
LINE
  5
109
330
1F
100
AcDbEntity
  8
0-0
  6
JWW_DASHED1
 62
   120
370
     5
100
AcDbLine
 10
-773.8311084381747
 20
468.2226261829894
 30
0.0
 11
-735.8311084381778
 21
506.2226261829838
 31
0.0
  0
LINE
  5
10A
330
1F
100
AcDbEntity
  8
0-0
  6
JWW_DASHED1
 62
   120
370
     5
100
AcDbLine
 10
-773.8311084381747
 20
478.1221211181993
 30
0.0
 11
-735.831108438171
 21
516.1221211182078
 31
0.0
  0
LINE
  5
10B
330
1F
100
AcDbEntity
  8
0-0
  6
JWW_DASHED1
 62
   120
370
     5
100
AcDbLine
 10
-773.8311084381747
 20
488.0216160534178
 30
0.0
 11
-735.8311084381778
 21
526.0216160534156
 31
0.0
  0
LINE
  5
10C
330
1F
100
AcDbEntity
  8
0-0
  6
JWW_DASHED1
 62
   120
370
     5
100
AcDbLine
 10
-773.8311084381747
 20
497.921110988586
 30
0.0
 11
-735.8311084381744
 21
535.9211109885808
 31
0.0
  0
LINE
  5
10D
330
1F
100
AcDbEntity
  8
0-0
  6
JWW_DASHED1
 62
   120
370
     5
100
AcDbLine
 10
-773.8311084381747
 20
507.8206059237938
 30
0.0
 11
-735.8311084381676
 21
545.8206059238045
 31
0.0
  0
LINE
  5
10E
330
1F
100
AcDbEntity
  8
0-0
  6
JWW_DASHED1
 62
   120
370
     5
100
AcDbLine
 10
-773.8311084381747
 20
517.7201008590187
 30
0.0
 11
-735.8311084381744
 21
555.7201008590127
 31
0.0
  0
LINE
  5
10F
330
1F
100
AcDbEntity
  8
0-0
  6
JWW_DASHED1
 62
   120
370
     5
100
AcDbLine
 10
-773.8311084381747
 20
527.619595794169
 30
0.0
 11
-735.8311084381744
 21
565.6195957941775
 31
0.0
  0
LINE
  5
110
330
1F
100
AcDbEntity
  8
0-0
  6
JWW_DASHED1
 62
   120
370
     5
100
AcDbLine
 10
-773.8311084381747
 20
537.5190907293887
 30
0.0
 11
-735.8311084381812
 21
575.5190907293857
 31
0.0
  0
LINE
  5
111
330
1F
100
AcDbEntity
  8
0-0
  6
JWW_DASHED1
 62
   120
370
     5
100
AcDbLine
 10
-773.8311084381747
 20
547.418585664608
 30
0.0
 11
-735.8311084381744
 21
585.4185856646093
 31
0.0
  0
LINE
  5
112
330
1F
100
AcDbEntity
  8
0-0
  6
JWW_DASHED1
 62
   120
370
     5
100
AcDbLine
 10
-773.8311084381747
 20
557.3180805997698
 30
0.0
 11
-735.831108438171
 21
595.3180805997745
 31
0.0
  0
LINE
  5
113
330
1F
100
AcDbEntity
  8
0-0
  6
JWW_DASHED1
 62
   120
370
     5
100
AcDbLine
 10
-773.8311084381747
 20
567.2175755349883
 30
0.0
 11
-735.8311084381778
 21
605.2175755349828
 31
0.0
  0
LINE
  5
114
330
1F
100
AcDbEntity
  8
0-0
  6
JWW_DASHED1
 62
   120
370
     5
100
AcDbLine
 10
-773.8311084381747
 20
577.1170704702008
 30
0.0
 11
-735.831108438171
 21
615.1170704702064
 31
0.0
  0
LINE
  5
115
330
1F
100
AcDbEntity
  8
0-0
  6
JWW_DASHED1
 62
   120
370
     5
100
AcDbLine
 10
-773.8311084381747
 20
587.0165654053626
 30
0.0
 11
-735.8311084381676
 21
625.0165654053716
 31
0.0
  0
LINE
  5
116
330
1F
100
AcDbEntity
  8
0-0
  6
JWW_DASHED1
 62
   120
370
     5
100
AcDbLine
 10
-773.8311084381747
 20
596.9160603405824
 30
0.0
 11
-735.8311084381744
 21
634.9160603405794
 31
0.0
  0
LINE
  5
117
330
1F
100
AcDbEntity
  8
0-0
  6
JWW_DASHED1
 62
   120
370
     5
100
AcDbLine
 10
-773.8311084381747
 20
606.8155552758013
 30
0.0
 11
-735.8311084381676
 21
644.8155552758034
 31
0.0
  0
LINE
  5
118
330
1F
100
AcDbEntity
  8
0-0
  6
JWW_DASHED1
 62
   120
370
     5
100
AcDbLine
 10
-773.8311084381747
 20
616.7150502109529
 30
0.0
 11
-735.8311084381676
 21
654.7150502109682
 31
0.0
  0
LINE
  5
119
330
1F
100
AcDbEntity
  8
0-0
  6
JWW_DASHED1
 62
   120
370
     5
100
AcDbLine
 10
-773.8311084381747
 20
626.6145451461726
 30
0.0
 11
-735.8311084381744
 21
664.6145451461764
 31
0.0
  0
LINE
  5
11A
330
1F
100
AcDbEntity
  8
0-0
  6
JWW_DASHED1
 62
   120
370
     5
100
AcDbLine
 10
-773.8311084381747
 20
636.5140400813915
 30
0.0
 11
-735.8311084381676
 21
674.5140400814005
 31
0.0
  0
LINE
  5
11B
330
1F
100
AcDbEntity
  8
0-0
  6
JWW_DASHED1
 62
   120
370
     5
100
AcDbLine
 10
-773.8311084381747
 20
646.4135350165508
 30
0.0
 11
-735.8311084381642
 21
684.4135350165631
 31
0.0
  0
LINE
  5
11C
330
1F
100
AcDbEntity
  8
0-0
  6
JWW_DASHED1
 62
   120
370
     5
100
AcDbLine
 10
-773.8311084381747
 20
656.3130299517723
 30
0.0
 11
-735.831108438171
 21
694.3130299517735
 31
0.0
  0
LINE
  5
11D
330
1F
100
AcDbEntity
  8
0-0
  6
JWW_DASHED1
 62
   120
370
     5
100
AcDbLine
 10
-773.8311084381747
 20
666.2125248869843
 30
0.0
 11
-735.8311084381812
 21
704.2125248869813
 31
0.0
  0
LINE
  5
11E
330
1F
100
AcDbEntity
  8
0-0
  6
JWW_DASHED1
 62
   120
370
     5
100
AcDbLine
 10
-773.8311084381747
 20
676.1120198221516
 30
0.0
 11
-735.8311084381744
 21
714.1120198221465
 31
0.0
  0
LINE
  5
11F
330
1F
100
AcDbEntity
  8
0-0
  6
JWW_DASHED1
 62
   120
370
     5
100
AcDbLine
 10
-773.8311084381747
 20
686.0115147573663
 30
0.0
 11
-735.8311084381676
 21
724.0115147573702
 31
0.0
  0
LINE
  5
120
330
1F
100
AcDbEntity
  8
0-0
  6
JWW_DASHED1
 62
   120
370
     5
100
AcDbLine
 10
-773.8311084381747
 20
695.911009692578
 30
0.0
 11
-735.8311084381778
 21
733.9110096925783
 31
0.0
  0
LINE
  5
121
330
1F
100
AcDbEntity
  8
0-0
  6
JWW_DASHED1
 62
   120
370
     5
100
AcDbLine
 10
-773.8311084381747
 20
705.8105046277419
 30
0.0
 11
-735.8311084381744
 21
743.8105046277427
 31
0.0
  0
LINE
  5
122
330
1F
100
AcDbEntity
  8
0-0
  6
JWW_DASHED1
 62
   120
370
     5
100
AcDbLine
 10
-773.8311084381747
 20
715.7099995629561
 30
0.0
 11
-735.8311084381676
 21
753.7099995629671
 31
0.0
  0
LINE
  5
123
330
1F
100
AcDbEntity
  8
0-0
  6
JWW_DASHED1
 62
   120
370
     5
100
AcDbLine
 10
-773.8311084381747
 20
725.6094944981733
 30
0.0
 11
-735.8311084381744
 21
763.6094944981754
 31
0.0
  0
LINE
  5
124
330
1F
100
AcDbEntity
  8
0-0
  6
JWW_DASHED1
 62
   120
370
     5
100
AcDbLine
 10
-773.8311084381747
 20
735.5089894333355
 30
0.0
 11
-735.831108438171
 21
773.5089894333402
 31
0.0
  0
LINE
  5
125
330
1F
100
AcDbEntity
  8
0-0
  6
JWW_DASHED1
 62
   120
370
     5
100
AcDbLine
 10
-773.8311084381747
 20
745.4084843685565
 30
0.0
 11
-735.8311084381642
 21
783.4084843685638
 31
0.0
  0
LINE
  5
126
330
1F
100
AcDbEntity
  8
0-0
  6
JWW_DASHED1
 62
   120
370
     5
100
AcDbLine
 10
-773.8311084381747
 20
755.3079793037635
 30
0.0
 11
-735.8311084381744
 21
793.3079793037721
 31
0.0
  0
LINE
  5
127
330
1F
100
AcDbEntity
  8
0-0
  6
JWW_DASHED1
 62
   120
370
     5
100
AcDbLine
 10
-773.8311084381747
 20
765.2074742389356
 30
0.0
 11
-735.8311084381676
 21
803.2074742389373
 31
0.0
  0
LINE
  5
128
330
1F
100
AcDbEntity
  8
0-0
  6
JWW_DASHED1
 62
   120
370
     5
100
AcDbLine
 10
-773.8311084381747
 20
775.1069691741515
 30
0.0
 11
-735.8311084381778
 21
813.1069691741446
 31
0.0
  0
LINE
  5
129
330
1F
100
AcDbEntity
  8
0-0
  6
JWW_DASHED1
 62
   120
370
     5
100
AcDbLine
 10
-773.8311084381747
 20
785.0064641093683
 30
0.0
 11
-735.8311084381676
 21
823.0064641093691
 31
0.0
  0
LINE
  5
12A
330
1F
100
AcDbEntity
  8
0-0
  6
JWW_DASHED1
 62
   120
370
     5
100
AcDbLine
 10
-773.8311084381747
 20
794.9059590445257
 30
0.0
 11
-735.8311084381676
 21
832.9059590445338
 31
0.0
  0
LINE
  5
12B
330
1F
100
AcDbEntity
  8
0-0
  6
JWW_DASHED1
 62
   120
370
     5
100
AcDbLine
 10
-773.8311084381747
 20
804.8054539797452
 30
0.0
 11
-735.8311084381744
 21
842.8054539797421
 31
0.0
  0
LINE
  5
12C
330
1F
100
AcDbEntity
  8
0-0
  6
JWW_DASHED1
 62
   120
370
     5
100
AcDbLine
 10
-773.8311084381747
 20
814.7049489149576
 30
0.0
 11
-735.8311084381676
 21
852.7049489149657
 31
0.0
  0
LINE
  5
12D
330
1F
100
AcDbEntity
  8
0-0
  6
JWW_DASHED1
 62
   120
370
     5
100
AcDbLine
 10
-773.8311084381747
 20
824.6044438501177
 30
0.0
 11
-735.8311084381812
 21
862.6044438501151
 31
0.0
  0
LINE
  5
12E
330
1F
100
AcDbEntity
  8
0-0
  6
JWW_DASHED1
 62
   120
370
     5
100
AcDbLine
 10
-773.8311084381747
 20
834.5039387853341
 30
0.0
 11
-735.8311084381744
 21
872.5039387853392
 31
0.0
  0
LINE
  5
12F
330
1F
100
AcDbEntity
  8
0-0
  6
JWW_DASHED1
 62
   120
370
     5
100
AcDbLine
 10
-773.8311084381747
 20
844.4034337205512
 30
0.0
 11
-735.8311084381642
 21
882.4034337205627
 31
0.0
  0
LINE
  5
130
330
1F
100
AcDbEntity
  8
0-0
  6
JWW_DASHED1
 62
   120
370
     5
100
AcDbLine
 10
-773.8311084381747
 20
854.3029286557181
 30
0.0
 11
-735.8311084381778
 21
892.3029286557118
 31
0.0
  0
LINE
  5
131
330
1F
100
AcDbEntity
  8
0-0
  6
JWW_DASHED1
 62
   120
370
     5
100
AcDbLine
 10
-773.8311084381747
 20
864.2024235909286
 30
0.0
 11
-735.831108438171
 21
902.2024235909357
 31
0.0
  0
LINE
  5
132
330
1F
100
AcDbEntity
  8
0-0
  6
JWW_DASHED1
 62
   120
370
     5
100
AcDbLine
 10
-773.8311084381747
 20
874.1019185261508
 30
0.0
 11
-735.8311084381608
 21
912.1019185261594
 31
0.0
  0
LINE
  5
133
330
1F
100
AcDbEntity
  8
0-0
  6
JWW_DASHED1
 62
   120
370
     5
100
AcDbLine
 10
-773.8311084381747
 20
884.0014134613148
 30
0.0
 11
-735.8311084381744
 21
922.0014134613087
 31
0.0
  0
LINE
  5
134
330
1F
100
AcDbEntity
  8
0-0
  6
JWW_DASHED1
 62
   120
370
     5
100
AcDbLine
 10
-773.8311084381747
 20
893.9009083965221
 30
0.0
 11
-735.8311084381676
 21
931.9009083965328
 31
0.0
  0
LINE
  5
135
330
1F
100
AcDbEntity
  8
0-0
  6
JWW_DASHED1
 62
   120
370
     5
100
AcDbLine
 10
-773.8311084381747
 20
903.8004033317462
 30
0.0
 11
-735.8311084381744
 21
941.8004033317407
 31
0.0
  0
LINE
  5
136
330
1F
100
AcDbEntity
  8
0-0
  6
JWW_DASHED1
 62
   120
370
     5
100
AcDbLine
 10
-773.8311084381747
 20
923.5993932021265
 30
0.0
 11
-735.8311084381744
 21
961.5993932021154
 31
0.0
  0
LINE
  5
137
330
1F
100
AcDbEntity
  8
0-0
  6
JWW_DASHED1
 62
   120
370
     5
100
AcDbLine
 10
-773.8311084381747
 20
913.699898266908
 30
0.0
 11
-735.8311084381744
 21
951.6998982669015
 31
0.0
  0
LINE
  5
138
330
1F
100
AcDbEntity
  8
0-0
  6
JWW_DASHED1
 62
   120
370
     5
100
AcDbLine
 10
-773.8311084381747
 20
-917.706664744634
 30
0.0
 11
-735.8311084381778
 21
-879.706664744634
 31
0.0
  0
LINE
  5
139
330
1F
100
AcDbEntity
  8
0-0
  6
JWW_DASHED1
 62
   120
370
     5
100
AcDbLine
 10
-773.8311084381747
 20
-927.6061596797988
 30
0.0
 11
-735.8311084381778
 21
-889.6061596797987
 31
0.0
  0
LINE
  5
13A
330
1F
100
AcDbEntity
  8
0-0
  6
JWW_DASHED1
 62
   120
370
     5
100
AcDbLine
 10
-773.8311084381747
 20
-937.5056546149634
 30
0.0
 11
-735.8311084381778
 21
-899.5056546149636
 31
0.0
  0
LINE
  5
13B
330
1F
100
AcDbEntity
  8
0-0
  6
JWW_DASHED1
 62
   120
370
     5
100
AcDbLine
 10
-771.0304278589296
 20
-944.6044689708824
 30
0.0
 11
-735.8311084381778
 21
-909.4051495501284
 31
0.0
  0
LINE
  5
13C
330
1F
100
AcDbEntity
  8
0-0
  6
JWW_DASHED1
 62
   120
370
     5
100
AcDbLine
 10
-741.3319430534374
 20
-944.6044689708824
 30
0.0
 11
-735.8311084381778
 21
-939.1036343556227
 31
0.0
  0
LINE
  5
13D
330
1F
100
AcDbEntity
  8
0-0
  6
JWW_DASHED1
 62
   120
370
     5
100
AcDbLine
 10
-761.1309329237652
 20
-944.6044689708824
 30
0.0
 11
-735.8311084381778
 21
-919.3046444852931
 31
0.0
  0
LINE
  5
13E
330
1F
100
AcDbEntity
  8
0-0
  6
JWW_DASHED1
 62
   120
370
     5
100
AcDbLine
 10
-751.2314379886009
 20
-944.6044689708824
 30
0.0
 11
-735.8311084381778
 21
-929.2041394204578
 31
0.0
  0
LINE
  5
13F
330
1F
100
AcDbEntity
  8
0-0
  6
JWW_DASHED1
 62
   120
370
     5
100
AcDbLine
 10
-773.8311084381747
 20
933.4988881373449
 30
0.0
 11
-735.8311084381744
 21
971.4988881373338
 31
0.0
  0
LINE
  5
140
330
1F
100
AcDbEntity
  8
0-0
  6
JWW_DASHED1
 62
   120
370
     5
100
AcDbLine
 10
-773.8311084381747
 20
943.3983830725634
 30
0.0
 11
-735.8311084381744
 21
981.3983830725523
 31
0.0
  0
LINE
  5
141
330
1F
100
AcDbEntity
  8
0-0
  6
JWW_DASHED1
 62
   120
370
     5
100
AcDbLine
 10
-773.8311084381747
 20
953.297878007782
 30
0.0
 11
-735.8311084381744
 21
991.2978780077708
 31
0.0
  0
LINE
  5
142
330
1F
100
AcDbEntity
  8
0-0
  6
JWW_DASHED1
 62
   120
370
     5
100
AcDbLine
 10
-773.8311084381747
 20
963.197372943
 30
0.0
 11
-735.8311084381744
 21
1001.197372942989
 31
0.0
  0
LINE
  5
143
330
1F
100
AcDbEntity
  8
0-0
  6
JWW_DASHED1
 62
   120
370
     5
100
AcDbLine
 10
-773.8311084381747
 20
973.0968678782189
 30
0.0
 11
-735.8311084381744
 21
1011.096867878208
 31
0.0
  0
LINE
  5
144
330
1F
100
AcDbEntity
  8
0-0
  6
JWW_DASHED1
 62
   120
370
     5
100
AcDbLine
 10
-773.8311084381747
 20
982.9963628134374
 30
0.0
 11
-735.8311084381744
 21
1020.996362813426
 31
0.0
  0
LINE
  5
145
330
1F
100
AcDbEntity
  8
0-0
  6
JWW_DASHED1
 62
   120
370
     5
100
AcDbLine
 10
-773.8311084381747
 20
1012.694847619093
 30
0.0
 11
-764.1304250281463
 21
1022.395531029118
 31
0.0
  0
LINE
  5
146
330
1F
100
AcDbEntity
  8
0-0
  6
JWW_DASHED1
 62
   120
370
     5
100
AcDbLine
 10
-773.8311084381747
 20
992.8958577486559
 30
0.0
 11
-744.3314351577034
 21
1022.395531029118
 31
0.0
  0
LINE
  5
147
330
1F
100
AcDbEntity
  8
0-0
  6
JWW_DASHED1
 62
   120
370
     5
100
AcDbLine
 10
-773.8311084381747
 20
1002.795352683874
 30
0.0
 11
-754.2309300929248
 21
1022.395531029118
 31
0.0
  0
LINE
  5
148
330
1F
100
AcDbEntity
  8
0-0
  6
Continuous
 62
     7
370
     9
100
AcDbLine
 10
6.168891561825234
 20
-944.6044689708824
 30
0.0
 11
44.16889156182563
 21
-944.6044689708824
 31
0.0
  0
LINE
  5
149
330
1F
100
AcDbEntity
  8
0-0
  6
Continuous
 62
    92
370
    13
100
AcDbLine
 10
6.168891561825234
 20
1030.395531029116
 30
0.0
 11
6.168891561825234
 21
-952.6044689708821
 31
0.0
  0
LINE
  5
14A
330
1F
100
AcDbEntity
  8
0-0
  6
Continuous
 62
    92
370
    13
100
AcDbLine
 10
44.16889156182563
 20
1030.395531029116
 30
0.0
 11
44.16889156182563
 21
-952.6044689708824
 31
0.0
  0
LINE
  5
14B
330
1F
100
AcDbEntity
  8
0-0
  6
Continuous
 62
     7
370
     9
100
AcDbLine
 10
6.168891561825234
 20
1022.395531029118
 30
0.0
 11
44.16889156182563
 21
1022.395531029118
 31
0.0
  0
LINE
  5
14C
330
1F
100
AcDbEntity
  8
0-0
  6
JWW_DASHED1
 62
   120
370
     5
100
AcDbLine
 10
6.168891561825234
 20
-907.8071698094693
 30
0.0
 11
44.16889156182222
 21
-869.8071698094693
 31
0.0
  0
LINE
  5
14D
330
1F
100
AcDbEntity
  8
0-0
  6
JWW_DASHED1
 62
   120
370
     5
100
AcDbLine
 10
6.168891561825234
 20
-897.9076748743075
 30
0.0
 11
44.16889156182563
 21
-859.9076748743046
 31
0.0
  0
LINE
  5
14E
330
1F
100
AcDbEntity
  8
0-0
  6
JWW_DASHED1
 62
   120
370
     5
100
AcDbLine
 10
6.168891561825234
 20
-888.008179939089
 30
0.0
 11
44.16889156183245
 21
-850.0081799390805
 31
0.0
  0
LINE
  5
14F
330
1F
100
AcDbEntity
  8
0-0
  6
JWW_DASHED1
 62
   120
370
     5
100
AcDbLine
 10
6.168891561825234
 20
-878.1086850038766
 30
0.0
 11
44.16889156182563
 21
-840.1086850038721
 31
0.0
  0
LINE
  5
150
330
1F
100
AcDbEntity
  8
0-0
  6
JWW_DASHED1
 62
   120
370
     5
100
AcDbLine
 10
6.168891561825234
 20
-868.209190068708
 30
0.0
 11
44.16889156182904
 21
-830.2091900687075
 31
0.0
  0
LINE
  5
151
330
1F
100
AcDbEntity
  8
0-0
  6
JWW_DASHED1
 62
   120
370
     5
100
AcDbLine
 10
6.168891561825234
 20
-858.3096951334941
 30
0.0
 11
44.16889156181881
 21
-820.3096951334991
 31
0.0
  0
LINE
  5
152
330
1F
100
AcDbEntity
  8
0-0
  6
JWW_DASHED1
 62
   120
370
     5
100
AcDbLine
 10
6.168891561825234
 20
-848.4102001982754
 30
0.0
 11
44.16889156182904
 21
-810.4102001982754
 31
0.0
  0
LINE
  5
153
330
1F
100
AcDbEntity
  8
0-0
  6
JWW_DASHED1
 62
   120
370
     5
100
AcDbLine
 10
6.168891561825234
 20
-838.5107052631145
 30
0.0
 11
44.16889156183245
 21
-800.5107052631105
 31
0.0
  0
LINE
  5
154
330
1F
100
AcDbEntity
  8
0-0
  6
JWW_DASHED1
 62
   120
370
     5
100
AcDbLine
 10
6.168891561825234
 20
-828.6112103279006
 30
0.0
 11
44.16889156182222
 21
-790.6112103279024
 31
0.0
  0
LINE
  5
155
330
1F
100
AcDbEntity
  8
0-0
  6
JWW_DASHED1
 62
   120
370
     5
100
AcDbLine
 10
6.168891561825234
 20
-818.7117153926832
 30
0.0
 11
44.16889156183245
 21
-780.7117153926783
 31
0.0
  0
LINE
  5
156
330
1F
100
AcDbEntity
  8
0-0
  6
JWW_DASHED1
 62
   120
370
     5
100
AcDbLine
 10
6.168891561825234
 20
-808.8122204575207
 30
0.0
 11
44.16889156181881
 21
-770.8122204575294
 31
0.0
  0
LINE
  5
157
330
1F
100
AcDbEntity
  8
0-0
  6
JWW_DASHED1
 62
   120
370
     5
100
AcDbLine
 10
6.168891561825234
 20
-798.912725522307
 30
0.0
 11
44.16889156182563
 21
-760.9127255223058
 31
0.0
  0
LINE
  5
158
330
1F
100
AcDbEntity
  8
0-0
  6
JWW_DASHED1
 62
   120
370
     5
100
AcDbLine
 10
6.168891561825234
 20
-789.0132305870931
 30
0.0
 11
44.16889156183245
 21
-751.0132305870818
 31
0.0
  0
LINE
  5
159
330
1F
100
AcDbEntity
  8
0-0
  6
JWW_DASHED1
 62
   120
370
     5
100
AcDbLine
 10
6.168891561825234
 20
-779.1137356519298
 30
0.0
 11
44.16889156181881
 21
-741.1137356519325
 31
0.0
  0
LINE
  5
15A
330
1F
100
AcDbEntity
  8
0-0
  6
JWW_DASHED1
 62
   120
370
     5
100
AcDbLine
 10
6.168891561825234
 20
-769.2142407167174
 30
0.0
 11
44.16889156182563
 21
-731.2142407167086
 31
0.0
  0
LINE
  5
15B
330
1F
100
AcDbEntity
  8
0-0
  6
JWW_DASHED1
 62
   120
370
     5
100
AcDbLine
 10
6.168891561825234
 20
-759.3147457815444
 30
0.0
 11
44.16889156183245
 21
-721.3147457815439
 31
0.0
  0
LINE
  5
15C
330
1F
100
AcDbEntity
  8
0-0
  6
JWW_DASHED1
 62
   120
370
     5
100
AcDbLine
 10
6.168891561825234
 20
-749.4152508463293
 30
0.0
 11
44.16889156182222
 21
-711.4152508463355
 31
0.0
  0
LINE
  5
15D
330
1F
100
AcDbEntity
  8
0-0
  6
JWW_DASHED1
 62
   120
370
     5
100
AcDbLine
 10
6.168891561825234
 20
-739.515755911117
 30
0.0
 11
44.16889156182904
 21
-701.5157559111119
 31
0.0
  0
LINE
  5
15E
330
1F
100
AcDbEntity
  8
0-0
  6
JWW_DASHED1
 62
   120
370
     5
100
AcDbLine
 10
6.168891561825234
 20
-729.6162609759552
 30
0.0
 11
44.16889156183245
 21
-691.6162609759467
 31
0.0
  0
LINE
  5
15F
330
1F
100
AcDbEntity
  8
0-0
  6
JWW_DASHED1
 62
   120
370
     5
100
AcDbLine
 10
6.168891561825234
 20
-719.7167660407353
 30
0.0
 11
44.16889156182563
 21
-681.7167660407389
 31
0.0
  0
LINE
  5
160
330
1F
100
AcDbEntity
  8
0-0
  6
JWW_DASHED1
 62
   120
370
     5
100
AcDbLine
 10
6.168891561825234
 20
-709.8172711055238
 30
0.0
 11
44.16889156183245
 21
-671.8172711055148
 31
0.0
  0
LINE
  5
161
330
1F
100
AcDbEntity
  8
0-0
  6
JWW_DASHED1
 62
   120
370
     5
100
AcDbLine
 10
6.168891561825234
 20
-699.9177761703605
 30
0.0
 11
44.16889156181881
 21
-661.9177761703656
 31
0.0
  0
LINE
  5
162
330
1F
100
AcDbEntity
  8
0-0
  6
JWW_DASHED1
 62
   120
370
     5
100
AcDbLine
 10
6.168891561825234
 20
-690.0182812351463
 30
0.0
 11
44.16889156182563
 21
-652.0182812351418
 31
0.0
  0
LINE
  5
163
330
1F
100
AcDbEntity
  8
0-0
  6
JWW_DASHED1
 62
   120
370
     5
100
AcDbLine
 10
6.168891561825234
 20
-680.118786299931
 30
0.0
 11
44.16889156181881
 21
-642.1187862999338
 31
0.0
  0
LINE
  5
164
330
1F
100
AcDbEntity
  8
0-0
  6
JWW_DASHED1
 62
   120
370
     5
100
AcDbLine
 10
6.168891561825234
 20
-670.2192913647671
 30
0.0
 11
44.16889156182222
 21
-632.2192913647688
 31
0.0
  0
LINE
  5
165
330
1F
100
AcDbEntity
  8
0-0
  6
JWW_DASHED1
 62
   120
370
     5
100
AcDbLine
 10
6.168891561825234
 20
-660.3197964295524
 30
0.0
 11
44.16889156182904
 21
-622.319796429545
 31
0.0
  0
LINE
  5
166
330
1F
100
AcDbEntity
  8
0-0
  6
JWW_DASHED1
 62
   120
370
     5
100
AcDbLine
 10
6.168891561825234
 20
-650.4203014943355
 30
0.0
 11
44.16889156182222
 21
-612.4203014943367
 31
0.0
  0
LINE
  5
167
330
1F
100
AcDbEntity
  8
0-0
  6
JWW_DASHED1
 62
   120
370
     5
100
AcDbLine
 10
6.168891561825234
 20
-640.520806559166
 30
0.0
 11
44.16889156182563
 21
-602.520806559172
 31
0.0
  0
LINE
  5
168
330
1F
100
AcDbEntity
  8
0-0
  6
JWW_DASHED1
 62
   120
370
     5
100
AcDbLine
 10
6.168891561825234
 20
-630.6213116239592
 30
0.0
 11
44.16889156183245
 21
-592.6213116239479
 31
0.0
  0
LINE
  5
169
330
1F
100
AcDbEntity
  8
0-0
  6
JWW_DASHED1
 62
   120
370
     5
100
AcDbLine
 10
6.168891561825234
 20
-620.7218166887345
 30
0.0
 11
44.16889156182563
 21
-582.7218166887399
 31
0.0
  0
LINE
  5
16A
330
1F
100
AcDbEntity
  8
0-0
  6
JWW_DASHED1
 62
   120
370
     5
100
AcDbLine
 10
6.168891561825234
 20
-610.8223217535766
 30
0.0
 11
44.16889156182563
 21
-572.8223217535749
 31
0.0
  0
LINE
  5
16B
330
1F
100
AcDbEntity
  8
0-0
  6
JWW_DASHED1
 62
   120
370
     5
100
AcDbLine
 10
6.168891561825234
 20
-600.9228268183624
 30
0.0
 11
44.16889156183245
 21
-562.9228268183512
 31
0.0
  0
LINE
  5
16C
330
1F
100
AcDbEntity
  8
0-0
  6
JWW_DASHED1
 62
   120
370
     5
100
AcDbLine
 10
6.168891561825234
 20
-591.0233318831446
 30
0.0
 11
44.16889156182563
 21
-553.0233318831429
 31
0.0
  0
LINE
  5
16D
330
1F
100
AcDbEntity
  8
0-0
  6
JWW_DASHED1
 62
   120
370
     5
100
AcDbLine
 10
6.168891561825234
 20
-581.1238369479831
 30
0.0
 11
44.16889156182904
 21
-543.1238369479781
 31
0.0
  0
LINE
  5
16E
330
1F
100
AcDbEntity
  8
0-0
  6
JWW_DASHED1
 62
   120
370
     5
100
AcDbLine
 10
6.168891561825234
 20
-571.2243420127638
 30
0.0
 11
44.16889156182222
 21
-533.2243420127701
 31
0.0
  0
LINE
  5
16F
330
1F
100
AcDbEntity
  8
0-0
  6
JWW_DASHED1
 62
   120
370
     5
100
AcDbLine
 10
6.168891561825234
 20
-561.3248470775511
 30
0.0
 11
44.16889156182904
 21
-523.324847077546
 31
0.0
  0
LINE
  5
170
330
1F
100
AcDbEntity
  8
0-0
  6
JWW_DASHED1
 62
   120
370
     5
100
AcDbLine
 10
6.168891561825234
 20
-551.4253521423896
 30
0.0
 11
44.16889156183245
 21
-513.425352142381
 31
0.0
  0
LINE
  5
171
330
1F
100
AcDbEntity
  8
0-0
  6
JWW_DASHED1
 62
   120
370
     5
100
AcDbLine
 10
6.168891561825234
 20
-541.5258572071702
 30
0.0
 11
44.16889156182563
 21
-503.525857207173
 31
0.0
  0
LINE
  5
172
330
1F
100
AcDbEntity
  8
0-0
  6
JWW_DASHED1
 62
   120
370
     5
100
AcDbLine
 10
6.168891561825234
 20
-531.6263622719503
 30
0.0
 11
44.16889156183245
 21
-493.6263622719494
 31
0.0
  0
LINE
  5
173
330
1F
100
AcDbEntity
  8
0-0
  6
JWW_DASHED1
 62
   120
370
     5
100
AcDbLine
 10
6.168891561825234
 20
-521.7268673367976
 30
0.0
 11
44.16889156181881
 21
-483.7268673368
 31
0.0
  0
LINE
  5
174
330
1F
100
AcDbEntity
  8
0-0
  6
JWW_DASHED1
 62
   120
370
     5
100
AcDbLine
 10
6.168891561825234
 20
-511.8273724015806
 30
0.0
 11
44.16889156182563
 21
-473.8273724015762
 31
0.0
  0
LINE
  5
175
330
1F
100
AcDbEntity
  8
0-0
  6
JWW_DASHED1
 62
   120
370
     5
100
AcDbLine
 10
6.168891561825234
 20
-501.9278774663609
 30
0.0
 11
44.16889156183245
 21
-463.9278774663519
 31
0.0
  0
LINE
  5
176
330
1F
100
AcDbEntity
  8
0-0
  6
JWW_DASHED1
 62
   120
370
     5
100
AcDbLine
 10
6.168891561825234
 20
-492.0283825312006
 30
0.0
 11
44.16889156181881
 21
-454.028382531203
 31
0.0
  0
LINE
  5
177
330
1F
100
AcDbEntity
  8
0-0
  6
JWW_DASHED1
 62
   120
370
     5
100
AcDbLine
 10
6.168891561825234
 20
-482.128887595981
 30
0.0
 11
44.16889156182904
 21
-444.1288875959789
 31
0.0
  0
LINE
  5
178
330
1F
100
AcDbEntity
  8
0-0
  6
JWW_DASHED1
 62
   120
370
     5
100
AcDbLine
 10
6.168891561825234
 20
-472.2293926607664
 30
0.0
 11
44.16889156181881
 21
-434.2293926607711
 31
0.0
  0
LINE
  5
179
330
1F
100
AcDbEntity
  8
0-0
  6
JWW_DASHED1
 62
   120
370
     5
100
AcDbLine
 10
6.168891561825234
 20
-462.3298977256007
 30
0.0
 11
44.16889156182563
 21
-424.3298977256059
 31
0.0
  0
LINE
  5
17A
330
1F
100
AcDbEntity
  8
0-0
  6
JWW_DASHED1
 62
   120
370
     5
100
AcDbLine
 10
6.168891561825234
 20
-452.4304027903866
 30
0.0
 11
44.16889156183245
 21
-414.4304027903827
 31
0.0
  0
LINE
  5
17B
330
1F
100
AcDbEntity
  8
0-0
  6
JWW_DASHED1
 62
   120
370
     5
100
AcDbLine
 10
6.168891561825234
 20
-442.5309078551723
 30
0.0
 11
44.16889156182222
 21
-404.5309078551745
 31
0.0
  0
LINE
  5
17C
330
1F
100
AcDbEntity
  8
0-0
  6
JWW_DASHED1
 62
   120
370
     5
100
AcDbLine
 10
6.168891561825234
 20
-432.6314129200105
 30
0.0
 11
44.16889156182563
 21
-394.6314129200093
 31
0.0
  0
LINE
  5
17D
330
1F
100
AcDbEntity
  8
0-0
  6
JWW_DASHED1
 62
   120
370
     5
100
AcDbLine
 10
6.168891561825234
 20
-422.7319179847912
 30
0.0
 11
44.16889156181881
 21
-384.731917984801
 31
0.0
  0
LINE
  5
17E
330
1F
100
AcDbEntity
  8
0-0
  6
JWW_DASHED1
 62
   120
370
     5
100
AcDbLine
 10
6.168891561825234
 20
-412.8324230495787
 30
0.0
 11
44.16889156182563
 21
-374.8324230495774
 31
0.0
  0
LINE
  5
17F
330
1F
100
AcDbEntity
  8
0-0
  6
JWW_DASHED1
 62
   120
370
     5
100
AcDbLine
 10
6.168891561825234
 20
-402.9329281144164
 30
0.0
 11
44.16889156182904
 21
-364.9329281144127
 31
0.0
  0
LINE
  5
180
330
1F
100
AcDbEntity
  8
0-0
  6
JWW_DASHED1
 62
   120
370
     5
100
AcDbLine
 10
6.168891561825234
 20
-393.0334331792031
 30
0.0
 11
44.16889156181881
 21
-355.0334331792039
 31
0.0
  0
LINE
  5
181
330
1F
100
AcDbEntity
  8
0-0
  6
JWW_DASHED1
 62
   120
370
     5
100
AcDbLine
 10
6.168891561825234
 20
-383.1339382439825
 30
0.0
 11
44.16889156182563
 21
-345.1339382439804
 31
0.0
  0
LINE
  5
182
330
1F
100
AcDbEntity
  8
0-0
  6
JWW_DASHED1
 62
   120
370
     5
100
AcDbLine
 10
6.168891561825234
 20
-373.2344433088164
 30
0.0
 11
44.16889156183245
 21
-335.2344433088156
 31
0.0
  0
LINE
  5
183
330
1F
100
AcDbEntity
  8
0-0
  6
JWW_DASHED1
 62
   120
370
     5
100
AcDbLine
 10
6.168891561825234
 20
-363.3349483736014
 30
0.0
 11
44.16889156182222
 21
-325.3349483736077
 31
0.0
  0
LINE
  5
184
330
1F
100
AcDbEntity
  8
0-0
  6
JWW_DASHED1
 62
   120
370
     5
100
AcDbLine
 10
6.168891561825234
 20
-353.4354534383884
 30
0.0
 11
44.16889156182904
 21
-315.4354534383838
 31
0.0
  0
LINE
  5
185
330
1F
100
AcDbEntity
  8
0-0
  6
JWW_DASHED1
 62
   120
370
     5
100
AcDbLine
 10
6.168891561825234
 20
-343.5359585032274
 30
0.0
 11
44.16889156183245
 21
-305.5359585032186
 31
0.0
  0
LINE
  5
186
330
1F
100
AcDbEntity
  8
0-0
  6
JWW_DASHED1
 62
   120
370
     5
100
AcDbLine
 10
6.168891561825234
 20
-333.6364635680077
 30
0.0
 11
44.16889156182563
 21
-295.6364635680108
 31
0.0
  0
LINE
  5
187
330
1F
100
AcDbEntity
  8
0-0
  6
JWW_DASHED1
 62
   120
370
     5
100
AcDbLine
 10
6.168891561825234
 20
-323.7369686327957
 30
0.0
 11
44.16889156183245
 21
-285.7369686327867
 31
0.0
  0
LINE
  5
188
330
1F
100
AcDbEntity
  8
0-0
  6
JWW_DASHED1
 62
   120
370
     5
100
AcDbLine
 10
6.168891561825234
 20
-313.8374736976278
 30
0.0
 11
44.16889156182563
 21
-275.8374736976322
 31
0.0
  0
LINE
  5
189
330
1F
100
AcDbEntity
  8
0-0
  6
JWW_DASHED1
 62
   120
370
     5
100
AcDbLine
 10
6.168891561825234
 20
-303.9379787624175
 30
0.0
 11
44.16889156182563
 21
-265.9379787624136
 31
0.0
  0
LINE
  5
18A
330
1F
100
AcDbEntity
  8
0-0
  6
JWW_DASHED1
 62
   120
370
     5
100
AcDbLine
 10
6.168891561825234
 20
-294.0384838272037
 30
0.0
 11
44.16889156181881
 21
-256.0384838272054
 31
0.0
  0
LINE
  5
18B
330
1F
100
AcDbEntity
  8
0-0
  6
JWW_DASHED1
 62
   120
370
     5
100
AcDbLine
 10
6.168891561825234
 20
-284.1389888920394
 30
0.0
 11
44.16889156182222
 21
-246.1389888920407
 31
0.0
  0
LINE
  5
18C
330
1F
100
AcDbEntity
  8
0-0
  6
JWW_DASHED1
 62
   120
370
     5
100
AcDbLine
 10
6.168891561825234
 20
-274.239493956817
 30
0.0
 11
44.16889156182904
 21
-236.2394939568166
 31
0.0
  0
LINE
  5
18D
330
1F
100
AcDbEntity
  8
0-0
  6
JWW_DASHED1
 62
   120
370
     5
100
AcDbLine
 10
6.168891561825234
 20
-264.3399990216024
 30
0.0
 11
44.16889156182222
 21
-226.3399990216088
 31
0.0
  0
LINE
  5
18E
330
1F
100
AcDbEntity
  8
0-0
  6
JWW_DASHED1
 62
   120
370
     5
100
AcDbLine
 10
6.168891561825234
 20
-254.4405040864385
 30
0.0
 11
44.16889156182563
 21
-216.4405040864436
 31
0.0
  0
LINE
  5
18F
330
1F
100
AcDbEntity
  8
0-0
  6
JWW_DASHED1
 62
   120
370
     5
100
AcDbLine
 10
6.168891561825234
 20
-244.5410091512302
 30
0.0
 11
44.16889156183245
 21
-206.5410091512196
 31
0.0
  0
LINE
  5
190
330
1F
100
AcDbEntity
  8
0-0
  6
JWW_DASHED1
 62
   120
370
     5
100
AcDbLine
 10
6.168891561825234
 20
-234.6415142160066
 30
0.0
 11
44.16889156182563
 21
-196.6415142160118
 31
0.0
  0
LINE
  5
191
330
1F
100
AcDbEntity
  8
0-0
  6
JWW_DASHED1
 62
   120
370
     5
100
AcDbLine
 10
6.168891561825234
 20
-224.7420192808487
 30
0.0
 11
44.16889156182563
 21
-186.7420192808466
 31
0.0
  0
LINE
  5
192
330
1F
100
AcDbEntity
  8
0-0
  6
JWW_DASHED1
 62
   120
370
     5
100
AcDbLine
 10
6.168891561825234
 20
-214.8425243456353
 30
0.0
 11
44.16889156183245
 21
-176.8425243456225
 31
0.0
  0
LINE
  5
193
330
1F
100
AcDbEntity
  8
0-0
  6
JWW_DASHED1
 62
   120
370
     5
100
AcDbLine
 10
6.168891561825234
 20
-204.9430294104168
 30
0.0
 11
44.16889156182563
 21
-166.9430294104147
 31
0.0
  0
LINE
  5
194
330
1F
100
AcDbEntity
  8
0-0
  6
JWW_DASHED1
 62
   120
370
     5
100
AcDbLine
 10
6.168891561825234
 20
-195.043534475255
 30
0.0
 11
44.16889156182904
 21
-157.0435344752495
 31
0.0
  0
LINE
  5
195
330
1F
100
AcDbEntity
  8
0-0
  6
JWW_DASHED1
 62
   120
370
     5
100
AcDbLine
 10
6.168891561825234
 20
-185.1440395400353
 30
0.0
 11
44.16889156182222
 21
-147.1440395400417
 31
0.0
  0
LINE
  5
196
330
1F
100
AcDbEntity
  8
0-0
  6
JWW_DASHED1
 62
   120
370
     5
100
AcDbLine
 10
6.168891561825234
 20
-175.2445446048513
 30
0.0
 11
44.16889156182563
 21
-137.2445446048475
 31
0.0
  0
LINE
  5
197
330
1F
100
AcDbEntity
  8
0-0
  6
JWW_DASHED1
 62
   120
370
     5
100
AcDbLine
 10
6.168891561825234
 20
-165.3450496696537
 30
0.0
 11
44.16889156183245
 21
-127.3450496696529
 31
0.0
  0
LINE
  5
198
330
1F
100
AcDbEntity
  8
0-0
  6
JWW_DASHED1
 62
   120
370
     5
100
AcDbLine
 10
6.168891561825234
 20
-155.4455547344408
 30
0.0
 11
44.16889156182563
 21
-117.4455547344451
 31
0.0
  0
LINE
  5
199
330
1F
100
AcDbEntity
  8
0-0
  6
JWW_DASHED1
 62
   120
370
     5
100
AcDbLine
 10
6.168891561825234
 20
-145.5460597992509
 30
0.0
 11
44.16889156182904
 21
-107.5460597992505
 31
0.0
  0
LINE
  5
19A
330
1F
100
AcDbEntity
  8
0-0
  6
JWW_DASHED1
 62
   120
370
     5
100
AcDbLine
 10
6.168891561825234
 20
-135.6465648640686
 30
0.0
 11
44.16889156181881
 21
-97.64656486407162
 31
0.0
  0
LINE
  5
19B
330
1F
100
AcDbEntity
  8
0-0
  6
JWW_DASHED1
 62
   120
370
     5
100
AcDbLine
 10
6.168891561825234
 20
-125.7470699288535
 30
0.0
 11
44.16889156182563
 21
-87.7470699288476
 31
0.0
  0
LINE
  5
19C
330
1F
100
AcDbEntity
  8
0-0
  6
JWW_DASHED1
 62
   120
370
     5
100
AcDbLine
 10
6.168891561825234
 20
-115.8475749936837
 30
0.0
 11
44.16889156182904
 21
-77.84757499368325
 31
0.0
  0
LINE
  5
19D
330
1F
100
AcDbEntity
  8
0-0
  6
JWW_DASHED1
 62
   120
370
     5
100
AcDbLine
 10
6.168891561825234
 20
-105.9480800584737
 30
0.0
 11
44.16889156181881
 21
-67.94808005847457
 31
0.0
  0
LINE
  5
19E
330
1F
100
AcDbEntity
  8
0-0
  6
JWW_DASHED1
 62
   120
370
     5
100
AcDbLine
 10
6.168891561825234
 20
-96.0485851232518
 30
0.0
 11
44.16889156182904
 21
-58.0485851232514
 31
0.0
  0
LINE
  5
19F
330
1F
100
AcDbEntity
  8
0-0
  6
JWW_DASHED1
 62
   120
370
     5
100
AcDbLine
 10
6.168891561825234
 20
-86.14909018809001
 30
0.0
 11
44.16889156183245
 21
-48.14909018808621
 31
0.0
  0
LINE
  5
1A0
330
1F
100
AcDbEntity
  8
0-0
  6
JWW_DASHED1
 62
   120
370
     5
100
AcDbLine
 10
6.168891561825234
 20
-76.24959525287537
 30
0.0
 11
44.16889156182222
 21
-38.24959525287838
 31
0.0
  0
LINE
  5
1A1
330
1F
100
AcDbEntity
  8
0-0
  6
JWW_DASHED1
 62
   120
370
     5
100
AcDbLine
 10
6.168891561825234
 20
-66.35010031765816
 30
0.0
 11
44.16889156183245
 21
-28.35010031765435
 31
0.0
  0
LINE
  5
1A2
330
1F
100
AcDbEntity
  8
0-0
  6
JWW_DASHED1
 62
   120
370
     5
100
AcDbLine
 10
6.168891561825234
 20
-56.45060538249979
 30
0.0
 11
44.16889156183245
 21
-18.45060538248916
 31
0.0
  0
LINE
  5
1A3
330
1F
100
AcDbEntity
  8
0-0
  6
JWW_DASHED1
 62
   120
370
     5
100
AcDbLine
 10
6.168891561825234
 20
-46.55111044728173
 30
0.0
 11
44.16889156182563
 21
-8.551110447281332
 31
0.0
  0
LINE
  5
1A4
330
1F
100
AcDbEntity
  8
0-0
  6
JWW_DASHED1
 62
   120
370
     5
100
AcDbLine
 10
6.168891561825234
 20
-36.65161551206793
 30
0.0
 11
44.16889156183245
 21
1.348384487942695
 31
0.0
  0
LINE
  5
1A5
330
1F
100
AcDbEntity
  8
0-0
  6
JWW_DASHED1
 62
   120
370
     5
100
AcDbLine
 10
6.168891561825234
 20
-26.75212057690104
 30
0.0
 11
44.16889156182904
 21
11.24787942309936
 31
0.0
  0
LINE
  5
1A6
330
1F
100
AcDbEntity
  8
0-0
  6
JWW_DASHED1
 62
   120
370
     5
100
AcDbLine
 10
6.168891561825234
 20
-16.8526256416898
 30
0.0
 11
44.16889156182904
 21
21.14737435831572
 31
0.0
  0
LINE
  5
1A7
330
1F
100
AcDbEntity
  8
0-0
  6
JWW_DASHED1
 62
   120
370
     5
100
AcDbLine
 10
6.168891561825234
 20
-6.953130706473445
 30
0.0
 11
44.16889156181881
 21
31.04686929352354
 31
0.0
  0
LINE
  5
1A8
330
1F
100
AcDbEntity
  8
0-0
  6
JWW_DASHED1
 62
   120
370
     5
100
AcDbLine
 10
6.168891561825234
 20
2.94636422869516
 30
0.0
 11
44.16889156182222
 21
40.94636422868874
 31
0.0
  0
LINE
  5
1A9
330
1F
100
AcDbEntity
  8
0-0
  6
JWW_DASHED1
 62
   120
370
     5
100
AcDbLine
 10
6.168891561825234
 20
12.84585916391109
 30
0.0
 11
44.16889156183245
 21
50.84585916391276
 31
0.0
  0
LINE
  5
1AA
330
1F
100
AcDbEntity
  8
0-0
  6
JWW_DASHED1
 62
   120
370
     5
100
AcDbLine
 10
6.168891561825234
 20
22.74535409912701
 30
0.0
 11
44.16889156182222
 21
60.74535409912059
 31
0.0
  0
LINE
  5
1AB
330
1F
100
AcDbEntity
  8
0-0
  6
JWW_DASHED1
 62
   120
370
     5
100
AcDbLine
 10
6.168891561825234
 20
32.6448490342807
 30
0.0
 11
44.16889156182563
 21
70.64484903428578
 31
0.0
  0
LINE
  5
1AC
330
1F
100
AcDbEntity
  8
0-0
  6
JWW_DASHED1
 62
   120
370
     5
100
AcDbLine
 10
6.168891561825234
 20
42.54434396950131
 30
0.0
 11
44.16889156183245
 21
80.54434396950938
 31
0.0
  0
LINE
  5
1AD
330
1F
100
AcDbEntity
  8
0-0
  6
JWW_DASHED1
 62
   120
370
     5
100
AcDbLine
 10
6.168891561825234
 20
52.44383890472065
 30
0.0
 11
44.16889156182563
 21
90.44383890471764
 31
0.0
  0
LINE
  5
1AE
330
1F
100
AcDbEntity
  8
0-0
  6
JWW_DASHED1
 62
   120
370
     5
100
AcDbLine
 10
6.168891561825234
 20
62.3433338398786
 30
0.0
 11
44.16889156182563
 21
100.3433338398824
 31
0.0
  0
LINE
  5
1AF
330
1F
100
AcDbEntity
  8
0-0
  6
JWW_DASHED1
 62
   120
370
     5
100
AcDbLine
 10
6.168891561825234
 20
72.24282877509495
 30
0.0
 11
44.16889156183586
 21
110.2428287751064
 31
0.0
  0
LINE
  5
1B0
330
1F
100
AcDbEntity
  8
0-0
  6
JWW_DASHED1
 62
   120
370
     5
100
AcDbLine
 10
6.168891561825234
 20
82.14232371031088
 30
0.0
 11
44.16889156182563
 21
120.1423237103147
 31
0.0
  0
LINE
  5
1B1
330
1F
100
AcDbEntity
  8
0-0
  6
JWW_DASHED1
 62
   120
370
     5
100
AcDbLine
 10
6.168891561825234
 20
92.04181864547223
 30
0.0
 11
44.16889156182904
 21
130.0418186454795
 31
0.0
  0
LINE
  5
1B2
330
1F
100
AcDbEntity
  8
0-0
  6
JWW_DASHED1
 62
   120
370
     5
100
AcDbLine
 10
6.168891561825234
 20
101.941313580689
 30
0.0
 11
44.16889156182222
 21
139.9413135806877
 31
0.0
  0
LINE
  5
1B3
330
1F
100
AcDbEntity
  8
0-0
  6
JWW_DASHED1
 62
   120
370
     5
100
AcDbLine
 10
6.168891561825234
 20
111.8408085159109
 30
0.0
 11
44.16889156182904
 21
149.8408085159113
 31
0.0
  0
LINE
  5
1B4
330
1F
100
AcDbEntity
  8
0-0
  6
JWW_DASHED1
 62
   120
370
     5
100
AcDbLine
 10
6.168891561825234
 20
121.7403034510646
 30
0.0
 11
44.16889156183245
 21
159.7403034510765
 31
0.0
  0
LINE
  5
1B5
330
1F
100
AcDbEntity
  8
0-0
  6
JWW_DASHED1
 62
   120
370
     5
100
AcDbLine
 10
6.168891561825234
 20
131.6397983862903
 30
0.0
 11
44.16889156182563
 21
169.6397983862843
 31
0.0
  0
LINE
  5
1B6
330
1F
100
AcDbEntity
  8
0-0
  6
JWW_DASHED1
 62
   120
370
     5
100
AcDbLine
 10
6.168891561825234
 20
141.5392933215037
 30
0.0
 11
44.16889156183245
 21
179.5392933215084
 31
0.0
  0
LINE
  5
1B7
330
1F
100
AcDbEntity
  8
0-0
  6
JWW_DASHED1
 62
   120
370
     5
100
AcDbLine
 10
6.168891561825234
 20
151.4387882566595
 30
0.0
 11
44.16889156181881
 21
189.4387882566578
 31
0.0
  0
LINE
  5
1B8
330
1F
100
AcDbEntity
  8
0-0
  6
JWW_DASHED1
 62
   120
370
     5
100
AcDbLine
 10
6.168891561825234
 20
161.3382831918801
 30
0.0
 11
44.16889156182563
 21
199.3382831918814
 31
0.0
  0
LINE
  5
1B9
330
1F
100
AcDbEntity
  8
0-0
  6
JWW_DASHED1
 62
   120
370
     5
100
AcDbLine
 10
6.168891561825234
 20
171.2377781270943
 30
0.0
 11
44.16889156183245
 21
209.237778127105
 31
0.0
  0
LINE
  5
1BA
330
1F
100
AcDbEntity
  8
0-0
  6
JWW_DASHED1
 62
   120
370
     5
100
AcDbLine
 10
6.168891561825234
 20
181.1372730622604
 30
0.0
 11
44.16889156182222
 21
219.1372730622548
 31
0.0
  0
LINE
  5
1BB
330
1F
100
AcDbEntity
  8
0-0
  6
JWW_DASHED1
 62
   120
370
     5
100
AcDbLine
 10
6.168891561825234
 20
191.0367679974729
 30
0.0
 11
44.16889156182904
 21
229.0367679974784
 31
0.0
  0
LINE
  5
1BC
330
1F
100
AcDbEntity
  8
0-0
  6
JWW_DASHED1
 62
   120
370
     5
100
AcDbLine
 10
6.168891561825234
 20
200.9362629326914
 30
0.0
 11
44.16889156183245
 21
238.9362629326961
 31
0.0
  0
LINE
  5
1BD
330
1F
100
AcDbEntity
  8
0-0
  6
JWW_DASHED1
 62
   120
370
     5
100
AcDbLine
 10
6.168891561825234
 20
210.8357578678536
 30
0.0
 11
44.16889156182563
 21
248.8357578678514
 31
0.0
  0
LINE
  5
1BE
330
1F
100
AcDbEntity
  8
0-0
  6
JWW_DASHED1
 62
   120
370
     5
100
AcDbLine
 10
6.168891561825234
 20
220.7352528030742
 30
0.0
 11
44.16889156183245
 21
258.735252803075
 31
0.0
  0
LINE
  5
1BF
330
1F
100
AcDbEntity
  8
0-0
  6
JWW_DASHED1
 62
   120
370
     5
100
AcDbLine
 10
6.168891561825234
 20
230.6347477382816
 30
0.0
 11
44.16889156182222
 21
268.6347477382833
 31
0.0
  0
LINE
  5
1C0
330
1F
100
AcDbEntity
  8
0-0
  6
JWW_DASHED1
 62
   120
370
     5
100
AcDbLine
 10
6.168891561825234
 20
240.5342426734443
 30
0.0
 11
44.16889156182563
 21
278.534242673448
 31
0.0
  0
LINE
  5
1C1
330
1F
100
AcDbEntity
  8
0-0
  6
JWW_DASHED1
 62
   120
370
     5
100
AcDbLine
 10
6.168891561825234
 20
250.4337376086661
 30
0.0
 11
44.16889156181881
 21
288.4337376086563
 31
0.0
  0
LINE
  5
1C2
330
1F
100
AcDbEntity
  8
0-0
  6
JWW_DASHED1
 62
   120
370
     5
100
AcDbLine
 10
6.168891561825234
 20
260.3332325438761
 30
0.0
 11
44.16889156182563
 21
298.3332325438799
 31
0.0
  0
LINE
  5
1C3
330
1F
100
AcDbEntity
  8
0-0
  6
JWW_DASHED1
 62
   120
370
     5
100
AcDbLine
 10
6.168891561825234
 20
270.2327274790447
 30
0.0
 11
44.16889156182904
 21
308.2327274790451
 31
0.0
  0
LINE
  5
1C4
330
1F
100
AcDbEntity
  8
0-0
  6
JWW_DASHED1
 62
   120
370
     5
100
AcDbLine
 10
6.168891561825234
 20
280.1322224142559
 30
0.0
 11
44.16889156181881
 21
318.132222414253
 31
0.0
  0
LINE
  5
1C5
330
1F
100
AcDbEntity
  8
0-0
  6
JWW_DASHED1
 62
   120
370
     5
100
AcDbLine
 10
6.168891561825234
 20
290.0317173494766
 30
0.0
 11
44.16889156182904
 21
328.0317173494769
 31
0.0
  0
LINE
  5
1C6
330
1F
100
AcDbEntity
  8
0-0
  6
JWW_DASHED1
 62
   120
370
     5
100
AcDbLine
 10
6.168891561825234
 20
299.9312122846375
 30
0.0
 11
44.16889156183245
 21
337.9312122846421
 31
0.0
  0
LINE
  5
1C7
330
1F
100
AcDbEntity
  8
0-0
  6
JWW_DASHED1
 62
   120
370
     5
100
AcDbLine
 10
6.168891561825234
 20
309.8307072198521
 30
0.0
 11
44.16889156182222
 21
347.83070721985
 31
0.0
  0
LINE
  5
1C8
330
1F
100
AcDbEntity
  8
0-0
  6
JWW_DASHED1
 62
   120
370
     5
100
AcDbLine
 10
6.168891561825234
 20
319.7302021550702
 30
0.0
 11
44.16889156183245
 21
357.730202155074
 31
0.0
  0
LINE
  5
1C9
330
1F
100
AcDbEntity
  8
0-0
  6
JWW_DASHED1
 62
   120
370
     5
100
AcDbLine
 10
6.168891561825234
 20
329.6296970902273
 30
0.0
 11
44.16889156183245
 21
367.6296970902392
 31
0.0
  0
LINE
  5
1CA
330
1F
100
AcDbEntity
  8
0-0
  6
JWW_DASHED1
 62
   120
370
     5
100
AcDbLine
 10
6.168891561825234
 20
339.5291920254449
 30
0.0
 11
44.16889156182563
 21
377.5291920254471
 31
0.0
  0
LINE
  5
1CB
330
1F
100
AcDbEntity
  8
0-0
  6
JWW_DASHED1
 62
   120
370
     5
100
AcDbLine
 10
6.168891561825234
 20
349.4286869606591
 30
0.0
 11
44.16889156183245
 21
387.428686960671
 31
0.0
  0
LINE
  5
1CC
330
1F
100
AcDbEntity
  8
0-0
  6
JWW_DASHED1
 62
   120
370
     5
100
AcDbLine
 10
6.168891561825234
 20
359.3281818958286
 30
0.0
 11
44.16889156183586
 21
397.3281818958358
 31
0.0
  0
LINE
  5
1CD
330
1F
100
AcDbEntity
  8
0-0
  6
JWW_DASHED1
 62
   120
370
     5
100
AcDbLine
 10
6.168891561825234
 20
369.2276768310386
 30
0.0
 11
44.16889156182904
 21
407.2276768310441
 31
0.0
  0
LINE
  5
1CE
330
1F
100
AcDbEntity
  8
0-0
  6
JWW_DASHED1
 62
   120
370
     5
100
AcDbLine
 10
6.168891561825234
 20
379.1271717662549
 30
0.0
 11
44.16889156181881
 21
417.1271717662519
 31
0.0
  0
LINE
  5
1CF
330
1F
100
AcDbEntity
  8
0-0
  6
JWW_DASHED1
 62
   120
370
     5
100
AcDbLine
 10
6.168891561825234
 20
389.0266667014167
 30
0.0
 11
44.16889156182222
 21
427.0266667014171
 31
0.0
  0
LINE
  5
1D0
330
1F
100
AcDbEntity
  8
0-0
  6
JWW_DASHED1
 62
   120
370
     5
100
AcDbLine
 10
6.168891561825234
 20
398.9261616366399
 30
0.0
 11
44.16889156183245
 21
436.9261616366407
 31
0.0
  0
LINE
  5
1D1
330
1F
100
AcDbEntity
  8
0-0
  6
JWW_DASHED1
 62
   120
370
     5
100
AcDbLine
 10
6.168891561825234
 20
408.8256565718553
 30
0.0
 11
44.16889156182222
 21
446.825656571849
 31
0.0
  0
LINE
  5
1D2
330
1F
100
AcDbEntity
  8
0-0
  6
JWW_DASHED1
 62
   120
370
     5
100
AcDbLine
 10
6.168891561825234
 20
418.7251515070108
 30
0.0
 11
44.16889156182563
 21
456.7251515070137
 31
0.0
  0
LINE
  5
1D3
330
1F
100
AcDbEntity
  8
0-0
  6
JWW_DASHED1
 62
   120
370
     5
100
AcDbLine
 10
6.168891561825234
 20
428.6246464422297
 30
0.0
 11
44.16889156183245
 21
466.6246464422377
 31
0.0
  0
LINE
  5
1D4
330
1F
100
AcDbEntity
  8
0-0
  6
JWW_DASHED1
 62
   120
370
     5
100
AcDbLine
 10
6.168891561825234
 20
438.5241413774226
 30
0.0
 11
44.16889156182222
 21
476.5241413774162
 31
0.0
  0
LINE
  5
1D5
330
1F
100
AcDbEntity
  8
0-0
  6
JWW_DASHED1
 62
   120
370
     5
100
AcDbLine
 10
6.168891561825234
 20
448.423636312607
 30
0.0
 11
44.16889156182563
 21
486.4236363126108
 31
0.0
  0
LINE
  5
1D6
330
1F
100
AcDbEntity
  8
0-0
  6
JWW_DASHED1
 62
   120
370
     5
100
AcDbLine
 10
6.168891561825234
 20
458.3231312478225
 30
0.0
 11
44.16889156183586
 21
496.3231312478348
 31
0.0
  0
LINE
  5
1D7
330
1F
100
AcDbEntity
  8
0-0
  6
JWW_DASHED1
 62
   120
370
     5
100
AcDbLine
 10
6.168891561825234
 20
468.2226261829894
 30
0.0
 11
44.16889156182222
 21
506.2226261829838
 31
0.0
  0
LINE
  5
1D8
330
1F
100
AcDbEntity
  8
0-0
  6
JWW_DASHED1
 62
   120
370
     5
100
AcDbLine
 10
6.168891561825234
 20
478.1221211181993
 30
0.0
 11
44.16889156182904
 21
516.1221211182078
 31
0.0
  0
LINE
  5
1D9
330
1F
100
AcDbEntity
  8
0-0
  6
JWW_DASHED1
 62
   120
370
     5
100
AcDbLine
 10
6.168891561825234
 20
488.0216160534178
 30
0.0
 11
44.16889156182222
 21
526.0216160534156
 31
0.0
  0
LINE
  5
1DA
330
1F
100
AcDbEntity
  8
0-0
  6
JWW_DASHED1
 62
   120
370
     5
100
AcDbLine
 10
6.168891561825234
 20
497.921110988586
 30
0.0
 11
44.16889156182563
 21
535.9211109885808
 31
0.0
  0
LINE
  5
1DB
330
1F
100
AcDbEntity
  8
0-0
  6
JWW_DASHED1
 62
   120
370
     5
100
AcDbLine
 10
6.168891561825234
 20
507.8206059237938
 30
0.0
 11
44.16889156183245
 21
545.8206059238045
 31
0.0
  0
LINE
  5
1DC
330
1F
100
AcDbEntity
  8
0-0
  6
JWW_DASHED1
 62
   120
370
     5
100
AcDbLine
 10
6.168891561825234
 20
517.7201008590187
 30
0.0
 11
44.16889156182563
 21
555.7201008590127
 31
0.0
  0
LINE
  5
1DD
330
1F
100
AcDbEntity
  8
0-0
  6
JWW_DASHED1
 62
   120
370
     5
100
AcDbLine
 10
6.168891561825234
 20
527.619595794169
 30
0.0
 11
44.16889156182563
 21
565.6195957941775
 31
0.0
  0
LINE
  5
1DE
330
1F
100
AcDbEntity
  8
0-0
  6
JWW_DASHED1
 62
   120
370
     5
100
AcDbLine
 10
6.168891561825234
 20
537.5190907293887
 30
0.0
 11
44.16889156181881
 21
575.5190907293857
 31
0.0
  0
LINE
  5
1DF
330
1F
100
AcDbEntity
  8
0-0
  6
JWW_DASHED1
 62
   120
370
     5
100
AcDbLine
 10
6.168891561825234
 20
547.418585664608
 30
0.0
 11
44.16889156182563
 21
585.4185856646093
 31
0.0
  0
LINE
  5
1E0
330
1F
100
AcDbEntity
  8
0-0
  6
JWW_DASHED1
 62
   120
370
     5
100
AcDbLine
 10
6.168891561825234
 20
557.3180805997698
 30
0.0
 11
44.16889156182904
 21
595.3180805997745
 31
0.0
  0
LINE
  5
1E1
330
1F
100
AcDbEntity
  8
0-0
  6
JWW_DASHED1
 62
   120
370
     5
100
AcDbLine
 10
6.168891561825234
 20
567.2175755349883
 30
0.0
 11
44.16889156182222
 21
605.2175755349828
 31
0.0
  0
LINE
  5
1E2
330
1F
100
AcDbEntity
  8
0-0
  6
JWW_DASHED1
 62
   120
370
     5
100
AcDbLine
 10
6.168891561825234
 20
577.1170704702008
 30
0.0
 11
44.16889156182904
 21
615.1170704702064
 31
0.0
  0
LINE
  5
1E3
330
1F
100
AcDbEntity
  8
0-0
  6
JWW_DASHED1
 62
   120
370
     5
100
AcDbLine
 10
6.168891561825234
 20
587.0165654053626
 30
0.0
 11
44.16889156183245
 21
625.0165654053716
 31
0.0
  0
LINE
  5
1E4
330
1F
100
AcDbEntity
  8
0-0
  6
JWW_DASHED1
 62
   120
370
     5
100
AcDbLine
 10
6.168891561825234
 20
596.9160603405824
 30
0.0
 11
44.16889156182563
 21
634.9160603405794
 31
0.0
  0
LINE
  5
1E5
330
1F
100
AcDbEntity
  8
0-0
  6
JWW_DASHED1
 62
   120
370
     5
100
AcDbLine
 10
6.168891561825234
 20
606.8155552758013
 30
0.0
 11
44.16889156183245
 21
644.8155552758034
 31
0.0
  0
LINE
  5
1E6
330
1F
100
AcDbEntity
  8
0-0
  6
JWW_DASHED1
 62
   120
370
     5
100
AcDbLine
 10
6.168891561825234
 20
616.7150502109529
 30
0.0
 11
44.16889156183245
 21
654.7150502109682
 31
0.0
  0
LINE
  5
1E7
330
1F
100
AcDbEntity
  8
0-0
  6
JWW_DASHED1
 62
   120
370
     5
100
AcDbLine
 10
6.168891561825234
 20
626.6145451461726
 30
0.0
 11
44.16889156182563
 21
664.6145451461764
 31
0.0
  0
LINE
  5
1E8
330
1F
100
AcDbEntity
  8
0-0
  6
JWW_DASHED1
 62
   120
370
     5
100
AcDbLine
 10
6.168891561825234
 20
636.5140400813915
 30
0.0
 11
44.16889156183245
 21
674.5140400814005
 31
0.0
  0
LINE
  5
1E9
330
1F
100
AcDbEntity
  8
0-0
  6
JWW_DASHED1
 62
   120
370
     5
100
AcDbLine
 10
6.168891561825234
 20
646.4135350165508
 30
0.0
 11
44.16889156183586
 21
684.4135350165631
 31
0.0
  0
LINE
  5
1EA
330
1F
100
AcDbEntity
  8
0-0
  6
JWW_DASHED1
 62
   120
370
     5
100
AcDbLine
 10
6.168891561825234
 20
656.3130299517723
 30
0.0
 11
44.16889156182904
 21
694.3130299517735
 31
0.0
  0
LINE
  5
1EB
330
1F
100
AcDbEntity
  8
0-0
  6
JWW_DASHED1
 62
   120
370
     5
100
AcDbLine
 10
6.168891561825234
 20
666.2125248869843
 30
0.0
 11
44.16889156181881
 21
704.2125248869813
 31
0.0
  0
LINE
  5
1EC
330
1F
100
AcDbEntity
  8
0-0
  6
JWW_DASHED1
 62
   120
370
     5
100
AcDbLine
 10
6.168891561825234
 20
676.1120198221516
 30
0.0
 11
44.16889156182563
 21
714.1120198221465
 31
0.0
  0
LINE
  5
1ED
330
1F
100
AcDbEntity
  8
0-0
  6
JWW_DASHED1
 62
   120
370
     5
100
AcDbLine
 10
6.168891561825234
 20
686.0115147573663
 30
0.0
 11
44.16889156183245
 21
724.0115147573702
 31
0.0
  0
LINE
  5
1EE
330
1F
100
AcDbEntity
  8
0-0
  6
JWW_DASHED1
 62
   120
370
     5
100
AcDbLine
 10
6.168891561825234
 20
695.911009692578
 30
0.0
 11
44.16889156182222
 21
733.9110096925783
 31
0.0
  0
LINE
  5
1EF
330
1F
100
AcDbEntity
  8
0-0
  6
JWW_DASHED1
 62
   120
370
     5
100
AcDbLine
 10
6.168891561825234
 20
705.8105046277419
 30
0.0
 11
44.16889156182563
 21
743.8105046277427
 31
0.0
  0
LINE
  5
1F0
330
1F
100
AcDbEntity
  8
0-0
  6
JWW_DASHED1
 62
   120
370
     5
100
AcDbLine
 10
6.168891561825234
 20
715.7099995629561
 30
0.0
 11
44.16889156183245
 21
753.7099995629671
 31
0.0
  0
LINE
  5
1F1
330
1F
100
AcDbEntity
  8
0-0
  6
JWW_DASHED1
 62
   120
370
     5
100
AcDbLine
 10
6.168891561825234
 20
725.6094944981733
 30
0.0
 11
44.16889156182563
 21
763.6094944981754
 31
0.0
  0
LINE
  5
1F2
330
1F
100
AcDbEntity
  8
0-0
  6
JWW_DASHED1
 62
   120
370
     5
100
AcDbLine
 10
6.168891561825234
 20
735.5089894333355
 30
0.0
 11
44.16889156182904
 21
773.5089894333402
 31
0.0
  0
LINE
  5
1F3
330
1F
100
AcDbEntity
  8
0-0
  6
JWW_DASHED1
 62
   120
370
     5
100
AcDbLine
 10
6.168891561825234
 20
745.4084843685565
 30
0.0
 11
44.16889156183586
 21
783.4084843685638
 31
0.0
  0
LINE
  5
1F4
330
1F
100
AcDbEntity
  8
0-0
  6
JWW_DASHED1
 62
   120
370
     5
100
AcDbLine
 10
6.168891561825234
 20
755.3079793037635
 30
0.0
 11
44.16889156182563
 21
793.3079793037721
 31
0.0
  0
LINE
  5
1F5
330
1F
100
AcDbEntity
  8
0-0
  6
JWW_DASHED1
 62
   120
370
     5
100
AcDbLine
 10
6.168891561825234
 20
765.2074742389356
 30
0.0
 11
44.16889156183245
 21
803.2074742389373
 31
0.0
  0
LINE
  5
1F6
330
1F
100
AcDbEntity
  8
0-0
  6
JWW_DASHED1
 62
   120
370
     5
100
AcDbLine
 10
6.168891561825234
 20
775.1069691741515
 30
0.0
 11
44.16889156182222
 21
813.1069691741446
 31
0.0
  0
LINE
  5
1F7
330
1F
100
AcDbEntity
  8
0-0
  6
JWW_DASHED1
 62
   120
370
     5
100
AcDbLine
 10
6.168891561825234
 20
785.0064641093683
 30
0.0
 11
44.16889156183245
 21
823.0064641093691
 31
0.0
  0
LINE
  5
1F8
330
1F
100
AcDbEntity
  8
0-0
  6
JWW_DASHED1
 62
   120
370
     5
100
AcDbLine
 10
6.168891561825234
 20
794.9059590445257
 30
0.0
 11
44.16889156183245
 21
832.9059590445338
 31
0.0
  0
LINE
  5
1F9
330
1F
100
AcDbEntity
  8
0-0
  6
JWW_DASHED1
 62
   120
370
     5
100
AcDbLine
 10
6.168891561825234
 20
804.8054539797452
 30
0.0
 11
44.16889156182563
 21
842.8054539797421
 31
0.0
  0
LINE
  5
1FA
330
1F
100
AcDbEntity
  8
0-0
  6
JWW_DASHED1
 62
   120
370
     5
100
AcDbLine
 10
6.168891561825234
 20
814.7049489149576
 30
0.0
 11
44.16889156183245
 21
852.7049489149657
 31
0.0
  0
LINE
  5
1FB
330
1F
100
AcDbEntity
  8
0-0
  6
JWW_DASHED1
 62
   120
370
     5
100
AcDbLine
 10
6.168891561825234
 20
824.6044438501177
 30
0.0
 11
44.16889156181881
 21
862.6044438501151
 31
0.0
  0
LINE
  5
1FC
330
1F
100
AcDbEntity
  8
0-0
  6
JWW_DASHED1
 62
   120
370
     5
100
AcDbLine
 10
6.168891561825234
 20
834.5039387853341
 30
0.0
 11
44.16889156182563
 21
872.5039387853392
 31
0.0
  0
LINE
  5
1FD
330
1F
100
AcDbEntity
  8
0-0
  6
JWW_DASHED1
 62
   120
370
     5
100
AcDbLine
 10
6.168891561825234
 20
844.4034337205512
 30
0.0
 11
44.16889156183586
 21
882.4034337205627
 31
0.0
  0
LINE
  5
1FE
330
1F
100
AcDbEntity
  8
0-0
  6
JWW_DASHED1
 62
   120
370
     5
100
AcDbLine
 10
6.168891561825234
 20
854.3029286557181
 30
0.0
 11
44.16889156182222
 21
892.3029286557118
 31
0.0
  0
LINE
  5
1FF
330
1F
100
AcDbEntity
  8
0-0
  6
JWW_DASHED1
 62
   120
370
     5
100
AcDbLine
 10
6.168891561825234
 20
864.2024235909286
 30
0.0
 11
44.16889156182904
 21
902.2024235909357
 31
0.0
  0
LINE
  5
200
330
1F
100
AcDbEntity
  8
0-0
  6
JWW_DASHED1
 62
   120
370
     5
100
AcDbLine
 10
6.168891561825234
 20
874.1019185261508
 30
0.0
 11
44.16889156183927
 21
912.1019185261594
 31
0.0
  0
LINE
  5
201
330
1F
100
AcDbEntity
  8
0-0
  6
JWW_DASHED1
 62
   120
370
     5
100
AcDbLine
 10
6.168891561825234
 20
884.0014134613148
 30
0.0
 11
44.16889156182563
 21
922.0014134613087
 31
0.0
  0
LINE
  5
202
330
1F
100
AcDbEntity
  8
0-0
  6
JWW_DASHED1
 62
   120
370
     5
100
AcDbLine
 10
6.168891561825234
 20
893.9009083965221
 30
0.0
 11
44.16889156183245
 21
931.9009083965328
 31
0.0
  0
LINE
  5
203
330
1F
100
AcDbEntity
  8
0-0
  6
JWW_DASHED1
 62
   120
370
     5
100
AcDbLine
 10
6.168891561825234
 20
903.8004033317462
 30
0.0
 11
44.16889156182563
 21
941.8004033317407
 31
0.0
  0
LINE
  5
204
330
1F
100
AcDbEntity
  8
0-0
  6
JWW_DASHED1
 62
   120
370
     5
100
AcDbLine
 10
6.168891561825234
 20
923.5993932021265
 30
0.0
 11
44.16889156182563
 21
961.5993932021154
 31
0.0
  0
LINE
  5
205
330
1F
100
AcDbEntity
  8
0-0
  6
JWW_DASHED1
 62
   120
370
     5
100
AcDbLine
 10
6.168891561825234
 20
913.699898266908
 30
0.0
 11
44.16889156182563
 21
951.6998982669015
 31
0.0
  0
LINE
  5
206
330
1F
100
AcDbEntity
  8
0-0
  6
JWW_DASHED1
 62
   120
370
     5
100
AcDbLine
 10
6.168891561825234
 20
-917.706664744634
 30
0.0
 11
44.16889156182222
 21
-879.706664744634
 31
0.0
  0
LINE
  5
207
330
1F
100
AcDbEntity
  8
0-0
  6
JWW_DASHED1
 62
   120
370
     5
100
AcDbLine
 10
6.168891561825234
 20
-927.6061596797988
 30
0.0
 11
44.16889156182222
 21
-889.6061596797987
 31
0.0
  0
LINE
  5
208
330
1F
100
AcDbEntity
  8
0-0
  6
JWW_DASHED1
 62
   120
370
     5
100
AcDbLine
 10
6.168891561825234
 20
-937.5056546149634
 30
0.0
 11
44.16889156182222
 21
-899.5056546149636
 31
0.0
  0
LINE
  5
209
330
1F
100
AcDbEntity
  8
0-0
  6
JWW_DASHED1
 62
   120
370
     5
100
AcDbLine
 10
8.969572141070472
 20
-944.6044689708824
 30
0.0
 11
44.16889156182222
 21
-909.4051495501284
 31
0.0
  0
LINE
  5
20A
330
1F
100
AcDbEntity
  8
0-0
  6
JWW_DASHED1
 62
   120
370
     5
100
AcDbLine
 10
38.66805694656264
 20
-944.6044689708824
 30
0.0
 11
44.16889156182222
 21
-939.1036343556227
 31
0.0
  0
LINE
  5
20B
330
1F
100
AcDbEntity
  8
0-0
  6
JWW_DASHED1
 62
   120
370
     5
100
AcDbLine
 10
18.86906707623481
 20
-944.6044689708824
 30
0.0
 11
44.16889156182222
 21
-919.3046444852931
 31
0.0
  0
LINE
  5
20C
330
1F
100
AcDbEntity
  8
0-0
  6
JWW_DASHED1
 62
   120
370
     5
100
AcDbLine
 10
28.76856201139915
 20
-944.6044689708824
 30
0.0
 11
44.16889156182222
 21
-929.2041394204578
 31
0.0
  0
LINE
  5
20D
330
1F
100
AcDbEntity
  8
0-0
  6
JWW_DASHED1
 62
   120
370
     5
100
AcDbLine
 10
6.168891561825234
 20
933.4988881373449
 30
0.0
 11
44.16889156182563
 21
971.4988881373338
 31
0.0
  0
LINE
  5
20E
330
1F
100
AcDbEntity
  8
0-0
  6
JWW_DASHED1
 62
   120
370
     5
100
AcDbLine
 10
6.168891561825234
 20
943.3983830725634
 30
0.0
 11
44.16889156182563
 21
981.3983830725523
 31
0.0
  0
LINE
  5
20F
330
1F
100
AcDbEntity
  8
0-0
  6
JWW_DASHED1
 62
   120
370
     5
100
AcDbLine
 10
6.168891561825234
 20
953.297878007782
 30
0.0
 11
44.16889156182563
 21
991.2978780077708
 31
0.0
  0
LINE
  5
210
330
1F
100
AcDbEntity
  8
0-0
  6
JWW_DASHED1
 62
   120
370
     5
100
AcDbLine
 10
6.168891561825234
 20
963.197372943
 30
0.0
 11
44.16889156182563
 21
1001.197372942989
 31
0.0
  0
LINE
  5
211
330
1F
100
AcDbEntity
  8
0-0
  6
JWW_DASHED1
 62
   120
370
     5
100
AcDbLine
 10
6.168891561825234
 20
973.0968678782189
 30
0.0
 11
44.16889156182563
 21
1011.096867878208
 31
0.0
  0
LINE
  5
212
330
1F
100
AcDbEntity
  8
0-0
  6
JWW_DASHED1
 62
   120
370
     5
100
AcDbLine
 10
6.168891561825234
 20
982.9963628134374
 30
0.0
 11
44.16889156182563
 21
1020.996362813426
 31
0.0
  0
LINE
  5
213
330
1F
100
AcDbEntity
  8
0-0
  6
JWW_DASHED1
 62
   120
370
     5
100
AcDbLine
 10
6.168891561825234
 20
1012.694847619093
 30
0.0
 11
15.86957497185367
 21
1022.395531029118
 31
0.0
  0
LINE
  5
214
330
1F
100
AcDbEntity
  8
0-0
  6
JWW_DASHED1
 62
   120
370
     5
100
AcDbLine
 10
6.168891561825234
 20
992.8958577486559
 30
0.0
 11
35.6685648422966
 21
1022.395531029118
 31
0.0
  0
LINE
  5
215
330
1F
100
AcDbEntity
  8
0-0
  6
JWW_DASHED1
 62
   120
370
     5
100
AcDbLine
 10
6.168891561825234
 20
1002.795352683874
 30
0.0
 11
25.76906990707514
 21
1022.395531029118
 31
0.0
  0
LINE
  5
216
330
1F
100
AcDbEntity
  8
0-0
  6
Continuous
 62
     7
370
     9
100
AcDbLine
 10
786.1688915618253
 20
-944.6044689708824
 30
0.0
 11
824.1688915618256
 21
-944.6044689708824
 31
0.0
  0
LINE
  5
217
330
1F
100
AcDbEntity
  8
0-0
  6
Continuous
 62
    92
370
    13
100
AcDbLine
 10
786.1688915618253
 20
1030.395531029116
 30
0.0
 11
786.1688915618253
 21
-952.6044689708821
 31
0.0
  0
LINE
  5
218
330
1F
100
AcDbEntity
  8
0-0
  6
Continuous
 62
    92
370
    13
100
AcDbLine
 10
824.1688915618256
 20
1030.395531029116
 30
0.0
 11
824.1688915618256
 21
-952.6044689708824
 31
0.0
  0
LINE
  5
219
330
1F
100
AcDbEntity
  8
0-0
  6
Continuous
 62
     7
370
     9
100
AcDbLine
 10
786.1688915618253
 20
1022.395531029118
 30
0.0
 11
824.1688915618256
 21
1022.395531029118
 31
0.0
  0
LINE
  5
21A
330
1F
100
AcDbEntity
  8
0-0
  6
JWW_DASHED1
 62
   120
370
     5
100
AcDbLine
 10
786.1688915618253
 20
-907.8071698094693
 30
0.0
 11
824.1688915618222
 21
-869.8071698094693
 31
0.0
  0
LINE
  5
21B
330
1F
100
AcDbEntity
  8
0-0
  6
JWW_DASHED1
 62
   120
370
     5
100
AcDbLine
 10
786.1688915618253
 20
-897.9076748743075
 30
0.0
 11
824.1688915618256
 21
-859.9076748743046
 31
0.0
  0
LINE
  5
21C
330
1F
100
AcDbEntity
  8
0-0
  6
JWW_DASHED1
 62
   120
370
     5
100
AcDbLine
 10
786.1688915618253
 20
-888.008179939089
 30
0.0
 11
824.1688915618324
 21
-850.0081799390805
 31
0.0
  0
LINE
  5
21D
330
1F
100
AcDbEntity
  8
0-0
  6
JWW_DASHED1
 62
   120
370
     5
100
AcDbLine
 10
786.1688915618253
 20
-878.1086850038766
 30
0.0
 11
824.1688915618256
 21
-840.1086850038721
 31
0.0
  0
LINE
  5
21E
330
1F
100
AcDbEntity
  8
0-0
  6
JWW_DASHED1
 62
   120
370
     5
100
AcDbLine
 10
786.1688915618253
 20
-868.209190068708
 30
0.0
 11
824.168891561829
 21
-830.2091900687075
 31
0.0
  0
LINE
  5
21F
330
1F
100
AcDbEntity
  8
0-0
  6
JWW_DASHED1
 62
   120
370
     5
100
AcDbLine
 10
786.1688915618253
 20
-858.3096951334941
 30
0.0
 11
824.1688915618188
 21
-820.3096951334991
 31
0.0
  0
LINE
  5
220
330
1F
100
AcDbEntity
  8
0-0
  6
JWW_DASHED1
 62
   120
370
     5
100
AcDbLine
 10
786.1688915618253
 20
-848.4102001982754
 30
0.0
 11
824.168891561829
 21
-810.4102001982754
 31
0.0
  0
LINE
  5
221
330
1F
100
AcDbEntity
  8
0-0
  6
JWW_DASHED1
 62
   120
370
     5
100
AcDbLine
 10
786.1688915618253
 20
-838.5107052631145
 30
0.0
 11
824.1688915618324
 21
-800.5107052631105
 31
0.0
  0
LINE
  5
222
330
1F
100
AcDbEntity
  8
0-0
  6
JWW_DASHED1
 62
   120
370
     5
100
AcDbLine
 10
786.1688915618253
 20
-828.6112103279006
 30
0.0
 11
824.1688915618222
 21
-790.6112103279024
 31
0.0
  0
LINE
  5
223
330
1F
100
AcDbEntity
  8
0-0
  6
JWW_DASHED1
 62
   120
370
     5
100
AcDbLine
 10
786.1688915618253
 20
-818.7117153926832
 30
0.0
 11
824.1688915618324
 21
-780.7117153926783
 31
0.0
  0
LINE
  5
224
330
1F
100
AcDbEntity
  8
0-0
  6
JWW_DASHED1
 62
   120
370
     5
100
AcDbLine
 10
786.1688915618253
 20
-808.8122204575207
 30
0.0
 11
824.1688915618188
 21
-770.8122204575294
 31
0.0
  0
LINE
  5
225
330
1F
100
AcDbEntity
  8
0-0
  6
JWW_DASHED1
 62
   120
370
     5
100
AcDbLine
 10
786.1688915618253
 20
-798.912725522307
 30
0.0
 11
824.1688915618256
 21
-760.9127255223058
 31
0.0
  0
LINE
  5
226
330
1F
100
AcDbEntity
  8
0-0
  6
JWW_DASHED1
 62
   120
370
     5
100
AcDbLine
 10
786.1688915618253
 20
-789.0132305870931
 30
0.0
 11
824.1688915618324
 21
-751.0132305870818
 31
0.0
  0
LINE
  5
227
330
1F
100
AcDbEntity
  8
0-0
  6
JWW_DASHED1
 62
   120
370
     5
100
AcDbLine
 10
786.1688915618253
 20
-779.1137356519298
 30
0.0
 11
824.1688915618188
 21
-741.1137356519325
 31
0.0
  0
LINE
  5
228
330
1F
100
AcDbEntity
  8
0-0
  6
JWW_DASHED1
 62
   120
370
     5
100
AcDbLine
 10
786.1688915618253
 20
-769.2142407167174
 30
0.0
 11
824.1688915618256
 21
-731.2142407167086
 31
0.0
  0
LINE
  5
229
330
1F
100
AcDbEntity
  8
0-0
  6
JWW_DASHED1
 62
   120
370
     5
100
AcDbLine
 10
786.1688915618253
 20
-759.3147457815444
 30
0.0
 11
824.1688915618324
 21
-721.3147457815439
 31
0.0
  0
LINE
  5
22A
330
1F
100
AcDbEntity
  8
0-0
  6
JWW_DASHED1
 62
   120
370
     5
100
AcDbLine
 10
786.1688915618253
 20
-749.4152508463293
 30
0.0
 11
824.1688915618222
 21
-711.4152508463355
 31
0.0
  0
LINE
  5
22B
330
1F
100
AcDbEntity
  8
0-0
  6
JWW_DASHED1
 62
   120
370
     5
100
AcDbLine
 10
786.1688915618253
 20
-739.515755911117
 30
0.0
 11
824.168891561829
 21
-701.5157559111119
 31
0.0
  0
LINE
  5
22C
330
1F
100
AcDbEntity
  8
0-0
  6
JWW_DASHED1
 62
   120
370
     5
100
AcDbLine
 10
786.1688915618253
 20
-729.6162609759552
 30
0.0
 11
824.1688915618324
 21
-691.6162609759467
 31
0.0
  0
LINE
  5
22D
330
1F
100
AcDbEntity
  8
0-0
  6
JWW_DASHED1
 62
   120
370
     5
100
AcDbLine
 10
786.1688915618253
 20
-719.7167660407353
 30
0.0
 11
824.1688915618256
 21
-681.7167660407389
 31
0.0
  0
LINE
  5
22E
330
1F
100
AcDbEntity
  8
0-0
  6
JWW_DASHED1
 62
   120
370
     5
100
AcDbLine
 10
786.1688915618253
 20
-709.8172711055238
 30
0.0
 11
824.1688915618324
 21
-671.8172711055148
 31
0.0
  0
LINE
  5
22F
330
1F
100
AcDbEntity
  8
0-0
  6
JWW_DASHED1
 62
   120
370
     5
100
AcDbLine
 10
786.1688915618253
 20
-699.9177761703605
 30
0.0
 11
824.1688915618188
 21
-661.9177761703656
 31
0.0
  0
LINE
  5
230
330
1F
100
AcDbEntity
  8
0-0
  6
JWW_DASHED1
 62
   120
370
     5
100
AcDbLine
 10
786.1688915618253
 20
-690.0182812351463
 30
0.0
 11
824.1688915618256
 21
-652.0182812351418
 31
0.0
  0
LINE
  5
231
330
1F
100
AcDbEntity
  8
0-0
  6
JWW_DASHED1
 62
   120
370
     5
100
AcDbLine
 10
786.1688915618253
 20
-680.118786299931
 30
0.0
 11
824.1688915618188
 21
-642.1187862999338
 31
0.0
  0
LINE
  5
232
330
1F
100
AcDbEntity
  8
0-0
  6
JWW_DASHED1
 62
   120
370
     5
100
AcDbLine
 10
786.1688915618253
 20
-670.2192913647671
 30
0.0
 11
824.1688915618222
 21
-632.2192913647688
 31
0.0
  0
LINE
  5
233
330
1F
100
AcDbEntity
  8
0-0
  6
JWW_DASHED1
 62
   120
370
     5
100
AcDbLine
 10
786.1688915618253
 20
-660.3197964295524
 30
0.0
 11
824.168891561829
 21
-622.319796429545
 31
0.0
  0
LINE
  5
234
330
1F
100
AcDbEntity
  8
0-0
  6
JWW_DASHED1
 62
   120
370
     5
100
AcDbLine
 10
786.1688915618253
 20
-650.4203014943355
 30
0.0
 11
824.1688915618222
 21
-612.4203014943367
 31
0.0
  0
LINE
  5
235
330
1F
100
AcDbEntity
  8
0-0
  6
JWW_DASHED1
 62
   120
370
     5
100
AcDbLine
 10
786.1688915618253
 20
-640.520806559166
 30
0.0
 11
824.1688915618256
 21
-602.520806559172
 31
0.0
  0
LINE
  5
236
330
1F
100
AcDbEntity
  8
0-0
  6
JWW_DASHED1
 62
   120
370
     5
100
AcDbLine
 10
786.1688915618253
 20
-630.6213116239592
 30
0.0
 11
824.1688915618324
 21
-592.6213116239479
 31
0.0
  0
LINE
  5
237
330
1F
100
AcDbEntity
  8
0-0
  6
JWW_DASHED1
 62
   120
370
     5
100
AcDbLine
 10
786.1688915618253
 20
-620.7218166887345
 30
0.0
 11
824.1688915618256
 21
-582.7218166887399
 31
0.0
  0
LINE
  5
238
330
1F
100
AcDbEntity
  8
0-0
  6
JWW_DASHED1
 62
   120
370
     5
100
AcDbLine
 10
786.1688915618253
 20
-610.8223217535766
 30
0.0
 11
824.1688915618256
 21
-572.8223217535749
 31
0.0
  0
LINE
  5
239
330
1F
100
AcDbEntity
  8
0-0
  6
JWW_DASHED1
 62
   120
370
     5
100
AcDbLine
 10
786.1688915618253
 20
-600.9228268183624
 30
0.0
 11
824.1688915618324
 21
-562.9228268183512
 31
0.0
  0
LINE
  5
23A
330
1F
100
AcDbEntity
  8
0-0
  6
JWW_DASHED1
 62
   120
370
     5
100
AcDbLine
 10
786.1688915618253
 20
-591.0233318831446
 30
0.0
 11
824.1688915618256
 21
-553.0233318831429
 31
0.0
  0
LINE
  5
23B
330
1F
100
AcDbEntity
  8
0-0
  6
JWW_DASHED1
 62
   120
370
     5
100
AcDbLine
 10
786.1688915618253
 20
-581.1238369479831
 30
0.0
 11
824.168891561829
 21
-543.1238369479781
 31
0.0
  0
LINE
  5
23C
330
1F
100
AcDbEntity
  8
0-0
  6
JWW_DASHED1
 62
   120
370
     5
100
AcDbLine
 10
786.1688915618253
 20
-571.2243420127638
 30
0.0
 11
824.1688915618222
 21
-533.2243420127701
 31
0.0
  0
LINE
  5
23D
330
1F
100
AcDbEntity
  8
0-0
  6
JWW_DASHED1
 62
   120
370
     5
100
AcDbLine
 10
786.1688915618253
 20
-561.3248470775511
 30
0.0
 11
824.168891561829
 21
-523.324847077546
 31
0.0
  0
LINE
  5
23E
330
1F
100
AcDbEntity
  8
0-0
  6
JWW_DASHED1
 62
   120
370
     5
100
AcDbLine
 10
786.1688915618253
 20
-551.4253521423896
 30
0.0
 11
824.1688915618324
 21
-513.425352142381
 31
0.0
  0
LINE
  5
23F
330
1F
100
AcDbEntity
  8
0-0
  6
JWW_DASHED1
 62
   120
370
     5
100
AcDbLine
 10
786.1688915618253
 20
-541.5258572071702
 30
0.0
 11
824.1688915618256
 21
-503.525857207173
 31
0.0
  0
LINE
  5
240
330
1F
100
AcDbEntity
  8
0-0
  6
JWW_DASHED1
 62
   120
370
     5
100
AcDbLine
 10
786.1688915618253
 20
-531.6263622719503
 30
0.0
 11
824.1688915618324
 21
-493.6263622719494
 31
0.0
  0
LINE
  5
241
330
1F
100
AcDbEntity
  8
0-0
  6
JWW_DASHED1
 62
   120
370
     5
100
AcDbLine
 10
786.1688915618253
 20
-521.7268673367976
 30
0.0
 11
824.1688915618188
 21
-483.7268673368
 31
0.0
  0
LINE
  5
242
330
1F
100
AcDbEntity
  8
0-0
  6
JWW_DASHED1
 62
   120
370
     5
100
AcDbLine
 10
786.1688915618253
 20
-511.8273724015806
 30
0.0
 11
824.1688915618256
 21
-473.8273724015762
 31
0.0
  0
LINE
  5
243
330
1F
100
AcDbEntity
  8
0-0
  6
JWW_DASHED1
 62
   120
370
     5
100
AcDbLine
 10
786.1688915618253
 20
-501.9278774663609
 30
0.0
 11
824.1688915618324
 21
-463.9278774663519
 31
0.0
  0
LINE
  5
244
330
1F
100
AcDbEntity
  8
0-0
  6
JWW_DASHED1
 62
   120
370
     5
100
AcDbLine
 10
786.1688915618253
 20
-492.0283825312006
 30
0.0
 11
824.1688915618188
 21
-454.028382531203
 31
0.0
  0
LINE
  5
245
330
1F
100
AcDbEntity
  8
0-0
  6
JWW_DASHED1
 62
   120
370
     5
100
AcDbLine
 10
786.1688915618253
 20
-482.128887595981
 30
0.0
 11
824.168891561829
 21
-444.1288875959789
 31
0.0
  0
LINE
  5
246
330
1F
100
AcDbEntity
  8
0-0
  6
JWW_DASHED1
 62
   120
370
     5
100
AcDbLine
 10
786.1688915618253
 20
-472.2293926607664
 30
0.0
 11
824.1688915618188
 21
-434.2293926607711
 31
0.0
  0
LINE
  5
247
330
1F
100
AcDbEntity
  8
0-0
  6
JWW_DASHED1
 62
   120
370
     5
100
AcDbLine
 10
786.1688915618253
 20
-462.3298977256007
 30
0.0
 11
824.1688915618256
 21
-424.3298977256059
 31
0.0
  0
LINE
  5
248
330
1F
100
AcDbEntity
  8
0-0
  6
JWW_DASHED1
 62
   120
370
     5
100
AcDbLine
 10
786.1688915618253
 20
-452.4304027903866
 30
0.0
 11
824.1688915618324
 21
-414.4304027903827
 31
0.0
  0
LINE
  5
249
330
1F
100
AcDbEntity
  8
0-0
  6
JWW_DASHED1
 62
   120
370
     5
100
AcDbLine
 10
786.1688915618253
 20
-442.5309078551723
 30
0.0
 11
824.1688915618222
 21
-404.5309078551745
 31
0.0
  0
LINE
  5
24A
330
1F
100
AcDbEntity
  8
0-0
  6
JWW_DASHED1
 62
   120
370
     5
100
AcDbLine
 10
786.1688915618253
 20
-432.6314129200105
 30
0.0
 11
824.1688915618256
 21
-394.6314129200093
 31
0.0
  0
LINE
  5
24B
330
1F
100
AcDbEntity
  8
0-0
  6
JWW_DASHED1
 62
   120
370
     5
100
AcDbLine
 10
786.1688915618253
 20
-422.7319179847912
 30
0.0
 11
824.1688915618188
 21
-384.731917984801
 31
0.0
  0
LINE
  5
24C
330
1F
100
AcDbEntity
  8
0-0
  6
JWW_DASHED1
 62
   120
370
     5
100
AcDbLine
 10
786.1688915618253
 20
-412.8324230495787
 30
0.0
 11
824.1688915618256
 21
-374.8324230495774
 31
0.0
  0
LINE
  5
24D
330
1F
100
AcDbEntity
  8
0-0
  6
JWW_DASHED1
 62
   120
370
     5
100
AcDbLine
 10
786.1688915618253
 20
-402.9329281144164
 30
0.0
 11
824.168891561829
 21
-364.9329281144127
 31
0.0
  0
LINE
  5
24E
330
1F
100
AcDbEntity
  8
0-0
  6
JWW_DASHED1
 62
   120
370
     5
100
AcDbLine
 10
786.1688915618253
 20
-393.0334331792031
 30
0.0
 11
824.1688915618188
 21
-355.0334331792039
 31
0.0
  0
LINE
  5
24F
330
1F
100
AcDbEntity
  8
0-0
  6
JWW_DASHED1
 62
   120
370
     5
100
AcDbLine
 10
786.1688915618253
 20
-383.1339382439825
 30
0.0
 11
824.1688915618256
 21
-345.1339382439804
 31
0.0
  0
LINE
  5
250
330
1F
100
AcDbEntity
  8
0-0
  6
JWW_DASHED1
 62
   120
370
     5
100
AcDbLine
 10
786.1688915618253
 20
-373.2344433088164
 30
0.0
 11
824.1688915618324
 21
-335.2344433088156
 31
0.0
  0
LINE
  5
251
330
1F
100
AcDbEntity
  8
0-0
  6
JWW_DASHED1
 62
   120
370
     5
100
AcDbLine
 10
786.1688915618253
 20
-363.3349483736014
 30
0.0
 11
824.1688915618222
 21
-325.3349483736077
 31
0.0
  0
LINE
  5
252
330
1F
100
AcDbEntity
  8
0-0
  6
JWW_DASHED1
 62
   120
370
     5
100
AcDbLine
 10
786.1688915618253
 20
-353.4354534383884
 30
0.0
 11
824.168891561829
 21
-315.4354534383838
 31
0.0
  0
LINE
  5
253
330
1F
100
AcDbEntity
  8
0-0
  6
JWW_DASHED1
 62
   120
370
     5
100
AcDbLine
 10
786.1688915618253
 20
-343.5359585032274
 30
0.0
 11
824.1688915618324
 21
-305.5359585032186
 31
0.0
  0
LINE
  5
254
330
1F
100
AcDbEntity
  8
0-0
  6
JWW_DASHED1
 62
   120
370
     5
100
AcDbLine
 10
786.1688915618253
 20
-333.6364635680077
 30
0.0
 11
824.1688915618256
 21
-295.6364635680108
 31
0.0
  0
LINE
  5
255
330
1F
100
AcDbEntity
  8
0-0
  6
JWW_DASHED1
 62
   120
370
     5
100
AcDbLine
 10
786.1688915618253
 20
-323.7369686327957
 30
0.0
 11
824.1688915618324
 21
-285.7369686327867
 31
0.0
  0
LINE
  5
256
330
1F
100
AcDbEntity
  8
0-0
  6
JWW_DASHED1
 62
   120
370
     5
100
AcDbLine
 10
786.1688915618253
 20
-313.8374736976278
 30
0.0
 11
824.1688915618256
 21
-275.8374736976322
 31
0.0
  0
LINE
  5
257
330
1F
100
AcDbEntity
  8
0-0
  6
JWW_DASHED1
 62
   120
370
     5
100
AcDbLine
 10
786.1688915618253
 20
-303.9379787624175
 30
0.0
 11
824.1688915618256
 21
-265.9379787624136
 31
0.0
  0
LINE
  5
258
330
1F
100
AcDbEntity
  8
0-0
  6
JWW_DASHED1
 62
   120
370
     5
100
AcDbLine
 10
786.1688915618253
 20
-294.0384838272037
 30
0.0
 11
824.1688915618188
 21
-256.0384838272054
 31
0.0
  0
LINE
  5
259
330
1F
100
AcDbEntity
  8
0-0
  6
JWW_DASHED1
 62
   120
370
     5
100
AcDbLine
 10
786.1688915618253
 20
-284.1389888920394
 30
0.0
 11
824.1688915618222
 21
-246.1389888920407
 31
0.0
  0
LINE
  5
25A
330
1F
100
AcDbEntity
  8
0-0
  6
JWW_DASHED1
 62
   120
370
     5
100
AcDbLine
 10
786.1688915618253
 20
-274.239493956817
 30
0.0
 11
824.168891561829
 21
-236.2394939568166
 31
0.0
  0
LINE
  5
25B
330
1F
100
AcDbEntity
  8
0-0
  6
JWW_DASHED1
 62
   120
370
     5
100
AcDbLine
 10
786.1688915618253
 20
-264.3399990216024
 30
0.0
 11
824.1688915618222
 21
-226.3399990216088
 31
0.0
  0
LINE
  5
25C
330
1F
100
AcDbEntity
  8
0-0
  6
JWW_DASHED1
 62
   120
370
     5
100
AcDbLine
 10
786.1688915618253
 20
-254.4405040864385
 30
0.0
 11
824.1688915618256
 21
-216.4405040864436
 31
0.0
  0
LINE
  5
25D
330
1F
100
AcDbEntity
  8
0-0
  6
JWW_DASHED1
 62
   120
370
     5
100
AcDbLine
 10
786.1688915618253
 20
-244.5410091512302
 30
0.0
 11
824.1688915618324
 21
-206.5410091512196
 31
0.0
  0
LINE
  5
25E
330
1F
100
AcDbEntity
  8
0-0
  6
JWW_DASHED1
 62
   120
370
     5
100
AcDbLine
 10
786.1688915618253
 20
-234.6415142160066
 30
0.0
 11
824.1688915618256
 21
-196.6415142160118
 31
0.0
  0
LINE
  5
25F
330
1F
100
AcDbEntity
  8
0-0
  6
JWW_DASHED1
 62
   120
370
     5
100
AcDbLine
 10
786.1688915618253
 20
-224.7420192808487
 30
0.0
 11
824.1688915618256
 21
-186.7420192808466
 31
0.0
  0
LINE
  5
260
330
1F
100
AcDbEntity
  8
0-0
  6
JWW_DASHED1
 62
   120
370
     5
100
AcDbLine
 10
786.1688915618253
 20
-214.8425243456353
 30
0.0
 11
824.1688915618324
 21
-176.8425243456225
 31
0.0
  0
LINE
  5
261
330
1F
100
AcDbEntity
  8
0-0
  6
JWW_DASHED1
 62
   120
370
     5
100
AcDbLine
 10
786.1688915618253
 20
-204.9430294104168
 30
0.0
 11
824.1688915618256
 21
-166.9430294104147
 31
0.0
  0
LINE
  5
262
330
1F
100
AcDbEntity
  8
0-0
  6
JWW_DASHED1
 62
   120
370
     5
100
AcDbLine
 10
786.1688915618253
 20
-195.043534475255
 30
0.0
 11
824.168891561829
 21
-157.0435344752495
 31
0.0
  0
LINE
  5
263
330
1F
100
AcDbEntity
  8
0-0
  6
JWW_DASHED1
 62
   120
370
     5
100
AcDbLine
 10
786.1688915618253
 20
-185.1440395400353
 30
0.0
 11
824.1688915618222
 21
-147.1440395400417
 31
0.0
  0
LINE
  5
264
330
1F
100
AcDbEntity
  8
0-0
  6
JWW_DASHED1
 62
   120
370
     5
100
AcDbLine
 10
786.1688915618253
 20
-175.2445446048513
 30
0.0
 11
824.1688915618256
 21
-137.2445446048475
 31
0.0
  0
LINE
  5
265
330
1F
100
AcDbEntity
  8
0-0
  6
JWW_DASHED1
 62
   120
370
     5
100
AcDbLine
 10
786.1688915618253
 20
-165.3450496696537
 30
0.0
 11
824.1688915618324
 21
-127.3450496696529
 31
0.0
  0
LINE
  5
266
330
1F
100
AcDbEntity
  8
0-0
  6
JWW_DASHED1
 62
   120
370
     5
100
AcDbLine
 10
786.1688915618253
 20
-155.4455547344408
 30
0.0
 11
824.1688915618256
 21
-117.4455547344451
 31
0.0
  0
LINE
  5
267
330
1F
100
AcDbEntity
  8
0-0
  6
JWW_DASHED1
 62
   120
370
     5
100
AcDbLine
 10
786.1688915618253
 20
-145.5460597992509
 30
0.0
 11
824.168891561829
 21
-107.5460597992505
 31
0.0
  0
LINE
  5
268
330
1F
100
AcDbEntity
  8
0-0
  6
JWW_DASHED1
 62
   120
370
     5
100
AcDbLine
 10
786.1688915618253
 20
-135.6465648640686
 30
0.0
 11
824.1688915618188
 21
-97.64656486407162
 31
0.0
  0
LINE
  5
269
330
1F
100
AcDbEntity
  8
0-0
  6
JWW_DASHED1
 62
   120
370
     5
100
AcDbLine
 10
786.1688915618253
 20
-125.7470699288535
 30
0.0
 11
824.1688915618256
 21
-87.7470699288476
 31
0.0
  0
LINE
  5
26A
330
1F
100
AcDbEntity
  8
0-0
  6
JWW_DASHED1
 62
   120
370
     5
100
AcDbLine
 10
786.1688915618253
 20
-115.8475749936837
 30
0.0
 11
824.168891561829
 21
-77.84757499368325
 31
0.0
  0
LINE
  5
26B
330
1F
100
AcDbEntity
  8
0-0
  6
JWW_DASHED1
 62
   120
370
     5
100
AcDbLine
 10
786.1688915618253
 20
-105.9480800584737
 30
0.0
 11
824.1688915618188
 21
-67.94808005847457
 31
0.0
  0
LINE
  5
26C
330
1F
100
AcDbEntity
  8
0-0
  6
JWW_DASHED1
 62
   120
370
     5
100
AcDbLine
 10
786.1688915618253
 20
-96.0485851232518
 30
0.0
 11
824.168891561829
 21
-58.0485851232514
 31
0.0
  0
LINE
  5
26D
330
1F
100
AcDbEntity
  8
0-0
  6
JWW_DASHED1
 62
   120
370
     5
100
AcDbLine
 10
786.1688915618253
 20
-86.14909018809001
 30
0.0
 11
824.1688915618324
 21
-48.14909018808621
 31
0.0
  0
LINE
  5
26E
330
1F
100
AcDbEntity
  8
0-0
  6
JWW_DASHED1
 62
   120
370
     5
100
AcDbLine
 10
786.1688915618253
 20
-76.24959525287537
 30
0.0
 11
824.1688915618222
 21
-38.24959525287838
 31
0.0
  0
LINE
  5
26F
330
1F
100
AcDbEntity
  8
0-0
  6
JWW_DASHED1
 62
   120
370
     5
100
AcDbLine
 10
786.1688915618253
 20
-66.35010031765816
 30
0.0
 11
824.1688915618324
 21
-28.35010031765435
 31
0.0
  0
LINE
  5
270
330
1F
100
AcDbEntity
  8
0-0
  6
JWW_DASHED1
 62
   120
370
     5
100
AcDbLine
 10
786.1688915618253
 20
-56.45060538249979
 30
0.0
 11
824.1688915618324
 21
-18.45060538248916
 31
0.0
  0
LINE
  5
271
330
1F
100
AcDbEntity
  8
0-0
  6
JWW_DASHED1
 62
   120
370
     5
100
AcDbLine
 10
786.1688915618253
 20
-46.55111044728173
 30
0.0
 11
824.1688915618256
 21
-8.551110447281332
 31
0.0
  0
LINE
  5
272
330
1F
100
AcDbEntity
  8
0-0
  6
JWW_DASHED1
 62
   120
370
     5
100
AcDbLine
 10
786.1688915618253
 20
-36.65161551206793
 30
0.0
 11
824.1688915618324
 21
1.348384487942695
 31
0.0
  0
LINE
  5
273
330
1F
100
AcDbEntity
  8
0-0
  6
JWW_DASHED1
 62
   120
370
     5
100
AcDbLine
 10
786.1688915618253
 20
-26.75212057690104
 30
0.0
 11
824.168891561829
 21
11.24787942309936
 31
0.0
  0
LINE
  5
274
330
1F
100
AcDbEntity
  8
0-0
  6
JWW_DASHED1
 62
   120
370
     5
100
AcDbLine
 10
786.1688915618253
 20
-16.8526256416898
 30
0.0
 11
824.168891561829
 21
21.14737435831572
 31
0.0
  0
LINE
  5
275
330
1F
100
AcDbEntity
  8
0-0
  6
JWW_DASHED1
 62
   120
370
     5
100
AcDbLine
 10
786.1688915618253
 20
-6.953130706473445
 30
0.0
 11
824.1688915618188
 21
31.04686929352354
 31
0.0
  0
LINE
  5
276
330
1F
100
AcDbEntity
  8
0-0
  6
JWW_DASHED1
 62
   120
370
     5
100
AcDbLine
 10
786.1688915618253
 20
2.94636422869516
 30
0.0
 11
824.1688915618222
 21
40.94636422868874
 31
0.0
  0
LINE
  5
277
330
1F
100
AcDbEntity
  8
0-0
  6
JWW_DASHED1
 62
   120
370
     5
100
AcDbLine
 10
786.1688915618253
 20
12.84585916391109
 30
0.0
 11
824.1688915618324
 21
50.84585916391276
 31
0.0
  0
LINE
  5
278
330
1F
100
AcDbEntity
  8
0-0
  6
JWW_DASHED1
 62
   120
370
     5
100
AcDbLine
 10
786.1688915618253
 20
22.74535409912701
 30
0.0
 11
824.1688915618222
 21
60.74535409912059
 31
0.0
  0
LINE
  5
279
330
1F
100
AcDbEntity
  8
0-0
  6
JWW_DASHED1
 62
   120
370
     5
100
AcDbLine
 10
786.1688915618253
 20
32.6448490342807
 30
0.0
 11
824.1688915618256
 21
70.64484903428578
 31
0.0
  0
LINE
  5
27A
330
1F
100
AcDbEntity
  8
0-0
  6
JWW_DASHED1
 62
   120
370
     5
100
AcDbLine
 10
786.1688915618253
 20
42.54434396950131
 30
0.0
 11
824.1688915618324
 21
80.54434396950938
 31
0.0
  0
LINE
  5
27B
330
1F
100
AcDbEntity
  8
0-0
  6
JWW_DASHED1
 62
   120
370
     5
100
AcDbLine
 10
786.1688915618253
 20
52.44383890472065
 30
0.0
 11
824.1688915618256
 21
90.44383890471764
 31
0.0
  0
LINE
  5
27C
330
1F
100
AcDbEntity
  8
0-0
  6
JWW_DASHED1
 62
   120
370
     5
100
AcDbLine
 10
786.1688915618253
 20
62.3433338398786
 30
0.0
 11
824.1688915618256
 21
100.3433338398824
 31
0.0
  0
LINE
  5
27D
330
1F
100
AcDbEntity
  8
0-0
  6
JWW_DASHED1
 62
   120
370
     5
100
AcDbLine
 10
786.1688915618253
 20
72.24282877509495
 30
0.0
 11
824.1688915618358
 21
110.2428287751064
 31
0.0
  0
LINE
  5
27E
330
1F
100
AcDbEntity
  8
0-0
  6
JWW_DASHED1
 62
   120
370
     5
100
AcDbLine
 10
786.1688915618253
 20
82.14232371031088
 30
0.0
 11
824.1688915618256
 21
120.1423237103147
 31
0.0
  0
LINE
  5
27F
330
1F
100
AcDbEntity
  8
0-0
  6
JWW_DASHED1
 62
   120
370
     5
100
AcDbLine
 10
786.1688915618253
 20
92.04181864547223
 30
0.0
 11
824.168891561829
 21
130.0418186454795
 31
0.0
  0
LINE
  5
280
330
1F
100
AcDbEntity
  8
0-0
  6
JWW_DASHED1
 62
   120
370
     5
100
AcDbLine
 10
786.1688915618253
 20
101.941313580689
 30
0.0
 11
824.1688915618222
 21
139.9413135806877
 31
0.0
  0
LINE
  5
281
330
1F
100
AcDbEntity
  8
0-0
  6
JWW_DASHED1
 62
   120
370
     5
100
AcDbLine
 10
786.1688915618253
 20
111.8408085159109
 30
0.0
 11
824.168891561829
 21
149.8408085159113
 31
0.0
  0
LINE
  5
282
330
1F
100
AcDbEntity
  8
0-0
  6
JWW_DASHED1
 62
   120
370
     5
100
AcDbLine
 10
786.1688915618253
 20
121.7403034510646
 30
0.0
 11
824.1688915618324
 21
159.7403034510765
 31
0.0
  0
LINE
  5
283
330
1F
100
AcDbEntity
  8
0-0
  6
JWW_DASHED1
 62
   120
370
     5
100
AcDbLine
 10
786.1688915618253
 20
131.6397983862903
 30
0.0
 11
824.1688915618256
 21
169.6397983862843
 31
0.0
  0
LINE
  5
284
330
1F
100
AcDbEntity
  8
0-0
  6
JWW_DASHED1
 62
   120
370
     5
100
AcDbLine
 10
786.1688915618253
 20
141.5392933215037
 30
0.0
 11
824.1688915618324
 21
179.5392933215084
 31
0.0
  0
LINE
  5
285
330
1F
100
AcDbEntity
  8
0-0
  6
JWW_DASHED1
 62
   120
370
     5
100
AcDbLine
 10
786.1688915618253
 20
151.4387882566595
 30
0.0
 11
824.1688915618188
 21
189.4387882566578
 31
0.0
  0
LINE
  5
286
330
1F
100
AcDbEntity
  8
0-0
  6
JWW_DASHED1
 62
   120
370
     5
100
AcDbLine
 10
786.1688915618253
 20
161.3382831918801
 30
0.0
 11
824.1688915618256
 21
199.3382831918814
 31
0.0
  0
LINE
  5
287
330
1F
100
AcDbEntity
  8
0-0
  6
JWW_DASHED1
 62
   120
370
     5
100
AcDbLine
 10
786.1688915618253
 20
171.2377781270943
 30
0.0
 11
824.1688915618324
 21
209.237778127105
 31
0.0
  0
LINE
  5
288
330
1F
100
AcDbEntity
  8
0-0
  6
JWW_DASHED1
 62
   120
370
     5
100
AcDbLine
 10
786.1688915618253
 20
181.1372730622604
 30
0.0
 11
824.1688915618222
 21
219.1372730622548
 31
0.0
  0
LINE
  5
289
330
1F
100
AcDbEntity
  8
0-0
  6
JWW_DASHED1
 62
   120
370
     5
100
AcDbLine
 10
786.1688915618253
 20
191.0367679974729
 30
0.0
 11
824.168891561829
 21
229.0367679974784
 31
0.0
  0
LINE
  5
28A
330
1F
100
AcDbEntity
  8
0-0
  6
JWW_DASHED1
 62
   120
370
     5
100
AcDbLine
 10
786.1688915618253
 20
200.9362629326914
 30
0.0
 11
824.1688915618324
 21
238.9362629326961
 31
0.0
  0
LINE
  5
28B
330
1F
100
AcDbEntity
  8
0-0
  6
JWW_DASHED1
 62
   120
370
     5
100
AcDbLine
 10
786.1688915618253
 20
210.8357578678536
 30
0.0
 11
824.1688915618256
 21
248.8357578678514
 31
0.0
  0
LINE
  5
28C
330
1F
100
AcDbEntity
  8
0-0
  6
JWW_DASHED1
 62
   120
370
     5
100
AcDbLine
 10
786.1688915618253
 20
220.7352528030742
 30
0.0
 11
824.1688915618324
 21
258.735252803075
 31
0.0
  0
LINE
  5
28D
330
1F
100
AcDbEntity
  8
0-0
  6
JWW_DASHED1
 62
   120
370
     5
100
AcDbLine
 10
786.1688915618253
 20
230.6347477382816
 30
0.0
 11
824.1688915618222
 21
268.6347477382833
 31
0.0
  0
LINE
  5
28E
330
1F
100
AcDbEntity
  8
0-0
  6
JWW_DASHED1
 62
   120
370
     5
100
AcDbLine
 10
786.1688915618253
 20
240.5342426734443
 30
0.0
 11
824.1688915618256
 21
278.534242673448
 31
0.0
  0
LINE
  5
28F
330
1F
100
AcDbEntity
  8
0-0
  6
JWW_DASHED1
 62
   120
370
     5
100
AcDbLine
 10
786.1688915618253
 20
250.4337376086661
 30
0.0
 11
824.1688915618188
 21
288.4337376086563
 31
0.0
  0
LINE
  5
290
330
1F
100
AcDbEntity
  8
0-0
  6
JWW_DASHED1
 62
   120
370
     5
100
AcDbLine
 10
786.1688915618253
 20
260.3332325438761
 30
0.0
 11
824.1688915618256
 21
298.3332325438799
 31
0.0
  0
LINE
  5
291
330
1F
100
AcDbEntity
  8
0-0
  6
JWW_DASHED1
 62
   120
370
     5
100
AcDbLine
 10
786.1688915618253
 20
270.2327274790447
 30
0.0
 11
824.168891561829
 21
308.2327274790451
 31
0.0
  0
LINE
  5
292
330
1F
100
AcDbEntity
  8
0-0
  6
JWW_DASHED1
 62
   120
370
     5
100
AcDbLine
 10
786.1688915618253
 20
280.1322224142559
 30
0.0
 11
824.1688915618188
 21
318.132222414253
 31
0.0
  0
LINE
  5
293
330
1F
100
AcDbEntity
  8
0-0
  6
JWW_DASHED1
 62
   120
370
     5
100
AcDbLine
 10
786.1688915618253
 20
290.0317173494766
 30
0.0
 11
824.168891561829
 21
328.0317173494769
 31
0.0
  0
LINE
  5
294
330
1F
100
AcDbEntity
  8
0-0
  6
JWW_DASHED1
 62
   120
370
     5
100
AcDbLine
 10
786.1688915618253
 20
299.9312122846375
 30
0.0
 11
824.1688915618324
 21
337.9312122846421
 31
0.0
  0
LINE
  5
295
330
1F
100
AcDbEntity
  8
0-0
  6
JWW_DASHED1
 62
   120
370
     5
100
AcDbLine
 10
786.1688915618253
 20
309.8307072198521
 30
0.0
 11
824.1688915618222
 21
347.83070721985
 31
0.0
  0
LINE
  5
296
330
1F
100
AcDbEntity
  8
0-0
  6
JWW_DASHED1
 62
   120
370
     5
100
AcDbLine
 10
786.1688915618253
 20
319.7302021550702
 30
0.0
 11
824.1688915618324
 21
357.730202155074
 31
0.0
  0
LINE
  5
297
330
1F
100
AcDbEntity
  8
0-0
  6
JWW_DASHED1
 62
   120
370
     5
100
AcDbLine
 10
786.1688915618253
 20
329.6296970902273
 30
0.0
 11
824.1688915618324
 21
367.6296970902392
 31
0.0
  0
LINE
  5
298
330
1F
100
AcDbEntity
  8
0-0
  6
JWW_DASHED1
 62
   120
370
     5
100
AcDbLine
 10
786.1688915618253
 20
339.5291920254449
 30
0.0
 11
824.1688915618256
 21
377.5291920254471
 31
0.0
  0
LINE
  5
299
330
1F
100
AcDbEntity
  8
0-0
  6
JWW_DASHED1
 62
   120
370
     5
100
AcDbLine
 10
786.1688915618253
 20
349.4286869606591
 30
0.0
 11
824.1688915618324
 21
387.428686960671
 31
0.0
  0
LINE
  5
29A
330
1F
100
AcDbEntity
  8
0-0
  6
JWW_DASHED1
 62
   120
370
     5
100
AcDbLine
 10
786.1688915618253
 20
359.3281818958286
 30
0.0
 11
824.1688915618358
 21
397.3281818958358
 31
0.0
  0
LINE
  5
29B
330
1F
100
AcDbEntity
  8
0-0
  6
JWW_DASHED1
 62
   120
370
     5
100
AcDbLine
 10
786.1688915618253
 20
369.2276768310386
 30
0.0
 11
824.168891561829
 21
407.2276768310441
 31
0.0
  0
LINE
  5
29C
330
1F
100
AcDbEntity
  8
0-0
  6
JWW_DASHED1
 62
   120
370
     5
100
AcDbLine
 10
786.1688915618253
 20
379.1271717662549
 30
0.0
 11
824.1688915618188
 21
417.1271717662519
 31
0.0
  0
LINE
  5
29D
330
1F
100
AcDbEntity
  8
0-0
  6
JWW_DASHED1
 62
   120
370
     5
100
AcDbLine
 10
786.1688915618253
 20
389.0266667014167
 30
0.0
 11
824.1688915618222
 21
427.0266667014171
 31
0.0
  0
LINE
  5
29E
330
1F
100
AcDbEntity
  8
0-0
  6
JWW_DASHED1
 62
   120
370
     5
100
AcDbLine
 10
786.1688915618253
 20
398.9261616366399
 30
0.0
 11
824.1688915618324
 21
436.9261616366407
 31
0.0
  0
LINE
  5
29F
330
1F
100
AcDbEntity
  8
0-0
  6
JWW_DASHED1
 62
   120
370
     5
100
AcDbLine
 10
786.1688915618253
 20
408.8256565718553
 30
0.0
 11
824.1688915618222
 21
446.825656571849
 31
0.0
  0
LINE
  5
2A0
330
1F
100
AcDbEntity
  8
0-0
  6
JWW_DASHED1
 62
   120
370
     5
100
AcDbLine
 10
786.1688915618253
 20
418.7251515070108
 30
0.0
 11
824.1688915618256
 21
456.7251515070137
 31
0.0
  0
LINE
  5
2A1
330
1F
100
AcDbEntity
  8
0-0
  6
JWW_DASHED1
 62
   120
370
     5
100
AcDbLine
 10
786.1688915618253
 20
428.6246464422297
 30
0.0
 11
824.1688915618324
 21
466.6246464422377
 31
0.0
  0
LINE
  5
2A2
330
1F
100
AcDbEntity
  8
0-0
  6
JWW_DASHED1
 62
   120
370
     5
100
AcDbLine
 10
786.1688915618253
 20
438.5241413774226
 30
0.0
 11
824.1688915618222
 21
476.5241413774162
 31
0.0
  0
LINE
  5
2A3
330
1F
100
AcDbEntity
  8
0-0
  6
JWW_DASHED1
 62
   120
370
     5
100
AcDbLine
 10
786.1688915618253
 20
448.423636312607
 30
0.0
 11
824.1688915618256
 21
486.4236363126108
 31
0.0
  0
LINE
  5
2A4
330
1F
100
AcDbEntity
  8
0-0
  6
JWW_DASHED1
 62
   120
370
     5
100
AcDbLine
 10
786.1688915618253
 20
458.3231312478225
 30
0.0
 11
824.1688915618358
 21
496.3231312478348
 31
0.0
  0
LINE
  5
2A5
330
1F
100
AcDbEntity
  8
0-0
  6
JWW_DASHED1
 62
   120
370
     5
100
AcDbLine
 10
786.1688915618253
 20
468.2226261829894
 30
0.0
 11
824.1688915618222
 21
506.2226261829838
 31
0.0
  0
LINE
  5
2A6
330
1F
100
AcDbEntity
  8
0-0
  6
JWW_DASHED1
 62
   120
370
     5
100
AcDbLine
 10
786.1688915618253
 20
478.1221211181993
 30
0.0
 11
824.168891561829
 21
516.1221211182078
 31
0.0
  0
LINE
  5
2A7
330
1F
100
AcDbEntity
  8
0-0
  6
JWW_DASHED1
 62
   120
370
     5
100
AcDbLine
 10
786.1688915618253
 20
488.0216160534178
 30
0.0
 11
824.1688915618222
 21
526.0216160534156
 31
0.0
  0
LINE
  5
2A8
330
1F
100
AcDbEntity
  8
0-0
  6
JWW_DASHED1
 62
   120
370
     5
100
AcDbLine
 10
786.1688915618253
 20
497.921110988586
 30
0.0
 11
824.1688915618256
 21
535.9211109885808
 31
0.0
  0
LINE
  5
2A9
330
1F
100
AcDbEntity
  8
0-0
  6
JWW_DASHED1
 62
   120
370
     5
100
AcDbLine
 10
786.1688915618253
 20
507.8206059237938
 30
0.0
 11
824.1688915618324
 21
545.8206059238045
 31
0.0
  0
LINE
  5
2AA
330
1F
100
AcDbEntity
  8
0-0
  6
JWW_DASHED1
 62
   120
370
     5
100
AcDbLine
 10
786.1688915618253
 20
517.7201008590187
 30
0.0
 11
824.1688915618256
 21
555.7201008590127
 31
0.0
  0
LINE
  5
2AB
330
1F
100
AcDbEntity
  8
0-0
  6
JWW_DASHED1
 62
   120
370
     5
100
AcDbLine
 10
786.1688915618253
 20
527.619595794169
 30
0.0
 11
824.1688915618256
 21
565.6195957941775
 31
0.0
  0
LINE
  5
2AC
330
1F
100
AcDbEntity
  8
0-0
  6
JWW_DASHED1
 62
   120
370
     5
100
AcDbLine
 10
786.1688915618253
 20
537.5190907293887
 30
0.0
 11
824.1688915618188
 21
575.5190907293857
 31
0.0
  0
LINE
  5
2AD
330
1F
100
AcDbEntity
  8
0-0
  6
JWW_DASHED1
 62
   120
370
     5
100
AcDbLine
 10
786.1688915618253
 20
547.418585664608
 30
0.0
 11
824.1688915618256
 21
585.4185856646093
 31
0.0
  0
LINE
  5
2AE
330
1F
100
AcDbEntity
  8
0-0
  6
JWW_DASHED1
 62
   120
370
     5
100
AcDbLine
 10
786.1688915618253
 20
557.3180805997698
 30
0.0
 11
824.168891561829
 21
595.3180805997745
 31
0.0
  0
LINE
  5
2AF
330
1F
100
AcDbEntity
  8
0-0
  6
JWW_DASHED1
 62
   120
370
     5
100
AcDbLine
 10
786.1688915618253
 20
567.2175755349883
 30
0.0
 11
824.1688915618222
 21
605.2175755349828
 31
0.0
  0
LINE
  5
2B0
330
1F
100
AcDbEntity
  8
0-0
  6
JWW_DASHED1
 62
   120
370
     5
100
AcDbLine
 10
786.1688915618253
 20
577.1170704702008
 30
0.0
 11
824.168891561829
 21
615.1170704702064
 31
0.0
  0
LINE
  5
2B1
330
1F
100
AcDbEntity
  8
0-0
  6
JWW_DASHED1
 62
   120
370
     5
100
AcDbLine
 10
786.1688915618253
 20
587.0165654053626
 30
0.0
 11
824.1688915618324
 21
625.0165654053716
 31
0.0
  0
LINE
  5
2B2
330
1F
100
AcDbEntity
  8
0-0
  6
JWW_DASHED1
 62
   120
370
     5
100
AcDbLine
 10
786.1688915618253
 20
596.9160603405824
 30
0.0
 11
824.1688915618256
 21
634.9160603405794
 31
0.0
  0
LINE
  5
2B3
330
1F
100
AcDbEntity
  8
0-0
  6
JWW_DASHED1
 62
   120
370
     5
100
AcDbLine
 10
786.1688915618253
 20
606.8155552758013
 30
0.0
 11
824.1688915618324
 21
644.8155552758034
 31
0.0
  0
LINE
  5
2B4
330
1F
100
AcDbEntity
  8
0-0
  6
JWW_DASHED1
 62
   120
370
     5
100
AcDbLine
 10
786.1688915618253
 20
616.7150502109529
 30
0.0
 11
824.1688915618324
 21
654.7150502109682
 31
0.0
  0
LINE
  5
2B5
330
1F
100
AcDbEntity
  8
0-0
  6
JWW_DASHED1
 62
   120
370
     5
100
AcDbLine
 10
786.1688915618253
 20
626.6145451461726
 30
0.0
 11
824.1688915618256
 21
664.6145451461764
 31
0.0
  0
LINE
  5
2B6
330
1F
100
AcDbEntity
  8
0-0
  6
JWW_DASHED1
 62
   120
370
     5
100
AcDbLine
 10
786.1688915618253
 20
636.5140400813915
 30
0.0
 11
824.1688915618324
 21
674.5140400814005
 31
0.0
  0
LINE
  5
2B7
330
1F
100
AcDbEntity
  8
0-0
  6
JWW_DASHED1
 62
   120
370
     5
100
AcDbLine
 10
786.1688915618253
 20
646.4135350165508
 30
0.0
 11
824.1688915618358
 21
684.4135350165631
 31
0.0
  0
LINE
  5
2B8
330
1F
100
AcDbEntity
  8
0-0
  6
JWW_DASHED1
 62
   120
370
     5
100
AcDbLine
 10
786.1688915618253
 20
656.3130299517723
 30
0.0
 11
824.168891561829
 21
694.3130299517735
 31
0.0
  0
LINE
  5
2B9
330
1F
100
AcDbEntity
  8
0-0
  6
JWW_DASHED1
 62
   120
370
     5
100
AcDbLine
 10
786.1688915618253
 20
666.2125248869843
 30
0.0
 11
824.1688915618188
 21
704.2125248869813
 31
0.0
  0
LINE
  5
2BA
330
1F
100
AcDbEntity
  8
0-0
  6
JWW_DASHED1
 62
   120
370
     5
100
AcDbLine
 10
786.1688915618253
 20
676.1120198221516
 30
0.0
 11
824.1688915618256
 21
714.1120198221465
 31
0.0
  0
LINE
  5
2BB
330
1F
100
AcDbEntity
  8
0-0
  6
JWW_DASHED1
 62
   120
370
     5
100
AcDbLine
 10
786.1688915618253
 20
686.0115147573663
 30
0.0
 11
824.1688915618324
 21
724.0115147573702
 31
0.0
  0
LINE
  5
2BC
330
1F
100
AcDbEntity
  8
0-0
  6
JWW_DASHED1
 62
   120
370
     5
100
AcDbLine
 10
786.1688915618253
 20
695.911009692578
 30
0.0
 11
824.1688915618222
 21
733.9110096925783
 31
0.0
  0
LINE
  5
2BD
330
1F
100
AcDbEntity
  8
0-0
  6
JWW_DASHED1
 62
   120
370
     5
100
AcDbLine
 10
786.1688915618253
 20
705.8105046277419
 30
0.0
 11
824.1688915618256
 21
743.8105046277427
 31
0.0
  0
LINE
  5
2BE
330
1F
100
AcDbEntity
  8
0-0
  6
JWW_DASHED1
 62
   120
370
     5
100
AcDbLine
 10
786.1688915618253
 20
715.7099995629561
 30
0.0
 11
824.1688915618324
 21
753.7099995629671
 31
0.0
  0
LINE
  5
2BF
330
1F
100
AcDbEntity
  8
0-0
  6
JWW_DASHED1
 62
   120
370
     5
100
AcDbLine
 10
786.1688915618253
 20
725.6094944981733
 30
0.0
 11
824.1688915618256
 21
763.6094944981754
 31
0.0
  0
LINE
  5
2C0
330
1F
100
AcDbEntity
  8
0-0
  6
JWW_DASHED1
 62
   120
370
     5
100
AcDbLine
 10
786.1688915618253
 20
735.5089894333355
 30
0.0
 11
824.168891561829
 21
773.5089894333402
 31
0.0
  0
LINE
  5
2C1
330
1F
100
AcDbEntity
  8
0-0
  6
JWW_DASHED1
 62
   120
370
     5
100
AcDbLine
 10
786.1688915618253
 20
745.4084843685565
 30
0.0
 11
824.1688915618358
 21
783.4084843685638
 31
0.0
  0
LINE
  5
2C2
330
1F
100
AcDbEntity
  8
0-0
  6
JWW_DASHED1
 62
   120
370
     5
100
AcDbLine
 10
786.1688915618253
 20
755.3079793037635
 30
0.0
 11
824.1688915618256
 21
793.3079793037721
 31
0.0
  0
LINE
  5
2C3
330
1F
100
AcDbEntity
  8
0-0
  6
JWW_DASHED1
 62
   120
370
     5
100
AcDbLine
 10
786.1688915618253
 20
765.2074742389356
 30
0.0
 11
824.1688915618324
 21
803.2074742389373
 31
0.0
  0
LINE
  5
2C4
330
1F
100
AcDbEntity
  8
0-0
  6
JWW_DASHED1
 62
   120
370
     5
100
AcDbLine
 10
786.1688915618253
 20
775.1069691741515
 30
0.0
 11
824.1688915618222
 21
813.1069691741446
 31
0.0
  0
LINE
  5
2C5
330
1F
100
AcDbEntity
  8
0-0
  6
JWW_DASHED1
 62
   120
370
     5
100
AcDbLine
 10
786.1688915618253
 20
785.0064641093683
 30
0.0
 11
824.1688915618324
 21
823.0064641093691
 31
0.0
  0
LINE
  5
2C6
330
1F
100
AcDbEntity
  8
0-0
  6
JWW_DASHED1
 62
   120
370
     5
100
AcDbLine
 10
786.1688915618253
 20
794.9059590445257
 30
0.0
 11
824.1688915618324
 21
832.9059590445338
 31
0.0
  0
LINE
  5
2C7
330
1F
100
AcDbEntity
  8
0-0
  6
JWW_DASHED1
 62
   120
370
     5
100
AcDbLine
 10
786.1688915618253
 20
804.8054539797452
 30
0.0
 11
824.1688915618256
 21
842.8054539797421
 31
0.0
  0
LINE
  5
2C8
330
1F
100
AcDbEntity
  8
0-0
  6
JWW_DASHED1
 62
   120
370
     5
100
AcDbLine
 10
786.1688915618253
 20
814.7049489149576
 30
0.0
 11
824.1688915618324
 21
852.7049489149657
 31
0.0
  0
LINE
  5
2C9
330
1F
100
AcDbEntity
  8
0-0
  6
JWW_DASHED1
 62
   120
370
     5
100
AcDbLine
 10
786.1688915618253
 20
824.6044438501177
 30
0.0
 11
824.1688915618188
 21
862.6044438501151
 31
0.0
  0
LINE
  5
2CA
330
1F
100
AcDbEntity
  8
0-0
  6
JWW_DASHED1
 62
   120
370
     5
100
AcDbLine
 10
786.1688915618253
 20
834.5039387853341
 30
0.0
 11
824.1688915618256
 21
872.5039387853392
 31
0.0
  0
LINE
  5
2CB
330
1F
100
AcDbEntity
  8
0-0
  6
JWW_DASHED1
 62
   120
370
     5
100
AcDbLine
 10
786.1688915618253
 20
844.4034337205512
 30
0.0
 11
824.1688915618358
 21
882.4034337205627
 31
0.0
  0
LINE
  5
2CC
330
1F
100
AcDbEntity
  8
0-0
  6
JWW_DASHED1
 62
   120
370
     5
100
AcDbLine
 10
786.1688915618253
 20
854.3029286557181
 30
0.0
 11
824.1688915618222
 21
892.3029286557118
 31
0.0
  0
LINE
  5
2CD
330
1F
100
AcDbEntity
  8
0-0
  6
JWW_DASHED1
 62
   120
370
     5
100
AcDbLine
 10
786.1688915618253
 20
864.2024235909286
 30
0.0
 11
824.168891561829
 21
902.2024235909357
 31
0.0
  0
LINE
  5
2CE
330
1F
100
AcDbEntity
  8
0-0
  6
JWW_DASHED1
 62
   120
370
     5
100
AcDbLine
 10
786.1688915618253
 20
874.1019185261508
 30
0.0
 11
824.1688915618392
 21
912.1019185261594
 31
0.0
  0
LINE
  5
2CF
330
1F
100
AcDbEntity
  8
0-0
  6
JWW_DASHED1
 62
   120
370
     5
100
AcDbLine
 10
786.1688915618253
 20
884.0014134613148
 30
0.0
 11
824.1688915618256
 21
922.0014134613087
 31
0.0
  0
LINE
  5
2D0
330
1F
100
AcDbEntity
  8
0-0
  6
JWW_DASHED1
 62
   120
370
     5
100
AcDbLine
 10
786.1688915618253
 20
893.9009083965221
 30
0.0
 11
824.1688915618324
 21
931.9009083965328
 31
0.0
  0
LINE
  5
2D1
330
1F
100
AcDbEntity
  8
0-0
  6
JWW_DASHED1
 62
   120
370
     5
100
AcDbLine
 10
786.1688915618253
 20
903.8004033317462
 30
0.0
 11
824.1688915618256
 21
941.8004033317407
 31
0.0
  0
LINE
  5
2D2
330
1F
100
AcDbEntity
  8
0-0
  6
JWW_DASHED1
 62
   120
370
     5
100
AcDbLine
 10
786.1688915618253
 20
923.5993932021265
 30
0.0
 11
824.1688915618256
 21
961.5993932021154
 31
0.0
  0
LINE
  5
2D3
330
1F
100
AcDbEntity
  8
0-0
  6
JWW_DASHED1
 62
   120
370
     5
100
AcDbLine
 10
786.1688915618253
 20
913.699898266908
 30
0.0
 11
824.1688915618256
 21
951.6998982669015
 31
0.0
  0
LINE
  5
2D4
330
1F
100
AcDbEntity
  8
0-0
  6
JWW_DASHED1
 62
   120
370
     5
100
AcDbLine
 10
786.1688915618253
 20
-917.706664744634
 30
0.0
 11
824.1688915618222
 21
-879.706664744634
 31
0.0
  0
LINE
  5
2D5
330
1F
100
AcDbEntity
  8
0-0
  6
JWW_DASHED1
 62
   120
370
     5
100
AcDbLine
 10
786.1688915618253
 20
-927.6061596797988
 30
0.0
 11
824.1688915618222
 21
-889.6061596797987
 31
0.0
  0
LINE
  5
2D6
330
1F
100
AcDbEntity
  8
0-0
  6
JWW_DASHED1
 62
   120
370
     5
100
AcDbLine
 10
786.1688915618253
 20
-937.5056546149634
 30
0.0
 11
824.1688915618222
 21
-899.5056546149636
 31
0.0
  0
LINE
  5
2D7
330
1F
100
AcDbEntity
  8
0-0
  6
JWW_DASHED1
 62
   120
370
     5
100
AcDbLine
 10
788.9695721410704
 20
-944.6044689708824
 30
0.0
 11
824.1688915618222
 21
-909.4051495501284
 31
0.0
  0
LINE
  5
2D8
330
1F
100
AcDbEntity
  8
0-0
  6
JWW_DASHED1
 62
   120
370
     5
100
AcDbLine
 10
818.6680569465626
 20
-944.6044689708824
 30
0.0
 11
824.1688915618222
 21
-939.1036343556227
 31
0.0
  0
LINE
  5
2D9
330
1F
100
AcDbEntity
  8
0-0
  6
JWW_DASHED1
 62
   120
370
     5
100
AcDbLine
 10
798.8690670762348
 20
-944.6044689708824
 30
0.0
 11
824.1688915618222
 21
-919.3046444852931
 31
0.0
  0
LINE
  5
2DA
330
1F
100
AcDbEntity
  8
0-0
  6
JWW_DASHED1
 62
   120
370
     5
100
AcDbLine
 10
808.7685620113991
 20
-944.6044689708824
 30
0.0
 11
824.1688915618222
 21
-929.2041394204578
 31
0.0
  0
LINE
  5
2DB
330
1F
100
AcDbEntity
  8
0-0
  6
JWW_DASHED1
 62
   120
370
     5
100
AcDbLine
 10
786.1688915618253
 20
933.4988881373449
 30
0.0
 11
824.1688915618256
 21
971.4988881373338
 31
0.0
  0
LINE
  5
2DC
330
1F
100
AcDbEntity
  8
0-0
  6
JWW_DASHED1
 62
   120
370
     5
100
AcDbLine
 10
786.1688915618253
 20
943.3983830725634
 30
0.0
 11
824.1688915618256
 21
981.3983830725523
 31
0.0
  0
LINE
  5
2DD
330
1F
100
AcDbEntity
  8
0-0
  6
JWW_DASHED1
 62
   120
370
     5
100
AcDbLine
 10
786.1688915618253
 20
953.297878007782
 30
0.0
 11
824.1688915618256
 21
991.2978780077708
 31
0.0
  0
LINE
  5
2DE
330
1F
100
AcDbEntity
  8
0-0
  6
JWW_DASHED1
 62
   120
370
     5
100
AcDbLine
 10
786.1688915618253
 20
963.197372943
 30
0.0
 11
824.1688915618256
 21
1001.197372942989
 31
0.0
  0
LINE
  5
2DF
330
1F
100
AcDbEntity
  8
0-0
  6
JWW_DASHED1
 62
   120
370
     5
100
AcDbLine
 10
786.1688915618253
 20
973.0968678782189
 30
0.0
 11
824.1688915618256
 21
1011.096867878208
 31
0.0
  0
LINE
  5
2E0
330
1F
100
AcDbEntity
  8
0-0
  6
JWW_DASHED1
 62
   120
370
     5
100
AcDbLine
 10
786.1688915618253
 20
982.9963628134374
 30
0.0
 11
824.1688915618256
 21
1020.996362813426
 31
0.0
  0
LINE
  5
2E1
330
1F
100
AcDbEntity
  8
0-0
  6
JWW_DASHED1
 62
   120
370
     5
100
AcDbLine
 10
786.1688915618253
 20
1012.694847619093
 30
0.0
 11
795.8695749718537
 21
1022.395531029118
 31
0.0
  0
LINE
  5
2E2
330
1F
100
AcDbEntity
  8
0-0
  6
JWW_DASHED1
 62
   120
370
     5
100
AcDbLine
 10
786.1688915618253
 20
992.8958577486559
 30
0.0
 11
815.6685648422966
 21
1022.395531029118
 31
0.0
  0
LINE
  5
2E3
330
1F
100
AcDbEntity
  8
0-0
  6
JWW_DASHED1
 62
   120
370
     5
100
AcDbLine
 10
786.1688915618253
 20
1002.795352683874
 30
0.0
 11
805.7690699070752
 21
1022.395531029118
 31
0.0
  0
LWPOLYLINE
  5
2E4
330
1F
100
AcDbEntity
  8
寸法
  6
Continuous
 62
     7
370
     9
100
AcDbPolyline
 90
        4
 70
     1
 43
3.0
 10
-1635.331108438175
 20
1074.395531029118
 42
0.4142135623731
 10
-1636.831108438175
 20
1075.895531029118
 42
0.4142135623731
 10
-1638.331108438175
 20
1074.395531029118
 42
0.4142135623731
 10
-1636.831108438175
 20
1072.895531029119
 42
0.4142135623731
  0
LINE
  5
2E5
330
1F
100
AcDbEntity
  8
寸法
  6
Continuous
 62
   120
370
     5
100
AcDbLine
 10
-1636.831108438175
 20
1074.395531029118
 30
0.0
 11
-1236.831108438176
 21
1074.395531029118
 31
0.0
  0
LINE
  5
2E6
330
1F
100
AcDbEntity
  8
寸法
  6
Continuous
 62
   120
370
     5
100
AcDbLine
 10
-1636.831108438175
 20
1074.395531029118
 30
0.0
 11
-1636.831108438175
 21
-972.6044689708822
 31
0.0
  0
LINE
  5
2E7
330
1F
100
AcDbEntity
  8
寸法
  6
Continuous
 62
   120
370
     5
100
AcDbLine
 10
-1636.831108438175
 20
-972.6044689708822
 30
0.0
 11
-1236.831108438176
 21
-972.6044689708822
 31
0.0
  0
LINE
  5
2E8
330
1F
100
AcDbEntity
  8
寸法
  6
Continuous
 62
   120
370
     5
100
AcDbLine
 10
-1436.831108438175
 20
-952.6044689708816
 30
0.0
 11
-1236.831108438176
 21
-952.6044689708816
 31
0.0
  0
LWPOLYLINE
  5
2E9
330
1F
100
AcDbEntity
  8
寸法
  6
Continuous
 62
     7
370
     9
100
AcDbPolyline
 90
        4
 70
     1
 43
3.0
 10
-1635.331108438175
 20
-972.6044689708822
 42
0.4142135623731
 10
-1636.831108438175
 20
-971.1044689708822
 42
0.4142135623731
 10
-1638.331108438175
 20
-972.6044689708822
 42
0.4142135623731
 10
-1636.831108438175
 20
-974.1044689708821
 42
0.4142135623731
  0
LWPOLYLINE
  5
2EA
330
1F
100
AcDbEntity
  8
寸法
  6
Continuous
 62
     7
370
     9
100
AcDbPolyline
 90
        4
 70
     1
 43
3.0
 10
-1435.331108438175
 20
-952.6044689708816
 42
0.4142135623731
 10
-1436.831108438175
 20
-951.1044689708816
 42
0.4142135623731
 10
-1438.331108438174
 20
-952.6044689708816
 42
0.4142135623731
 10
-1436.831108438175
 20
-954.1044689708816
 42
0.4142135623731
  0
LWPOLYLINE
  5
2EB
330
1F
100
AcDbEntity
  8
寸法
  6
Continuous
 62
     7
370
     9
100
AcDbPolyline
 90
        4
 70
     1
 43
3.0
 10
-1435.331108438175
 20
1030.395531029117
 42
0.4142135623731
 10
-1436.831108438175
 20
1031.895531029117
 42
0.4142135623731
 10
-1438.331108438174
 20
1030.395531029117
 42
0.4142135623731
 10
-1436.831108438175
 20
1028.895531029118
 42
0.4142135623731
  0
LINE
  5
2EC
330
1F
100
AcDbEntity
  8
寸法
  6
Continuous
 62
   120
370
     5
100
AcDbLine
 10
-1436.831108438175
 20
1030.395531029117
 30
0.0
 11
-1436.831108438175
 21
-952.6044689708816
 31
0.0
  0
LINE
  5
2ED
330
1F
100
AcDbEntity
  8
寸法
  6
Continuous
 62
   120
370
     5
100
AcDbLine
 10
-1436.831108438175
 20
1030.395531029117
 30
0.0
 11
-1236.831108438176
 21
1030.395531029117
 31
0.0
  0
LINE
  5
2EE
330
1F
100
AcDbEntity
  8
寸法
  6
Continuous
 62
   120
370
     5
100
AcDbLine
 10
-1156.831108438173
 20
-1422.604468970882
 30
0.0
 11
-1156.831108438173
 21
-1022.604468970883
 31
0.0
  0
LINE
  5
2EF
330
1F
100
AcDbEntity
  8
寸法
  6
Continuous
 62
   120
370
     5
100
AcDbLine
 10
-1186.831108438173
 20
-1622.604468970882
 30
0.0
 11
-1186.831108438173
 21
-1022.604468970883
 31
0.0
  0
LINE
  5
2F0
330
1F
100
AcDbEntity
  8
寸法
  6
Continuous
 62
   120
370
     5
100
AcDbLine
 10
-1156.831108438173
 20
-1422.604468970882
 30
0.0
 11
1207.168891561825
 21
-1422.604468970882
 31
0.0
  0
LINE
  5
2F1
330
1F
100
AcDbEntity
  8
寸法
  6
Continuous
 62
   120
370
     5
100
AcDbLine
 10
1207.168891561825
 20
-1422.604468970882
 30
0.0
 11
1207.168891561825
 21
-1022.604468970883
 31
0.0
  0
LINE
  5
2F2
330
1F
100
AcDbEntity
  8
寸法
  6
Continuous
 62
   120
370
     5
100
AcDbLine
 10
-1186.831108438173
 20
-1622.604468970882
 30
0.0
 11
1237.168891561825
 21
-1622.604468970882
 31
0.0
  0
LINE
  5
2F3
330
1F
100
AcDbEntity
  8
寸法
  6
Continuous
 62
   120
370
     5
100
AcDbLine
 10
1237.168891561825
 20
-1622.604468970882
 30
0.0
 11
1237.168891561825
 21
-1022.604468970883
 31
0.0
  0
LINE
  5
2F4
330
1F
100
AcDbEntity
  8
寸法
  6
Continuous
 62
   120
370
     5
100
AcDbLine
 10
400.1688915618258
 20
-1222.604468970881
 30
0.0
 11
400.1688915618258
 21
-1022.604468970883
 31
0.0
  0
LINE
  5
2F5
330
1F
100
AcDbEntity
  8
寸法
  6
Continuous
 62
   120
370
     5
100
AcDbLine
 10
1210.168891561826
 20
-1222.604468970881
 30
0.0
 11
1210.168891561826
 21
-1022.604468970883
 31
0.0
  0
LINE
  5
2F6
330
1F
100
AcDbEntity
  8
寸法
  6
Continuous
 62
   120
370
     5
100
AcDbLine
 10
1210.168891561826
 20
-1222.604468970881
 30
0.0
 11
400.1688915618258
 21
-1222.604468970881
 31
0.0
  0
LWPOLYLINE
  5
2F7
330
1F
100
AcDbEntity
  8
寸法
  6
Continuous
 62
     7
370
     9
100
AcDbPolyline
 90
        4
 70
     1
 43
3.0
 10
-1155.331108438173
 20
-1422.604468970882
 42
0.4142135623731
 10
-1156.831108438173
 20
-1421.104468970882
 42
0.4142135623731
 10
-1158.331108438173
 20
-1422.604468970882
 42
0.4142135623731
 10
-1156.831108438173
 20
-1424.104468970882
 42
0.4142135623731
  0
LWPOLYLINE
  5
2F8
330
1F
100
AcDbEntity
  8
寸法
  6
Continuous
 62
     7
370
     9
100
AcDbPolyline
 90
        4
 70
     1
 43
3.0
 10
-1185.331108438173
 20
-1622.604468970882
 42
0.4142135623731
 10
-1186.831108438173
 20
-1621.104468970883
 42
0.4142135623731
 10
-1188.331108438173
 20
-1622.604468970882
 42
0.4142135623731
 10
-1186.831108438173
 20
-1624.104468970882
 42
0.4142135623731
  0
LWPOLYLINE
  5
2F9
330
1F
100
AcDbEntity
  8
寸法
  6
Continuous
 62
     7
370
     9
100
AcDbPolyline
 90
        4
 70
     1
 43
3.0
 10
1208.668891561825
 20
-1422.604468970882
 42
0.4142135623731
 10
1207.168891561825
 20
-1421.104468970882
 42
0.4142135623731
 10
1205.668891561825
 20
-1422.604468970882
 42
0.4142135623731
 10
1207.168891561825
 20
-1424.104468970882
 42
0.4142135623731
  0
LWPOLYLINE
  5
2FA
330
1F
100
AcDbEntity
  8
寸法
  6
Continuous
 62
     7
370
     9
100
AcDbPolyline
 90
        4
 70
     1
 43
3.0
 10
1238.668891561825
 20
-1622.604468970882
 42
0.4142135623731
 10
1237.168891561825
 20
-1621.104468970882
 42
0.4142135623731
 10
1235.668891561825
 20
-1622.604468970882
 42
0.4142135623731
 10
1237.168891561825
 20
-1624.104468970882
 42
0.4142135623731
  0
LWPOLYLINE
  5
2FB
330
1F
100
AcDbEntity
  8
寸法
  6
Continuous
 62
     7
370
     9
100
AcDbPolyline
 90
        4
 70
     1
 43
3.0
 10
401.6688915618258
 20
-1222.604468970881
 42
0.4142135623731
 10
400.1688915618258
 20
-1221.104468970882
 42
0.4142135623731
 10
398.6688915618258
 20
-1222.604468970881
 42
0.4142135623731
 10
400.1688915618258
 20
-1224.104468970881
 42
0.4142135623731
  0
LWPOLYLINE
  5
2FC
330
1F
100
AcDbEntity
  8
寸法
  6
Continuous
 62
     7
370
     9
100
AcDbPolyline
 90
        4
 70
     1
 43
3.0
 10
1211.668891561826
 20
-1222.604468970881
 42
0.4142135623731
 10
1210.168891561826
 20
-1221.104468970882
 42
0.4142135623731
 10
1208.668891561826
 20
-1222.604468970881
 42
0.4142135623731
 10
1210.168891561826
 20
-1224.104468970881
 42
0.4142135623731
  0
MTEXT
  5
2FD
330
1F
100
AcDbEntity
  8
寸法
  6
Continuous
 62
     7
370
    70
100
AcDbMText
 10
-1651.831108438175
 20
-164.2794689708819
 30
0.0
 40
57.14999999999999
 41
412.5
 46
0.0
 71
     7
 72
     1
  1
{\fＭＳ ゴシック|b0|i0|c128|p49;枠外＝2,047}
 11
6.123031769111886E-17
 21
1.0
 31
0.0
 73
     1
 44
1.0
  0
MTEXT
  5
2FE
330
1F
100
AcDbEntity
  8
寸法
  6
Continuous
 62
     7
370
    70
100
AcDbMText
 10
-1451.831108438175
 20
-170.2794689708816
 30
0.0
 40
57.14999999999999
 41
412.5
 46
0.0
 71
     7
 72
     1
  1
{\fＭＳ ゴシック|b0|i0|c128|p49;ＤＨ＝1,983}
 11
6.123031769111886E-17
 21
1.0
 31
0.0
 73
     1
 44
1.0
  0
MTEXT
  5
2FF
330
1F
100
AcDbEntity
  8
寸法
  6
Continuous
 62
     7
370
   211
100
AcDbMText
 10
636.4188915618258
 20
-1216.529468970881
 30
0.0
 40
57.15
 41
337.5
 46
0.0
 71
     7
 72
     1
  1
{\fＭＳ ゴシック|b0|i0|c128|p49;ＤＷ＝810}
 73
     1
 44
1.0
  0
MTEXT
  5
300
330
1F
100
AcDbEntity
  8
寸法
  6
Continuous
 62
     7
370
   211
100
AcDbMText
 10
-181.0811084381741
 20
-1416.529468970882
 30
0.0
 40
57.14999999999999
 41
412.5
 46
0.0
 71
     7
 72
     1
  1
{\fＭＳ ゴシック|b0|i0|c128|p49;枠内＝2,364}
 73
     1
 44
1.0
  0
MTEXT
  5
301
330
1F
100
AcDbEntity
  8
寸法
  6
Continuous
 62
     7
370
   211
100
AcDbMText
 10
-181.0811084381741
 20
-1616.529468970882
 30
0.0
 40
57.14999999999999
 41
412.5
 46
0.0
 71
     7
 72
     1
  1
{\fＭＳ ゴシック|b0|i0|c128|p49;枠外＝2,424}
 73
     1
 44
1.0
  0
ENDSEC
  0
SECTION
  2
OBJECTS
  0
DICTIONARY
  5
C
330
0
100
AcDbDictionary
281
     1
  3
ACAD_GROUP
350
D
  3
ACAD_LAYOUT
350
1A
  3
ACAD_MATERIAL
350
3B
  3
ACAD_MLEADERSTYLE
350
303
  3
ACAD_MLINESTYLE
350
17
  3
ACAD_PLOTSETTINGS
350
19
  3
ACAD_PLOTSTYLENAME
350
E
  3
ACAD_TABLESTYLE
350
302
  3
ACAD_VISUALSTYLE
350
2A
  0
DICTIONARY
  5
D
102
{ACAD_REACTORS
330
C
102
}
330
C
100
AcDbDictionary
281
     1
  0
DICTIONARY
  5
1A
102
{ACAD_REACTORS
330
C
102
}
330
C
100
AcDbDictionary
281
     1
  3
Layout1
350
1E
  3
Layout2
350
26
  3
Model
350
22
  0
DICTIONARY
  5
3B
102
{ACAD_REACTORS
330
C
102
}
330
C
100
AcDbDictionary
281
     1
  3
ByBlock
350
3D
  3
ByLayer
350
3C
  3
Global
350
3E
  0
DICTIONARY
  5
303
102
{ACAD_REACTORS
330
C
102
}
330
C
100
AcDbDictionary
281
     1
  0
DICTIONARY
  5
17
102
{ACAD_REACTORS
330
C
102
}
330
C
100
AcDbDictionary
281
     1
  3
Standard
350
18
  0
DICTIONARY
  5
19
102
{ACAD_REACTORS
330
C
102
}
330
C
100
AcDbDictionary
281
     1
  0
ACDBDICTIONARYWDFLT
  5
E
102
{ACAD_REACTORS
330
C
102
}
330
C
100
AcDbDictionary
281
     1
  3
Normal
350
F
100
AcDbDictionaryWithDefault
340
F
  0
DICTIONARY
  5
302
102
{ACAD_REACTORS
330
C
102
}
330
C
100
AcDbDictionary
281
     1
  0
DICTIONARY
  5
2A
102
{ACAD_REACTORS
330
C
102
}
330
C
100
AcDbDictionary
281
     1
  3
2dWireframe
350
2F
  3
3D Hidden
350
31
  3
3dWireframe
350
30
  3
Basic
350
32
  3
Brighten
350
36
  3
ColorChange
350
3A
  3
Conceptual
350
34
  3
Dim
350
35
  3
Facepattern
350
39
  3
Flat
350
2B
  3
FlatWithEdges
350
2C
  3
Gouraud
350
2D
  3
GouraudWithEdges
350
2E
  3
Linepattern
350
38
  3
Realistic
350
33
  3
Thicken
350
37
  0
LAYOUT
  5
1E
102
{ACAD_REACTORS
330
1A
102
}
330
1A
100
AcDbPlotSettings
  1

  2
none_device
  4

  6

 40
0.0
 41
0.0
 42
0.0
 43
0.0
 44
0.0
 45
0.0
 46
0.0
 47
0.0
 48
0.0
 49
0.0
140
0.0
141
0.0
142
1.0
143
1.0
 70
   688
 72
     0
 73
     0
 74
     5
  7

 75
    16
 76
     0
 77
     5
 78
   300
147
1.0
148
0.0
149
0.0
100
AcDbLayout
  1
Layout1
 70
     1
 71
     1
 10
0.0
 20
0.0
 11
420.0
 21
297.0
 12
0.0
 22
0.0
 32
0.0
 14
1.000000000000000E+20
 24
1.000000000000000E+20
 34
1.000000000000000E+20
 15
-1.000000000000000E+20
 25
-1.000000000000000E+20
 35
-1.000000000000000E+20
146
0.0
 13
0.0
 23
0.0
 33
0.0
 16
1.0
 26
0.0
 36
0.0
 17
0.0
 27
1.0
 37
0.0
 76
     0
330
1B
  0
LAYOUT
  5
26
102
{ACAD_REACTORS
330
1A
102
}
330
1A
100
AcDbPlotSettings
  1

  2
none_device
  4

  6

 40
0.0
 41
0.0
 42
0.0
 43
0.0
 44
0.0
 45
0.0
 46
0.0
 47
0.0
 48
0.0
 49
0.0
140
0.0
141
0.0
142
1.0
143
1.0
 70
   688
 72
     0
 73
     0
 74
     5
  7

 75
    16
 76
     0
 77
     5
 78
   300
147
1.0
148
0.0
149
0.0
100
AcDbLayout
  1
Layout2
 70
     1
 71
     2
 10
0.0
 20
0.0
 11
0.0
 21
0.0
 12
0.0
 22
0.0
 32
0.0
 14
0.0
 24
0.0
 34
0.0
 15
0.0
 25
0.0
 35
0.0
146
0.0
 13
0.0
 23
0.0
 33
0.0
 16
1.0
 26
0.0
 36
0.0
 17
0.0
 27
1.0
 37
0.0
 76
     0
330
23
  0
LAYOUT
  5
22
102
{ACAD_REACTORS
330
1A
102
}
330
1A
100
AcDbPlotSettings
  1

  2
none_device
  4

  6

 40
0.0
 41
0.0
 42
0.0
 43
0.0
 44
0.0
 45
0.0
 46
0.0
 47
0.0
 48
0.0
 49
0.0
140
0.0
141
0.0
142
1.0
143
1.0
 70
  1712
 72
     0
 73
     0
 74
     0
  7

 75
     0
 76
     0
 77
     5
 78
   300
147
1.0
148
0.0
149
0.0
100
AcDbLayout
  1
Model
 70
     1
 71
     0
 10
-4455.0
 20
-3150.0
 11
4455.0
 21
3150.0
 12
0.0
 22
0.0
 32
0.0
 14
-4455.0
 24
-3150.0
 34
0.0
 15
4455.0
 25
3150.0
 35
0.0
146
0.0
 13
0.0
 23
0.0
 33
0.0
 16
1.0
 26
0.0
 36
0.0
 17
0.0
 27
1.0
 37
0.0
 76
     0
330
1F
331
29
  0
MATERIAL
  5
3D
102
{ACAD_REACTORS
330
3B
102
}
330
3B
100
AcDbMaterial
  1
ByBlock
 72
     1
 94
      127
  0
MATERIAL
  5
3C
102
{ACAD_REACTORS
330
3B
102
}
330
3B
100
AcDbMaterial
  1
ByLayer
 72
     1
 94
      127
  0
MATERIAL
  5
3E
102
{ACAD_REACTORS
330
3B
102
}
330
3B
100
AcDbMaterial
  1
Global
 72
     1
 94
      127
  0
MLINESTYLE
  5
18
102
{ACAD_REACTORS
330
17
102
}
330
17
100
AcDbMlineStyle
  2
Standard
 70
     0
  3

 62
   256
 51
90.0
 52
90.0
 71
     2
 49
0.5
 62
   256
  6
BYLAYER
 49
-0.5
 62
   256
  6
BYLAYER
  0
ACDBPLACEHOLDER
  5
F
102
{ACAD_REACTORS
330
E
102
}
330
E
  0
VISUALSTYLE
  5
2F
102
{ACAD_REACTORS
330
2A
102
}
330
2A
100
AcDbVisualStyle
  2
2dWireframe
 70
     4
177
     2
291
     0
 71
     0
176
     1
 72
     2
176
     1
 73
     0
176
     1
 90
        0
176
     1
 40
-0.6
176
     1
 41
-30.0
176
     1
 62
     5
 63
     7
421
 16777215
176
     1
 74
     1
176
     1
 91
        4
176
     1
 64
     7
176
     1
 65
   257
176
     1
 75
     1
176
     1
175
     1
176
     1
 42
1.0
176
     1
 92
        0
176
     1
 66
   257
176
     1
 43
1.0
176
     1
 76
     1
176
     1
 77
     6
176
     1
 78
     2
176
     1
 67
     7
176
     1
 79
     5
176
     1
170
     0
176
     1
171
     0
176
     1
290
     0
176
     1
 93
        1
176
     1
 44
0.0
176
     1
173
     0
176
     1
  0
VISUALSTYLE
  5
31
102
{ACAD_REACTORS
330
2A
102
}
330
2A
100
AcDbVisualStyle
  2
3D Hidden
 70
     6
177
     2
291
     0
 71
     1
176
     1
 72
     2
176
     1
 73
     2
176
     1
 90
        0
176
     1
 40
-0.6
176
     1
 41
-30.0
176
     1
 62
     5
 63
     7
421
 16777215
176
     1
 74
     2
176
     1
 91
        2
176
     1
 64
     7
176
     1
 65
   257
176
     1
 75
     2
176
     1
175
     1
176
     1
 42
40.0
176
     1
 92
        0
176
     1
 66
   257
176
     1
 43
1.0
176
     1
 76
     1
176
     1
 77
     6
176
     1
 78
     2
176
     1
 67
     7
176
     1
 79
     3
176
     1
170
     0
176
     1
171
     0
176
     1
290
     0
176
     1
 93
        1
176
     1
 44
0.0
176
     1
173
     0
176
     1
  0
VISUALSTYLE
  5
30
102
{ACAD_REACTORS
330
2A
102
}
330
2A
100
AcDbVisualStyle
  2
3dWireframe
 70
     5
177
     2
291
     0
 71
     0
176
     1
 72
     2
176
     1
 73
     0
176
     1
 90
        0
176
     1
 40
-0.6
176
     1
 41
-30.0
176
     1
 62
     5
 63
     7
421
 16777215
176
     1
 74
     1
176
     1
 91
        4
176
     1
 64
     7
176
     1
 65
   257
176
     1
 75
     1
176
     1
175
     1
176
     1
 42
1.0
176
     1
 92
        0
176
     1
 66
   257
176
     1
 43
1.0
176
     1
 76
     1
176
     1
 77
     6
176
     1
 78
     2
176
     1
 67
     7
176
     1
 79
     5
176
     1
170
     0
176
     1
171
     0
176
     1
290
     0
176
     1
 93
        1
176
     1
 44
0.0
176
     1
173
     0
176
     1
  0
VISUALSTYLE
  5
32
102
{ACAD_REACTORS
330
2A
102
}
330
2A
100
AcDbVisualStyle
  2
Basic
 70
     7
177
     2
291
     1
 71
     1
176
     1
 72
     0
176
     1
 73
     1
176
     1
 90
        0
176
     1
 40
-0.6
176
     1
 41
-30.0
176
     1
 62
     5
 63
     7
421
 16777215
176
     1
 74
     0
176
     1
 91
        4
176
     1
 64
     7
176
     1
 65
   257
176
     1
 75
     1
176
     1
175
     1
176
     1
 42
1.0
176
     1
 92
        8
176
     1
 66
     7
176
     1
 43
1.0
176
     1
 76
     1
176
     1
 77
     6
176
     1
 78
     2
176
     1
 67
     7
176
     1
 79
     5
176
     1
170
     0
176
     1
171
     0
176
     1
290
     0
176
     1
 93
        1
176
     1
 44
0.0
176
     1
173
     0
176
     1
  0
VISUALSTYLE
  5
36
102
{ACAD_REACTORS
330
2A
102
}
330
2A
100
AcDbVisualStyle
  2
Brighten
 70
    12
177
     2
291
     1
 71
     2
176
     1
 72
     2
176
     1
 73
     0
176
     1
 90
        0
176
     1
 40
-0.6
176
     1
 41
-30.0
176
     1
 62
     5
 63
     7
421
 16777215
176
     1
 74
     1
176
     1
 91
        4
176
     1
 64
     7
176
     1
 65
   257
176
     1
 75
     1
176
     1
175
     1
176
     1
 42
1.0
176
     1
 92
        8
176
     1
 66
     7
176
     1
 43
1.0
176
     1
 76
     1
176
     1
 77
     6
176
     1
 78
     2
176
     1
 67
     7
176
     1
 79
     5
176
     1
170
     0
176
     1
171
     0
176
     1
290
     0
176
     1
 93
        1
176
     1
 44
50.0
176
     1
173
     0
176
     1
  0
VISUALSTYLE
  5
3A
102
{ACAD_REACTORS
330
2A
102
}
330
2A
100
AcDbVisualStyle
  2
ColorChange
 70
    16
177
     2
291
     1
 71
     2
176
     1
 72
     2
176
     1
 73
     3
176
     1
 90
        0
176
     1
 40
-0.6
176
     1
 41
-30.0
176
     1
 62
     5
 63
     8
421
  8421504
176
     1
 74
     1
176
     1
 91
        4
176
     1
 64
     7
176
     1
 65
   257
176
     1
 75
     1
176
     1
175
     1
176
     1
 42
1.0
176
     1
 92
        8
176
     1
 66
     8
424
  8421504
176
     1
 43
1.0
176
     1
 76
     1
176
     1
 77
     6
176
     1
 78
     2
176
     1
 67
     7
176
     1
 79
     5
176
     1
170
     0
176
     1
171
     0
176
     1
290
     0
176
     1
 93
        1
176
     1
 44
0.0
176
     1
173
     0
176
     1
  0
VISUALSTYLE
  5
34
102
{ACAD_REACTORS
330
2A
102
}
330
2A
100
AcDbVisualStyle
  2
Conceptual
 70
     9
177
     2
291
     0
 71
     3
176
     1
 72
     2
176
     1
 73
     0
176
     1
 90
        0
176
     1
 40
-0.6
176
     1
 41
-30.0
176
     1
 62
     5
 63
     7
421
 16777215
176
     1
 74
     2
176
     1
 91
        2
176
     1
 64
     7
176
     1
 65
   257
176
     1
 75
     1
176
     1
175
     1
176
     1
 42
40.0
176
     1
 92
        8
176
     1
 66
     7
176
     1
 43
1.0
176
     1
 76
     1
176
     1
 77
     6
176
     1
 78
     2
176
     1
 67
     7
176
     1
 79
     3
176
     1
170
     0
176
     1
171
     0
176
     1
290
     0
176
     1
 93
        1
176
     1
 44
0.0
176
     1
173
     0
176
     1
  0
VISUALSTYLE
  5
35
102
{ACAD_REACTORS
330
2A
102
}
330
2A
100
AcDbVisualStyle
  2
Dim
 70
    11
177
     2
291
     1
 71
     2
176
     1
 72
     2
176
     1
 73
     0
176
     1
 90
        0
176
     1
 40
-0.6
176
     1
 41
-30.0
176
     1
 62
     5
 63
     7
421
 16777215
176
     1
 74
     1
176
     1
 91
        4
176
     1
 64
     7
176
     1
 65
   257
176
     1
 75
     1
176
     1
175
     1
176
     1
 42
1.0
176
     1
 92
        8
176
     1
 66
     7
176
     1
 43
1.0
176
     1
 76
     1
176
     1
 77
     6
176
     1
 78
     2
176
     1
 67
     7
176
     1
 79
     5
176
     1
170
     0
176
     1
171
     0
176
     1
290
     0
176
     1
 93
        1
176
     1
 44
-50.0
176
     1
173
     0
176
     1
  0
VISUALSTYLE
  5
39
102
{ACAD_REACTORS
330
2A
102
}
330
2A
100
AcDbVisualStyle
  2
Facepattern
 70
    15
177
     2
291
     1
 71
     2
176
     1
 72
     2
176
     1
 73
     0
176
     1
 90
        0
176
     1
 40
-0.6
176
     1
 41
-30.0
176
     1
 62
     5
 63
     7
421
 16777215
176
     1
 74
     1
176
     1
 91
        4
176
     1
 64
     7
176
     1
 65
   257
176
     1
 75
     1
176
     1
175
     1
176
     1
 42
1.0
176
     1
 92
        8
176
     1
 66
     7
176
     1
 43
1.0
176
     1
 76
     1
176
     1
 77
     6
176
     1
 78
     2
176
     1
 67
     7
176
     1
 79
     5
176
     1
170
     0
176
     1
171
     0
176
     1
290
     0
176
     1
 93
        1
176
     1
 44
0.0
176
     1
173
     0
176
     1
  0
VISUALSTYLE
  5
2B
102
{ACAD_REACTORS
330
2A
102
}
330
2A
100
AcDbVisualStyle
  2
Flat
 70
     0
177
     2
291
     1
 71
     2
176
     1
 72
     1
176
     1
 73
     1
176
     1
 90
        2
176
     1
 40
-0.6
176
     1
 41
30.0
176
     1
 62
     5
 63
     7
421
 16777215
176
     1
 74
     0
176
     1
 91
        4
176
     1
 64
     7
176
     1
 65
   257
176
     1
 75
     1
176
     1
175
     1
176
     1
 42
1.0
176
     1
 92
        8
176
     1
 66
     7
176
     1
 43
1.0
176
     1
 76
     1
176
     1
 77
     6
176
     1
 78
     2
176
     1
 67
     7
176
     1
 79
     5
176
     1
170
     0
176
     1
171
     0
176
     1
290
     0
176
     1
 93
       13
176
     1
 44
0.0
176
     1
173
     0
176
     1
  0
VISUALSTYLE
  5
2C
102
{ACAD_REACTORS
330
2A
102
}
330
2A
100
AcDbVisualStyle
  2
FlatWithEdges
 70
     1
177
     2
291
     1
 71
     2
176
     1
 72
     1
176
     1
 73
     1
176
     1
 90
        2
176
     1
 40
-0.6
176
     1
 41
30.0
176
     1
 62
     5
 63
     7
421
 16777215
176
     1
 74
     1
176
     1
 91
        4
176
     1
 64
     7
176
     1
 65
   257
176
     1
 75
     1
176
     1
175
     1
176
     1
 42
1.0
176
     1
 92
        0
176
     1
 66
   257
176
     1
 43
1.0
176
     1
 76
     1
176
     1
 77
     6
176
     1
 78
     2
176
     1
 67
     7
176
     1
 79
     5
176
     1
170
     0
176
     1
171
     0
176
     1
290
     0
176
     1
 93
       13
176
     1
 44
0.0
176
     1
173
     0
176
     1
  0
VISUALSTYLE
  5
2D
102
{ACAD_REACTORS
330
2A
102
}
330
2A
100
AcDbVisualStyle
  2
Gouraud
 70
     2
177
     2
291
     1
 71
     2
176
     1
 72
     2
176
     1
 73
     1
176
     1
 90
        2
176
     1
 40
-0.6
176
     1
 41
30.0
176
     1
 62
     5
 63
     7
421
 16777215
176
     1
 74
     0
176
     1
 91
        4
176
     1
 64
     7
176
     1
 65
   257
176
     1
 75
     1
176
     1
175
     1
176
     1
 42
1.0
176
     1
 92
        0
176
     1
 66
     7
176
     1
 43
1.0
176
     1
 76
     1
176
     1
 77
     6
176
     1
 78
     2
176
     1
 67
     7
176
     1
 79
     5
176
     1
170
     0
176
     1
171
     0
176
     1
290
     0
176
     1
 93
       13
176
     1
 44
0.0
176
     1
173
     0
176
     1
  0
VISUALSTYLE
  5
2E
102
{ACAD_REACTORS
330
2A
102
}
330
2A
100
AcDbVisualStyle
  2
GouraudWithEdges
 70
     3
177
     2
291
     1
 71
     2
176
     1
 72
     2
176
     1
 73
     1
176
     1
 90
        2
176
     1
 40
-0.6
176
     1
 41
30.0
176
     1
 62
     5
 63
     7
421
 16777215
176
     1
 74
     1
176
     1
 91
        4
176
     1
 64
     7
176
     1
 65
   257
176
     1
 75
     1
176
     1
175
     1
176
     1
 42
1.0
176
     1
 92
        0
176
     1
 66
   257
176
     1
 43
1.0
176
     1
 76
     1
176
     1
 77
     6
176
     1
 78
     2
176
     1
 67
     7
176
     1
 79
     5
176
     1
170
     0
176
     1
171
     0
176
     1
290
     0
176
     1
 93
       13
176
     1
 44
0.0
176
     1
173
     0
176
     1
  0
VISUALSTYLE
  5
38
102
{ACAD_REACTORS
330
2A
102
}
330
2A
100
AcDbVisualStyle
  2
Linepattern
 70
    14
177
     2
291
     1
 71
     2
176
     1
 72
     2
176
     1
 73
     0
176
     1
 90
        0
176
     1
 40
-0.6
176
     1
 41
-30.0
176
     1
 62
     5
 63
     7
421
 16777215
176
     1
 74
     1
176
     1
 91
        4
176
     1
 64
     7
176
     1
 65
   257
176
     1
 75
     7
176
     1
175
     7
176
     1
 42
1.0
176
     1
 92
        8
176
     1
 66
     7
176
     1
 43
1.0
176
     1
 76
     1
176
     1
 77
     6
176
     1
 78
     2
176
     1
 67
     7
176
     1
 79
     5
176
     1
170
     0
176
     1
171
     0
176
     1
290
     0
176
     1
 93
        1
176
     1
 44
0.0
176
     1
173
     0
176
     1
  0
VISUALSTYLE
  5
33
102
{ACAD_REACTORS
330
2A
102
}
330
2A
100
AcDbVisualStyle
  2
Realistic
 70
     8
177
     2
291
     0
 71
     2
176
     1
 72
     2
176
     1
 73
     0
176
     1
 90
        0
176
     1
 40
-0.6
176
     1
 41
-30.0
176
     1
 62
     5
 63
     7
421
 16777215
176
     1
 74
     1
176
     1
 91
        0
176
     1
 64
     7
176
     1
 65
   257
176
     1
 75
     1
176
     1
175
     1
176
     1
 42
1.0
176
     1
 92
        8
176
     1
 66
     8
424
  7895160
176
     1
 43
1.0
176
     1
 76
     1
176
     1
 77
     6
176
     1
 78
     2
176
     1
 67
     7
176
     1
 79
     5
176
     1
170
     0
176
     1
171
     0
176
     1
290
     0
176
     1
 93
       13
176
     1
 44
0.0
176
     1
173
     0
176
     1
  0
VISUALSTYLE
  5
37
102
{ACAD_REACTORS
330
2A
102
}
330
2A
100
AcDbVisualStyle
  2
Thicken
 70
    13
177
     2
291
     1
 71
     2
176
     1
 72
     2
176
     1
 73
     0
176
     1
 90
        0
176
     1
 40
-0.6
176
     1
 41
-30.0
176
     1
 62
     5
 63
     7
421
 16777215
176
     1
 74
     1
176
     1
 91
        4
176
     1
 64
     7
176
     1
 65
   257
176
     1
 75
     1
176
     1
175
     1
176
     1
 42
1.0
176
     1
 92
       12
176
     1
 66
     7
176
     1
 43
1.0
176
     1
 76
     1
176
     1
 77
     6
176
     1
 78
     2
176
     1
 67
     7
176
     1
 79
     5
176
     1
170
     0
176
     1
171
     0
176
     1
290
     0
176
     1
 93
        1
176
     1
 44
0.0
176
     1
173
     0
176
     1
  0
ENDSEC
  0
EOF
